  0
SECTION
  2
HEADER
  9
$ACADVER
  1
AC1024
  9
$ACADMAINTVER
 70
     6
  9
$DWGCODEPAGE
  3
ANSI_1252
  9
$INSBASE
 10
0.0
 20
0.0
 30
0.0
  9
$EXTMIN
 10
1.000000000000000E+20
 20
1.000000000000000E+20
 30
1.000000000000000E+20
  9
$EXTMAX
 10
-1.000000000000000E+20
 20
-1.000000000000000E+20
 30
-1.000000000000000E+20
  9
$LIMMIN
 10
0.0
 20
0.0
  9
$LIMMAX
 10
12.0
 20
9.0
  9
$ORTHOMODE
 70
     0
  9
$REGENMODE
 70
     1
  9
$FILLMODE
 70
     1
  9
$QTEXTMODE
 70
     0
  9
$MIRRTEXT
 70
     1
  9
$LTSCALE
 40
1.0
  9
$ATTMODE
 70
     1
  9
$TEXTSIZE
 40
0.2
  9
$TRACEWID
 40
0.05
  9
$TEXTSTYLE
  7
Standard
  9
$CLAYER
  8
0
  9
$CELTYPE
  6
ByLayer
  9
$CECOLOR
 62
   256
  9
$CELTSCALE
 40
1.0
  9
$DISPSILH
 70
     0
  9
$DIMSCALE
 40
1.0
  9
$DIMASZ
 40
0.18
  9
$DIMEXO
 40
0.0625
  9
$DIMDLI
 40
0.38
  9
$DIMRND
 40
0.0
  9
$DIMDLE
 40
0.0
  9
$DIMEXE
 40
0.18
  9
$DIMTP
 40
0.0
  9
$DIMTM
 40
0.0
  9
$DIMTXT
 40
0.18
  9
$DIMCEN
 40
0.09
  9
$DIMTSZ
 40
0.0
  9
$DIMTOL
 70
     0
  9
$DIMLIM
 70
     0
  9
$DIMTIH
 70
     1
  9
$DIMTOH
 70
     1
  9
$DIMSE1
 70
     0
  9
$DIMSE2
 70
     0
  9
$DIMTAD
 70
     0
  9
$DIMZIN
 70
     0
  9
$DIMBLK
  1

  9
$DIMASO
 70
     1
  9
$DIMSHO
 70
     1
  9
$DIMPOST
  1

  9
$DIMAPOST
  1

  9
$DIMALT
 70
     0
  9
$DIMALTD
 70
     2
  9
$DIMALTF
 40
25.4
  9
$DIMLFAC
 40
1.0
  9
$DIMTOFL
 70
     0
  9
$DIMTVP
 40
0.0
  9
$DIMTIX
 70
     0
  9
$DIMSOXD
 70
     0
  9
$DIMSAH
 70
     0
  9
$DIMBLK1
  1

  9
$DIMBLK2
  1

  9
$DIMSTYLE
  2
Standard
  9
$DIMCLRD
 70
     0
  9
$DIMCLRE
 70
     0
  9
$DIMCLRT
 70
     0
  9
$DIMTFAC
 40
1.0
  9
$DIMGAP
 40
0.09
  9
$DIMJUST
 70
     0
  9
$DIMSD1
 70
     0
  9
$DIMSD2
 70
     0
  9
$DIMTOLJ
 70
     1
  9
$DIMTZIN
 70
     0
  9
$DIMALTZ
 70
     0
  9
$DIMALTTZ
 70
     0
  9
$DIMUPT
 70
     0
  9
$DIMDEC
 70
     4
  9
$DIMTDEC
 70
     4
  9
$DIMALTU
 70
     2
  9
$DIMALTTD
 70
     2
  9
$DIMTXSTY
  7
Standard
  9
$DIMAUNIT
 70
     0
  9
$DIMADEC
 70
     0
  9
$DIMALTRND
 40
0.0
  9
$DIMAZIN
 70
     0
  9
$DIMDSEP
 70
    46
  9
$DIMATFIT
 70
     3
  9
$DIMFRAC
 70
     0
  9
$DIMLDRBLK
  1

  9
$DIMLUNIT
 70
     2
  9
$DIMLWD
 70
    -2
  9
$DIMLWE
 70
    -2
  9
$DIMTMOVE
 70
     0
  9
$DIMFXL
 40
1.0
  9
$DIMFXLON
 70
     0
  9
$DIMJOGANG
 40
0.7853981633974483
  9
$DIMTFILL
 70
     0
  9
$DIMTFILLCLR
 70
     0
  9
$DIMARCSYM
 70
     0
  9
$DIMLTYPE
  6

  9
$DIMLTEX1
  6

  9
$DIMLTEX2
  6

  9
$DIMTXTDIRECTION
 70
     0
  9
$LUNITS
 70
     2
  9
$LUPREC
 70
     4
  9
$SKETCHINC
 40
0.1
  9
$FILLETRAD
 40
0.5
  9
$AUNITS
 70
     0
  9
$AUPREC
 70
     0
  9
$MENU
  1
.
  9
$ELEVATION
 40
0.0
  9
$PELEVATION
 40
0.0
  9
$THICKNESS
 40
0.0
  9
$LIMCHECK
 70
     0
  9
$CHAMFERA
 40
0.5
  9
$CHAMFERB
 40
0.5
  9
$CHAMFERC
 40
1.0
  9
$CHAMFERD
 40
0.0
  9
$SKPOLY
 70
     0
  9
$TDCREATE
 40
2458850.465472442
  9
$TDUCREATE
 40
2458849.923805776
  9
$TDUPDATE
 40
2458850.465472581
  9
$TDUUPDATE
 40
2458849.923805914
  9
$TDINDWG
 40
0.0000000116
  9
$TDUSRTIMER
 40
0.0000000116
  9
$USRTIMER
 70
     1
  9
$ANGBASE
 50
0.0
  9
$ANGDIR
 70
     0
  9
$PDMODE
 70
     0
  9
$PDSIZE
 40
0.0
  9
$PLINEWID
 40
0.0
  9
$SPLFRAME
 70
     0
  9
$SPLINETYPE
 70
     6
  9
$SPLINESEGS
 70
     8
  9
$HANDSEED
  5
228
  9
$SURFTAB1
 70
     6
  9
$SURFTAB2
 70
     6
  9
$SURFTYPE
 70
     6
  9
$SURFU
 70
     6
  9
$SURFV
 70
     6
  9
$UCSBASE
  2

  9
$UCSNAME
  2

  9
$UCSORG
 10
0.0
 20
0.0
 30
0.0
  9
$UCSXDIR
 10
1.0
 20
0.0
 30
0.0
  9
$UCSYDIR
 10
0.0
 20
1.0
 30
0.0
  9
$UCSORTHOREF
  2

  9
$UCSORTHOVIEW
 70
     0
  9
$UCSORGTOP
 10
0.0
 20
0.0
 30
0.0
  9
$UCSORGBOTTOM
 10
0.0
 20
0.0
 30
0.0
  9
$UCSORGLEFT
 10
0.0
 20
0.0
 30
0.0
  9
$UCSORGRIGHT
 10
0.0
 20
0.0
 30
0.0
  9
$UCSORGFRONT
 10
0.0
 20
0.0
 30
0.0
  9
$UCSORGBACK
 10
0.0
 20
0.0
 30
0.0
  9
$PUCSBASE
  2

  9
$PUCSNAME
  2

  9
$PUCSORG
 10
0.0
 20
0.0
 30
0.0
  9
$PUCSXDIR
 10
1.0
 20
0.0
 30
0.0
  9
$PUCSYDIR
 10
0.0
 20
1.0
 30
0.0
  9
$PUCSORTHOREF
  2

  9
$PUCSORTHOVIEW
 70
     0
  9
$PUCSORGTOP
 10
0.0
 20
0.0
 30
0.0
  9
$PUCSORGBOTTOM
 10
0.0
 20
0.0
 30
0.0
  9
$PUCSORGLEFT
 10
0.0
 20
0.0
 30
0.0
  9
$PUCSORGRIGHT
 10
0.0
 20
0.0
 30
0.0
  9
$PUCSORGFRONT
 10
0.0
 20
0.0
 30
0.0
  9
$PUCSORGBACK
 10
0.0
 20
0.0
 30
0.0
  9
$USERI1
 70
     0
  9
$USERI2
 70
     0
  9
$USERI3
 70
     0
  9
$USERI4
 70
     0
  9
$USERI5
 70
     0
  9
$USERR1
 40
0.0
  9
$USERR2
 40
0.0
  9
$USERR3
 40
0.0
  9
$USERR4
 40
0.0
  9
$USERR5
 40
0.0
  9
$WORLDVIEW
 70
     1
  9
$SHADEDGE
 70
     3
  9
$SHADEDIF
 70
    70
  9
$TILEMODE
 70
     1
  9
$MAXACTVP
 70
    64
  9
$PINSBASE
 10
0.0
 20
0.0
 30
0.0
  9
$PLIMCHECK
 70
     0
  9
$PEXTMIN
 10
1.000000000000000E+20
 20
1.000000000000000E+20
 30
1.000000000000000E+20
  9
$PEXTMAX
 10
-1.000000000000000E+20
 20
-1.000000000000000E+20
 30
-1.000000000000000E+20
  9
$PLIMMIN
 10
0.0
 20
0.0
  9
$PLIMMAX
 10
12.0
 20
9.0
  9
$UNITMODE
 70
     0
  9
$VISRETAIN
 70
     1
  9
$PLINEGEN
 70
     0
  9
$PSLTSCALE
 70
     1
  9
$TREEDEPTH
 70
  3020
  9
$CMLSTYLE
  2
Standard
  9
$CMLJUST
 70
     0
  9
$CMLSCALE
 40
1.0
  9
$PROXYGRAPHICS
 70
     1
  9
$MEASUREMENT
 70
     0
  9
$CELWEIGHT
370
    -1
  9
$ENDCAPS
280
     0
  9
$JOINSTYLE
280
     0
  9
$LWDISPLAY
290
     1
  9
$INSUNITS
 70
     1
  9
$HYPERLINKBASE
  1

  9
$STYLESHEET
  1

  9
$XEDIT
290
     1
  9
$CEPSNTYPE
380
     0
  9
$PSTYLEMODE
290
     1
  9
$FINGERPRINTGUID
  2
{7CB6E56F-15D8-46C2-8BBD-9F0DDE05BBCF}
  9
$VERSIONGUID
  2
{FAEB1C32-E019-11D5-929B-00C0DF256EC4}
  9
$EXTNAMES
290
     1
  9
$PSVPSCALE
 40
0.0
  9
$OLESTARTUP
290
     0
  9
$SORTENTS
280
   127
  9
$INDEXCTL
280
     0
  9
$HIDETEXT
280
     1
  9
$XCLIPFRAME
280
     2
  9
$HALOGAP
280
     0
  9
$OBSCOLOR
 70
   257
  9
$OBSLTYPE
280
     0
  9
$INTERSECTIONDISPLAY
280
     0
  9
$INTERSECTIONCOLOR
 70
   257
  9
$DIMASSOC
280
     2
  9
$PROJECTNAME
  1

  9
$CAMERADISPLAY
290
     0
  9
$LENSLENGTH
 40
50.0
  9
$CAMERAHEIGHT
 40
0.0
  9
$STEPSPERSEC
 40
2.0
  9
$STEPSIZE
 40
6.0
  9
$3DDWFPREC
 40
2.0
  9
$PSOLWIDTH
 40
0.25
  9
$PSOLHEIGHT
 40
4.0
  9
$LOFTANG1
 40
1.570796326794897
  9
$LOFTANG2
 40
1.570796326794897
  9
$LOFTMAG1
 40
0.0
  9
$LOFTMAG2
 40
0.0
  9
$LOFTPARAM
 70
     7
  9
$LOFTNORMALS
280
     1
  9
$LATITUDE
 40
37.795
  9
$LONGITUDE
 40
-122.394
  9
$NORTHDIRECTION
 40
0.0
  9
$TIMEZONE
 70
 -8000
  9
$LIGHTGLYPHDISPLAY
280
     1
  9
$TILEMODELIGHTSYNCH
280
     1
  9
$CMATERIAL
347
3C
  9
$SOLIDHIST
280
     1
  9
$SHOWHIST
280
     1
  9
$DWFFRAME
280
     2
  9
$DGNFRAME
280
     2
  9
$REALWORLDSCALE
290
     1
  9
$INTERFERECOLOR
 62
   256
  9
$CSHADOW
280
     0
  9
$SHADOWPLANELOCATION
 40
0.0
  0
ENDSEC
  0
SECTION
  2
CLASSES
  0
CLASS
  1
ACDBDICTIONARYWDFLT
  2
AcDbDictionaryWithDefault
  3
ObjectDBX Classes
 90
        0
 91
        4
280
     0
281
     0
  0
CLASS
  1
VISUALSTYLE
  2
AcDbVisualStyle
  3
ObjectDBX Classes
 90
     4095
 91
        4
280
     0
281
     0
  0
CLASS
  1
MATERIAL
  2
AcDbMaterial
  3
ObjectDBX Classes
 90
     1153
 91
        4
280
     0
281
     0
  0
CLASS
  1
SUN
  2
AcDbSun
  3
SCENEOE
 90
     1024
 91
        4
280
     0
281
     0
  0
ENDSEC
  0
SECTION
  2
TABLES
  0
TABLE
  2
VPORT
  5
8
330
0
100
AcDbSymbolTable
 70
     1
  0
VPORT
  5
29
330
8
100
AcDbSymbolTableRecord
100
AcDbViewportTableRecord
  2
*Active
 70
     0
 10
0.0
 20
0.0
 11
1.0
 21
1.0
 12
0.0
 22
0.0
 13
0.0
 23
0.0
 14
0.5
 24
0.5
 15
0.5
 25
0.5
 16
0.0
 26
0.0
 36
1.0
 17
2.771804096645003
 27
3.421574219119325
 37
0.0
 40
11.69291338582678
 41
0.7070707070707057
 42
50.0
 43
0.0
 44
0.0
 50
0.0
 51
0.0
 71
     0
 72
   100
 73
     1
 74
     3
 75
     0
 76
     0
 77
     0
 78
     0
281
     0
 65
     1
110
0.0
120
0.0
130
0.0
111
1.0
121
0.0
131
0.0
112
0.0
122
1.0
132
0.0
 79
     0
146
0.0
 60
     3
 61
     5
292
     1
282
     1
141
0.0
142
0.0
 63
   250
361
3F
  0
ENDTAB
  0
TABLE
  2
LTYPE
  5
5
330
0
100
AcDbSymbolTable
 70
     1
  0
LTYPE
  5
14
330
5
100
AcDbSymbolTableRecord
100
AcDbLinetypeTableRecord
  2
ByBlock
 70
     0
  3

 72
    65
 73
     0
 40
0.0
  0
LTYPE
  5
15
330
5
100
AcDbSymbolTableRecord
100
AcDbLinetypeTableRecord
  2
ByLayer
 70
     0
  3

 72
    65
 73
     0
 40
0.0
  0
LTYPE
  5
16
330
5
100
AcDbSymbolTableRecord
100
AcDbLinetypeTableRecord
  2
Continuous
 70
     0
  3
Solid line
 72
    65
 73
     0
 40
0.0
  0
ENDTAB
  0
TABLE
  2
LAYER
  5
2
330
0
100
AcDbSymbolTable
 70
     3
  0
LAYER
  5
10
330
2
100
AcDbSymbolTableRecord
100
AcDbLayerTableRecord
  2
0
 70
     0
 62
     7
  6
Continuous
370
    -3
390
F
347
3E
  0
LAYER
  5
40
330
2
100
AcDbSymbolTableRecord
100
AcDbLayerTableRecord
  2
Layer 1
 70
     0
 62
     7
  6
Continuous
370
    -3
390
F
347
3E
  0
LAYER
  5
148
330
2
100
AcDbSymbolTableRecord
100
AcDbLayerTableRecord
  2
callout
 70
     0
 62
     7
  6
Continuous
370
    -3
390
F
347
3E
  0
ENDTAB
  0
TABLE
  2
STYLE
  5
3
330
0
100
AcDbSymbolTable
 70
     1
  0
STYLE
  5
11
330
3
100
AcDbSymbolTableRecord
100
AcDbTextStyleTableRecord
  2
Standard
 70
     0
 40
0.0
 41
1.0
 50
0.0
 71
     0
 42
0.2
  3
txt
  4

  0
ENDTAB
  0
TABLE
  2
VIEW
  5
6
330
0
100
AcDbSymbolTable
 70
     0
  0
ENDTAB
  0
TABLE
  2
UCS
  5
7
330
0
100
AcDbSymbolTable
 70
     0
  0
ENDTAB
  0
TABLE
  2
APPID
  5
9
330
0
100
AcDbSymbolTable
 70
     1
  0
APPID
  5
12
330
9
100
AcDbSymbolTableRecord
100
AcDbRegAppTableRecord
  2
ACAD
 70
     0
  0
ENDTAB
  0
TABLE
  2
DIMSTYLE
  5
A
330
0
100
AcDbSymbolTable
 70
     1
100
AcDbDimStyleTable
  0
DIMSTYLE
105
27
330
A
100
AcDbSymbolTableRecord
100
AcDbDimStyleTableRecord
  2
Standard
 70
     0
178
     0
340
11
  0
ENDTAB
  0
TABLE
  2
BLOCK_RECORD
  5
1
330
0
100
AcDbSymbolTable
 70
     6
  0
BLOCK_RECORD
  5
1F
330
1
100
AcDbSymbolTableRecord
100
AcDbBlockTableRecord
  2
*Model_Space
340
22
 70
     0
280
     1
281
     0
  0
BLOCK_RECORD
  5
1B
330
1
100
AcDbSymbolTableRecord
100
AcDbBlockTableRecord
  2
*Paper_Space
340
1E
 70
     0
280
     1
281
     0
  0
BLOCK_RECORD
  5
23
330
1
100
AcDbSymbolTableRecord
100
AcDbBlockTableRecord
  2
*Paper_Space0
340
26
 70
     0
280
     1
281
     0
  0
BLOCK_RECORD
  5
115
330
1
100
AcDbSymbolTableRecord
100
AcDbBlockTableRecord
  2
block 2
340
0
102
{BLKREFS
331
116
102
}
 70
     0
280
     1
281
     0
  0
BLOCK_RECORD
  5
19B
330
1
100
AcDbSymbolTableRecord
100
AcDbBlockTableRecord
  2
block 3
340
0
102
{BLKREFS
331
19C
102
}
 70
     0
280
     1
281
     0
  0
BLOCK_RECORD
  5
1B1
330
1
100
AcDbSymbolTableRecord
100
AcDbBlockTableRecord
  2
block 4
340
0
102
{BLKREFS
331
1B2
102
}
 70
     0
280
     1
281
     0
  0
BLOCK_RECORD
  5
1F6
330
1
100
AcDbSymbolTableRecord
100
AcDbBlockTableRecord
  2
block 5
340
0
102
{BLKREFS
331
1F7
102
}
 70
     0
280
     1
281
     0
  0
BLOCK_RECORD
  5
20A
330
1
100
AcDbSymbolTableRecord
100
AcDbBlockTableRecord
  2
block 6
340
0
102
{BLKREFS
331
20B
102
}
 70
     0
280
     1
281
     0
  0
ENDTAB
  0
ENDSEC
  0
SECTION
  2
BLOCKS
  0
BLOCK
  5
20
330
1F
100
AcDbEntity
  8
0
100
AcDbBlockBegin
  2
*Model_Space
 70
     0
 10
0.0
 20
0.0
 30
0.0
  3
*Model_Space
  1

  0
ENDBLK
  5
21
330
1F
100
AcDbEntity
  8
0
100
AcDbBlockEnd
  0
BLOCK
  5
1C
330
1B
100
AcDbEntity
 67
     1
  8
0
100
AcDbBlockBegin
  2
*Paper_Space
 70
     0
 10
0.0
 20
0.0
 30
0.0
  3
*Paper_Space
  1

  0
ENDBLK
  5
1D
330
1B
100
AcDbEntity
 67
     1
  8
0
100
AcDbBlockEnd
  0
BLOCK
  5
24
330
23
100
AcDbEntity
  8
0
100
AcDbBlockBegin
  2
*Paper_Space0
 70
     0
 10
0.0
 20
0.0
 30
0.0
  3
*Paper_Space0
  1

  0
ENDBLK
  5
25
330
23
100
AcDbEntity
  8
0
100
AcDbBlockEnd
  0
BLOCK
  5
117
330
115
100
AcDbEntity
  8
0
100
AcDbBlockBegin
  2
block 2
 70
     0
 10
0.0
 20
0.0
 30
0.0
  3
block 2
  1

  0
SPLINE
  5
119
330
115
100
AcDbEntity
  8
Layer 1
 62
   250
420
  2301728
370
    18
100
AcDbSpline
210
0.0
220
0.0
230
1.0
 70
    11
 71
     3
 72
    47
 73
    43
 74
     0
 42
0.0000000001
 43
0.0000000001
 12
1.0
 22
0.0
 32
0.0
 13
1.0
 23
0.0
 33
0.0
 40
0.0
 40
0.0
 40
0.0
 40
0.0
 40
1.0
 40
1.0
 40
1.0
 40
2.0
 40
2.0
 40
2.0
 40
3.0
 40
3.0
 40
3.0
 40
4.0
 40
4.0
 40
4.0
 40
5.0
 40
5.0
 40
5.0
 40
6.0
 40
6.0
 40
6.0
 40
7.0
 40
7.0
 40
7.0
 40
8.0
 40
8.0
 40
8.0
 40
9.0
 40
9.0
 40
9.0
 40
10.0
 40
10.0
 40
10.0
 40
11.0
 40
11.0
 40
11.0
 40
12.0
 40
12.0
 40
12.0
 40
13.0
 40
13.0
 40
13.0
 40
14.0
 40
14.0
 40
14.0
 40
14.0
 10
2.632291483686938
 20
4.099124092893387
 30
0.0
 10
2.632623126377224
 20
4.117683376946212
 30
0.0
 10
2.644428537612473
 20
4.555643280248571
 30
0.0
 10
2.644428537612473
 20
4.555643280248571
 30
0.0
 10
2.644428537612473
 20
4.555643280248571
 30
0.0
 10
2.7000798041117
 20
4.623707663100314
 30
0.0
 10
2.7000798041117
 20
4.623707663100314
 30
0.0
 10
2.7000798041117
 20
4.623707663100314
 30
0.0
 10
2.946362828889227
 20
4.657796517653436
 30
0.0
 10
2.946362828889227
 20
4.657796517653436
 30
0.0
 10
2.946362828889227
 20
4.657796517653436
 30
0.0
 10
2.980241494419235
 20
4.645237906257421
 30
0.0
 10
2.980241494419235
 20
4.645237906257421
 30
0.0
 10
2.980241494419235
 20
4.645237906257421
 30
0.0
 10
3.038025576404405
 20
4.584479738274088
 30
0.0
 10
3.038025576404405
 20
4.584479738274088
 30
0.0
 10
3.038025576404405
 20
4.584479738274088
 30
0.0
 10
3.032195744378517
 20
4.184852204090918
 30
0.0
 10
3.032006318249614
 20
4.174251598569046
 30
0.0
 10
3.03181707300031
 20
4.163661115372784
 30
0.0
 10
3.036772581878772
 20
4.144908629070061
 30
0.0
 10
3.053832208822011
 20
4.134022576363628
 30
0.0
 10
3.070893552947508
 20
4.123113710467047
 30
0.0
 10
3.337658394340224
 20
3.965696412553989
 30
0.0
 10
3.337658394340224
 20
3.965696412553989
 30
0.0
 10
3.337658394340224
 20
3.965696412553989
 30
0.0
 10
3.338278282133539
 20
3.927147733662157
 30
0.0
 10
3.338278282133539
 20
3.927147733662157
 30
0.0
 10
3.338278282133539
 20
3.927147733662157
 30
0.0
 10
3.321852429467223
 20
3.89954253879542
 30
0.0
 10
3.321852429467223
 20
3.89954253879542
 30
0.0
 10
3.321852429467223
 20
3.89954253879542
 30
0.0
 10
3.044829248239694
 20
3.85007069534135
 30
0.0
 10
3.044829248239694
 20
3.85007069534135
 30
0.0
 10
3.044829248239694
 20
3.85007069534135
 30
0.0
 10
2.948564982358549
 20
3.877661677937617
 30
0.0
 10
2.948564982358549
 20
3.877661677937617
 30
0.0
 10
2.948564982358549
 20
3.877661677937617
 30
0.0
 10
2.668631071577642
 20
4.04934298937178
 30
0.0
 10
2.654144177893689
 20
4.0575732064259
 30
0.0
 10
2.639654572748807
 20
4.065793346374246
 30
0.0
 10
2.631959845905726
 20
4.08056508355772
 30
0.0
 10
2.632291483686938
 20
4.099124092893387
 30
0.0
  0
HATCH
  5
11A
330
115
100
AcDbEntity
  8
Layer 1
 62
     9
420
 12307926
100
AcDbHatch
 10
0.0
 20
0.0
 30
0.0
210
0.0
220
0.0
230
1.0
  2
SOLID
 70
     1
 71
     0
 91
        1
 92
        1
 93
        1
 72
     4
 94
        3
 73
     0
 74
     1
 95
       47
 96
       43
 40
0.0
 40
0.0
 40
0.0
 40
0.0
 40
1.0
 40
1.0
 40
1.0
 40
2.0
 40
2.0
 40
2.0
 40
3.0
 40
3.0
 40
3.0
 40
4.0
 40
4.0
 40
4.0
 40
5.0
 40
5.0
 40
5.0
 40
6.0
 40
6.0
 40
6.0
 40
7.0
 40
7.0
 40
7.0
 40
8.0
 40
8.0
 40
8.0
 40
9.0
 40
9.0
 40
9.0
 40
10.0
 40
10.0
 40
10.0
 40
11.0
 40
11.0
 40
11.0
 40
12.0
 40
12.0
 40
12.0
 40
13.0
 40
13.0
 40
13.0
 40
14.0
 40
14.0
 40
14.0
 40
14.0
 10
2.632291483686938
 20
4.099124092893387
 10
2.632623126377224
 20
4.117683376946212
 10
2.644428537612473
 20
4.555643280248571
 10
2.644428537612473
 20
4.555643280248571
 10
2.644428537612473
 20
4.555643280248571
 10
2.7000798041117
 20
4.623707663100314
 10
2.7000798041117
 20
4.623707663100314
 10
2.7000798041117
 20
4.623707663100314
 10
2.946362828889227
 20
4.657796517653436
 10
2.946362828889227
 20
4.657796517653436
 10
2.946362828889227
 20
4.657796517653436
 10
2.980241494419235
 20
4.645237906257421
 10
2.980241494419235
 20
4.645237906257421
 10
2.980241494419235
 20
4.645237906257421
 10
3.038025576404405
 20
4.584479738274088
 10
3.038025576404405
 20
4.584479738274088
 10
3.038025576404405
 20
4.584479738274088
 10
3.032195744378517
 20
4.184852204090918
 10
3.032006318249614
 20
4.174251598569046
 10
3.03181707300031
 20
4.163661115372784
 10
3.036772581878772
 20
4.144908629070061
 10
3.053832208822011
 20
4.134022576363628
 10
3.070893552947508
 20
4.123113710467047
 10
3.337658394340224
 20
3.965696412553989
 10
3.337658394340224
 20
3.965696412553989
 10
3.337658394340224
 20
3.965696412553989
 10
3.338278282133539
 20
3.927147733662157
 10
3.338278282133539
 20
3.927147733662157
 10
3.338278282133539
 20
3.927147733662157
 10
3.321852429467223
 20
3.89954253879542
 10
3.321852429467223
 20
3.89954253879542
 10
3.321852429467223
 20
3.89954253879542
 10
3.044829248239694
 20
3.85007069534135
 10
3.044829248239694
 20
3.85007069534135
 10
3.044829248239694
 20
3.85007069534135
 10
2.948564982358549
 20
3.877661677937617
 10
2.948564982358549
 20
3.877661677937617
 10
2.948564982358549
 20
3.877661677937617
 10
2.668631071577642
 20
4.04934298937178
 10
2.654144177893689
 20
4.0575732064259
 10
2.639654572748807
 20
4.065793346374246
 10
2.631959845905726
 20
4.08056508355772
 10
2.632291483686938
 20
4.099124092893387
 97
        0
 97
        0
 75
     2
 76
     1
 98
        0
  0
POLYLINE
  5
11B
330
115
100
AcDbEntity
  8
Layer 1
 62
   250
420
  2301728
370
     9
100
AcDb2dPolyline
 66
     1
 10
0.0
 20
0.0
 30
0.0
  0
VERTEX
  5
11C
330
11B
100
AcDbEntity
  8
Layer 1
 62
   250
420
  2301728
370
     9
100
AcDbVertex
100
AcDb2dVertex
 10
2.700231347413768
 20
4.093310515767952
 30
0.0
  0
VERTEX
  5
11D
330
11B
100
AcDbEntity
  8
Layer 1
 62
   250
420
  2301728
370
     9
100
AcDbVertex
100
AcDb2dVertex
 10
2.977392489465678
 20
4.138603370508993
 30
0.0
  0
SEQEND
  5
11E
330
11B
100
AcDbEntity
  8
Layer 1
 62
   250
420
  2301728
370
     9
  0
POLYLINE
  5
11F
330
115
100
AcDbEntity
  8
Layer 1
 62
   250
420
  2301728
370
     9
100
AcDb2dPolyline
 66
     1
 10
0.0
 20
0.0
 30
0.0
  0
VERTEX
  5
120
330
11F
100
AcDbEntity
  8
Layer 1
 62
   250
420
  2301728
370
     9
100
AcDbVertex
100
AcDb2dVertex
 10
2.733988114524019
 20
4.076774738388912
 30
0.0
  0
VERTEX
  5
121
330
11F
100
AcDbEntity
  8
Layer 1
 62
   250
420
  2301728
370
     9
100
AcDbVertex
100
AcDb2dVertex
 10
3.018834716311731
 20
4.123340242745118
 30
0.0
  0
SEQEND
  5
122
330
11F
100
AcDbEntity
  8
Layer 1
 62
   250
420
  2301728
370
     9
  0
SPLINE
  5
123
330
115
100
AcDbEntity
  8
Layer 1
 62
   250
420
  2301728
370
     9
100
AcDbSpline
210
0.0
220
0.0
230
1.0
 70
     8
 71
     3
 72
    29
 73
    25
 74
     0
 42
0.0000000001
 43
0.0000000001
 12
1.0
 22
0.0
 32
0.0
 13
1.0
 23
0.0
 33
0.0
 40
0.0
 40
0.0
 40
0.0
 40
0.0
 40
1.0
 40
1.0
 40
1.0
 40
2.0
 40
2.0
 40
2.0
 40
3.0
 40
3.0
 40
3.0
 40
4.0
 40
4.0
 40
4.0
 40
5.0
 40
5.0
 40
5.0
 40
6.0
 40
6.0
 40
6.0
 40
7.0
 40
7.0
 40
7.0
 40
8.0
 40
8.0
 40
8.0
 40
8.0
 10
3.33755970166534
 20
3.965698176129788
 30
0.0
 10
3.33755970166534
 20
3.965698176129788
 30
0.0
 10
3.319298605206414
 20
3.931577342626661
 30
0.0
 10
3.319298605206414
 20
3.931577342626661
 30
0.0
 10
3.319298605206414
 20
3.931577342626661
 30
0.0
 10
3.044461871134722
 20
3.880792870675299
 30
0.0
 10
3.044461871134722
 20
3.880792870675299
 30
0.0
 10
3.044461871134722
 20
3.880792870675299
 30
0.0
 10
2.95097038144882
 20
3.910559396192992
 30
0.0
 10
2.95097038144882
 20
3.910559396192992
 30
0.0
 10
2.95097038144882
 20
3.910559396192992
 30
0.0
 10
2.698013936802934
 20
4.064699873589461
 30
0.0
 10
2.685127986357631
 20
4.072000308150804
 30
0.0
 10
2.672244345303044
 20
4.079288319288366
 30
0.0
 10
2.660887095939908
 20
4.079491266165052
 30
0.0
 10
2.662198091672761
 20
4.121691416755488
 30
0.0
 10
2.663509037238858
 20
4.163888759928719
 30
0.0
 10
2.674388802822705
 20
4.543106591793022
 30
0.0
 10
2.674388802822705
 20
4.543106591793022
 30
0.0
 10
2.674388802822705
 20
4.543106591793022
 30
0.0
 10
2.731023105428044
 20
4.610793951106794
 30
0.0
 10
2.731023105428044
 20
4.610793951106794
 30
0.0
 10
2.731023105428044
 20
4.610793951106794
 30
0.0
 10
2.980137083796585
 20
4.644930942495218
 30
0.0
 10
2.980137083796585
 20
4.644930942495218
 30
0.0
  0
POLYLINE
  5
124
330
115
100
AcDbEntity
  8
Layer 1
 62
   250
420
  2301728
370
     9
100
AcDb2dPolyline
 66
     1
 10
0.0
 20
0.0
 30
0.0
  0
VERTEX
  5
125
330
124
100
AcDbEntity
  8
Layer 1
 62
   250
420
  2301728
370
     9
100
AcDbVertex
100
AcDb2dVertex
 10
2.64473726854438
 20
4.555637763421714
 30
0.0
  0
VERTEX
  5
126
330
124
100
AcDbEntity
  8
Layer 1
 62
   250
420
  2301728
370
     9
100
AcDbVertex
100
AcDb2dVertex
 10
2.674435887299283
 20
4.542908302045261
 30
0.0
  0
SEQEND
  5
127
330
124
100
AcDbEntity
  8
Layer 1
 62
   250
420
  2301728
370
     9
  0
POLYLINE
  5
128
330
115
100
AcDbEntity
  8
Layer 1
 62
   250
420
  2301728
370
     9
100
AcDb2dPolyline
 66
     1
 10
0.0
 20
0.0
 30
0.0
  0
VERTEX
  5
129
330
128
100
AcDbEntity
  8
Layer 1
 62
   250
420
  2301728
370
     9
100
AcDbVertex
100
AcDb2dVertex
 10
2.700173206059238
 20
4.6234098214997
 30
0.0
  0
VERTEX
  5
12A
330
128
100
AcDbEntity
  8
Layer 1
 62
   250
420
  2301728
370
     9
100
AcDbVertex
100
AcDb2dVertex
 10
2.73153121138513
 20
4.610896252710328
 30
0.0
  0
SEQEND
  5
12B
330
128
100
AcDbEntity
  8
Layer 1
 62
   250
420
  2301728
370
     9
  0
POLYLINE
  5
12C
330
115
100
AcDbEntity
  8
Layer 1
 62
   250
420
  2301728
370
     9
100
AcDb2dPolyline
 66
     1
 10
0.0
 20
0.0
 30
0.0
  0
VERTEX
  5
12D
330
12C
100
AcDbEntity
  8
Layer 1
 62
   250
420
  2301728
370
     9
100
AcDbVertex
100
AcDb2dVertex
 10
2.948416532413376
 20
3.8777121572221
 30
0.0
  0
VERTEX
  5
12E
330
12C
100
AcDbEntity
  8
Layer 1
 62
   250
420
  2301728
370
     9
100
AcDbVertex
100
AcDb2dVertex
 10
2.950758780324021
 20
3.910464453182574
 30
0.0
  0
SEQEND
  5
12F
330
12C
100
AcDbEntity
  8
Layer 1
 62
   250
420
  2301728
370
     9
  0
POLYLINE
  5
130
330
115
100
AcDbEntity
  8
Layer 1
 62
   250
420
  2301728
370
     9
100
AcDb2dPolyline
 66
     1
 10
0.0
 20
0.0
 30
0.0
  0
VERTEX
  5
131
330
130
100
AcDbEntity
  8
Layer 1
 62
   250
420
  2301728
370
     9
100
AcDbVertex
100
AcDb2dVertex
 10
3.044830152637587
 20
3.85012130697079
 30
0.0
  0
VERTEX
  5
132
330
130
100
AcDbEntity
  8
Layer 1
 62
   250
420
  2301728
370
     9
100
AcDbVertex
100
AcDb2dVertex
 10
3.044869294741526
 20
3.880785590272656
 30
0.0
  0
SEQEND
  5
133
330
130
100
AcDbEntity
  8
Layer 1
 62
   250
420
  2301728
370
     9
  0
POLYLINE
  5
134
330
115
100
AcDbEntity
  8
Layer 1
 62
   250
420
  2301728
370
     9
100
AcDb2dPolyline
 66
     1
 10
0.0
 20
0.0
 30
0.0
  0
VERTEX
  5
135
330
134
100
AcDbEntity
  8
Layer 1
 62
   250
420
  2301728
370
     9
100
AcDbVertex
100
AcDb2dVertex
 10
3.319349216834603
 20
3.931576438228818
 30
0.0
  0
VERTEX
  5
136
330
134
100
AcDbEntity
  8
Layer 1
 62
   250
420
  2301728
370
     9
100
AcDbVertex
100
AcDb2dVertex
 10
3.32175925361912
 20
3.899853033303101
 30
0.0
  0
SEQEND
  5
137
330
134
100
AcDbEntity
  8
Layer 1
 62
   250
420
  2301728
370
     9
  0
SPLINE
  5
138
330
115
100
AcDbEntity
  8
Layer 1
 62
   250
420
  2301728
370
     9
100
AcDbSpline
210
0.0
220
0.0
230
1.0
 70
    11
 71
     3
 72
    11
 73
     7
 74
     0
 42
0.0000000001
 43
0.0000000001
 12
1.0
 22
0.0
 32
0.0
 13
1.0
 23
0.0
 33
0.0
 40
0.0
 40
0.0
 40
0.0
 40
0.0
 40
1.0
 40
1.0
 40
1.0
 40
2.0
 40
2.0
 40
2.0
 40
2.0
 10
3.10680435923622
 20
4.004430785126614
 30
0.0
 10
3.158195406488074
 20
4.003512459553463
 30
0.0
 10
3.138700678831962
 20
4.030400178893627
 30
0.0
 10
3.113235438114265
 20
4.030855226669991
 30
0.0
 10
3.070974728585674
 20
4.031610398871686
 30
0.0
 10
3.068425561588861
 20
4.005116590013472
 30
0.0
 10
3.10680435923622
 20
4.004430785126614
 30
0.0
  0
HATCH
  5
139
330
115
100
AcDbEntity
  8
Layer 1
 62
   250
420
  2301728
100
AcDbHatch
 10
0.0
 20
0.0
 30
0.0
210
0.0
220
0.0
230
1.0
  2
SOLID
 70
     1
 71
     0
 91
        1
 92
        1
 93
        1
 72
     4
 94
        3
 73
     0
 74
     1
 95
       11
 96
        7
 40
0.0
 40
0.0
 40
0.0
 40
0.0
 40
1.0
 40
1.0
 40
1.0
 40
2.0
 40
2.0
 40
2.0
 40
2.0
 10
3.10680435923622
 20
4.004430785126614
 10
3.158195406488074
 20
4.003512459553463
 10
3.138700678831962
 20
4.030400178893627
 10
3.113235438114265
 20
4.030855226669991
 10
3.070974728585674
 20
4.031610398871686
 10
3.068425561588861
 20
4.005116590013472
 10
3.10680435923622
 20
4.004430785126614
 97
        0
 97
        0
 75
     2
 76
     1
 98
        0
  0
SPLINE
  5
13A
330
115
100
AcDbEntity
  8
Layer 1
 62
   250
420
  2301728
370
     9
100
AcDbSpline
210
0.0
220
0.0
230
1.0
 70
    11
 71
     3
 72
    11
 73
     7
 74
     0
 42
0.0000000001
 43
0.0000000001
 12
1.0
 22
0.0
 32
0.0
 13
1.0
 23
0.0
 33
0.0
 40
0.0
 40
0.0
 40
0.0
 40
0.0
 40
1.0
 40
1.0
 40
1.0
 40
2.0
 40
2.0
 40
2.0
 40
2.0
 10
3.046401770549639
 20
3.927022150778372
 30
0.0
 10
3.097790287220126
 20
3.926103870425107
 30
0.0
 10
3.078297854312445
 20
3.952978346932645
 30
0.0
 10
3.05283008301328
 20
3.953433439928908
 30
0.0
 10
3.010572106264843
 20
3.954188563297533
 30
0.0
 10
3.008023175048594
 20
3.92770795205302
 30
0.0
 10
3.046401770549639
 20
3.927022150778372
 30
0.0
  0
HATCH
  5
13B
330
115
100
AcDbEntity
  8
Layer 1
 62
   250
420
  2301728
100
AcDbHatch
 10
0.0
 20
0.0
 30
0.0
210
0.0
220
0.0
230
1.0
  2
SOLID
 70
     1
 71
     0
 91
        1
 92
        1
 93
        1
 72
     4
 94
        3
 73
     0
 74
     1
 95
       11
 96
        7
 40
0.0
 40
0.0
 40
0.0
 40
0.0
 40
1.0
 40
1.0
 40
1.0
 40
2.0
 40
2.0
 40
2.0
 40
2.0
 10
3.046401770549639
 20
3.927022150778372
 10
3.097790287220126
 20
3.926103870425107
 10
3.078297854312445
 20
3.952978346932645
 10
3.05283008301328
 20
3.953433439928908
 10
3.010572106264843
 20
3.954188563297533
 10
3.008023175048594
 20
3.92770795205302
 10
3.046401770549639
 20
3.927022150778372
 97
        0
 97
        0
 75
     2
 76
     1
 98
        0
  0
SPLINE
  5
13C
330
115
100
AcDbEntity
  8
Layer 1
 62
   250
420
  2301728
370
     9
100
AcDbSpline
210
0.0
220
0.0
230
1.0
 70
    11
 71
     3
 72
    11
 73
     7
 74
     0
 42
0.0000000001
 43
0.0000000001
 12
1.0
 22
0.0
 32
0.0
 13
1.0
 23
0.0
 33
0.0
 40
0.0
 40
0.0
 40
0.0
 40
0.0
 40
1.0
 40
1.0
 40
1.0
 40
2.0
 40
2.0
 40
2.0
 40
2.0
 10
2.759945305218303
 20
4.377680409137812
 30
0.0
 10
2.794950837847561
 20
4.377054882367411
 30
0.0
 10
2.792576221232619
 20
4.430309653102338
 30
0.0
 10
2.75933956500819
 20
4.43090357116801
 30
0.0
 10
2.726100378202331
 20
4.431497534453595
 30
0.0
 10
2.724952425496061
 20
4.378305709808766
 30
0.0
 10
2.759945305218303
 20
4.377680409137812
 30
0.0
  0
HATCH
  5
13D
330
115
100
AcDbEntity
  8
Layer 1
 62
   250
420
  2301728
100
AcDbHatch
 10
0.0
 20
0.0
 30
0.0
210
0.0
220
0.0
230
1.0
  2
SOLID
 70
     1
 71
     0
 91
        1
 92
        1
 93
        1
 72
     4
 94
        3
 73
     0
 74
     1
 95
       11
 96
        7
 40
0.0
 40
0.0
 40
0.0
 40
0.0
 40
1.0
 40
1.0
 40
1.0
 40
2.0
 40
2.0
 40
2.0
 40
2.0
 10
2.759945305218303
 20
4.377680409137812
 10
2.794950837847561
 20
4.377054882367411
 10
2.792576221232619
 20
4.430309653102338
 10
2.75933956500819
 20
4.43090357116801
 10
2.726100378202331
 20
4.431497534453595
 10
2.724952425496061
 20
4.378305709808766
 10
2.759945305218303
 20
4.377680409137812
 97
        0
 97
        0
 75
     2
 76
     1
 98
        0
  0
SPLINE
  5
13E
330
115
100
AcDbEntity
  8
Layer 1
 62
   250
420
  2301728
370
     9
100
AcDbSpline
210
0.0
220
0.0
230
1.0
 70
    11
 71
     3
 72
    11
 73
     7
 74
     0
 42
0.0000000001
 43
0.0000000001
 12
1.0
 22
0.0
 32
0.0
 13
1.0
 23
0.0
 33
0.0
 40
0.0
 40
0.0
 40
0.0
 40
0.0
 40
1.0
 40
1.0
 40
1.0
 40
2.0
 40
2.0
 40
2.0
 40
2.0
 10
2.939055625379473
 20
4.531061447209216
 30
0.0
 10
2.974048505101741
 20
4.530436146538275
 30
0.0
 10
2.971674270298637
 20
4.583701036008279
 30
0.0
 10
2.938437413141931
 20
4.584294957664497
 30
0.0
 10
2.905210879243112
 20
4.58488869485062
 30
0.0
 10
2.904050092750241
 20
4.53168697397963
 30
0.0
 10
2.939055625379473
 20
4.531061447209216
 30
0.0
  0
HATCH
  5
13F
330
115
100
AcDbEntity
  8
Layer 1
 62
   250
420
  2301728
100
AcDbHatch
 10
0.0
 20
0.0
 30
0.0
210
0.0
220
0.0
230
1.0
  2
SOLID
 70
     1
 71
     0
 91
        1
 92
        1
 93
        1
 72
     4
 94
        3
 73
     0
 74
     1
 95
       11
 96
        7
 40
0.0
 40
0.0
 40
0.0
 40
0.0
 40
1.0
 40
1.0
 40
1.0
 40
2.0
 40
2.0
 40
2.0
 40
2.0
 10
2.939055625379473
 20
4.531061447209216
 10
2.974048505101741
 20
4.530436146538275
 10
2.971674270298637
 20
4.583701036008279
 10
2.938437413141931
 20
4.584294957664497
 10
2.905210879243112
 20
4.58488869485062
 10
2.904050092750241
 20
4.53168697397963
 10
2.939055625379473
 20
4.531061447209216
 97
        0
 97
        0
 75
     2
 76
     1
 98
        0
  0
SPLINE
  5
140
330
115
100
AcDbEntity
  8
Layer 1
 62
   250
420
  2301728
370
     9
100
AcDbSpline
210
0.0
220
0.0
230
1.0
 70
    11
 71
     3
 72
    11
 73
     7
 74
     0
 42
0.0000000001
 43
0.0000000001
 12
1.0
 22
0.0
 32
0.0
 13
1.0
 23
0.0
 33
0.0
 40
0.0
 40
0.0
 40
0.0
 40
0.0
 40
1.0
 40
1.0
 40
1.0
 40
2.0
 40
2.0
 40
2.0
 40
2.0
 10
3.107474533287308
 20
4.013602690499637
 30
0.0
 10
3.158865580539188
 20
4.012684364926473
 30
0.0
 10
3.139370621893148
 20
4.039559157680578
 30
0.0
 10
3.113905381175401
 20
4.040014205456941
 30
0.0
 10
3.071634549321187
 20
4.040769558538196
 30
0.0
 10
3.069095735639924
 20
4.014288495386507
 30
0.0
 10
3.107474533287308
 20
4.013602690499637
 30
0.0
  0
HATCH
  5
141
330
115
100
AcDbEntity
  8
Layer 1
 62
     9
420
 12307926
100
AcDbHatch
 10
0.0
 20
0.0
 30
0.0
210
0.0
220
0.0
230
1.0
  2
SOLID
 70
     1
 71
     0
 91
        1
 92
        1
 93
        1
 72
     4
 94
        3
 73
     0
 74
     1
 95
       11
 96
        7
 40
0.0
 40
0.0
 40
0.0
 40
0.0
 40
1.0
 40
1.0
 40
1.0
 40
2.0
 40
2.0
 40
2.0
 40
2.0
 10
3.107474533287308
 20
4.013602690499637
 10
3.158865580539188
 20
4.012684364926473
 10
3.139370621893148
 20
4.039559157680578
 10
3.113905381175401
 20
4.040014205456941
 10
3.071634549321187
 20
4.040769558538196
 10
3.069095735639924
 20
4.014288495386507
 10
3.107474533287308
 20
4.013602690499637
 97
        0
 97
        0
 75
     2
 76
     1
 98
        0
  0
SPLINE
  5
142
330
115
100
AcDbEntity
  8
Layer 1
 62
   250
420
  2301728
370
     9
100
AcDbSpline
210
0.0
220
0.0
230
1.0
 70
    11
 71
     3
 72
    11
 73
     7
 74
     0
 42
0.0000000001
 43
0.0000000001
 12
1.0
 22
0.0
 32
0.0
 13
1.0
 23
0.0
 33
0.0
 40
0.0
 40
0.0
 40
0.0
 40
0.0
 40
1.0
 40
1.0
 40
1.0
 40
2.0
 40
2.0
 40
2.0
 40
2.0
 10
3.047071713658245
 20
3.936181132217674
 30
0.0
 10
3.098460230328707
 20
3.935262851864422
 30
0.0
 10
3.078968028363559
 20
3.962150252305668
 30
0.0
 10
3.053487604157352
 20
3.962605571401392
 30
0.0
 10
3.011229425210154
 20
3.963360698383199
 30
0.0
 10
3.008693118169984
 20
3.936866933492082
 30
0.0
 10
3.047071713658245
 20
3.936181132217674
 30
0.0
  0
HATCH
  5
143
330
115
100
AcDbEntity
  8
Layer 1
 62
     9
420
 12307926
100
AcDbHatch
 10
0.0
 20
0.0
 30
0.0
210
0.0
220
0.0
230
1.0
  2
SOLID
 70
     1
 71
     0
 91
        1
 92
        1
 93
        1
 72
     4
 94
        3
 73
     0
 74
     1
 95
       11
 96
        7
 40
0.0
 40
0.0
 40
0.0
 40
0.0
 40
1.0
 40
1.0
 40
1.0
 40
2.0
 40
2.0
 40
2.0
 40
2.0
 10
3.047071713658245
 20
3.936181132217674
 10
3.098460230328707
 20
3.935262851864422
 10
3.078968028363559
 20
3.962150252305668
 10
3.053487604157352
 20
3.962605571401392
 10
3.011229425210154
 20
3.963360698383199
 10
3.008693118169984
 20
3.936866933492082
 10
3.047071713658245
 20
3.936181132217674
 97
        0
 97
        0
 75
     2
 76
     1
 98
        0
  0
SPLINE
  5
144
330
115
100
AcDbEntity
  8
Layer 1
 62
   250
420
  2301728
370
     9
100
AcDbSpline
210
0.0
220
0.0
230
1.0
 70
    11
 71
     3
 72
    11
 73
     7
 74
     0
 42
0.0000000001
 43
0.0000000001
 12
1.0
 22
0.0
 32
0.0
 13
1.0
 23
0.0
 33
0.0
 40
0.0
 40
0.0
 40
0.0
 40
0.0
 40
1.0
 40
1.0
 40
1.0
 40
2.0
 40
2.0
 40
2.0
 40
2.0
 10
2.767995707536405
 20
4.373038274460214
 30
0.0
 10
2.802988587258672
 20
4.372412973789247
 30
0.0
 10
2.800614348207003
 20
4.425677863335194
 30
0.0
 10
2.767377495298875
 20
4.426271784915482
 30
0.0
 10
2.734138308493003
 20
4.426865748201067
 30
0.0
 10
2.732990174907147
 20
4.373663801230615
 30
0.0
 10
2.767995707536405
 20
4.373038274460214
 30
0.0
  0
HATCH
  5
145
330
115
100
AcDbEntity
  8
Layer 1
 62
     9
420
 12307926
100
AcDbHatch
 10
0.0
 20
0.0
 30
0.0
210
0.0
220
0.0
230
1.0
  2
SOLID
 70
     1
 71
     0
 91
        1
 92
        1
 93
        1
 72
     4
 94
        3
 73
     0
 74
     1
 95
       11
 96
        7
 40
0.0
 40
0.0
 40
0.0
 40
0.0
 40
1.0
 40
1.0
 40
1.0
 40
2.0
 40
2.0
 40
2.0
 40
2.0
 10
2.767995707536405
 20
4.373038274460214
 10
2.802988587258672
 20
4.372412973789247
 10
2.800614348207003
 20
4.425677863335194
 10
2.767377495298875
 20
4.426271784915482
 10
2.734138308493003
 20
4.426865748201067
 10
2.732990174907147
 20
4.373663801230615
 10
2.767995707536405
 20
4.373038274460214
 97
        0
 97
        0
 75
     2
 76
     1
 98
        0
  0
SPLINE
  5
146
330
115
100
AcDbEntity
  8
Layer 1
 62
   250
420
  2301728
370
     9
100
AcDbSpline
210
0.0
220
0.0
230
1.0
 70
    11
 71
     3
 72
    11
 73
     7
 74
     0
 42
0.0000000001
 43
0.0000000001
 12
1.0
 22
0.0
 32
0.0
 13
1.0
 23
0.0
 33
0.0
 40
0.0
 40
0.0
 40
0.0
 40
0.0
 40
1.0
 40
1.0
 40
1.0
 40
2.0
 40
2.0
 40
2.0
 40
2.0
 10
2.94709332957071
 20
4.526417008049647
 30
0.0
 10
2.982086209292927
 20
4.525791707378693
 30
0.0
 10
2.979712044876932
 20
4.579071783927702
 30
0.0
 10
2.946475388652465
 20
4.579665701993386
 30
0.0
 10
2.913248854753647
 20
4.580259439179498
 30
0.0
 10
2.912087796941377
 20
4.527042534820061
 30
0.0
 10
2.94709332957071
 20
4.526417008049647
 30
0.0
  0
HATCH
  5
147
330
115
100
AcDbEntity
  8
Layer 1
 62
     9
420
 12307926
100
AcDbHatch
 10
0.0
 20
0.0
 30
0.0
210
0.0
220
0.0
230
1.0
  2
SOLID
 70
     1
 71
     0
 91
        1
 92
        1
 93
        1
 72
     4
 94
        3
 73
     0
 74
     1
 95
       11
 96
        7
 40
0.0
 40
0.0
 40
0.0
 40
0.0
 40
1.0
 40
1.0
 40
1.0
 40
2.0
 40
2.0
 40
2.0
 40
2.0
 10
2.94709332957071
 20
4.526417008049647
 10
2.982086209292927
 20
4.525791707378693
 10
2.979712044876932
 20
4.579071783927702
 10
2.946475388652465
 20
4.579665701993386
 10
2.913248854753647
 20
4.580259439179498
 10
2.912087796941377
 20
4.527042534820061
 10
2.94709332957071
 20
4.526417008049647
 97
        0
 97
        0
 75
     2
 76
     1
 98
        0
  0
ENDBLK
  5
118
330
115
100
AcDbEntity
  8
0
100
AcDbBlockEnd
  0
BLOCK
  5
19D
330
19B
100
AcDbEntity
  8
0
100
AcDbBlockBegin
  2
block 3
 70
     0
 10
0.0
 20
0.0
 30
0.0
  3
block 3
  1

  0
POLYLINE
  5
19F
330
19B
100
AcDbEntity
  8
callout
 62
     7
420
 16777215
370
    25
100
AcDb2dPolyline
 66
     1
 10
0.0
 20
0.0
 30
0.0
  0
VERTEX
  5
1A0
330
19F
100
AcDbEntity
  8
callout
 62
     7
420
 16777215
370
    25
100
AcDbVertex
100
AcDb2dVertex
 10
3.446880146044325
 20
4.381373571584946
 30
0.0
  0
VERTEX
  5
1A1
330
19F
100
AcDbEntity
  8
callout
 62
     7
420
 16777215
370
    25
100
AcDbVertex
100
AcDb2dVertex
 10
3.851582333554764
 20
4.441124695909252
 30
0.0
  0
SEQEND
  5
1A2
330
19F
100
AcDbEntity
  8
callout
 62
     7
420
 16777215
370
    25
  0
POLYLINE
  5
1A3
330
19B
100
AcDbEntity
  8
callout
370
     0
100
AcDb2dPolyline
 66
     1
 10
0.0
 20
0.0
 30
0.0
  0
VERTEX
  5
1A4
330
1A3
100
AcDbEntity
  8
callout
370
     0
100
AcDbVertex
100
AcDb2dVertex
 10
3.416382298258289
 20
4.373830065291687
 30
0.0
  0
VERTEX
  5
1A5
330
1A3
100
AcDbEntity
  8
callout
370
     0
100
AcDbVertex
100
AcDb2dVertex
 10
3.518261574097702
 20
4.43042684524668
 30
0.0
  0
VERTEX
  5
1A6
330
1A3
100
AcDbEntity
  8
callout
370
     0
100
AcDbVertex
100
AcDb2dVertex
 10
3.518261574097702
 20
4.354960570496107
 30
0.0
  0
VERTEX
  5
1A7
330
1A3
100
AcDbEntity
  8
callout
370
     0
100
AcDbVertex
100
AcDb2dVertex
 10
3.416382298258289
 20
4.373830065291687
 30
0.0
  0
SEQEND
  5
1A9
330
1A3
100
AcDbEntity
  8
callout
370
     0
  0
HATCH
  5
1A8
330
19B
100
AcDbEntity
  8
callout
 62
     7
420
 16777215
100
AcDbHatch
 10
0.0
 20
0.0
 30
0.0
210
0.0
220
0.0
230
1.0
  2
SOLID
 70
     1
 71
     0
 91
        1
 92
        1
 93
        3
 72
     1
 10
3.416382298258289
 20
4.373830065291687
 11
3.518261574097702
 21
4.43042684524668
 72
     1
 10
3.518261574097702
 20
4.43042684524668
 11
3.518261574097702
 21
4.354960570496107
 72
     1
 10
3.518261574097702
 20
4.354960570496107
 11
3.416382298258289
 21
4.373830065291687
 97
        0
 75
     2
 76
     1
 98
        0
  0
POLYLINE
  5
1AA
330
19B
100
AcDbEntity
  8
callout
370
     0
100
AcDb2dPolyline
 66
     1
 10
0.0
 20
0.0
 30
0.0
  0
VERTEX
  5
1AB
330
1AA
100
AcDbEntity
  8
callout
370
     0
100
AcDbVertex
100
AcDb2dVertex
 10
3.92107739735017
 20
4.455897639575849
 30
0.0
  0
VERTEX
  5
1AC
330
1AA
100
AcDbEntity
  8
callout
370
     0
100
AcDbVertex
100
AcDb2dVertex
 10
3.819217628897074
 20
4.399298908882239
 30
0.0
  0
VERTEX
  5
1AD
330
1AA
100
AcDbEntity
  8
callout
370
     0
100
AcDbVertex
100
AcDb2dVertex
 10
3.819217628897074
 20
4.474767134371442
 30
0.0
  0
VERTEX
  5
1AE
330
1AA
100
AcDbEntity
  8
callout
370
     0
100
AcDbVertex
100
AcDb2dVertex
 10
3.92107739735017
 20
4.455897639575849
 30
0.0
  0
SEQEND
  5
1B0
330
1AA
100
AcDbEntity
  8
callout
370
     0
  0
HATCH
  5
1AF
330
19B
100
AcDbEntity
  8
callout
 62
     7
420
 16777215
100
AcDbHatch
 10
0.0
 20
0.0
 30
0.0
210
0.0
220
0.0
230
1.0
  2
SOLID
 70
     1
 71
     0
 91
        1
 92
        1
 93
        3
 72
     1
 10
3.92107739735017
 20
4.455897639575849
 11
3.819217628897074
 21
4.399298908882239
 72
     1
 10
3.819217628897074
 20
4.399298908882239
 11
3.819217628897074
 21
4.474767134371442
 72
     1
 10
3.819217628897074
 20
4.474767134371442
 11
3.92107739735017
 21
4.455897639575849
 97
        0
 75
     2
 76
     1
 98
        0
  0
ENDBLK
  5
19E
330
19B
100
AcDbEntity
  8
0
100
AcDbBlockEnd
  0
BLOCK
  5
1B3
330
1B1
100
AcDbEntity
  8
0
100
AcDbBlockBegin
  2
block 4
 70
     0
 10
0.0
 20
0.0
 30
0.0
  3
block 4
  1

  0
POLYLINE
  5
1B5
330
1B1
100
AcDbEntity
  8
callout
 62
     7
420
 16777215
370
    25
100
AcDb2dPolyline
 66
     1
 10
0.0
 20
0.0
 30
0.0
  0
VERTEX
  5
1B6
330
1B5
100
AcDbEntity
  8
callout
 62
     7
420
 16777215
370
    25
100
AcDbVertex
100
AcDb2dVertex
 10
1.606650873784323
 20
5.046507024602053
 30
0.0
  0
VERTEX
  5
1B7
330
1B5
100
AcDbEntity
  8
callout
 62
     7
420
 16777215
370
    25
100
AcDbVertex
100
AcDb2dVertex
 10
1.820488817536051
 20
4.918204993980642
 30
0.0
  0
SEQEND
  5
1B8
330
1B5
100
AcDbEntity
  8
callout
 62
     7
420
 16777215
370
    25
  0
POLYLINE
  5
1B9
330
1B1
100
AcDbEntity
  8
callout
370
     0
100
AcDb2dPolyline
 66
     1
 10
0.0
 20
0.0
 30
0.0
  0
VERTEX
  5
1BA
330
1B9
100
AcDbEntity
  8
callout
370
     0
100
AcDbVertex
100
AcDb2dVertex
 10
1.899727820802557
 20
4.871826312538208
 30
0.0
  0
VERTEX
  5
1BB
330
1B9
100
AcDbEntity
  8
callout
370
     0
100
AcDbVertex
100
AcDb2dVertex
 10
1.806650277674584
 20
4.969944434739824
 30
0.0
  0
VERTEX
  5
1BC
330
1B9
100
AcDbEntity
  8
callout
370
     0
100
AcDbVertex
100
AcDb2dVertex
 10
1.801619322740458
 20
4.882543541033442
 30
0.0
  0
VERTEX
  5
1BD
330
1B9
100
AcDbEntity
  8
callout
370
     0
100
AcDbVertex
100
AcDb2dVertex
 10
1.899727820802557
 20
4.871826312538208
 30
0.0
  0
SEQEND
  5
1BF
330
1B9
100
AcDbEntity
  8
callout
370
     0
  0
HATCH
  5
1BE
330
1B1
100
AcDbEntity
  8
callout
 62
     7
420
 16777215
100
AcDbHatch
 10
0.0
 20
0.0
 30
0.0
210
0.0
220
0.0
230
1.0
  2
SOLID
 70
     1
 71
     0
 91
        1
 92
        1
 93
        3
 72
     1
 10
1.899727820802557
 20
4.871826312538208
 11
1.806650277674584
 21
4.969944434739824
 72
     1
 10
1.806650277674584
 20
4.969944434739824
 11
1.801619322740458
 21
4.882543541033442
 72
     1
 10
1.801619322740458
 20
4.882543541033442
 11
1.899727820802557
 21
4.871826312538208
 97
        0
 75
     2
 76
     1
 98
        0
  0
ENDBLK
  5
1B4
330
1B1
100
AcDbEntity
  8
0
100
AcDbBlockEnd
  0
BLOCK
  5
1F8
330
1F6
100
AcDbEntity
  8
0
100
AcDbBlockBegin
  2
block 5
 70
     0
 10
0.0
 20
0.0
 30
0.0
  3
block 5
  1

  0
POLYLINE
  5
1FA
330
1F6
100
AcDbEntity
  8
callout
370
     0
100
AcDb2dPolyline
 66
     1
 10
0.0
 20
0.0
 30
0.0
  0
VERTEX
  5
1FB
330
1FA
100
AcDbEntity
  8
callout
370
     0
100
AcDbVertex
100
AcDb2dVertex
 10
1.692028797486222
 20
5.091228166990795
 30
0.0
  0
VERTEX
  5
1FC
330
1FA
100
AcDbEntity
  8
callout
370
     0
100
AcDbVertex
100
AcDb2dVertex
 10
1.680347774552691
 20
5.098238341341812
 30
0.0
  0
VERTEX
  5
1FD
330
1FA
100
AcDbEntity
  8
callout
370
     0
100
AcDbVertex
100
AcDb2dVertex
 10
1.680514757779658
 20
5.210291889594739
 30
0.0
  0
VERTEX
  5
1FE
330
1FA
100
AcDbEntity
  8
callout
370
     0
100
AcDbVertex
100
AcDb2dVertex
 10
1.740386827899202
 20
5.174371879379767
 30
0.0
  0
VERTEX
  5
1FF
330
1FA
100
AcDbEntity
  8
callout
370
     0
100
AcDbVertex
100
AcDb2dVertex
 10
1.740363419035614
 20
5.160952247501692
 30
0.0
  0
VERTEX
  5
200
330
1FA
100
AcDbEntity
  8
callout
370
     0
100
AcDbVertex
100
AcDb2dVertex
 10
1.692181735395025
 20
5.18986219404058
 30
0.0
  0
VERTEX
  5
201
330
1FA
100
AcDbEntity
  8
callout
370
     0
100
AcDbVertex
100
AcDb2dVertex
 10
1.692128735935322
 20
5.15552607292054
 30
0.0
  0
VERTEX
  5
202
330
1FA
100
AcDbEntity
  8
callout
370
     0
100
AcDbVertex
100
AcDb2dVertex
 10
1.7345268090461
 20
5.130083759375414
 30
0.0
  0
VERTEX
  5
203
330
1FA
100
AcDbEntity
  8
callout
370
     0
100
AcDbVertex
100
AcDb2dVertex
 10
1.734511203137054
 20
5.116664238172297
 30
0.0
  0
VERTEX
  5
204
330
1FA
100
AcDbEntity
  8
callout
370
     0
100
AcDbVertex
100
AcDb2dVertex
 10
1.692105266440624
 20
5.1421003093538
 30
0.0
  0
VERTEX
  5
205
330
1FA
100
AcDbEntity
  8
callout
370
     0
100
AcDbVertex
100
AcDb2dVertex
 10
1.692028797486222
 20
5.091228166990795
 30
0.0
  0
SEQEND
  5
206
330
1FA
100
AcDbEntity
  8
callout
370
     0
  0
HATCH
  5
207
330
1F6
100
AcDbEntity
  8
callout
 62
     7
420
 16777215
100
AcDbHatch
 10
0.0
 20
0.0
 30
0.0
210
0.0
220
0.0
230
1.0
  2
SOLID
 70
     1
 71
     0
 91
        1
 92
        1
 93
       10
 72
     1
 10
1.692028797486222
 20
5.091228166990795
 11
1.680347774552691
 21
5.098238341341812
 72
     1
 10
1.680347774552691
 20
5.098238341341812
 11
1.680514757779658
 21
5.210291889594739
 72
     1
 10
1.680514757779658
 20
5.210291889594739
 11
1.740386827899202
 21
5.174371879379767
 72
     1
 10
1.740386827899202
 20
5.174371879379767
 11
1.740363419035614
 21
5.160952247501692
 72
     1
 10
1.740363419035614
 20
5.160952247501692
 11
1.692181735395025
 21
5.18986219404058
 72
     1
 10
1.692181735395025
 20
5.18986219404058
 11
1.692128735935322
 21
5.15552607292054
 72
     1
 10
1.692128735935322
 20
5.15552607292054
 11
1.7345268090461
 21
5.130083759375414
 72
     1
 10
1.7345268090461
 20
5.130083759375414
 11
1.734511203137054
 21
5.116664238172297
 72
     1
 10
1.734511203137054
 20
5.116664238172297
 11
1.692105266440624
 21
5.1421003093538
 72
     1
 10
1.692105266440624
 20
5.1421003093538
 11
1.692028797486222
 21
5.091228166990795
 97
        0
 75
     2
 76
     1
 98
        0
  0
SPLINE
  5
208
330
1F6
100
AcDbEntity
  8
callout
370
     0
100
AcDbSpline
210
0.0
220
0.0
230
1.0
 70
    11
 71
     3
 72
    26
 73
    22
 74
     0
 42
0.0000000001
 43
0.0000000001
 12
1.0
 22
0.0
 32
0.0
 13
1.0
 23
0.0
 33
0.0
 40
0.0
 40
0.0
 40
0.0
 40
0.0
 40
1.0
 40
1.0
 40
1.0
 40
2.0
 40
2.0
 40
2.0
 40
3.0
 40
3.0
 40
3.0
 40
4.0
 40
4.0
 40
4.0
 40
5.0
 40
5.0
 40
5.0
 40
6.0
 40
6.0
 40
6.0
 40
7.0
 40
7.0
 40
7.0
 40
7.0
 10
1.777998629331516
 20
4.996000909889403
 30
0.0
 10
1.777998629331516
 20
4.996000909889403
 30
0.0
 10
1.765165890309163
 20
5.003270142330873
 30
0.0
 10
1.765165890309163
 20
5.003270142330873
 30
0.0
 10
1.765165890309163
 20
5.003270142330873
 30
0.0
 10
1.765212708036352
 20
5.081543139826408
 30
0.0
 10
1.765212708036352
 20
5.081543139826408
 30
0.0
 10
1.765212708036352
 20
5.081543139826408
 30
0.0
 10
1.742832335761351
 20
5.094215137985416
 30
0.0
 10
1.742832335761351
 20
5.094215137985416
 30
0.0
 10
1.742832335761351
 20
5.094215137985416
 30
0.0
 10
1.742840076803873
 20
5.105195455602029
 30
0.0
 10
1.742840076803873
 20
5.105195455602029
 30
0.0
 10
1.75840072873042
 20
5.097637622579378
 30
0.0
 10
1.764816317946156
 20
5.095732032346316
 30
0.0
 10
1.768649129211983
 20
5.111604911543446
 30
0.0
 10
1.768649129211983
 20
5.111604911543446
 30
0.0
 10
1.7780672953314
 20
5.106278505690979
 30
0.0
 10
1.7780672953314
 20
5.106278505690979
 30
0.0
 10
1.7780672953314
 20
5.106278505690979
 30
0.0
 10
1.777998629331516
 20
4.996000909889403
 30
0.0
 10
1.777998629331516
 20
4.996000909889403
 30
0.0
  0
HATCH
  5
209
330
1F6
100
AcDbEntity
  8
callout
 62
   250
420
  2301728
100
AcDbHatch
 10
0.0
 20
0.0
 30
0.0
210
0.0
220
0.0
230
1.0
  2
SOLID
 70
     1
 71
     0
 91
        1
 92
        1
 93
        1
 72
     4
 94
        3
 73
     0
 74
     1
 95
       26
 96
       22
 40
0.0
 40
0.0
 40
0.0
 40
0.0
 40
1.0
 40
1.0
 40
1.0
 40
2.0
 40
2.0
 40
2.0
 40
3.0
 40
3.0
 40
3.0
 40
4.0
 40
4.0
 40
4.0
 40
5.0
 40
5.0
 40
5.0
 40
6.0
 40
6.0
 40
6.0
 40
7.0
 40
7.0
 40
7.0
 40
7.0
 10
1.777998629331516
 20
4.996000909889403
 10
1.777998629331516
 20
4.996000909889403
 10
1.765165890309163
 20
5.003270142330873
 10
1.765165890309163
 20
5.003270142330873
 10
1.765165890309163
 20
5.003270142330873
 10
1.765212708036352
 20
5.081543139826408
 10
1.765212708036352
 20
5.081543139826408
 10
1.765212708036352
 20
5.081543139826408
 10
1.742832335761351
 20
5.094215137985416
 10
1.742832335761351
 20
5.094215137985416
 10
1.742832335761351
 20
5.094215137985416
 10
1.742840076803873
 20
5.105195455602029
 10
1.742840076803873
 20
5.105195455602029
 10
1.75840072873042
 20
5.097637622579378
 10
1.764816317946156
 20
5.095732032346316
 10
1.768649129211983
 20
5.111604911543446
 10
1.768649129211983
 20
5.111604911543446
 10
1.7780672953314
 20
5.106278505690979
 10
1.7780672953314
 20
5.106278505690979
 10
1.7780672953314
 20
5.106278505690979
 10
1.777998629331516
 20
4.996000909889403
 10
1.777998629331516
 20
4.996000909889403
 97
        0
 97
        0
 75
     2
 76
     1
 98
        0
  0
ENDBLK
  5
1F9
330
1F6
100
AcDbEntity
  8
0
100
AcDbBlockEnd
  0
BLOCK
  5
20C
330
20A
100
AcDbEntity
  8
0
100
AcDbBlockBegin
  2
block 6
 70
     0
 10
0.0
 20
0.0
 30
0.0
  3
block 6
  1

  0
POLYLINE
  5
20E
330
20A
100
AcDbEntity
  8
callout
370
     0
100
AcDb2dPolyline
 66
     1
 10
0.0
 20
0.0
 30
0.0
  0
VERTEX
  5
20F
330
20E
100
AcDbEntity
  8
callout
370
     0
100
AcDbVertex
100
AcDb2dVertex
 10
3.581790841570637
 20
4.509686724164276
 30
0.0
  0
VERTEX
  5
210
330
20E
100
AcDbEntity
  8
callout
370
     0
100
AcDbVertex
100
AcDb2dVertex
 10
3.565545089825819
 20
4.507416064395632
 30
0.0
  0
VERTEX
  5
211
330
20E
100
AcDbEntity
  8
callout
370
     0
100
AcDbVertex
100
AcDb2dVertex
 10
3.565911736420882
 20
4.628865930495281
 30
0.0
  0
VERTEX
  5
212
330
20E
100
AcDbEntity
  8
callout
370
     0
100
AcDbVertex
100
AcDb2dVertex
 10
3.649167700680159
 20
4.640501798606086
 30
0.0
  0
VERTEX
  5
213
330
20E
100
AcDbEntity
  8
callout
370
     0
100
AcDbVertex
100
AcDb2dVertex
 10
3.649138049452934
 20
4.625953867864167
 30
0.0
  0
VERTEX
  5
214
330
20E
100
AcDbEntity
  8
callout
370
     0
100
AcDbVertex
100
AcDb2dVertex
 10
3.582126275937121
 20
4.616588761835575
 30
0.0
  0
VERTEX
  5
215
330
20E
100
AcDbEntity
  8
callout
370
     0
100
AcDbVertex
100
AcDb2dVertex
 10
3.582004549846463
 20
4.579381153447962
 30
0.0
  0
VERTEX
  5
216
330
20E
100
AcDbEntity
  8
callout
370
     0
100
AcDbVertex
100
AcDb2dVertex
 10
3.640968450231842
 20
4.587617952251334
 30
0.0
  0
VERTEX
  5
217
330
20E
100
AcDbEntity
  8
callout
370
     0
100
AcDbVertex
100
AcDb2dVertex
 10
3.640938704831317
 20
4.573071684413864
 30
0.0
  0
VERTEX
  5
218
330
20E
100
AcDbEntity
  8
callout
370
     0
100
AcDbVertex
100
AcDb2dVertex
 10
3.581974898619238
 20
4.5648333250196
 30
0.0
  0
VERTEX
  5
219
330
20E
100
AcDbEntity
  8
callout
370
     0
100
AcDbVertex
100
AcDb2dVertex
 10
3.581790841570637
 20
4.509686724164276
 30
0.0
  0
SEQEND
  5
21A
330
20E
100
AcDbEntity
  8
callout
370
     0
  0
HATCH
  5
21B
330
20A
100
AcDbEntity
  8
callout
 62
   250
420
  2301728
100
AcDbHatch
 10
0.0
 20
0.0
 30
0.0
210
0.0
220
0.0
230
1.0
  2
SOLID
 70
     1
 71
     0
 91
        1
 92
        1
 93
       10
 72
     1
 10
3.581790841570637
 20
4.509686724164276
 11
3.565545089825819
 21
4.507416064395632
 72
     1
 10
3.565545089825819
 20
4.507416064395632
 11
3.565911736420882
 21
4.628865930495281
 72
     1
 10
3.565911736420882
 20
4.628865930495281
 11
3.649167700680159
 21
4.640501798606086
 72
     1
 10
3.649167700680159
 20
4.640501798606086
 11
3.649138049452934
 21
4.625953867864167
 72
     1
 10
3.649138049452934
 20
4.625953867864167
 11
3.582126275937121
 21
4.616588761835575
 72
     1
 10
3.582126275937121
 20
4.616588761835575
 11
3.582004549846463
 21
4.579381153447962
 72
     1
 10
3.582004549846463
 20
4.579381153447962
 11
3.640968450231842
 21
4.587617952251334
 72
     1
 10
3.640968450231842
 20
4.587617952251334
 11
3.640938704831317
 21
4.573071684413864
 72
     1
 10
3.640938704831317
 20
4.573071684413864
 11
3.581974898619238
 21
4.5648333250196
 72
     1
 10
3.581974898619238
 20
4.5648333250196
 11
3.581790841570637
 21
4.509686724164276
 97
        0
 75
     2
 76
     1
 98
        0
  0
SPLINE
  5
21C
330
20A
100
AcDbEntity
  8
callout
370
     0
100
AcDbSpline
210
0.0
220
0.0
230
1.0
 70
    11
 71
     3
 72
    47
 73
    43
 74
     0
 42
0.0000000001
 43
0.0000000001
 12
1.0
 22
0.0
 32
0.0
 13
1.0
 23
0.0
 33
0.0
 40
0.0
 40
0.0
 40
0.0
 40
0.0
 40
1.0
 40
1.0
 40
1.0
 40
2.0
 40
2.0
 40
2.0
 40
3.0
 40
3.0
 40
3.0
 40
4.0
 40
4.0
 40
4.0
 40
5.0
 40
5.0
 40
5.0
 40
6.0
 40
6.0
 40
6.0
 40
7.0
 40
7.0
 40
7.0
 40
8.0
 40
8.0
 40
8.0
 40
9.0
 40
9.0
 40
9.0
 40
10.0
 40
10.0
 40
10.0
 40
11.0
 40
11.0
 40
11.0
 40
12.0
 40
12.0
 40
12.0
 40
13.0
 40
13.0
 40
13.0
 40
14.0
 40
14.0
 40
14.0
 40
14.0
 10
3.660932995522595
 20
4.546279459734806
 30
0.0
 10
3.661054721613305
 20
4.585011765437836
 30
0.0
 10
3.689051722472034
 20
4.592806917014715
 30
0.0
 10
3.701792386630889
 20
4.594590672420597
 30
0.0
 10
3.722229885139616
 20
4.597440311415463
 30
0.0
 10
3.738597362564683
 20
4.586375721889921
 30
0.0
 10
3.738520990247959
 20
4.564216891611623
 30
0.0
 10
3.73846003056494
 20
4.542903901604518
 30
0.0
 10
3.724530196135447
 20
4.531998492351414
 30
0.0
 10
3.706912685394425
 20
4.520066214281971
 30
0.0
 10
3.706912685394425
 20
4.520066214281971
 30
0.0
 10
3.6946604861892
 20
4.511592205660867
 30
0.0
 10
3.6946604861892
 20
4.511592205660867
 30
0.0
 10
3.678550506263643
 20
4.500384041771932
 30
0.0
 10
3.675015767860916
 20
4.490583530880472
 30
0.0
 10
3.67431350195309
 20
4.485928288207029
 30
0.0
 10
3.67431350195309
 20
4.485928288207029
 30
0.0
 10
3.738307092656113
 20
4.494865792327308
 30
0.0
 10
3.738307092656113
 20
4.494865792327308
 30
0.0
 10
3.738307092656113
 20
4.494865792327308
 30
0.0
 10
3.738277441428888
 20
4.48082213304138
 30
0.0
 10
3.738277441428888
 20
4.48082213304138
 30
0.0
 10
3.738277441428888
 20
4.48082213304138
 30
0.0
 10
3.657686966437546
 20
4.469567053145561
 30
0.0
 10
3.657686966437546
 20
4.469567053145561
 30
0.0
 10
3.658601472708622
 20
4.494378887964558
 30
0.0
 10
3.669695713461401
 20
4.509123350847113
 30
0.0
 10
3.685485772251165
 20
4.520621784644605
 30
0.0
 10
3.685485772251165
 20
4.520621784644605
 30
0.0
 10
3.701091681313983
 20
4.531929826351529
 30
0.0
 10
3.701091681313983
 20
4.531929826351529
 30
0.0
 10
3.713663801655002
 20
4.540960965926198
 30
0.0
 10
3.722732395411413
 20
4.54713310296054
 30
0.0
 10
3.722793258456754
 20
4.562692194296182
 30
0.0
 10
3.722808864365813
 20
4.572164981097317
 30
0.0
 10
3.716819316467485
 20
4.583327887849956
 30
0.0
 10
3.699566983998541
 20
4.580919896081569
 30
0.0
 10
3.677286427629547
 20
4.57781119899625
 30
0.0
 10
3.67620337754061
 20
4.556696404034255
 30
0.0
 10
3.67568526135973
 20
4.548336318549281
 30
0.0
 10
3.67568526135973
 20
4.548336318549281
 30
0.0
 10
3.660932995522595
 20
4.546279459734806
 30
0.0
 10
3.660932995522595
 20
4.546279459734806
 30
0.0
  0
HATCH
  5
21D
330
20A
100
AcDbEntity
  8
callout
 62
   250
420
  2301728
100
AcDbHatch
 10
0.0
 20
0.0
 30
0.0
210
0.0
220
0.0
230
1.0
  2
SOLID
 70
     1
 71
     0
 91
        1
 92
        1
 93
        1
 72
     4
 94
        3
 73
     0
 74
     1
 95
       47
 96
       43
 40
0.0
 40
0.0
 40
0.0
 40
0.0
 40
1.0
 40
1.0
 40
1.0
 40
2.0
 40
2.0
 40
2.0
 40
3.0
 40
3.0
 40
3.0
 40
4.0
 40
4.0
 40
4.0
 40
5.0
 40
5.0
 40
5.0
 40
6.0
 40
6.0
 40
6.0
 40
7.0
 40
7.0
 40
7.0
 40
8.0
 40
8.0
 40
8.0
 40
9.0
 40
9.0
 40
9.0
 40
10.0
 40
10.0
 40
10.0
 40
11.0
 40
11.0
 40
11.0
 40
12.0
 40
12.0
 40
12.0
 40
13.0
 40
13.0
 40
13.0
 40
14.0
 40
14.0
 40
14.0
 40
14.0
 10
3.660932995522595
 20
4.546279459734806
 10
3.661054721613305
 20
4.585011765437836
 10
3.689051722472034
 20
4.592806917014715
 10
3.701792386630889
 20
4.594590672420597
 10
3.722229885139616
 20
4.597440311415463
 10
3.738597362564683
 20
4.586375721889921
 10
3.738520990247959
 20
4.564216891611623
 10
3.73846003056494
 20
4.542903901604518
 10
3.724530196135447
 20
4.531998492351414
 10
3.706912685394425
 20
4.520066214281971
 10
3.706912685394425
 20
4.520066214281971
 10
3.6946604861892
 20
4.511592205660867
 10
3.6946604861892
 20
4.511592205660867
 10
3.678550506263643
 20
4.500384041771932
 10
3.675015767860916
 20
4.490583530880472
 10
3.67431350195309
 20
4.485928288207029
 10
3.67431350195309
 20
4.485928288207029
 10
3.738307092656113
 20
4.494865792327308
 10
3.738307092656113
 20
4.494865792327308
 10
3.738307092656113
 20
4.494865792327308
 10
3.738277441428888
 20
4.48082213304138
 10
3.738277441428888
 20
4.48082213304138
 10
3.738277441428888
 20
4.48082213304138
 10
3.657686966437546
 20
4.469567053145561
 10
3.657686966437546
 20
4.469567053145561
 10
3.658601472708622
 20
4.494378887964558
 10
3.669695713461401
 20
4.509123350847113
 10
3.685485772251165
 20
4.520621784644605
 10
3.685485772251165
 20
4.520621784644605
 10
3.701091681313983
 20
4.531929826351529
 10
3.701091681313983
 20
4.531929826351529
 10
3.713663801655002
 20
4.540960965926198
 10
3.722732395411413
 20
4.54713310296054
 10
3.722793258456754
 20
4.562692194296182
 10
3.722808864365813
 20
4.572164981097317
 10
3.716819316467485
 20
4.583327887849956
 10
3.699566983998541
 20
4.580919896081569
 10
3.677286427629547
 20
4.57781119899625
 10
3.67620337754061
 20
4.556696404034255
 10
3.67568526135973
 20
4.548336318549281
 10
3.67568526135973
 20
4.548336318549281
 10
3.660932995522595
 20
4.546279459734806
 10
3.660932995522595
 20
4.546279459734806
 97
        0
 97
        0
 75
     2
 76
     1
 98
        0
  0
ENDBLK
  5
20D
330
20A
100
AcDbEntity
  8
0
100
AcDbBlockEnd
  0
ENDSEC
  0
SECTION
  2
ENTITIES
  0
POLYLINE
  5
41
330
1F
100
AcDbEntity
  8
Layer 1
370
     0
100
AcDb2dPolyline
 66
     1
 10
0.0
 20
0.0
 30
0.0
  0
VERTEX
  5
42
330
41
100
AcDbEntity
  8
Layer 1
370
     0
100
AcDbVertex
100
AcDb2dVertex
 10
1.419173842345761
 20
4.521617700117379
 30
0.0
  0
VERTEX
  5
43
330
41
100
AcDbEntity
  8
Layer 1
370
     0
100
AcDbVertex
100
AcDb2dVertex
 10
1.742455125428831
 20
4.560717817589635
 30
0.0
  0
VERTEX
  5
44
330
41
100
AcDbEntity
  8
Layer 1
370
     0
100
AcDbVertex
100
AcDb2dVertex
 10
1.834181294368894
 20
4.553205035429856
 30
0.0
  0
VERTEX
  5
45
330
41
100
AcDbEntity
  8
Layer 1
370
     0
100
AcDbVertex
100
AcDb2dVertex
 10
1.835680924692901
 20
4.608830347545677
 30
0.0
  0
VERTEX
  5
46
330
41
100
AcDbEntity
  8
Layer 1
370
     0
100
AcDbVertex
100
AcDb2dVertex
 10
1.955961030371365
 20
4.590793484936587
 30
0.0
  0
VERTEX
  5
47
330
41
100
AcDbEntity
  8
Layer 1
370
     0
100
AcDbVertex
100
AcDb2dVertex
 10
1.972510609247832
 20
5.581675895866207
 30
0.0
  0
VERTEX
  5
48
330
41
100
AcDbEntity
  8
Layer 1
370
     0
100
AcDbVertex
100
AcDb2dVertex
 10
2.390507568225833
 20
5.620776013338463
 30
0.0
  0
VERTEX
  5
49
330
41
100
AcDbEntity
  8
Layer 1
370
     0
100
AcDbVertex
100
AcDb2dVertex
 10
2.462682459218108
 20
5.745567202105399
 30
0.0
  0
VERTEX
  5
4A
330
41
100
AcDbEntity
  8
Layer 1
370
     0
100
AcDbVertex
100
AcDb2dVertex
 10
2.704764246708666
 20
5.643326551934251
 30
0.0
  0
VERTEX
  5
4B
330
41
100
AcDbEntity
  8
Layer 1
370
     0
100
AcDbVertex
100
AcDb2dVertex
 10
2.964892804976393
 20
5.671890242365811
 30
0.0
  0
VERTEX
  5
4C
330
41
100
AcDbEntity
  8
Layer 1
370
     0
100
AcDbVertex
100
AcDb2dVertex
 10
3.366376761427268
 20
5.498974331526394
 30
0.0
  0
VERTEX
  5
4D
330
41
100
AcDbEntity
  8
Layer 1
370
     0
100
AcDbVertex
100
AcDb2dVertex
 10
3.337776494646353
 20
4.180296961527006
 30
0.0
  0
VERTEX
  5
4E
330
41
100
AcDbEntity
  8
Layer 1
370
     0
100
AcDbVertex
100
AcDb2dVertex
 10
4.304621083247563
 20
3.654036446848926
 30
0.0
  0
VERTEX
  5
4F
330
41
100
AcDbEntity
  8
Layer 1
370
     0
100
AcDbVertex
100
AcDb2dVertex
 10
4.298595739295327
 20
3.257078204026255
 30
0.0
  0
VERTEX
  5
50
330
41
100
AcDbEntity
  8
Layer 1
370
     0
100
AcDbVertex
100
AcDb2dVertex
 10
3.970815565240248
 20
3.180399545215361
 30
0.0
  0
VERTEX
  5
51
330
41
100
AcDbEntity
  8
Layer 1
370
     0
100
AcDbVertex
100
AcDb2dVertex
 10
3.88361267150511
 20
3.178875530658464
 30
0.0
  0
VERTEX
  5
52
330
41
100
AcDbEntity
  8
Layer 1
370
     0
100
AcDbVertex
100
AcDb2dVertex
 10
3.826460906409061
 20
3.073623427722825
 30
0.0
  0
VERTEX
  5
53
330
41
100
AcDbEntity
  8
Layer 1
370
     0
100
AcDbVertex
100
AcDb2dVertex
 10
3.65355733416474
 20
3.111223914871086
 30
0.0
  0
VERTEX
  5
54
330
41
100
AcDbEntity
  8
Layer 1
370
     0
100
AcDbVertex
100
AcDb2dVertex
 10
3.241548996310964
 20
3.014996416535723
 30
0.0
  0
VERTEX
  5
55
330
41
100
AcDbEntity
  8
Layer 1
370
     0
100
AcDbVertex
100
AcDb2dVertex
 10
1.407147538674217
 20
4.13819514498343
 30
0.0
  0
VERTEX
  5
56
330
41
100
AcDbEntity
  8
Layer 1
370
     0
100
AcDbVertex
100
AcDb2dVertex
 10
1.419173842345761
 20
4.521617700117379
 30
0.0
  0
SEQEND
  5
58
330
41
100
AcDbEntity
  8
Layer 1
370
     0
  0
HATCH
  5
57
330
1F
100
AcDbEntity
  8
Layer 1
 62
    43
420
 15510365
100
AcDbHatch
 10
0.0
 20
0.0
 30
0.0
210
0.0
220
0.0
230
1.0
  2
SOLID
 70
     1
 71
     0
 91
        1
 92
        1
 93
       20
 72
     1
 10
1.419173842345761
 20
4.521617700117379
 11
1.742455125428831
 21
4.560717817589635
 72
     1
 10
1.742455125428831
 20
4.560717817589635
 11
1.834181294368894
 21
4.553205035429856
 72
     1
 10
1.834181294368894
 20
4.553205035429856
 11
1.835680924692901
 21
4.608830347545677
 72
     1
 10
1.835680924692901
 20
4.608830347545677
 11
1.955961030371365
 21
4.590793484936587
 72
     1
 10
1.955961030371365
 20
4.590793484936587
 11
1.972510609247832
 21
5.581675895866207
 72
     1
 10
1.972510609247832
 20
5.581675895866207
 11
2.390507568225833
 21
5.620776013338463
 72
     1
 10
2.390507568225833
 20
5.620776013338463
 11
2.462682459218108
 21
5.745567202105399
 72
     1
 10
2.462682459218108
 20
5.745567202105399
 11
2.704764246708666
 21
5.643326551934251
 72
     1
 10
2.704764246708666
 20
5.643326551934251
 11
2.964892804976393
 21
5.671890242365811
 72
     1
 10
2.964892804976393
 20
5.671890242365811
 11
3.366376761427268
 21
5.498974331526394
 72
     1
 10
3.366376761427268
 20
5.498974331526394
 11
3.337776494646353
 21
4.180296961527006
 72
     1
 10
3.337776494646353
 20
4.180296961527006
 11
4.304621083247563
 21
3.654036446848926
 72
     1
 10
4.304621083247563
 20
3.654036446848926
 11
4.298595739295327
 21
3.257078204026255
 72
     1
 10
4.298595739295327
 20
3.257078204026255
 11
3.970815565240248
 21
3.180399545215361
 72
     1
 10
3.970815565240248
 20
3.180399545215361
 11
3.88361267150511
 21
3.178875530658464
 72
     1
 10
3.88361267150511
 20
3.178875530658464
 11
3.826460906409061
 21
3.073623427722825
 72
     1
 10
3.826460906409061
 20
3.073623427722825
 11
3.65355733416474
 21
3.111223914871086
 72
     1
 10
3.65355733416474
 20
3.111223914871086
 11
3.241548996310964
 21
3.014996416535723
 72
     1
 10
3.241548996310964
 20
3.014996416535723
 11
1.407147538674217
 21
4.13819514498343
 72
     1
 10
1.407147538674217
 20
4.13819514498343
 11
1.419173842345761
 21
4.521617700117379
 97
        0
 75
     2
 76
     1
 98
        0
  0
POLYLINE
  5
59
330
1F
100
AcDbEntity
  8
Layer 1
 62
     7
420
 16777215
370
    13
100
AcDb2dPolyline
 66
     1
 10
0.0
 20
0.0
 30
0.0
  0
VERTEX
  5
5A
330
59
100
AcDbEntity
  8
Layer 1
 62
     7
420
 16777215
370
    13
100
AcDbVertex
100
AcDb2dVertex
 10
1.949721105169525
 20
4.389087105203998
 30
0.0
  0
VERTEX
  5
5B
330
59
100
AcDbEntity
  8
Layer 1
 62
     7
420
 16777215
370
    13
100
AcDbVertex
100
AcDb2dVertex
 10
1.874544515105931
 20
4.380954814148885
 30
0.0
  0
VERTEX
  5
5C
330
59
100
AcDbEntity
  8
Layer 1
 62
     7
420
 16777215
370
    13
100
AcDbVertex
100
AcDb2dVertex
 10
1.870472348209849
 20
4.35047452301055
 30
0.0
  0
VERTEX
  5
5D
330
59
100
AcDbEntity
  8
Layer 1
 62
     7
420
 16777215
370
    13
100
AcDbVertex
100
AcDb2dVertex
 10
1.94769721383793
 20
4.30577822408529
 30
0.0
  0
SEQEND
  5
5F
330
59
100
AcDbEntity
  8
Layer 1
 62
     7
420
 16777215
370
    13
  0
HATCH
  5
5E
330
1F
100
AcDbEntity
  8
Layer 1
 62
   254
420
 13358815
100
AcDbHatch
 10
0.0
 20
0.0
 30
0.0
210
0.0
220
0.0
230
1.0
  2
SOLID
 70
     1
 71
     0
 91
        1
 92
        1
 93
        4
 72
     1
 10
1.949721105169525
 20
4.389087105203998
 11
1.874544515105931
 21
4.380954814148885
 72
     1
 10
1.874544515105931
 20
4.380954814148885
 11
1.870472348209849
 21
4.35047452301055
 72
     1
 10
1.870472348209849
 20
4.35047452301055
 11
1.94769721383793
 21
4.30577822408529
 72
     1
 10
1.94769721383793
 20
4.30577822408529
 11
1.949721105169525
 21
4.389087105203997
 97
        0
 75
     2
 76
     1
 98
        0
  0
POLYLINE
  5
60
330
1F
100
AcDbEntity
  8
Layer 1
 62
     7
420
 16777215
370
    20
100
AcDb2dPolyline
 66
     1
 10
0.0
 20
0.0
 30
0.0
  0
VERTEX
  5
61
330
60
100
AcDbEntity
  8
Layer 1
 62
     7
420
 16777215
370
    20
100
AcDbVertex
100
AcDb2dVertex
 10
2.486198613437157
 20
3.477499477422258
 30
0.0
  0
VERTEX
  5
62
330
60
100
AcDbEntity
  8
Layer 1
 62
     7
420
 16777215
370
    20
100
AcDbVertex
100
AcDb2dVertex
 10
2.19169316361197
 20
3.657820879796658
 30
0.0
  0
SEQEND
  5
63
330
60
100
AcDbEntity
  8
Layer 1
 62
     7
420
 16777215
370
    20
  0
POLYLINE
  5
64
330
1F
100
AcDbEntity
  8
Layer 1
 62
     7
420
 16777215
370
    20
100
AcDb2dPolyline
 66
     1
 10
0.0
 20
0.0
 30
0.0
  0
VERTEX
  5
65
330
64
100
AcDbEntity
  8
Layer 1
 62
     7
420
 16777215
370
    20
100
AcDbVertex
100
AcDb2dVertex
 10
2.121542163951264
 20
3.700781021338672
 30
0.0
  0
VERTEX
  5
66
330
64
100
AcDbEntity
  8
Layer 1
 62
     7
420
 16777215
370
    20
100
AcDbVertex
100
AcDb2dVertex
 10
1.780935883385155
 20
3.909332050153769
 30
0.0
  0
SEQEND
  5
67
330
64
100
AcDbEntity
  8
Layer 1
 62
     7
420
 16777215
370
    20
  0
POLYLINE
  5
68
330
1F
100
AcDbEntity
  8
Layer 1
 62
     7
420
 16777215
370
    20
100
AcDb2dPolyline
 66
     1
 10
0.0
 20
0.0
 30
0.0
  0
VERTEX
  5
69
330
68
100
AcDbEntity
  8
Layer 1
 62
     7
420
 16777215
370
    20
100
AcDbVertex
100
AcDb2dVertex
 10
1.71375976013956
 20
3.950456058957595
 30
0.0
  0
VERTEX
  5
6A
330
68
100
AcDbEntity
  8
Layer 1
 62
     7
420
 16777215
370
    20
100
AcDbVertex
100
AcDb2dVertex
 10
1.407147538674217
 20
4.13819514498343
 30
0.0
  0
VERTEX
  5
6B
330
68
100
AcDbEntity
  8
Layer 1
 62
     7
420
 16777215
370
    20
100
AcDbVertex
100
AcDb2dVertex
 10
1.419173842345761
 20
4.521617700117379
 30
0.0
  0
VERTEX
  5
6C
330
68
100
AcDbEntity
  8
Layer 1
 62
     7
420
 16777215
370
    20
100
AcDbVertex
100
AcDb2dVertex
 10
1.742455125428831
 20
4.560717817589635
 30
0.0
  0
VERTEX
  5
6D
330
68
100
AcDbEntity
  8
Layer 1
 62
     7
420
 16777215
370
    20
100
AcDbVertex
100
AcDb2dVertex
 10
1.834181294368894
 20
4.553205035429856
 30
0.0
  0
VERTEX
  5
6E
330
68
100
AcDbEntity
  8
Layer 1
 62
     7
420
 16777215
370
    20
100
AcDbVertex
100
AcDb2dVertex
 10
1.835680924692901
 20
4.608830347545677
 30
0.0
  0
VERTEX
  5
6F
330
68
100
AcDbEntity
  8
Layer 1
 62
     7
420
 16777215
370
    20
100
AcDbVertex
100
AcDb2dVertex
 10
1.955961030371365
 20
4.590793484936587
 30
0.0
  0
VERTEX
  5
70
330
68
100
AcDbEntity
  8
Layer 1
 62
     7
420
 16777215
370
    20
100
AcDbVertex
100
AcDb2dVertex
 10
1.972510609247832
 20
5.581675895866207
 30
0.0
  0
VERTEX
  5
71
330
68
100
AcDbEntity
  8
Layer 1
 62
     7
420
 16777215
370
    20
100
AcDbVertex
100
AcDb2dVertex
 10
2.390507568225833
 20
5.620776013338463
 30
0.0
  0
VERTEX
  5
72
330
68
100
AcDbEntity
  8
Layer 1
 62
     7
420
 16777215
370
    20
100
AcDbVertex
100
AcDb2dVertex
 10
2.462682459218108
 20
5.745567202105399
 30
0.0
  0
VERTEX
  5
73
330
68
100
AcDbEntity
  8
Layer 1
 62
     7
420
 16777215
370
    20
100
AcDbVertex
100
AcDb2dVertex
 10
2.704764246708666
 20
5.643326551934251
 30
0.0
  0
VERTEX
  5
74
330
68
100
AcDbEntity
  8
Layer 1
 62
     7
420
 16777215
370
    20
100
AcDbVertex
100
AcDb2dVertex
 10
2.964892804976393
 20
5.671890242365811
 30
0.0
  0
VERTEX
  5
75
330
68
100
AcDbEntity
  8
Layer 1
 62
     7
420
 16777215
370
    20
100
AcDbVertex
100
AcDb2dVertex
 10
3.366376761427268
 20
5.498974331526394
 30
0.0
  0
VERTEX
  5
76
330
68
100
AcDbEntity
  8
Layer 1
 62
     7
420
 16777215
370
    20
100
AcDbVertex
100
AcDb2dVertex
 10
3.337776494646353
 20
4.180296961527006
 30
0.0
  0
VERTEX
  5
77
330
68
100
AcDbEntity
  8
Layer 1
 62
     7
420
 16777215
370
    20
100
AcDbVertex
100
AcDb2dVertex
 10
4.304621083247563
 20
3.654036446848926
 30
0.0
  0
VERTEX
  5
78
330
68
100
AcDbEntity
  8
Layer 1
 62
     7
420
 16777215
370
    20
100
AcDbVertex
100
AcDb2dVertex
 10
4.298595739295327
 20
3.257078204026255
 30
0.0
  0
VERTEX
  5
79
330
68
100
AcDbEntity
  8
Layer 1
 62
     7
420
 16777215
370
    20
100
AcDbVertex
100
AcDb2dVertex
 10
3.970815565240248
 20
3.180399545215361
 30
0.0
  0
VERTEX
  5
7A
330
68
100
AcDbEntity
  8
Layer 1
 62
     7
420
 16777215
370
    20
100
AcDbVertex
100
AcDb2dVertex
 10
3.88361267150511
 20
3.178875530658464
 30
0.0
  0
VERTEX
  5
7B
330
68
100
AcDbEntity
  8
Layer 1
 62
     7
420
 16777215
370
    20
100
AcDbVertex
100
AcDb2dVertex
 10
3.826460906409061
 20
3.073623427722825
 30
0.0
  0
VERTEX
  5
7C
330
68
100
AcDbEntity
  8
Layer 1
 62
     7
420
 16777215
370
    20
100
AcDbVertex
100
AcDb2dVertex
 10
3.65355733416474
 20
3.111223914871086
 30
0.0
  0
VERTEX
  5
7D
330
68
100
AcDbEntity
  8
Layer 1
 62
     7
420
 16777215
370
    20
100
AcDbVertex
100
AcDb2dVertex
 10
3.241548996310964
 20
3.014996416535723
 30
0.0
  0
VERTEX
  5
7E
330
68
100
AcDbEntity
  8
Layer 1
 62
     7
420
 16777215
370
    20
100
AcDbVertex
100
AcDb2dVertex
 10
3.096126308078308
 20
3.104057388818647
 30
0.0
  0
SEQEND
  5
7F
330
68
100
AcDbEntity
  8
Layer 1
 62
     7
420
 16777215
370
    20
  0
POLYLINE
  5
80
330
1F
100
AcDbEntity
  8
Layer 1
 62
     7
420
 16777215
370
    20
100
AcDb2dPolyline
 66
     1
 10
0.0
 20
0.0
 30
0.0
  0
VERTEX
  5
81
330
80
100
AcDbEntity
  8
Layer 1
 62
     7
420
 16777215
370
    20
100
AcDbVertex
100
AcDb2dVertex
 10
3.046380034517268
 20
3.134488911491164
 30
0.0
  0
VERTEX
  5
82
330
80
100
AcDbEntity
  8
Layer 1
 62
     7
420
 16777215
370
    20
100
AcDbVertex
100
AcDb2dVertex
 10
2.569126951143062
 20
3.426719312385798
 30
0.0
  0
SEQEND
  5
83
330
80
100
AcDbEntity
  8
Layer 1
 62
     7
420
 16777215
370
    20
  0
POLYLINE
  5
84
330
1F
100
AcDbEntity
  8
Layer 1
 62
     7
420
 16777215
370
    15
100
AcDb2dPolyline
 66
     1
 10
0.0
 20
0.0
 30
0.0
  0
VERTEX
  5
85
330
84
100
AcDbEntity
  8
Layer 1
 62
     7
420
 16777215
370
    15
100
AcDbVertex
100
AcDb2dVertex
 10
2.425094164186324
 20
4.034445110795104
 30
0.0
  0
VERTEX
  5
86
330
84
100
AcDbEntity
  8
Layer 1
 62
     7
420
 16777215
370
    15
100
AcDbVertex
100
AcDb2dVertex
 10
3.337037652389149
 20
4.179545927153336
 30
0.0
  0
SEQEND
  5
87
330
84
100
AcDbEntity
  8
Layer 1
 62
     7
420
 16777215
370
    15
  0
POLYLINE
  5
88
330
1F
100
AcDbEntity
  8
Layer 1
 62
     7
420
 16777215
370
    15
100
AcDb2dPolyline
 66
     1
 10
0.0
 20
0.0
 30
0.0
  0
VERTEX
  5
89
330
88
100
AcDbEntity
  8
Layer 1
 62
     7
420
 16777215
370
    15
100
AcDbVertex
100
AcDb2dVertex
 10
2.297291522654922
 20
4.011894572199329
 30
0.0
  0
VERTEX
  5
8A
330
88
100
AcDbEntity
  8
Layer 1
 62
     7
420
 16777215
370
    15
100
AcDbVertex
100
AcDb2dVertex
 10
2.425094164186324
 20
4.034445110795104
 30
0.0
  0
SEQEND
  5
8B
330
88
100
AcDbEntity
  8
Layer 1
 62
     7
420
 16777215
370
    15
  0
SPLINE
  5
8C
330
1F
100
AcDbEntity
  8
Layer 1
 62
     7
420
 16777215
370
     9
100
AcDbSpline
210
0.0
220
0.0
230
1.0
 70
     8
 71
     3
 72
     8
 73
     4
 74
     0
 42
0.0000000001
 43
0.0000000001
 12
1.0
 22
0.0
 32
0.0
 13
1.0
 23
0.0
 33
0.0
 40
0.0
 40
0.0
 40
0.0
 40
0.0
 40
1.0
 40
1.0
 40
1.0
 40
1.0
 10
3.246074709939194
 20
5.491461549366603
 30
0.0
 10
3.258098575187432
 20
5.501985784290847
 30
0.0
 10
3.303202090802314
 20
5.503487853038147
 30
0.0
 10
3.315226093982245
 20
5.518525609474156
 30
0.0
  0
SPLINE
  5
8D
330
1F
100
AcDbEntity
  8
Layer 1
 62
     7
420
 16777215
370
     9
100
AcDbSpline
210
0.0
220
0.0
230
1.0
 70
     8
 71
     3
 72
    11
 73
     7
 74
     0
 42
0.0000000001
 43
0.0000000001
 12
1.0
 22
0.0
 32
0.0
 13
1.0
 23
0.0
 33
0.0
 40
0.0
 40
0.0
 40
0.0
 40
0.0
 40
1.0
 40
1.0
 40
1.0
 40
2.0
 40
2.0
 40
2.0
 40
2.0
 10
3.110747094131562
 20
5.479423053578608
 30
0.0
 10
3.128796303332036
 20
5.486948027854837
 30
0.0
 10
3.169396051128312
 20
5.498974331526394
 30
0.0
 10
3.187447698752067
 20
5.50799893612662
 30
0.0
 10
3.205472658878762
 20
5.517023540726856
 30
0.0
 10
3.265623549463675
 20
5.511012827314377
 30
0.0
 10
3.280649250841432
 20
5.533563365910165
 30
0.0
  0
SPLINE
  5
8E
330
1F
100
AcDbEntity
  8
Layer 1
 62
     7
420
 16777215
370
     9
100
AcDbSpline
210
0.0
220
0.0
230
1.0
 70
     8
 71
     3
 72
    17
 73
    13
 74
     0
 42
0.0000000001
 43
0.0000000001
 12
1.0
 22
0.0
 32
0.0
 13
1.0
 23
0.0
 33
0.0
 40
0.0
 40
0.0
 40
0.0
 40
0.0
 40
1.0
 40
1.0
 40
1.0
 40
2.0
 40
2.0
 40
2.0
 40
3.0
 40
3.0
 40
3.0
 40
4.0
 40
4.0
 40
4.0
 40
4.0
 10
2.948343226099925
 20
5.438835497898796
 30
0.0
 10
2.96791888828059
 20
5.468911010770815
 30
0.0
 10
2.97541947832393
 20
5.473424532282579
 30
0.0
 10
2.978418738971944
 20
5.482436944766365
 30
0.0
 10
2.993468687524405
 20
5.489962096232463
 30
0.0
 10
3.035570504067967
 20
5.49296135695623
 30
0.0
 10
3.052095829996006
 20
5.506499305802612
 30
0.0
 10
3.068645277587999
 20
5.520025239798163
 30
0.0
 10
3.11827206840778
 20
5.542587970510403
 30
0.0
 10
3.139320538256268
 20
5.544087600834422
 30
0.0
 10
3.160371446528062
 20
5.545587231158416
 30
0.0
 10
3.193448658471374
 20
5.557613534829948
 30
0.0
 10
3.20849860702386
 20
5.563638878782184
 30
0.0
  0
SPLINE
  5
8F
330
1F
100
AcDbEntity
  8
Layer 1
 62
     7
420
 16777215
370
     9
100
AcDbSpline
210
0.0
220
0.0
230
1.0
 70
     8
 71
     3
 72
    11
 73
     7
 74
     0
 42
0.0000000001
 43
0.0000000001
 12
1.0
 22
0.0
 32
0.0
 13
1.0
 23
0.0
 33
0.0
 40
0.0
 40
0.0
 40
0.0
 40
0.0
 40
1.0
 40
1.0
 40
1.0
 40
2.0
 40
2.0
 40
2.0
 40
2.0
 10
2.919791727784816
 20
5.509498566450626
 30
0.0
 10
2.928794386575444
 20
5.515523910402849
 30
0.0
 10
2.985943713248162
 20
5.53656262655818
 30
0.0
 10
3.017518986855192
 20
5.550100752670182
 30
0.0
 10
3.049096569272226
 20
5.563638878782184
 30
0.0
 10
3.11827206840778
 20
5.581675895866207
 30
0.0
 10
3.14082260700358
 20
5.590700500466444
 30
0.0
  0
SPLINE
  5
90
330
1F
100
AcDbEntity
  8
Layer 1
 62
     7
420
 16777215
370
     9
100
AcDbSpline
210
0.0
220
0.0
230
1.0
 70
     8
 71
     3
 72
    11
 73
     7
 74
     0
 42
0.0000000001
 43
0.0000000001
 12
1.0
 22
0.0
 32
0.0
 13
1.0
 23
0.0
 33
0.0
 40
0.0
 40
0.0
 40
0.0
 40
0.0
 40
1.0
 40
1.0
 40
1.0
 40
2.0
 40
2.0
 40
2.0
 40
2.0
 10
2.886716954264784
 20
5.545587231158416
 30
0.0
 10
2.901742646070589
 20
5.559125357270418
 30
0.0
 10
2.954368570052136
 20
5.575662744030435
 30
0.0
 10
2.970893764695701
 20
5.584687348630673
 30
0.0
 10
2.987443343572168
 20
5.593702199537751
 30
0.0
 10
3.059620672987749
 20
5.613251039062233
 30
0.0
 10
3.071646976659293
 20
5.620776013338463
 30
0.0
  0
SPLINE
  5
91
330
1F
100
AcDbEntity
  8
Layer 1
 62
     7
420
 16777215
370
     9
100
AcDbSpline
210
0.0
220
0.0
230
1.0
 70
     8
 71
     3
 72
    23
 73
    19
 74
     0
 42
0.0000000001
 43
0.0000000001
 12
1.0
 22
0.0
 32
0.0
 13
1.0
 23
0.0
 33
0.0
 40
0.0
 40
0.0
 40
0.0
 40
0.0
 40
1.0
 40
1.0
 40
1.0
 40
2.0
 40
2.0
 40
2.0
 40
3.0
 40
3.0
 40
3.0
 40
4.0
 40
4.0
 40
4.0
 40
5.0
 40
5.0
 40
5.0
 40
6.0
 40
6.0
 40
6.0
 40
6.0
 10
2.623574504809287
 20
5.440335128222803
 30
0.0
 10
2.647636865845546
 20
5.453873430612981
 30
0.0
 10
2.712289220984884
 20
5.467399188330356
 30
0.0
 10
2.725824908673606
 20
5.471910271418829
 30
0.0
 10
2.739350842669157
 20
5.476423792930594
 30
0.0
 10
2.773939877052928
 20
5.506499305802612
 30
0.0
 10
2.781452659212719
 20
5.517023540726856
 30
0.0
 10
2.78897763348895
 20
5.527550214074394
 30
0.0
 10
2.826566054107869
 20
5.578676635218193
 30
0.0
 10
2.832579080356494
 20
5.583187718306665
 30
0.0
 10
2.838589793768986
 20
5.587689047701992
 30
0.0
 10
2.867165802929751
 20
5.586189417377972
 30
0.0
 10
2.880691610312548
 20
5.596713652302216
 30
0.0
 10
2.894241928541002
 20
5.607237887226461
 30
0.0
 10
2.960393914004372
 20
5.625277342733776
 30
0.0
 10
2.96639487372368
 20
5.628288795498242
 30
0.0
 10
2.972417779252611
 20
5.631290494569561
 30
0.0
 10
3.008494251843962
 20
5.643326551934251
 30
0.0
 10
3.008494251843962
 20
5.643326551934251
 30
0.0
  0
SPLINE
  5
92
330
1F
100
AcDbEntity
  8
Layer 1
 62
     7
420
 16777215
370
     9
100
AcDbSpline
210
0.0
220
0.0
230
1.0
 70
     8
 71
     3
 72
    14
 73
    10
 74
     0
 42
0.0000000001
 43
0.0000000001
 12
1.0
 22
0.0
 32
0.0
 13
1.0
 23
0.0
 33
0.0
 40
0.0
 40
0.0
 40
0.0
 40
0.0
 40
1.0
 40
1.0
 40
1.0
 40
2.0
 40
2.0
 40
2.0
 40
3.0
 40
3.0
 40
3.0
 40
3.0
 10
2.755888229429161
 20
5.617764560573997
 30
0.0
 10
2.731838060509365
 20
5.596713652302216
 30
0.0
 10
2.683713338436872
 20
5.512512457638384
 30
0.0
 10
2.659663169517077
 20
5.504987483362154
 30
0.0
 10
2.635598370057551
 20
5.497474701202375
 30
0.0
 10
2.625074135133294
 20
5.488450273753793
 30
0.0
 10
2.599512143773053
 20
5.485448397530831
 30
0.0
 10
2.573959906105958
 20
5.482436944766365
 30
0.0
 10
2.465696350405879
 20
5.44183475854681
 30
0.0
 10
2.444645442134086
 20
5.423797741462787
 30
0.0
  0
SPLINE
  5
93
330
1F
100
AcDbEntity
  8
Layer 1
 62
     7
420
 16777215
370
     9
100
AcDbSpline
210
0.0
220
0.0
230
1.0
 70
     8
 71
     3
 72
    11
 73
     7
 74
     0
 42
0.0000000001
 43
0.0000000001
 12
1.0
 22
0.0
 32
0.0
 13
1.0
 23
0.0
 33
0.0
 40
0.0
 40
0.0
 40
0.0
 40
0.0
 40
1.0
 40
1.0
 40
1.0
 40
2.0
 40
2.0
 40
2.0
 40
2.0
 10
2.970893764695701
 20
5.66587709053004
 30
0.0
 10
2.939318749935157
 20
5.652351156534488
 30
0.0
 10
2.919791727784816
 20
5.656852485929802
 30
0.0
 10
2.889716214912798
 20
5.646328251005557
 30
0.0
 10
2.859640702040779
 20
5.635801577658033
 30
0.0
 10
2.796490415648716
 20
5.613251039062233
 30
0.0
 10
2.785963742301192
 20
5.608739955973761
 30
0.0
  0
SPLINE
  5
94
330
1F
100
AcDbEntity
  8
Layer 1
 62
     7
420
 16777215
370
     9
100
AcDbSpline
210
0.0
220
0.0
230
1.0
 70
     8
 71
     3
 72
     8
 73
     4
 74
     0
 42
0.0000000001
 43
0.0000000001
 12
1.0
 22
0.0
 32
0.0
 13
1.0
 23
0.0
 33
0.0
 40
0.0
 40
0.0
 40
0.0
 40
0.0
 40
1.0
 40
1.0
 40
1.0
 40
1.0
 10
2.838589793768986
 20
5.656852485929802
 30
0.0
 10
2.820552776684963
 20
5.647840073446016
 30
0.0
 10
2.757402490292912
 20
5.634301947334014
 30
0.0
 10
2.745363994504916
 20
5.629788425822249
 30
0.0
  0
POLYLINE
  5
95
330
1F
100
AcDbEntity
  8
Layer 1
 62
     7
420
 16777215
370
    15
100
AcDb2dPolyline
 66
     1
 10
0.0
 20
0.0
 30
0.0
  0
VERTEX
  5
96
330
95
100
AcDbEntity
  8
Layer 1
 62
     7
420
 16777215
370
    15
100
AcDbVertex
100
AcDb2dVertex
 10
2.707775699473119
 20
5.641827102636524
 30
0.0
  0
VERTEX
  5
97
330
95
100
AcDbEntity
  8
Layer 1
 62
     7
420
 16777215
370
    15
100
AcDbVertex
100
AcDb2dVertex
 10
2.874678458476789
 20
5.568149961870656
 30
0.0
  0
SEQEND
  5
98
330
95
100
AcDbEntity
  8
Layer 1
 62
     7
420
 16777215
370
    15
  0
SPLINE
  5
99
330
1F
100
AcDbEntity
  8
Layer 1
 62
     7
420
 16777215
370
     9
100
AcDbSpline
210
0.0
220
0.0
230
1.0
 70
     8
 71
     3
 72
    14
 73
    10
 74
     0
 42
0.0000000001
 43
0.0000000001
 12
1.0
 22
0.0
 32
0.0
 13
1.0
 23
0.0
 33
0.0
 40
0.0
 40
0.0
 40
0.0
 40
0.0
 40
1.0
 40
1.0
 40
1.0
 40
2.0
 40
2.0
 40
2.0
 40
3.0
 40
3.0
 40
3.0
 40
3.0
 10
2.298791152978917
 20
5.431310523622566
 30
0.0
 10
2.33487981768672
 20
5.444848649734568
 30
0.0
 10
2.416069559586074
 20
5.46439748925905
 30
0.0
 10
2.429607685698089
 20
5.473424532282579
 30
0.0
 10
2.443145811810079
 20
5.482436944766365
 30
0.0
 10
2.564935301505708
 20
5.523036692562628
 30
0.0
 10
2.590497292865974
 20
5.530549474722407
 30
0.0
 10
2.611548201137755
 20
5.550100752670182
 30
0.0
 10
2.685225160877331
 20
5.635801577658033
 30
0.0
 10
2.692737943037122
 20
5.643326551934251
 30
0.0
  0
SPLINE
  5
9A
330
1F
100
AcDbEntity
  8
Layer 1
 62
     7
420
 16777215
370
     9
100
AcDbSpline
210
0.0
220
0.0
230
1.0
 70
     8
 71
     3
 72
    14
 73
    10
 74
     0
 42
0.0000000001
 43
0.0000000001
 12
1.0
 22
0.0
 32
0.0
 13
1.0
 23
0.0
 33
0.0
 40
0.0
 40
0.0
 40
0.0
 40
0.0
 40
1.0
 40
1.0
 40
1.0
 40
2.0
 40
2.0
 40
2.0
 40
3.0
 40
3.0
 40
3.0
 40
3.0
 10
2.617561352973528
 20
5.679415216642042
 30
0.0
 10
2.595010814377727
 20
5.65083933409403
 30
0.0
 10
2.534859788633689
 20
5.584687348630673
 30
0.0
 10
2.522833484962158
 20
5.568149961870656
 30
0.0
 10
2.503284645437664
 20
5.560624987594426
 30
0.0
 10
2.461182828894102
 20
5.542587970510403
 30
0.0
 10
2.425094164186324
 20
5.529050022575689
 30
0.0
 10
2.389005499478533
 20
5.515523910402849
 30
0.0
 10
2.259703227623125
 20
5.477923423254601
 30
0.0
 10
2.235640866586866
 20
5.458374583730106
 30
0.0
  0
SPLINE
  5
9B
330
1F
100
AcDbEntity
  8
Layer 1
 62
     7
420
 16777215
370
     9
100
AcDbSpline
210
0.0
220
0.0
230
1.0
 70
     8
 71
     3
 72
    14
 73
    10
 74
     0
 42
0.0000000001
 43
0.0000000001
 12
1.0
 22
0.0
 32
0.0
 13
1.0
 23
0.0
 33
0.0
 40
0.0
 40
0.0
 40
0.0
 40
0.0
 40
1.0
 40
1.0
 40
1.0
 40
2.0
 40
2.0
 40
2.0
 40
3.0
 40
3.0
 40
3.0
 40
3.0
 10
2.167977058683075
 20
5.489962096232463
 30
0.0
 10
2.186026267883537
 20
5.503487853038147
 30
0.0
 10
2.265716379458884
 20
5.520025239798163
 30
0.0
 10
2.285255465290195
 20
5.526038391633922
 30
0.0
 10
2.304804304814714
 20
5.532061297162866
 30
0.0
 10
2.431107316022083
 20
5.586189417377972
 30
0.0
 10
2.461182828894102
 20
5.589188678025986
 30
0.0
 10
2.477720215654131
 20
5.613251039062233
 30
0.0
 10
2.536359418957697
 20
5.689939451566286
 30
0.0
 10
2.552908997834164
 20
5.70196575523783
 30
0.0
  0
SPLINE
  5
9C
330
1F
100
AcDbEntity
  8
Layer 1
 62
     7
420
 16777215
370
     9
100
AcDbSpline
210
0.0
220
0.0
230
1.0
 70
     8
 71
     3
 72
    17
 73
    13
 74
     0
 42
0.0000000001
 43
0.0000000001
 12
1.0
 22
0.0
 32
0.0
 13
1.0
 23
0.0
 33
0.0
 40
0.0
 40
0.0
 40
0.0
 40
0.0
 40
1.0
 40
1.0
 40
1.0
 40
2.0
 40
2.0
 40
2.0
 40
3.0
 40
3.0
 40
3.0
 40
4.0
 40
4.0
 40
4.0
 40
4.0
 10
2.50028294636637
 20
5.726028116274088
 30
0.0
 10
2.474720955006117
 20
5.707978907073602
 30
0.0
 10
2.419081127643722
 20
5.635801577658033
 30
0.0
 10
2.411556038074322
 20
5.613251039062233
 30
0.0
 10
2.384494416390061
 20
5.604226614538397
 30
0.0
 10
2.384494416390061
 20
5.598213282626223
 30
0.0
 10
2.342392713202369
 20
5.590700500466444
 30
0.0
 10
2.300293221726242
 20
5.583187718306665
 30
0.0
 10
2.265716379458884
 20
5.581675895866207
 30
0.0
 10
2.249178992698881
 20
5.571151660941963
 30
0.0
 10
2.232629413822401
 20
5.560624987594426
 30
0.0
 10
2.128889133327246
 20
5.520025239798163
 30
0.0
 10
2.112349308143937
 20
5.517023540726856
 30
0.0
  0
SPLINE
  5
9D
330
1F
100
AcDbEntity
  8
Layer 1
 62
     7
420
 16777215
370
     9
100
AcDbSpline
210
0.0
220
0.0
230
1.0
 70
     8
 71
     3
 72
    11
 73
     7
 74
     0
 42
0.0000000001
 43
0.0000000001
 12
1.0
 22
0.0
 32
0.0
 13
1.0
 23
0.0
 33
0.0
 40
0.0
 40
0.0
 40
0.0
 40
0.0
 40
1.0
 40
1.0
 40
1.0
 40
2.0
 40
2.0
 40
2.0
 40
2.0
 10
2.043173783596621
 20
5.547099053598875
 30
0.0
 10
2.058211434235671
 20
5.559125357270418
 30
0.0
 10
2.100313250779234
 20
5.575662744030435
 30
0.0
 10
2.118362459979708
 20
5.578676635218193
 30
0.0
 10
2.136401915487037
 20
5.581675895866207
 30
0.0
 10
2.187525898207544
 20
5.583187718306665
 30
0.0
 10
2.210078875226625
 20
5.602726804137988
 30
0.0
  0
POLYLINE
  5
9E
330
1F
100
AcDbEntity
  8
Layer 1
 62
     7
420
 16777215
370
    15
100
AcDb2dPolyline
 66
     1
 10
0.0
 20
0.0
 30
0.0
  0
VERTEX
  5
9F
330
9E
100
AcDbEntity
  8
Layer 1
 62
     7
420
 16777215
370
    15
100
AcDbVertex
100
AcDb2dVertex
 10
2.904741906794369
 20
5.515523910402849
 30
0.0
  0
VERTEX
  5
A0
330
9E
100
AcDbEntity
  8
Layer 1
 62
     7
420
 16777215
370
    15
100
AcDbVertex
100
AcDb2dVertex
 10
3.006994621519955
 20
5.468911010770815
 30
0.0
  0
SEQEND
  5
A1
330
9E
100
AcDbEntity
  8
Layer 1
 62
     7
420
 16777215
370
    15
  0
POLYLINE
  5
A2
330
1F
100
AcDbEntity
  8
Layer 1
 62
     7
420
 16777215
370
    15
100
AcDb2dPolyline
 66
     1
 10
0.0
 20
0.0
 30
0.0
  0
VERTEX
  5
A3
330
A2
100
AcDbEntity
  8
Layer 1
 62
     7
420
 16777215
370
    15
100
AcDbVertex
100
AcDb2dVertex
 10
2.390507568225833
 20
5.620776013338463
 30
0.0
  0
VERTEX
  5
A4
330
A2
100
AcDbEntity
  8
Layer 1
 62
     7
420
 16777215
370
    15
100
AcDbVertex
100
AcDb2dVertex
 10
2.772440246728921
 20
5.452361608134311
 30
0.0
  0
SEQEND
  5
A5
330
A2
100
AcDbEntity
  8
Layer 1
 62
     7
420
 16777215
370
    15
  0
POLYLINE
  5
A6
330
1F
100
AcDbEntity
  8
Layer 1
 62
     7
420
 16777215
370
    15
100
AcDb2dPolyline
 66
     1
 10
0.0
 20
0.0
 30
0.0
  0
VERTEX
  5
A7
330
A6
100
AcDbEntity
  8
Layer 1
 62
     7
420
 16777215
370
    15
100
AcDbVertex
100
AcDb2dVertex
 10
2.327367035526928
 20
5.410259615350772
 30
0.0
  0
VERTEX
  5
A8
330
A6
100
AcDbEntity
  8
Layer 1
 62
     7
420
 16777215
370
    15
100
AcDbVertex
100
AcDb2dVertex
 10
2.794990785324722
 20
5.452361608134311
 30
0.0
  0
VERTEX
  5
A9
330
A6
100
AcDbEntity
  8
Layer 1
 62
     7
420
 16777215
370
    15
100
AcDbVertex
100
AcDb2dVertex
 10
2.876178088800796
 20
5.563638878782184
 30
0.0
  0
VERTEX
  5
AA
330
A6
100
AcDbEntity
  8
Layer 1
 62
     7
420
 16777215
370
    15
100
AcDbVertex
100
AcDb2dVertex
 10
2.96791888828059
 20
5.395234051031227
 30
0.0
  0
VERTEX
  5
AB
330
A6
100
AcDbEntity
  8
Layer 1
 62
     7
420
 16777215
370
    15
100
AcDbVertex
100
AcDb2dVertex
 10
3.009993882167969
 20
5.468911010770815
 30
0.0
  0
VERTEX
  5
AC
330
A6
100
AcDbEntity
  8
Layer 1
 62
     7
420
 16777215
370
    15
100
AcDbVertex
100
AcDb2dVertex
 10
3.361851047799039
 20
5.498974331526394
 30
0.0
  0
SEQEND
  5
AD
330
A6
100
AcDbEntity
  8
Layer 1
 62
     7
420
 16777215
370
    15
  0
POLYLINE
  5
AE
330
1F
100
AcDbEntity
  8
Layer 1
 62
     7
420
 16777215
370
    15
100
AcDb2dPolyline
 66
     1
 10
0.0
 20
0.0
 30
0.0
  0
VERTEX
  5
AF
330
AE
100
AcDbEntity
  8
Layer 1
 62
     7
420
 16777215
370
    15
100
AcDbVertex
100
AcDb2dVertex
 10
1.972510609247832
 20
5.5801762655422
 30
0.0
  0
VERTEX
  5
B0
330
AE
100
AcDbEntity
  8
Layer 1
 62
     7
420
 16777215
370
    15
100
AcDbVertex
100
AcDb2dVertex
 10
2.328866665850935
 20
5.411771437791256
 30
0.0
  0
VERTEX
  5
B1
330
AE
100
AcDbEntity
  8
Layer 1
 62
     7
420
 16777215
370
    15
100
AcDbVertex
100
AcDb2dVertex
 10
2.310471200543134
 20
4.596340743448839
 30
0.0
  0
SEQEND
  5
B2
330
AE
100
AcDbEntity
  8
Layer 1
 62
     7
420
 16777215
370
    15
  0
POLYLINE
  5
B3
330
1F
100
AcDbEntity
  8
Layer 1
 62
     7
420
 16777215
370
    15
100
AcDb2dPolyline
 66
     1
 10
0.0
 20
0.0
 30
0.0
  0
VERTEX
  5
B4
330
B3
100
AcDbEntity
  8
Layer 1
 62
     7
420
 16777215
370
    15
100
AcDbVertex
100
AcDb2dVertex
 10
2.309103245076838
 20
4.535380161172156
 30
0.0
  0
VERTEX
  5
B5
330
B3
100
AcDbEntity
  8
Layer 1
 62
     7
420
 16777215
370
    15
100
AcDbVertex
100
AcDb2dVertex
 10
2.297291522654922
 20
4.011894572199329
 30
0.0
  0
SEQEND
  5
B6
330
B3
100
AcDbEntity
  8
Layer 1
 62
     7
420
 16777215
370
    15
  0
POLYLINE
  5
B7
330
1F
100
AcDbEntity
  8
Layer 1
 62
     7
420
 16777215
370
    15
100
AcDb2dPolyline
 66
     1
 10
0.0
 20
0.0
 30
0.0
  0
VERTEX
  5
B8
330
B7
100
AcDbEntity
  8
Layer 1
 62
     7
420
 16777215
370
    15
100
AcDbVertex
100
AcDb2dVertex
 10
2.020849912569942
 20
4.173688834408191
 30
0.0
  0
VERTEX
  5
B9
330
B7
100
AcDbEntity
  8
Layer 1
 62
     7
420
 16777215
370
    15
100
AcDbVertex
100
AcDb2dVertex
 10
1.945446549140279
 20
4.220896709323256
 30
0.0
  0
VERTEX
  5
BA
330
B7
100
AcDbEntity
  8
Layer 1
 62
     7
420
 16777215
370
    15
100
AcDbVertex
100
AcDb2dVertex
 10
1.955961030371365
 20
4.589281662457943
 30
0.0
  0
SEQEND
  5
BB
330
B7
100
AcDbEntity
  8
Layer 1
 62
     7
420
 16777215
370
    15
  0
SPLINE
  5
BC
330
1F
100
AcDbEntity
  8
Layer 1
 62
     7
420
 16777215
370
     9
100
AcDbSpline
210
0.0
220
0.0
230
1.0
 70
     8
 71
     3
 72
     8
 73
     4
 74
     0
 42
0.0000000001
 43
0.0000000001
 12
1.0
 22
0.0
 32
0.0
 13
1.0
 23
0.0
 33
0.0
 40
0.0
 40
0.0
 40
0.0
 40
0.0
 40
1.0
 40
1.0
 40
1.0
 40
1.0
 10
3.879087110052928
 20
3.258577834350262
 30
0.0
 10
3.873085998157573
 20
3.231513774242709
 30
0.0
 10
3.858038488028392
 20
3.172874689594437
 30
0.0
 10
3.858038488028392
 20
3.144301126814412
 30
0.0
  0
SPLINE
  5
BD
330
1F
100
AcDbEntity
  8
Layer 1
 62
     7
420
 16777215
370
     9
100
AcDbSpline
210
0.0
220
0.0
230
1.0
 70
     8
 71
     3
 72
     8
 73
     4
 74
     0
 42
0.0000000001
 43
0.0000000001
 12
1.0
 22
0.0
 32
0.0
 13
1.0
 23
0.0
 33
0.0
 40
0.0
 40
0.0
 40
0.0
 40
0.0
 40
1.0
 40
1.0
 40
1.0
 40
1.0
 10
3.885112301829117
 20
3.213476757158686
 30
0.0
 10
3.901637496472656
 20
3.202950083811149
 30
0.0
 10
3.916687598151055
 20
3.192425848886905
 30
0.0
 10
3.919689144096436
 20
3.184900874610674
 30
0.0
  0
SPLINE
  5
BE
330
1F
100
AcDbEntity
  8
Layer 1
 62
     7
420
 16777215
370
     9
100
AcDbSpline
210
0.0
220
0.0
230
1.0
 70
     8
 71
     3
 72
    14
 73
    10
 74
     0
 42
0.0000000001
 43
0.0000000001
 12
1.0
 22
0.0
 32
0.0
 13
1.0
 23
0.0
 33
0.0
 40
0.0
 40
0.0
 40
0.0
 40
0.0
 40
1.0
 40
1.0
 40
1.0
 40
2.0
 40
2.0
 40
2.0
 40
3.0
 40
3.0
 40
3.0
 40
3.0
 10
3.882113041181103
 20
3.269102069274494
 30
0.0
 10
3.894136906429341
 20
3.264590986186022
 30
0.0
 10
3.957289631244698
 20
3.222489169642472
 30
0.0
 10
3.969313496492936
 20
3.22550306083023
 30
0.0
 10
3.98133980016448
 20
3.228514513594695
 30
0.0
 10
4.026465417488099
 20
3.22400099208293
 30
0.0
 10
4.041490825908517
 20
3.220989539318477
 30
0.0
 10
4.056516390228075
 20
3.217978086554
 30
0.0
 10
4.085092272776087
 20
3.211977126834679
 30
0.0
 10
4.092617247052329
 20
3.211977126834679
 30
0.0
  0
SPLINE
  5
BF
330
1F
100
AcDbEntity
  8
Layer 1
 62
     7
420
 16777215
370
     9
100
AcDbSpline
210
0.0
220
0.0
230
1.0
 70
     8
 71
     3
 72
    14
 73
    10
 74
     0
 42
0.0000000001
 43
0.0000000001
 12
1.0
 22
0.0
 32
0.0
 13
1.0
 23
0.0
 33
0.0
 40
0.0
 40
0.0
 40
0.0
 40
0.0
 40
1.0
 40
1.0
 40
1.0
 40
2.0
 40
2.0
 40
2.0
 40
3.0
 40
3.0
 40
3.0
 40
3.0
 10
3.975314456212244
 20
3.396917027237439
 30
0.0
 10
3.988864929389946
 20
3.401430424434125
 30
0.0
 10
4.00389033876028
 20
3.398418971669646
 30
0.0
 10
4.044490086556531
 20
3.39089412155637
 30
0.0
 10
4.085092272776087
 20
3.38338121523365
 30
0.0
 10
4.136218852591607
 20
3.375868433073871
 30
0.0
 10
4.170793097763938
 20
3.368343458797641
 30
0.0
 10
4.20539432426416
 20
3.360830676637862
 30
0.0
 10
4.279071284003749
 20
3.335266246854315
 30
0.0
 10
4.294096848323306
 20
3.348804372966318
 30
0.0
  0
SPLINE
  5
C0
330
1F
100
AcDbEntity
  8
Layer 1
 62
     7
420
 16777215
370
     9
100
AcDbSpline
210
0.0
220
0.0
230
1.0
 70
     8
 71
     3
 72
     8
 73
     4
 74
     0
 42
0.0000000001
 43
0.0000000001
 12
1.0
 22
0.0
 32
0.0
 13
1.0
 23
0.0
 33
0.0
 40
0.0
 40
0.0
 40
0.0
 40
0.0
 40
1.0
 40
1.0
 40
1.0
 40
1.0
 10
3.88361267150511
 20
3.451045023137466
 30
0.0
 10
3.892612891872432
 20
3.445031871301694
 30
0.0
 10
3.952788301849371
 20
3.411954659358369
 30
0.0
 10
3.967813866168929
 20
3.405931753829438
 30
0.0
  0
SPLINE
  5
C1
330
1F
100
AcDbEntity
  8
Layer 1
 62
     7
420
 16777215
370
     9
100
AcDbSpline
210
0.0
220
0.0
230
1.0
 70
     8
 71
     3
 72
    17
 73
    13
 74
     0
 42
0.0000000001
 43
0.0000000001
 12
1.0
 22
0.0
 32
0.0
 13
1.0
 23
0.0
 33
0.0
 40
0.0
 40
0.0
 40
0.0
 40
0.0
 40
1.0
 40
1.0
 40
1.0
 40
2.0
 40
2.0
 40
2.0
 40
3.0
 40
3.0
 40
3.0
 40
4.0
 40
4.0
 40
4.0
 40
4.0
 10
3.88361267150511
 20
3.392405944035014
 30
0.0
 10
3.904663579776878
 20
3.38338121523365
 30
0.0
 10
3.961788522216718
 20
3.341279398690087
 30
0.0
 10
3.973839210121165
 20
3.329253095018544
 30
0.0
 10
3.985863075369404
 20
3.329253095018544
 30
0.0
 10
4.047516169860753
 20
3.318728860094299
 30
0.0
 10
4.068564639709241
 20
3.318728860094299
 30
0.0
 10
4.089593602171387
 20
3.318728860094299
 30
0.0
 10
4.134716625172587
 20
3.309704255494049
 30
0.0
 10
4.173819340689761
 20
3.306702556422755
 30
0.0
 10
4.2128949143075
 20
3.30369110365829
 30
0.0
 10
4.25802037573198
 20
3.281140686452836
 30
0.0
 10
4.286572036517049
 20
3.285641894457815
 30
0.0
  0
SPLINE
  5
C2
330
1F
100
AcDbEntity
  8
Layer 1
 62
     7
420
 16777215
370
     9
100
AcDbSpline
210
0.0
220
0.0
230
1.0
 70
     8
 71
     3
 72
    11
 73
     7
 74
     0
 42
0.0000000001
 43
0.0000000001
 12
1.0
 22
0.0
 32
0.0
 13
1.0
 23
0.0
 33
0.0
 40
0.0
 40
0.0
 40
0.0
 40
0.0
 40
1.0
 40
1.0
 40
1.0
 40
2.0
 40
2.0
 40
2.0
 40
2.0
 10
4.194845705107001
 20
3.62847201706538
 30
0.0
 10
4.229444493183968
 20
3.625460564300902
 30
0.0
 10
4.259495621823058
 20
3.619447542401808
 30
0.0
 10
4.267020596099302
 20
3.617947782141123
 30
0.0
 10
4.274545570375545
 20
3.616448281678041
 30
0.0
 10
4.297120493204223
 20
3.607421108793599
 30
0.0
 10
4.297120493204223
 20
3.607421108793599
 30
0.0
  0
SPLINE
  5
C3
330
1F
100
AcDbEntity
  8
Layer 1
 62
     7
420
 16777215
370
     9
100
AcDbSpline
210
0.0
220
0.0
230
1.0
 70
     8
 71
     3
 72
    11
 73
     7
 74
     0
 42
0.0000000001
 43
0.0000000001
 12
1.0
 22
0.0
 32
0.0
 13
1.0
 23
0.0
 33
0.0
 40
0.0
 40
0.0
 40
0.0
 40
0.0
 40
1.0
 40
1.0
 40
1.0
 40
2.0
 40
2.0
 40
2.0
 40
2.0
 10
4.074565599428549
 20
3.605921478469592
 30
0.0
 10
4.100142221328547
 20
3.598396504193349
 30
0.0
 10
4.148242559168137
 20
3.590883722033583
 30
0.0
 10
4.169293467439931
 20
3.590883722033583
 30
0.0
 10
4.1903443757117
 20
3.590883722033583
 30
0.0
 10
4.285072243723081
 20
3.581859117433333
 30
0.0
 10
4.297120493204223
 20
3.56832099132133
 30
0.0
  0
SPLINE
  5
C4
330
1F
100
AcDbEntity
  8
Layer 1
 62
     7
420
 16777215
370
     9
100
AcDbSpline
210
0.0
220
0.0
230
1.0
 70
     8
 71
     3
 72
    17
 73
    13
 74
     0
 42
0.0000000001
 43
0.0000000001
 12
1.0
 22
0.0
 32
0.0
 13
1.0
 23
0.0
 33
0.0
 40
0.0
 40
0.0
 40
0.0
 40
0.0
 40
1.0
 40
1.0
 40
1.0
 40
2.0
 40
2.0
 40
2.0
 40
3.0
 40
3.0
 40
3.0
 40
4.0
 40
4.0
 40
4.0
 40
4.0
 10
3.975314456212244
 20
3.56832099132133
 30
0.0
 10
3.985863075369404
 20
3.571334882509088
 30
0.0
 10
4.047516169860753
 20
3.562310277908851
 30
0.0
 10
4.061042260628912
 20
3.560808209161551
 30
0.0
 10
4.074565599428549
 20
3.559308578837545
 30
0.0
 10
4.121193129600341
 20
3.538257670565776
 30
0.0
 10
4.151266204049054
 20
3.539757300889757
 30
0.0
 10
4.181319771111475
 20
3.54125936963707
 30
0.0
 10
4.218920258259711
 20
3.54125936963707
 30
0.0
 10
4.241470796855512
 20
3.536745848125305
 30
0.0
 10
4.264021335451288
 20
3.532234765036833
 30
0.0
 10
4.286572036517049
 20
3.529233065965526
 30
0.0
 10
4.294096848323306
 20
3.52172028380576
 30
0.0
  0
SPLINE
  5
C5
330
1F
100
AcDbEntity
  8
Layer 1
 62
     7
420
 16777215
370
     9
100
AcDbSpline
210
0.0
220
0.0
230
1.0
 70
     8
 71
     3
 72
    14
 73
    10
 74
     0
 42
0.0000000001
 43
0.0000000001
 12
1.0
 22
0.0
 32
0.0
 13
1.0
 23
0.0
 33
0.0
 40
0.0
 40
0.0
 40
0.0
 40
0.0
 40
1.0
 40
1.0
 40
1.0
 40
2.0
 40
2.0
 40
2.0
 40
3.0
 40
3.0
 40
3.0
 40
3.0
 10
3.973839210121165
 20
3.511183856765051
 30
0.0
 10
3.982839430488487
 20
3.51269567920551
 30
0.0
 10
4.029442576427351
 20
3.509681788017752
 30
0.0
 10
4.050491046275839
 20
3.506682527369751
 30
0.0
 10
4.071541954547633
 20
3.503671201617205
 30
0.0
 10
4.172295166511225
 20
3.484119796657498
 30
0.0
 10
4.191844006035707
 20
3.481120536009485
 30
0.0
 10
4.211395444554329
 20
3.478106644821726
 30
0.0
 10
4.276045200699551
 20
3.478106644821726
 30
0.0
 10
4.288095888603999
 20
3.473595561733254
 30
0.0
  0
SPLINE
  5
C6
330
1F
100
AcDbEntity
  8
Layer 1
 62
     7
420
 16777215
370
     9
100
AcDbSpline
210
0.0
220
0.0
230
1.0
 70
     8
 71
     3
 72
     8
 73
     4
 74
     0
 42
0.0000000001
 43
0.0000000001
 12
1.0
 22
0.0
 32
0.0
 13
1.0
 23
0.0
 33
0.0
 40
0.0
 40
0.0
 40
0.0
 40
0.0
 40
1.0
 40
1.0
 40
1.0
 40
1.0
 10
3.898638235824642
 20
3.581859117433333
 30
0.0
 10
3.906163210100885
 20
3.563809908232858
 30
0.0
 10
3.952788301849371
 20
3.533746587477291
 30
0.0
 10
3.966314235844922
 20
3.527733435641519
 30
0.0
  0
SPLINE
  5
C7
330
1F
100
AcDbEntity
  8
Layer 1
 62
     7
420
 16777215
370
     9
100
AcDbSpline
210
0.0
220
0.0
230
1.0
 70
     8
 71
     3
 72
    11
 73
     7
 74
     0
 42
0.0000000001
 43
0.0000000001
 12
1.0
 22
0.0
 32
0.0
 13
1.0
 23
0.0
 33
0.0
 40
0.0
 40
0.0
 40
0.0
 40
0.0
 40
1.0
 40
1.0
 40
1.0
 40
2.0
 40
2.0
 40
2.0
 40
2.0
 10
3.879087110052928
 20
3.405931753829438
 30
0.0
 10
3.862537379000413
 20
3.365341759726334
 30
0.0
 10
3.853537158633091
 20
3.341279398690087
 30
0.0
 10
3.850535459561772
 20
3.323242381606065
 30
0.0
 10
3.847511814680855
 20
3.305190733982297
 30
0.0
 10
3.844512554032841
 20
3.240538378842946
 30
0.0
 10
3.835488100507241
 20
3.236027295754474
 30
0.0
  0
SPLINE
  5
C8
330
1F
100
AcDbEntity
  8
Layer 1
 62
     7
420
 16777215
370
     9
100
AcDbSpline
210
0.0
220
0.0
230
1.0
 70
     8
 71
     3
 72
     8
 73
     4
 74
     0
 42
0.0000000001
 43
0.0000000001
 12
1.0
 22
0.0
 32
0.0
 13
1.0
 23
0.0
 33
0.0
 40
0.0
 40
0.0
 40
0.0
 40
0.0
 40
1.0
 40
1.0
 40
1.0
 40
1.0
 10
3.867063092628617
 20
3.5442709504391
 30
0.0
 10
3.853537158633091
 20
3.523219914129767
 30
0.0
 10
3.846012184356848
 20
3.473595561733254
 30
0.0
 10
3.835488100507241
 20
3.463068888385717
 30
0.0
  0
SPLINE
  5
C9
330
1F
100
AcDbEntity
  8
Layer 1
 62
     7
420
 16777215
370
     9
100
AcDbSpline
210
0.0
220
0.0
230
1.0
 70
     8
 71
     3
 72
    11
 73
     7
 74
     0
 42
0.0000000001
 43
0.0000000001
 12
1.0
 22
0.0
 32
0.0
 13
1.0
 23
0.0
 33
0.0
 40
0.0
 40
0.0
 40
0.0
 40
0.0
 40
1.0
 40
1.0
 40
1.0
 40
2.0
 40
2.0
 40
2.0
 40
2.0
 10
3.712184198873223
 20
3.517206762293995
 30
0.0
 10
3.718209542825434
 20
3.502169005857973
 30
0.0
 10
3.740760081421235
 20
3.484119796657498
 30
0.0
 10
3.770835594293253
 20
3.470593862661947
 30
0.0
 10
3.800911257366427
 20
3.457055736549945
 30
0.0
 10
3.821962015437066
 20
3.451045023137466
 30
0.0
 10
3.832486250361297
 20
3.434505197954157
 30
0.0
  0
POLYLINE
  5
CA
330
1F
100
AcDbEntity
  8
Layer 1
 62
     7
420
 16777215
370
     9
100
AcDb2dPolyline
 66
     1
 10
0.0
 20
0.0
 30
0.0
  0
VERTEX
  5
CB
330
CA
100
AcDbEntity
  8
Layer 1
 62
     7
420
 16777215
370
     9
100
AcDbVertex
100
AcDb2dVertex
 10
3.498680732353983
 20
3.496158292445493
 30
0.0
  0
VERTEX
  5
225
330
CA
100
AcDbEntity
  8
0
100
AcDbVertex
100
AcDb2dVertex
 10
3.498680732353983
 20
3.496158292445493
 30
0.0
  0
SEQEND
  5
CC
330
CA
100
AcDbEntity
  8
Layer 1
 62
     7
420
 16777215
370
     9
  0
SPLINE
  5
CD
330
1F
100
AcDbEntity
  8
Layer 1
 62
     7
420
 16777215
370
     9
100
AcDbSpline
210
0.0
220
0.0
230
1.0
 70
     8
 71
     3
 72
    41
 73
    37
 74
     0
 42
0.0000000001
 43
0.0000000001
 12
1.0
 22
0.0
 32
0.0
 13
1.0
 23
0.0
 33
0.0
 40
0.0
 40
0.0
 40
0.0
 40
0.0
 40
1.0
 40
1.0
 40
1.0
 40
2.0
 40
2.0
 40
2.0
 40
3.0
 40
3.0
 40
3.0
 40
4.0
 40
4.0
 40
4.0
 40
5.0
 40
5.0
 40
5.0
 40
6.0
 40
6.0
 40
6.0
 40
7.0
 40
7.0
 40
7.0
 40
8.0
 40
8.0
 40
8.0
 40
9.0
 40
9.0
 40
9.0
 40
10.0
 40
10.0
 40
10.0
 40
11.0
 40
11.0
 40
11.0
 40
12.0
 40
12.0
 40
12.0
 40
12.0
 10
3.552591832896168
 20
3.48460748131572
 30
0.0
 10
3.562806388062452
 20
3.482917653975
 30
0.0
 10
3.573523258426702
 20
3.481608220667706
 30
0.0
 10
3.584381557341809
 20
3.481120536009485
 30
0.0
 10
3.617456330861842
 20
3.479606275145733
 30
0.0
 10
3.646032213409878
 20
3.481120536009485
 30
0.0
 10
3.659558147405404
 20
3.473595561733254
 30
0.0
 10
3.673108465633883
 20
3.466082779573475
 30
0.0
 10
3.691133438029384
 20
3.446531501625688
 30
0.0
 10
3.718209542825434
 20
3.431493870378265
 30
0.0
 10
3.745261410816536
 20
3.416455988753683
 30
0.0
 10
3.800911257366427
 20
3.37435417221012
 30
0.0
 10
3.829486989713283
 20
3.363829937285876
 30
0.0
 10
3.829486989713283
 20
3.362330306961869
 30
0.0
 10
3.83848736123102
 20
3.363829937285876
 30
0.0
 10
3.846012184356848
 20
3.377368063397878
 30
0.0
 10
3.853537158633091
 20
3.39089412155637
 30
0.0
 10
3.855036788957098
 20
3.429994114865685
 30
0.0
 10
3.859562502585302
 20
3.439018719465922
 30
0.0
 10
3.864061393557323
 20
3.448043324066172
 30
0.0
 10
3.871561983600638
 20
3.502169005857973
 30
0.0
 10
3.88061097243379
 20
3.51269567920551
 30
0.0
 10
3.88963801545732
 20
3.508182284819617
 30
0.0
 10
3.907662840424892
 20
3.499157553093507
 30
0.0
 10
3.931713009344675
 20
3.482620166333491
 30
0.0
 10
3.955787562497385
 20
3.466082779573475
 30
0.0
 10
3.966314235844922
 20
3.449542954390179
 30
0.0
 10
3.972315195564255
 20
3.448043324066172
 30
0.0
 10
3.978340539516466
 20
3.446531501625688
 30
0.0
 10
4.024941247032049
 20
3.439018719465922
 30
0.0
 10
4.035465481956306
 20
3.437506897025464
 30
0.0
 10
4.045992155303818
 20
3.436007266701457
 30
0.0
 10
4.121193129600341
 20
3.419467441518147
 30
0.0
 10
4.151266204049054
 20
3.414956358429675
 30
0.0
 10
4.181319771111475
 20
3.41044283691791
 30
0.0
 10
4.229444493183968
 20
3.420969510265447
 30
0.0
 10
4.298595739295327
 20
3.396917027237439
 30
0.0
  0
SPLINE
  5
CE
330
1F
100
AcDbEntity
  8
Layer 1
 62
     7
420
 16777215
370
     9
100
AcDbSpline
210
0.0
220
0.0
230
1.0
 70
     8
 71
     3
 72
    11
 73
     7
 74
     0
 42
0.0000000001
 43
0.0000000001
 12
1.0
 22
0.0
 32
0.0
 13
1.0
 23
0.0
 33
0.0
 40
0.0
 40
0.0
 40
0.0
 40
0.0
 40
1.0
 40
1.0
 40
1.0
 40
2.0
 40
2.0
 40
2.0
 40
2.0
 10
3.265623549463675
 20
3.446531501625688
 30
0.0
 10
3.300200391730995
 20
3.449542954390179
 30
0.0
 10
3.372377721146576
 20
3.442017980113936
 30
0.0
 10
3.406952124990615
 20
3.436007266701457
 30
0.0
 10
3.422170324750166
 20
3.433364015853941
 30
0.0
 10
3.446695986211731
 20
3.428099459968532
 30
0.0
 10
3.472199455412995
 20
3.423159214380828
 30
0.0
  0
SPLINE
  5
CF
330
1F
100
AcDbEntity
  8
Layer 1
 62
     7
420
 16777215
370
     9
100
AcDbSpline
210
0.0
220
0.0
230
1.0
 70
     8
 71
     3
 72
    20
 73
    16
 74
     0
 42
0.0000000001
 43
0.0000000001
 12
1.0
 22
0.0
 32
0.0
 13
1.0
 23
0.0
 33
0.0
 40
0.0
 40
0.0
 40
0.0
 40
0.0
 40
1.0
 40
1.0
 40
1.0
 40
2.0
 40
2.0
 40
2.0
 40
3.0
 40
3.0
 40
3.0
 40
4.0
 40
4.0
 40
4.0
 40
5.0
 40
5.0
 40
5.0
 40
5.0
 10
3.516705557321554
 20
3.415361136695992
 30
0.0
 10
3.53294545644005
 20
3.412944659214544
 30
0.0
 10
3.54737604547659
 20
3.411503551049527
 30
0.0
 10
3.55730774354111
 20
3.411954659358369
 30
0.0
 10
3.590406901294045
 20
3.413456728105668
 30
0.0
 10
3.643032952761864
 20
3.399918601993666
 30
0.0
 10
3.655056818010103
 20
3.401430424434125
 30
0.0
 10
3.65655888675739
 20
3.401430424434125
 30
0.0
 10
3.661057777729411
 20
3.392405944035014
 30
0.0
 10
3.676107726281897
 20
3.386392667998115
 30
0.0
 10
3.691133438029384
 20
3.380379516162343
 30
0.0
 10
3.745261410816536
 20
3.345792920201852
 30
0.0
 10
3.763335153501809
 20
3.336765877178323
 30
0.0
 10
3.78135982921751
 20
3.327741272578085
 30
0.0
 10
3.820459946689753
 20
3.300679650893825
 30
0.0
 10
3.829486989713283
 20
3.297677951822518
 30
0.0
  0
SPLINE
  5
D0
330
1F
100
AcDbEntity
  8
Layer 1
 62
     7
420
 16777215
370
     9
100
AcDbSpline
210
0.0
220
0.0
230
1.0
 70
     8
 71
     3
 72
    11
 73
     7
 74
     0
 42
0.0000000001
 43
0.0000000001
 12
1.0
 22
0.0
 32
0.0
 13
1.0
 23
0.0
 33
0.0
 40
0.0
 40
0.0
 40
0.0
 40
0.0
 40
1.0
 40
1.0
 40
1.0
 40
2.0
 40
2.0
 40
2.0
 40
2.0
 10
3.250573600911214
 20
3.387892298322122
 30
0.0
 10
3.285150443178534
 20
3.387892298322122
 30
0.0
 10
3.336301248555249
 20
3.392405944035014
 30
0.0
 10
3.378378680865909
 20
3.38187914648635
 30
0.0
 10
3.398285968614168
 20
3.376902324549292
 30
0.0
 10
3.421550965234246
 20
3.375283211484025
 30
0.0
 10
3.445147587421893
 20
3.374176167309871
 30
0.0
  0
SPLINE
  5
D1
330
1F
100
AcDbEntity
  8
Layer 1
 62
     7
420
 16777215
370
     9
100
AcDbSpline
210
0.0
220
0.0
230
1.0
 70
     8
 71
     3
 72
    20
 73
    16
 74
     0
 42
0.0000000001
 43
0.0000000001
 12
1.0
 22
0.0
 32
0.0
 13
1.0
 23
0.0
 33
0.0
 40
0.0
 40
0.0
 40
0.0
 40
0.0
 40
1.0
 40
1.0
 40
1.0
 40
2.0
 40
2.0
 40
2.0
 40
3.0
 40
3.0
 40
3.0
 40
4.0
 40
4.0
 40
4.0
 40
5.0
 40
5.0
 40
5.0
 40
5.0
 10
3.49086802412939
 20
3.371842596220328
 30
0.0
 10
3.501441027519478
 20
3.371069739699174
 30
0.0
 10
3.511682405341945
 20
3.369996833424011
 30
0.0
 10
3.521231270949758
 20
3.368343458797641
 30
0.0
 10
3.564830279394048
 20
3.360830676637862
 30
0.0
 10
3.643032952761864
 20
3.345792920201852
 30
0.0
 10
3.655056818010103
 20
3.348804372966318
 30
0.0
 10
3.65355733416474
 20
3.34729255052586
 30
0.0
 10
3.649055858290795
 20
3.345792920201852
 30
0.0
 10
3.668582752005654
 20
3.335266246854315
 30
0.0
 10
3.688134177305604
 20
3.324742011930071
 30
0.0
 10
3.722711020446417
 20
3.290152977546288
 30
0.0
 10
3.743759342069249
 20
3.279628863974178
 30
0.0
 10
3.764810250341017
 20
3.269102069274494
 30
0.0
 10
3.811435342089529
 20
3.234527665430467
 30
0.0
 10
3.829486989713283
 20
3.233025596683167
 30
0.0
  0
SPLINE
  5
D2
330
1F
100
AcDbEntity
  8
Layer 1
 62
     7
420
 16777215
370
     9
100
AcDbSpline
210
0.0
220
0.0
230
1.0
 70
     8
 71
     3
 72
    32
 73
    28
 74
     0
 42
0.0000000001
 43
0.0000000001
 12
1.0
 22
0.0
 32
0.0
 13
1.0
 23
0.0
 33
0.0
 40
0.0
 40
0.0
 40
0.0
 40
0.0
 40
1.0
 40
1.0
 40
1.0
 40
2.0
 40
2.0
 40
2.0
 40
3.0
 40
3.0
 40
3.0
 40
4.0
 40
4.0
 40
4.0
 40
5.0
 40
5.0
 40
5.0
 40
6.0
 40
6.0
 40
6.0
 40
7.0
 40
7.0
 40
7.0
 40
8.0
 40
8.0
 40
8.0
 40
9.0
 40
9.0
 40
9.0
 40
9.0
 10
3.65655888675739
 20
3.275115221110279
 30
0.0
 10
3.668582752005654
 20
3.272115960462265
 30
0.0
 10
3.703183978505901
 20
3.234527665430467
 30
0.0
 10
3.727234147425684
 20
3.22400099208293
 30
0.0
 10
3.751284316345466
 20
3.213476757158686
 30
0.0
 10
3.811435342089529
 20
3.169851044637122
 30
0.0
 10
3.826460906409061
 20
3.163849966338893
 30
0.0
 10
3.83848736123102
 20
3.17437663968643
 30
0.0
 10
3.846012184356848
 20
3.186400504934682
 30
0.0
 10
3.849011445004862
 20
3.207451532735225
 30
0.0
 10
3.852037528309084
 20
3.228514513594695
 30
0.0
 10
3.861062132909309
 20
3.270613891714977
 30
0.0
 10
3.867063092628617
 20
3.287153716898274
 30
0.0
 10
3.873085998157573
 20
3.30369110365829
 30
0.0
 10
3.88061097243379
 20
3.335266246854315
 30
0.0
 10
3.88061097243379
 20
3.335266246854315
 30
0.0
 10
3.909162470748899
 20
3.318728860094299
 30
0.0
 10
3.949764656968455
 20
3.287153716898274
 30
0.0
 10
3.969313496492936
 20
3.282640195386509
 30
0.0
 10
3.988864929389946
 20
3.278129112298036
 30
0.0
 10
4.023441772530759
 20
3.269102069274494
 30
0.0
 10
4.050491046275839
 20
3.272115960462265
 30
0.0
 10
4.077591682732772
 20
3.275115221110279
 30
0.0
 10
4.107642811371887
 20
3.257078204026255
 30
0.0
 10
4.143743668196117
 20
3.251065052190484
 30
0.0
 10
4.179817862137295
 20
3.245052020833352
 30
0.0
 10
4.203894693940153
 20
3.240538378842946
 30
0.0
 10
4.217418350235448
 20
3.243540198354708
 30
0.0
  0
SPLINE
  5
D3
330
1F
100
AcDbEntity
  8
Layer 1
 62
     7
420
 16777215
370
     9
100
AcDbSpline
210
0.0
220
0.0
230
1.0
 70
     8
 71
     3
 72
    11
 73
     7
 74
     0
 42
0.0000000001
 43
0.0000000001
 12
1.0
 22
0.0
 32
0.0
 13
1.0
 23
0.0
 33
0.0
 40
0.0
 40
0.0
 40
0.0
 40
0.0
 40
1.0
 40
1.0
 40
1.0
 40
2.0
 40
2.0
 40
2.0
 40
2.0
 10
3.2475743402632
 20
3.327741272578085
 30
0.0
 10
3.279627414424264
 20
3.327741272578085
 30
0.0
 10
3.347874005494658
 20
3.31999196335908
 30
0.0
 10
3.387617866715749
 20
3.312871767349166
 30
0.0
 10
3.390736610105023
 20
3.312310929992211
 30
0.0
 10
3.393689540710511
 20
3.31175253105856
 30
0.0
 10
3.396452274299286
 20
3.311203885818069
 30
0.0
  0
SPLINE
  5
D4
330
1F
100
AcDbEntity
  8
Layer 1
 62
     7
420
 16777215
370
     9
100
AcDbSpline
210
0.0
220
0.0
230
1.0
 70
     8
 71
     3
 72
    11
 73
     7
 74
     0
 42
0.0000000001
 43
0.0000000001
 12
1.0
 22
0.0
 32
0.0
 13
1.0
 23
0.0
 33
0.0
 40
0.0
 40
0.0
 40
0.0
 40
0.0
 40
1.0
 40
1.0
 40
1.0
 40
2.0
 40
2.0
 40
2.0
 40
2.0
 10
3.435957170037859
 20
3.306275832346829
 30
0.0
 10
3.490821694086864
 20
3.301296571986465
 30
0.0
 10
3.573903652460103
 20
3.298024207929858
 30
0.0
 10
3.588904832546758
 20
3.299177582146525
 30
0.0
 10
3.608431726261617
 20
3.300679650893825
 30
0.0
 10
3.634008348161615
 20
3.285641894457815
 30
0.0
 10
3.652033173129186
 20
3.284139947176603
 30
0.0
  0
SPLINE
  5
D5
330
1F
100
AcDbEntity
  8
Layer 1
 62
     7
420
 16777215
370
     9
100
AcDbSpline
210
0.0
220
0.0
230
1.0
 70
     8
 71
     3
 72
    11
 73
     7
 74
     0
 42
0.0000000001
 43
0.0000000001
 12
1.0
 22
0.0
 32
0.0
 13
1.0
 23
0.0
 33
0.0
 40
0.0
 40
0.0
 40
0.0
 40
0.0
 40
1.0
 40
1.0
 40
1.0
 40
2.0
 40
2.0
 40
2.0
 40
2.0
 10
3.655056818010103
 20
3.22400099208293
 30
0.0
 10
3.662559846476723
 20
3.217978086554
 30
0.0
 10
3.692635359348742
 20
3.196927178282218
 30
0.0
 10
3.71368382919723
 20
3.181901613962661
 30
0.0
 10
3.734734737468999
 20
3.166876168146877
 30
0.0
 10
3.809911327532594
 20
3.112725983618386
 30
0.0
 10
3.827962975156374
 20
3.112725983618386
 30
0.0
  0
SPLINE
  5
D6
330
1F
100
AcDbEntity
  8
Layer 1
 62
     7
420
 16777215
370
     9
100
AcDbSpline
210
0.0
220
0.0
230
1.0
 70
     8
 71
     3
 72
    11
 73
     7
 74
     0
 42
0.0000000001
 43
0.0000000001
 12
1.0
 22
0.0
 32
0.0
 13
1.0
 23
0.0
 33
0.0
 40
0.0
 40
0.0
 40
0.0
 40
0.0
 40
1.0
 40
1.0
 40
1.0
 40
2.0
 40
2.0
 40
2.0
 40
2.0
 10
3.244575079615187
 20
3.254076504954948
 30
0.0
 10
3.259576259701817
 20
3.258160863967494
 30
0.0
 10
3.293150909996534
 20
3.261018696064626
 30
0.0
 10
3.321702408311643
 20
3.259268028979414
 30
0.0
 10
3.324633393107483
 20
3.259089903241387
 30
0.0
 10
3.327488786781335
 20
3.258863129875319
 30
0.0
 10
3.330275904603013
 20
3.258577834350262
 30
0.0
  0
SPLINE
  5
D7
330
1F
100
AcDbEntity
  8
Layer 1
 62
     7
420
 16777215
370
     9
100
AcDbSpline
210
0.0
220
0.0
230
1.0
 70
     8
 71
     3
 72
    11
 73
     7
 74
     0
 42
0.0000000001
 43
0.0000000001
 12
1.0
 22
0.0
 32
0.0
 13
1.0
 23
0.0
 33
0.0
 40
0.0
 40
0.0
 40
0.0
 40
0.0
 40
1.0
 40
1.0
 40
1.0
 40
2.0
 40
2.0
 40
2.0
 40
2.0
 10
3.373401858928825
 20
3.254100889187864
 30
0.0
 10
3.406525400914688
 20
3.250801702475049
 30
0.0
 10
3.445840099636547
 20
3.247575668460968
 30
0.0
 10
3.465603662141246
 20
3.249553229750025
 30
0.0
 10
3.495654649049761
 20
3.25256468251449
 30
0.0
 10
3.640009307880923
 20
3.22550306083023
 30
0.0
 10
3.652033173129186
 20
3.236027295754474
 30
0.0
  0
SPLINE
  5
D8
330
1F
100
AcDbEntity
  8
Layer 1
 62
     7
420
 16777215
370
     9
100
AcDbSpline
210
0.0
220
0.0
230
1.0
 70
     8
 71
     3
 72
     8
 73
     4
 74
     0
 42
0.0000000001
 43
0.0000000001
 12
1.0
 22
0.0
 32
0.0
 13
1.0
 23
0.0
 33
0.0
 40
0.0
 40
0.0
 40
0.0
 40
0.0
 40
1.0
 40
1.0
 40
1.0
 40
1.0
 10
3.655056818010103
 20
3.168375679967109
 30
0.0
 10
3.667083121681647
 20
3.165352035086193
 30
0.0
 10
3.73325949137792
 20
3.115749628499303
 30
0.0
 10
3.743759342069249
 20
3.094674452674401
 30
0.0
  0
SPLINE
  5
D9
330
1F
100
AcDbEntity
  8
Layer 1
 62
     7
420
 16777215
370
     9
100
AcDbSpline
210
0.0
220
0.0
230
1.0
 70
     8
 71
     3
 72
    14
 73
    10
 74
     0
 42
0.0000000001
 43
0.0000000001
 12
1.0
 22
0.0
 32
0.0
 13
1.0
 23
0.0
 33
0.0
 40
0.0
 40
0.0
 40
0.0
 40
0.0
 40
1.0
 40
1.0
 40
1.0
 40
2.0
 40
2.0
 40
2.0
 40
3.0
 40
3.0
 40
3.0
 40
3.0
 10
3.292819284428939
 20
3.202235625786872
 30
0.0
 10
3.315940414074829
 20
3.200404489246062
 30
0.0
 10
3.340897676458907
 20
3.196927178282218
 30
0.0
 10
3.363350678123045
 20
3.196927178282218
 30
0.0
 10
3.402453234018594
 20
3.196927178282218
 30
0.0
 10
3.486654428682439
 20
3.201426069254239
 30
0.0
 10
3.518229571878464
 20
3.193925479210912
 30
0.0
 10
3.54980471507449
 20
3.186400504934682
 30
0.0
 10
3.629507018766314
 20
3.17437663968643
 30
0.0
 10
3.650558073440985
 20
3.180399545215361
 30
0.0
  0
SPLINE
  5
DA
330
1F
100
AcDbEntity
  8
Layer 1
 62
     7
420
 16777215
370
     9
100
AcDbSpline
210
0.0
220
0.0
230
1.0
 70
     8
 71
     3
 72
     8
 73
     4
 74
     0
 42
0.0000000001
 43
0.0000000001
 12
1.0
 22
0.0
 32
0.0
 13
1.0
 23
0.0
 33
0.0
 40
0.0
 40
0.0
 40
0.0
 40
0.0
 40
1.0
 40
1.0
 40
1.0
 40
1.0
 10
3.65355733416474
 20
3.138300167095091
 30
0.0
 10
3.66558349135764
 20
3.130775192818861
 30
0.0
 10
3.686634399629408
 20
3.127751547937944
 30
0.0
 10
3.683608316325212
 20
3.10972428454708
 30
0.0
  0
SPLINE
  5
DB
330
1F
100
AcDbEntity
  8
Layer 1
 62
     7
420
 16777215
370
     9
100
AcDbSpline
210
0.0
220
0.0
230
1.0
 70
     8
 71
     3
 72
    14
 73
    10
 74
     0
 42
0.0000000001
 43
0.0000000001
 12
1.0
 22
0.0
 32
0.0
 13
1.0
 23
0.0
 33
0.0
 40
0.0
 40
0.0
 40
0.0
 40
0.0
 40
1.0
 40
1.0
 40
1.0
 40
2.0
 40
2.0
 40
2.0
 40
3.0
 40
3.0
 40
3.0
 40
3.0
 10
3.243051065058277
 20
3.150324032343342
 30
0.0
 10
3.277649990117677
 20
3.153325731414649
 30
0.0
 10
3.349827321356593
 20
3.147300387462426
 30
0.0
 10
3.391926560671057
 20
3.147300387462426
 30
0.0
 10
3.43402837721462
 20
3.147300387462426
 30
0.0
 10
3.525730161921779
 20
3.150324032343342
 30
0.0
 10
3.55883175809802
 20
3.144301126814412
 30
0.0
 10
3.591906531618052
 20
3.138300167095091
 30
0.0
 10
3.640009307880923
 20
3.127751547937944
 30
0.0
 10
3.652033173129186
 20
3.130775192818861
 30
0.0
  0
SPLINE
  5
DC
330
1F
100
AcDbEntity
  8
Layer 1
 62
     7
420
 16777215
370
     9
100
AcDbSpline
210
0.0
220
0.0
230
1.0
 70
     8
 71
     3
 72
    11
 73
     7
 74
     0
 42
0.0000000001
 43
0.0000000001
 12
1.0
 22
0.0
 32
0.0
 13
1.0
 23
0.0
 33
0.0
 40
0.0
 40
0.0
 40
0.0
 40
0.0
 40
1.0
 40
1.0
 40
1.0
 40
2.0
 40
2.0
 40
2.0
 40
2.0
 10
3.241548996310964
 20
3.105201009342156
 30
0.0
 10
3.280649250841432
 20
3.106725023899066
 30
0.0
 10
3.318249738939585
 20
3.114249998175309
 30
0.0
 10
3.360351417475032
 20
3.105201009342156
 30
0.0
 10
3.402453234018594
 20
3.096173966318626
 30
0.0
 10
3.480629084730203
 20
3.078149141351054
 30
0.0
 10
3.539280480150233
 20
3.087173745951304
 30
0.0
  0
SPLINE
  5
DD
330
1F
100
AcDbEntity
  8
Layer 1
 62
     7
420
 16777215
370
     9
100
AcDbSpline
210
0.0
220
0.0
230
1.0
 70
     8
 71
     3
 72
     8
 73
     4
 74
     0
 42
0.0000000001
 43
0.0000000001
 12
1.0
 22
0.0
 32
0.0
 13
1.0
 23
0.0
 33
0.0
 40
0.0
 40
0.0
 40
0.0
 40
0.0
 40
1.0
 40
1.0
 40
1.0
 40
1.0
 10
3.240073886253084
 20
3.060097609533588
 30
0.0
 10
3.256598944863425
 20
3.063123577031496
 30
0.0
 10
3.327276643954999
 20
3.061621508284209
 30
0.0
 10
3.352826582080398
 20
3.043547914850806
 30
0.0
  0
POLYLINE
  5
DE
330
1F
100
AcDbEntity
  8
Layer 1
 62
     7
420
 16777215
370
    15
100
AcDb2dPolyline
 66
     1
 10
0.0
 20
0.0
 30
0.0
  0
VERTEX
  5
DF
330
DE
100
AcDbEntity
  8
Layer 1
 62
     7
420
 16777215
370
    15
100
AcDbVertex
100
AcDb2dVertex
 10
3.662559846476723
 20
3.526221613201061
 30
0.0
  0
VERTEX
  5
E0
330
DE
100
AcDbEntity
  8
Layer 1
 62
     7
420
 16777215
370
    15
100
AcDbVertex
100
AcDb2dVertex
 10
3.652033173129186
 20
3.112725983618386
 30
0.0
  0
SEQEND
  5
E1
330
DE
100
AcDbEntity
  8
Layer 1
 62
     7
420
 16777215
370
    15
  0
POLYLINE
  5
E2
330
1F
100
AcDbEntity
  8
Layer 1
 62
     7
420
 16777215
370
    15
100
AcDb2dPolyline
 66
     1
 10
0.0
 20
0.0
 30
0.0
  0
VERTEX
  5
E3
330
E2
100
AcDbEntity
  8
Layer 1
 62
     7
420
 16777215
370
    15
100
AcDbVertex
100
AcDb2dVertex
 10
3.833985880685304
 20
3.491644770933716
 30
0.0
  0
VERTEX
  5
E4
330
E2
100
AcDbEntity
  8
Layer 1
 62
     7
420
 16777215
370
    15
100
AcDbVertex
100
AcDb2dVertex
 10
3.829486989713283
 20
3.079648771675061
 30
0.0
  0
SEQEND
  5
E5
330
E2
100
AcDbEntity
  8
Layer 1
 62
     7
420
 16777215
370
    15
  0
POLYLINE
  5
E6
330
1F
100
AcDbEntity
  8
Layer 1
 62
     7
420
 16777215
370
    15
100
AcDb2dPolyline
 66
     1
 10
0.0
 20
0.0
 30
0.0
  0
VERTEX
  5
E7
330
E6
100
AcDbEntity
  8
Layer 1
 62
     7
420
 16777215
370
    15
100
AcDbVertex
100
AcDb2dVertex
 10
3.88361267150511
 20
3.578847793579914
 30
0.0
  0
VERTEX
  5
E8
330
E6
100
AcDbEntity
  8
Layer 1
 62
     7
420
 16777215
370
    15
100
AcDbVertex
100
AcDb2dVertex
 10
3.88061097243379
 20
3.180399545215361
 30
0.0
  0
SEQEND
  5
E9
330
E6
100
AcDbEntity
  8
Layer 1
 62
     7
420
 16777215
370
    15
  0
POLYLINE
  5
EA
330
1F
100
AcDbEntity
  8
Layer 1
 62
     7
420
 16777215
370
    15
100
AcDb2dPolyline
 66
     1
 10
0.0
 20
0.0
 30
0.0
  0
VERTEX
  5
EB
330
EA
100
AcDbEntity
  8
Layer 1
 62
     7
420
 16777215
370
    15
100
AcDbVertex
100
AcDb2dVertex
 10
3.973839210121165
 20
3.583358876782351
 30
0.0
  0
VERTEX
  5
EC
330
EA
100
AcDbEntity
  8
Layer 1
 62
     7
420
 16777215
370
    15
100
AcDbVertex
100
AcDb2dVertex
 10
3.972315195564255
 20
3.181901613962661
 30
0.0
  0
SEQEND
  5
ED
330
EA
100
AcDbEntity
  8
Layer 1
 62
     7
420
 16777215
370
    15
  0
POLYLINE
  5
EE
330
1F
100
AcDbEntity
  8
Layer 1
 62
     7
420
 16777215
370
    15
100
AcDb2dPolyline
 66
     1
 10
0.0
 20
0.0
 30
0.0
  0
VERTEX
  5
EF
330
EE
100
AcDbEntity
  8
Layer 1
 62
     7
420
 16777215
370
    15
100
AcDbVertex
100
AcDb2dVertex
 10
3.252097615468124
 20
3.445031871301694
 30
0.0
  0
VERTEX
  5
F0
330
EE
100
AcDbEntity
  8
Layer 1
 62
     7
420
 16777215
370
    15
100
AcDbVertex
100
AcDb2dVertex
 10
3.500299845419249
 20
3.49540725807185
 30
0.0
  0
SEQEND
  5
F1
330
EE
100
AcDbEntity
  8
Layer 1
 62
     7
420
 16777215
370
    15
  0
POLYLINE
  5
F2
330
1F
100
AcDbEntity
  8
Layer 1
 62
     7
420
 16777215
370
    15
100
AcDb2dPolyline
 66
     1
 10
0.0
 20
0.0
 30
0.0
  0
VERTEX
  5
F3
330
F2
100
AcDbEntity
  8
Layer 1
 62
     7
420
 16777215
370
    15
100
AcDbVertex
100
AcDb2dVertex
 10
3.555925157535057
 20
3.50669484657452
 30
0.0
  0
VERTEX
  5
F4
330
F2
100
AcDbEntity
  8
Layer 1
 62
     7
420
 16777215
370
    15
100
AcDbVertex
100
AcDb2dVertex
 10
3.659558147405404
 20
3.527733435641519
 30
0.0
  0
VERTEX
  5
F5
330
F2
100
AcDbEntity
  8
Layer 1
 62
     7
420
 16777215
370
    15
100
AcDbVertex
100
AcDb2dVertex
 10
3.835488100507241
 20
3.490132948493258
 30
0.0
  0
VERTEX
  5
F6
330
F2
100
AcDbEntity
  8
Layer 1
 62
     7
420
 16777215
370
    15
100
AcDbVertex
100
AcDb2dVertex
 10
3.88361267150511
 20
3.581859117433333
 30
0.0
  0
VERTEX
  5
F7
330
F2
100
AcDbEntity
  8
Layer 1
 62
     7
420
 16777215
370
    15
100
AcDbVertex
100
AcDb2dVertex
 10
3.972315195564255
 20
3.584860816504639
 30
0.0
  0
VERTEX
  5
F8
330
F2
100
AcDbEntity
  8
Layer 1
 62
     7
420
 16777215
370
    15
100
AcDbVertex
100
AcDb2dVertex
 10
4.298595739295327
 20
3.652534378101627
 30
0.0
  0
SEQEND
  5
F9
330
F2
100
AcDbEntity
  8
Layer 1
 62
     7
420
 16777215
370
    15
  0
POLYLINE
  5
FA
330
1F
100
AcDbEntity
  8
Layer 1
 62
     7
420
 16777215
370
    15
100
AcDb2dPolyline
 66
     1
 10
0.0
 20
0.0
 30
0.0
  0
VERTEX
  5
FB
330
FA
100
AcDbEntity
  8
Layer 1
 62
     7
420
 16777215
370
    15
100
AcDbVertex
100
AcDb2dVertex
 10
1.423687363857526
 20
4.521617700117379
 30
0.0
  0
VERTEX
  5
FC
330
FA
100
AcDbEntity
  8
Layer 1
 62
     7
420
 16777215
370
    15
100
AcDbVertex
100
AcDb2dVertex
 10
2.004585629218531
 20
4.185880950863533
 30
0.0
  0
SEQEND
  5
FD
330
FA
100
AcDbEntity
  8
Layer 1
 62
     7
420
 16777215
370
    15
  0
POLYLINE
  5
FE
330
1F
100
AcDbEntity
  8
Layer 1
 62
     7
420
 16777215
370
    15
100
AcDb2dPolyline
 66
     1
 10
0.0
 20
0.0
 30
0.0
  0
VERTEX
  5
FF
330
FE
100
AcDbEntity
  8
Layer 1
 62
     7
420
 16777215
370
    15
100
AcDbVertex
100
AcDb2dVertex
 10
2.020849912569942
 20
4.173688834408191
 30
0.0
  0
VERTEX
  5
100
330
FE
100
AcDbEntity
  8
Layer 1
 62
     7
420
 16777215
370
    15
100
AcDbVertex
100
AcDb2dVertex
 10
2.95365411202786
 20
3.619496310868878
 30
0.0
  0
SEQEND
  5
101
330
FE
100
AcDbEntity
  8
Layer 1
 62
     7
420
 16777215
370
    15
  0
POLYLINE
  5
102
330
1F
100
AcDbEntity
  8
Layer 1
 62
     7
420
 16777215
370
    15
100
AcDb2dPolyline
 66
     1
 10
0.0
 20
0.0
 30
0.0
  0
VERTEX
  5
103
330
102
100
AcDbEntity
  8
Layer 1
 62
     7
420
 16777215
370
    15
100
AcDbVertex
100
AcDb2dVertex
 10
3.023019939388834
 20
3.578584314953433
 30
0.0
  0
VERTEX
  5
104
330
102
100
AcDbEntity
  8
Layer 1
 62
     7
420
 16777215
370
    15
100
AcDbVertex
100
AcDb2dVertex
 10
3.252097615468124
 20
3.443520048861235
 30
0.0
  0
VERTEX
  5
105
330
102
100
AcDbEntity
  8
Layer 1
 62
     7
420
 16777215
370
    15
100
AcDbVertex
100
AcDb2dVertex
 10
3.245192000707827
 20
3.200306952311924
 30
0.0
  0
SEQEND
  5
106
330
102
100
AcDbEntity
  8
Layer 1
 62
     7
420
 16777215
370
    15
  0
POLYLINE
  5
107
330
1F
100
AcDbEntity
  8
Layer 1
 62
     7
420
 16777215
370
    15
100
AcDb2dPolyline
 66
     1
 10
0.0
 20
0.0
 30
0.0
  0
VERTEX
  5
108
330
107
100
AcDbEntity
  8
Layer 1
 62
     7
420
 16777215
370
    15
100
AcDbVertex
100
AcDb2dVertex
 10
3.243882567400533
 20
3.154610898682954
 30
0.0
  0
VERTEX
  5
109
330
107
100
AcDbEntity
  8
Layer 1
 62
     7
420
 16777215
370
    15
100
AcDbVertex
100
AcDb2dVertex
 10
3.240073886253084
 20
3.01952224494524
 30
0.0
  0
SEQEND
  5
10A
330
107
100
AcDbEntity
  8
Layer 1
 62
     7
420
 16777215
370
    15
  0
SPLINE
  5
10B
330
1F
100
AcDbEntity
  8
Layer 1
 62
     7
420
 16777215
370
     9
100
AcDbSpline
210
0.0
220
0.0
230
1.0
 70
     8
 71
     3
 72
     8
 73
     4
 74
     0
 42
0.0000000001
 43
0.0000000001
 12
1.0
 22
0.0
 32
0.0
 13
1.0
 23
0.0
 33
0.0
 40
0.0
 40
0.0
 40
0.0
 40
0.0
 40
1.0
 40
1.0
 40
1.0
 40
1.0
 10
1.85522011157309
 20
4.551693212989398
 30
0.0
 10
1.861245354476447
 20
4.565228900678107
 30
0.0
 10
1.861245354476447
 20
4.574255943701638
 30
0.0
 10
1.870257766960233
 20
4.575755574025644
 30
0.0
  0
POLYLINE
  5
10C
330
1F
100
AcDbEntity
  8
Layer 1
 62
     7
420
 16777215
370
    15
100
AcDb2dPolyline
 66
     1
 10
0.0
 20
0.0
 30
0.0
  0
VERTEX
  5
10D
330
10C
100
AcDbEntity
  8
Layer 1
 62
     7
420
 16777215
370
    15
100
AcDbVertex
100
AcDb2dVertex
 10
1.835680924692901
 20
4.553205035429856
 30
0.0
  0
VERTEX
  5
10E
330
10C
100
AcDbEntity
  8
Layer 1
 62
     7
420
 16777215
370
    15
100
AcDbVertex
100
AcDb2dVertex
 10
1.913871405944254
 20
4.545680061153626
 30
0.0
  0
VERTEX
  5
10F
330
10C
100
AcDbEntity
  8
Layer 1
 62
     7
420
 16777215
370
    15
100
AcDbVertex
100
AcDb2dVertex
 10
1.838682623764208
 20
4.605831086897663
 30
0.0
  0
SEQEND
  5
110
330
10C
100
AcDbEntity
  8
Layer 1
 62
     7
420
 16777215
370
    15
  0
POLYLINE
  5
111
330
1F
100
AcDbEntity
  8
Layer 1
 62
     7
420
 16777215
370
    13
100
AcDb2dPolyline
 66
     1
 10
0.0
 20
0.0
 30
0.0
  0
VERTEX
  5
112
330
111
100
AcDbEntity
  8
Layer 1
 62
     7
420
 16777215
370
    13
100
AcDbVertex
100
AcDb2dVertex
 10
1.945661233723488
 20
4.330162456995961
 30
0.0
  0
VERTEX
  5
113
330
111
100
AcDbEntity
  8
Layer 1
 62
     7
420
 16777215
370
    13
100
AcDbVertex
100
AcDb2dVertex
 10
1.878604591525156
 20
4.366738806361973
 30
0.0
  0
SEQEND
  5
114
330
111
100
AcDbEntity
  8
Layer 1
 62
     7
420
 16777215
370
    13
  0
INSERT
  5
116
330
1F
100
AcDbEntity
  8
Layer 1
100
AcDbBlockReference
  2
block 2
 10
0.0
 20
0.0
 30
0.0
  0
POLYLINE
  5
149
330
1F
100
AcDbEntity
  8
callout
 62
     7
420
 16777215
370
    13
100
AcDb2dPolyline
 66
     1
 10
0.0
 20
0.0
 30
0.0
  0
VERTEX
  5
14A
330
149
100
AcDbEntity
  8
callout
 62
     7
420
 16777215
370
    13
100
AcDbVertex
100
AcDb2dVertex
 10
1.151137477345098
 20
4.437855572257338
 30
0.0
  0
VERTEX
  5
14B
330
149
100
AcDbEntity
  8
callout
 62
     7
420
 16777215
370
    13
100
AcDbVertex
100
AcDb2dVertex
 10
2.454847805183918
 20
4.592590448427169
 30
0.0
  0
SEQEND
  5
14C
330
149
100
AcDbEntity
  8
callout
 62
     7
420
 16777215
370
    13
  0
POLYLINE
  5
14D
330
1F
100
AcDbEntity
  8
callout
 62
     7
420
 16777215
370
    13
100
AcDb2dPolyline
 66
     1
 10
0.0
 20
0.0
 30
0.0
  0
VERTEX
  5
14E
330
14D
100
AcDbEntity
  8
callout
 62
     7
420
 16777215
370
    13
100
AcDbVertex
100
AcDb2dVertex
 10
1.175521710255768
 20
3.828249734090655
 30
0.0
  0
VERTEX
  5
14F
330
14D
100
AcDbEntity
  8
callout
 62
     7
420
 16777215
370
    13
100
AcDbVertex
100
AcDb2dVertex
 10
2.26539450758446
 20
4.007298144295646
 30
0.0
  0
SEQEND
  5
150
330
14D
100
AcDbEntity
  8
callout
 62
     7
420
 16777215
370
    13
  0
POLYLINE
  5
151
330
1F
100
AcDbEntity
  8
callout
 62
     7
420
 16777215
370
    13
100
AcDb2dPolyline
 66
     1
 10
0.0
 20
0.0
 30
0.0
  0
VERTEX
  5
152
330
151
100
AcDbEntity
  8
callout
 62
     7
420
 16777215
370
    13
100
AcDbVertex
100
AcDb2dVertex
 10
1.545357370811884
 20
3.572215282060673
 30
0.0
  0
VERTEX
  5
153
330
151
100
AcDbEntity
  8
callout
 62
     7
420
 16777215
370
    13
100
AcDbVertex
100
AcDb2dVertex
 10
2.678282969767679
 20
3.760527268816392
 30
0.0
  0
SEQEND
  5
154
330
151
100
AcDbEntity
  8
callout
 62
     7
420
 16777215
370
    13
  0
POLYLINE
  5
155
330
1F
100
AcDbEntity
  8
callout
 62
     7
420
 16777215
370
    13
100
AcDb2dPolyline
 66
     1
 10
0.0
 20
0.0
 30
0.0
  0
VERTEX
  5
156
330
155
100
AcDbEntity
  8
callout
 62
     7
420
 16777215
370
    13
100
AcDbVertex
100
AcDb2dVertex
 10
1.213634266295142
 20
4.39426616689482
 30
0.0
  0
VERTEX
  5
157
330
155
100
AcDbEntity
  8
callout
 62
     7
420
 16777215
370
    13
100
AcDbVertex
100
AcDb2dVertex
 10
1.210193651031444
 20
4.280121134216693
 30
0.0
  0
SEQEND
  5
158
330
155
100
AcDbEntity
  8
callout
 62
     7
420
 16777215
370
    13
  0
POLYLINE
  5
159
330
1F
100
AcDbEntity
  8
callout
 62
     7
420
 16777215
370
    13
100
AcDb2dPolyline
 66
     1
 10
0.0
 20
0.0
 30
0.0
  0
VERTEX
  5
15A
330
159
100
AcDbEntity
  8
callout
 62
     7
420
 16777215
370
    13
100
AcDbVertex
100
AcDb2dVertex
 10
1.214265817927526
 20
4.064732766493458
 30
0.0
  0
VERTEX
  5
15B
330
159
100
AcDbEntity
  8
callout
 62
     7
420
 16777215
370
    13
100
AcDbVertex
100
AcDb2dVertex
 10
1.213634266295142
 20
3.881685206879638
 30
0.0
  0
SEQEND
  5
15C
330
159
100
AcDbEntity
  8
callout
 62
     7
420
 16777215
370
    13
  0
POLYLINE
  5
15D
330
1F
100
AcDbEntity
  8
callout
 62
     7
420
 16777215
370
    13
100
AcDb2dPolyline
 66
     1
 10
0.0
 20
0.0
 30
0.0
  0
VERTEX
  5
15E
330
15D
100
AcDbEntity
  8
callout
 62
     7
420
 16777215
370
    13
100
AcDbVertex
100
AcDb2dVertex
 10
1.240137489045752
 20
3.821129537900863
 30
0.0
  0
VERTEX
  5
15F
330
15D
100
AcDbEntity
  8
callout
 62
     7
420
 16777215
370
    13
100
AcDbVertex
100
AcDb2dVertex
 10
1.325445727883726
 20
3.768895937551342
 30
0.0
  0
SEQEND
  5
160
330
15D
100
AcDbEntity
  8
callout
 62
     7
420
 16777215
370
    13
  0
POLYLINE
  5
161
330
1F
100
AcDbEntity
  8
callout
 62
     7
420
 16777215
370
    13
100
AcDb2dPolyline
 66
     1
 10
0.0
 20
0.0
 30
0.0
  0
VERTEX
  5
162
330
161
100
AcDbEntity
  8
callout
 62
     7
420
 16777215
370
    13
100
AcDbVertex
100
AcDb2dVertex
 10
1.505340406182187
 20
3.658737726954099
 30
0.0
  0
VERTEX
  5
163
330
161
100
AcDbEntity
  8
callout
 62
     7
420
 16777215
370
    13
100
AcDbVertex
100
AcDb2dVertex
 10
1.602175071917044
 20
3.599457218324978
 30
0.0
  0
SEQEND
  5
164
330
161
100
AcDbEntity
  8
callout
 62
     7
420
 16777215
370
    13
  0
POLYLINE
  5
165
330
1F
100
AcDbEntity
  8
callout
370
     0
100
AcDb2dPolyline
 66
     1
 10
0.0
 20
0.0
 30
0.0
  0
VERTEX
  5
166
330
165
100
AcDbEntity
  8
callout
370
     0
100
AcDbVertex
100
AcDb2dVertex
 10
1.213468453511344
 20
4.444583031505986
 30
0.0
  0
VERTEX
  5
167
330
165
100
AcDbEntity
  8
callout
370
     0
100
AcDbVertex
100
AcDb2dVertex
 10
1.191595796590478
 20
4.377514198885188
 30
0.0
  0
VERTEX
  5
168
330
165
100
AcDbEntity
  8
callout
370
     0
100
AcDbVertex
100
AcDb2dVertex
 10
1.237255272715705
 20
4.383229863079464
 30
0.0
  0
VERTEX
  5
169
330
165
100
AcDbEntity
  8
callout
370
     0
100
AcDbVertex
100
AcDb2dVertex
 10
1.213468453511344
 20
4.444583031505986
 30
0.0
  0
SEQEND
  5
16B
330
165
100
AcDbEntity
  8
callout
370
     0
  0
HATCH
  5
16A
330
1F
100
AcDbEntity
  8
callout
 62
     7
420
 16777215
100
AcDbHatch
 10
0.0
 20
0.0
 30
0.0
210
0.0
220
0.0
230
1.0
  2
SOLID
 70
     1
 71
     0
 91
        1
 92
        1
 93
        3
 72
     1
 10
1.213468453511344
 20
4.444583031505986
 11
1.191595796590478
 21
4.377514198885188
 72
     1
 10
1.191595796590478
 20
4.377514198885188
 11
1.237255272715705
 21
4.383229863079464
 72
     1
 10
1.237255272715705
 20
4.383229863079464
 11
1.213468453511344
 21
4.444583031505986
 97
        0
 75
     2
 76
     1
 98
        0
  0
POLYLINE
  5
16C
330
1F
100
AcDbEntity
  8
callout
370
     0
100
AcDb2dPolyline
 66
     1
 10
0.0
 20
0.0
 30
0.0
  0
VERTEX
  5
16D
330
16C
100
AcDbEntity
  8
callout
370
     0
100
AcDbVertex
100
AcDb2dVertex
 10
2.640119271384391
 20
5.886276418116418
 30
0.0
  0
VERTEX
  5
16E
330
16C
100
AcDbEntity
  8
callout
370
     0
100
AcDbVertex
100
AcDb2dVertex
 10
2.709914261244598
 20
5.870941360853079
 30
0.0
  0
VERTEX
  5
16F
330
16C
100
AcDbEntity
  8
callout
370
     0
100
AcDbVertex
100
AcDb2dVertex
 10
2.710021551869406
 20
5.920614294901219
 30
0.0
  0
VERTEX
  5
170
330
16C
100
AcDbEntity
  8
callout
370
     0
100
AcDbVertex
100
AcDb2dVertex
 10
2.640119271384391
 20
5.886276418116418
 30
0.0
  0
SEQEND
  5
172
330
16C
100
AcDbEntity
  8
callout
370
     0
  0
HATCH
  5
171
330
1F
100
AcDbEntity
  8
callout
 62
     7
420
 16777215
100
AcDbHatch
 10
0.0
 20
0.0
 30
0.0
210
0.0
220
0.0
230
1.0
  2
SOLID
 70
     1
 71
     0
 91
        1
 92
        1
 93
        3
 72
     1
 10
2.640119271384391
 20
5.886276418116418
 11
2.709914261244598
 21
5.870941360853079
 72
     1
 10
2.709914261244598
 20
5.870941360853079
 11
2.710021551869406
 21
5.920614294901219
 72
     1
 10
2.710021551869406
 20
5.920614294901219
 11
2.640119271384391
 21
5.886276418116418
 97
        0
 75
     2
 76
     1
 98
        0
  0
POLYLINE
  5
173
330
1F
100
AcDbEntity
  8
callout
370
     0
100
AcDb2dPolyline
 66
     1
 10
0.0
 20
0.0
 30
0.0
  0
VERTEX
  5
174
330
173
100
AcDbEntity
  8
callout
370
     0
100
AcDbVertex
100
AcDb2dVertex
 10
3.043879258206491
 20
5.915543114809856
 30
0.0
  0
VERTEX
  5
175
330
173
100
AcDbEntity
  8
callout
370
     0
100
AcDbVertex
100
AcDb2dVertex
 10
2.972965032055703
 20
5.931890304553172
 30
0.0
  0
VERTEX
  5
176
330
173
100
AcDbEntity
  8
callout
370
     0
100
AcDbVertex
100
AcDb2dVertex
 10
2.972965032055703
 20
5.882358612241723
 30
0.0
  0
VERTEX
  5
177
330
173
100
AcDbEntity
  8
callout
370
     0
100
AcDbVertex
100
AcDb2dVertex
 10
3.043879258206491
 20
5.915543114809856
 30
0.0
  0
SEQEND
  5
179
330
173
100
AcDbEntity
  8
callout
370
     0
  0
HATCH
  5
178
330
1F
100
AcDbEntity
  8
callout
 62
     7
420
 16777215
100
AcDbHatch
 10
0.0
 20
0.0
 30
0.0
210
0.0
220
0.0
230
1.0
  2
SOLID
 70
     1
 71
     0
 91
        1
 92
        1
 93
        3
 72
     1
 10
3.043879258206491
 20
5.915543114809856
 11
2.972965032055703
 21
5.931890304553172
 72
     1
 10
2.972965032055703
 20
5.931890304553172
 11
2.972965032055703
 21
5.882358612241723
 72
     1
 10
2.972965032055703
 20
5.882358612241723
 11
3.043879258206491
 21
5.915543114809856
 97
        0
 75
     2
 76
     1
 98
        0
  0
POLYLINE
  5
17A
330
1F
100
AcDbEntity
  8
callout
370
     0
100
AcDb2dPolyline
 66
     1
 10
0.0
 20
0.0
 30
0.0
  0
VERTEX
  5
17B
330
17A
100
AcDbEntity
  8
callout
370
     0
100
AcDbVertex
100
AcDb2dVertex
 10
1.213634266295142
 20
3.839466481512924
 30
0.0
  0
VERTEX
  5
17C
330
17A
100
AcDbEntity
  8
callout
370
     0
100
AcDbVertex
100
AcDb2dVertex
 10
1.235519200726369
 20
3.906523123711268
 30
0.0
  0
VERTEX
  5
17D
330
17A
100
AcDbEntity
  8
callout
370
     0
100
AcDbVertex
100
AcDb2dVertex
 10
1.189857200783952
 20
3.900819514444644
 30
0.0
  0
VERTEX
  5
17E
330
17A
100
AcDbEntity
  8
callout
370
     0
100
AcDbVertex
100
AcDb2dVertex
 10
1.213634266295142
 20
3.839466481512924
 30
0.0
  0
SEQEND
  5
180
330
17A
100
AcDbEntity
  8
callout
370
     0
  0
HATCH
  5
17F
330
1F
100
AcDbEntity
  8
callout
 62
     7
420
 16777215
100
AcDbHatch
 10
0.0
 20
0.0
 30
0.0
210
0.0
220
0.0
230
1.0
  2
SOLID
 70
     1
 71
     0
 91
        1
 92
        1
 93
        3
 72
     1
 10
1.213634266295142
 20
3.839466481512924
 11
1.235519200726369
 21
3.906523123711268
 72
     1
 10
1.235519200726369
 20
3.906523123711268
 11
1.189857200783952
 21
3.900819514444644
 72
     1
 10
1.189857200783952
 20
3.900819514444644
 11
1.213634266295142
 21
3.839466481512924
 97
        0
 75
     2
 76
     1
 98
        0
  0
POLYLINE
  5
181
330
1F
100
AcDbEntity
  8
callout
370
     0
100
AcDb2dPolyline
 66
     1
 10
0.0
 20
0.0
 30
0.0
  0
VERTEX
  5
182
330
181
100
AcDbEntity
  8
callout
370
     0
100
AcDbVertex
100
AcDb2dVertex
 10
1.221300669122254
 20
3.831999893900855
 30
0.0
  0
VERTEX
  5
183
330
181
100
AcDbEntity
  8
callout
370
     0
100
AcDbVertex
100
AcDb2dVertex
 10
1.252746575883849
 20
3.791673383800672
 30
0.0
  0
VERTEX
  5
184
330
181
100
AcDbEntity
  8
callout
370
     0
100
AcDbVertex
100
AcDb2dVertex
 10
1.299110756340206
 20
3.807008493590729
 30
0.0
  0
VERTEX
  5
185
330
181
100
AcDbEntity
  8
callout
370
     0
100
AcDbVertex
100
AcDb2dVertex
 10
1.221300669122254
 20
3.831999893900855
 30
0.0
  0
SEQEND
  5
187
330
181
100
AcDbEntity
  8
callout
370
     0
  0
HATCH
  5
186
330
1F
100
AcDbEntity
  8
callout
 62
     7
420
 16777215
100
AcDbHatch
 10
0.0
 20
0.0
 30
0.0
210
0.0
220
0.0
230
1.0
  2
SOLID
 70
     1
 71
     0
 91
        1
 92
        1
 93
        3
 72
     1
 10
1.221300669122254
 20
3.831999893900855
 11
1.252746575883849
 21
3.791673383800672
 72
     1
 10
1.252746575883849
 20
3.791673383800672
 11
1.299110756340206
 21
3.807008493590729
 72
     1
 10
1.299110756340206
 20
3.807008493590729
 11
1.221300669122254
 21
3.831999893900855
 97
        0
 75
     2
 76
     1
 98
        0
  0
POLYLINE
  5
188
330
1F
100
AcDbEntity
  8
callout
370
     0
100
AcDb2dPolyline
 66
     1
 10
0.0
 20
0.0
 30
0.0
  0
VERTEX
  5
189
330
188
100
AcDbEntity
  8
callout
370
     0
100
AcDbVertex
100
AcDb2dVertex
 10
1.621999453273411
 20
3.587311431912162
 30
0.0
  0
VERTEX
  5
18A
330
188
100
AcDbEntity
  8
callout
370
     0
100
AcDbVertex
100
AcDb2dVertex
 10
1.590375541611567
 20
3.633651228135603
 30
0.0
  0
VERTEX
  5
18B
330
188
100
AcDbEntity
  8
callout
370
     0
100
AcDbVertex
100
AcDb2dVertex
 10
1.533772421756036
 20
3.615970220852078
 30
0.0
  0
VERTEX
  5
18C
330
188
100
AcDbEntity
  8
callout
370
     0
100
AcDbVertex
100
AcDb2dVertex
 10
1.621999453273411
 20
3.587311431912162
 30
0.0
  0
SEQEND
  5
18E
330
188
100
AcDbEntity
  8
callout
370
     0
  0
HATCH
  5
18D
330
1F
100
AcDbEntity
  8
callout
 62
     7
420
 16777215
100
AcDbHatch
 10
0.0
 20
0.0
 30
0.0
210
0.0
220
0.0
230
1.0
  2
SOLID
 70
     1
 71
     0
 91
        1
 92
        1
 93
        3
 72
     1
 10
1.621999453273411
 20
3.587311431912162
 11
1.590375541611567
 21
3.633651228135603
 72
     1
 10
1.590375541611567
 20
3.633651228135603
 11
1.533772421756036
 21
3.615970220852078
 72
     1
 10
1.533772421756036
 20
3.615970220852078
 11
1.621999453273411
 21
3.587311431912162
 97
        0
 75
     2
 76
     1
 98
        0
  0
POLYLINE
  5
18F
330
1F
100
AcDbEntity
  8
callout
 62
     7
420
 16777215
370
    13
100
AcDb2dPolyline
 66
     1
 10
0.0
 20
0.0
 30
0.0
  0
VERTEX
  5
190
330
18F
100
AcDbEntity
  8
callout
 62
     7
420
 16777215
370
    13
100
AcDbVertex
100
AcDb2dVertex
 10
2.636451882754626
 20
4.648169586424842
 30
0.0
  0
VERTEX
  5
191
330
18F
100
AcDbEntity
  8
callout
 62
     7
420
 16777215
370
    13
100
AcDbVertex
100
AcDb2dVertex
 10
2.641738384449657
 20
5.957558846184169
 30
0.0
  0
SEQEND
  5
192
330
18F
100
AcDbEntity
  8
callout
 62
     7
420
 16777215
370
    13
  0
POLYLINE
  5
193
330
1F
100
AcDbEntity
  8
callout
 62
     7
420
 16777215
370
    13
100
AcDb2dPolyline
 66
     1
 10
0.0
 20
0.0
 30
0.0
  0
VERTEX
  5
194
330
193
100
AcDbEntity
  8
callout
 62
     7
420
 16777215
370
    13
100
AcDbVertex
100
AcDb2dVertex
 10
3.048068469420564
 20
6.002911080974727
 30
0.0
  0
VERTEX
  5
195
330
193
100
AcDbEntity
  8
callout
 62
     7
420
 16777215
370
    13
100
AcDbVertex
100
AcDb2dVertex
 10
3.04259177070882
 20
4.727418345386505
 30
0.0
  0
SEQEND
  5
196
330
193
100
AcDbEntity
  8
callout
 62
     7
420
 16777215
370
    13
  0
POLYLINE
  5
197
330
1F
100
AcDbEntity
  8
callout
 62
     7
420
 16777215
370
    13
100
AcDb2dPolyline
 66
     1
 10
0.0
 20
0.0
 30
0.0
  0
VERTEX
  5
198
330
197
100
AcDbEntity
  8
callout
 62
     7
420
 16777215
370
    13
100
AcDbVertex
100
AcDb2dVertex
 10
2.692736678419806
 20
5.889837256475428
 30
0.0
  0
VERTEX
  5
199
330
197
100
AcDbEntity
  8
callout
 62
     7
420
 16777215
370
    13
100
AcDbVertex
100
AcDb2dVertex
 10
3.009707330032951
 20
5.909708156369586
 30
0.0
  0
SEQEND
  5
19A
330
197
100
AcDbEntity
  8
callout
 62
     7
420
 16777215
370
    13
  0
INSERT
  5
19C
330
1F
100
AcDbEntity
  8
callout
100
AcDbBlockReference
  2
block 3
 10
0.0
 20
0.0
 30
0.0
  0
INSERT
  5
1B2
330
1F
100
AcDbEntity
  8
callout
100
AcDbBlockReference
  2
block 4
 10
0.0
 20
0.0
 30
0.0
  0
POLYLINE
  5
1C0
330
1F
100
AcDbEntity
  8
callout
370
     0
100
AcDb2dPolyline
 66
     1
 10
0.0
 20
0.0
 30
0.0
  0
VERTEX
  5
1C1
330
1C0
100
AcDbEntity
  8
callout
370
     0
100
AcDbVertex
100
AcDb2dVertex
 10
2.826390000693815
 20
5.937018057398935
 30
0.0
  0
VERTEX
  5
1C2
330
1C0
100
AcDbEntity
  8
callout
370
     0
100
AcDbVertex
100
AcDb2dVertex
 10
2.878406446338861
 20
5.94057035244935
 30
0.0
  0
VERTEX
  5
1C3
330
1C0
100
AcDbEntity
  8
callout
370
     0
100
AcDbVertex
100
AcDb2dVertex
 10
2.878406446338861
 20
5.927387260768531
 30
0.0
  0
VERTEX
  5
1C4
330
1C0
100
AcDbEntity
  8
callout
370
     0
100
AcDbVertex
100
AcDb2dVertex
 10
2.812559263786877
 20
5.922233409300525
 30
0.0
  0
VERTEX
  5
1C5
330
1C0
100
AcDbEntity
  8
callout
370
     0
100
AcDbVertex
100
AcDb2dVertex
 10
2.812348584014545
 20
6.03236235881828
 30
0.0
  0
VERTEX
  5
1C6
330
1C0
100
AcDbEntity
  8
callout
370
     0
100
AcDbVertex
100
AcDb2dVertex
 10
2.826208582000971
 20
6.033964067141356
 30
0.0
  0
VERTEX
  5
1C7
330
1C0
100
AcDbEntity
  8
callout
370
     0
100
AcDbVertex
100
AcDb2dVertex
 10
2.826390000693815
 20
5.937018057398935
 30
0.0
  0
SEQEND
  5
1C8
330
1C0
100
AcDbEntity
  8
callout
370
     0
  0
HATCH
  5
1C9
330
1F
100
AcDbEntity
  8
callout
 62
     7
420
 16777215
100
AcDbHatch
 10
0.0
 20
0.0
 30
0.0
210
0.0
220
0.0
230
1.0
  2
SOLID
 70
     1
 71
     0
 91
        1
 92
        1
 93
        6
 72
     1
 10
2.826390000693815
 20
5.937018057398935
 11
2.878406446338861
 21
5.94057035244935
 72
     1
 10
2.878406446338861
 20
5.94057035244935
 11
2.878406446338861
 21
5.927387260768531
 72
     1
 10
2.878406446338861
 20
5.927387260768531
 11
2.812559263786877
 21
5.922233409300525
 72
     1
 10
2.812559263786877
 20
5.922233409300525
 11
2.812348584014545
 21
6.03236235881828
 72
     1
 10
2.812348584014545
 20
6.03236235881828
 11
2.826208582000971
 21
6.033964067141356
 72
     1
 10
2.826208582000971
 20
6.033964067141356
 11
2.826390000693815
 21
5.937018057398935
 97
        0
 75
     2
 76
     1
 98
        0
  0
POLYLINE
  5
1CA
330
1F
100
AcDbEntity
  8
callout
370
     0
100
AcDb2dPolyline
 66
     1
 10
0.0
 20
0.0
 30
0.0
  0
VERTEX
  5
1CB
330
1CA
100
AcDbEntity
  8
callout
370
     0
100
AcDbVertex
100
AcDb2dVertex
 10
1.152067004303654
 20
4.114303473577555
 30
0.0
  0
VERTEX
  5
1CC
330
1CA
100
AcDbEntity
  8
callout
370
     0
100
AcDbVertex
100
AcDb2dVertex
 10
1.137731026090819
 20
4.112608281705598
 30
0.0
  0
VERTEX
  5
1CD
330
1CA
100
AcDbEntity
  8
callout
370
     0
100
AcDbVertex
100
AcDb2dVertex
 10
1.111460428922176
 20
4.221555083611849
 30
0.0
  0
VERTEX
  5
1CE
330
1CA
100
AcDbEntity
  8
callout
370
     0
100
AcDbVertex
100
AcDb2dVertex
 10
1.126215882520556
 20
4.223299043949611
 30
0.0
  0
VERTEX
  5
1CF
330
1CA
100
AcDbEntity
  8
callout
370
     0
100
AcDbVertex
100
AcDb2dVertex
 10
1.145036542270848
 20
4.134392180018684
 30
0.0
  0
VERTEX
  5
1D0
330
1CA
100
AcDbEntity
  8
callout
370
     0
100
AcDbVertex
100
AcDb2dVertex
 10
1.145323300849883
 20
4.134421441098172
 30
0.0
  0
VERTEX
  5
1D1
330
1CA
100
AcDbEntity
  8
callout
370
     0
100
AcDbVertex
100
AcDb2dVertex
 10
1.167944066036448
 20
4.2282324619521
 30
0.0
  0
VERTEX
  5
1D2
330
1CA
100
AcDbEntity
  8
callout
370
     0
100
AcDbVertex
100
AcDb2dVertex
 10
1.182832103282395
 20
4.229995929676193
 30
0.0
  0
VERTEX
  5
1D3
330
1CA
100
AcDbEntity
  8
callout
370
     0
100
AcDbVertex
100
AcDb2dVertex
 10
1.205445065514431
 20
4.141535784892186
 30
0.0
  0
VERTEX
  5
1D4
330
1CA
100
AcDbEntity
  8
callout
370
     0
100
AcDbVertex
100
AcDb2dVertex
 10
1.205731824093454
 20
4.141565160465916
 30
0.0
  0
VERTEX
  5
1D5
330
1CA
100
AcDbEntity
  8
callout
370
     0
100
AcDbVertex
100
AcDb2dVertex
 10
1.224552619486897
 20
4.234929347678682
 30
0.0
  0
VERTEX
  5
1D6
330
1CA
100
AcDbEntity
  8
callout
370
     0
100
AcDbVertex
100
AcDb2dVertex
 10
1.239582991589373
 20
4.236710372050475
 30
0.0
  0
VERTEX
  5
1D7
330
1CA
100
AcDbEntity
  8
callout
370
     0
100
AcDbVertex
100
AcDb2dVertex
 10
1.213037340273495
 20
4.121513403564576
 30
0.0
  0
VERTEX
  5
1D8
330
1CA
100
AcDbEntity
  8
callout
370
     0
100
AcDbVertex
100
AcDb2dVertex
 10
1.19870136206066
 20
4.119818211692644
 30
0.0
  0
VERTEX
  5
1D9
330
1CA
100
AcDbEntity
  8
callout
370
     0
100
AcDbVertex
100
AcDb2dVertex
 10
1.175668991022563
 20
4.209954040962253
 30
0.0
  0
VERTEX
  5
1DA
330
1CA
100
AcDbEntity
  8
callout
370
     0
100
AcDbVertex
100
AcDb2dVertex
 10
1.175384183182157
 20
4.209916976928235
 30
0.0
  0
VERTEX
  5
1DB
330
1CA
100
AcDbEntity
  8
callout
370
     0
100
AcDbVertex
100
AcDb2dVertex
 10
1.152067004303654
 20
4.114303473577555
 30
0.0
  0
SEQEND
  5
1DC
330
1CA
100
AcDbEntity
  8
callout
370
     0
  0
HATCH
  5
1DD
330
1F
100
AcDbEntity
  8
callout
 62
     7
420
 16777215
100
AcDbHatch
 10
0.0
 20
0.0
 30
0.0
210
0.0
220
0.0
230
1.0
  2
SOLID
 70
     1
 71
     0
 91
        1
 92
        1
 93
       16
 72
     1
 10
1.152067004303654
 20
4.114303473577555
 11
1.137731026090819
 21
4.112608281705598
 72
     1
 10
1.137731026090819
 20
4.112608281705598
 11
1.111460428922176
 21
4.221555083611849
 72
     1
 10
1.111460428922176
 20
4.221555083611849
 11
1.126215882520556
 21
4.223299043949611
 72
     1
 10
1.126215882520556
 20
4.223299043949611
 11
1.145036542270848
 21
4.134392180018684
 72
     1
 10
1.145036542270848
 20
4.134392180018684
 11
1.145323300849883
 21
4.134421441098172
 72
     1
 10
1.145323300849883
 20
4.134421441098172
 11
1.167944066036448
 21
4.2282324619521
 72
     1
 10
1.167944066036448
 20
4.2282324619521
 11
1.182832103282395
 21
4.229995929676193
 72
     1
 10
1.182832103282395
 20
4.229995929676193
 11
1.205445065514431
 21
4.141535784892186
 72
     1
 10
1.205445065514431
 20
4.141535784892186
 11
1.205731824093454
 21
4.141565160465916
 72
     1
 10
1.205731824093454
 20
4.141565160465916
 11
1.224552619486897
 21
4.234929347678682
 72
     1
 10
1.224552619486897
 20
4.234929347678682
 11
1.239582991589373
 21
4.236710372050475
 72
     1
 10
1.239582991589373
 20
4.236710372050475
 11
1.213037340273495
 21
4.121513403564576
 72
     1
 10
1.213037340273495
 20
4.121513403564576
 11
1.19870136206066
 21
4.119818211692644
 72
     1
 10
1.19870136206066
 20
4.119818211692644
 11
1.175668991022563
 21
4.209954040962253
 72
     1
 10
1.175668991022563
 20
4.209954040962253
 11
1.175384183182157
 21
4.209916976928235
 72
     1
 10
1.175384183182157
 20
4.209916976928235
 11
1.152067004303654
 21
4.114303473577555
 97
        0
 75
     2
 76
     1
 98
        0
  0
SPLINE
  5
1DE
330
1F
100
AcDbEntity
  8
callout
370
     0
100
AcDbSpline
210
0.0
220
0.0
230
1.0
 70
    11
 71
     3
 72
    26
 73
    22
 74
     0
 42
0.0000000001
 43
0.0000000001
 12
1.0
 22
0.0
 32
0.0
 13
1.0
 23
0.0
 33
0.0
 40
0.0
 40
0.0
 40
0.0
 40
0.0
 40
1.0
 40
1.0
 40
1.0
 40
2.0
 40
2.0
 40
2.0
 40
3.0
 40
3.0
 40
3.0
 40
4.0
 40
4.0
 40
4.0
 40
5.0
 40
5.0
 40
5.0
 40
6.0
 40
6.0
 40
6.0
 40
7.0
 40
7.0
 40
7.0
 40
7.0
 10
1.300912960154543
 20
4.125467550773376
 30
0.0
 10
1.300912960154543
 20
4.125467550773376
 30
0.0
 10
1.287710361087395
 20
4.123905009128458
 30
0.0
 10
1.287710361087395
 20
4.123905009128458
 30
0.0
 10
1.287710361087395
 20
4.123905009128458
 30
0.0
 10
1.287710361087395
 20
4.201782396829255
 30
0.0
 10
1.287710361087395
 20
4.201782396829255
 30
0.0
 10
1.287710361087395
 20
4.201782396829255
 30
0.0
 10
1.264670256774922
 20
4.199059165697778
 30
0.0
 10
1.264670256774922
 20
4.199059165697778
 30
0.0
 10
1.264670256774922
 20
4.199059165697778
 30
0.0
 10
1.264670256774922
 20
4.209983302041754
 30
0.0
 10
1.264670256774922
 20
4.209983302041754
 30
0.0
 10
1.280681849793218
 20
4.213127892717909
 30
0.0
 10
1.287290952281334
 20
4.21562288742934
 30
0.0
 10
1.291225592103792
 20
4.234034074607002
 30
0.0
 10
1.291225592103792
 20
4.234034074607002
 30
0.0
 10
1.300912960154543
 20
4.235186845178216
 30
0.0
 10
1.300912960154543
 20
4.235186845178216
 30
0.0
 10
1.300912960154543
 20
4.235186845178216
 30
0.0
 10
1.300912960154543
 20
4.125467550773376
 30
0.0
 10
1.300912960154543
 20
4.125467550773376
 30
0.0
  0
HATCH
  5
1DF
330
1F
100
AcDbEntity
  8
callout
 62
     7
420
 16777215
100
AcDbHatch
 10
0.0
 20
0.0
 30
0.0
210
0.0
220
0.0
230
1.0
  2
SOLID
 70
     1
 71
     0
 91
        1
 92
        1
 93
        1
 72
     4
 94
        3
 73
     0
 74
     1
 95
       26
 96
       22
 40
0.0
 40
0.0
 40
0.0
 40
0.0
 40
1.0
 40
1.0
 40
1.0
 40
2.0
 40
2.0
 40
2.0
 40
3.0
 40
3.0
 40
3.0
 40
4.0
 40
4.0
 40
4.0
 40
5.0
 40
5.0
 40
5.0
 40
6.0
 40
6.0
 40
6.0
 40
7.0
 40
7.0
 40
7.0
 40
7.0
 10
1.300912960154543
 20
4.125467550773376
 10
1.300912960154543
 20
4.125467550773376
 10
1.287710361087395
 20
4.123905009128458
 10
1.287710361087395
 20
4.123905009128458
 10
1.287710361087395
 20
4.123905009128458
 10
1.287710361087395
 20
4.201782396829255
 10
1.287710361087395
 20
4.201782396829255
 10
1.287710361087395
 20
4.201782396829255
 10
1.264670256774922
 20
4.199059165697778
 10
1.264670256774922
 20
4.199059165697778
 10
1.264670256774922
 20
4.199059165697778
 10
1.264670256774922
 20
4.209983302041754
 10
1.264670256774922
 20
4.209983302041754
 10
1.280681849793218
 20
4.213127892717909
 10
1.287290952281334
 20
4.21562288742934
 10
1.291225592103792
 20
4.234034074607002
 10
1.291225592103792
 20
4.234034074607002
 10
1.300912960154543
 20
4.235186845178216
 10
1.300912960154543
 20
4.235186845178216
 10
1.300912960154543
 20
4.235186845178216
 10
1.300912960154543
 20
4.125467550773376
 10
1.300912960154543
 20
4.125467550773376
 97
        0
 97
        0
 75
     2
 76
     1
 98
        0
  0
POLYLINE
  5
1E0
330
1F
100
AcDbEntity
  8
callout
370
     0
100
AcDb2dPolyline
 66
     1
 10
0.0
 20
0.0
 30
0.0
  0
VERTEX
  5
1E1
330
1E0
100
AcDbEntity
  8
callout
370
     0
100
AcDbVertex
100
AcDb2dVertex
 10
1.401417731624873
 20
3.676897359913141
 30
0.0
  0
VERTEX
  5
1E2
330
1E0
100
AcDbEntity
  8
callout
370
     0
100
AcDbVertex
100
AcDb2dVertex
 10
1.387253418411723
 20
3.674753602926482
 30
0.0
  0
VERTEX
  5
1E3
330
1E0
100
AcDbEntity
  8
callout
370
     0
100
AcDbVertex
100
AcDb2dVertex
 10
1.268190085955502
 20
3.733123499527879
 30
0.0
  0
VERTEX
  5
1E4
330
1E0
100
AcDbEntity
  8
callout
370
     0
100
AcDbVertex
100
AcDb2dVertex
 10
1.282771857236084
 20
3.735333686398904
 30
0.0
  0
VERTEX
  5
1E5
330
1E0
100
AcDbEntity
  8
callout
370
     0
100
AcDbVertex
100
AcDb2dVertex
 10
1.377099823827722
 20
3.687470363303204
 30
0.0
  0
VERTEX
  5
1E6
330
1E0
100
AcDbEntity
  8
callout
370
     0
100
AcDbVertex
100
AcDb2dVertex
 10
1.377376899851937
 20
3.687517181030405
 30
0.0
  0
VERTEX
  5
1E7
330
1E0
100
AcDbEntity
  8
callout
370
     0
100
AcDbVertex
100
AcDb2dVertex
 10
1.324016324150509
 20
3.741591655933096
 30
0.0
  0
VERTEX
  5
1E8
330
1E0
100
AcDbEntity
  8
callout
370
     0
100
AcDbVertex
100
AcDb2dVertex
 10
1.33873276655888
 20
3.743819399451821
 30
0.0
  0
VERTEX
  5
1E9
330
1E0
100
AcDbEntity
  8
callout
370
     0
100
AcDbVertex
100
AcDb2dVertex
 10
1.436802179686209
 20
3.69652764277555
 30
0.0
  0
VERTEX
  5
1EA
330
1E0
100
AcDbEntity
  8
callout
370
     0
100
AcDbVertex
100
AcDb2dVertex
 10
1.437079184572073
 20
3.696576411241381
 30
0.0
  0
VERTEX
  5
1EB
330
1E0
100
AcDbEntity
  8
callout
370
     0
100
AcDbVertex
100
AcDb2dVertex
 10
1.379977163311183
 20
3.750077368986013
 30
0.0
  0
VERTEX
  5
1EC
330
1E0
100
AcDbEntity
  8
callout
370
     0
100
AcDbVertex
100
AcDb2dVertex
 10
1.394826185784457
 20
3.752336324322856
 30
0.0
  0
VERTEX
  5
1ED
330
1E0
100
AcDbEntity
  8
callout
370
     0
100
AcDbVertex
100
AcDb2dVertex
 10
1.461681900209631
 20
3.686040471885336
 30
0.0
  0
VERTEX
  5
1EE
330
1E0
100
AcDbEntity
  8
callout
370
     0
100
AcDbVertex
100
AcDb2dVertex
 10
1.447509784041927
 20
3.683888807173288
 30
0.0
  0
VERTEX
  5
1EF
330
1E0
100
AcDbEntity
  8
callout
370
     0
100
AcDbVertex
100
AcDb2dVertex
 10
1.347600754221705
 20
3.732075952882042
 30
0.0
  0
VERTEX
  5
1F0
330
1E0
100
AcDbEntity
  8
callout
370
     0
100
AcDbVertex
100
AcDb2dVertex
 10
1.347323749335841
 20
3.732027290633912
 30
0.0
  0
VERTEX
  5
1F1
330
1E0
100
AcDbEntity
  8
callout
370
     0
100
AcDbVertex
100
AcDb2dVertex
 10
1.401417731624873
 20
3.676897359913141
 30
0.0
  0
SEQEND
  5
1F2
330
1E0
100
AcDbEntity
  8
callout
370
     0
  0
HATCH
  5
1F3
330
1F
100
AcDbEntity
  8
callout
 62
     7
420
 16777215
100
AcDbHatch
 10
0.0
 20
0.0
 30
0.0
210
0.0
220
0.0
230
1.0
  2
SOLID
 70
     1
 71
     0
 91
        1
 92
        1
 93
       16
 72
     1
 10
1.401417731624873
 20
3.676897359913141
 11
1.387253418411723
 21
3.674753602926482
 72
     1
 10
1.387253418411723
 20
3.674753602926482
 11
1.268190085955502
 21
3.733123499527879
 72
     1
 10
1.268190085955502
 20
3.733123499527879
 11
1.282771857236084
 21
3.735333686398904
 72
     1
 10
1.282771857236084
 20
3.735333686398904
 11
1.377099823827722
 21
3.687470363303204
 72
     1
 10
1.377099823827722
 20
3.687470363303204
 11
1.377376899851937
 21
3.687517181030405
 72
     1
 10
1.377376899851937
 20
3.687517181030405
 11
1.324016324150509
 21
3.741591655933096
 72
     1
 10
1.324016324150509
 20
3.741591655933096
 11
1.33873276655888
 21
3.743819399451821
 72
     1
 10
1.33873276655888
 20
3.743819399451821
 11
1.436802179686209
 21
3.69652764277555
 72
     1
 10
1.436802179686209
 20
3.69652764277555
 11
1.437079184572073
 21
3.696576411241381
 72
     1
 10
1.437079184572073
 20
3.696576411241381
 11
1.379977163311183
 21
3.750077368986013
 72
     1
 10
1.379977163311183
 20
3.750077368986013
 11
1.394826185784457
 21
3.752336324322856
 72
     1
 10
1.394826185784457
 20
3.752336324322856
 11
1.461681900209631
 21
3.686040471885336
 72
     1
 10
1.461681900209631
 20
3.686040471885336
 11
1.447509784041927
 21
3.683888807173288
 72
     1
 10
1.447509784041927
 20
3.683888807173288
 11
1.347600754221705
 21
3.732075952882042
 72
     1
 10
1.347600754221705
 20
3.732075952882042
 11
1.347323749335841
 21
3.732027290633912
 72
     1
 10
1.347323749335841
 20
3.732027290633912
 11
1.401417731624873
 21
3.676897359913141
 97
        0
 75
     2
 76
     1
 98
        0
  0
SPLINE
  5
1F4
330
1F
100
AcDbEntity
  8
callout
370
     0
100
AcDbSpline
210
0.0
220
0.0
230
1.0
 70
    11
 71
     3
 72
    47
 73
    43
 74
     0
 42
0.0000000001
 43
0.0000000001
 12
1.0
 22
0.0
 32
0.0
 13
1.0
 23
0.0
 33
0.0
 40
0.0
 40
0.0
 40
0.0
 40
0.0
 40
1.0
 40
1.0
 40
1.0
 40
2.0
 40
2.0
 40
2.0
 40
3.0
 40
3.0
 40
3.0
 40
4.0
 40
4.0
 40
4.0
 40
5.0
 40
5.0
 40
5.0
 40
6.0
 40
6.0
 40
6.0
 40
7.0
 40
7.0
 40
7.0
 40
8.0
 40
8.0
 40
8.0
 40
9.0
 40
9.0
 40
9.0
 40
10.0
 40
10.0
 40
10.0
 40
11.0
 40
11.0
 40
11.0
 40
12.0
 40
12.0
 40
12.0
 40
13.0
 40
13.0
 40
13.0
 40
14.0
 40
14.0
 40
14.0
 40
14.0
 10
1.456424659594076
 20
3.725217155848933
 30
0.0
 10
1.426734417602044
 20
3.745087379563175
 30
0.0
 10
1.44693821762251
 20
3.750602117678252
 30
0.0
 10
1.457491713626256
 20
3.752201723357189
 30
0.0
 10
1.474428026436688
 20
3.754774747613927
 30
0.0
 10
1.498277756961948
 20
3.749981782793005
 30
0.0
 10
1.51526088749957
 20
3.738608976563468
 30
0.0
 10
1.531606126504256
 20
3.727675086526321
 30
0.0
 10
1.526947762649002
 20
3.721331284492281
 30
0.0
 10
1.519632492775802
 20
3.714254004732286
 30
0.0
 10
1.519632492775802
 20
3.714254004732286
 30
0.0
 10
1.514679567386982
 20
3.70925426161629
 30
0.0
 10
1.514679567386982
 20
3.70925426161629
 30
0.0
 10
1.508222622512234
 20
3.702623701003201
 30
0.0
 10
1.512432316481926
 20
3.697413278114861
 30
0.0
 10
1.515385734772078
 20
3.694984608516961
 30
0.0
 10
1.515385734772078
 20
3.694984608516961
 30
0.0
 10
1.568420465983473
 20
3.703033356116116
 30
0.0
 10
1.568420465983473
 20
3.703033356116116
 30
0.0
 10
1.568420465983473
 20
3.703033356116116
 30
0.0
 10
1.57918464175955
 20
3.695833179822254
 30
0.0
 10
1.57918464175955
 20
3.695833179822254
 30
0.0
 10
1.57918464175955
 20
3.695833179822254
 30
0.0
 10
1.512393301709279
 20
3.685697246933248
 30
0.0
 10
1.512393301709279
 20
3.685697246933248
 30
0.0
 10
1.494163649185263
 20
3.698470578453869
 30
0.0
 10
1.493209737993791
 20
3.706634419632362
 30
0.0
 10
1.4991360819604
 20
3.713387876779304
 30
0.0
 10
1.4991360819604
 20
3.713387876779304
 30
0.0
 10
1.50505072149522
 20
3.720026240346922
 30
0.0
 10
1.50505072149522
 20
3.720026240346922
 30
0.0
 10
1.509888553304702
 20
3.725342003121429
 30
0.0
 10
1.513622267047973
 20
3.728999638058035
 30
0.0
 10
1.5016974760643
 20
3.73698010980503
 30
0.0
 10
1.494428949639339
 20
3.741839506205047
 30
0.0
 10
1.480227572392159
 20
3.747239044275211
 30
0.0
 10
1.465930608951971
 20
3.745077732417371
 30
0.0
 10
1.447461015576121
 20
3.742266611500061
 30
0.0
 10
1.46270220980845
 20
3.731379539190117
 30
0.0
 10
1.468636283435747
 20
3.727064505334245
 30
0.0
 10
1.468636283435747
 20
3.727064505334245
 30
0.0
 10
1.456424659594076
 20
3.725217155848933
 30
0.0
 10
1.456424659594076
 20
3.725217155848933
 30
0.0
  0
HATCH
  5
1F5
330
1F
100
AcDbEntity
  8
callout
 62
     7
420
 16777215
100
AcDbHatch
 10
0.0
 20
0.0
 30
0.0
210
0.0
220
0.0
230
1.0
  2
SOLID
 70
     1
 71
     0
 91
        1
 92
        1
 93
        1
 72
     4
 94
        3
 73
     0
 74
     1
 95
       47
 96
       43
 40
0.0
 40
0.0
 40
0.0
 40
0.0
 40
1.0
 40
1.0
 40
1.0
 40
2.0
 40
2.0
 40
2.0
 40
3.0
 40
3.0
 40
3.0
 40
4.0
 40
4.0
 40
4.0
 40
5.0
 40
5.0
 40
5.0
 40
6.0
 40
6.0
 40
6.0
 40
7.0
 40
7.0
 40
7.0
 40
8.0
 40
8.0
 40
8.0
 40
9.0
 40
9.0
 40
9.0
 40
10.0
 40
10.0
 40
10.0
 40
11.0
 40
11.0
 40
11.0
 40
12.0
 40
12.0
 40
12.0
 40
13.0
 40
13.0
 40
13.0
 40
14.0
 40
14.0
 40
14.0
 40
14.0
 10
1.456424659594076
 20
3.725217155848933
 10
1.426734417602044
 20
3.745087379563175
 10
1.44693821762251
 20
3.750602117678252
 10
1.457491713626256
 20
3.752201723357189
 10
1.474428026436688
 20
3.754774747613927
 10
1.498277756961948
 20
3.749981782793005
 10
1.51526088749957
 20
3.738608976563468
 10
1.531606126504256
 20
3.727675086526321
 10
1.526947762649002
 20
3.721331284492281
 10
1.519632492775802
 20
3.714254004732286
 10
1.519632492775802
 20
3.714254004732286
 10
1.514679567386982
 20
3.70925426161629
 10
1.514679567386982
 20
3.70925426161629
 10
1.508222622512234
 20
3.702623701003201
 10
1.512432316481926
 20
3.697413278114861
 10
1.515385734772078
 20
3.694984608516961
 10
1.515385734772078
 20
3.694984608516961
 10
1.568420465983473
 20
3.703033356116116
 10
1.568420465983473
 20
3.703033356116116
 10
1.568420465983473
 20
3.703033356116116
 10
1.57918464175955
 20
3.695833179822254
 10
1.57918464175955
 20
3.695833179822254
 10
1.57918464175955
 20
3.695833179822254
 10
1.512393301709279
 20
3.685697246933248
 10
1.512393301709279
 20
3.685697246933248
 10
1.494163649185263
 20
3.698470578453869
 10
1.493209737993791
 20
3.706634419632362
 10
1.4991360819604
 20
3.713387876779304
 10
1.4991360819604
 20
3.713387876779304
 10
1.50505072149522
 20
3.720026240346922
 10
1.50505072149522
 20
3.720026240346922
 10
1.509888553304702
 20
3.725342003121429
 10
1.513622267047973
 20
3.728999638058035
 10
1.5016974760643
 20
3.73698010980503
 10
1.494428949639339
 20
3.741839506205047
 10
1.480227572392159
 20
3.747239044275211
 10
1.465930608951971
 20
3.745077732417371
 10
1.447461015576121
 20
3.742266611500061
 10
1.46270220980845
 20
3.731379539190117
 10
1.468636283435747
 20
3.727064505334245
 10
1.468636283435747
 20
3.727064505334245
 10
1.456424659594076
 20
3.725217155848933
 10
1.456424659594076
 20
3.725217155848933
 97
        0
 97
        0
 75
     2
 76
     1
 98
        0
  0
INSERT
  5
1F7
330
1F
100
AcDbEntity
  8
callout
100
AcDbBlockReference
  2
block 5
 10
0.0
 20
0.0
 30
0.0
  0
INSERT
  5
20B
330
1F
100
AcDbEntity
  8
callout
100
AcDbBlockReference
  2
block 6
 10
0.0
 20
0.0
 30
0.0
  0
MTEXT
  5
21E
330
1F
100
AcDbEntity
  8
callout
 62
   250
420
  2236191
100
AcDbMText
 10
3.96631834242079
 20
4.197307109832764
 30
0.0
 40
0.118
 41
0.0
 46
0.0
 71
     7
 72
     1
  1
\fHelvetica Neue LT Std 57 Condensed|b0|i0|c0|p34;\W1;A21 
 73
     1
 44
1.0
  0
POLYLINE
  5
21F
330
1F
100
AcDbEntity
  8
callout
 62
   250
420
  2236191
370
    18
100
AcDb2dPolyline
 66
     1
 10
0.0
 20
0.0
 30
0.0
  0
VERTEX
  5
220
330
21F
100
AcDbEntity
  8
callout
 62
   250
420
  2236191
370
    18
100
AcDbVertex
100
AcDb2dVertex
 10
3.885112301829117
 20
4.19730716281467
 30
0.0
  0
VERTEX
  5
221
330
21F
100
AcDbEntity
  8
callout
 62
   250
420
  2236191
370
    18
100
AcDbVertex
100
AcDb2dVertex
 10
3.256620761051282
 20
4.005586553869433
 30
0.0
  0
SEQEND
  5
222
330
21F
100
AcDbEntity
  8
callout
 62
   250
420
  2236191
370
    18
  0
MTEXT
  5
223
330
1F
100
AcDbEntity
  8
callout
 62
   250
420
  2236191
100
AcDbMText
 10
2.112208313412137
 20
2.32432132297092
 30
0.0
 40
0.118
 41
0.0
 46
0.0
 71
     7
 72
     1
  1
\fHelvetica Neue LT Std 55 Roman|b0|i0|c0|p34;\W1;SIMPSON Strong-Tie\H0.068794;®\H0.118; ^C
 73
     1
 44
1.0
  0
MTEXT
  5
224
330
1F
100
AcDbEntity
  8
callout
 62
   250
420
  2236191
100
AcDbMText
 10
1.828503343794081
 20
2.124329460991754
 30
0.0
 40
0.118
 41
0.0
 46
0.0
 71
     7
 72
     1
  1
\fHelvetica Neue LT Std 55 Roman|b0|i0|c0|p34;\W1;A21 Angle Bracket Installation 
 73
     1
 44
1.0
  0
ENDSEC
  0
SECTION
  2
OBJECTS
  0
DICTIONARY
  5
C
330
0
100
AcDbDictionary
281
     1
  3
ACAD_GROUP
350
D
  3
ACAD_LAYOUT
350
1A
  3
ACAD_MATERIAL
350
3B
  3
ACAD_MLEADERSTYLE
350
227
  3
ACAD_MLINESTYLE
350
17
  3
ACAD_PLOTSETTINGS
350
19
  3
ACAD_PLOTSTYLENAME
350
E
  3
ACAD_TABLESTYLE
350
226
  3
ACAD_VISUALSTYLE
350
2A
  0
SUN
  5
3F
330
29
100
AcDbSun
 90
        1
290
     0
 63
     7
421
 16777215
 40
1.0
291
     1
 91
  2455826
 92
 54000000
292
     0
 70
     2
 71
   256
280
     1
  0
DICTIONARY
  5
D
102
{ACAD_REACTORS
330
C
102
}
330
C
100
AcDbDictionary
281
     1
  0
DICTIONARY
  5
1A
102
{ACAD_REACTORS
330
C
102
}
330
C
100
AcDbDictionary
281
     1
  3
Layout1
350
1E
  3
Layout2
350
26
  3
Model
350
22
  0
DICTIONARY
  5
3B
102
{ACAD_REACTORS
330
C
102
}
330
C
100
AcDbDictionary
281
     1
  3
ByBlock
350
3D
  3
ByLayer
350
3C
  3
Global
350
3E
  0
DICTIONARY
  5
227
102
{ACAD_REACTORS
330
C
102
}
330
C
100
AcDbDictionary
281
     1
  0
DICTIONARY
  5
17
102
{ACAD_REACTORS
330
C
102
}
330
C
100
AcDbDictionary
281
     1
  3
Standard
350
18
  0
DICTIONARY
  5
19
102
{ACAD_REACTORS
330
C
102
}
330
C
100
AcDbDictionary
281
     1
  0
ACDBDICTIONARYWDFLT
  5
E
102
{ACAD_REACTORS
330
C
102
}
330
C
100
AcDbDictionary
281
     1
  3
Normal
350
F
100
AcDbDictionaryWithDefault
340
F
  0
DICTIONARY
  5
226
102
{ACAD_REACTORS
330
C
102
}
330
C
100
AcDbDictionary
281
     1
  0
DICTIONARY
  5
2A
102
{ACAD_REACTORS
330
C
102
}
330
C
100
AcDbDictionary
281
     1
  3
2dWireframe
350
2F
  3
3D Hidden
350
31
  3
3dWireframe
350
30
  3
Basic
350
32
  3
Brighten
350
36
  3
ColorChange
350
3A
  3
Conceptual
350
34
  3
Dim
350
35
  3
Facepattern
350
39
  3
Flat
350
2B
  3
FlatWithEdges
350
2C
  3
Gouraud
350
2D
  3
GouraudWithEdges
350
2E
  3
Linepattern
350
38
  3
Realistic
350
33
  3
Thicken
350
37
  0
LAYOUT
  5
1E
102
{ACAD_REACTORS
330
1A
102
}
330
1A
100
AcDbPlotSettings
  1

  2
none_device
  4

  6

 40
0.0
 41
0.0
 42
0.0
 43
0.0
 44
0.0
 45
0.0
 46
0.0
 47
0.0
 48
0.0
 49
0.0
140
0.0
141
0.0
142
1.0
143
1.0
 70
   688
 72
     0
 73
     0
 74
     5
  7

 75
    16
 76
     0
 77
     2
 78
   300
147
1.0
148
0.0
149
0.0
100
AcDbLayout
  1
Layout1
 70
     1
 71
     1
 10
0.0
 20
0.0
 11
12.0
 21
9.0
 12
0.0
 22
0.0
 32
0.0
 14
1.000000000000000E+20
 24
1.000000000000000E+20
 34
1.000000000000000E+20
 15
-1.000000000000000E+20
 25
-1.000000000000000E+20
 35
-1.000000000000000E+20
146
0.0
 13
0.0
 23
0.0
 33
0.0
 16
1.0
 26
0.0
 36
0.0
 17
0.0
 27
1.0
 37
0.0
 76
     0
330
1B
  0
LAYOUT
  5
26
102
{ACAD_REACTORS
330
1A
102
}
330
1A
100
AcDbPlotSettings
  1

  2
none_device
  4

  6

 40
0.0
 41
0.0
 42
0.0
 43
0.0
 44
0.0
 45
0.0
 46
0.0
 47
0.0
 48
0.0
 49
0.0
140
0.0
141
0.0
142
1.0
143
1.0
 70
   688
 72
     0
 73
     0
 74
     5
  7

 75
    16
 76
     0
 77
     2
 78
   300
147
1.0
148
0.0
149
0.0
100
AcDbLayout
  1
Layout2
 70
     1
 71
     2
 10
0.0
 20
0.0
 11
0.0
 21
0.0
 12
0.0
 22
0.0
 32
0.0
 14
0.0
 24
0.0
 34
0.0
 15
0.0
 25
0.0
 35
0.0
146
0.0
 13
0.0
 23
0.0
 33
0.0
 16
1.0
 26
0.0
 36
0.0
 17
0.0
 27
1.0
 37
0.0
 76
     0
330
23
  0
LAYOUT
  5
22
102
{ACAD_REACTORS
330
1A
102
}
330
1A
100
AcDbPlotSettings
  1

  2
none_device
  4

  6

 40
0.0
 41
0.0
 42
0.0
 43
0.0
 44
0.0
 45
0.0
 46
0.0
 47
0.0
 48
0.0
 49
0.0
140
0.0
141
0.0
142
1.0
143
1.0
 70
  1712
 72
     0
 73
     0
 74
     0
  7

 75
     0
 76
     0
 77
     2
 78
   300
147
1.0
148
0.0
149
0.0
100
AcDbLayout
  1
Model
 70
     1
 71
     0
 10
0.0
 20
0.0
 11
12.0
 21
9.0
 12
0.0
 22
0.0
 32
0.0
 14
1.000000000000000E+20
 24
1.000000000000000E+20
 34
1.000000000000000E+20
 15
-1.000000000000000E+20
 25
-1.000000000000000E+20
 35
-1.000000000000000E+20
146
0.0
 13
0.0
 23
0.0
 33
0.0
 16
1.0
 26
0.0
 36
0.0
 17
0.0
 27
1.0
 37
0.0
 76
     0
330
1F
331
29
  0
MATERIAL
  5
3D
102
{ACAD_REACTORS
330
3B
102
}
330
3B
100
AcDbMaterial
  1
ByBlock
 72
     1
 94
      127
  0
MATERIAL
  5
3C
102
{ACAD_REACTORS
330
3B
102
}
330
3B
100
AcDbMaterial
  1
ByLayer
 72
     1
 94
      127
  0
MATERIAL
  5
3E
102
{ACAD_REACTORS
330
3B
102
}
330
3B
100
AcDbMaterial
  1
Global
 72
     1
 94
      127
  0
MLINESTYLE
  5
18
102
{ACAD_REACTORS
330
17
102
}
330
17
100
AcDbMlineStyle
  2
Standard
 70
     0
  3

 62
   256
 51
90.0
 52
90.0
 71
     2
 49
0.5
 62
   256
  6
BYLAYER
 49
-0.5
 62
   256
  6
BYLAYER
  0
ACDBPLACEHOLDER
  5
F
102
{ACAD_REACTORS
330
E
102
}
330
E
  0
VISUALSTYLE
  5
2F
102
{ACAD_REACTORS
330
2A
102
}
330
2A
100
AcDbVisualStyle
  2
2dWireframe
 70
     4
177
     2
291
     0
 71
     0
176
     1
 72
     2
176
     1
 73
     0
176
     1
 90
        0
176
     1
 40
-0.6
176
     1
 41
-30.0
176
     1
 62
     5
 63
     7
421
 16777215
176
     1
 74
     1
176
     1
 91
        4
176
     1
 64
     7
176
     1
 65
   257
176
     1
 75
     1
176
     1
175
     1
176
     1
 42
1.0
176
     1
 92
        0
176
     1
 66
   257
176
     1
 43
1.0
176
     1
 76
     1
176
     1
 77
     6
176
     1
 78
     2
176
     1
 67
     7
176
     1
 79
     5
176
     1
170
     0
176
     1
171
     0
176
     1
290
     0
176
     1
 93
        1
176
     1
 44
0.0
176
     1
173
     0
176
     1
  0
VISUALSTYLE
  5
31
102
{ACAD_REACTORS
330
2A
102
}
330
2A
100
AcDbVisualStyle
  2
3D Hidden
 70
     6
177
     2
291
     0
 71
     1
176
     1
 72
     2
176
     1
 73
     2
176
     1
 90
        0
176
     1
 40
-0.6
176
     1
 41
-30.0
176
     1
 62
     5
 63
     7
421
 16777215
176
     1
 74
     2
176
     1
 91
        2
176
     1
 64
     7
176
     1
 65
   257
176
     1
 75
     2
176
     1
175
     1
176
     1
 42
40.0
176
     1
 92
        0
176
     1
 66
   257
176
     1
 43
1.0
176
     1
 76
     1
176
     1
 77
     6
176
     1
 78
     2
176
     1
 67
     7
176
     1
 79
     3
176
     1
170
     0
176
     1
171
     0
176
     1
290
     0
176
     1
 93
        1
176
     1
 44
0.0
176
     1
173
     0
176
     1
  0
VISUALSTYLE
  5
30
102
{ACAD_REACTORS
330
2A
102
}
330
2A
100
AcDbVisualStyle
  2
3dWireframe
 70
     5
177
     2
291
     0
 71
     0
176
     1
 72
     2
176
     1
 73
     0
176
     1
 90
        0
176
     1
 40
-0.6
176
     1
 41
-30.0
176
     1
 62
     5
 63
     7
421
 16777215
176
     1
 74
     1
176
     1
 91
        4
176
     1
 64
     7
176
     1
 65
   257
176
     1
 75
     1
176
     1
175
     1
176
     1
 42
1.0
176
     1
 92
        0
176
     1
 66
   257
176
     1
 43
1.0
176
     1
 76
     1
176
     1
 77
     6
176
     1
 78
     2
176
     1
 67
     7
176
     1
 79
     5
176
     1
170
     0
176
     1
171
     0
176
     1
290
     0
176
     1
 93
        1
176
     1
 44
0.0
176
     1
173
     0
176
     1
  0
VISUALSTYLE
  5
32
102
{ACAD_REACTORS
330
2A
102
}
330
2A
100
AcDbVisualStyle
  2
Basic
 70
     7
177
     2
291
     1
 71
     1
176
     1
 72
     0
176
     1
 73
     1
176
     1
 90
        0
176
     1
 40
-0.6
176
     1
 41
-30.0
176
     1
 62
     5
 63
     7
421
 16777215
176
     1
 74
     0
176
     1
 91
        4
176
     1
 64
     7
176
     1
 65
   257
176
     1
 75
     1
176
     1
175
     1
176
     1
 42
1.0
176
     1
 92
        8
176
     1
 66
     7
176
     1
 43
1.0
176
     1
 76
     1
176
     1
 77
     6
176
     1
 78
     2
176
     1
 67
     7
176
     1
 79
     5
176
     1
170
     0
176
     1
171
     0
176
     1
290
     0
176
     1
 93
        1
176
     1
 44
0.0
176
     1
173
     0
176
     1
  0
VISUALSTYLE
  5
36
102
{ACAD_REACTORS
330
2A
102
}
330
2A
100
AcDbVisualStyle
  2
Brighten
 70
    12
177
     2
291
     1
 71
     2
176
     1
 72
     2
176
     1
 73
     0
176
     1
 90
        0
176
     1
 40
-0.6
176
     1
 41
-30.0
176
     1
 62
     5
 63
     7
421
 16777215
176
     1
 74
     1
176
     1
 91
        4
176
     1
 64
     7
176
     1
 65
   257
176
     1
 75
     1
176
     1
175
     1
176
     1
 42
1.0
176
     1
 92
        8
176
     1
 66
     7
176
     1
 43
1.0
176
     1
 76
     1
176
     1
 77
     6
176
     1
 78
     2
176
     1
 67
     7
176
     1
 79
     5
176
     1
170
     0
176
     1
171
     0
176
     1
290
     0
176
     1
 93
        1
176
     1
 44
50.0
176
     1
173
     0
176
     1
  0
VISUALSTYLE
  5
3A
102
{ACAD_REACTORS
330
2A
102
}
330
2A
100
AcDbVisualStyle
  2
ColorChange
 70
    16
177
     2
291
     1
 71
     2
176
     1
 72
     2
176
     1
 73
     3
176
     1
 90
        0
176
     1
 40
-0.6
176
     1
 41
-30.0
176
     1
 62
     5
 63
     8
421
  8421504
176
     1
 74
     1
176
     1
 91
        4
176
     1
 64
     7
176
     1
 65
   257
176
     1
 75
     1
176
     1
175
     1
176
     1
 42
1.0
176
     1
 92
        8
176
     1
 66
     8
424
  8421504
176
     1
 43
1.0
176
     1
 76
     1
176
     1
 77
     6
176
     1
 78
     2
176
     1
 67
     7
176
     1
 79
     5
176
     1
170
     0
176
     1
171
     0
176
     1
290
     0
176
     1
 93
        1
176
     1
 44
0.0
176
     1
173
     0
176
     1
  0
VISUALSTYLE
  5
34
102
{ACAD_REACTORS
330
2A
102
}
330
2A
100
AcDbVisualStyle
  2
Conceptual
 70
     9
177
     2
291
     0
 71
     3
176
     1
 72
     2
176
     1
 73
     0
176
     1
 90
        0
176
     1
 40
-0.6
176
     1
 41
-30.0
176
     1
 62
     5
 63
     7
421
 16777215
176
     1
 74
     2
176
     1
 91
        2
176
     1
 64
     7
176
     1
 65
   257
176
     1
 75
     1
176
     1
175
     1
176
     1
 42
40.0
176
     1
 92
        8
176
     1
 66
     7
176
     1
 43
1.0
176
     1
 76
     1
176
     1
 77
     6
176
     1
 78
     2
176
     1
 67
     7
176
     1
 79
     3
176
     1
170
     0
176
     1
171
     0
176
     1
290
     0
176
     1
 93
        1
176
     1
 44
0.0
176
     1
173
     0
176
     1
  0
VISUALSTYLE
  5
35
102
{ACAD_REACTORS
330
2A
102
}
330
2A
100
AcDbVisualStyle
  2
Dim
 70
    11
177
     2
291
     1
 71
     2
176
     1
 72
     2
176
     1
 73
     0
176
     1
 90
        0
176
     1
 40
-0.6
176
     1
 41
-30.0
176
     1
 62
     5
 63
     7
421
 16777215
176
     1
 74
     1
176
     1
 91
        4
176
     1
 64
     7
176
     1
 65
   257
176
     1
 75
     1
176
     1
175
     1
176
     1
 42
1.0
176
     1
 92
        8
176
     1
 66
     7
176
     1
 43
1.0
176
     1
 76
     1
176
     1
 77
     6
176
     1
 78
     2
176
     1
 67
     7
176
     1
 79
     5
176
     1
170
     0
176
     1
171
     0
176
     1
290
     0
176
     1
 93
        1
176
     1
 44
-50.0
176
     1
173
     0
176
     1
  0
VISUALSTYLE
  5
39
102
{ACAD_REACTORS
330
2A
102
}
330
2A
100
AcDbVisualStyle
  2
Facepattern
 70
    15
177
     2
291
     1
 71
     2
176
     1
 72
     2
176
     1
 73
     0
176
     1
 90
        0
176
     1
 40
-0.6
176
     1
 41
-30.0
176
     1
 62
     5
 63
     7
421
 16777215
176
     1
 74
     1
176
     1
 91
        4
176
     1
 64
     7
176
     1
 65
   257
176
     1
 75
     1
176
     1
175
     1
176
     1
 42
1.0
176
     1
 92
        8
176
     1
 66
     7
176
     1
 43
1.0
176
     1
 76
     1
176
     1
 77
     6
176
     1
 78
     2
176
     1
 67
     7
176
     1
 79
     5
176
     1
170
     0
176
     1
171
     0
176
     1
290
     0
176
     1
 93
        1
176
     1
 44
0.0
176
     1
173
     0
176
     1
  0
VISUALSTYLE
  5
2B
102
{ACAD_REACTORS
330
2A
102
}
330
2A
100
AcDbVisualStyle
  2
Flat
 70
     0
177
     2
291
     1
 71
     2
176
     1
 72
     1
176
     1
 73
     1
176
     1
 90
        2
176
     1
 40
-0.6
176
     1
 41
30.0
176
     1
 62
     5
 63
     7
421
 16777215
176
     1
 74
     0
176
     1
 91
        4
176
     1
 64
     7
176
     1
 65
   257
176
     1
 75
     1
176
     1
175
     1
176
     1
 42
1.0
176
     1
 92
        8
176
     1
 66
     7
176
     1
 43
1.0
176
     1
 76
     1
176
     1
 77
     6
176
     1
 78
     2
176
     1
 67
     7
176
     1
 79
     5
176
     1
170
     0
176
     1
171
     0
176
     1
290
     0
176
     1
 93
       13
176
     1
 44
0.0
176
     1
173
     0
176
     1
  0
VISUALSTYLE
  5
2C
102
{ACAD_REACTORS
330
2A
102
}
330
2A
100
AcDbVisualStyle
  2
FlatWithEdges
 70
     1
177
     2
291
     1
 71
     2
176
     1
 72
     1
176
     1
 73
     1
176
     1
 90
        2
176
     1
 40
-0.6
176
     1
 41
30.0
176
     1
 62
     5
 63
     7
421
 16777215
176
     1
 74
     1
176
     1
 91
        4
176
     1
 64
     7
176
     1
 65
   257
176
     1
 75
     1
176
     1
175
     1
176
     1
 42
1.0
176
     1
 92
        0
176
     1
 66
   257
176
     1
 43
1.0
176
     1
 76
     1
176
     1
 77
     6
176
     1
 78
     2
176
     1
 67
     7
176
     1
 79
     5
176
     1
170
     0
176
     1
171
     0
176
     1
290
     0
176
     1
 93
       13
176
     1
 44
0.0
176
     1
173
     0
176
     1
  0
VISUALSTYLE
  5
2D
102
{ACAD_REACTORS
330
2A
102
}
330
2A
100
AcDbVisualStyle
  2
Gouraud
 70
     2
177
     2
291
     1
 71
     2
176
     1
 72
     2
176
     1
 73
     1
176
     1
 90
        2
176
     1
 40
-0.6
176
     1
 41
30.0
176
     1
 62
     5
 63
     7
421
 16777215
176
     1
 74
     0
176
     1
 91
        4
176
     1
 64
     7
176
     1
 65
   257
176
     1
 75
     1
176
     1
175
     1
176
     1
 42
1.0
176
     1
 92
        0
176
     1
 66
     7
176
     1
 43
1.0
176
     1
 76
     1
176
     1
 77
     6
176
     1
 78
     2
176
     1
 67
     7
176
     1
 79
     5
176
     1
170
     0
176
     1
171
     0
176
     1
290
     0
176
     1
 93
       13
176
     1
 44
0.0
176
     1
173
     0
176
     1
  0
VISUALSTYLE
  5
2E
102
{ACAD_REACTORS
330
2A
102
}
330
2A
100
AcDbVisualStyle
  2
GouraudWithEdges
 70
     3
177
     2
291
     1
 71
     2
176
     1
 72
     2
176
     1
 73
     1
176
     1
 90
        2
176
     1
 40
-0.6
176
     1
 41
30.0
176
     1
 62
     5
 63
     7
421
 16777215
176
     1
 74
     1
176
     1
 91
        4
176
     1
 64
     7
176
     1
 65
   257
176
     1
 75
     1
176
     1
175
     1
176
     1
 42
1.0
176
     1
 92
        0
176
     1
 66
   257
176
     1
 43
1.0
176
     1
 76
     1
176
     1
 77
     6
176
     1
 78
     2
176
     1
 67
     7
176
     1
 79
     5
176
     1
170
     0
176
     1
171
     0
176
     1
290
     0
176
     1
 93
       13
176
     1
 44
0.0
176
     1
173
     0
176
     1
  0
VISUALSTYLE
  5
38
102
{ACAD_REACTORS
330
2A
102
}
330
2A
100
AcDbVisualStyle
  2
Linepattern
 70
    14
177
     2
291
     1
 71
     2
176
     1
 72
     2
176
     1
 73
     0
176
     1
 90
        0
176
     1
 40
-0.6
176
     1
 41
-30.0
176
     1
 62
     5
 63
     7
421
 16777215
176
     1
 74
     1
176
     1
 91
        4
176
     1
 64
     7
176
     1
 65
   257
176
     1
 75
     7
176
     1
175
     7
176
     1
 42
1.0
176
     1
 92
        8
176
     1
 66
     7
176
     1
 43
1.0
176
     1
 76
     1
176
     1
 77
     6
176
     1
 78
     2
176
     1
 67
     7
176
     1
 79
     5
176
     1
170
     0
176
     1
171
     0
176
     1
290
     0
176
     1
 93
        1
176
     1
 44
0.0
176
     1
173
     0
176
     1
  0
VISUALSTYLE
  5
33
102
{ACAD_REACTORS
330
2A
102
}
330
2A
100
AcDbVisualStyle
  2
Realistic
 70
     8
177
     2
291
     0
 71
     2
176
     1
 72
     2
176
     1
 73
     0
176
     1
 90
        0
176
     1
 40
-0.6
176
     1
 41
-30.0
176
     1
 62
     5
 63
     7
421
 16777215
176
     1
 74
     1
176
     1
 91
        0
176
     1
 64
     7
176
     1
 65
   257
176
     1
 75
     1
176
     1
175
     1
176
     1
 42
1.0
176
     1
 92
        8
176
     1
 66
     8
424
  7895160
176
     1
 43
1.0
176
     1
 76
     1
176
     1
 77
     6
176
     1
 78
     2
176
     1
 67
     7
176
     1
 79
     5
176
     1
170
     0
176
     1
171
     0
176
     1
290
     0
176
     1
 93
       13
176
     1
 44
0.0
176
     1
173
     0
176
     1
  0
VISUALSTYLE
  5
37
102
{ACAD_REACTORS
330
2A
102
}
330
2A
100
AcDbVisualStyle
  2
Thicken
 70
    13
177
     2
291
     1
 71
     2
176
     1
 72
     2
176
     1
 73
     0
176
     1
 90
        0
176
     1
 40
-0.6
176
     1
 41
-30.0
176
     1
 62
     5
 63
     7
421
 16777215
176
     1
 74
     1
176
     1
 91
        4
176
     1
 64
     7
176
     1
 65
   257
176
     1
 75
     1
176
     1
175
     1
176
     1
 42
1.0
176
     1
 92
       12
176
     1
 66
     7
176
     1
 43
1.0
176
     1
 76
     1
176
     1
 77
     6
176
     1
 78
     2
176
     1
 67
     7
176
     1
 79
     5
176
     1
170
     0
176
     1
171
     0
176
     1
290
     0
176
     1
 93
        1
176
     1
 44
0.0
176
     1
173
     0
176
     1
  0
ENDSEC
  0
EOF
