  0
SECTION
  2
HEADER
  9
$ACADVER
  1
AC1024
  9
$ACADMAINTVER
 70
     6
  9
$DWGCODEPAGE
  3
ANSI_1252
  9
$INSBASE
 10
0.0
 20
0.0
 30
0.0
  9
$EXTMIN
 10
1.000000000000000E+20
 20
1.000000000000000E+20
 30
1.000000000000000E+20
  9
$EXTMAX
 10
-1.000000000000000E+20
 20
-1.000000000000000E+20
 30
-1.000000000000000E+20
  9
$LIMMIN
 10
0.0
 20
0.0
  9
$LIMMAX
 10
12.0
 20
9.0
  9
$ORTHOMODE
 70
     0
  9
$REGENMODE
 70
     1
  9
$FILLMODE
 70
     1
  9
$QTEXTMODE
 70
     0
  9
$MIRRTEXT
 70
     1
  9
$LTSCALE
 40
1.0
  9
$ATTMODE
 70
     1
  9
$TEXTSIZE
 40
0.2
  9
$TRACEWID
 40
0.05
  9
$TEXTSTYLE
  7
Standard
  9
$CLAYER
  8
0
  9
$CELTYPE
  6
ByLayer
  9
$CECOLOR
 62
   256
  9
$CELTSCALE
 40
1.0
  9
$DISPSILH
 70
     0
  9
$DIMSCALE
 40
1.0
  9
$DIMASZ
 40
0.18
  9
$DIMEXO
 40
0.0625
  9
$DIMDLI
 40
0.38
  9
$DIMRND
 40
0.0
  9
$DIMDLE
 40
0.0
  9
$DIMEXE
 40
0.18
  9
$DIMTP
 40
0.0
  9
$DIMTM
 40
0.0
  9
$DIMTXT
 40
0.18
  9
$DIMCEN
 40
0.09
  9
$DIMTSZ
 40
0.0
  9
$DIMTOL
 70
     0
  9
$DIMLIM
 70
     0
  9
$DIMTIH
 70
     1
  9
$DIMTOH
 70
     1
  9
$DIMSE1
 70
     0
  9
$DIMSE2
 70
     0
  9
$DIMTAD
 70
     0
  9
$DIMZIN
 70
     0
  9
$DIMBLK
  1

  9
$DIMASO
 70
     1
  9
$DIMSHO
 70
     1
  9
$DIMPOST
  1

  9
$DIMAPOST
  1

  9
$DIMALT
 70
     0
  9
$DIMALTD
 70
     2
  9
$DIMALTF
 40
25.4
  9
$DIMLFAC
 40
1.0
  9
$DIMTOFL
 70
     0
  9
$DIMTVP
 40
0.0
  9
$DIMTIX
 70
     0
  9
$DIMSOXD
 70
     0
  9
$DIMSAH
 70
     0
  9
$DIMBLK1
  1

  9
$DIMBLK2
  1

  9
$DIMSTYLE
  2
Standard
  9
$DIMCLRD
 70
     0
  9
$DIMCLRE
 70
     0
  9
$DIMCLRT
 70
     0
  9
$DIMTFAC
 40
1.0
  9
$DIMGAP
 40
0.09
  9
$DIMJUST
 70
     0
  9
$DIMSD1
 70
     0
  9
$DIMSD2
 70
     0
  9
$DIMTOLJ
 70
     1
  9
$DIMTZIN
 70
     0
  9
$DIMALTZ
 70
     0
  9
$DIMALTTZ
 70
     0
  9
$DIMUPT
 70
     0
  9
$DIMDEC
 70
     4
  9
$DIMTDEC
 70
     4
  9
$DIMALTU
 70
     2
  9
$DIMALTTD
 70
     2
  9
$DIMTXSTY
  7
Standard
  9
$DIMAUNIT
 70
     0
  9
$DIMADEC
 70
     0
  9
$DIMALTRND
 40
0.0
  9
$DIMAZIN
 70
     0
  9
$DIMDSEP
 70
    46
  9
$DIMATFIT
 70
     3
  9
$DIMFRAC
 70
     0
  9
$DIMLDRBLK
  1

  9
$DIMLUNIT
 70
     2
  9
$DIMLWD
 70
    -2
  9
$DIMLWE
 70
    -2
  9
$DIMTMOVE
 70
     0
  9
$DIMFXL
 40
1.0
  9
$DIMFXLON
 70
     0
  9
$DIMJOGANG
 40
0.7853981633974483
  9
$DIMTFILL
 70
     0
  9
$DIMTFILLCLR
 70
     0
  9
$DIMARCSYM
 70
     0
  9
$DIMLTYPE
  6

  9
$DIMLTEX1
  6

  9
$DIMLTEX2
  6

  9
$DIMTXTDIRECTION
 70
     0
  9
$LUNITS
 70
     2
  9
$LUPREC
 70
     4
  9
$SKETCHINC
 40
0.1
  9
$FILLETRAD
 40
0.5
  9
$AUNITS
 70
     0
  9
$AUPREC
 70
     0
  9
$MENU
  1
.
  9
$ELEVATION
 40
0.0
  9
$PELEVATION
 40
0.0
  9
$THICKNESS
 40
0.0
  9
$LIMCHECK
 70
     0
  9
$CHAMFERA
 40
0.5
  9
$CHAMFERB
 40
0.5
  9
$CHAMFERC
 40
1.0
  9
$CHAMFERD
 40
0.0
  9
$SKPOLY
 70
     0
  9
$TDCREATE
 40
2458850.90996816
  9
$TDUCREATE
 40
2458850.368301493
  9
$TDUPDATE
 40
2458850.909968322
  9
$TDUUPDATE
 40
2458850.368301655
  9
$TDINDWG
 40
0.0000000116
  9
$TDUSRTIMER
 40
0.0000000116
  9
$USRTIMER
 70
     1
  9
$ANGBASE
 50
0.0
  9
$ANGDIR
 70
     0
  9
$PDMODE
 70
     0
  9
$PDSIZE
 40
0.0
  9
$PLINEWID
 40
0.0
  9
$SPLFRAME
 70
     0
  9
$SPLINETYPE
 70
     6
  9
$SPLINESEGS
 70
     8
  9
$HANDSEED
  5
171
  9
$SURFTAB1
 70
     6
  9
$SURFTAB2
 70
     6
  9
$SURFTYPE
 70
     6
  9
$SURFU
 70
     6
  9
$SURFV
 70
     6
  9
$UCSBASE
  2

  9
$UCSNAME
  2

  9
$UCSORG
 10
0.0
 20
0.0
 30
0.0
  9
$UCSXDIR
 10
1.0
 20
0.0
 30
0.0
  9
$UCSYDIR
 10
0.0
 20
1.0
 30
0.0
  9
$UCSORTHOREF
  2

  9
$UCSORTHOVIEW
 70
     0
  9
$UCSORGTOP
 10
0.0
 20
0.0
 30
0.0
  9
$UCSORGBOTTOM
 10
0.0
 20
0.0
 30
0.0
  9
$UCSORGLEFT
 10
0.0
 20
0.0
 30
0.0
  9
$UCSORGRIGHT
 10
0.0
 20
0.0
 30
0.0
  9
$UCSORGFRONT
 10
0.0
 20
0.0
 30
0.0
  9
$UCSORGBACK
 10
0.0
 20
0.0
 30
0.0
  9
$PUCSBASE
  2

  9
$PUCSNAME
  2

  9
$PUCSORG
 10
0.0
 20
0.0
 30
0.0
  9
$PUCSXDIR
 10
1.0
 20
0.0
 30
0.0
  9
$PUCSYDIR
 10
0.0
 20
1.0
 30
0.0
  9
$PUCSORTHOREF
  2

  9
$PUCSORTHOVIEW
 70
     0
  9
$PUCSORGTOP
 10
0.0
 20
0.0
 30
0.0
  9
$PUCSORGBOTTOM
 10
0.0
 20
0.0
 30
0.0
  9
$PUCSORGLEFT
 10
0.0
 20
0.0
 30
0.0
  9
$PUCSORGRIGHT
 10
0.0
 20
0.0
 30
0.0
  9
$PUCSORGFRONT
 10
0.0
 20
0.0
 30
0.0
  9
$PUCSORGBACK
 10
0.0
 20
0.0
 30
0.0
  9
$USERI1
 70
     0
  9
$USERI2
 70
     0
  9
$USERI3
 70
     0
  9
$USERI4
 70
     0
  9
$USERI5
 70
     0
  9
$USERR1
 40
0.0
  9
$USERR2
 40
0.0
  9
$USERR3
 40
0.0
  9
$USERR4
 40
0.0
  9
$USERR5
 40
0.0
  9
$WORLDVIEW
 70
     1
  9
$SHADEDGE
 70
     3
  9
$SHADEDIF
 70
    70
  9
$TILEMODE
 70
     1
  9
$MAXACTVP
 70
    64
  9
$PINSBASE
 10
0.0
 20
0.0
 30
0.0
  9
$PLIMCHECK
 70
     0
  9
$PEXTMIN
 10
1.000000000000000E+20
 20
1.000000000000000E+20
 30
1.000000000000000E+20
  9
$PEXTMAX
 10
-1.000000000000000E+20
 20
-1.000000000000000E+20
 30
-1.000000000000000E+20
  9
$PLIMMIN
 10
0.0
 20
0.0
  9
$PLIMMAX
 10
12.0
 20
9.0
  9
$UNITMODE
 70
     0
  9
$VISRETAIN
 70
     1
  9
$PLINEGEN
 70
     0
  9
$PSLTSCALE
 70
     1
  9
$TREEDEPTH
 70
  3020
  9
$CMLSTYLE
  2
Standard
  9
$CMLJUST
 70
     0
  9
$CMLSCALE
 40
1.0
  9
$PROXYGRAPHICS
 70
     1
  9
$MEASUREMENT
 70
     0
  9
$CELWEIGHT
370
    -1
  9
$ENDCAPS
280
     0
  9
$JOINSTYLE
280
     0
  9
$LWDISPLAY
290
     1
  9
$INSUNITS
 70
     1
  9
$HYPERLINKBASE
  1

  9
$STYLESHEET
  1

  9
$XEDIT
290
     1
  9
$CEPSNTYPE
380
     0
  9
$PSTYLEMODE
290
     1
  9
$FINGERPRINTGUID
  2
{B024C6B9-706B-47E5-A6AE-CC8B7D855187}
  9
$VERSIONGUID
  2
{FAEB1C32-E019-11D5-929B-00C0DF256EC4}
  9
$EXTNAMES
290
     1
  9
$PSVPSCALE
 40
0.0
  9
$OLESTARTUP
290
     0
  9
$SORTENTS
280
   127
  9
$INDEXCTL
280
     0
  9
$HIDETEXT
280
     1
  9
$XCLIPFRAME
280
     2
  9
$HALOGAP
280
     0
  9
$OBSCOLOR
 70
   257
  9
$OBSLTYPE
280
     0
  9
$INTERSECTIONDISPLAY
280
     0
  9
$INTERSECTIONCOLOR
 70
   257
  9
$DIMASSOC
280
     2
  9
$PROJECTNAME
  1

  9
$CAMERADISPLAY
290
     0
  9
$LENSLENGTH
 40
50.0
  9
$CAMERAHEIGHT
 40
0.0
  9
$STEPSPERSEC
 40
2.0
  9
$STEPSIZE
 40
6.0
  9
$3DDWFPREC
 40
2.0
  9
$PSOLWIDTH
 40
0.25
  9
$PSOLHEIGHT
 40
4.0
  9
$LOFTANG1
 40
1.570796326794897
  9
$LOFTANG2
 40
1.570796326794897
  9
$LOFTMAG1
 40
0.0
  9
$LOFTMAG2
 40
0.0
  9
$LOFTPARAM
 70
     7
  9
$LOFTNORMALS
280
     1
  9
$LATITUDE
 40
37.795
  9
$LONGITUDE
 40
-122.394
  9
$NORTHDIRECTION
 40
0.0
  9
$TIMEZONE
 70
 -8000
  9
$LIGHTGLYPHDISPLAY
280
     1
  9
$TILEMODELIGHTSYNCH
280
     1
  9
$CMATERIAL
347
3C
  9
$SOLIDHIST
280
     1
  9
$SHOWHIST
280
     1
  9
$DWFFRAME
280
     2
  9
$DGNFRAME
280
     2
  9
$REALWORLDSCALE
290
     1
  9
$INTERFERECOLOR
 62
   256
  9
$CSHADOW
280
     0
  9
$SHADOWPLANELOCATION
 40
0.0
  0
ENDSEC
  0
SECTION
  2
CLASSES
  0
CLASS
  1
ACDBDICTIONARYWDFLT
  2
AcDbDictionaryWithDefault
  3
ObjectDBX Classes
 90
        0
 91
        4
280
     0
281
     0
  0
CLASS
  1
VISUALSTYLE
  2
AcDbVisualStyle
  3
ObjectDBX Classes
 90
     4095
 91
        4
280
     0
281
     0
  0
CLASS
  1
MATERIAL
  2
AcDbMaterial
  3
ObjectDBX Classes
 90
     1153
 91
        4
280
     0
281
     0
  0
CLASS
  1
SUN
  2
AcDbSun
  3
SCENEOE
 90
     1024
 91
        4
280
     0
281
     0
  0
ENDSEC
  0
SECTION
  2
TABLES
  0
TABLE
  2
VPORT
  5
8
330
0
100
AcDbSymbolTable
 70
     1
  0
VPORT
  5
29
330
8
100
AcDbSymbolTableRecord
100
AcDbViewportTableRecord
  2
*Active
 70
     0
 10
0.0
 20
0.0
 11
1.0
 21
1.0
 12
0.0
 22
0.0
 13
0.0
 23
0.0
 14
0.5
 24
0.5
 15
0.5
 25
0.5
 16
0.0
 26
0.0
 36
1.0
 17
2.631944444444445
 27
2.083333333333333
 37
0.0
 40
11.69291338582677
 41
0.7070707070707065
 42
50.0
 43
0.0
 44
0.0
 50
0.0
 51
0.0
 71
     0
 72
   100
 73
     1
 74
     3
 75
     0
 76
     0
 77
     0
 78
     0
281
     0
 65
     1
110
0.0
120
0.0
130
0.0
111
1.0
121
0.0
131
0.0
112
0.0
122
1.0
132
0.0
 79
     0
146
0.0
 60
     3
 61
     5
292
     1
282
     1
141
0.0
142
0.0
 63
   250
361
3F
  0
ENDTAB
  0
TABLE
  2
LTYPE
  5
5
330
0
100
AcDbSymbolTable
 70
     1
  0
LTYPE
  5
14
330
5
100
AcDbSymbolTableRecord
100
AcDbLinetypeTableRecord
  2
ByBlock
 70
     0
  3

 72
    65
 73
     0
 40
0.0
  0
LTYPE
  5
15
330
5
100
AcDbSymbolTableRecord
100
AcDbLinetypeTableRecord
  2
ByLayer
 70
     0
  3

 72
    65
 73
     0
 40
0.0
  0
LTYPE
  5
16
330
5
100
AcDbSymbolTableRecord
100
AcDbLinetypeTableRecord
  2
Continuous
 70
     0
  3
Solid line
 72
    65
 73
     0
 40
0.0
  0
ENDTAB
  0
TABLE
  2
LAYER
  5
2
330
0
100
AcDbSymbolTable
 70
     3
  0
LAYER
  5
10
330
2
100
AcDbSymbolTableRecord
100
AcDbLayerTableRecord
  2
0
 70
     0
 62
     7
  6
Continuous
370
    -3
390
F
347
3E
  0
LAYER
  5
40
330
2
100
AcDbSymbolTableRecord
100
AcDbLayerTableRecord
  2
Layer 1
 70
     0
 62
     7
  6
Continuous
370
    -3
390
F
347
3E
  0
LAYER
  5
124
330
2
100
AcDbSymbolTableRecord
100
AcDbLayerTableRecord
  2
callout
 70
     0
 62
     7
  6
Continuous
370
    -3
390
F
347
3E
  0
ENDTAB
  0
TABLE
  2
STYLE
  5
3
330
0
100
AcDbSymbolTable
 70
     1
  0
STYLE
  5
11
330
3
100
AcDbSymbolTableRecord
100
AcDbTextStyleTableRecord
  2
Standard
 70
     0
 40
0.0
 41
1.0
 50
0.0
 71
     0
 42
0.2
  3
txt
  4

  0
ENDTAB
  0
TABLE
  2
VIEW
  5
6
330
0
100
AcDbSymbolTable
 70
     0
  0
ENDTAB
  0
TABLE
  2
UCS
  5
7
330
0
100
AcDbSymbolTable
 70
     0
  0
ENDTAB
  0
TABLE
  2
APPID
  5
9
330
0
100
AcDbSymbolTable
 70
     1
  0
APPID
  5
12
330
9
100
AcDbSymbolTableRecord
100
AcDbRegAppTableRecord
  2
ACAD
 70
     0
  0
ENDTAB
  0
TABLE
  2
DIMSTYLE
  5
A
330
0
100
AcDbSymbolTable
 70
     1
100
AcDbDimStyleTable
  0
DIMSTYLE
105
27
330
A
100
AcDbSymbolTableRecord
100
AcDbDimStyleTableRecord
  2
Standard
 70
     0
178
     0
340
11
  0
ENDTAB
  0
TABLE
  2
BLOCK_RECORD
  5
1
330
0
100
AcDbSymbolTable
 70
     1
  0
BLOCK_RECORD
  5
1F
330
1
100
AcDbSymbolTableRecord
100
AcDbBlockTableRecord
  2
*Model_Space
340
22
 70
     0
280
     1
281
     0
  0
BLOCK_RECORD
  5
1B
330
1
100
AcDbSymbolTableRecord
100
AcDbBlockTableRecord
  2
*Paper_Space
340
1E
 70
     0
280
     1
281
     0
  0
BLOCK_RECORD
  5
23
330
1
100
AcDbSymbolTableRecord
100
AcDbBlockTableRecord
  2
*Paper_Space0
340
26
 70
     0
280
     1
281
     0
  0
ENDTAB
  0
ENDSEC
  0
SECTION
  2
BLOCKS
  0
BLOCK
  5
20
330
1F
100
AcDbEntity
  8
0
100
AcDbBlockBegin
  2
*Model_Space
 70
     0
 10
0.0
 20
0.0
 30
0.0
  3
*Model_Space
  1

  0
ENDBLK
  5
21
330
1F
100
AcDbEntity
  8
0
100
AcDbBlockEnd
  0
BLOCK
  5
1C
330
1B
100
AcDbEntity
 67
     1
  8
0
100
AcDbBlockBegin
  2
*Paper_Space
 70
     0
 10
0.0
 20
0.0
 30
0.0
  3
*Paper_Space
  1

  0
ENDBLK
  5
1D
330
1B
100
AcDbEntity
 67
     1
  8
0
100
AcDbBlockEnd
  0
BLOCK
  5
24
330
23
100
AcDbEntity
  8
0
100
AcDbBlockBegin
  2
*Paper_Space0
 70
     0
 10
0.0
 20
0.0
 30
0.0
  3
*Paper_Space0
  1

  0
ENDBLK
  5
25
330
23
100
AcDbEntity
  8
0
100
AcDbBlockEnd
  0
ENDSEC
  0
SECTION
  2
ENTITIES
  0
SPLINE
  5
41
330
1F
100
AcDbEntity
  8
Layer 1
370
     0
100
AcDbSpline
210
0.0
220
0.0
230
1.0
 70
    11
 71
     3
 72
    59
 73
    55
 74
     0
 42
0.0000000001
 43
0.0000000001
 12
1.0
 22
0.0
 32
0.0
 13
1.0
 23
0.0
 33
0.0
 40
0.0
 40
0.0
 40
0.0
 40
0.0
 40
1.0
 40
1.0
 40
1.0
 40
2.0
 40
2.0
 40
2.0
 40
3.0
 40
3.0
 40
3.0
 40
4.0
 40
4.0
 40
4.0
 40
5.0
 40
5.0
 40
5.0
 40
6.0
 40
6.0
 40
6.0
 40
7.0
 40
7.0
 40
7.0
 40
8.0
 40
8.0
 40
8.0
 40
9.0
 40
9.0
 40
9.0
 40
10.0
 40
10.0
 40
10.0
 40
11.0
 40
11.0
 40
11.0
 40
12.0
 40
12.0
 40
12.0
 40
13.0
 40
13.0
 40
13.0
 40
14.0
 40
14.0
 40
14.0
 40
15.0
 40
15.0
 40
15.0
 40
16.0
 40
16.0
 40
16.0
 40
17.0
 40
17.0
 40
17.0
 40
18.0
 40
18.0
 40
18.0
 40
18.0
 10
1.52251046047608
 20
1.898151971025906
 30
0.0
 10
1.49977391322731
 20
1.906172069239953
 30
0.0
 10
1.479706599058242
 20
1.91419647933478
 30
0.0
 10
1.479706599058242
 20
1.932931601238023
 30
0.0
 10
1.479706599058242
 20
1.951649475618246
 30
0.0
 10
1.479706599058242
 20
2.256598618624947
 30
0.0
 10
1.479706599058242
 20
2.256598618624947
 30
0.0
 10
1.479706599058242
 20
2.256598618624947
 30
0.0
 10
1.525183826547428
 20
2.319465840109286
 30
0.0
 10
1.525183826547428
 20
2.319465840109286
 30
0.0
 10
1.525183826547428
 20
2.319465840109286
 30
0.0
 10
1.446272096754228
 20
2.372963344701626
 30
0.0
 10
1.446272096754228
 20
2.372963344701626
 30
0.0
 10
1.446272096754228
 20
2.372963344701626
 30
0.0
 10
1.482379965197108
 20
2.425115542496795
 30
0.0
 10
1.482379965197108
 20
2.425115542496795
 30
0.0
 10
1.482379965197108
 20
2.425115542496795
 30
0.0
 10
1.478361113371951
 20
2.67789108488748
 30
0.0
 10
1.478361113371951
 20
2.67789108488748
 30
0.0
 10
1.478361113371951
 20
2.67789108488748
 30
0.0
 10
1.685680652205216
 20
2.964122196931056
 30
0.0
 10
1.685680652205216
 20
2.964122196931056
 30
0.0
 10
1.685680652205216
 20
2.964122196931056
 30
0.0
 10
2.751650878110316
 20
3.305179029424001
 30
0.0
 10
2.751650878110316
 20
3.305179029424001
 30
0.0
 10
2.751650878110316
 20
3.305179029424001
 30
0.0
 10
2.811823174119531
 20
3.311849508960095
 30
0.0
 10
2.811823174119531
 20
3.311849508960095
 30
0.0
 10
2.811823174119531
 20
3.311849508960095
 30
0.0
 10
3.853724481620954
 20
3.773294052279071
 30
0.0
 10
3.853724481620954
 20
3.773294052279071
 30
0.0
 10
3.853724481620954
 20
3.773294052279071
 30
0.0
 10
4.163998797366554
 20
3.611451919824099
 30
0.0
 10
4.163998797366554
 20
3.611451919824099
 30
0.0
 10
4.163998797366554
 20
3.611451919824099
 30
0.0
 10
4.170695148187203
 20
3.259701623045708
 30
0.0
 10
4.170695148187203
 20
3.259701623045708
 30
0.0
 10
4.170695148187203
 20
3.259701623045708
 30
0.0
 10
4.212171129219996
 20
3.142008837694852
 30
0.0
 10
4.212171129219996
 20
3.142008837694852
 30
0.0
 10
4.212171129219996
 20
3.142008837694852
 30
0.0
 10
4.141283809521584
 20
3.092508446567257
 30
0.0
 10
4.141283809521584
 20
3.092508446567257
 30
0.0
 10
4.141283809521584
 20
3.092508446567257
 30
0.0
 10
4.170695148187203
 20
3.013596716774044
 30
0.0
 10
4.170695148187203
 20
3.013596716774044
 30
0.0
 10
4.170695148187203
 20
3.013596716774044
 30
0.0
 10
4.165348416044505
 20
2.640455179544106
 30
0.0
 10
4.165348416044505
 20
2.640455179544106
 30
0.0
 10
4.165348416044505
 20
2.640455179544106
 30
0.0
 10
1.820763252662131
 20
1.813893509089995
 30
0.0
 10
1.820763252662131
 20
1.813893509089995
 30
0.0
 10
1.820763252662131
 20
1.813893509089995
 30
0.0
 10
1.545247188269602
 20
1.890131872811859
 30
0.0
 10
1.52251046047608
 20
1.898151971025906
 30
0.0
  0
HATCH
  5
42
330
1F
100
AcDbEntity
  8
Layer 1
 62
    43
420
 15510365
100
AcDbHatch
 10
0.0
 20
0.0
 30
0.0
210
0.0
220
0.0
230
1.0
  2
SOLID
 70
     1
 71
     0
 91
        1
 92
        1
 93
        1
 72
     4
 94
        3
 73
     0
 74
     1
 95
       59
 96
       55
 40
0.0
 40
0.0
 40
0.0
 40
0.0
 40
1.0
 40
1.0
 40
1.0
 40
2.0
 40
2.0
 40
2.0
 40
3.0
 40
3.0
 40
3.0
 40
4.0
 40
4.0
 40
4.0
 40
5.0
 40
5.0
 40
5.0
 40
6.0
 40
6.0
 40
6.0
 40
7.0
 40
7.0
 40
7.0
 40
8.0
 40
8.0
 40
8.0
 40
9.0
 40
9.0
 40
9.0
 40
10.0
 40
10.0
 40
10.0
 40
11.0
 40
11.0
 40
11.0
 40
12.0
 40
12.0
 40
12.0
 40
13.0
 40
13.0
 40
13.0
 40
14.0
 40
14.0
 40
14.0
 40
15.0
 40
15.0
 40
15.0
 40
16.0
 40
16.0
 40
16.0
 40
17.0
 40
17.0
 40
17.0
 40
18.0
 40
18.0
 40
18.0
 40
18.0
 10
1.52251046047608
 20
1.898151971025906
 10
1.49977391322731
 20
1.906172069239953
 10
1.479706599058242
 20
1.91419647933478
 10
1.479706599058242
 20
1.932931601238023
 10
1.479706599058242
 20
1.951649475618246
 10
1.479706599058242
 20
2.256598618624947
 10
1.479706599058242
 20
2.256598618624947
 10
1.479706599058242
 20
2.256598618624947
 10
1.525183826547428
 20
2.319465840109286
 10
1.525183826547428
 20
2.319465840109286
 10
1.525183826547428
 20
2.319465840109286
 10
1.446272096754228
 20
2.372963344701626
 10
1.446272096754228
 20
2.372963344701626
 10
1.446272096754228
 20
2.372963344701626
 10
1.482379965197108
 20
2.425115542496795
 10
1.482379965197108
 20
2.425115542496795
 10
1.482379965197108
 20
2.425115542496795
 10
1.478361113371951
 20
2.67789108488748
 10
1.478361113371951
 20
2.67789108488748
 10
1.478361113371951
 20
2.67789108488748
 10
1.685680652205216
 20
2.964122196931056
 10
1.685680652205216
 20
2.964122196931056
 10
1.685680652205216
 20
2.964122196931056
 10
2.751650878110316
 20
3.305179029424001
 10
2.751650878110316
 20
3.305179029424001
 10
2.751650878110316
 20
3.305179029424001
 10
2.811823174119531
 20
3.311849508960095
 10
2.811823174119531
 20
3.311849508960095
 10
2.811823174119531
 20
3.311849508960095
 10
3.853724481620954
 20
3.773294052279071
 10
3.853724481620954
 20
3.773294052279071
 10
3.853724481620954
 20
3.773294052279071
 10
4.163998797366554
 20
3.611451919824099
 10
4.163998797366554
 20
3.611451919824099
 10
4.163998797366554
 20
3.611451919824099
 10
4.170695148187203
 20
3.259701623045708
 10
4.170695148187203
 20
3.259701623045708
 10
4.170695148187203
 20
3.259701623045708
 10
4.212171129219996
 20
3.142008837694852
 10
4.212171129219996
 20
3.142008837694852
 10
4.212171129219996
 20
3.142008837694852
 10
4.141283809521584
 20
3.092508446567257
 10
4.141283809521584
 20
3.092508446567257
 10
4.141283809521584
 20
3.092508446567257
 10
4.170695148187203
 20
3.013596716774044
 10
4.170695148187203
 20
3.013596716774044
 10
4.170695148187203
 20
3.013596716774044
 10
4.165348416044505
 20
2.640455179544106
 10
4.165348416044505
 20
2.640455179544106
 10
4.165348416044505
 20
2.640455179544106
 10
1.820763252662131
 20
1.813893509089995
 10
1.820763252662131
 20
1.813893509089995
 10
1.820763252662131
 20
1.813893509089995
 10
1.545247188269602
 20
1.890131872811859
 10
1.52251046047608
 20
1.898151971025906
 97
        0
 97
        0
 75
     2
 76
     1
 98
        0
  0
SPLINE
  5
43
330
1F
100
AcDbEntity
  8
Layer 1
 62
     7
420
 16777215
370
    53
100
AcDbSpline
210
0.0
220
0.0
230
1.0
 70
     8
 71
     3
 72
    62
 73
    58
 74
     0
 42
0.0000000001
 43
0.0000000001
 12
1.0
 22
0.0
 32
0.0
 13
1.0
 23
0.0
 33
0.0
 40
0.0
 40
0.0
 40
0.0
 40
0.0
 40
1.0
 40
1.0
 40
1.0
 40
2.0
 40
2.0
 40
2.0
 40
3.0
 40
3.0
 40
3.0
 40
4.0
 40
4.0
 40
4.0
 40
5.0
 40
5.0
 40
5.0
 40
6.0
 40
6.0
 40
6.0
 40
7.0
 40
7.0
 40
7.0
 40
8.0
 40
8.0
 40
8.0
 40
9.0
 40
9.0
 40
9.0
 40
10.0
 40
10.0
 40
10.0
 40
11.0
 40
11.0
 40
11.0
 40
12.0
 40
12.0
 40
12.0
 40
13.0
 40
13.0
 40
13.0
 40
14.0
 40
14.0
 40
14.0
 40
15.0
 40
15.0
 40
15.0
 40
16.0
 40
16.0
 40
16.0
 40
17.0
 40
17.0
 40
17.0
 40
18.0
 40
18.0
 40
18.0
 40
19.0
 40
19.0
 40
19.0
 40
19.0
 10
1.479706599058242
 20
2.127556963113142
 30
0.0
 10
1.479706599058242
 20
2.196236599862307
 30
0.0
 10
1.479706599058242
 20
2.256598618624947
 30
0.0
 10
1.479706599058242
 20
2.256598618624947
 30
0.0
 10
1.479706599058242
 20
2.256598618624947
 30
0.0
 10
1.525183826547428
 20
2.319465840109286
 30
0.0
 10
1.525183826547428
 20
2.319465840109286
 30
0.0
 10
1.525183826547428
 20
2.319465840109286
 30
0.0
 10
1.446272096754228
 20
2.372963344701626
 30
0.0
 10
1.446272096754228
 20
2.372963344701626
 30
0.0
 10
1.446272096754228
 20
2.372963344701626
 30
0.0
 10
1.482379965197108
 20
2.425115542496795
 30
0.0
 10
1.482379965197108
 20
2.425115542496795
 30
0.0
 10
1.482379965197108
 20
2.425115542496795
 30
0.0
 10
1.478361113371951
 20
2.67789108488748
 30
0.0
 10
1.478361113371951
 20
2.67789108488748
 30
0.0
 10
1.478361113371951
 20
2.67789108488748
 30
0.0
 10
1.685680652205216
 20
2.964122196931056
 30
0.0
 10
1.685680652205216
 20
2.964122196931056
 30
0.0
 10
1.685680652205216
 20
2.964122196931056
 30
0.0
 10
2.751650878110316
 20
3.305179029424001
 30
0.0
 10
2.751650878110316
 20
3.305179029424001
 30
0.0
 10
2.751650878110316
 20
3.305179029424001
 30
0.0
 10
2.811823174119531
 20
3.311849508960095
 30
0.0
 10
2.811823174119531
 20
3.311849508960095
 30
0.0
 10
2.811823174119531
 20
3.311849508960095
 30
0.0
 10
3.853724481620954
 20
3.773294052279071
 30
0.0
 10
3.853724481620954
 20
3.773294052279071
 30
0.0
 10
3.853724481620954
 20
3.773294052279071
 30
0.0
 10
4.163998797366554
 20
3.611451919824099
 30
0.0
 10
4.163998797366554
 20
3.611451919824099
 30
0.0
 10
4.163998797366554
 20
3.611451919824099
 30
0.0
 10
4.170695148187203
 20
3.259701623045708
 30
0.0
 10
4.170695148187203
 20
3.259701623045708
 30
0.0
 10
4.170695148187203
 20
3.259701623045708
 30
0.0
 10
4.212171129219996
 20
3.142008837694852
 30
0.0
 10
4.212171129219996
 20
3.142008837694852
 30
0.0
 10
4.212171129219996
 20
3.142008837694852
 30
0.0
 10
4.141283809521584
 20
3.092508446567257
 30
0.0
 10
4.141283809521584
 20
3.092508446567257
 30
0.0
 10
4.141283809521584
 20
3.092508446567257
 30
0.0
 10
4.170695148187203
 20
3.013596716774044
 30
0.0
 10
4.170695148187203
 20
3.013596716774044
 30
0.0
 10
4.170695148187203
 20
3.013596716774044
 30
0.0
 10
4.165348416044505
 20
2.640455179544106
 30
0.0
 10
4.165348416044505
 20
2.640455179544106
 30
0.0
 10
4.165348416044505
 20
2.640455179544106
 30
0.0
 10
1.820763252662131
 20
1.813893509089995
 30
0.0
 10
1.820763252662131
 20
1.813893509089995
 30
0.0
 10
1.820763252662131
 20
1.813893509089995
 30
0.0
 10
1.545247188269602
 20
1.890131872811859
 30
0.0
 10
1.52251046047608
 20
1.898151971025906
 30
0.0
 10
1.49977391322731
 20
1.906172069239953
 30
0.0
 10
1.479706599058242
 20
1.91419647933478
 30
0.0
 10
1.479706599058242
 20
1.932931601238023
 30
0.0
 10
1.479706599058242
 20
1.941525179593201
 30
0.0
 10
1.479706599058242
 20
2.010308301480589
 30
0.0
 10
1.479706599058242
 20
2.082290980428929
 30
0.0
  0
POLYLINE
  5
44
330
1F
100
AcDbEntity
  8
Layer 1
 62
     7
420
 16777215
370
    53
100
AcDb2dPolyline
 66
     1
 10
0.0
 20
0.0
 30
0.0
  0
VERTEX
  5
45
330
44
100
AcDbEntity
  8
Layer 1
 62
     7
420
 16777215
370
    53
100
AcDbVertex
100
AcDb2dVertex
 10
1.382732398310585
 20
3.914378790754237
 30
0.0
  0
VERTEX
  5
46
330
44
100
AcDbEntity
  8
Layer 1
 62
     7
420
 16777215
370
    53
100
AcDbVertex
100
AcDb2dVertex
 10
2.803126110626105
 20
3.30785239549535
 30
0.0
  0
VERTEX
  5
47
330
44
100
AcDbEntity
  8
Layer 1
 62
     7
420
 16777215
370
    53
100
AcDbVertex
100
AcDb2dVertex
 10
2.80112561022429
 20
2.392353872480448
 30
0.0
  0
VERTEX
  5
48
330
44
100
AcDbEntity
  8
Layer 1
 62
     7
420
 16777215
370
    53
100
AcDbVertex
100
AcDb2dVertex
 10
2.489505979809312
 20
2.278662512475105
 30
0.0
  0
VERTEX
  5
49
330
44
100
AcDbEntity
  8
Layer 1
 62
     7
420
 16777215
370
    53
100
AcDbVertex
100
AcDb2dVertex
 10
1.091175780505877
 20
2.764844315715613
 30
0.0
  0
VERTEX
  5
4A
330
44
100
AcDbEntity
  8
Layer 1
 62
     7
420
 16777215
370
    53
100
AcDbVertex
100
AcDb2dVertex
 10
1.087152964728906
 20
3.152702301980273
 30
0.0
  0
VERTEX
  5
4B
330
44
100
AcDbEntity
  8
Layer 1
 62
     7
420
 16777215
370
    53
100
AcDbVertex
100
AcDb2dVertex
 10
1.13395826140902
 20
3.253677925623656
 30
0.0
  0
VERTEX
  5
4C
330
44
100
AcDbEntity
  8
Layer 1
 62
     7
420
 16777215
370
    53
100
AcDbVertex
100
AcDb2dVertex
 10
1.051717759668893
 20
3.318545859780746
 30
0.0
  0
VERTEX
  5
4D
330
44
100
AcDbEntity
  8
Layer 1
 62
     7
420
 16777215
370
    53
100
AcDbVertex
100
AcDb2dVertex
 10
1.087152964728906
 20
3.42889137587099
 30
0.0
  0
VERTEX
  5
4E
330
44
100
AcDbEntity
  8
Layer 1
 62
     7
420
 16777215
370
    53
100
AcDbVertex
100
AcDb2dVertex
 10
1.086480142357977
 20
3.756576890571599
 30
0.0
  0
VERTEX
  5
4F
330
44
100
AcDbEntity
  8
Layer 1
 62
     7
420
 16777215
370
    53
100
AcDbVertex
100
AcDb2dVertex
 10
1.382732398310585
 20
3.914378790754237
 30
0.0
  0
SEQEND
  5
51
330
44
100
AcDbEntity
  8
Layer 1
 62
     7
420
 16777215
370
    53
  0
HATCH
  5
50
330
1F
100
AcDbEntity
  8
Layer 1
 62
    43
420
 15510365
100
AcDbHatch
 10
0.0
 20
0.0
 30
0.0
210
0.0
220
0.0
230
1.0
  2
SOLID
 70
     1
 71
     0
 91
        1
 92
        1
 93
       10
 72
     1
 10
1.382732398310585
 20
3.914378790754237
 11
2.803126110626105
 21
3.30785239549535
 72
     1
 10
2.803126110626105
 20
3.30785239549535
 11
2.80112561022429
 21
2.392353872480448
 72
     1
 10
2.80112561022429
 20
2.392353872480448
 11
2.489505979809312
 21
2.278662512475105
 72
     1
 10
2.489505979809312
 20
2.278662512475105
 11
1.091175780505877
 21
2.764844315715613
 72
     1
 10
1.091175780505877
 20
2.764844315715613
 11
1.087152964728906
 21
3.152702301980273
 72
     1
 10
1.087152964728906
 20
3.152702301980273
 11
1.13395826140902
 21
3.253677925623656
 72
     1
 10
1.13395826140902
 20
3.253677925623656
 11
1.051717759668893
 21
3.318545859780746
 72
     1
 10
1.051717759668893
 20
3.318545859780746
 11
1.087152964728906
 21
3.42889137587099
 72
     1
 10
1.087152964728906
 20
3.42889137587099
 11
1.086480142357977
 21
3.756576890571599
 72
     1
 10
1.086480142357977
 20
3.756576890571599
 11
1.382732398310585
 21
3.914378790754237
 97
        0
 75
     2
 76
     1
 98
        0
  0
POLYLINE
  5
52
330
1F
100
AcDbEntity
  8
Layer 1
 62
     7
420
 16777215
370
    40
100
AcDb2dPolyline
 66
     1
 10
0.0
 20
0.0
 30
0.0
  0
VERTEX
  5
53
330
52
100
AcDbEntity
  8
Layer 1
 62
     7
420
 16777215
370
    40
100
AcDbVertex
100
AcDb2dVertex
 10
1.382732398310585
 20
3.912378078081474
 30
0.0
  0
VERTEX
  5
54
330
52
100
AcDbEntity
  8
Layer 1
 62
     7
420
 16777215
370
    40
100
AcDbVertex
100
AcDb2dVertex
 10
1.380731509198515
 20
3.576016883736404
 30
0.0
  0
VERTEX
  5
55
330
52
100
AcDbEntity
  8
Layer 1
 62
     7
420
 16777215
370
    40
100
AcDbVertex
100
AcDb2dVertex
 10
1.337927468891571
 20
3.47034562194512
 30
0.0
  0
VERTEX
  5
56
330
52
100
AcDbEntity
  8
Layer 1
 62
     7
420
 16777215
370
    40
100
AcDbVertex
100
AcDb2dVertex
 10
1.426208915576757
 20
3.398130242972557
 30
0.0
  0
VERTEX
  5
57
330
52
100
AcDbEntity
  8
Layer 1
 62
     7
420
 16777215
370
    40
100
AcDbVertex
100
AcDb2dVertex
 10
1.380059032171706
 20
3.282438170294477
 30
0.0
  0
VERTEX
  5
58
330
52
100
AcDbEntity
  8
Layer 1
 62
     7
420
 16777215
370
    40
100
AcDbVertex
100
AcDb2dVertex
 10
1.379386202401317
 20
2.904600994916614
 30
0.0
  0
VERTEX
  5
59
330
52
100
AcDbEntity
  8
Layer 1
 62
     7
420
 16777215
370
    40
100
AcDbVertex
100
AcDb2dVertex
 10
1.092499697006676
 20
2.766172374989765
 30
0.0
  0
SEQEND
  5
5A
330
52
100
AcDbEntity
  8
Layer 1
 62
     7
420
 16777215
370
    40
  0
POLYLINE
  5
5B
330
1F
100
AcDbEntity
  8
Layer 1
 62
     7
420
 16777215
370
    40
100
AcDb2dPolyline
 66
     1
 10
0.0
 20
0.0
 30
0.0
  0
VERTEX
  5
5C
330
5B
100
AcDbEntity
  8
Layer 1
 62
     7
420
 16777215
370
    40
100
AcDbVertex
100
AcDb2dVertex
 10
1.090503127107278
 20
3.430891912988904
 30
0.0
  0
VERTEX
  5
5D
330
5B
100
AcDbEntity
  8
Layer 1
 62
     7
420
 16777215
370
    40
100
AcDbVertex
100
AcDb2dVertex
 10
1.376730083853001
 20
3.575344230337805
 30
0.0
  0
SEQEND
  5
5E
330
5B
100
AcDbEntity
  8
Layer 1
 62
     7
420
 16777215
370
    40
  0
POLYLINE
  5
5F
330
1F
100
AcDbEntity
  8
Layer 1
 62
     7
420
 16777215
370
    40
100
AcDb2dPolyline
 66
     1
 10
0.0
 20
0.0
 30
0.0
  0
VERTEX
  5
60
330
5F
100
AcDbEntity
  8
Layer 1
 62
     7
420
 16777215
370
    40
100
AcDbVertex
100
AcDb2dVertex
 10
1.057068803692358
 20
3.329243808984403
 30
0.0
  0
VERTEX
  5
61
330
5F
100
AcDbEntity
  8
Layer 1
 62
     7
420
 16777215
370
    40
100
AcDbVertex
100
AcDb2dVertex
 10
1.335931068099575
 20
3.469672968546522
 30
0.0
  0
SEQEND
  5
62
330
5F
100
AcDbEntity
  8
Layer 1
 62
     7
420
 16777215
370
    40
  0
POLYLINE
  5
63
330
1F
100
AcDbEntity
  8
Layer 1
 62
     7
420
 16777215
370
    40
100
AcDb2dPolyline
 66
     1
 10
0.0
 20
0.0
 30
0.0
  0
VERTEX
  5
64
330
63
100
AcDbEntity
  8
Layer 1
 62
     7
420
 16777215
370
    40
100
AcDbVertex
100
AcDb2dVertex
 10
1.135303568206218
 20
3.254350579022255
 30
0.0
  0
VERTEX
  5
65
330
63
100
AcDbEntity
  8
Layer 1
 62
     7
420
 16777215
370
    40
100
AcDbVertex
100
AcDb2dVertex
 10
1.423535549505446
 20
3.39678493617536
 30
0.0
  0
SEQEND
  5
66
330
63
100
AcDbEntity
  8
Layer 1
 62
     7
420
 16777215
370
    40
  0
POLYLINE
  5
67
330
1F
100
AcDbEntity
  8
Layer 1
 62
     7
420
 16777215
370
    40
100
AcDb2dPolyline
 66
     1
 10
0.0
 20
0.0
 30
0.0
  0
VERTEX
  5
68
330
67
100
AcDbEntity
  8
Layer 1
 62
     7
420
 16777215
370
    40
100
AcDbVertex
100
AcDb2dVertex
 10
1.089153508429326
 20
3.154030361254424
 30
0.0
  0
VERTEX
  5
69
330
67
100
AcDbEntity
  8
Layer 1
 62
     7
420
 16777215
370
    40
100
AcDbVertex
100
AcDb2dVertex
 10
1.378058143127166
 20
3.284438882967227
 30
0.0
  0
SEQEND
  5
6A
330
67
100
AcDbEntity
  8
Layer 1
 62
     7
420
 16777215
370
    40
  0
SPLINE
  5
6B
330
1F
100
AcDbEntity
  8
Layer 1
 62
     7
420
 16777215
370
    15
100
AcDbSpline
210
0.0
220
0.0
230
1.0
 70
     8
 71
     3
 72
    14
 73
    10
 74
     0
 42
0.0000000001
 43
0.0000000001
 12
1.0
 22
0.0
 32
0.0
 13
1.0
 23
0.0
 33
0.0
 40
0.0
 40
0.0
 40
0.0
 40
0.0
 40
1.0
 40
1.0
 40
1.0
 40
2.0
 40
2.0
 40
2.0
 40
3.0
 40
3.0
 40
3.0
 40
3.0
 10
1.123937450522211
 20
2.783562190095836
 30
0.0
 10
1.122609391248059
 20
2.800952164893589
 30
0.0
 10
1.123260485242857
 20
2.80162465860048
 30
0.0
 10
1.117241099701548
 20
2.809649068695308
 30
0.0
 10
1.111238961683297
 20
2.817669166909367
 30
0.0
 10
1.109216689606784
 20
2.823688552450651
 30
0.0
 10
1.107893111709612
 20
2.833713675218203
 30
0.0
 10
1.106543323535384
 20
2.843734486105025
 30
0.0
 10
1.101196591392686
 20
2.862473919889061
 30
0.0
 10
1.091175780505877
 20
2.867820652031746
 30
0.0
  0
SPLINE
  5
6C
330
1F
100
AcDbEntity
  8
Layer 1
 62
     7
420
 16777215
370
    15
100
AcDbSpline
210
0.0
220
0.0
230
1.0
 70
     8
 71
     3
 72
    17
 73
    13
 74
     0
 42
0.0000000001
 43
0.0000000001
 12
1.0
 22
0.0
 32
0.0
 13
1.0
 23
0.0
 33
0.0
 40
0.0
 40
0.0
 40
0.0
 40
0.0
 40
1.0
 40
1.0
 40
1.0
 40
2.0
 40
2.0
 40
2.0
 40
3.0
 40
3.0
 40
3.0
 40
4.0
 40
4.0
 40
4.0
 40
4.0
 10
1.159389734132977
 20
2.800279351803283
 30
0.0
 10
1.157367462056375
 20
2.820342532980703
 30
0.0
 10
1.152020729913678
 20
2.843083392110227
 30
0.0
 10
1.143327978301032
 20
2.864470320681044
 30
0.0
 10
1.134630914807619
 20
2.885883120536391
 30
0.0
 10
1.139326723245871
 20
2.887883833209142
 30
0.0
 10
1.131284895337672
 20
2.911297345737264
 30
0.0
 10
1.123260485242857
 20
2.934689298861586
 30
0.0
 10
1.1098936548861
 20
2.953402861361054
 30
0.0
 10
1.1098936548861
 20
2.968140869799577
 30
0.0
 10
1.1098936548861
 20
2.982840071311228
 30
0.0
 10
1.098523225321375
 20
3.025639799737418
 30
0.0
 10
1.089153508429326
 20
3.02899013108812
 30
0.0
  0
SPLINE
  5
6D
330
1F
100
AcDbEntity
  8
Layer 1
 62
     7
420
 16777215
370
    15
100
AcDbSpline
210
0.0
220
0.0
230
1.0
 70
     8
 71
     3
 72
    38
 73
    34
 74
     0
 42
0.0000000001
 43
0.0000000001
 12
1.0
 22
0.0
 32
0.0
 13
1.0
 23
0.0
 33
0.0
 40
0.0
 40
0.0
 40
0.0
 40
0.0
 40
1.0
 40
1.0
 40
1.0
 40
2.0
 40
2.0
 40
2.0
 40
3.0
 40
3.0
 40
3.0
 40
4.0
 40
4.0
 40
4.0
 40
5.0
 40
5.0
 40
5.0
 40
6.0
 40
6.0
 40
6.0
 40
7.0
 40
7.0
 40
7.0
 40
8.0
 40
8.0
 40
8.0
 40
9.0
 40
9.0
 40
9.0
 40
10.0
 40
10.0
 40
10.0
 40
11.0
 40
11.0
 40
11.0
 40
11.0
 10
1.212887410873931
 20
2.826366230402755
 30
0.0
 10
1.209541219255319
 20
2.840405874846536
 30
0.0
 10
1.199498848964721
 20
2.858450935139722
 30
0.0
 10
1.200844155761956
 20
2.869144399425143
 30
0.0
 10
1.20217221503607
 20
2.879863734995095
 30
0.0
 10
1.195497423619208
 20
2.889211892483318
 30
0.0
 10
1.192824057547859
 20
2.904600994916614
 30
0.0
 10
1.190150691476548
 20
2.919972849826889
 30
0.0
 10
1.180780974584498
 20
2.944059015753611
 30
0.0
 10
1.176757989835197
 20
2.95675319271177
 30
0.0
 10
1.172760876370451
 20
2.969468929073716
 30
0.0
 10
1.148002057045131
 20
3.065097986939008
 30
0.0
 10
1.142651013021666
 20
3.08048692300771
 30
0.0
 10
1.137304280878968
 20
3.095858777917985
 30
0.0
 10
1.119263371778111
 20
3.157376380724372
 30
0.0
 10
1.117913753100146
 20
3.16474555382557
 30
0.0
 10
1.117913753100146
 20
3.16474555382557
 30
0.0
 10
1.118586576265178
 20
3.174766195830443
 30
0.0
 10
1.120587119171508
 20
3.179440274574542
 30
0.0
 10
1.122609391248059
 20
3.184135912722506
 30
0.0
 10
1.135976221604816
 20
3.206876771851967
 30
0.0
 10
1.139977646950355
 20
3.214224216667414
 30
0.0
 10
1.144000631699618
 20
3.221571661482888
 30
0.0
 10
1.168108357030178
 20
3.256985138166758
 30
0.0
 10
1.170087510299102
 20
3.267721721259754
 30
0.0
 10
1.170255673648752
 20
3.268648775623205
 30
0.0
 10
1.166737178948387
 20
3.271723318189692
 30
0.0
 10
1.159389734132977
 20
3.276418784753206
 30
0.0
 10
1.152020729913678
 20
3.28109286349728
 30
0.0
 10
1.144000631699618
 20
3.287112249038627
 30
0.0
 10
1.130629489462106
 20
3.291135233787877
 30
0.0
 10
1.117241099701548
 20
3.295132347252623
 30
0.0
 10
1.079805350941115
 20
3.3011560446747
 30
0.0
 10
1.073786134034498
 20
3.302501351471897
 30
0.0
  0
SPLINE
  5
6E
330
1F
100
AcDbEntity
  8
Layer 1
 62
     7
420
 16777215
370
    15
100
AcDbSpline
210
0.0
220
0.0
230
1.0
 70
     8
 71
     3
 72
    38
 73
    34
 74
     0
 42
0.0000000001
 43
0.0000000001
 12
1.0
 22
0.0
 32
0.0
 13
1.0
 23
0.0
 33
0.0
 40
0.0
 40
0.0
 40
0.0
 40
0.0
 40
1.0
 40
1.0
 40
1.0
 40
2.0
 40
2.0
 40
2.0
 40
3.0
 40
3.0
 40
3.0
 40
4.0
 40
4.0
 40
4.0
 40
5.0
 40
5.0
 40
5.0
 40
6.0
 40
6.0
 40
6.0
 40
7.0
 40
7.0
 40
7.0
 40
8.0
 40
8.0
 40
8.0
 40
9.0
 40
9.0
 40
9.0
 40
10.0
 40
10.0
 40
10.0
 40
11.0
 40
11.0
 40
11.0
 40
11.0
 10
1.263038723847659
 20
2.850430836925675
 30
0.0
 10
1.258343085699759
 20
2.87183948638277
 30
0.0
 10
1.247649621414363
 20
2.904600994916614
 30
0.0
 10
1.241625923992299
 20
2.925992235368186
 30
0.0
 10
1.23560653845099
 20
2.947405035223558
 30
0.0
 10
1.222235396213478
 20
2.996879555066597
 30
0.0
 10
1.21888937674353
 20
3.010923350702695
 30
0.0
 10
1.215543357273582
 20
3.024967146338819
 30
0.0
 10
1.198170789690557
 20
3.096531598475268
 30
0.0
 10
1.194824770220609
 20
3.105879588804783
 30
0.0
 10
1.191478750750662
 20
3.115249305696782
 30
0.0
 10
1.185200652363745
 20
3.166746097616371
 30
0.0
 10
1.174761589043202
 20
3.186136625395193
 30
0.0
 10
1.174420950463147
 20
3.186727353059344
 30
0.0
 10
1.177434955114551
 20
3.196834401561369
 30
0.0
 10
1.18210903385865
 20
3.203526440501264
 30
0.0
 10
1.186804672006562
 20
3.210201231918113
 30
0.0
 10
1.191478750750662
 20
3.230264413095533
 30
0.0
 10
1.200844155761956
 20
3.239634129987532
 30
0.0
 10
1.210214044735052
 20
3.249003846879557
 30
0.0
 10
1.227586440236943
 20
3.290458268508524
 30
0.0
 10
1.227586440236943
 20
3.295132347252623
 30
0.0
 10
1.227586440236943
 20
3.299827985400535
 30
0.0
 10
1.223585014891442
 20
3.301828698073311
 30
0.0
 10
1.21221458532668
 20
3.306502776817398
 30
0.0
 10
1.200844155761956
 20
3.311198414965297
 30
0.0
 10
1.189478038077911
 20
3.317873206382198
 30
0.0
 10
1.180780974584498
 20
3.317873206382198
 30
0.0
 10
1.172088222971853
 20
3.317873206382198
 30
0.0
 10
1.123260485242857
 20
3.335935674886817
 30
0.0
 10
1.114567733630237
 20
3.338609040958166
 30
0.0
 10
1.105870670136786
 20
3.34128671891027
 30
0.0
 10
1.084479598590027
 20
3.348634163725769
 30
0.0
 10
1.084479598590027
 20
3.348634163725769
 30
0.0
  0
SPLINE
  5
6F
330
1F
100
AcDbEntity
  8
Layer 1
 62
     7
420
 16777215
370
    15
100
AcDbSpline
210
0.0
220
0.0
230
1.0
 70
     8
 71
     3
 72
    65
 73
    61
 74
     0
 42
0.0000000001
 43
0.0000000001
 12
1.0
 22
0.0
 32
0.0
 13
1.0
 23
0.0
 33
0.0
 40
0.0
 40
0.0
 40
0.0
 40
0.0
 40
1.0
 40
1.0
 40
1.0
 40
2.0
 40
2.0
 40
2.0
 40
3.0
 40
3.0
 40
3.0
 40
4.0
 40
4.0
 40
4.0
 40
5.0
 40
5.0
 40
5.0
 40
6.0
 40
6.0
 40
6.0
 40
7.0
 40
7.0
 40
7.0
 40
8.0
 40
8.0
 40
8.0
 40
9.0
 40
9.0
 40
9.0
 40
10.0
 40
10.0
 40
10.0
 40
11.0
 40
11.0
 40
11.0
 40
12.0
 40
12.0
 40
12.0
 40
13.0
 40
13.0
 40
13.0
 40
14.0
 40
14.0
 40
14.0
 40
15.0
 40
15.0
 40
15.0
 40
16.0
 40
16.0
 40
16.0
 40
17.0
 40
17.0
 40
17.0
 40
18.0
 40
18.0
 40
18.0
 40
19.0
 40
19.0
 40
19.0
 40
20.0
 40
20.0
 40
20.0
 40
20.0
 10
1.321887272463464
 20
2.879191081596496
 30
0.0
 10
1.317864287714163
 20
2.899926916172515
 30
0.0
 10
1.311189496297301
 20
2.920645503225488
 30
0.0
 10
1.30916722422075
 20
2.936690174655142
 30
0.0
 10
1.307170823428755
 20
2.952751767366256
 30
0.0
 10
1.300474472608105
 20
2.989532110251123
 30
0.0
 10
1.293799681191242
 20
3.004904130005393
 30
0.0
 10
1.287103330370579
 20
3.02029306759472
 30
0.0
 10
1.279083232156533
 20
3.057750375758941
 30
0.0
 10
1.275081806811032
 20
3.065770473972988
 30
0.0
 10
1.271063133942473
 20
3.07379057218706
 30
0.0
 10
1.261020763651876
 20
3.119267978565328
 30
0.0
 10
1.257019338306362
 20
3.129293101332905
 30
0.0
 10
1.252996353557061
 20
3.139335471623503
 30
0.0
 10
1.229604400432739
 20
3.216897582738763
 30
0.0
 10
1.229604400432739
 20
3.216897582738763
 30
0.0
 10
1.229604400432739
 20
3.216897582738763
 30
0.0
 10
1.242975542670251
 20
3.231614031773486
 30
0.0
 10
1.248322274812949
 20
3.240962189261684
 30
0.0
 10
1.25366900695566
 20
3.250331906153709
 30
0.0
 10
1.267712802591771
 20
3.276418784753206
 30
0.0
 10
1.276409866085184
 20
3.288461867716528
 30
0.0
 10
1.285102617697829
 20
3.300483563587072
 30
0.0
 10
1.291126315119893
 20
3.321891879250693
 30
0.0
 10
1.293799681191242
 20
3.326565957994818
 30
0.0
 10
1.289125602447143
 20
3.32791557667277
 30
0.0
 10
1.281756598227882
 20
3.330588942744119
 30
0.0
 10
1.271735787341072
 20
3.335935674886817
 30
0.0
 10
1.261693417050474
 20
3.34128671891027
 30
0.0
 10
1.232933172379641
 20
3.349306817124317
 30
0.0
 10
1.22693103436139
 20
3.351307529797092
 30
0.0
 10
1.220911648820131
 20
3.353329801873592
 30
0.0
 10
1.154021442586428
 20
3.377394408396564
 30
0.0
 10
1.145345938496815
 20
3.377394408396564
 30
0.0
 10
1.142000089384762
 20
3.377394408396564
 30
0.0
 10
1.129956836063507
 20
3.38141308126511
 30
0.0
 10
1.129956836063507
 20
3.38141308126511
 30
0.0
 10
1.129956836063507
 20
3.38141308126511
 30
0.0
 10
1.136653357106992
 20
3.405477862751367
 30
0.0
 10
1.139326723245871
 20
3.413502097882833
 30
0.0
 10
1.142000089384762
 20
3.42152219609688
 30
0.0
 10
1.156461967096725
 20
3.456344945116623
 30
0.0
 10
1.16539187215119
 20
3.466999602475173
 30
0.0
 10
1.167116624455288
 20
3.469146919093772
 30
0.0
 10
1.16339115947844
 20
3.483716764182633
 30
0.0
 10
1.16339115947844
 20
3.483716764182633
 30
0.0
 10
1.16339115947844
 20
3.483716764182633
 30
0.0
 10
1.152693553940316
 20
3.521169760466111
 30
0.0
 10
1.152693553940316
 20
3.531212308896379
 30
0.0
 10
1.152693553940316
 20
3.541237253524287
 30
0.0
 10
1.146001344372381
 20
3.564646454171654
 30
0.0
 10
1.144000631699618
 20
3.576016883736404
 30
0.0
 10
1.142000089384762
 20
3.587387313301178
 30
0.0
 10
1.136653357106992
 20
3.606105187681401
 30
0.0
 10
1.132630202134856
 20
3.619472018038159
 30
0.0
 10
1.128607217385555
 20
3.632843340982744
 30
0.0
 10
1.115913210126286
 20
3.67229705093564
 30
0.0
 10
1.115913210126286
 20
3.684339952195235
 30
0.0
 10
1.115913210126286
 20
3.696383035158608
 30
0.0
 10
1.089153508429326
 20
3.755904420988877
 30
0.0
 10
1.089153508429326
 20
3.755904420988877
 30
0.0
  0
SPLINE
  5
70
330
1F
100
AcDbEntity
  8
Layer 1
 62
     7
420
 16777215
370
    15
100
AcDbSpline
210
0.0
220
0.0
230
1.0
 70
     8
 71
     3
 72
    14
 73
    10
 74
     0
 42
0.0000000001
 43
0.0000000001
 12
1.0
 22
0.0
 32
0.0
 13
1.0
 23
0.0
 33
0.0
 40
0.0
 40
0.0
 40
0.0
 40
0.0
 40
1.0
 40
1.0
 40
1.0
 40
2.0
 40
2.0
 40
2.0
 40
3.0
 40
3.0
 40
3.0
 40
3.0
 10
1.087825449155174
 20
3.545911332268386
 30
0.0
 10
1.09317649317864
 20
3.52384312653746
 30
0.0
 10
1.092499697006676
 20
3.519169047793361
 30
0.0
 10
1.100523937994088
 20
3.505129564038018
 30
0.0
 10
1.108565595611948
 20
3.491085768401894
 30
0.0
 10
1.1098936548861
 20
3.47034562194512
 30
0.0
 10
1.111238961683297
 20
3.463670830528283
 30
0.0
 10
1.112567020957449
 20
3.456978791588376
 30
0.0
 10
1.113912327754608
 20
3.4415853772743
 30
0.0
 10
1.113912327754608
 20
3.4415853772743
 30
0.0
  0
SPLINE
  5
71
330
1F
100
AcDbEntity
  8
Layer 1
 62
     7
420
 16777215
370
    15
100
AcDbSpline
210
0.0
220
0.0
230
1.0
 70
     8
 71
     3
 72
    83
 73
    79
 74
     0
 42
0.0000000001
 43
0.0000000001
 12
1.0
 22
0.0
 32
0.0
 13
1.0
 23
0.0
 33
0.0
 40
0.0
 40
0.0
 40
0.0
 40
0.0
 40
1.0
 40
1.0
 40
1.0
 40
2.0
 40
2.0
 40
2.0
 40
3.0
 40
3.0
 40
3.0
 40
4.0
 40
4.0
 40
4.0
 40
5.0
 40
5.0
 40
5.0
 40
6.0
 40
6.0
 40
6.0
 40
7.0
 40
7.0
 40
7.0
 40
8.0
 40
8.0
 40
8.0
 40
9.0
 40
9.0
 40
9.0
 40
10.0
 40
10.0
 40
10.0
 40
11.0
 40
11.0
 40
11.0
 40
12.0
 40
12.0
 40
12.0
 40
13.0
 40
13.0
 40
13.0
 40
14.0
 40
14.0
 40
14.0
 40
15.0
 40
15.0
 40
15.0
 40
16.0
 40
16.0
 40
16.0
 40
17.0
 40
17.0
 40
17.0
 40
18.0
 40
18.0
 40
18.0
 40
19.0
 40
19.0
 40
19.0
 40
20.0
 40
20.0
 40
20.0
 40
21.0
 40
21.0
 40
21.0
 40
22.0
 40
22.0
 40
22.0
 40
23.0
 40
23.0
 40
23.0
 40
24.0
 40
24.0
 40
24.0
 40
25.0
 40
25.0
 40
25.0
 40
26.0
 40
26.0
 40
26.0
 40
26.0
 10
1.159389734132977
 20
3.79268476480292
 30
0.0
 10
1.166064525549789
 20
3.773945146273895
 30
0.0
 10
1.181453799337671
 20
3.753231054849998
 30
0.0
 10
1.17878043319878
 20
3.720447641681529
 30
0.0
 10
1.176107067059901
 20
3.687685971665208
 30
0.0
 10
1.176107067059901
 20
3.693037197916358
 30
0.0
 10
1.18545505332861
 20
3.663604117619242
 30
0.0
 10
1.194824770220609
 20
3.634188467072881
 30
0.0
 10
1.191478750750662
 20
3.626841022257395
 30
0.0
 10
1.196825482893372
 20
3.605428222402022
 30
0.0
 10
1.20217221503607
 20
3.584036981950425
 30
0.0
 10
1.20886856585672
 20
3.577344943010555
 30
0.0
 10
1.210214044735052
 20
3.563301147374457
 30
0.0
 10
1.211541931928082
 20
3.549257351738333
 30
0.0
 10
1.22910008294203
 20
3.510178776408262
 30
0.0
 10
1.224257668290041
 20
3.500433925890093
 30
0.0
 10
1.223585014891442
 20
3.499105866615941
 30
0.0
 10
1.21688866407078
 20
3.493759134473255
 30
0.0
 10
1.213542644600832
 20
3.489063496325343
 30
0.0
 10
1.210214044735052
 20
3.484389417581244
 30
0.0
 10
1.204845581107419
 20
3.469672968546522
 30
0.0
 10
1.203521833714022
 20
3.463670830528283
 30
0.0
 10
1.20217221503607
 20
3.457651621268319
 30
0.0
 10
1.194824770220609
 20
3.4415853772743
 30
0.0
 10
1.191478750750662
 20
3.432237219786101
 30
0.0
 10
1.188128419399959
 20
3.422867502894077
 30
0.0
 10
1.186804672006562
 20
3.408151228890246
 30
0.0
 10
1.186804672006562
 20
3.408151228890246
 30
0.0
 10
1.186804672006562
 20
3.408151228890246
 30
0.0
 10
1.198170789690557
 20
3.402131668318083
 30
0.0
 10
1.210214044735052
 20
3.398785648848136
 30
0.0
 10
1.222235396213478
 20
3.395456876901208
 30
0.0
 10
1.2456489087416
 20
3.384086447336459
 30
0.0
 10
1.254345972235013
 20
3.384086447336459
 30
0.0
 10
1.263038723847659
 20
3.384086447336459
 30
0.0
 10
1.296473047262591
 20
3.37939098349289
 30
0.0
 10
1.308516130225952
 20
3.372720329652439
 30
0.0
 10
1.320537653785512
 20
3.366024152798445
 30
0.0
 10
1.342161735798135
 20
3.364467389877341
 30
0.0
 10
1.351298786774312
 20
3.355326202665638
 30
0.0
 10
1.352648229807048
 20
3.353980895868441
 30
0.0
 10
1.354644630599043
 20
3.346633451052968
 30
0.0
 10
1.351298786774312
 20
3.341959372308868
 30
0.0
 10
1.347974151062936
 20
3.337263907401102
 30
0.0
 10
1.332580736748873
 20
3.321219225852095
 30
0.0
 10
1.329234717278925
 20
3.316545147107995
 30
0.0
 10
1.32588438592821
 20
3.311849508960095
 30
0.0
 10
1.312517555571465
 20
3.286439595639977
 30
0.0
 10
1.311845076821404
 20
3.281765516895878
 30
0.0
 10
1.311189496297301
 20
3.277091438151779
 30
0.0
 10
1.299823378613306
 20
3.253677925623656
 30
0.0
 10
1.295127740465394
 20
3.24965925275511
 30
0.0
 10
1.295127740465394
 20
3.244308208731645
 30
0.0
 10
1.290453661721295
 20
3.241634842660257
 30
0.0
 10
1.293127027792682
 20
3.230264413095533
 30
0.0
 10
1.295800393863993
 20
3.218898295411514
 30
0.0
 10
1.301147126006703
 20
3.202181133704066
 30
0.0
 10
1.30382049207809
 20
3.187464684669344
 30
0.0
 10
1.306493858149401
 20
3.172769795038448
 30
0.0
 10
1.307170823428755
 20
3.156703727325773
 30
0.0
 10
1.311845076821404
 20
3.151356995183075
 30
0.0
 10
1.316536228440011
 20
3.146005951159597
 30
0.0
 10
1.315190921642814
 20
3.135985308428189
 30
0.0
 10
1.318536941112762
 20
3.119267978565328
 30
0.0
 10
1.321887272463464
 20
3.10255081685788
 30
0.0
 10
1.328562063880327
 20
3.07379057218706
 30
0.0
 10
1.333253390147471
 20
3.065770473972988
 30
0.0
 10
1.337927468891571
 20
3.057750375758941
 30
0.0
 10
1.340605322218784
 20
3.039011107680532
 30
0.0
 10
1.344623819712233
 20
3.025639799737418
 30
0.0
 10
1.348625420635434
 20
3.012272969380648
 30
0.0
 10
1.347974151062936
 20
2.994206188995248
 30
0.0
 10
1.352648229807048
 20
2.978165992567129
 30
0.0
 10
1.357317996670392
 20
2.962099924854455
 30
0.0
 10
1.378269425284417
 20
2.905023559231116
 30
0.0
 10
1.378269425284417
 20
2.905023559231116
 30
0.0
 10
1.378269425284417
 20
2.905023559231116
 30
0.0
 10
2.797128284488609
 20
2.398377569902525
 30
0.0
 10
2.797128284488609
 20
2.398377569902525
 30
0.0
  0
POLYLINE
  5
72
330
1F
100
AcDbEntity
  8
Layer 1
 62
     7
420
 16777215
370
    40
100
AcDb2dPolyline
 66
     1
 10
0.0
 20
0.0
 30
0.0
  0
VERTEX
  5
73
330
72
100
AcDbEntity
  8
Layer 1
 62
     7
420
 16777215
370
    40
100
AcDbVertex
100
AcDb2dVertex
 10
1.378269425284417
 20
2.905023559231116
 30
0.0
  0
VERTEX
  5
74
330
72
100
AcDbEntity
  8
Layer 1
 62
     7
420
 16777215
370
    40
100
AcDbVertex
100
AcDb2dVertex
 10
2.797128284488609
 20
2.398377569902525
 30
0.0
  0
SEQEND
  5
75
330
72
100
AcDbEntity
  8
Layer 1
 62
     7
420
 16777215
370
    40
  0
SPLINE
  5
76
330
1F
100
AcDbEntity
  8
Layer 1
 62
     7
420
 16777215
370
    15
100
AcDbSpline
210
0.0
220
0.0
230
1.0
 70
     8
 71
     3
 72
    47
 73
    43
 74
     0
 42
0.0000000001
 43
0.0000000001
 12
1.0
 22
0.0
 32
0.0
 13
1.0
 23
0.0
 33
0.0
 40
0.0
 40
0.0
 40
0.0
 40
0.0
 40
1.0
 40
1.0
 40
1.0
 40
2.0
 40
2.0
 40
2.0
 40
3.0
 40
3.0
 40
3.0
 40
4.0
 40
4.0
 40
4.0
 40
5.0
 40
5.0
 40
5.0
 40
6.0
 40
6.0
 40
6.0
 40
7.0
 40
7.0
 40
7.0
 40
8.0
 40
8.0
 40
8.0
 40
9.0
 40
9.0
 40
9.0
 40
10.0
 40
10.0
 40
10.0
 40
11.0
 40
11.0
 40
11.0
 40
12.0
 40
12.0
 40
12.0
 40
13.0
 40
13.0
 40
13.0
 40
14.0
 40
14.0
 40
14.0
 40
14.0
 10
1.400122036977324
 20
3.39011014475851
 30
0.0
 10
1.390101226090514
 20
3.394784398195826
 30
0.0
 10
1.377385666032776
 20
3.398785648848136
 30
0.0
 10
1.361992251329841
 20
3.404153940394634
 30
0.0
 10
1.346624532384984
 20
3.409500672537357
 30
0.0
 10
1.323211019856861
 20
3.418193424149977
 30
0.0
 10
1.309844189500104
 20
3.420194136822778
 30
0.0
 10
1.296473047262591
 20
3.422194849495478
 30
0.0
 10
1.269062421269723
 20
3.43491058585745
 30
0.0
 10
1.269062421269723
 20
3.43491058585745
 30
0.0
 10
1.269062421269723
 20
3.43491058585745
 30
0.0
 10
1.264366783121823
 20
3.436911474287626
 30
0.0
 10
1.26571208991902
 20
3.442934995952252
 30
0.0
 10
1.267040149193172
 20
3.448954381493561
 30
0.0
 10
1.271063133942473
 20
3.469672968546522
 30
0.0
 10
1.277082519483782
 20
3.484389417581244
 30
0.0
 10
1.283106216905834
 20
3.499105866615941
 30
0.0
 10
1.294472334589841
 20
3.529866823959537
 30
0.0
 10
1.294472334589841
 20
3.529866823959537
 30
0.0
 10
1.294472334589841
 20
3.529866823959537
 30
0.0
 10
1.292454374394045
 20
3.537886922173609
 30
0.0
 10
1.292454374394045
 20
3.549257351738333
 30
0.0
 10
1.292454374394045
 20
3.560627781303108
 30
0.0
 10
1.287103330370579
 20
3.58201902175468
 30
0.0
 10
1.285102617697829
 20
3.596735470789377
 30
0.0
 10
1.283106216905834
 20
3.611451919824099
 30
0.0
 10
1.28042853895373
 20
3.625495715460197
 30
0.0
 10
1.276409866085184
 20
3.635516707121623
 30
0.0
 10
1.27238688133587
 20
3.645558896637592
 30
0.0
 10
1.262366070449111
 20
3.665622077815037
 30
0.0
 10
1.263038723847659
 20
3.670296156559137
 30
0.0
 10
1.263694129723224
 20
3.674991794707037
 30
0.0
 10
1.257019338306362
 20
3.719796547686731
 30
0.0
 10
1.257019338306362
 20
3.719796547686731
 30
0.0
 10
1.257019338306362
 20
3.719796547686731
 30
0.0
 10
1.255018625633612
 20
3.733840343322855
 30
0.0
 10
1.254345972235013
 20
3.750557688711119
 30
0.0
 10
1.25366900695566
 20
3.76727035485702
 30
0.0
 10
1.241625923992299
 20
3.806728375693991
 30
0.0
 10
1.240302176598902
 20
3.812075107836689
 30
0.0
 10
1.23895255792095
 20
3.817421839979412
 30
0.0
 10
1.236951845248187
 20
3.83613971435961
 30
0.0
 10
1.236951845248187
 20
3.83613971435961
 30
0.0
  0
SPLINE
  5
77
330
1F
100
AcDbEntity
  8
Layer 1
 62
     7
420
 16777215
370
    15
100
AcDbSpline
210
0.0
220
0.0
230
1.0
 70
     8
 71
     3
 72
    44
 73
    40
 74
     0
 42
0.0000000001
 43
0.0000000001
 12
1.0
 22
0.0
 32
0.0
 13
1.0
 23
0.0
 33
0.0
 40
0.0
 40
0.0
 40
0.0
 40
0.0
 40
1.0
 40
1.0
 40
1.0
 40
2.0
 40
2.0
 40
2.0
 40
3.0
 40
3.0
 40
3.0
 40
4.0
 40
4.0
 40
4.0
 40
5.0
 40
5.0
 40
5.0
 40
6.0
 40
6.0
 40
6.0
 40
7.0
 40
7.0
 40
7.0
 40
8.0
 40
8.0
 40
8.0
 40
9.0
 40
9.0
 40
9.0
 40
10.0
 40
10.0
 40
10.0
 40
11.0
 40
11.0
 40
11.0
 40
12.0
 40
12.0
 40
12.0
 40
13.0
 40
13.0
 40
13.0
 40
13.0
 10
1.291798968518492
 20
3.862226592959082
 30
0.0
 10
1.290453661721295
 20
3.842163411781687
 30
0.0
 10
1.293127027792682
 20
3.840835352507535
 30
0.0
 10
1.298473759935342
 20
3.822772884002865
 30
0.0
 10
1.30382049207809
 20
3.804706103617491
 30
0.0
 10
1.305842764154603
 20
3.787338032525112
 30
0.0
 10
1.311189496297301
 20
3.763251681988499
 30
0.0
 10
1.316536228440011
 20
3.739187075465553
 30
0.0
 10
1.321887272463464
 20
3.730490011972127
 30
0.0
 10
1.324560638534826
 20
3.701729767301357
 30
0.0
 10
1.327234004606175
 20
3.672969522630486
 30
0.0
 10
1.331908083350274
 20
3.643558183964867
 30
0.0
 10
1.337927468891571
 20
3.618148270644749
 30
0.0
 10
1.343951166313635
 20
3.592734045443876
 30
0.0
 10
1.344623819712233
 20
3.580690962480528
 30
0.0
 10
1.345952054496555
 20
3.571321245588504
 30
0.0
 10
1.347297185783582
 20
3.561973088100305
 30
0.0
 10
1.343951166313635
 20
3.554604083881031
 30
0.0
 10
1.343951166313635
 20
3.554604083881031
 30
0.0
 10
1.343951166313635
 20
3.554604083881031
 30
0.0
 10
1.340605322218784
 20
3.546583985666985
 30
0.0
 10
1.338604434170937
 20
3.533868249305038
 30
0.0
 10
1.336603721498174
 20
3.521169760466111
 30
0.0
 10
1.332580736748873
 20
3.509803642782117
 30
0.0
 10
1.329907370677524
 20
3.502452063498999
 30
0.0
 10
1.327234004606175
 20
3.49508288186664
 30
0.0
 10
1.32588438592821
 20
3.489736149723942
 30
0.0
 10
1.321210307184111
 20
3.479715338837145
 30
0.0
 10
1.316536228440011
 20
3.469672968546522
 30
0.0
 10
1.315863575041413
 20
3.459652157659725
 30
0.0
 10
1.315863575041413
 20
3.459652157659725
 30
0.0
 10
1.315863575041413
 20
3.459652157659725
 30
0.0
 10
1.316536228440011
 20
3.454956519511825
 30
0.0
 10
1.32588438592821
 20
3.4502824407677
 30
0.0
 10
1.335254102820222
 20
3.445608362023601
 30
0.0
 10
1.354644630599043
 20
3.435565991733003
 30
0.0
 10
1.366015060163805
 20
3.431564742009868
 30
0.0
 10
1.377385666032776
 20
3.427541581638176
 30
0.0
 10
1.396776017507376
 20
3.417520770751379
 30
0.0
 10
1.404145021726638
 20
3.414174751281431
 30
0.0
  0
SPLINE
  5
78
330
1F
100
AcDbEntity
  8
Layer 1
 62
     7
420
 16777215
370
    15
100
AcDbSpline
210
0.0
220
0.0
230
1.0
 70
     8
 71
     3
 72
    17
 73
    13
 74
     0
 42
0.0000000001
 43
0.0000000001
 12
1.0
 22
0.0
 32
0.0
 13
1.0
 23
0.0
 33
0.0
 40
0.0
 40
0.0
 40
0.0
 40
0.0
 40
1.0
 40
1.0
 40
1.0
 40
2.0
 40
2.0
 40
2.0
 40
3.0
 40
3.0
 40
3.0
 40
4.0
 40
4.0
 40
4.0
 40
4.0
 10
1.333253390147471
 20
3.886963852880601
 30
0.0
 10
1.335931068099575
 20
3.872920057244503
 30
0.0
 10
1.339277087569535
 20
3.877615695392402
 30
0.0
 10
1.343951166313635
 20
3.856879860816384
 30
0.0
 10
1.348625420635434
 20
3.83613971435961
 30
0.0
 10
1.348625420635434
 20
3.815403879783617
 30
0.0
 10
1.351298786774312
 20
3.803382356224044
 30
0.0
 10
1.353972152913204
 20
3.791339273260696
 30
0.0
 10
1.357317996670392
 20
3.766597885544393
 30
0.0
 10
1.364014347491042
 20
3.756576890571599
 30
0.0
 10
1.370710698311705
 20
3.746534520281001
 30
0.0
 10
1.376057430454403
 20
3.711099484193331
 30
0.0
 10
1.379386202401317
 20
3.695710564055237
 30
0.0
  0
SPLINE
  5
79
330
1F
100
AcDbEntity
  8
Layer 1
 62
     7
420
 16777215
370
    15
100
AcDbSpline
210
0.0
220
0.0
230
1.0
 70
     8
 71
     3
 72
    26
 73
    22
 74
     0
 42
0.0000000001
 43
0.0000000001
 12
1.0
 22
0.0
 32
0.0
 13
1.0
 23
0.0
 33
0.0
 40
0.0
 40
0.0
 40
0.0
 40
0.0
 40
1.0
 40
1.0
 40
1.0
 40
2.0
 40
2.0
 40
2.0
 40
3.0
 40
3.0
 40
3.0
 40
4.0
 40
4.0
 40
4.0
 40
5.0
 40
5.0
 40
5.0
 40
6.0
 40
6.0
 40
6.0
 40
7.0
 40
7.0
 40
7.0
 40
7.0
 10
1.377385666032776
 20
3.08248763568046
 30
0.0
 10
1.376057430454403
 20
3.101878330753026
 30
0.0
 10
1.369361079633753
 20
3.133962868196249
 30
0.0
 10
1.365342406765244
 20
3.146682916438976
 30
0.0
 10
1.361340981419693
 20
3.159377093397122
 30
0.0
 10
1.355321595878397
 20
3.192160322817244
 30
0.0
 10
1.354644630599043
 20
3.19615743628199
 30
0.0
 10
1.353972152913204
 20
3.200180421031341
 30
0.0
 10
1.343278688357676
 20
3.24965925275511
 30
0.0
 10
1.343278688357676
 20
3.253677925623656
 30
0.0
 10
1.343278688357676
 20
3.257679350969157
 30
0.0
 10
1.346624532384984
 20
3.271723318189692
 30
0.0
 10
1.346624532384984
 20
3.271723318189692
 30
0.0
 10
1.346624532384984
 20
3.271723318189692
 30
0.0
 10
1.362669040693845
 20
3.295809312531977
 30
0.0
 10
1.364687000889603
 20
3.299155332001949
 30
0.0
 10
1.366687713562404
 20
3.302501351471897
 30
0.0
 10
1.386078241341213
 20
3.334590541262186
 30
0.0
 10
1.390101226090514
 20
3.339937273539969
 30
0.0
 10
1.394102651436027
 20
3.345305391778816
 30
0.0
 10
1.408146447072138
 20
3.3606774205207
 30
0.0
 10
1.408146447072138
 20
3.3606774205207
 30
0.0
  0
POLYLINE
  5
7A
330
1F
100
AcDbEntity
  8
Layer 1
 62
     7
420
 16777215
370
    40
100
AcDb2dPolyline
 66
     1
 10
0.0
 20
0.0
 30
0.0
  0
VERTEX
  5
7B
330
7A
100
AcDbEntity
  8
Layer 1
 62
     7
420
 16777215
370
    40
100
AcDbVertex
100
AcDb2dVertex
 10
1.49842429454932
 20
1.911523113263431
 30
0.0
  0
VERTEX
  5
7C
330
7A
100
AcDbEntity
  8
Layer 1
 62
     7
420
 16777215
370
    40
100
AcDbVertex
100
AcDb2dVertex
 10
3.852379174823757
 20
2.783562190095836
 30
0.0
  0
VERTEX
  5
7D
330
7A
100
AcDbEntity
  8
Layer 1
 62
     7
420
 16777215
370
    40
100
AcDbVertex
100
AcDb2dVertex
 10
3.855052540895106
 20
3.158049034122971
 30
0.0
  0
VERTEX
  5
7E
330
7A
100
AcDbEntity
  8
Layer 1
 62
     7
420
 16777215
370
    40
100
AcDbVertex
100
AcDb2dVertex
 10
3.8216184555309
 20
3.24765854008236
 30
0.0
  0
VERTEX
  5
7F
330
7A
100
AcDbEntity
  8
Layer 1
 62
     7
420
 16777215
370
    40
100
AcDbVertex
100
AcDb2dVertex
 10
3.888486864310026
 20
3.315872493709397
 30
0.0
  0
VERTEX
  5
80
330
7A
100
AcDbEntity
  8
Layer 1
 62
     7
420
 16777215
370
    40
100
AcDbVertex
100
AcDb2dVertex
 10
3.857725906966455
 20
3.406827306465983
 30
0.0
  0
VERTEX
  5
81
330
7A
100
AcDbEntity
  8
Layer 1
 62
     7
420
 16777215
370
    40
100
AcDbVertex
100
AcDb2dVertex
 10
3.853724481620954
 20
3.770599126803922
 30
0.0
  0
SEQEND
  5
82
330
7A
100
AcDbEntity
  8
Layer 1
 62
     7
420
 16777215
370
    40
  0
POLYLINE
  5
83
330
1F
100
AcDbEntity
  8
Layer 1
 62
     7
420
 16777215
370
    40
100
AcDb2dPolyline
 66
     1
 10
0.0
 20
0.0
 30
0.0
  0
VERTEX
  5
84
330
83
100
AcDbEntity
  8
Layer 1
 62
     7
420
 16777215
370
    40
100
AcDbVertex
100
AcDb2dVertex
 10
3.852379174823757
 20
2.782212571417858
 30
0.0
  0
VERTEX
  5
85
330
83
100
AcDbEntity
  8
Layer 1
 62
     7
420
 16777215
370
    40
100
AcDbVertex
100
AcDb2dVertex
 10
4.161346990699005
 20
2.643128545615455
 30
0.0
  0
SEQEND
  5
86
330
83
100
AcDbEntity
  8
Layer 1
 62
     7
420
 16777215
370
    40
  0
POLYLINE
  5
87
330
1F
100
AcDbEntity
  8
Layer 1
 62
     7
420
 16777215
370
    40
100
AcDb2dPolyline
 66
     1
 10
0.0
 20
0.0
 30
0.0
  0
VERTEX
  5
88
330
87
100
AcDbEntity
  8
Layer 1
 62
     7
420
 16777215
370
    40
100
AcDbVertex
100
AcDb2dVertex
 10
3.857725906966455
 20
3.158049034122971
 30
0.0
  0
VERTEX
  5
89
330
87
100
AcDbEntity
  8
Layer 1
 62
     7
420
 16777215
370
    40
100
AcDbVertex
100
AcDb2dVertex
 10
4.166693722841702
 20
3.009599603309312
 30
0.0
  0
SEQEND
  5
8A
330
87
100
AcDbEntity
  8
Layer 1
 62
     7
420
 16777215
370
    40
  0
POLYLINE
  5
8B
330
1F
100
AcDbEntity
  8
Layer 1
 62
     7
420
 16777215
370
    40
100
AcDb2dPolyline
 66
     1
 10
0.0
 20
0.0
 30
0.0
  0
VERTEX
  5
8C
330
8B
100
AcDbEntity
  8
Layer 1
 62
     7
420
 16777215
370
    40
100
AcDbVertex
100
AcDb2dVertex
 10
3.824291821669779
 20
3.249003846879557
 30
0.0
  0
VERTEX
  5
8D
330
8B
100
AcDbEntity
  8
Layer 1
 62
     7
420
 16777215
370
    40
100
AcDbVertex
100
AcDb2dVertex
 10
4.138610443450236
 20
3.093858232336389
 30
0.0
  0
SEQEND
  5
8E
330
8B
100
AcDbEntity
  8
Layer 1
 62
     7
420
 16777215
370
    40
  0
POLYLINE
  5
8F
330
1F
100
AcDbEntity
  8
Layer 1
 62
     7
420
 16777215
370
    40
100
AcDb2dPolyline
 66
     1
 10
0.0
 20
0.0
 30
0.0
  0
VERTEX
  5
90
330
8F
100
AcDbEntity
  8
Layer 1
 62
     7
420
 16777215
370
    40
100
AcDbVertex
100
AcDb2dVertex
 10
3.888486864310026
 20
3.315872493709397
 30
0.0
  0
VERTEX
  5
91
330
8F
100
AcDbEntity
  8
Layer 1
 62
     7
420
 16777215
370
    40
100
AcDbVertex
100
AcDb2dVertex
 10
4.20815245635145
 20
3.148683629111726
 30
0.0
  0
SEQEND
  5
92
330
8F
100
AcDbEntity
  8
Layer 1
 62
     7
420
 16777215
370
    40
  0
POLYLINE
  5
93
330
1F
100
AcDbEntity
  8
Layer 1
 62
     7
420
 16777215
370
    40
100
AcDb2dPolyline
 66
     1
 10
0.0
 20
0.0
 30
0.0
  0
VERTEX
  5
94
330
93
100
AcDbEntity
  8
Layer 1
 62
     7
420
 16777215
370
    40
100
AcDbVertex
100
AcDb2dVertex
 10
3.859075525644407
 20
3.410824595029124
 30
0.0
  0
VERTEX
  5
95
330
93
100
AcDbEntity
  8
Layer 1
 62
     7
420
 16777215
370
    40
100
AcDbVertex
100
AcDb2dVertex
 10
4.170695148187203
 20
3.251677212950906
 30
0.0
  0
SEQEND
  5
96
330
93
100
AcDbEntity
  8
Layer 1
 62
     7
420
 16777215
370
    40
  0
SPLINE
  5
97
330
1F
100
AcDbEntity
  8
Layer 1
 62
     7
420
 16777215
370
    15
100
AcDbSpline
210
0.0
220
0.0
230
1.0
 70
     8
 71
     3
 72
    17
 73
    13
 74
     0
 42
0.0000000001
 43
0.0000000001
 12
1.0
 22
0.0
 32
0.0
 13
1.0
 23
0.0
 33
0.0
 40
0.0
 40
0.0
 40
0.0
 40
0.0
 40
1.0
 40
1.0
 40
1.0
 40
2.0
 40
2.0
 40
2.0
 40
3.0
 40
3.0
 40
3.0
 40
4.0
 40
4.0
 40
4.0
 40
4.0
 10
3.857053253567857
 20
3.475692354087818
 30
0.0
 10
3.861748891715756
 20
3.498433213217342
 30
0.0
 10
3.87109704920398
 20
3.535886209500834
 30
0.0
 10
3.870441643328427
 20
3.559299722028956
 30
0.0
 10
3.869768989929828
 20
3.582691675153278
 30
0.0
 10
3.873770415275329
 20
3.588038407295976
 30
0.0
 10
3.876465580186782
 20
3.616125998568198
 30
0.0
 10
3.879138946325661
 20
3.644209277959665
 30
0.0
 10
3.883812785565927
 20
3.670296156559137
 30
0.0
 10
3.886486151637276
 20
3.690363831777454
 30
0.0
 10
3.889159517708625
 20
3.710426830794732
 30
0.0
 10
3.889159517708625
 20
3.7472071736796
 30
0.0
 10
3.8958558685293
 20
3.750557688711119
 30
0.0
  0
SPLINE
  5
98
330
1F
100
AcDbEntity
  8
Layer 1
 62
     7
420
 16777215
370
    15
100
AcDbSpline
210
0.0
220
0.0
230
1.0
 70
     8
 71
     3
 72
    38
 73
    34
 74
     0
 42
0.0000000001
 43
0.0000000001
 12
1.0
 22
0.0
 32
0.0
 13
1.0
 23
0.0
 33
0.0
 40
0.0
 40
0.0
 40
0.0
 40
0.0
 40
1.0
 40
1.0
 40
1.0
 40
2.0
 40
2.0
 40
2.0
 40
3.0
 40
3.0
 40
3.0
 40
4.0
 40
4.0
 40
4.0
 40
5.0
 40
5.0
 40
5.0
 40
6.0
 40
6.0
 40
6.0
 40
7.0
 40
7.0
 40
7.0
 40
8.0
 40
8.0
 40
8.0
 40
9.0
 40
9.0
 40
9.0
 40
10.0
 40
10.0
 40
10.0
 40
11.0
 40
11.0
 40
11.0
 40
11.0
 10
3.946007353651693
 20
3.72447080945263
 30
0.0
 10
3.94465773497374
 20
3.705080098652009
 30
0.0
 10
3.946007353651693
 20
3.691708956414509
 30
0.0
 10
3.941984368902391
 20
3.673646487909839
 30
0.0
 10
3.937982943556865
 20
3.655579707524415
 30
0.0
 10
3.939983656229616
 20
3.633515813674269
 30
0.0
 10
3.935309577485516
 20
3.616798651966797
 30
0.0
 10
3.930613939337617
 20
3.600081490259324
 30
0.0
 10
3.92728947927147
 20
3.573994611659852
 30
0.0
 10
3.923943459801522
 20
3.558627068630358
 30
0.0
 10
3.92059312845082
 20
3.543233654316282
 30
0.0
 10
3.919247821653622
 20
3.505129564038018
 30
0.0
 10
3.915246396308122
 20
3.483716764182633
 30
0.0
 10
3.911223411558795
 20
3.462325523731073
 30
0.0
 10
3.905204026017499
 20
3.405477862751367
 30
0.0
 10
3.896528521927899
 20
3.392111032056947
 30
0.0
 10
3.904552932022701
 20
3.382068487140663
 30
0.0
 10
3.909899664165398
 20
3.38808787268196
 30
0.0
 10
3.913901089510925
 20
3.367369285628986
 30
0.0
 10
3.917919762379471
 20
3.346633451052968
 30
0.0
 10
3.92459455379632
 20
3.32791557667277
 30
0.0
 10
3.923943459801522
 20
3.317200552983561
 30
0.0
 10
3.923266494522168
 20
3.306502776817398
 30
0.0
 10
3.918592656278634
 20
3.299827985400535
 30
0.0
 10
3.918592656278634
 20
3.299827985400535
 30
0.0
 10
3.918592656278634
 20
3.299827985400535
 30
0.0
 10
3.921270093730173
 20
3.295809312531977
 30
0.0
 10
3.911900376838149
 20
3.293135946460628
 30
0.0
 10
3.90253065994615
 20
3.290458268508524
 30
0.0
 10
3.901875254070597
 20
3.286439595639977
 30
0.0
 10
3.887159044742323
 20
3.281765516895878
 30
0.0
 10
3.872442356001177
 20
3.277091438151779
 30
0.0
 10
3.839685236372715
 20
3.260374276444306
 30
0.0
 10
3.831660587770784
 20
3.255678638296406
 30
0.0
  0
SPLINE
  5
99
330
1F
100
AcDbEntity
  8
Layer 1
 62
     7
420
 16777215
370
    15
100
AcDbSpline
210
0.0
220
0.0
230
1.0
 70
     8
 71
     3
 72
    71
 73
    67
 74
     0
 42
0.0000000001
 43
0.0000000001
 12
1.0
 22
0.0
 32
0.0
 13
1.0
 23
0.0
 33
0.0
 40
0.0
 40
0.0
 40
0.0
 40
0.0
 40
1.0
 40
1.0
 40
1.0
 40
2.0
 40
2.0
 40
2.0
 40
3.0
 40
3.0
 40
3.0
 40
4.0
 40
4.0
 40
4.0
 40
5.0
 40
5.0
 40
5.0
 40
6.0
 40
6.0
 40
6.0
 40
7.0
 40
7.0
 40
7.0
 40
8.0
 40
8.0
 40
8.0
 40
9.0
 40
9.0
 40
9.0
 40
10.0
 40
10.0
 40
10.0
 40
11.0
 40
11.0
 40
11.0
 40
12.0
 40
12.0
 40
12.0
 40
13.0
 40
13.0
 40
13.0
 40
14.0
 40
14.0
 40
14.0
 40
15.0
 40
15.0
 40
15.0
 40
16.0
 40
16.0
 40
16.0
 40
17.0
 40
17.0
 40
17.0
 40
18.0
 40
18.0
 40
18.0
 40
19.0
 40
19.0
 40
19.0
 40
20.0
 40
20.0
 40
20.0
 40
21.0
 40
21.0
 40
21.0
 40
22.0
 40
22.0
 40
22.0
 40
22.0
 10
3.85305206706721
 20
2.843083392110227
 30
0.0
 10
3.859075525644407
 20
2.876513403644392
 30
0.0
 10
3.865750317061282
 20
2.91529877108279
 30
0.0
 10
3.867095623858479
 20
2.921990810022685
 30
0.0
 10
3.868423683132631
 20
2.928665601439548
 30
0.0
 10
3.87779340002463
 20
2.974143007817828
 30
0.0
 10
3.879138946325661
 20
2.99086016952525
 30
0.0
 10
3.880466766095979
 20
3.007577496144272
 30
0.0
 10
3.888486864310026
 20
3.032991556433621
 30
0.0
 10
3.889159517708625
 20
3.041684473819411
 30
0.0
 10
3.889832410881202
 20
3.050381371539692
 30
0.0
 10
3.900529947273399
 20
3.133311942289311
 30
0.0
 10
3.903203313344748
 20
3.135985308428189
 30
0.0
 10
3.898529234600649
 20
3.14265993168965
 30
0.0
 10
3.899180328595447
 20
3.137313199546952
 30
0.0
 10
3.892509849059353
 20
3.152702301980273
 30
0.0
 10
3.885813498238677
 20
3.168074156890523
 30
0.0
 10
3.874443068673928
 20
3.186809278793791
 30
0.0
 10
3.869768989929828
 20
3.190810704139292
 30
0.0
 10
3.865094911185729
 20
3.194833688888618
 30
0.0
 10
3.850378700928331
 20
3.22291696828006
 30
0.0
 10
3.851051115549605
 20
3.234960051243434
 30
0.0
 10
3.857725906966455
 20
3.240962189261684
 30
0.0
 10
3.864422257787131
 20
3.244308208731645
 30
0.0
 10
3.876465580186782
 20
3.248331193480958
 30
0.0
 10
3.888486864310026
 20
3.252332618826459
 30
0.0
 10
3.912573030236747
 20
3.261025370439104
 30
0.0
 10
3.917919762379471
 20
3.262374989117057
 30
0.0
 10
3.923266494522168
 20
3.263698736510453
 30
0.0
 10
3.92929019194422
 20
3.266393661985603
 30
0.0
 10
3.93596498336107
 20
3.267049067861156
 30
0.0
 10
3.942657022300965
 20
3.267721721259754
 30
0.0
 10
3.954027451865739
 20
3.275069166075228
 30
0.0
 10
3.963397168757739
 20
3.276418784753206
 30
0.0
 10
3.971417266971811
 20
3.283766229568629
 30
0.0
 10
3.972745326245962
 20
3.278415185545176
 30
0.0
 10
3.971417266971811
 20
3.289785615109925
 30
0.0
 10
3.970071960174614
 20
3.3011560446747
 30
0.0
 10
3.967398594103265
 20
3.315872493709397
 30
0.0
 10
3.963397168757739
 20
3.322547285126246
 30
0.0
 10
3.959374184008437
 20
3.329243808984403
 30
0.0
 10
3.952682145068542
 20
3.350652123921514
 30
0.0
 10
3.953354798467141
 20
3.356003167944992
 30
0.0
 10
3.954027451865739
 20
3.36134990008769
 30
0.0
 10
3.950681432395792
 20
3.364695919557637
 30
0.0
 10
3.950681432395792
 20
3.364695919557637
 30
0.0
 10
3.950681432395792
 20
3.364695919557637
 30
0.0
 10
3.951354085794391
 20
3.378067061795162
 30
0.0
 10
3.953354798467141
 20
3.385414506610611
 30
0.0
 10
3.955355511139891
 20
3.392783510829859
 30
0.0
 10
3.961396456084988
 20
3.42889137587099
 30
0.0
 10
3.963397168757739
 20
3.434238108148747
 30
0.0
 10
3.965397881430489
 20
3.439584840426505
 30
0.0
 10
3.971417266971811
 20
3.458975192380371
 30
0.0
 10
3.970744613573212
 20
3.480387992235756
 30
0.0
 10
3.970071960174614
 20
3.50177923268729
 30
0.0
 10
3.97609134571591
 20
3.517823740996164
 30
0.0
 10
3.978764711787259
 20
3.532540190030886
 30
0.0
 10
3.981442389739363
 20
3.547256639065583
 30
0.0
 10
3.988811393958612
 20
3.58201902175468
 30
0.0
 10
3.990135141352008
 20
3.602754856330686
 30
0.0
 10
3.991484760029986
 20
3.623495002787447
 30
0.0
 10
3.997504145571282
 20
3.654928613529616
 30
0.0
 10
3.998176798969881
 20
3.662948711743689
 30
0.0
 10
3.998832204845434
 20
3.67097312183849
 30
0.0
 10
4.002178224315381
 20
3.695037728361411
 30
0.0
 10
4.002178224315381
 20
3.695037728361411
 30
0.0
  0
SPLINE
  5
9A
330
1F
100
AcDbEntity
  8
Layer 1
 62
     7
420
 16777215
370
    15
100
AcDbSpline
210
0.0
220
0.0
230
1.0
 70
     8
 71
     3
 72
    83
 73
    79
 74
     0
 42
0.0000000001
 43
0.0000000001
 12
1.0
 22
0.0
 32
0.0
 13
1.0
 23
0.0
 33
0.0
 40
0.0
 40
0.0
 40
0.0
 40
0.0
 40
1.0
 40
1.0
 40
1.0
 40
2.0
 40
2.0
 40
2.0
 40
3.0
 40
3.0
 40
3.0
 40
4.0
 40
4.0
 40
4.0
 40
5.0
 40
5.0
 40
5.0
 40
6.0
 40
6.0
 40
6.0
 40
7.0
 40
7.0
 40
7.0
 40
8.0
 40
8.0
 40
8.0
 40
9.0
 40
9.0
 40
9.0
 40
10.0
 40
10.0
 40
10.0
 40
11.0
 40
11.0
 40
11.0
 40
12.0
 40
12.0
 40
12.0
 40
13.0
 40
13.0
 40
13.0
 40
14.0
 40
14.0
 40
14.0
 40
15.0
 40
15.0
 40
15.0
 40
16.0
 40
16.0
 40
16.0
 40
17.0
 40
17.0
 40
17.0
 40
18.0
 40
18.0
 40
18.0
 40
19.0
 40
19.0
 40
19.0
 40
20.0
 40
20.0
 40
20.0
 40
21.0
 40
21.0
 40
21.0
 40
22.0
 40
22.0
 40
22.0
 40
23.0
 40
23.0
 40
23.0
 40
24.0
 40
24.0
 40
24.0
 40
25.0
 40
25.0
 40
25.0
 40
26.0
 40
26.0
 40
26.0
 40
26.0
 10
4.055003075509123
 20
3.666950318657882
 30
0.0
 10
4.050328996765024
 20
3.650905628780315
 30
0.0
 10
4.044309611223727
 20
3.626841022257395
 30
0.0
 10
4.04298155194955
 20
3.613452632496849
 30
0.0
 10
4.041636245152378
 20
3.600081490259324
 30
0.0
 10
4.041636245152378
 20
3.582691675153278
 30
0.0
 10
4.03828591380165
 20
3.575344230337805
 30
0.0
 10
4.034939894331703
 20
3.567975226118556
 30
0.0
 10
4.032939181658953
 20
3.556604796553807
 30
0.0
 10
4.029593162189005
 20
3.541909906922885
 30
0.0
 10
4.026264390242103
 20
3.527193457888163
 30
0.0
 10
4.022918370772155
 20
3.511821602977862
 30
0.0
 10
4.021568752094203
 20
3.495759847146006
 30
0.0
 10
4.020245004700806
 20
3.479715338837145
 30
0.0
 10
4.017550322226017
 20
3.458302538981772
 30
0.0
 10
4.01422130727873
 20
3.447609074696351
 30
0.0
 10
4.010875287808782
 20
3.436911474287626
 30
0.0
 10
4.010202634410184
 20
3.400131130473584
 30
0.0
 10
4.006852303059481
 20
3.387415219283361
 30
0.0
 10
4.003506283589533
 20
3.374716730444435
 30
0.0
 10
3.999504858244033
 20
3.350652123921514
 30
0.0
 10
3.997504145571282
 20
3.340609753630916
 30
0.0
 10
4.005528555666084
 20
3.335935674886817
 30
0.0
 10
4.006179649660882
 20
3.334590541262186
 30
0.0
 10
4.006179649660882
 20
3.334590541262186
 30
0.0
 10
4.006179649660882
 20
3.334590541262186
 30
0.0
 10
4.000832917518184
 20
3.329243808984403
 30
0.0
 10
4.00285087771398
 20
3.319218513179344
 30
0.0
 10
4.00485159038673
 20
3.309176142888747
 30
0.0
 10
4.011547941207381
 20
3.279764804223128
 30
0.0
 10
4.012876000481532
 20
3.276418784753206
 30
0.0
 10
4.01422130727873
 20
3.273068453402452
 30
0.0
 10
4.024242118165552
 20
3.25635129169503
 30
0.0
 10
4.018222732624255
 20
3.24965925275511
 30
0.0
 10
4.010202634410184
 20
3.251677212950906
 30
0.0
 10
4.005528555666084
 20
3.254350579022255
 30
0.0
 10
4.005528555666084
 20
3.254350579022255
 30
0.0
 10
4.005528555666084
 20
3.254350579022255
 30
0.0
 10
4.010875287808782
 20
3.248331193480958
 30
0.0
 10
4.000177511642631
 20
3.244985174011011
 30
0.0
 10
3.98946248795341
 20
3.241634842660257
 30
0.0
 10
3.962051861960541
 20
3.232959509175821
 30
0.0
 10
3.962051861960541
 20
3.232959509175821
 30
0.0
 10
3.962051861960541
 20
3.232959509175821
 30
0.0
 10
3.92929019194422
 20
3.220920567488103
 30
0.0
 10
3.92259384112357
 20
3.220243602208711
 30
0.0
 10
3.915919290139653
 20
3.219570948810112
 30
0.0
 10
3.906549332814696
 20
3.217570236137362
 30
0.0
 10
3.901875254070597
 20
3.211550850596065
 30
0.0
 10
3.904552932022701
 20
3.205527153174014
 30
0.0
 10
3.908550045487446
 20
3.201508480305468
 30
0.0
 10
3.910572557861896
 20
3.19415672360924
 30
0.0
 10
3.912573030236747
 20
3.186809278793791
 30
0.0
 10
3.915246396308122
 20
3.174093542431844
 30
0.0
 10
3.923266494522168
 20
3.16272311286707
 30
0.0
 10
3.93129090461697
 20
3.151356995183075
 30
0.0
 10
3.950008778997193
 20
3.130638576150432
 30
0.0
 10
3.946680007050291
 20
3.11592195909538
 30
0.0
 10
3.951354085794391
 20
3.101878330753026
 30
0.0
 10
3.951354085794391
 20
3.096531598475268
 30
0.0
 10
3.948680719723042
 20
3.08850702122177
 30
0.0
 10
3.946007353651693
 20
3.08048692300771
 30
0.0
 10
3.943333987580344
 20
3.05572810368239
 30
0.0
 10
3.943333987580344
 20
3.045707292795593
 30
0.0
 10
3.943333987580344
 20
3.03566492250497
 30
0.0
 10
3.940660621508995
 20
3.014946335451997
 30
0.0
 10
3.938638349432419
 20
3.00692623723795
 30
0.0
 10
3.936637636759668
 20
2.998880267739347
 30
0.0
 10
3.931963558015569
 20
2.981512012037077
 30
0.0
 10
3.929962845342819
 20
2.962772578253053
 30
0.0
 10
3.927940573266268
 20
2.944059015753611
 30
0.0
 10
3.930613939337617
 20
2.936034605658783
 30
0.0
 10
3.925267207194919
 20
2.919972849826889
 30
0.0
 10
3.919920475052221
 20
2.903928341518015
 30
0.0
 10
3.916574455582273
 20
2.875168096847195
 30
0.0
 10
3.911223411558795
 20
2.860473207216273
 30
0.0
 10
3.905876679416097
 20
2.845756758181589
 30
0.0
 10
3.893833596452749
 20
2.777538651774016
 30
0.0
 10
3.893833596452749
 20
2.764171821079597
 30
0.0
  0
SPLINE
  5
9B
330
1F
100
AcDbEntity
  8
Layer 1
 62
     7
420
 16777215
370
    15
100
AcDbSpline
210
0.0
220
0.0
230
1.0
 70
     8
 71
     3
 72
    80
 73
    76
 74
     0
 42
0.0000000001
 43
0.0000000001
 12
1.0
 22
0.0
 32
0.0
 13
1.0
 23
0.0
 33
0.0
 40
0.0
 40
0.0
 40
0.0
 40
0.0
 40
1.0
 40
1.0
 40
1.0
 40
2.0
 40
2.0
 40
2.0
 40
3.0
 40
3.0
 40
3.0
 40
4.0
 40
4.0
 40
4.0
 40
5.0
 40
5.0
 40
5.0
 40
6.0
 40
6.0
 40
6.0
 40
7.0
 40
7.0
 40
7.0
 40
8.0
 40
8.0
 40
8.0
 40
9.0
 40
9.0
 40
9.0
 40
10.0
 40
10.0
 40
10.0
 40
11.0
 40
11.0
 40
11.0
 40
12.0
 40
12.0
 40
12.0
 40
13.0
 40
13.0
 40
13.0
 40
14.0
 40
14.0
 40
14.0
 40
15.0
 40
15.0
 40
15.0
 40
16.0
 40
16.0
 40
16.0
 40
17.0
 40
17.0
 40
17.0
 40
18.0
 40
18.0
 40
18.0
 40
19.0
 40
19.0
 40
19.0
 40
20.0
 40
20.0
 40
20.0
 40
21.0
 40
21.0
 40
21.0
 40
22.0
 40
22.0
 40
22.0
 40
23.0
 40
23.0
 40
23.0
 40
24.0
 40
24.0
 40
24.0
 40
25.0
 40
25.0
 40
25.0
 40
25.0
 10
3.936637636759668
 20
2.744781134538193
 30
0.0
 10
3.941984368902391
 20
2.75680265809774
 30
0.0
 10
3.946007353651693
 20
2.772191919496259
 30
0.0
 10
3.948680719723042
 20
2.788236268839935
 30
0.0
 10
3.951354085794391
 20
2.804298024671829
 30
0.0
 10
3.957377783216442
 20
2.829039596474091
 30
0.0
 10
3.958701530609839
 20
2.839060407360926
 30
0.0
 10
3.960051149287791
 20
2.849102777651524
 30
0.0
 10
3.968071247501863
 20
2.859123588538321
 30
0.0
 10
3.968743900900462
 20
2.871166671501694
 30
0.0
 10
3.969420866179815
 20
2.883209754465042
 30
0.0
 10
3.969420866179815
 20
2.911948439732075
 30
0.0
 10
3.972094232251164
 20
2.919972849826889
 30
0.0
 10
3.974767598322513
 20
2.928014507444737
 30
0.0
 10
3.98078698386381
 20
2.950751054693506
 30
0.0
 10
3.982115043137961
 20
2.960771865580303
 30
0.0
 10
3.983460349935159
 20
2.970797152330255
 30
0.0
 10
3.996158838774085
 20
3.039683595373516
 30
0.0
 10
4.000177511642631
 20
3.05372739100964
 30
0.0
 10
4.004178936988132
 20
3.06777135307795
 30
0.0
 10
4.00285087771398
 20
3.079141616210513
 30
0.0
 10
4.005528555666084
 20
3.08716171442456
 30
0.0
 10
3.999504858244033
 20
3.094530718643834
 30
0.0
 10
3.992808507423357
 20
3.100532856662085
 30
0.0
 10
3.988811393958612
 20
3.113248593024031
 30
0.0
 10
3.98478840920931
 20
3.125942769982203
 30
0.0
 10
3.97609134571591
 20
3.141332040705947
 30
0.0
 10
3.97409063304316
 20
3.145333297761024
 30
0.0
 10
3.972094232251164
 20
3.149356282510325
 30
0.0
 10
3.958701530609839
 20
3.166746097616371
 30
0.0
 10
3.963397168757739
 20
3.180117239853896
 30
0.0
 10
3.967355475295663
 20
3.183588473223836
 30
0.0
 10
3.974767598322513
 20
3.188809991466542
 30
0.0
 10
3.98078698386381
 20
3.190810704139292
 30
0.0
 10
3.986789121882061
 20
3.192832976215843
 30
0.0
 10
3.995481873494731
 20
3.194833688888618
 30
0.0
 10
4.00485159038673
 20
3.199507767632717
 30
0.0
 10
4.01422130727873
 20
3.204203405780605
 30
0.0
 10
4.029593162189005
 20
3.212223503994664
 30
0.0
 10
4.036962166408253
 20
3.215569523464612
 30
0.0
 10
4.044309611223727
 20
3.218898295411514
 30
0.0
 10
4.051001650163622
 20
3.226267299630788
 30
0.0
 10
4.060349807651821
 20
3.226939953029387
 30
0.0
 10
4.060349807651821
 20
3.232959509175821
 30
0.0
 10
4.06504544579972
 20
3.234960051243434
 30
0.0
 10
4.061699426329773
 20
3.246330480808183
 30
0.0
 10
4.058353406859825
 20
3.257679350969157
 30
0.0
 10
4.053679328115726
 20
3.275741819473827
 30
0.0
 10
4.051657299901207
 20
3.282438170294477
 30
0.0
 10
4.049656343366425
 20
3.289112961711339
 30
0.0
 10
4.047655630693675
 20
3.30583029586483
 30
0.0
 10
4.047655630693675
 20
3.30583029586483
 30
0.0
 10
4.047655630693675
 20
3.30583029586483
 30
0.0
 10
4.046982977295076
 20
3.308525048893948
 30
0.0
 10
4.048328284092273
 20
3.315199840310786
 30
0.0
 10
4.049656343366425
 20
3.321891879250693
 30
0.0
 10
4.051657299901207
 20
3.322547285126246
 30
0.0
 10
4.052329709437774
 20
3.333262308815468
 30
0.0
 10
4.053002362836373
 20
3.343960084981619
 30
0.0
 10
4.058353406859825
 20
3.358676534016341
 30
0.0
 10
4.058353406859825
 20
3.364695919557637
 30
0.0
 10
4.058353406859825
 20
3.370698057575888
 30
0.0
 10
4.06504544579972
 20
3.398130242972557
 30
0.0
 10
4.065700851675274
 20
3.40347697511528
 30
0.0
 10
4.066373505073872
 20
3.408828019138733
 30
0.0
 10
4.070392177942418
 20
3.454301113636246
 30
0.0
 10
4.073742509293147
 20
3.464326236403824
 30
0.0
 10
4.077066969359294
 20
3.474368606694421
 30
0.0
 10
4.080417545298537
 20
3.507125964830038
 30
0.0
 10
4.083090911437441
 20
3.511821602977862
 30
0.0
 10
4.085764277576319
 20
3.516495681722012
 30
0.0
 10
4.09178341839399
 20
3.550585411012485
 30
0.0
 10
4.093805690470541
 20
3.560627781303108
 30
0.0
 10
4.095806403143317
 20
3.570648592189905
 30
0.0
 10
4.109177790695892
 20
3.629514388328794
 30
0.0
 10
4.111851156834847
 20
3.638190073260501
 30
0.0
  0
SPLINE
  5
9C
330
1F
100
AcDbEntity
  8
Layer 1
 62
     7
420
 16777215
370
    15
100
AcDbSpline
210
0.0
220
0.0
230
1.0
 70
     8
 71
     3
 72
    80
 73
    76
 74
     0
 42
0.0000000001
 43
0.0000000001
 12
1.0
 22
0.0
 32
0.0
 13
1.0
 23
0.0
 33
0.0
 40
0.0
 40
0.0
 40
0.0
 40
0.0
 40
1.0
 40
1.0
 40
1.0
 40
2.0
 40
2.0
 40
2.0
 40
3.0
 40
3.0
 40
3.0
 40
4.0
 40
4.0
 40
4.0
 40
5.0
 40
5.0
 40
5.0
 40
6.0
 40
6.0
 40
6.0
 40
7.0
 40
7.0
 40
7.0
 40
8.0
 40
8.0
 40
8.0
 40
9.0
 40
9.0
 40
9.0
 40
10.0
 40
10.0
 40
10.0
 40
11.0
 40
11.0
 40
11.0
 40
12.0
 40
12.0
 40
12.0
 40
13.0
 40
13.0
 40
13.0
 40
14.0
 40
14.0
 40
14.0
 40
15.0
 40
15.0
 40
15.0
 40
16.0
 40
16.0
 40
16.0
 40
17.0
 40
17.0
 40
17.0
 40
18.0
 40
18.0
 40
18.0
 40
19.0
 40
19.0
 40
19.0
 40
20.0
 40
20.0
 40
20.0
 40
21.0
 40
21.0
 40
21.0
 40
22.0
 40
22.0
 40
22.0
 40
23.0
 40
23.0
 40
23.0
 40
24.0
 40
24.0
 40
24.0
 40
25.0
 40
25.0
 40
25.0
 40
25.0
 10
4.140611402232202
 20
3.620821636716098
 30
0.0
 10
4.137260824772284
 20
3.599408836860776
 30
0.0
 10
4.124566647814137
 20
3.542582560321433
 30
0.0
 10
4.121871722338988
 20
3.533868249305038
 30
0.0
 10
4.119219915671439
 20
3.525192745215413
 30
0.0
 10
4.12122062834419
 20
3.518496394394762
 30
0.0
 10
4.119871255251509
 20
3.507802930109367
 30
0.0
 10
4.118542950392061
 20
3.497105331221241
 30
0.0
 10
4.112523564850764
 20
3.479042685438546
 30
0.0
 10
4.108500580101463
 20
3.471695240623073
 30
0.0
 10
4.104503466636717
 20
3.464326236403824
 30
0.0
 10
4.099807828488817
 20
3.440934283279502
 30
0.0
 10
4.098479769214666
 20
3.42889137587099
 30
0.0
 10
4.097134462417468
 20
3.41684811735278
 30
0.0
 10
4.100480481887416
 20
3.397457764334705
 30
0.0
 10
4.094461096346119
 20
3.385414506610611
 30
0.0
 10
4.088437643715198
 20
3.373371423647237
 30
0.0
 10
4.080417545298537
 20
3.310525761566699
 30
0.0
 10
4.075743221965896
 20
3.301828698073311
 30
0.0
 10
4.080417545298537
 20
3.297810197448193
 30
0.0
 10
4.085112938857896
 20
3.295132347252623
 30
0.0
 10
4.085764277576319
 20
3.295132347252623
 30
0.0
 10
4.085764277576319
 20
3.284438882967227
 30
0.0
 10
4.091111009854077
 20
3.275069166075228
 30
0.0
 10
4.093133037071943
 20
3.262374989117057
 30
0.0
 10
4.095133749744718
 20
3.24965925275511
 30
0.0
 10
4.106163540729414
 20
3.211887177295365
 30
0.0
 10
4.097134462417468
 20
3.208877484524717
 30
0.0
 10
4.095133749744718
 20
3.208200519245363
 30
0.0
 10
4.089110052322641
 20
3.210201231918113
 30
0.0
 10
4.089110052322641
 20
3.210201231918113
 30
0.0
 10
4.089110052322641
 20
3.210201231918113
 30
0.0
 10
4.093805690470541
 20
3.204203405780605
 30
0.0
 10
4.085764277576319
 20
3.200180421031341
 30
0.0
 10
4.077744179159658
 20
3.19615743628199
 30
0.0
 10
4.064372792401122
 20
3.188809991466542
 30
0.0
 10
4.055675728907722
 20
3.186136625395193
 30
0.0
 10
4.046982977295076
 20
3.183463259323844
 30
0.0
 10
4.023569464766953
 20
3.174766195830443
 30
0.0
 10
4.019568039421427
 20
3.171420176360495
 30
0.0
 10
4.015549366552881
 20
3.168074156890523
 30
0.0
 10
4.01045272349428
 20
3.162136697083686
 30
0.0
 10
4.003506283589533
 20
3.160049746795721
 30
0.0
 10
4.002178224315381
 20
3.152702301980273
 30
0.0
 10
3.999504858244033
 20
3.150028935908936
 30
0.0
 10
4.002178224315381
 20
3.142008837694852
 30
0.0
 10
4.00485159038673
 20
3.133962868196249
 30
0.0
 10
4.010202634410184
 20
3.120596037839505
 30
0.0
 10
4.01422130727873
 20
3.11392124642263
 30
0.0
 10
4.018222732624255
 20
3.107225063030834
 30
0.0
 10
4.024242118165552
 20
3.10255081685788
 30
0.0
 10
4.028937756313452
 20
3.093858232336389
 30
0.0
 10
4.033611835057551
 20
3.085161001751809
 30
0.0
 10
4.03828591380165
 20
3.074467537466413
 30
0.0
 10
4.0362852011289
 20
3.071117206115711
 30
0.0
 10
4.03428448845615
 20
3.06777135307795
 30
0.0
 10
4.032266528260354
 20
3.059751254661251
 30
0.0
 10
4.030265815587604
 20
3.046379946194191
 30
0.0
 10
4.028265102914853
 20
3.032991556433621
 30
0.0
 10
4.030938468986202
 20
3.016274394726186
 30
0.0
 10
4.022918370772155
 20
2.994206188995248
 30
0.0
 10
4.014893960677329
 20
2.972142295145078
 30
0.0
 10
4.00952566913083
 20
2.955425133437605
 30
0.0
 10
4.010202634410184
 20
2.9420369069329
 30
0.0
 10
4.010875287808782
 20
2.928665601439548
 30
0.0
 10
4.010875287808782
 20
2.894558624626016
 30
0.0
 10
4.00485159038673
 20
2.882537101066444
 30
0.0
 10
3.998832204845434
 20
2.870494018103095
 30
0.0
 10
3.992157413428584
 20
2.835059142568778
 30
0.0
 10
3.988134428679258
 20
2.816319548231402
 30
0.0
 10
3.984115755810712
 20
2.797605985731934
 30
0.0
 10
3.975418692317311
 20
2.766845187218476
 30
0.0
 10
3.97409063304316
 20
2.75814796489495
 30
0.0
 10
3.972745326245962
 20
2.749455213282292
 30
0.0
 10
3.968743900900462
 20
2.738084941821158
 30
0.0
 10
3.970071960174614
 20
2.730064843404408
 30
0.0
  0
SPLINE
  5
9D
330
1F
100
AcDbEntity
  8
Layer 1
 62
     7
420
 16777215
370
    15
100
AcDbSpline
210
0.0
220
0.0
230
1.0
 70
     8
 71
     3
 72
    65
 73
    61
 74
     0
 42
0.0000000001
 43
0.0000000001
 12
1.0
 22
0.0
 32
0.0
 13
1.0
 23
0.0
 33
0.0
 40
0.0
 40
0.0
 40
0.0
 40
0.0
 40
1.0
 40
1.0
 40
1.0
 40
2.0
 40
2.0
 40
2.0
 40
3.0
 40
3.0
 40
3.0
 40
4.0
 40
4.0
 40
4.0
 40
5.0
 40
5.0
 40
5.0
 40
6.0
 40
6.0
 40
6.0
 40
7.0
 40
7.0
 40
7.0
 40
8.0
 40
8.0
 40
8.0
 40
9.0
 40
9.0
 40
9.0
 40
10.0
 40
10.0
 40
10.0
 40
11.0
 40
11.0
 40
11.0
 40
12.0
 40
12.0
 40
12.0
 40
13.0
 40
13.0
 40
13.0
 40
14.0
 40
14.0
 40
14.0
 40
15.0
 40
15.0
 40
15.0
 40
16.0
 40
16.0
 40
16.0
 40
17.0
 40
17.0
 40
17.0
 40
18.0
 40
18.0
 40
18.0
 40
19.0
 40
19.0
 40
19.0
 40
20.0
 40
20.0
 40
20.0
 40
20.0
 10
4.01222059460598
 20
2.711998062562593
 30
0.0
 10
4.015549366552881
 20
2.72804241342692
 30
0.0
 10
4.018222732624255
 20
2.750127866680891
 30
0.0
 10
4.022918370772155
 20
2.772864413929672
 30
0.0
 10
4.027592449516255
 20
2.795605432615831
 30
0.0
 10
4.034939894331703
 20
2.840405874846536
 30
0.0
 10
4.0362852011289
 20
2.853776856395623
 30
0.0
 10
4.037613260403051
 20
2.867147998633148
 30
0.0
 10
4.04298155194955
 20
2.895231278024615
 30
0.0
 10
4.047655630693675
 20
2.907947014386562
 30
0.0
 10
4.052329709437774
 20
2.920645503225488
 30
0.0
 10
4.059698713657022
 20
2.964122196931056
 30
0.0
 10
4.061699426329773
 20
2.974143007817828
 30
0.0
 10
4.063700139002523
 20
2.984185378108426
 30
0.0
 10
4.073742509293147
 20
3.02229378026747
 30
0.0
 10
4.075743221965896
 20
3.028317643125016
 30
0.0
 10
4.077744179159658
 20
3.034336863230818
 30
0.0
 10
4.076415875364495
 20
3.045030327516239
 30
0.0
 10
4.076415875364495
 20
3.05372739100964
 30
0.0
 10
4.072392890615194
 20
3.063769761300237
 30
0.0
 10
4.073069855894548
 20
3.059074123152338
 30
0.0
 10
4.067046158472471
 20
3.079814269609111
 30
0.0
 10
4.061026772931174
 20
3.100532856662085
 30
0.0
 10
4.053679328115726
 20
3.113248593024031
 30
0.0
 10
4.046310567623449
 20
3.121941344636702
 30
0.0
 10
4.038958567200249
 20
3.130638576150432
 30
0.0
 10
4.040959279872999
 20
3.138658674567068
 30
0.0
 10
4.041636245152378
 20
3.142008837694852
 30
0.0
 10
4.049656343366425
 20
3.145333297761024
 30
0.0
 10
4.061026772931174
 20
3.150028935908936
 30
0.0
 10
4.072392890615194
 20
3.154030361254424
 30
0.0
 10
4.083763320179943
 20
3.158049034122971
 30
0.0
 10
4.116524990196265
 20
3.170747522961897
 30
0.0
 10
4.116524990196265
 20
3.170747522961897
 30
0.0
 10
4.116524990196265
 20
3.170747522961897
 30
0.0
 10
4.131914092629586
 20
3.182113640645891
 30
0.0
 10
4.139261537445034
 20
3.185463971996594
 30
0.0
 10
4.141283809521584
 20
3.19415672360924
 30
0.0
 10
4.142611868795736
 20
3.206876771851967
 30
0.0
 10
4.139261537445034
 20
3.217570236137362
 30
0.0
 10
4.135915517975087
 20
3.228268012303538
 30
0.0
 10
4.129240726558237
 20
3.260374276444306
 30
0.0
 10
4.123893994415539
 20
3.275069166075228
 30
0.0
 10
4.123217029136185
 20
3.276418784753206
 30
0.0
 10
4.119871255251509
 20
3.277091438151779
 30
0.0
 10
4.115196930922113
 20
3.28109286349728
 30
0.0
 10
4.117197889112605
 20
3.286439595639977
 30
0.0
 10
4.125894707088289
 20
3.289785615109925
 30
0.0
 10
4.126567360486888
 20
3.305179029424001
 30
0.0
 10
4.127240013885486
 20
3.320546572453496
 30
0.0
 10
4.124566647814137
 20
3.343283119702265
 30
0.0
 10
4.131241439230987
 20
3.357999568736987
 30
0.0
 10
4.137938036093323
 20
3.372720329652439
 30
0.0
 10
4.143284768371081
 20
3.401480574323285
 30
0.0
 10
4.144629828991532
 20
3.41684811735278
 30
0.0
 10
4.14595813450996
 20
3.432237219786101
 30
0.0
 10
4.151977273807006
 20
3.462998353546077
 30
0.0
 10
4.154650639878355
 20
3.473018988016469
 30
0.0
 10
4.157328317830459
 20
3.483044110784046
 30
0.0
 10
4.163347703371755
 20
3.496432500544592
 30
0.0
 10
4.165348416044505
 20
3.509803642782117
 30
0.0
  0
SPLINE
  5
9E
330
1F
100
AcDbEntity
  8
Layer 1
 62
     7
420
 16777215
370
    15
100
AcDbSpline
210
0.0
220
0.0
230
1.0
 70
     8
 71
     3
 72
    47
 73
    43
 74
     0
 42
0.0000000001
 43
0.0000000001
 12
1.0
 22
0.0
 32
0.0
 13
1.0
 23
0.0
 33
0.0
 40
0.0
 40
0.0
 40
0.0
 40
0.0
 40
1.0
 40
1.0
 40
1.0
 40
2.0
 40
2.0
 40
2.0
 40
3.0
 40
3.0
 40
3.0
 40
4.0
 40
4.0
 40
4.0
 40
5.0
 40
5.0
 40
5.0
 40
6.0
 40
6.0
 40
6.0
 40
7.0
 40
7.0
 40
7.0
 40
8.0
 40
8.0
 40
8.0
 40
9.0
 40
9.0
 40
9.0
 40
10.0
 40
10.0
 40
10.0
 40
11.0
 40
11.0
 40
11.0
 40
12.0
 40
12.0
 40
12.0
 40
13.0
 40
13.0
 40
13.0
 40
14.0
 40
14.0
 40
14.0
 40
14.0
 10
4.068374217746648
 20
2.687260645196552
 30
0.0
 10
4.071720237216596
 20
2.714020177194622
 30
0.0
 10
4.086436686251292
 20
2.750800520079489
 30
0.0
 10
4.088437643715198
 20
2.765495409710411
 30
0.0
 10
4.090459671000594
 20
2.780212017912908
 30
0.0
 10
4.103153847958765
 20
2.867820652031746
 30
0.0
 10
4.105827214030114
 20
2.875168096847195
 30
0.0
 10
4.108500580101463
 20
2.882537101066444
 30
0.0
 10
4.112523564850764
 20
2.928665601439548
 30
0.0
 10
4.116524990196265
 20
2.947405035223558
 30
0.0
 10
4.120543663064811
 20
2.966122909603781
 30
0.0
 10
4.129240726558237
 20
3.026967859011569
 30
0.0
 10
4.129240726558237
 20
3.026967859011569
 30
0.0
 10
4.129240726558237
 20
3.026967859011569
 30
0.0
 10
4.123893994415539
 20
3.030313878481517
 30
0.0
 10
4.119219915671439
 20
3.039011107680532
 30
0.0
 10
4.114524522973726
 20
3.047708005468343
 30
0.0
 10
4.104503466636717
 20
3.074467537466413
 30
0.0
 10
4.098479769214666
 20
3.083160289079059
 30
0.0
 10
4.092460383673344
 20
3.091835793168659
 30
0.0
 10
4.086436686251292
 20
3.11392124642263
 30
0.0
 10
4.085112938857896
 20
3.120596037839505
 30
0.0
 10
4.092460383673344
 20
3.123942057309452
 30
0.0
 10
4.100480481887416
 20
3.129293101332905
 30
0.0
 10
4.107849486106665
 20
3.130638576150432
 30
0.0
 10
4.115196930922113
 20
3.131966467404254
 30
0.0
 10
4.150631967009809
 20
3.148028223236186
 30
0.0
 10
4.155327605157709
 20
3.150028935908936
 30
0.0
 10
4.160001683901807
 20
3.152029648581674
 30
0.0
 10
4.17271742026378
 20
3.160726712075075
 30
0.0
 10
4.178736805805076
 20
3.163400078146436
 30
0.0
 10
4.179392211680629
 20
3.169419463687783
 30
0.0
 10
4.179392211680629
 20
3.168074156890523
 30
0.0
 10
4.180065112185073
 20
3.180117239853896
 30
0.0
 10
4.180737518477827
 20
3.192160322817244
 30
0.0
 10
4.177391746046194
 20
3.201508480305468
 30
0.0
 10
4.175390786335129
 20
3.209550137923316
 30
0.0
 10
4.173368514258552
 20
3.217570236137362
 30
0.0
 10
4.168021782115854
 20
3.229613319100736
 30
0.0
 10
4.168021782115854
 20
3.232286685172085
 30
0.0
 10
4.168021782115854
 20
3.234960051243434
 30
0.0
 10
4.158000971229058
 20
3.283110823693075
 30
0.0
 10
4.167349128717256
 20
3.30583029586483
 30
0.0
  0
SPLINE
  5
9F
330
1F
100
AcDbEntity
  8
Layer 1
 62
     7
420
 16777215
370
    15
100
AcDbSpline
210
0.0
220
0.0
230
1.0
 70
     8
 71
     3
 72
    20
 73
    16
 74
     0
 42
0.0000000001
 43
0.0000000001
 12
1.0
 22
0.0
 32
0.0
 13
1.0
 23
0.0
 33
0.0
 40
0.0
 40
0.0
 40
0.0
 40
0.0
 40
1.0
 40
1.0
 40
1.0
 40
2.0
 40
2.0
 40
2.0
 40
3.0
 40
3.0
 40
3.0
 40
4.0
 40
4.0
 40
4.0
 40
5.0
 40
5.0
 40
5.0
 40
5.0
 10
4.115196930922113
 20
2.665196751346381
 30
0.0
 10
4.123217029136185
 20
2.68793329859515
 30
0.0
 10
4.126567360486888
 20
2.720694968611471
 30
0.0
 10
4.127891353668145
 20
2.733410704973443
 30
0.0
 10
4.129240726558237
 20
2.746105040237782
 30
0.0
 10
4.133914805302336
 20
2.771519107132463
 30
0.0
 10
4.136588171373685
 20
2.780212017912908
 30
0.0
 10
4.139261537445034
 20
2.788908922238534
 30
0.0
 10
4.144629828991532
 20
2.822343245653454
 30
0.0
 10
4.144629828991532
 20
2.833036709938849
 30
0.0
 10
4.144629828991532
 20
2.843734486105025
 30
0.0
 10
4.14595813450996
 20
2.855777569068373
 30
0.0
 10
4.151977273807006
 20
2.885210467137793
 30
0.0
 10
4.158000971229058
 20
2.914621805803411
 30
0.0
 10
4.166021069443104
 20
2.934689298861586
 30
0.0
 10
4.166693722841702
 20
2.962099924854455
 30
0.0
  0
POLYLINE
  5
A0
330
1F
100
AcDbEntity
  8
Layer 1
 62
     7
420
 16777215
370
    35
100
AcDb2dPolyline
 66
     1
 10
0.0
 20
0.0
 30
0.0
  0
VERTEX
  5
A1
330
A0
100
AcDbEntity
  8
Layer 1
 62
     7
420
 16777215
370
    35
100
AcDbVertex
100
AcDb2dVertex
 10
2.593008161179442
 20
3.267721721259754
 30
0.0
  0
VERTEX
  5
A2
330
A0
100
AcDbEntity
  8
Layer 1
 62
     7
420
 16777215
370
    35
100
AcDbVertex
100
AcDb2dVertex
 10
2.624588375867461
 20
3.278415185545176
 30
0.0
  0
VERTEX
  5
A3
330
A0
100
AcDbEntity
  8
Layer 1
 62
     7
420
 16777215
370
    35
100
AcDbVertex
100
AcDb2dVertex
 10
2.80112561022429
 20
3.214224216667414
 30
0.0
  0
VERTEX
  5
A4
330
A0
100
AcDbEntity
  8
Layer 1
 62
     7
420
 16777215
370
    35
100
AcDbVertex
100
AcDb2dVertex
 10
3.102051776083676
 20
3.330588942744119
 30
0.0
  0
VERTEX
  5
A5
330
A0
100
AcDbEntity
  8
Layer 1
 62
     7
420
 16777215
370
    35
100
AcDbVertex
100
AcDb2dVertex
 10
3.138982814922226
 20
3.319873919054897
 30
0.0
  0
VERTEX
  5
A6
330
A0
100
AcDbEntity
  8
Layer 1
 62
     7
420
 16777215
370
    35
100
AcDbVertex
100
AcDb2dVertex
 10
3.138982814922226
 20
3.160726712075075
 30
0.0
  0
VERTEX
  5
A7
330
A0
100
AcDbEntity
  8
Layer 1
 62
     7
420
 16777215
370
    35
100
AcDbVertex
100
AcDb2dVertex
 10
3.045354636094316
 20
3.012272969380648
 30
0.0
  0
VERTEX
  5
A8
330
A0
100
AcDbEntity
  8
Layer 1
 62
     7
420
 16777215
370
    35
100
AcDbVertex
100
AcDb2dVertex
 10
3.045354636094316
 20
2.889211892483318
 30
0.0
  0
VERTEX
  5
A9
330
A0
100
AcDbEntity
  8
Layer 1
 62
     7
420
 16777215
370
    35
100
AcDbVertex
100
AcDb2dVertex
 10
3.136309448850877
 20
2.780888824024462
 30
0.0
  0
VERTEX
  5
AA
330
A0
100
AcDbEntity
  8
Layer 1
 62
     7
420
 16777215
370
    35
100
AcDbVertex
100
AcDb2dVertex
 10
3.136309448850877
 20
2.653826321781606
 30
0.0
  0
VERTEX
  5
AB
330
A0
100
AcDbEntity
  8
Layer 1
 62
     7
420
 16777215
370
    35
100
AcDbVertex
100
AcDb2dVertex
 10
2.805148382702656
 20
2.530786804288077
 30
0.0
  0
VERTEX
  5
AC
330
A0
100
AcDbEntity
  8
Layer 1
 62
     7
420
 16777215
370
    35
100
AcDbVertex
100
AcDb2dVertex
 10
2.594353467976639
 20
2.607020856129161
 30
0.0
  0
VERTEX
  5
AD
330
A0
100
AcDbEntity
  8
Layer 1
 62
     7
420
 16777215
370
    35
100
AcDbVertex
100
AcDb2dVertex
 10
2.590334795108093
 20
2.72336833468282
 30
0.0
  0
VERTEX
  5
AE
330
A0
100
AcDbEntity
  8
Layer 1
 62
     7
420
 16777215
370
    35
100
AcDbVertex
100
AcDb2dVertex
 10
2.473987316554434
 20
2.890557199280515
 30
0.0
  0
VERTEX
  5
AF
330
A0
100
AcDbEntity
  8
Layer 1
 62
     7
420
 16777215
370
    35
100
AcDbVertex
100
AcDb2dVertex
 10
2.475315375828611
 20
3.051054024938291
 30
0.0
  0
VERTEX
  5
B0
330
A0
100
AcDbEntity
  8
Layer 1
 62
     7
420
 16777215
370
    35
100
AcDbVertex
100
AcDb2dVertex
 10
2.593008161179442
 20
3.144682203766226
 30
0.0
  0
VERTEX
  5
B1
330
A0
100
AcDbEntity
  8
Layer 1
 62
     7
420
 16777215
370
    35
100
AcDbVertex
100
AcDb2dVertex
 10
2.593008161179442
 20
3.267721721259754
 30
0.0
  0
SEQEND
  5
B3
330
A0
100
AcDbEntity
  8
Layer 1
 62
     7
420
 16777215
370
    35
  0
HATCH
  5
B2
330
1F
100
AcDbEntity
  8
Layer 1
 62
   254
420
 13358815
100
AcDbHatch
 10
0.0
 20
0.0
 30
0.0
210
0.0
220
0.0
230
1.0
  2
SOLID
 70
     1
 71
     0
 91
        1
 92
        1
 93
       16
 72
     1
 10
2.593008161179442
 20
3.267721721259754
 11
2.624588375867461
 21
3.278415185545176
 72
     1
 10
2.624588375867461
 20
3.278415185545176
 11
2.80112561022429
 21
3.214224216667414
 72
     1
 10
2.80112561022429
 20
3.214224216667414
 11
3.102051776083676
 21
3.330588942744119
 72
     1
 10
3.102051776083676
 20
3.330588942744119
 11
3.138982814922226
 21
3.319873919054897
 72
     1
 10
3.138982814922226
 20
3.319873919054897
 11
3.138982814922226
 21
3.160726712075075
 72
     1
 10
3.138982814922226
 20
3.160726712075075
 11
3.045354636094316
 21
3.012272969380648
 72
     1
 10
3.045354636094316
 20
3.012272969380648
 11
3.045354636094316
 21
2.889211892483318
 72
     1
 10
3.045354636094316
 20
2.889211892483318
 11
3.136309448850877
 21
2.780888824024462
 72
     1
 10
3.136309448850877
 20
2.780888824024462
 11
3.136309448850877
 21
2.653826321781606
 72
     1
 10
3.136309448850877
 20
2.653826321781606
 11
2.805148382702656
 21
2.530786804288077
 72
     1
 10
2.805148382702656
 20
2.530786804288077
 11
2.594353467976639
 21
2.607020856129161
 72
     1
 10
2.594353467976639
 20
2.607020856129161
 11
2.590334795108093
 21
2.72336833468282
 72
     1
 10
2.590334795108093
 20
2.72336833468282
 11
2.473987316554434
 21
2.890557199280515
 72
     1
 10
2.473987316554434
 20
2.890557199280515
 11
2.475315375828611
 21
3.051054024938291
 72
     1
 10
2.475315375828611
 20
3.051054024938291
 11
2.593008161179442
 21
3.144682203766226
 72
     1
 10
2.593008161179442
 20
3.144682203766226
 11
2.593008161179442
 21
3.267721721259754
 97
        0
 75
     2
 76
     1
 98
        0
  0
POLYLINE
  5
B4
330
1F
100
AcDbEntity
  8
Layer 1
 62
     7
420
 16777215
370
    20
100
AcDb2dPolyline
 66
     1
 10
0.0
 20
0.0
 30
0.0
  0
VERTEX
  5
B5
330
B4
100
AcDbEntity
  8
Layer 1
 62
     7
420
 16777215
370
    20
100
AcDbVertex
100
AcDb2dVertex
 10
2.60050220994074
 20
3.144009550367628
 30
0.0
  0
VERTEX
  5
B6
330
B4
100
AcDbEntity
  8
Layer 1
 62
     7
420
 16777215
370
    20
100
AcDbVertex
100
AcDb2dVertex
 10
2.621238044516758
 20
3.146005951159597
 30
0.0
  0
SEQEND
  5
B7
330
B4
100
AcDbEntity
  8
Layer 1
 62
     7
420
 16777215
370
    20
  0
POLYLINE
  5
B8
330
1F
100
AcDbEntity
  8
Layer 1
 62
     7
420
 16777215
370
    20
100
AcDb2dPolyline
 66
     1
 10
0.0
 20
0.0
 30
0.0
  0
VERTEX
  5
B9
330
B8
100
AcDbEntity
  8
Layer 1
 62
     7
420
 16777215
370
    20
100
AcDbVertex
100
AcDb2dVertex
 10
2.500854645571533
 20
2.901254975446666
 30
0.0
  0
VERTEX
  5
BA
330
B8
100
AcDbEntity
  8
Layer 1
 62
     7
420
 16777215
370
    20
100
AcDbVertex
100
AcDb2dVertex
 10
2.48148136531577
 20
2.891885258554667
 30
0.0
  0
SEQEND
  5
BB
330
B8
100
AcDbEntity
  8
Layer 1
 62
     7
420
 16777215
370
    20
  0
POLYLINE
  5
BC
330
1F
100
AcDbEntity
  8
Layer 1
 62
     7
420
 16777215
370
    20
100
AcDb2dPolyline
 66
     1
 10
0.0
 20
0.0
 30
0.0
  0
VERTEX
  5
BD
330
BC
100
AcDbEntity
  8
Layer 1
 62
     7
420
 16777215
370
    20
100
AcDbVertex
100
AcDb2dVertex
 10
2.616546718249613
 20
2.732061086295466
 30
0.0
  0
VERTEX
  5
BE
330
BC
100
AcDbEntity
  8
Layer 1
 62
     7
420
 16777215
370
    20
100
AcDbVertex
100
AcDb2dVertex
 10
2.596500784595239
 20
2.724040988081419
 30
0.0
  0
SEQEND
  5
BF
330
BC
100
AcDbEntity
  8
Layer 1
 62
     7
420
 16777215
370
    20
  0
POLYLINE
  5
C0
330
1F
100
AcDbEntity
  8
Layer 1
 62
     7
420
 16777215
370
    20
100
AcDb2dPolyline
 66
     1
 10
0.0
 20
0.0
 30
0.0
  0
VERTEX
  5
C1
330
C0
100
AcDbEntity
  8
Layer 1
 62
     7
420
 16777215
370
    20
100
AcDbVertex
100
AcDb2dVertex
 10
2.619241643724763
 20
2.619719344968088
 30
0.0
  0
VERTEX
  5
C2
330
C0
100
AcDbEntity
  8
Layer 1
 62
     7
420
 16777215
370
    20
100
AcDbVertex
100
AcDb2dVertex
 10
2.601174863339338
 20
2.60767626200474
 30
0.0
  0
SEQEND
  5
C3
330
C0
100
AcDbEntity
  8
Layer 1
 62
     7
420
 16777215
370
    20
  0
POLYLINE
  5
C4
330
1F
100
AcDbEntity
  8
Layer 1
 62
     7
420
 16777215
370
    20
100
AcDb2dPolyline
 66
     1
 10
0.0
 20
0.0
 30
0.0
  0
VERTEX
  5
C5
330
C4
100
AcDbEntity
  8
Layer 1
 62
     7
420
 16777215
370
    20
100
AcDbVertex
100
AcDb2dVertex
 10
3.110075966305557
 20
2.66787011741773
 30
0.0
  0
VERTEX
  5
C6
330
C4
100
AcDbEntity
  8
Layer 1
 62
     7
420
 16777215
370
    20
100
AcDbVertex
100
AcDb2dVertex
 10
3.128138655342228
 20
2.655154381055783
 30
0.0
  0
SEQEND
  5
C7
330
C4
100
AcDbEntity
  8
Layer 1
 62
     7
420
 16777215
370
    20
  0
POLYLINE
  5
C8
330
1F
100
AcDbEntity
  8
Layer 1
 62
     7
420
 16777215
370
    20
100
AcDb2dPolyline
 66
     1
 10
0.0
 20
0.0
 30
0.0
  0
VERTEX
  5
C9
330
C8
100
AcDbEntity
  8
Layer 1
 62
     7
420
 16777215
370
    20
100
AcDbVertex
100
AcDb2dVertex
 10
3.018470059554197
 20
2.892557911953266
 30
0.0
  0
VERTEX
  5
CA
330
C8
100
AcDbEntity
  8
Layer 1
 62
     7
420
 16777215
370
    20
100
AcDbVertex
100
AcDb2dVertex
 10
3.03718362205364
 20
2.889884545881917
 30
0.0
  0
SEQEND
  5
CB
330
C8
100
AcDbEntity
  8
Layer 1
 62
     7
420
 16777215
370
    20
  0
POLYLINE
  5
CC
330
1F
100
AcDbEntity
  8
Layer 1
 62
     7
420
 16777215
370
    20
100
AcDb2dPolyline
 66
     1
 10
0.0
 20
0.0
 30
0.0
  0
VERTEX
  5
CD
330
CC
100
AcDbEntity
  8
Layer 1
 62
     7
420
 16777215
370
    20
100
AcDbVertex
100
AcDb2dVertex
 10
3.019142712952796
 20
3.012945622779246
 30
0.0
  0
VERTEX
  5
CE
330
CC
100
AcDbEntity
  8
Layer 1
 62
     7
420
 16777215
370
    20
100
AcDbVertex
100
AcDb2dVertex
 10
3.037860587332994
 20
3.012945622779246
 30
0.0
  0
SEQEND
  5
CF
330
CC
100
AcDbEntity
  8
Layer 1
 62
     7
420
 16777215
370
    20
  0
POLYLINE
  5
D0
330
1F
100
AcDbEntity
  8
Layer 1
 62
     7
420
 16777215
370
    20
100
AcDb2dPolyline
 66
     1
 10
0.0
 20
0.0
 30
0.0
  0
VERTEX
  5
D1
330
D0
100
AcDbEntity
  8
Layer 1
 62
     7
420
 16777215
370
    20
100
AcDbVertex
100
AcDb2dVertex
 10
3.112093926501352
 20
3.161399365473686
 30
0.0
  0
VERTEX
  5
D2
330
D0
100
AcDbEntity
  8
Layer 1
 62
     7
420
 16777215
370
    20
100
AcDbVertex
100
AcDb2dVertex
 10
3.131484454280174
 20
3.160726712075075
 30
0.0
  0
SEQEND
  5
D3
330
D0
100
AcDbEntity
  8
Layer 1
 62
     7
420
 16777215
370
    20
  0
POLYLINE
  5
D4
330
1F
100
AcDbEntity
  8
Layer 1
 62
     7
420
 16777215
370
    20
100
AcDb2dPolyline
 66
     1
 10
0.0
 20
0.0
 30
0.0
  0
VERTEX
  5
D5
330
D4
100
AcDbEntity
  8
Layer 1
 62
     7
420
 16777215
370
    20
100
AcDbVertex
100
AcDb2dVertex
 10
2.624588375867461
 20
3.27441807208043
 30
0.0
  0
VERTEX
  5
D6
330
D4
100
AcDbEntity
  8
Layer 1
 62
     7
420
 16777215
370
    20
100
AcDbVertex
100
AcDb2dVertex
 10
2.621915009796112
 20
3.146005951159597
 30
0.0
  0
VERTEX
  5
D7
330
D4
100
AcDbEntity
  8
Layer 1
 62
     7
420
 16777215
370
    20
100
AcDbVertex
100
AcDb2dVertex
 10
2.501527298970119
 20
3.049704572236073
 30
0.0
  0
VERTEX
  5
D8
330
D4
100
AcDbEntity
  8
Layer 1
 62
     7
420
 16777215
370
    20
100
AcDbVertex
100
AcDb2dVertex
 10
2.502872810503769
 20
2.902600282243864
 30
0.0
  0
VERTEX
  5
D9
330
D4
100
AcDbEntity
  8
Layer 1
 62
     7
420
 16777215
370
    20
100
AcDbVertex
100
AcDb2dVertex
 10
2.618564678445396
 20
2.728715066825518
 30
0.0
  0
VERTEX
  5
DA
330
D4
100
AcDbEntity
  8
Layer 1
 62
     7
420
 16777215
370
    20
100
AcDbVertex
100
AcDb2dVertex
 10
2.623639762100209
 20
2.623466369348737
 30
0.0
  0
VERTEX
  5
DB
330
D4
100
AcDbEntity
  8
Layer 1
 62
     7
420
 16777215
370
    20
100
AcDbVertex
100
AcDb2dVertex
 10
2.80112561022429
 20
2.557524776882347
 30
0.0
  0
VERTEX
  5
DC
330
D4
100
AcDbEntity
  8
Layer 1
 62
     7
420
 16777215
370
    20
100
AcDbVertex
100
AcDb2dVertex
 10
3.108747907031405
 20
2.668542770816329
 30
0.0
  0
VERTEX
  5
DD
330
D4
100
AcDbEntity
  8
Layer 1
 62
     7
420
 16777215
370
    20
100
AcDbVertex
100
AcDb2dVertex
 10
3.109420560430003
 20
2.778215457953113
 30
0.0
  0
VERTEX
  5
DE
330
D4
100
AcDbEntity
  8
Layer 1
 62
     7
420
 16777215
370
    20
100
AcDbVertex
100
AcDb2dVertex
 10
3.016469346881447
 20
2.893907530631218
 30
0.0
  0
VERTEX
  5
DF
330
D4
100
AcDbEntity
  8
Layer 1
 62
     7
420
 16777215
370
    20
100
AcDbVertex
100
AcDb2dVertex
 10
3.017793094274844
 20
3.012272969380648
 30
0.0
  0
VERTEX
  5
E0
330
D4
100
AcDbEntity
  8
Layer 1
 62
     7
420
 16777215
370
    20
100
AcDbVertex
100
AcDb2dVertex
 10
3.111421273102754
 20
3.160726712075075
 30
0.0
  0
VERTEX
  5
E1
330
D4
100
AcDbEntity
  8
Layer 1
 62
     7
420
 16777215
370
    20
100
AcDbVertex
100
AcDb2dVertex
 10
3.107419847757253
 20
3.326565957994818
 30
0.0
  0
SEQEND
  5
E2
330
D4
100
AcDbEntity
  8
Layer 1
 62
     7
420
 16777215
370
    20
  0
POLYLINE
  5
E3
330
1F
100
AcDbEntity
  8
Layer 1
 62
     7
420
 16777215
370
    20
100
AcDb2dPolyline
 66
     1
 10
0.0
 20
0.0
 30
0.0
  0
VERTEX
  5
E4
330
E3
100
AcDbEntity
  8
Layer 1
 62
     7
420
 16777215
370
    20
100
AcDbVertex
100
AcDb2dVertex
 10
2.482809424589909
 20
3.050381371539692
 30
0.0
  0
VERTEX
  5
E5
330
E3
100
AcDbEntity
  8
Layer 1
 62
     7
420
 16777215
370
    20
100
AcDbVertex
100
AcDb2dVertex
 10
2.499526586297356
 20
3.050381371539692
 30
0.0
  0
SEQEND
  5
E6
330
E3
100
AcDbEntity
  8
Layer 1
 62
     7
420
 16777215
370
    20
  0
POLYLINE
  5
E7
330
1F
100
AcDbEntity
  8
Layer 1
 62
     7
420
 16777215
370
    20
100
AcDb2dPolyline
 66
     1
 10
0.0
 20
0.0
 30
0.0
  0
VERTEX
  5
E8
330
E7
100
AcDbEntity
  8
Layer 1
 62
     7
420
 16777215
370
    20
100
AcDbVertex
100
AcDb2dVertex
 10
3.111421273102754
 20
2.777538651774016
 30
0.0
  0
VERTEX
  5
E9
330
E7
100
AcDbEntity
  8
Layer 1
 62
     7
420
 16777215
370
    20
100
AcDbVertex
100
AcDb2dVertex
 10
3.128811088208825
 20
2.780212017912908
 30
0.0
  0
SEQEND
  5
EA
330
E7
100
AcDbEntity
  8
Layer 1
 62
     7
420
 16777215
370
    20
  0
POLYLINE
  5
EB
330
1F
100
AcDbEntity
  8
Layer 1
 62
     7
420
 16777215
370
    15
100
AcDb2dPolyline
 66
     1
 10
0.0
 20
0.0
 30
0.0
  0
VERTEX
  5
EC
330
EB
100
AcDbEntity
  8
Layer 1
 62
     7
420
 16777215
370
    15
100
AcDbVertex
100
AcDb2dVertex
 10
2.825866969755629
 20
3.163400078146436
 30
0.0
  0
VERTEX
  5
ED
330
EB
100
AcDbEntity
  8
Layer 1
 62
     7
420
 16777215
370
    15
100
AcDbVertex
100
AcDb2dVertex
 10
2.825866969755629
 20
2.615696360218787
 30
0.0
  0
SEQEND
  5
EE
330
EB
100
AcDbEntity
  8
Layer 1
 62
     7
420
 16777215
370
    15
  0
POLYLINE
  5
EF
330
1F
100
AcDbEntity
  8
Layer 1
 62
     7
420
 16777215
370
    15
100
AcDb2dPolyline
 66
     1
 10
0.0
 20
0.0
 30
0.0
  0
VERTEX
  5
F0
330
EF
100
AcDbEntity
  8
Layer 1
 62
     7
420
 16777215
370
    15
100
AcDbVertex
100
AcDb2dVertex
 10
2.798452244085411
 20
2.597655451117917
 30
0.0
  0
VERTEX
  5
F1
330
EF
100
AcDbEntity
  8
Layer 1
 62
     7
420
 16777215
370
    15
100
AcDbVertex
100
AcDb2dVertex
 10
2.798452244085411
 20
3.160726712075075
 30
0.0
  0
SEQEND
  5
F2
330
EF
100
AcDbEntity
  8
Layer 1
 62
     7
420
 16777215
370
    15
  0
SPLINE
  5
F3
330
1F
100
AcDbEntity
  8
Layer 1
 62
     7
420
 16777215
370
    40
100
AcDbSpline
210
0.0
220
0.0
230
1.0
 70
    11
 71
     3
 72
    17
 73
    13
 74
     0
 42
0.0000000001
 43
0.0000000001
 12
1.0
 22
0.0
 32
0.0
 13
1.0
 23
0.0
 33
0.0
 40
0.0
 40
0.0
 40
0.0
 40
0.0
 40
1.0
 40
1.0
 40
1.0
 40
2.0
 40
2.0
 40
2.0
 40
3.0
 40
3.0
 40
3.0
 40
4.0
 40
4.0
 40
4.0
 40
4.0
 10
2.674550138236403
 20
3.164008053333621
 30
0.0
 10
2.685812770782175
 20
3.164008053333621
 30
0.0
 10
2.694949646113122
 20
3.174347943396697
 30
0.0
 10
2.694949646113122
 20
3.187106798566244
 30
0.0
 10
2.694949646113122
 20
3.199844264100597
 30
0.0
 10
2.685812770782175
 20
3.210179672514313
 30
0.0
 10
2.674550138236403
 20
3.210179672514313
 30
0.0
 10
2.663304753213702
 20
3.210179672514313
 30
0.0
 10
2.654167877882729
 20
3.199844264100597
 30
0.0
 10
2.654167877882729
 20
3.187106798566244
 30
0.0
 10
2.654167877882729
 20
3.174347943396697
 30
0.0
 10
2.663304753213702
 20
3.164008053333621
 30
0.0
 10
2.674550138236403
 20
3.164008053333621
 30
0.0
  0
HATCH
  5
F4
330
1F
100
AcDbEntity
  8
Layer 1
 62
     7
420
 16777215
100
AcDbHatch
 10
0.0
 20
0.0
 30
0.0
210
0.0
220
0.0
230
1.0
  2
SOLID
 70
     1
 71
     0
 91
        1
 92
        1
 93
        1
 72
     4
 94
        3
 73
     0
 74
     1
 95
       17
 96
       13
 40
0.0
 40
0.0
 40
0.0
 40
0.0
 40
1.0
 40
1.0
 40
1.0
 40
2.0
 40
2.0
 40
2.0
 40
3.0
 40
3.0
 40
3.0
 40
4.0
 40
4.0
 40
4.0
 40
4.0
 10
2.674550138236403
 20
3.164008053333621
 10
2.685812770782175
 20
3.164008053333621
 10
2.694949646113122
 20
3.174347943396697
 10
2.694949646113122
 20
3.187106798566244
 10
2.694949646113122
 20
3.199844264100597
 10
2.685812770782175
 20
3.210179672514313
 10
2.674550138236403
 20
3.210179672514313
 10
2.663304753213702
 20
3.210179672514313
 10
2.654167877882729
 20
3.199844264100597
 10
2.654167877882729
 20
3.187106798566244
 10
2.654167877882729
 20
3.174347943396697
 10
2.663304753213702
 20
3.164008053333621
 10
2.674550138236403
 20
3.164008053333621
 97
        0
 97
        0
 75
     2
 76
     1
 98
        0
  0
SPLINE
  5
F5
330
1F
100
AcDbEntity
  8
Layer 1
 62
     7
420
 16777215
370
    15
100
AcDbSpline
210
0.0
220
0.0
230
1.0
 70
    11
 71
     3
 72
    17
 73
    13
 74
     0
 42
0.0000000001
 43
0.0000000001
 12
1.0
 22
0.0
 32
0.0
 13
1.0
 23
0.0
 33
0.0
 40
0.0
 40
0.0
 40
0.0
 40
0.0
 40
1.0
 40
1.0
 40
1.0
 40
2.0
 40
2.0
 40
2.0
 40
3.0
 40
3.0
 40
3.0
 40
4.0
 40
4.0
 40
4.0
 40
4.0
 10
2.682505767513375
 20
3.166116563025374
 30
0.0
 10
2.693772502665575
 20
3.166116563025374
 30
0.0
 10
2.702909377996523
 20
3.176430750980999
 30
0.0
 10
2.702909377996523
 20
3.189189436973442
 30
0.0
 10
2.702909377996523
 20
3.201926732739214
 30
0.0
 10
2.693772502665575
 20
3.212266622802316
 30
0.0
 10
2.682505767513375
 20
3.212266622802316
 30
0.0
 10
2.671264485097102
 20
3.212266622802316
 30
0.0
 10
2.662127609766154
 20
3.201926732739214
 30
0.0
 10
2.662127609766154
 20
3.189189436973442
 30
0.0
 10
2.662127609766154
 20
3.176430750980999
 30
0.0
 10
2.671264485097102
 20
3.166116563025374
 30
0.0
 10
2.682505767513375
 20
3.166116563025374
 30
0.0
  0
HATCH
  5
F6
330
1F
100
AcDbEntity
  8
Layer 1
 62
   254
420
 13358815
100
AcDbHatch
 10
0.0
 20
0.0
 30
0.0
210
0.0
220
0.0
230
1.0
  2
SOLID
 70
     1
 71
     0
 91
        1
 92
        1
 93
        1
 72
     4
 94
        3
 73
     0
 74
     1
 95
       17
 96
       13
 40
0.0
 40
0.0
 40
0.0
 40
0.0
 40
1.0
 40
1.0
 40
1.0
 40
2.0
 40
2.0
 40
2.0
 40
3.0
 40
3.0
 40
3.0
 40
4.0
 40
4.0
 40
4.0
 40
4.0
 10
2.682505767513375
 20
3.166116563025374
 10
2.693772502665575
 20
3.166116563025374
 10
2.702909377996523
 20
3.176430750980999
 10
2.702909377996523
 20
3.189189436973442
 10
2.702909377996523
 20
3.201926732739214
 10
2.693772502665575
 20
3.212266622802316
 10
2.682505767513375
 20
3.212266622802316
 10
2.671264485097102
 20
3.212266622802316
 10
2.662127609766154
 20
3.201926732739214
 10
2.662127609766154
 20
3.189189436973442
 10
2.662127609766154
 20
3.176430750980999
 10
2.671264485097102
 20
3.166116563025374
 10
2.682505767513375
 20
3.166116563025374
 97
        0
 97
        0
 75
     2
 76
     1
 98
        0
  0
SPLINE
  5
F7
330
1F
100
AcDbEntity
  8
Layer 1
 62
     7
420
 16777215
370
    40
100
AcDbSpline
210
0.0
220
0.0
230
1.0
 70
    11
 71
     3
 72
    17
 73
    13
 74
     0
 42
0.0000000001
 43
0.0000000001
 12
1.0
 22
0.0
 32
0.0
 13
1.0
 23
0.0
 33
0.0
 40
0.0
 40
0.0
 40
0.0
 40
0.0
 40
1.0
 40
1.0
 40
1.0
 40
2.0
 40
2.0
 40
2.0
 40
3.0
 40
3.0
 40
3.0
 40
4.0
 40
4.0
 40
4.0
 40
4.0
 10
2.652969383559594
 20
3.032357709961869
 30
0.0
 10
2.664210248173352
 20
3.032357709961869
 30
0.0
 10
2.6733471235043
 20
3.042693288144164
 30
0.0
 10
2.6733471235043
 20
3.055434895790692
 30
0.0
 10
2.6733471235043
 20
3.068193750960265
 30
0.0
 10
2.664210248173352
 20
3.078507936442141
 30
0.0
 10
2.652969383559594
 20
3.078507936442141
 30
0.0
 10
2.641706542485634
 20
3.078507936442141
 30
0.0
 10
2.632565355273932
 20
3.068193750960265
 30
0.0
 10
2.632565355273932
 20
3.055434895790692
 30
0.0
 10
2.632565355273932
 20
3.042693288144164
 30
0.0
 10
2.641706542485634
 20
3.032357709961869
 30
0.0
 10
2.652969383559594
 20
3.032357709961869
 30
0.0
  0
HATCH
  5
F8
330
1F
100
AcDbEntity
  8
Layer 1
 62
     7
420
 16777215
100
AcDbHatch
 10
0.0
 20
0.0
 30
0.0
210
0.0
220
0.0
230
1.0
  2
SOLID
 70
     1
 71
     0
 91
        1
 92
        1
 93
        1
 72
     4
 94
        3
 73
     0
 74
     1
 95
       17
 96
       13
 40
0.0
 40
0.0
 40
0.0
 40
0.0
 40
1.0
 40
1.0
 40
1.0
 40
2.0
 40
2.0
 40
2.0
 40
3.0
 40
3.0
 40
3.0
 40
4.0
 40
4.0
 40
4.0
 40
4.0
 10
2.652969383559594
 20
3.032357709961869
 10
2.664210248173352
 20
3.032357709961869
 10
2.6733471235043
 20
3.042693288144164
 10
2.6733471235043
 20
3.055434895790692
 10
2.6733471235043
 20
3.068193750960265
 10
2.664210248173352
 20
3.078507936442141
 10
2.652969383559594
 20
3.078507936442141
 10
2.641706542485634
 20
3.078507936442141
 10
2.632565355273932
 20
3.068193750960265
 10
2.632565355273932
 20
3.055434895790692
 10
2.632565355273932
 20
3.042693288144164
 10
2.641706542485634
 20
3.032357709961869
 10
2.652969383559594
 20
3.032357709961869
 97
        0
 97
        0
 75
     2
 76
     1
 98
        0
  0
SPLINE
  5
F9
330
1F
100
AcDbEntity
  8
Layer 1
 62
     7
420
 16777215
370
    15
100
AcDbSpline
210
0.0
220
0.0
230
1.0
 70
    11
 71
     3
 72
    17
 73
    13
 74
     0
 42
0.0000000001
 43
0.0000000001
 12
1.0
 22
0.0
 32
0.0
 13
1.0
 23
0.0
 33
0.0
 40
0.0
 40
0.0
 40
0.0
 40
0.0
 40
1.0
 40
1.0
 40
1.0
 40
2.0
 40
2.0
 40
2.0
 40
3.0
 40
3.0
 40
3.0
 40
4.0
 40
4.0
 40
4.0
 40
4.0
 10
2.660928906914806
 20
3.034440513959225
 30
0.0
 10
2.672191539460553
 20
3.034440513959225
 30
0.0
 10
2.6813068553877
 20
3.044780238432142
 30
0.0
 10
2.6813068553877
 20
3.05753909360169
 30
0.0
 10
2.6813068553877
 20
3.070276389367462
 30
0.0
 10
2.672191539460553
 20
3.080611967549758
 30
0.0
 10
2.660928906914806
 20
3.080611967549758
 30
0.0
 10
2.649661962488279
 20
3.080611967549758
 30
0.0
 10
2.640546646561132
 20
3.070276389367462
 30
0.0
 10
2.640546646561132
 20
3.05753909360169
 30
0.0
 10
2.640546646561132
 20
3.044780238432142
 30
0.0
 10
2.649661962488279
 20
3.034440513959225
 30
0.0
 10
2.660928906914806
 20
3.034440513959225
 30
0.0
  0
HATCH
  5
FA
330
1F
100
AcDbEntity
  8
Layer 1
 62
   254
420
 13358815
100
AcDbHatch
 10
0.0
 20
0.0
 30
0.0
210
0.0
220
0.0
230
1.0
  2
SOLID
 70
     1
 71
     0
 91
        1
 92
        1
 93
        1
 72
     4
 94
        3
 73
     0
 74
     1
 95
       17
 96
       13
 40
0.0
 40
0.0
 40
0.0
 40
0.0
 40
1.0
 40
1.0
 40
1.0
 40
2.0
 40
2.0
 40
2.0
 40
3.0
 40
3.0
 40
3.0
 40
4.0
 40
4.0
 40
4.0
 40
4.0
 10
2.660928906914806
 20
3.034440513959225
 10
2.672191539460553
 20
3.034440513959225
 10
2.6813068553877
 20
3.044780238432142
 10
2.6813068553877
 20
3.05753909360169
 10
2.6813068553877
 20
3.070276389367462
 10
2.672191539460553
 20
3.080611967549758
 10
2.660928906914806
 20
3.080611967549758
 10
2.649661962488279
 20
3.080611967549758
 10
2.640546646561132
 20
3.070276389367462
 10
2.640546646561132
 20
3.05753909360169
 10
2.640546646561132
 20
3.044780238432142
 10
2.649661962488279
 20
3.034440513959225
 10
2.660928906914806
 20
3.034440513959225
 97
        0
 97
        0
 75
     2
 76
     1
 98
        0
  0
SPLINE
  5
FB
330
1F
100
AcDbEntity
  8
Layer 1
 62
     7
420
 16777215
370
    40
100
AcDbSpline
210
0.0
220
0.0
230
1.0
 70
    11
 71
     3
 72
    17
 73
    13
 74
     0
 42
0.0000000001
 43
0.0000000001
 12
1.0
 22
0.0
 32
0.0
 13
1.0
 23
0.0
 33
0.0
 40
0.0
 40
0.0
 40
0.0
 40
0.0
 40
1.0
 40
1.0
 40
1.0
 40
2.0
 40
2.0
 40
2.0
 40
3.0
 40
3.0
 40
3.0
 40
4.0
 40
4.0
 40
4.0
 40
4.0
 10
2.566584955880721
 20
2.934836065881377
 30
0.0
 10
2.577847588426418
 20
2.934836065881377
 30
0.0
 10
2.586962904353602
 20
2.945171480989744
 30
0.0
 10
2.586962904353602
 20
2.957908776755504
 30
0.0
 10
2.586962904353602
 20
2.970667795904192
 30
0.0
 10
2.577847588426418
 20
2.980985962584378
 30
0.0
 10
2.566584955880721
 20
2.980985962584378
 30
0.0
 10
2.555318011454119
 20
2.980985962584378
 30
0.0
 10
2.546202695526997
 20
2.970667795904192
 30
0.0
 10
2.546202695526997
 20
2.957908776755504
 30
0.0
 10
2.546202695526997
 20
2.945171480989744
 30
0.0
 10
2.555318011454119
 20
2.934836065881377
 30
0.0
 10
2.566584955880721
 20
2.934836065881377
 30
0.0
  0
HATCH
  5
FC
330
1F
100
AcDbEntity
  8
Layer 1
 62
     7
420
 16777215
100
AcDbHatch
 10
0.0
 20
0.0
 30
0.0
210
0.0
220
0.0
230
1.0
  2
SOLID
 70
     1
 71
     0
 91
        1
 92
        1
 93
        1
 72
     4
 94
        3
 73
     0
 74
     1
 95
       17
 96
       13
 40
0.0
 40
0.0
 40
0.0
 40
0.0
 40
1.0
 40
1.0
 40
1.0
 40
2.0
 40
2.0
 40
2.0
 40
3.0
 40
3.0
 40
3.0
 40
4.0
 40
4.0
 40
4.0
 40
4.0
 10
2.566584955880721
 20
2.934836065881377
 10
2.577847588426418
 20
2.934836065881377
 10
2.586962904353602
 20
2.945171480989744
 10
2.586962904353602
 20
2.957908776755504
 10
2.586962904353602
 20
2.970667795904192
 10
2.577847588426418
 20
2.980985962584378
 10
2.566584955880721
 20
2.980985962584378
 10
2.555318011454119
 20
2.980985962584378
 10
2.546202695526997
 20
2.970667795904192
 10
2.546202695526997
 20
2.957908776755504
 10
2.546202695526997
 20
2.945171480989744
 10
2.555318011454119
 20
2.934836065881377
 10
2.566584955880721
 20
2.934836065881377
 97
        0
 97
        0
 75
     2
 76
     1
 98
        0
  0
SPLINE
  5
FD
330
1F
100
AcDbEntity
  8
Layer 1
 62
     7
420
 16777215
370
    15
100
AcDbSpline
210
0.0
220
0.0
230
1.0
 70
    11
 71
     3
 72
    17
 73
    13
 74
     0
 42
0.0000000001
 43
0.0000000001
 12
1.0
 22
0.0
 32
0.0
 13
1.0
 23
0.0
 33
0.0
 40
0.0
 40
0.0
 40
0.0
 40
0.0
 40
1.0
 40
1.0
 40
1.0
 40
2.0
 40
2.0
 40
2.0
 40
3.0
 40
3.0
 40
3.0
 40
4.0
 40
4.0
 40
4.0
 40
4.0
 10
2.574540375883316
 20
2.936918541214633
 30
0.0
 10
2.585807320309843
 20
2.936918541214633
 30
0.0
 10
2.59492263623699
 20
2.947258431277709
 30
0.0
 10
2.59492263623699
 20
2.959995727043456
 30
0.0
 10
2.59492263623699
 20
2.972754582213029
 30
0.0
 10
2.585807320309843
 20
2.983090160395325
 30
0.0
 10
2.574540375883316
 20
2.983090160395325
 30
0.0
 10
2.56327774333757
 20
2.983090160395325
 30
0.0
 10
2.554162427410448
 20
2.972754582213029
 30
0.0
 10
2.554162427410448
 20
2.959995727043456
 30
0.0
 10
2.554162427410448
 20
2.947258431277709
 30
0.0
 10
2.56327774333757
 20
2.936918541214633
 30
0.0
 10
2.574540375883316
 20
2.936918541214633
 30
0.0
  0
HATCH
  5
FE
330
1F
100
AcDbEntity
  8
Layer 1
 62
   254
420
 13358815
100
AcDbHatch
 10
0.0
 20
0.0
 30
0.0
210
0.0
220
0.0
230
1.0
  2
SOLID
 70
     1
 71
     0
 91
        1
 92
        1
 93
        1
 72
     4
 94
        3
 73
     0
 74
     1
 95
       17
 96
       13
 40
0.0
 40
0.0
 40
0.0
 40
0.0
 40
1.0
 40
1.0
 40
1.0
 40
2.0
 40
2.0
 40
2.0
 40
3.0
 40
3.0
 40
3.0
 40
4.0
 40
4.0
 40
4.0
 40
4.0
 10
2.574540375883316
 20
2.936918541214633
 10
2.585807320309843
 20
2.936918541214633
 10
2.59492263623699
 20
2.947258431277709
 10
2.59492263623699
 20
2.959995727043456
 10
2.59492263623699
 20
2.972754582213029
 10
2.585807320309843
 20
2.983090160395325
 10
2.574540375883316
 20
2.983090160395325
 10
2.56327774333757
 20
2.983090160395325
 10
2.554162427410448
 20
2.972754582213029
 10
2.554162427410448
 20
2.959995727043456
 10
2.554162427410448
 20
2.947258431277709
 10
2.56327774333757
 20
2.936918541214633
 10
2.574540375883316
 20
2.936918541214633
 97
        0
 97
        0
 75
     2
 76
     1
 98
        0
  0
SPLINE
  5
FF
330
1F
100
AcDbEntity
  8
Layer 1
 62
     7
420
 16777215
370
    40
100
AcDbSpline
210
0.0
220
0.0
230
1.0
 70
    11
 71
     3
 72
    17
 73
    13
 74
     0
 42
0.0000000001
 43
0.0000000001
 12
1.0
 22
0.0
 32
0.0
 13
1.0
 23
0.0
 33
0.0
 40
0.0
 40
0.0
 40
0.0
 40
0.0
 40
1.0
 40
1.0
 40
1.0
 40
2.0
 40
2.0
 40
2.0
 40
3.0
 40
3.0
 40
3.0
 40
4.0
 40
4.0
 40
4.0
 40
4.0
 10
2.6780427616522
 20
2.648539955969555
 30
0.0
 10
2.689288146674926
 20
2.648539955969555
 30
0.0
 10
2.698425022005873
 20
2.658858286628831
 30
0.0
 10
2.698425022005873
 20
2.671617141798379
 30
0.0
 10
2.698425022005873
 20
2.684354437564151
 30
0.0
 10
2.689288146674926
 20
2.694690015746447
 30
0.0
 10
2.6780427616522
 20
2.694690015746447
 30
0.0
 10
2.666780129106453
 20
2.694690015746447
 30
0.0
 10
2.657643253775505
 20
2.684354437564151
 30
0.0
 10
2.657643253775505
 20
2.671617141798379
 30
0.0
 10
2.657643253775505
 20
2.658858286628831
 30
0.0
 10
2.666780129106453
 20
2.648539955969555
 30
0.0
 10
2.6780427616522
 20
2.648539955969555
 30
0.0
  0
HATCH
  5
100
330
1F
100
AcDbEntity
  8
Layer 1
 62
     7
420
 16777215
100
AcDbHatch
 10
0.0
 20
0.0
 30
0.0
210
0.0
220
0.0
230
1.0
  2
SOLID
 70
     1
 71
     0
 91
        1
 92
        1
 93
        1
 72
     4
 94
        3
 73
     0
 74
     1
 95
       17
 96
       13
 40
0.0
 40
0.0
 40
0.0
 40
0.0
 40
1.0
 40
1.0
 40
1.0
 40
2.0
 40
2.0
 40
2.0
 40
3.0
 40
3.0
 40
3.0
 40
4.0
 40
4.0
 40
4.0
 40
4.0
 10
2.6780427616522
 20
2.648539955969555
 10
2.689288146674926
 20
2.648539955969555
 10
2.698425022005873
 20
2.658858286628831
 10
2.698425022005873
 20
2.671617141798379
 10
2.698425022005873
 20
2.684354437564151
 10
2.689288146674926
 20
2.694690015746447
 10
2.6780427616522
 20
2.694690015746447
 10
2.666780129106453
 20
2.694690015746447
 10
2.657643253775505
 20
2.684354437564151
 10
2.657643253775505
 20
2.671617141798379
 10
2.657643253775505
 20
2.658858286628831
 10
2.666780129106453
 20
2.648539955969555
 10
2.6780427616522
 20
2.648539955969555
 97
        0
 97
        0
 75
     2
 76
     1
 98
        0
  0
SPLINE
  5
101
330
1F
100
AcDbEntity
  8
Layer 1
 62
     7
420
 16777215
370
    15
100
AcDbSpline
210
0.0
220
0.0
230
1.0
 70
    11
 71
     3
 72
    17
 73
    13
 74
     0
 42
0.0000000001
 43
0.0000000001
 12
1.0
 22
0.0
 32
0.0
 13
1.0
 23
0.0
 33
0.0
 40
0.0
 40
0.0
 40
0.0
 40
0.0
 40
1.0
 40
1.0
 40
1.0
 40
2.0
 40
2.0
 40
2.0
 40
3.0
 40
3.0
 40
3.0
 40
4.0
 40
4.0
 40
4.0
 40
4.0
 10
2.686002493535625
 20
2.650626906257508
 30
0.0
 10
2.697265126081371
 20
2.650626906257508
 30
0.0
 10
2.706384753889299
 20
2.660962484439829
 30
0.0
 10
2.706384753889299
 20
2.673699780205589
 30
0.0
 10
2.706384753889299
 20
2.686437075971349
 30
0.0
 10
2.697265126081371
 20
2.696777123094459
 30
0.0
 10
2.686002493535625
 20
2.696777123094459
 30
0.0
 10
2.674739860989853
 20
2.696777123094459
 30
0.0
 10
2.665620233181951
 20
2.686437075971349
 30
0.0
 10
2.665620233181951
 20
2.673699780205589
 30
0.0
 10
2.665620233181951
 20
2.660962484439829
 30
0.0
 10
2.674739860989853
 20
2.650626906257508
 30
0.0
 10
2.686002493535625
 20
2.650626906257508
 30
0.0
  0
HATCH
  5
102
330
1F
100
AcDbEntity
  8
Layer 1
 62
   254
420
 13358815
100
AcDbHatch
 10
0.0
 20
0.0
 30
0.0
210
0.0
220
0.0
230
1.0
  2
SOLID
 70
     1
 71
     0
 91
        1
 92
        1
 93
        1
 72
     4
 94
        3
 73
     0
 74
     1
 95
       17
 96
       13
 40
0.0
 40
0.0
 40
0.0
 40
0.0
 40
1.0
 40
1.0
 40
1.0
 40
2.0
 40
2.0
 40
2.0
 40
3.0
 40
3.0
 40
3.0
 40
4.0
 40
4.0
 40
4.0
 40
4.0
 10
2.686002493535625
 20
2.650626906257508
 10
2.697265126081371
 20
2.650626906257508
 10
2.706384753889299
 20
2.660962484439829
 10
2.706384753889299
 20
2.673699780205589
 10
2.706384753889299
 20
2.686437075971349
 10
2.697265126081371
 20
2.696777123094459
 10
2.686002493535625
 20
2.696777123094459
 10
2.674739860989853
 20
2.696777123094459
 10
2.665620233181951
 20
2.686437075971349
 10
2.665620233181951
 20
2.673699780205589
 10
2.665620233181951
 20
2.660962484439829
 10
2.674739860989853
 20
2.650626906257508
 10
2.686002493535625
 20
2.650626906257508
 97
        0
 97
        0
 75
     2
 76
     1
 98
        0
  0
SPLINE
  5
103
330
1F
100
AcDbEntity
  8
Layer 1
 62
     7
420
 16777215
370
    40
100
AcDbSpline
210
0.0
220
0.0
230
1.0
 70
    11
 71
     3
 72
    17
 73
    13
 74
     0
 42
0.0000000001
 43
0.0000000001
 12
1.0
 22
0.0
 32
0.0
 13
1.0
 23
0.0
 33
0.0
 40
0.0
 40
0.0
 40
0.0
 40
0.0
 40
1.0
 40
1.0
 40
1.0
 40
2.0
 40
2.0
 40
2.0
 40
3.0
 40
3.0
 40
3.0
 40
4.0
 40
4.0
 40
4.0
 40
4.0
 10
2.909616629761836
 20
2.736989566004442
 30
0.0
 10
2.898353997216089
 20
2.736989566004442
 30
0.0
 10
2.889217336381433
 20
2.747329456067506
 30
0.0
 10
2.889217336381433
 20
2.760088311237066
 30
0.0
 10
2.889217336381433
 20
2.772825607002813
 30
0.0
 10
2.898353997216089
 20
2.783161185185109
 30
0.0
 10
2.909616629761836
 20
2.783161185185109
 30
0.0
 10
2.920862014784562
 20
2.783161185185109
 30
0.0
 10
2.92999889011551
 20
2.772825607002813
 30
0.0
 10
2.92999889011551
 20
2.760088311237066
 30
0.0
 10
2.92999889011551
 20
2.747329456067506
 30
0.0
 10
2.920862014784562
 20
2.736989566004442
 30
0.0
 10
2.909616629761836
 20
2.736989566004442
 30
0.0
  0
HATCH
  5
104
330
1F
100
AcDbEntity
  8
Layer 1
 62
     7
420
 16777215
100
AcDbHatch
 10
0.0
 20
0.0
 30
0.0
210
0.0
220
0.0
230
1.0
  2
SOLID
 70
     1
 71
     0
 91
        1
 92
        1
 93
        1
 72
     4
 94
        3
 73
     0
 74
     1
 95
       17
 96
       13
 40
0.0
 40
0.0
 40
0.0
 40
0.0
 40
1.0
 40
1.0
 40
1.0
 40
2.0
 40
2.0
 40
2.0
 40
3.0
 40
3.0
 40
3.0
 40
4.0
 40
4.0
 40
4.0
 40
4.0
 10
2.909616629761836
 20
2.736989566004442
 10
2.898353997216089
 20
2.736989566004442
 10
2.889217336381433
 20
2.747329456067506
 10
2.889217336381433
 20
2.760088311237066
 10
2.889217336381433
 20
2.772825607002813
 10
2.898353997216089
 20
2.783161185185109
 10
2.909616629761836
 20
2.783161185185109
 10
2.920862014784562
 20
2.783161185185109
 10
2.92999889011551
 20
2.772825607002813
 10
2.92999889011551
 20
2.760088311237066
 10
2.92999889011551
 20
2.747329456067506
 10
2.920862014784562
 20
2.736989566004442
 10
2.909616629761836
 20
2.736989566004442
 97
        0
 97
        0
 75
     2
 76
     1
 98
        0
  0
SPLINE
  5
105
330
1F
100
AcDbEntity
  8
Layer 1
 62
     7
420
 16777215
370
    15
100
AcDbSpline
210
0.0
220
0.0
230
1.0
 70
    11
 71
     3
 72
    17
 73
    13
 74
     0
 42
0.0000000001
 43
0.0000000001
 12
1.0
 22
0.0
 32
0.0
 13
1.0
 23
0.0
 33
0.0
 40
0.0
 40
0.0
 40
0.0
 40
0.0
 40
1.0
 40
1.0
 40
1.0
 40
2.0
 40
2.0
 40
2.0
 40
3.0
 40
3.0
 40
3.0
 40
4.0
 40
4.0
 40
4.0
 40
4.0
 10
2.90163965035539
 20
2.73909376381544
 30
0.0
 10
2.890394265332689
 20
2.73909376381544
 30
0.0
 10
2.881257390001716
 20
2.749433653878491
 30
0.0
 10
2.881257390001716
 20
2.762170949644264
 30
0.0
 10
2.881257390001716
 20
2.774908404443825
 30
0.0
 10
2.890394265332689
 20
2.785243823592307
 30
0.0
 10
2.90163965035539
 20
2.785243823592307
 30
0.0
 10
2.912902282901137
 20
2.785243823592307
 30
0.0
 10
2.92203915823211
 20
2.774908404443825
 30
0.0
 10
2.92203915823211
 20
2.762170949644264
 30
0.0
 10
2.92203915823211
 20
2.749433653878491
 30
0.0
 10
2.912902282901137
 20
2.73909376381544
 30
0.0
 10
2.90163965035539
 20
2.73909376381544
 30
0.0
  0
HATCH
  5
106
330
1F
100
AcDbEntity
  8
Layer 1
 62
   254
420
 13358815
100
AcDbHatch
 10
0.0
 20
0.0
 30
0.0
210
0.0
220
0.0
230
1.0
  2
SOLID
 70
     1
 71
     0
 91
        1
 92
        1
 93
        1
 72
     4
 94
        3
 73
     0
 74
     1
 95
       17
 96
       13
 40
0.0
 40
0.0
 40
0.0
 40
0.0
 40
1.0
 40
1.0
 40
1.0
 40
2.0
 40
2.0
 40
2.0
 40
3.0
 40
3.0
 40
3.0
 40
4.0
 40
4.0
 40
4.0
 40
4.0
 10
2.90163965035539
 20
2.73909376381544
 10
2.890394265332689
 20
2.73909376381544
 10
2.881257390001716
 20
2.749433653878491
 10
2.881257390001716
 20
2.762170949644264
 10
2.881257390001716
 20
2.774908404443825
 10
2.890394265332689
 20
2.785243823592307
 10
2.90163965035539
 20
2.785243823592307
 10
2.912902282901137
 20
2.785243823592307
 10
2.92203915823211
 20
2.774908404443825
 10
2.92203915823211
 20
2.762170949644264
 10
2.92203915823211
 20
2.749433653878491
 10
2.912902282901137
 20
2.73909376381544
 10
2.90163965035539
 20
2.73909376381544
 97
        0
 97
        0
 75
     2
 76
     1
 98
        0
  0
SPLINE
  5
107
330
1F
100
AcDbEntity
  8
Layer 1
 62
     7
420
 16777215
370
    40
100
AcDbSpline
210
0.0
220
0.0
230
1.0
 70
    11
 71
     3
 72
    17
 73
    13
 74
     0
 42
0.0000000001
 43
0.0000000001
 12
1.0
 22
0.0
 32
0.0
 13
1.0
 23
0.0
 33
0.0
 40
0.0
 40
0.0
 40
0.0
 40
0.0
 40
1.0
 40
1.0
 40
1.0
 40
2.0
 40
2.0
 40
2.0
 40
3.0
 40
3.0
 40
3.0
 40
4.0
 40
4.0
 40
4.0
 40
4.0
 10
3.052408873018067
 20
2.685449655277251
 30
0.0
 10
3.04116348799534
 20
2.685449655277251
 30
0.0
 10
3.032026830768346
 20
2.695785390494595
 30
0.0
 10
3.032026830768346
 20
2.708522529225295
 30
0.0
 10
3.032026830768346
 20
2.721281384394855
 30
0.0
 10
3.04116348799534
 20
2.731599715054131
 30
0.0
 10
3.052408873018067
 20
2.731599715054131
 30
0.0
 10
3.063671505563813
 20
2.731599715054131
 30
0.0
 10
3.072808380894786
 20
2.721281384394855
 30
0.0
 10
3.072808380894786
 20
2.708522529225295
 30
0.0
 10
3.072808380894786
 20
2.695785390494595
 30
0.0
 10
3.063671505563813
 20
2.685449655277251
 30
0.0
 10
3.052408873018067
 20
2.685449655277251
 30
0.0
  0
HATCH
  5
108
330
1F
100
AcDbEntity
  8
Layer 1
 62
     7
420
 16777215
100
AcDbHatch
 10
0.0
 20
0.0
 30
0.0
210
0.0
220
0.0
230
1.0
  2
SOLID
 70
     1
 71
     0
 91
        1
 92
        1
 93
        1
 72
     4
 94
        3
 73
     0
 74
     1
 95
       17
 96
       13
 40
0.0
 40
0.0
 40
0.0
 40
0.0
 40
1.0
 40
1.0
 40
1.0
 40
2.0
 40
2.0
 40
2.0
 40
3.0
 40
3.0
 40
3.0
 40
4.0
 40
4.0
 40
4.0
 40
4.0
 10
3.052408873018067
 20
2.685449655277251
 10
3.04116348799534
 20
2.685449655277251
 10
3.032026830768346
 20
2.695785390494595
 10
3.032026830768346
 20
2.708522529225295
 10
3.032026830768346
 20
2.721281384394855
 10
3.04116348799534
 20
2.731599715054131
 10
3.052408873018067
 20
2.731599715054131
 10
3.063671505563813
 20
2.731599715054131
 10
3.072808380894786
 20
2.721281384394855
 10
3.072808380894786
 20
2.708522529225295
 10
3.072808380894786
 20
2.695785390494595
 10
3.063671505563813
 20
2.685449655277251
 10
3.052408873018067
 20
2.685449655277251
 97
        0
 97
        0
 75
     2
 76
     1
 98
        0
  0
SPLINE
  5
109
330
1F
100
AcDbEntity
  8
Layer 1
 62
     7
420
 16777215
370
    15
100
AcDbSpline
210
0.0
220
0.0
230
1.0
 70
    11
 71
     3
 72
    17
 73
    13
 74
     0
 42
0.0000000001
 43
0.0000000001
 12
1.0
 22
0.0
 32
0.0
 13
1.0
 23
0.0
 33
0.0
 40
0.0
 40
0.0
 40
0.0
 40
0.0
 40
1.0
 40
1.0
 40
1.0
 40
2.0
 40
2.0
 40
2.0
 40
3.0
 40
3.0
 40
3.0
 40
4.0
 40
4.0
 40
4.0
 40
4.0
 10
3.044449141134666
 20
2.687532293684449
 30
0.0
 10
3.033186508588895
 20
2.687532293684449
 30
0.0
 10
3.024066880780993
 20
2.6978721837475
 30
0.0
 10
3.024066880780993
 20
2.710609479513272
 30
0.0
 10
3.024066880780993
 20
2.72336833468282
 30
0.0
 10
3.033186508588895
 20
2.733703912865116
 30
0.0
 10
3.044449141134666
 20
2.733703912865116
 30
0.0
 10
3.055711773680413
 20
2.733703912865116
 30
0.0
 10
3.06484864901136
 20
2.72336833468282
 30
0.0
 10
3.06484864901136
 20
2.710609479513272
 30
0.0
 10
3.06484864901136
 20
2.6978721837475
 30
0.0
 10
3.055711773680413
 20
2.687532293684449
 30
0.0
 10
3.044449141134666
 20
2.687532293684449
 30
0.0
  0
HATCH
  5
10A
330
1F
100
AcDbEntity
  8
Layer 1
 62
   254
420
 13358815
100
AcDbHatch
 10
0.0
 20
0.0
 30
0.0
210
0.0
220
0.0
230
1.0
  2
SOLID
 70
     1
 71
     0
 91
        1
 92
        1
 93
        1
 72
     4
 94
        3
 73
     0
 74
     1
 95
       17
 96
       13
 40
0.0
 40
0.0
 40
0.0
 40
0.0
 40
1.0
 40
1.0
 40
1.0
 40
2.0
 40
2.0
 40
2.0
 40
3.0
 40
3.0
 40
3.0
 40
4.0
 40
4.0
 40
4.0
 40
4.0
 10
3.044449141134666
 20
2.687532293684449
 10
3.033186508588895
 20
2.687532293684449
 10
3.024066880780993
 20
2.6978721837475
 10
3.024066880780993
 20
2.710609479513272
 10
3.024066880780993
 20
2.72336833468282
 10
3.033186508588895
 20
2.733703912865116
 10
3.044449141134666
 20
2.733703912865116
 10
3.055711773680413
 20
2.733703912865116
 10
3.06484864901136
 20
2.72336833468282
 10
3.06484864901136
 20
2.710609479513272
 10
3.06484864901136
 20
2.6978721837475
 10
3.055711773680413
 20
2.687532293684449
 10
3.044449141134666
 20
2.687532293684449
 97
        0
 97
        0
 75
     2
 76
     1
 98
        0
  0
SPLINE
  5
10B
330
1F
100
AcDbEntity
  8
Layer 1
 62
     7
420
 16777215
370
    40
100
AcDbSpline
210
0.0
220
0.0
230
1.0
 70
    11
 71
     3
 72
    17
 73
    13
 74
     0
 42
0.0000000001
 43
0.0000000001
 12
1.0
 22
0.0
 32
0.0
 13
1.0
 23
0.0
 33
0.0
 40
0.0
 40
0.0
 40
0.0
 40
0.0
 40
1.0
 40
1.0
 40
1.0
 40
2.0
 40
2.0
 40
2.0
 40
3.0
 40
3.0
 40
3.0
 40
4.0
 40
4.0
 40
4.0
 40
4.0
 10
2.956275491468432
 20
2.88676705609224
 30
0.0
 10
2.945030106445731
 20
2.88676705609224
 30
0.0
 10
2.935893231114758
 20
2.897107108276158
 30
0.0
 10
2.935893231114758
 20
2.909844241921039
 30
0.0
 10
2.935893231114758
 20
2.922603097090637
 30
0.0
 10
2.945030106445731
 20
2.932921427749887
 30
0.0
 10
2.956275491468432
 20
2.932921427749887
 30
0.0
 10
2.967538124014204
 20
2.932921427749887
 30
0.0
 10
2.976674999345151
 20
2.922603097090637
 30
0.0
 10
2.976674999345151
 20
2.909844241921039
 30
0.0
 10
2.976674999345151
 20
2.897107108276158
 30
0.0
 10
2.967538124014204
 20
2.88676705609224
 30
0.0
 10
2.956275491468432
 20
2.88676705609224
 30
0.0
  0
HATCH
  5
10C
330
1F
100
AcDbEntity
  8
Layer 1
 62
     7
420
 16777215
100
AcDbHatch
 10
0.0
 20
0.0
 30
0.0
210
0.0
220
0.0
230
1.0
  2
SOLID
 70
     1
 71
     0
 91
        1
 92
        1
 93
        1
 72
     4
 94
        3
 73
     0
 74
     1
 95
       17
 96
       13
 40
0.0
 40
0.0
 40
0.0
 40
0.0
 40
1.0
 40
1.0
 40
1.0
 40
2.0
 40
2.0
 40
2.0
 40
3.0
 40
3.0
 40
3.0
 40
4.0
 40
4.0
 40
4.0
 40
4.0
 10
2.956275491468432
 20
2.88676705609224
 10
2.945030106445731
 20
2.88676705609224
 10
2.935893231114758
 20
2.897107108276158
 10
2.935893231114758
 20
2.909844241921039
 10
2.935893231114758
 20
2.922603097090637
 10
2.945030106445731
 20
2.932921427749887
 10
2.956275491468432
 20
2.932921427749887
 10
2.967538124014204
 20
2.932921427749887
 10
2.976674999345151
 20
2.922603097090637
 10
2.976674999345151
 20
2.909844241921039
 10
2.976674999345151
 20
2.897107108276158
 10
2.967538124014204
 20
2.88676705609224
 10
2.956275491468432
 20
2.88676705609224
 97
        0
 97
        0
 75
     2
 76
     1
 98
        0
  0
SPLINE
  5
10D
330
1F
100
AcDbEntity
  8
Layer 1
 62
     7
420
 16777215
370
    15
100
AcDbSpline
210
0.0
220
0.0
230
1.0
 70
    11
 71
     3
 72
    17
 73
    13
 74
     0
 42
0.0000000001
 43
0.0000000001
 12
1.0
 22
0.0
 32
0.0
 13
1.0
 23
0.0
 33
0.0
 40
0.0
 40
0.0
 40
0.0
 40
0.0
 40
1.0
 40
1.0
 40
1.0
 40
2.0
 40
2.0
 40
2.0
 40
3.0
 40
3.0
 40
3.0
 40
4.0
 40
4.0
 40
4.0
 40
4.0
 10
2.948315759585032
 20
2.888854006380218
 30
0.0
 10
2.937053127039285
 20
2.888854006380218
 30
0.0
 10
2.927933499231358
 20
2.899189584562514
 30
0.0
 10
2.927933499231358
 20
2.911948439732075
 30
0.0
 10
2.927933499231358
 20
2.924685735497835
 30
0.0
 10
2.937053127039285
 20
2.935025625560886
 30
0.0
 10
2.948315759585032
 20
2.935025625560886
 30
0.0
 10
2.959578392130778
 20
2.935025625560886
 30
0.0
 10
2.968715267461751
 20
2.924685735497835
 30
0.0
 10
2.968715267461751
 20
2.911948439732075
 30
0.0
 10
2.968715267461751
 20
2.899189584562514
 30
0.0
 10
2.959578392130778
 20
2.888854006380218
 30
0.0
 10
2.948315759585032
 20
2.888854006380218
 30
0.0
  0
HATCH
  5
10E
330
1F
100
AcDbEntity
  8
Layer 1
 62
   254
420
 13358815
100
AcDbHatch
 10
0.0
 20
0.0
 30
0.0
210
0.0
220
0.0
230
1.0
  2
SOLID
 70
     1
 71
     0
 91
        1
 92
        1
 93
        1
 72
     4
 94
        3
 73
     0
 74
     1
 95
       17
 96
       13
 40
0.0
 40
0.0
 40
0.0
 40
0.0
 40
1.0
 40
1.0
 40
1.0
 40
2.0
 40
2.0
 40
2.0
 40
3.0
 40
3.0
 40
3.0
 40
4.0
 40
4.0
 40
4.0
 40
4.0
 10
2.948315759585032
 20
2.888854006380218
 10
2.937053127039285
 20
2.888854006380218
 10
2.927933499231358
 20
2.899189584562514
 10
2.927933499231358
 20
2.911948439732075
 10
2.927933499231358
 20
2.924685735497835
 10
2.937053127039285
 20
2.935025625560886
 10
2.948315759585032
 20
2.935025625560886
 10
2.959578392130778
 20
2.935025625560886
 10
2.968715267461751
 20
2.924685735497835
 10
2.968715267461751
 20
2.911948439732075
 10
2.968715267461751
 20
2.899189584562514
 10
2.959578392130778
 20
2.888854006380218
 10
2.948315759585032
 20
2.888854006380218
 97
        0
 97
        0
 75
     2
 76
     1
 98
        0
  0
SPLINE
  5
10F
330
1F
100
AcDbEntity
  8
Layer 1
 62
     7
420
 16777215
370
    40
100
AcDbSpline
210
0.0
220
0.0
230
1.0
 70
    11
 71
     3
 72
    17
 73
    13
 74
     0
 42
0.0000000001
 43
0.0000000001
 12
1.0
 22
0.0
 32
0.0
 13
1.0
 23
0.0
 33
0.0
 40
0.0
 40
0.0
 40
0.0
 40
0.0
 40
1.0
 40
1.0
 40
1.0
 40
2.0
 40
2.0
 40
2.0
 40
3.0
 40
3.0
 40
3.0
 40
4.0
 40
4.0
 40
4.0
 40
4.0
 10
3.048933497125315
 20
3.213486885057414
 30
0.0
 10
3.037670864579543
 20
3.213486885057414
 30
0.0
 10
3.028551236771641
 20
3.223800903835935
 30
0.0
 10
3.028551236771641
 20
3.236559759005483
 30
0.0
 10
3.028551236771641
 20
3.249301537670009
 30
0.0
 10
3.037670864579543
 20
3.259636944834306
 30
0.0
 10
3.048933497125315
 20
3.259636944834306
 30
0.0
 10
3.060196129671062
 20
3.259636944834306
 30
0.0
 10
3.069315757478989
 20
3.249301537670009
 30
0.0
 10
3.069315757478989
 20
3.236559759005483
 30
0.0
 10
3.069315757478989
 20
3.223800903835935
 30
0.0
 10
3.060196129671062
 20
3.213486885057414
 30
0.0
 10
3.048933497125315
 20
3.213486885057414
 30
0.0
  0
HATCH
  5
110
330
1F
100
AcDbEntity
  8
Layer 1
 62
     7
420
 16777215
100
AcDbHatch
 10
0.0
 20
0.0
 30
0.0
210
0.0
220
0.0
230
1.0
  2
SOLID
 70
     1
 71
     0
 91
        1
 92
        1
 93
        1
 72
     4
 94
        3
 73
     0
 74
     1
 95
       17
 96
       13
 40
0.0
 40
0.0
 40
0.0
 40
0.0
 40
1.0
 40
1.0
 40
1.0
 40
2.0
 40
2.0
 40
2.0
 40
3.0
 40
3.0
 40
3.0
 40
4.0
 40
4.0
 40
4.0
 40
4.0
 10
3.048933497125315
 20
3.213486885057414
 10
3.037670864579543
 20
3.213486885057414
 10
3.028551236771641
 20
3.223800903835935
 10
3.028551236771641
 20
3.236559759005483
 10
3.028551236771641
 20
3.249301537670009
 10
3.037670864579543
 20
3.259636944834306
 10
3.048933497125315
 20
3.259636944834306
 10
3.060196129671062
 20
3.259636944834306
 10
3.069315757478989
 20
3.249301537670009
 10
3.069315757478989
 20
3.236559759005483
 10
3.069315757478989
 20
3.223800903835935
 10
3.060196129671062
 20
3.213486885057414
 10
3.048933497125315
 20
3.213486885057414
 97
        0
 97
        0
 75
     2
 76
     1
 98
        0
  0
SPLINE
  5
111
330
1F
100
AcDbEntity
  8
Layer 1
 62
     7
420
 16777215
370
    15
100
AcDbSpline
210
0.0
220
0.0
230
1.0
 70
    11
 71
     3
 72
    17
 73
    13
 74
     0
 42
0.0000000001
 43
0.0000000001
 12
1.0
 22
0.0
 32
0.0
 13
1.0
 23
0.0
 33
0.0
 40
0.0
 40
0.0
 40
0.0
 40
0.0
 40
1.0
 40
1.0
 40
1.0
 40
2.0
 40
2.0
 40
2.0
 40
3.0
 40
3.0
 40
3.0
 40
4.0
 40
4.0
 40
4.0
 40
4.0
 10
3.04097376524189
 20
3.215569523464612
 30
0.0
 10
3.029711132696143
 20
3.215569523464612
 30
0.0
 10
3.020574257365196
 20
3.225888024550386
 30
0.0
 10
3.020574257365196
 20
3.238646709293435
 30
0.0
 10
3.020574257365196
 20
3.251384005059208
 30
0.0
 10
3.029711132696143
 20
3.261719754573202
 30
0.0
 10
3.04097376524189
 20
3.261719754573202
 30
0.0
 10
3.052219150264616
 20
3.261719754573202
 30
0.0
 10
3.061356025595564
 20
3.251384005059208
 30
0.0
 10
3.061356025595564
 20
3.238646709293435
 30
0.0
 10
3.061356025595564
 20
3.225888024550386
 30
0.0
 10
3.052219150264616
 20
3.215569523464612
 30
0.0
 10
3.04097376524189
 20
3.215569523464612
 30
0.0
  0
HATCH
  5
112
330
1F
100
AcDbEntity
  8
Layer 1
 62
   254
420
 13358815
100
AcDbHatch
 10
0.0
 20
0.0
 30
0.0
210
0.0
220
0.0
230
1.0
  2
SOLID
 70
     1
 71
     0
 91
        1
 92
        1
 93
        1
 72
     4
 94
        3
 73
     0
 74
     1
 95
       17
 96
       13
 40
0.0
 40
0.0
 40
0.0
 40
0.0
 40
1.0
 40
1.0
 40
1.0
 40
2.0
 40
2.0
 40
2.0
 40
3.0
 40
3.0
 40
3.0
 40
4.0
 40
4.0
 40
4.0
 40
4.0
 10
3.04097376524189
 20
3.215569523464612
 10
3.029711132696143
 20
3.215569523464612
 10
3.020574257365196
 20
3.225888024550386
 10
3.020574257365196
 20
3.238646709293435
 10
3.020574257365196
 20
3.251384005059208
 10
3.029711132696143
 20
3.261719754573202
 10
3.04097376524189
 20
3.261719754573202
 10
3.052219150264616
 20
3.261719754573202
 10
3.061356025595564
 20
3.251384005059208
 10
3.061356025595564
 20
3.238646709293435
 10
3.061356025595564
 20
3.225888024550386
 10
3.052219150264616
 20
3.215569523464612
 10
3.04097376524189
 20
3.215569523464612
 97
        0
 97
        0
 75
     2
 76
     1
 98
        0
  0
POLYLINE
  5
113
330
1F
100
AcDbEntity
  8
Layer 1
370
     0
100
AcDb2dPolyline
 66
     1
 10
0.0
 20
0.0
 30
0.0
  0
VERTEX
  5
114
330
113
100
AcDbEntity
  8
Layer 1
370
     0
100
AcDbVertex
100
AcDb2dVertex
 10
2.89549090839129
 20
2.987807357947026
 30
0.0
  0
VERTEX
  5
115
330
113
100
AcDbEntity
  8
Layer 1
370
     0
100
AcDbVertex
100
AcDb2dVertex
 10
2.871236793157019
 20
3.02553631459917
 30
0.0
  0
VERTEX
  5
116
330
113
100
AcDbEntity
  8
Layer 1
370
     0
100
AcDbVertex
100
AcDb2dVertex
 10
2.876626644243465
 20
3.055180660939944
 30
0.0
  0
VERTEX
  5
117
330
113
100
AcDbEntity
  8
Layer 1
370
     0
100
AcDbVertex
100
AcDb2dVertex
 10
2.892796197502851
 20
3.030926165549469
 30
0.0
  0
VERTEX
  5
118
330
113
100
AcDbEntity
  8
Layer 1
370
     0
100
AcDbVertex
100
AcDb2dVertex
 10
2.917050312192512
 20
3.014756612698546
 30
0.0
  0
VERTEX
  5
119
330
113
100
AcDbEntity
  8
Layer 1
370
     0
100
AcDbVertex
100
AcDb2dVertex
 10
2.89549090839129
 20
2.987807357947026
 30
0.0
  0
SEQEND
  5
11B
330
113
100
AcDbEntity
  8
Layer 1
370
     0
  0
HATCH
  5
11A
330
1F
100
AcDbEntity
  8
Layer 1
 62
    43
420
 15510365
100
AcDbHatch
 10
0.0
 20
0.0
 30
0.0
210
0.0
220
0.0
230
1.0
  2
SOLID
 70
     1
 71
     0
 91
        1
 92
        1
 93
        5
 72
     1
 10
2.89549090839129
 20
2.987807357947026
 11
2.871236793157019
 21
3.02553631459917
 72
     1
 10
2.871236793157019
 20
3.02553631459917
 11
2.876626644243465
 21
3.055180660939944
 72
     1
 10
2.876626644243465
 20
3.055180660939944
 11
2.892796197502851
 21
3.030926165549469
 72
     1
 10
2.892796197502851
 20
3.030926165549469
 11
2.917050312192512
 21
3.014756612698546
 72
     1
 10
2.917050312192512
 20
3.014756612698546
 11
2.89549090839129
 21
2.987807357947026
 97
        0
 75
     2
 76
     1
 98
        0
  0
SPLINE
  5
11C
330
1F
100
AcDbEntity
  8
Layer 1
 62
     7
420
 16777215
370
    35
100
AcDbSpline
210
0.0
220
0.0
230
1.0
 70
     8
 71
     3
 72
     8
 73
     4
 74
     0
 42
0.0000000001
 43
0.0000000001
 12
1.0
 22
0.0
 32
0.0
 13
1.0
 23
0.0
 33
0.0
 40
0.0
 40
0.0
 40
0.0
 40
0.0
 40
1.0
 40
1.0
 40
1.0
 40
1.0
 10
2.875363049002468
 20
3.086489061025961
 30
0.0
 10
2.875363049002468
 20
3.065770473972988
 30
0.0
 10
2.892080210709941
 20
3.022966433666069
 30
0.0
 10
2.917494435910814
 20
3.011600315982049
 30
0.0
  0
POLYLINE
  5
11D
330
1F
100
AcDbEntity
  8
Layer 1
 62
     7
420
 16777215
370
    35
100
AcDb2dPolyline
 66
     1
 10
0.0
 20
0.0
 30
0.0
  0
VERTEX
  5
11E
330
11D
100
AcDbEntity
  8
Layer 1
 62
     7
420
 16777215
370
    35
100
AcDbVertex
100
AcDb2dVertex
 10
2.876035702401067
 20
3.154030361254424
 30
0.0
  0
VERTEX
  5
11F
330
11D
100
AcDbEntity
  8
Layer 1
 62
     7
420
 16777215
370
    35
100
AcDbVertex
100
AcDb2dVertex
 10
2.874017742205271
 20
3.026316765016771
 30
0.0
  0
VERTEX
  5
120
330
11D
100
AcDbEntity
  8
Layer 1
 62
     7
420
 16777215
370
    35
100
AcDbVertex
100
AcDb2dVertex
 10
2.898099810971921
 20
2.983512724709827
 30
0.0
  0
VERTEX
  5
121
330
11D
100
AcDbEntity
  8
Layer 1
 62
     7
420
 16777215
370
    35
100
AcDbVertex
100
AcDb2dVertex
 10
2.924841880726262
 20
3.023643398945422
 30
0.0
  0
VERTEX
  5
122
330
11D
100
AcDbEntity
  8
Layer 1
 62
     7
420
 16777215
370
    35
100
AcDbVertex
100
AcDb2dVertex
 10
2.923513821452111
 20
3.171420176360495
 30
0.0
  0
SEQEND
  5
123
330
11D
100
AcDbEntity
  8
Layer 1
 62
     7
420
 16777215
370
    35
  0
POLYLINE
  5
125
330
1F
100
AcDbEntity
  8
callout
370
     0
100
AcDb2dPolyline
 66
     1
 10
0.0
 20
0.0
 30
0.0
  0
VERTEX
  5
126
330
125
100
AcDbEntity
  8
callout
370
     0
100
AcDbVertex
100
AcDb2dVertex
 10
2.726236652909443
 20
3.561973088100305
 30
0.0
  0
VERTEX
  5
127
330
125
100
AcDbEntity
  8
callout
370
     0
100
AcDbVertex
100
AcDb2dVertex
 10
2.806472342502047
 20
3.404153940394634
 30
0.0
  0
VERTEX
  5
128
330
125
100
AcDbEntity
  8
callout
370
     0
100
AcDbVertex
100
AcDb2dVertex
 10
2.877363761675219
 20
3.620821636716098
 30
0.0
  0
VERTEX
  5
129
330
125
100
AcDbEntity
  8
callout
370
     0
100
AcDbVertex
100
AcDb2dVertex
 10
2.822999569050075
 20
3.600228094205186
 30
0.0
  0
VERTEX
  5
12A
330
125
100
AcDbEntity
  8
callout
370
     0
100
AcDbVertex
100
AcDb2dVertex
 10
2.822999569050075
 20
4.221432131571924
 30
0.0
  0
VERTEX
  5
12B
330
125
100
AcDbEntity
  8
callout
370
     0
100
AcDbVertex
100
AcDb2dVertex
 10
2.871340064253167
 20
4.240231931686594
 30
0.0
  0
VERTEX
  5
12C
330
125
100
AcDbEntity
  8
callout
370
     0
100
AcDbVertex
100
AcDb2dVertex
 10
2.794450606536505
 20
4.392536183899917
 30
0.0
  0
VERTEX
  5
12D
330
125
100
AcDbEntity
  8
callout
370
     0
100
AcDbVertex
100
AcDb2dVertex
 10
2.726236652909443
 20
4.182543278995303
 30
0.0
  0
VERTEX
  5
12E
330
125
100
AcDbEntity
  8
callout
370
     0
100
AcDbVertex
100
AcDb2dVertex
 10
2.779820395116985
 20
4.204628732249274
 30
0.0
  0
VERTEX
  5
12F
330
125
100
AcDbEntity
  8
callout
370
     0
100
AcDbVertex
100
AcDb2dVertex
 10
2.780514819669684
 20
3.583364328551877
 30
0.0
  0
VERTEX
  5
130
330
125
100
AcDbEntity
  8
callout
370
     0
100
AcDbVertex
100
AcDb2dVertex
 10
2.726236652909443
 20
3.561973088100305
 30
0.0
  0
SEQEND
  5
132
330
125
100
AcDbEntity
  8
callout
370
     0
  0
HATCH
  5
131
330
1F
100
AcDbEntity
  8
callout
 62
     7
420
 16777215
100
AcDbHatch
 10
0.0
 20
0.0
 30
0.0
210
0.0
220
0.0
230
1.0
  2
SOLID
 70
     1
 71
     0
 91
        1
 92
        1
 93
       10
 72
     1
 10
2.726236652909443
 20
3.561973088100305
 11
2.806472342502047
 21
3.404153940394634
 72
     1
 10
2.806472342502047
 20
3.404153940394634
 11
2.877363761675219
 21
3.620821636716098
 72
     1
 10
2.877363761675219
 20
3.620821636716098
 11
2.822999569050075
 21
3.600228094205186
 72
     1
 10
2.822999569050075
 20
3.600228094205186
 11
2.822999569050075
 21
4.221432131571924
 72
     1
 10
2.822999569050075
 20
4.221432131571924
 11
2.871340064253167
 21
4.240231931686594
 72
     1
 10
2.871340064253167
 20
4.240231931686594
 11
2.794450606536505
 21
4.392536183899917
 72
     1
 10
2.794450606536505
 20
4.392536183899917
 11
2.726236652909443
 21
4.182543278995303
 72
     1
 10
2.726236652909443
 20
4.182543278995303
 11
2.779820395116985
 21
4.204628732249274
 72
     1
 10
2.779820395116985
 20
4.204628732249274
 11
2.780514819669684
 21
3.583364328551877
 72
     1
 10
2.780514819669684
 20
3.583364328551877
 11
2.726236652909443
 21
3.561973088100305
 97
        0
 75
     2
 76
     1
 98
        0
  0
POLYLINE
  5
133
330
1F
100
AcDbEntity
  8
callout
370
     0
100
AcDb2dPolyline
 66
     1
 10
0.0
 20
0.0
 30
0.0
  0
VERTEX
  5
134
330
133
100
AcDbEntity
  8
callout
370
     0
100
AcDbVertex
100
AcDb2dVertex
 10
2.932189325541711
 20
3.851321846516435
 30
0.0
  0
VERTEX
  5
135
330
133
100
AcDbEntity
  8
callout
370
     0
100
AcDbVertex
100
AcDb2dVertex
 10
2.90833600117604
 20
3.841783966274786
 30
0.0
  0
VERTEX
  5
136
330
133
100
AcDbEntity
  8
callout
370
     0
100
AcDbVertex
100
AcDb2dVertex
 10
2.90833600117604
 20
4.053122369300821
 30
0.0
  0
VERTEX
  5
137
330
133
100
AcDbEntity
  8
callout
370
     0
100
AcDbVertex
100
AcDb2dVertex
 10
3.030595068251993
 20
4.101906796897993
 30
0.0
  0
VERTEX
  5
138
330
133
100
AcDbEntity
  8
callout
370
     0
100
AcDbVertex
100
AcDb2dVertex
 10
3.030595068251993
 20
4.076579001229106
 30
0.0
  0
VERTEX
  5
139
330
133
100
AcDbEntity
  8
callout
370
     0
100
AcDbVertex
100
AcDb2dVertex
 10
2.932189325541711
 20
4.037332070632589
 30
0.0
  0
VERTEX
  5
13A
330
133
100
AcDbEntity
  8
callout
370
     0
100
AcDbVertex
100
AcDb2dVertex
 10
2.932189325541711
 20
3.972571933494527
 30
0.0
  0
VERTEX
  5
13B
330
133
100
AcDbEntity
  8
callout
370
     0
100
AcDbVertex
100
AcDb2dVertex
 10
3.018784826849696
 20
4.007118722145593
 30
0.0
  0
VERTEX
  5
13C
330
133
100
AcDbEntity
  8
callout
370
     0
100
AcDbVertex
100
AcDb2dVertex
 10
3.018784826849696
 20
3.981812293963685
 30
0.0
  0
VERTEX
  5
13D
330
133
100
AcDbEntity
  8
callout
370
     0
100
AcDbVertex
100
AcDb2dVertex
 10
2.932189325541711
 20
3.947265693962688
 30
0.0
  0
VERTEX
  5
13E
330
133
100
AcDbEntity
  8
callout
370
     0
100
AcDbVertex
100
AcDb2dVertex
 10
2.932189325541711
 20
3.851321846516435
 30
0.0
  0
SEQEND
  5
13F
330
133
100
AcDbEntity
  8
callout
370
     0
  0
HATCH
  5
140
330
1F
100
AcDbEntity
  8
callout
 62
     7
420
 16777215
100
AcDbHatch
 10
0.0
 20
0.0
 30
0.0
210
0.0
220
0.0
230
1.0
  2
SOLID
 70
     1
 71
     0
 91
        1
 92
        1
 93
       10
 72
     1
 10
2.932189325541711
 20
3.851321846516435
 11
2.90833600117604
 21
3.841783966274786
 72
     1
 10
2.90833600117604
 20
3.841783966274786
 11
2.90833600117604
 21
4.053122369300821
 72
     1
 10
2.90833600117604
 20
4.053122369300821
 11
3.030595068251993
 21
4.101906796897993
 72
     1
 10
3.030595068251993
 20
4.101906796897993
 11
3.030595068251993
 21
4.076579001229106
 72
     1
 10
3.030595068251993
 20
4.076579001229106
 11
2.932189325541711
 21
4.037332070632589
 72
     1
 10
2.932189325541711
 20
4.037332070632589
 11
2.932189325541711
 21
3.972571933494527
 72
     1
 10
2.932189325541711
 20
3.972571933494527
 11
3.018784826849696
 21
4.007118722145593
 72
     1
 10
3.018784826849696
 20
4.007118722145593
 11
3.018784826849696
 21
3.981812293963685
 72
     1
 10
3.018784826849696
 20
3.981812293963685
 11
2.932189325541711
 21
3.947265693962688
 72
     1
 10
2.932189325541711
 20
3.947265693962688
 11
2.932189325541711
 21
3.851321846516435
 97
        0
 75
     2
 76
     1
 98
        0
  0
SPLINE
  5
141
330
1F
100
AcDbEntity
  8
callout
370
     0
100
AcDbSpline
210
0.0
220
0.0
230
1.0
 70
    11
 71
     3
 72
    26
 73
    22
 74
     0
 42
0.0000000001
 43
0.0000000001
 12
1.0
 22
0.0
 32
0.0
 13
1.0
 23
0.0
 33
0.0
 40
0.0
 40
0.0
 40
0.0
 40
0.0
 40
1.0
 40
1.0
 40
1.0
 40
2.0
 40
2.0
 40
2.0
 40
3.0
 40
3.0
 40
3.0
 40
4.0
 40
4.0
 40
4.0
 40
5.0
 40
5.0
 40
5.0
 40
6.0
 40
6.0
 40
6.0
 40
7.0
 40
7.0
 40
7.0
 40
7.0
 10
3.100348363310458
 20
3.817318354841164
 30
0.0
 10
3.100348363310458
 20
3.817318354841164
 30
0.0
 10
3.079336568365787
 20
3.808940555679656
 30
0.0
 10
3.079336568365787
 20
3.808940555679656
 30
0.0
 10
3.079336568365787
 20
3.808940555679656
 30
0.0
 10
3.079336568365787
 20
3.942462070145704
 30
0.0
 10
3.079336568365787
 20
3.942462070145704
 30
0.0
 10
3.079336568365787
 20
3.942462070145704
 30
0.0
 10
3.042659710619167
 20
3.927831858726234
 30
0.0
 10
3.042659710619167
 20
3.927831858726234
 30
0.0
 10
3.042659710619167
 20
3.927831858726234
 30
0.0
 10
3.042659710619167
 20
3.94657129251022
 30
0.0
 10
3.042659710619167
 20
3.94657129251022
 30
0.0
 10
3.068155861554487
 20
3.958864653500718
 30
0.0
 10
3.078659603086433
 20
3.966000627215875
 30
0.0
 10
3.084937701473336
 20
3.999266977244891
 30
0.0
 10
3.084937701473336
 20
3.999266977244891
 30
0.0
 10
3.100348363310458
 20
4.005437088649058
 30
0.0
 10
3.100348363310458
 20
4.005437088649058
 30
0.0
 10
3.100348363310458
 20
4.005437088649058
 30
0.0
 10
3.100348363310458
 20
3.817318354841164
 30
0.0
 10
3.100348363310458
 20
3.817318354841164
 30
0.0
  0
HATCH
  5
142
330
1F
100
AcDbEntity
  8
callout
 62
     7
420
 16777215
100
AcDbHatch
 10
0.0
 20
0.0
 30
0.0
210
0.0
220
0.0
230
1.0
  2
SOLID
 70
     1
 71
     0
 91
        1
 92
        1
 93
        1
 72
     4
 94
        3
 73
     0
 74
     1
 95
       26
 96
       22
 40
0.0
 40
0.0
 40
0.0
 40
0.0
 40
1.0
 40
1.0
 40
1.0
 40
2.0
 40
2.0
 40
2.0
 40
3.0
 40
3.0
 40
3.0
 40
4.0
 40
4.0
 40
4.0
 40
5.0
 40
5.0
 40
5.0
 40
6.0
 40
6.0
 40
6.0
 40
7.0
 40
7.0
 40
7.0
 40
7.0
 10
3.100348363310458
 20
3.817318354841164
 10
3.100348363310458
 20
3.817318354841164
 10
3.079336568365787
 20
3.808940555679656
 10
3.079336568365787
 20
3.808940555679656
 10
3.079336568365787
 20
3.808940555679656
 10
3.079336568365787
 20
3.942462070145704
 10
3.079336568365787
 20
3.942462070145704
 10
3.079336568365787
 20
3.942462070145704
 10
3.042659710619167
 20
3.927831858726234
 10
3.042659710619167
 20
3.927831858726234
 10
3.042659710619167
 20
3.927831858726234
 10
3.042659710619167
 20
3.94657129251022
 10
3.042659710619167
 20
3.94657129251022
 10
3.068155861554487
 20
3.958864653500718
 10
3.078659603086433
 20
3.966000627215875
 10
3.084937701473336
 20
3.999266977244891
 10
3.084937701473336
 20
3.999266977244891
 10
3.100348363310458
 20
4.005437088649058
 10
3.100348363310458
 20
4.005437088649058
 10
3.100348363310458
 20
4.005437088649058
 10
3.100348363310458
 20
3.817318354841164
 10
3.100348363310458
 20
3.817318354841164
 97
        0
 97
        0
 75
     2
 76
     1
 98
        0
  0
POLYLINE
  5
143
330
1F
100
AcDbEntity
  8
callout
370
     0
100
AcDb2dPolyline
 66
     1
 10
0.0
 20
0.0
 30
0.0
  0
VERTEX
  5
144
330
143
100
AcDbEntity
  8
callout
370
     0
100
AcDbVertex
100
AcDb2dVertex
 10
1.078460044143917
 20
1.993125456651038
 30
0.0
  0
VERTEX
  5
145
330
143
100
AcDbEntity
  8
callout
370
     0
100
AcDbVertex
100
AcDb2dVertex
 10
1.078460044143917
 20
1.948976109546897
 30
0.0
  0
VERTEX
  5
146
330
143
100
AcDbEntity
  8
callout
370
     0
100
AcDbVertex
100
AcDb2dVertex
 10
1.824993207687915
 20
2.242511704181223
 30
0.0
  0
VERTEX
  5
147
330
143
100
AcDbEntity
  8
callout
370
     0
100
AcDbVertex
100
AcDb2dVertex
 10
1.825562563574383
 20
2.185202496996832
 30
0.0
  0
VERTEX
  5
148
330
143
100
AcDbEntity
  8
callout
370
     0
100
AcDbVertex
100
AcDb2dVertex
 10
1.991953542605314
 20
2.326140631526161
 30
0.0
  0
VERTEX
  5
149
330
143
100
AcDbEntity
  8
callout
370
     0
100
AcDbVertex
100
AcDb2dVertex
 10
1.825562563574383
 20
2.347553431381534
 30
0.0
  0
VERTEX
  5
14A
330
143
100
AcDbEntity
  8
callout
370
     0
100
AcDbVertex
100
AcDb2dVertex
 10
1.824993207687915
 20
2.285949590959919
 30
0.0
  0
VERTEX
  5
14B
330
143
100
AcDbEntity
  8
callout
370
     0
100
AcDbVertex
100
AcDb2dVertex
 10
1.078460044143917
 20
1.993125456651038
 30
0.0
  0
SEQEND
  5
14D
330
143
100
AcDbEntity
  8
callout
370
     0
  0
HATCH
  5
14C
330
1F
100
AcDbEntity
  8
callout
 62
     7
420
 16777215
100
AcDbHatch
 10
0.0
 20
0.0
 30
0.0
210
0.0
220
0.0
230
1.0
  2
SOLID
 70
     1
 71
     0
 91
        1
 92
        1
 93
        7
 72
     1
 10
1.078460044143917
 20
1.993125456651038
 11
1.078460044143917
 21
1.948976109546897
 72
     1
 10
1.078460044143917
 20
1.948976109546897
 11
1.824993207687915
 21
2.242511704181223
 72
     1
 10
1.824993207687915
 20
2.242511704181223
 11
1.825562563574383
 21
2.185202496996832
 72
     1
 10
1.825562563574383
 20
2.185202496996832
 11
1.991953542605314
 21
2.326140631526161
 72
     1
 10
1.991953542605314
 20
2.326140631526161
 11
1.825562563574383
 21
2.347553431381534
 72
     1
 10
1.825562563574383
 20
2.347553431381534
 11
1.824993207687915
 21
2.285949590959919
 72
     1
 10
1.824993207687915
 20
2.285949590959919
 11
1.078460044143917
 21
1.993125456651038
 97
        0
 75
     2
 76
     1
 98
        0
  0
POLYLINE
  5
14E
330
1F
100
AcDbEntity
  8
callout
370
     0
100
AcDb2dPolyline
 66
     1
 10
0.0
 20
0.0
 30
0.0
  0
VERTEX
  5
14F
330
14E
100
AcDbEntity
  8
callout
370
     0
100
AcDbVertex
100
AcDb2dVertex
 10
1.137222355144521
 20
2.178527705579982
 30
0.0
  0
VERTEX
  5
150
330
14E
100
AcDbEntity
  8
callout
370
     0
100
AcDbVertex
100
AcDb2dVertex
 10
1.11115703594885
 20
2.168295612535897
 30
0.0
  0
VERTEX
  5
151
330
14E
100
AcDbEntity
  8
callout
370
     0
100
AcDbVertex
100
AcDb2dVertex
 10
1.110566477848528
 20
2.398838941143847
 30
0.0
  0
VERTEX
  5
152
330
14E
100
AcDbEntity
  8
callout
370
     0
100
AcDbVertex
100
AcDb2dVertex
 10
1.244131126713998
 20
2.451245539903867
 30
0.0
  0
VERTEX
  5
153
330
14E
100
AcDbEntity
  8
callout
370
     0
100
AcDbVertex
100
AcDb2dVertex
 10
1.244217364329201
 20
2.423619470032463
 30
0.0
  0
VERTEX
  5
154
330
14E
100
AcDbEntity
  8
callout
370
     0
100
AcDbVertex
100
AcDb2dVertex
 10
1.136713553214817
 20
2.381449275132
 30
0.0
  0
VERTEX
  5
155
330
14E
100
AcDbEntity
  8
callout
370
     0
100
AcDbVertex
100
AcDb2dVertex
 10
1.136881716564466
 20
2.310811895423487
 30
0.0
  0
VERTEX
  5
156
330
14E
100
AcDbEntity
  8
callout
370
     0
100
AcDbVertex
100
AcDb2dVertex
 10
1.231480068563441
 20
2.347932876888434
 30
0.0
  0
VERTEX
  5
157
330
14E
100
AcDbEntity
  8
callout
370
     0
100
AcDbVertex
100
AcDb2dVertex
 10
1.231561994297888
 20
2.320306804407184
 30
0.0
  0
VERTEX
  5
158
330
14E
100
AcDbEntity
  8
callout
370
     0
100
AcDbVertex
100
AcDb2dVertex
 10
1.136946394775868
 20
2.283211546677169
 30
0.0
  0
VERTEX
  5
159
330
14E
100
AcDbEntity
  8
callout
370
     0
100
AcDbVertex
100
AcDb2dVertex
 10
1.137222355144521
 20
2.178527705579982
 30
0.0
  0
SEQEND
  5
15A
330
14E
100
AcDbEntity
  8
callout
370
     0
  0
HATCH
  5
15B
330
1F
100
AcDbEntity
  8
callout
 62
     7
420
 16777215
100
AcDbHatch
 10
0.0
 20
0.0
 30
0.0
210
0.0
220
0.0
230
1.0
  2
SOLID
 70
     1
 71
     0
 91
        1
 92
        1
 93
       10
 72
     1
 10
1.137222355144521
 20
2.178527705579982
 11
1.11115703594885
 21
2.168295612535897
 72
     1
 10
1.11115703594885
 20
2.168295612535897
 11
1.110566477848528
 21
2.398838941143847
 72
     1
 10
1.110566477848528
 20
2.398838941143847
 11
1.244131126713998
 21
2.451245539903867
 72
     1
 10
1.244131126713998
 20
2.451245539903867
 11
1.244217364329201
 21
2.423619470032463
 72
     1
 10
1.244217364329201
 20
2.423619470032463
 11
1.136713553214817
 21
2.381449275132
 72
     1
 10
1.136713553214817
 20
2.381449275132
 11
1.136881716564466
 21
2.310811895423487
 72
     1
 10
1.136881716564466
 20
2.310811895423487
 11
1.231480068563441
 21
2.347932876888434
 72
     1
 10
1.231480068563441
 20
2.347932876888434
 11
1.231561994297888
 21
2.320306804407184
 72
     1
 10
1.231561994297888
 20
2.320306804407184
 11
1.136946394775868
 21
2.283211546677169
 72
     1
 10
1.136946394775868
 20
2.283211546677169
 11
1.137222355144521
 21
2.178527705579982
 97
        0
 75
     2
 76
     1
 98
        0
  0
SPLINE
  5
15C
330
1F
100
AcDbEntity
  8
callout
370
     0
100
AcDbSpline
210
0.0
220
0.0
230
1.0
 70
    11
 71
     3
 72
    47
 73
    43
 74
     0
 42
0.0000000001
 43
0.0000000001
 12
1.0
 22
0.0
 32
0.0
 13
1.0
 23
0.0
 33
0.0
 40
0.0
 40
0.0
 40
0.0
 40
0.0
 40
1.0
 40
1.0
 40
1.0
 40
2.0
 40
2.0
 40
2.0
 40
3.0
 40
3.0
 40
3.0
 40
4.0
 40
4.0
 40
4.0
 40
5.0
 40
5.0
 40
5.0
 40
6.0
 40
6.0
 40
6.0
 40
7.0
 40
7.0
 40
7.0
 40
8.0
 40
8.0
 40
8.0
 40
9.0
 40
9.0
 40
9.0
 40
10.0
 40
10.0
 40
10.0
 40
11.0
 40
11.0
 40
11.0
 40
12.0
 40
12.0
 40
12.0
 40
13.0
 40
13.0
 40
13.0
 40
14.0
 40
14.0
 40
14.0
 40
14.0
 10
1.2384049490644
 20
2.225945458300379
 30
0.0
 10
1.238258345118551
 20
2.287212972022669
 30
0.0
 10
1.275650975071383
 20
2.30803504421389
 30
0.0
 10
1.292661344670541
 20
2.314705523749985
 30
0.0
 10
1.319990044928962
 20
2.325446418723762
 30
0.0
 10
1.341993572448486
 20
2.312916093234485
 30
0.0
 10
1.342075498182933
 20
2.277864814534471
 30
0.0
 10
1.342161735798135
 20
2.244154530750873
 30
0.0
 10
1.323612024767562
 20
2.222681364564879
 30
0.0
 10
1.300138145908805
 20
2.198465842215367
 30
0.0
 10
1.300138145908805
 20
2.198465842215367
 30
0.0
 10
1.283800429708233
 20
2.181351987477936
 30
0.0
 10
1.283800429708233
 20
2.181351987477936
 30
0.0
 10
1.262344684443317
 20
2.158718925367414
 30
0.0
 10
1.25767043230116
 20
2.142169927009617
 30
0.0
 10
1.256786496745311
 20
2.134589640633092
 30
0.0
 10
1.256786496745311
 20
2.134589640633092
 30
0.0
 10
1.342351458551585
 20
2.168170567993861
 30
0.0
 10
1.342351458551585
 20
2.168170567993861
 30
0.0
 10
1.342351458551585
 20
2.168170567993861
 30
0.0
 10
1.342411824882232
 20
2.145960070197867
 30
0.0
 10
1.342411824882232
 20
2.145960070197867
 30
0.0
 10
1.342411824882232
 20
2.145960070197867
 30
0.0
 10
1.234679484087539
 20
2.103682079343672
 30
0.0
 10
1.234679484087539
 20
2.103682079343672
 30
0.0
 10
1.235710023589238
 20
2.143178907107489
 30
0.0
 10
1.25042647262396
 20
2.169856513371138
 30
0.0
 10
1.271438267568619
 20
2.192825902180933
 30
0.0
 10
1.271438267568619
 20
2.192825902180933
 30
0.0
 10
1.292243092236794
 20
2.215458964291454
 30
0.0
 10
1.292243092236794
 20
2.215458964291454
 30
0.0
 10
1.309020620274901
 20
2.233542992199924
 30
0.0
 10
1.321085262642062
 20
2.246051758285401
 30
0.0
 10
1.321024896311416
 20
2.270663973664871
 30
0.0
 10
1.320981777503814
 20
2.285652071187466
 30
0.0
 10
1.312875441674565
 20
2.301485297339089
 30
0.0
 10
1.289819815249542
 20
2.292430347742564
 30
0.0
 10
1.260029031077011
 20
2.28074946276307
 30
0.0
 10
1.258765823321925
 20
2.247039178979498
 30
0.0
 10
1.258114556019463
 20
2.233672348622728
 30
0.0
 10
1.258114556019463
 20
2.233672348622728
 30
0.0
 10
1.2384049490644
 20
2.225945458300379
 30
0.0
 10
1.2384049490644
 20
2.225945458300379
 30
0.0
  0
HATCH
  5
15D
330
1F
100
AcDbEntity
  8
callout
 62
     7
420
 16777215
100
AcDbHatch
 10
0.0
 20
0.0
 30
0.0
210
0.0
220
0.0
230
1.0
  2
SOLID
 70
     1
 71
     0
 91
        1
 92
        1
 93
        1
 72
     4
 94
        3
 73
     0
 74
     1
 95
       47
 96
       43
 40
0.0
 40
0.0
 40
0.0
 40
0.0
 40
1.0
 40
1.0
 40
1.0
 40
2.0
 40
2.0
 40
2.0
 40
3.0
 40
3.0
 40
3.0
 40
4.0
 40
4.0
 40
4.0
 40
5.0
 40
5.0
 40
5.0
 40
6.0
 40
6.0
 40
6.0
 40
7.0
 40
7.0
 40
7.0
 40
8.0
 40
8.0
 40
8.0
 40
9.0
 40
9.0
 40
9.0
 40
10.0
 40
10.0
 40
10.0
 40
11.0
 40
11.0
 40
11.0
 40
12.0
 40
12.0
 40
12.0
 40
13.0
 40
13.0
 40
13.0
 40
14.0
 40
14.0
 40
14.0
 40
14.0
 10
1.2384049490644
 20
2.225945458300379
 10
1.238258345118551
 20
2.287212972022669
 10
1.275650975071383
 20
2.30803504421389
 10
1.292661344670541
 20
2.314705523749985
 10
1.319990044928962
 20
2.325446418723762
 10
1.341993572448486
 20
2.312916093234485
 10
1.342075498182933
 20
2.277864814534471
 10
1.342161735798135
 20
2.244154530750873
 10
1.323612024767562
 20
2.222681364564879
 10
1.300138145908805
 20
2.198465842215367
 10
1.300138145908805
 20
2.198465842215367
 10
1.283800429708233
 20
2.181351987477936
 10
1.283800429708233
 20
2.181351987477936
 10
1.262344684443317
 20
2.158718925367414
 10
1.25767043230116
 20
2.142169927009617
 10
1.256786496745311
 20
2.134589640633092
 10
1.256786496745311
 20
2.134589640633092
 10
1.342351458551585
 20
2.168170567993861
 10
1.342351458551585
 20
2.168170567993861
 10
1.342351458551585
 20
2.168170567993861
 10
1.342411824882232
 20
2.145960070197867
 10
1.342411824882232
 20
2.145960070197867
 10
1.342411824882232
 20
2.145960070197867
 10
1.234679484087539
 20
2.103682079343672
 10
1.234679484087539
 20
2.103682079343672
 10
1.235710023589238
 20
2.143178907107489
 10
1.25042647262396
 20
2.169856513371138
 10
1.271438267568619
 20
2.192825902180933
 10
1.271438267568619
 20
2.192825902180933
 10
1.292243092236794
 20
2.215458964291454
 10
1.292243092236794
 20
2.215458964291454
 10
1.309020620274901
 20
2.233542992199924
 10
1.321085262642062
 20
2.246051758285401
 10
1.321024896311416
 20
2.270663973664871
 10
1.320981777503814
 20
2.285652071187466
 10
1.312875441674565
 20
2.301485297339089
 10
1.289819815249542
 20
2.292430347742564
 10
1.260029031077011
 20
2.28074946276307
 10
1.258765823321925
 20
2.247039178979498
 10
1.258114556019463
 20
2.233672348622728
 10
1.258114556019463
 20
2.233672348622728
 10
1.2384049490644
 20
2.225945458300379
 10
1.2384049490644
 20
2.225945458300379
 97
        0
 97
        0
 75
     2
 76
     1
 98
        0
  0
MTEXT
  5
15E
330
1F
100
AcDbEntity
  8
callout
 62
   250
420
  2236191
100
AcDbMText
 10
1.963442325592041
 20
1.116476875212457
 30
0.0
 40
0.118
 41
0.0
 46
0.0
 71
     7
 72
     1
  1
\fHelvetica Neue LT Std 55 Roman|b0|i0|c0|p34;\W1;SIMPSON Strong-Tie\H0.068794;®\H0.118; ^C
 73
     1
 44
1.0
  0
MTEXT
  5
15F
330
1F
100
AcDbEntity
  8
callout
 62
   250
420
  2236191
100
AcDbMText
 10
1.386402395036485
 20
0.9164850132332907
 30
0.0
 40
0.118
 41
0.0
 46
0.0
 71
     7
 72
     1
  1
\fHelvetica Neue LT Std 55 Roman|b0|i0|c0|p34;\W1;A34/A34SS Joist-to-Beam Installation 
 73
     1
 44
1.0
  0
MTEXT
  5
160
330
1F
100
AcDbEntity
  8
callout
 62
   250
420
  2236191
100
AcDbMText
 10
2.6300597720676
 20
1.898177398575677
 30
0.0
 40
0.118
 41
0.0
 46
0.0
 71
     7
 72
     1
  1
\fHelvetica Neue LT Std 57 Condensed|b0|i0|c0|p34;\W1;A34 / A34SS
 73
     1
 44
1.0
  0
MTEXT
  5
161
330
1F
100
AcDbEntity
  8
callout
 62
   250
420
  2236191
100
AcDbMText
 10
3.569128036499023
 20
1.898177398575677
 30
0.0
 40
0.118
 41
0.0
 46
0.0
 71
     7
 72
     1
  1
\fHelvetica Neue LT Std 57 Condensed|b0|i0|c0|p34;\W1;Beam
 73
     1
 44
1.0
  0
POLYLINE
  5
162
330
1F
100
AcDbEntity
  8
callout
 62
   250
420
  2236191
370
    18
100
AcDb2dPolyline
 66
     1
 10
0.0
 20
0.0
 30
0.0
  0
VERTEX
  5
163
330
162
100
AcDbEntity
  8
callout
 62
   250
420
  2236191
370
    18
100
AcDbVertex
100
AcDb2dVertex
 10
2.936390995040256
 20
2.086387326094635
 30
0.0
  0
VERTEX
  5
164
330
162
100
AcDbEntity
  8
callout
 62
   250
420
  2236191
370
    18
100
AcDbVertex
100
AcDb2dVertex
 10
2.953179802399593
 20
2.585786368896442
 30
0.0
  0
SEQEND
  5
165
330
162
100
AcDbEntity
  8
callout
 62
   250
420
  2236191
370
    18
  0
POLYLINE
  5
166
330
1F
100
AcDbEntity
  8
callout
 62
   250
420
  2236191
370
    18
100
AcDb2dPolyline
 66
     1
 10
0.0
 20
0.0
 30
0.0
  0
VERTEX
  5
167
330
166
100
AcDbEntity
  8
callout
 62
   250
420
  2236191
370
    18
100
AcDbVertex
100
AcDb2dVertex
 10
3.740786110466413
 20
2.057713490969213
 30
0.0
  0
VERTEX
  5
168
330
166
100
AcDbEntity
  8
callout
 62
   250
420
  2236191
370
    18
100
AcDbVertex
100
AcDb2dVertex
 10
3.642142541982391
 20
2.454888425888561
 30
0.0
  0
SEQEND
  5
169
330
166
100
AcDbEntity
  8
callout
 62
   250
420
  2236191
370
    18
  0
MTEXT
  5
16A
330
1F
100
AcDbEntity
  8
callout
 62
   250
420
  2236191
100
AcDbMText
 10
2.236971749199761
 20
3.955912272135417
 30
0.0
 40
0.118
 41
0.0
 46
0.0
 71
     7
 72
     1
  1
\fHelvetica Neue LT Std 57 Condensed|b0|i0|c0|p34;\W1;Joist
 73
     1
 44
1.0
  0
POLYLINE
  5
16B
330
1F
100
AcDbEntity
  8
callout
 62
   250
420
  2236191
370
    18
100
AcDb2dPolyline
 66
     1
 10
0.0
 20
0.0
 30
0.0
  0
VERTEX
  5
16C
330
16B
100
AcDbEntity
  8
callout
 62
   250
420
  2236191
370
    18
100
AcDbVertex
100
AcDb2dVertex
 10
2.327643647707734
 20
3.901228213857975
 30
0.0
  0
VERTEX
  5
16D
330
16B
100
AcDbEntity
  8
callout
 62
   250
420
  2236191
370
    18
100
AcDbVertex
100
AcDb2dVertex
 10
2.130239205385818
 20
3.604773368084314
 30
0.0
  0
SEQEND
  5
16E
330
16B
100
AcDbEntity
  8
callout
 62
   250
420
  2236191
370
    18
  0
ENDSEC
  0
SECTION
  2
OBJECTS
  0
DICTIONARY
  5
C
330
0
100
AcDbDictionary
281
     1
  3
ACAD_GROUP
350
D
  3
ACAD_LAYOUT
350
1A
  3
ACAD_MATERIAL
350
3B
  3
ACAD_MLEADERSTYLE
350
170
  3
ACAD_MLINESTYLE
350
17
  3
ACAD_PLOTSETTINGS
350
19
  3
ACAD_PLOTSTYLENAME
350
E
  3
ACAD_TABLESTYLE
350
16F
  3
ACAD_VISUALSTYLE
350
2A
  0
SUN
  5
3F
330
29
100
AcDbSun
 90
        1
290
     0
 63
     7
421
 16777215
 40
1.0
291
     1
 91
  2455826
 92
 54000000
292
     0
 70
     2
 71
   256
280
     1
  0
DICTIONARY
  5
D
102
{ACAD_REACTORS
330
C
102
}
330
C
100
AcDbDictionary
281
     1
  0
DICTIONARY
  5
1A
102
{ACAD_REACTORS
330
C
102
}
330
C
100
AcDbDictionary
281
     1
  3
Layout1
350
1E
  3
Layout2
350
26
  3
Model
350
22
  0
DICTIONARY
  5
3B
102
{ACAD_REACTORS
330
C
102
}
330
C
100
AcDbDictionary
281
     1
  3
ByBlock
350
3D
  3
ByLayer
350
3C
  3
Global
350
3E
  0
DICTIONARY
  5
170
102
{ACAD_REACTORS
330
C
102
}
330
C
100
AcDbDictionary
281
     1
  0
DICTIONARY
  5
17
102
{ACAD_REACTORS
330
C
102
}
330
C
100
AcDbDictionary
281
     1
  3
Standard
350
18
  0
DICTIONARY
  5
19
102
{ACAD_REACTORS
330
C
102
}
330
C
100
AcDbDictionary
281
     1
  0
ACDBDICTIONARYWDFLT
  5
E
102
{ACAD_REACTORS
330
C
102
}
330
C
100
AcDbDictionary
281
     1
  3
Normal
350
F
100
AcDbDictionaryWithDefault
340
F
  0
DICTIONARY
  5
16F
102
{ACAD_REACTORS
330
C
102
}
330
C
100
AcDbDictionary
281
     1
  0
DICTIONARY
  5
2A
102
{ACAD_REACTORS
330
C
102
}
330
C
100
AcDbDictionary
281
     1
  3
2dWireframe
350
2F
  3
3D Hidden
350
31
  3
3dWireframe
350
30
  3
Basic
350
32
  3
Brighten
350
36
  3
ColorChange
350
3A
  3
Conceptual
350
34
  3
Dim
350
35
  3
Facepattern
350
39
  3
Flat
350
2B
  3
FlatWithEdges
350
2C
  3
Gouraud
350
2D
  3
GouraudWithEdges
350
2E
  3
Linepattern
350
38
  3
Realistic
350
33
  3
Thicken
350
37
  0
LAYOUT
  5
1E
102
{ACAD_REACTORS
330
1A
102
}
330
1A
100
AcDbPlotSettings
  1

  2
none_device
  4

  6

 40
0.0
 41
0.0
 42
0.0
 43
0.0
 44
0.0
 45
0.0
 46
0.0
 47
0.0
 48
0.0
 49
0.0
140
0.0
141
0.0
142
1.0
143
1.0
 70
   688
 72
     0
 73
     0
 74
     5
  7

 75
    16
 76
     0
 77
     2
 78
   300
147
1.0
148
0.0
149
0.0
100
AcDbLayout
  1
Layout1
 70
     1
 71
     1
 10
0.0
 20
0.0
 11
12.0
 21
9.0
 12
0.0
 22
0.0
 32
0.0
 14
1.000000000000000E+20
 24
1.000000000000000E+20
 34
1.000000000000000E+20
 15
-1.000000000000000E+20
 25
-1.000000000000000E+20
 35
-1.000000000000000E+20
146
0.0
 13
0.0
 23
0.0
 33
0.0
 16
1.0
 26
0.0
 36
0.0
 17
0.0
 27
1.0
 37
0.0
 76
     0
330
1B
  0
LAYOUT
  5
26
102
{ACAD_REACTORS
330
1A
102
}
330
1A
100
AcDbPlotSettings
  1

  2
none_device
  4

  6

 40
0.0
 41
0.0
 42
0.0
 43
0.0
 44
0.0
 45
0.0
 46
0.0
 47
0.0
 48
0.0
 49
0.0
140
0.0
141
0.0
142
1.0
143
1.0
 70
   688
 72
     0
 73
     0
 74
     5
  7

 75
    16
 76
     0
 77
     2
 78
   300
147
1.0
148
0.0
149
0.0
100
AcDbLayout
  1
Layout2
 70
     1
 71
     2
 10
0.0
 20
0.0
 11
0.0
 21
0.0
 12
0.0
 22
0.0
 32
0.0
 14
0.0
 24
0.0
 34
0.0
 15
0.0
 25
0.0
 35
0.0
146
0.0
 13
0.0
 23
0.0
 33
0.0
 16
1.0
 26
0.0
 36
0.0
 17
0.0
 27
1.0
 37
0.0
 76
     0
330
23
  0
LAYOUT
  5
22
102
{ACAD_REACTORS
330
1A
102
}
330
1A
100
AcDbPlotSettings
  1

  2
none_device
  4

  6

 40
0.0
 41
0.0
 42
0.0
 43
0.0
 44
0.0
 45
0.0
 46
0.0
 47
0.0
 48
0.0
 49
0.0
140
0.0
141
0.0
142
1.0
143
1.0
 70
  1712
 72
     0
 73
     0
 74
     0
  7

 75
     0
 76
     0
 77
     2
 78
   300
147
1.0
148
0.0
149
0.0
100
AcDbLayout
  1
Model
 70
     1
 71
     0
 10
0.0
 20
0.0
 11
12.0
 21
9.0
 12
0.0
 22
0.0
 32
0.0
 14
1.000000000000000E+20
 24
1.000000000000000E+20
 34
1.000000000000000E+20
 15
-1.000000000000000E+20
 25
-1.000000000000000E+20
 35
-1.000000000000000E+20
146
0.0
 13
0.0
 23
0.0
 33
0.0
 16
1.0
 26
0.0
 36
0.0
 17
0.0
 27
1.0
 37
0.0
 76
     0
330
1F
331
29
  0
MATERIAL
  5
3D
102
{ACAD_REACTORS
330
3B
102
}
330
3B
100
AcDbMaterial
  1
ByBlock
 72
     1
 94
      127
  0
MATERIAL
  5
3C
102
{ACAD_REACTORS
330
3B
102
}
330
3B
100
AcDbMaterial
  1
ByLayer
 72
     1
 94
      127
  0
MATERIAL
  5
3E
102
{ACAD_REACTORS
330
3B
102
}
330
3B
100
AcDbMaterial
  1
Global
 72
     1
 94
      127
  0
MLINESTYLE
  5
18
102
{ACAD_REACTORS
330
17
102
}
330
17
100
AcDbMlineStyle
  2
Standard
 70
     0
  3

 62
   256
 51
90.0
 52
90.0
 71
     2
 49
0.5
 62
   256
  6
BYLAYER
 49
-0.5
 62
   256
  6
BYLAYER
  0
ACDBPLACEHOLDER
  5
F
102
{ACAD_REACTORS
330
E
102
}
330
E
  0
VISUALSTYLE
  5
2F
102
{ACAD_REACTORS
330
2A
102
}
330
2A
100
AcDbVisualStyle
  2
2dWireframe
 70
     4
177
     2
291
     0
 71
     0
176
     1
 72
     2
176
     1
 73
     0
176
     1
 90
        0
176
     1
 40
-0.6
176
     1
 41
-30.0
176
     1
 62
     5
 63
     7
421
 16777215
176
     1
 74
     1
176
     1
 91
        4
176
     1
 64
     7
176
     1
 65
   257
176
     1
 75
     1
176
     1
175
     1
176
     1
 42
1.0
176
     1
 92
        0
176
     1
 66
   257
176
     1
 43
1.0
176
     1
 76
     1
176
     1
 77
     6
176
     1
 78
     2
176
     1
 67
     7
176
     1
 79
     5
176
     1
170
     0
176
     1
171
     0
176
     1
290
     0
176
     1
 93
        1
176
     1
 44
0.0
176
     1
173
     0
176
     1
  0
VISUALSTYLE
  5
31
102
{ACAD_REACTORS
330
2A
102
}
330
2A
100
AcDbVisualStyle
  2
3D Hidden
 70
     6
177
     2
291
     0
 71
     1
176
     1
 72
     2
176
     1
 73
     2
176
     1
 90
        0
176
     1
 40
-0.6
176
     1
 41
-30.0
176
     1
 62
     5
 63
     7
421
 16777215
176
     1
 74
     2
176
     1
 91
        2
176
     1
 64
     7
176
     1
 65
   257
176
     1
 75
     2
176
     1
175
     1
176
     1
 42
40.0
176
     1
 92
        0
176
     1
 66
   257
176
     1
 43
1.0
176
     1
 76
     1
176
     1
 77
     6
176
     1
 78
     2
176
     1
 67
     7
176
     1
 79
     3
176
     1
170
     0
176
     1
171
     0
176
     1
290
     0
176
     1
 93
        1
176
     1
 44
0.0
176
     1
173
     0
176
     1
  0
VISUALSTYLE
  5
30
102
{ACAD_REACTORS
330
2A
102
}
330
2A
100
AcDbVisualStyle
  2
3dWireframe
 70
     5
177
     2
291
     0
 71
     0
176
     1
 72
     2
176
     1
 73
     0
176
     1
 90
        0
176
     1
 40
-0.6
176
     1
 41
-30.0
176
     1
 62
     5
 63
     7
421
 16777215
176
     1
 74
     1
176
     1
 91
        4
176
     1
 64
     7
176
     1
 65
   257
176
     1
 75
     1
176
     1
175
     1
176
     1
 42
1.0
176
     1
 92
        0
176
     1
 66
   257
176
     1
 43
1.0
176
     1
 76
     1
176
     1
 77
     6
176
     1
 78
     2
176
     1
 67
     7
176
     1
 79
     5
176
     1
170
     0
176
     1
171
     0
176
     1
290
     0
176
     1
 93
        1
176
     1
 44
0.0
176
     1
173
     0
176
     1
  0
VISUALSTYLE
  5
32
102
{ACAD_REACTORS
330
2A
102
}
330
2A
100
AcDbVisualStyle
  2
Basic
 70
     7
177
     2
291
     1
 71
     1
176
     1
 72
     0
176
     1
 73
     1
176
     1
 90
        0
176
     1
 40
-0.6
176
     1
 41
-30.0
176
     1
 62
     5
 63
     7
421
 16777215
176
     1
 74
     0
176
     1
 91
        4
176
     1
 64
     7
176
     1
 65
   257
176
     1
 75
     1
176
     1
175
     1
176
     1
 42
1.0
176
     1
 92
        8
176
     1
 66
     7
176
     1
 43
1.0
176
     1
 76
     1
176
     1
 77
     6
176
     1
 78
     2
176
     1
 67
     7
176
     1
 79
     5
176
     1
170
     0
176
     1
171
     0
176
     1
290
     0
176
     1
 93
        1
176
     1
 44
0.0
176
     1
173
     0
176
     1
  0
VISUALSTYLE
  5
36
102
{ACAD_REACTORS
330
2A
102
}
330
2A
100
AcDbVisualStyle
  2
Brighten
 70
    12
177
     2
291
     1
 71
     2
176
     1
 72
     2
176
     1
 73
     0
176
     1
 90
        0
176
     1
 40
-0.6
176
     1
 41
-30.0
176
     1
 62
     5
 63
     7
421
 16777215
176
     1
 74
     1
176
     1
 91
        4
176
     1
 64
     7
176
     1
 65
   257
176
     1
 75
     1
176
     1
175
     1
176
     1
 42
1.0
176
     1
 92
        8
176
     1
 66
     7
176
     1
 43
1.0
176
     1
 76
     1
176
     1
 77
     6
176
     1
 78
     2
176
     1
 67
     7
176
     1
 79
     5
176
     1
170
     0
176
     1
171
     0
176
     1
290
     0
176
     1
 93
        1
176
     1
 44
50.0
176
     1
173
     0
176
     1
  0
VISUALSTYLE
  5
3A
102
{ACAD_REACTORS
330
2A
102
}
330
2A
100
AcDbVisualStyle
  2
ColorChange
 70
    16
177
     2
291
     1
 71
     2
176
     1
 72
     2
176
     1
 73
     3
176
     1
 90
        0
176
     1
 40
-0.6
176
     1
 41
-30.0
176
     1
 62
     5
 63
     8
421
  8421504
176
     1
 74
     1
176
     1
 91
        4
176
     1
 64
     7
176
     1
 65
   257
176
     1
 75
     1
176
     1
175
     1
176
     1
 42
1.0
176
     1
 92
        8
176
     1
 66
     8
424
  8421504
176
     1
 43
1.0
176
     1
 76
     1
176
     1
 77
     6
176
     1
 78
     2
176
     1
 67
     7
176
     1
 79
     5
176
     1
170
     0
176
     1
171
     0
176
     1
290
     0
176
     1
 93
        1
176
     1
 44
0.0
176
     1
173
     0
176
     1
  0
VISUALSTYLE
  5
34
102
{ACAD_REACTORS
330
2A
102
}
330
2A
100
AcDbVisualStyle
  2
Conceptual
 70
     9
177
     2
291
     0
 71
     3
176
     1
 72
     2
176
     1
 73
     0
176
     1
 90
        0
176
     1
 40
-0.6
176
     1
 41
-30.0
176
     1
 62
     5
 63
     7
421
 16777215
176
     1
 74
     2
176
     1
 91
        2
176
     1
 64
     7
176
     1
 65
   257
176
     1
 75
     1
176
     1
175
     1
176
     1
 42
40.0
176
     1
 92
        8
176
     1
 66
     7
176
     1
 43
1.0
176
     1
 76
     1
176
     1
 77
     6
176
     1
 78
     2
176
     1
 67
     7
176
     1
 79
     3
176
     1
170
     0
176
     1
171
     0
176
     1
290
     0
176
     1
 93
        1
176
     1
 44
0.0
176
     1
173
     0
176
     1
  0
VISUALSTYLE
  5
35
102
{ACAD_REACTORS
330
2A
102
}
330
2A
100
AcDbVisualStyle
  2
Dim
 70
    11
177
     2
291
     1
 71
     2
176
     1
 72
     2
176
     1
 73
     0
176
     1
 90
        0
176
     1
 40
-0.6
176
     1
 41
-30.0
176
     1
 62
     5
 63
     7
421
 16777215
176
     1
 74
     1
176
     1
 91
        4
176
     1
 64
     7
176
     1
 65
   257
176
     1
 75
     1
176
     1
175
     1
176
     1
 42
1.0
176
     1
 92
        8
176
     1
 66
     7
176
     1
 43
1.0
176
     1
 76
     1
176
     1
 77
     6
176
     1
 78
     2
176
     1
 67
     7
176
     1
 79
     5
176
     1
170
     0
176
     1
171
     0
176
     1
290
     0
176
     1
 93
        1
176
     1
 44
-50.0
176
     1
173
     0
176
     1
  0
VISUALSTYLE
  5
39
102
{ACAD_REACTORS
330
2A
102
}
330
2A
100
AcDbVisualStyle
  2
Facepattern
 70
    15
177
     2
291
     1
 71
     2
176
     1
 72
     2
176
     1
 73
     0
176
     1
 90
        0
176
     1
 40
-0.6
176
     1
 41
-30.0
176
     1
 62
     5
 63
     7
421
 16777215
176
     1
 74
     1
176
     1
 91
        4
176
     1
 64
     7
176
     1
 65
   257
176
     1
 75
     1
176
     1
175
     1
176
     1
 42
1.0
176
     1
 92
        8
176
     1
 66
     7
176
     1
 43
1.0
176
     1
 76
     1
176
     1
 77
     6
176
     1
 78
     2
176
     1
 67
     7
176
     1
 79
     5
176
     1
170
     0
176
     1
171
     0
176
     1
290
     0
176
     1
 93
        1
176
     1
 44
0.0
176
     1
173
     0
176
     1
  0
VISUALSTYLE
  5
2B
102
{ACAD_REACTORS
330
2A
102
}
330
2A
100
AcDbVisualStyle
  2
Flat
 70
     0
177
     2
291
     1
 71
     2
176
     1
 72
     1
176
     1
 73
     1
176
     1
 90
        2
176
     1
 40
-0.6
176
     1
 41
30.0
176
     1
 62
     5
 63
     7
421
 16777215
176
     1
 74
     0
176
     1
 91
        4
176
     1
 64
     7
176
     1
 65
   257
176
     1
 75
     1
176
     1
175
     1
176
     1
 42
1.0
176
     1
 92
        8
176
     1
 66
     7
176
     1
 43
1.0
176
     1
 76
     1
176
     1
 77
     6
176
     1
 78
     2
176
     1
 67
     7
176
     1
 79
     5
176
     1
170
     0
176
     1
171
     0
176
     1
290
     0
176
     1
 93
       13
176
     1
 44
0.0
176
     1
173
     0
176
     1
  0
VISUALSTYLE
  5
2C
102
{ACAD_REACTORS
330
2A
102
}
330
2A
100
AcDbVisualStyle
  2
FlatWithEdges
 70
     1
177
     2
291
     1
 71
     2
176
     1
 72
     1
176
     1
 73
     1
176
     1
 90
        2
176
     1
 40
-0.6
176
     1
 41
30.0
176
     1
 62
     5
 63
     7
421
 16777215
176
     1
 74
     1
176
     1
 91
        4
176
     1
 64
     7
176
     1
 65
   257
176
     1
 75
     1
176
     1
175
     1
176
     1
 42
1.0
176
     1
 92
        0
176
     1
 66
   257
176
     1
 43
1.0
176
     1
 76
     1
176
     1
 77
     6
176
     1
 78
     2
176
     1
 67
     7
176
     1
 79
     5
176
     1
170
     0
176
     1
171
     0
176
     1
290
     0
176
     1
 93
       13
176
     1
 44
0.0
176
     1
173
     0
176
     1
  0
VISUALSTYLE
  5
2D
102
{ACAD_REACTORS
330
2A
102
}
330
2A
100
AcDbVisualStyle
  2
Gouraud
 70
     2
177
     2
291
     1
 71
     2
176
     1
 72
     2
176
     1
 73
     1
176
     1
 90
        2
176
     1
 40
-0.6
176
     1
 41
30.0
176
     1
 62
     5
 63
     7
421
 16777215
176
     1
 74
     0
176
     1
 91
        4
176
     1
 64
     7
176
     1
 65
   257
176
     1
 75
     1
176
     1
175
     1
176
     1
 42
1.0
176
     1
 92
        0
176
     1
 66
     7
176
     1
 43
1.0
176
     1
 76
     1
176
     1
 77
     6
176
     1
 78
     2
176
     1
 67
     7
176
     1
 79
     5
176
     1
170
     0
176
     1
171
     0
176
     1
290
     0
176
     1
 93
       13
176
     1
 44
0.0
176
     1
173
     0
176
     1
  0
VISUALSTYLE
  5
2E
102
{ACAD_REACTORS
330
2A
102
}
330
2A
100
AcDbVisualStyle
  2
GouraudWithEdges
 70
     3
177
     2
291
     1
 71
     2
176
     1
 72
     2
176
     1
 73
     1
176
     1
 90
        2
176
     1
 40
-0.6
176
     1
 41
30.0
176
     1
 62
     5
 63
     7
421
 16777215
176
     1
 74
     1
176
     1
 91
        4
176
     1
 64
     7
176
     1
 65
   257
176
     1
 75
     1
176
     1
175
     1
176
     1
 42
1.0
176
     1
 92
        0
176
     1
 66
   257
176
     1
 43
1.0
176
     1
 76
     1
176
     1
 77
     6
176
     1
 78
     2
176
     1
 67
     7
176
     1
 79
     5
176
     1
170
     0
176
     1
171
     0
176
     1
290
     0
176
     1
 93
       13
176
     1
 44
0.0
176
     1
173
     0
176
     1
  0
VISUALSTYLE
  5
38
102
{ACAD_REACTORS
330
2A
102
}
330
2A
100
AcDbVisualStyle
  2
Linepattern
 70
    14
177
     2
291
     1
 71
     2
176
     1
 72
     2
176
     1
 73
     0
176
     1
 90
        0
176
     1
 40
-0.6
176
     1
 41
-30.0
176
     1
 62
     5
 63
     7
421
 16777215
176
     1
 74
     1
176
     1
 91
        4
176
     1
 64
     7
176
     1
 65
   257
176
     1
 75
     7
176
     1
175
     7
176
     1
 42
1.0
176
     1
 92
        8
176
     1
 66
     7
176
     1
 43
1.0
176
     1
 76
     1
176
     1
 77
     6
176
     1
 78
     2
176
     1
 67
     7
176
     1
 79
     5
176
     1
170
     0
176
     1
171
     0
176
     1
290
     0
176
     1
 93
        1
176
     1
 44
0.0
176
     1
173
     0
176
     1
  0
VISUALSTYLE
  5
33
102
{ACAD_REACTORS
330
2A
102
}
330
2A
100
AcDbVisualStyle
  2
Realistic
 70
     8
177
     2
291
     0
 71
     2
176
     1
 72
     2
176
     1
 73
     0
176
     1
 90
        0
176
     1
 40
-0.6
176
     1
 41
-30.0
176
     1
 62
     5
 63
     7
421
 16777215
176
     1
 74
     1
176
     1
 91
        0
176
     1
 64
     7
176
     1
 65
   257
176
     1
 75
     1
176
     1
175
     1
176
     1
 42
1.0
176
     1
 92
        8
176
     1
 66
     8
424
  7895160
176
     1
 43
1.0
176
     1
 76
     1
176
     1
 77
     6
176
     1
 78
     2
176
     1
 67
     7
176
     1
 79
     5
176
     1
170
     0
176
     1
171
     0
176
     1
290
     0
176
     1
 93
       13
176
     1
 44
0.0
176
     1
173
     0
176
     1
  0
VISUALSTYLE
  5
37
102
{ACAD_REACTORS
330
2A
102
}
330
2A
100
AcDbVisualStyle
  2
Thicken
 70
    13
177
     2
291
     1
 71
     2
176
     1
 72
     2
176
     1
 73
     0
176
     1
 90
        0
176
     1
 40
-0.6
176
     1
 41
-30.0
176
     1
 62
     5
 63
     7
421
 16777215
176
     1
 74
     1
176
     1
 91
        4
176
     1
 64
     7
176
     1
 65
   257
176
     1
 75
     1
176
     1
175
     1
176
     1
 42
1.0
176
     1
 92
       12
176
     1
 66
     7
176
     1
 43
1.0
176
     1
 76
     1
176
     1
 77
     6
176
     1
 78
     2
176
     1
 67
     7
176
     1
 79
     5
176
     1
170
     0
176
     1
171
     0
176
     1
290
     0
176
     1
 93
        1
176
     1
 44
0.0
176
     1
173
     0
176
     1
  0
ENDSEC
  0
EOF
