  0
SECTION
  2
HEADER
  9
$ACADVER
  1
AC1024
  9
$ACADMAINTVER
 70
     6
  9
$DWGCODEPAGE
  3
ANSI_1252
  9
$INSBASE
 10
0.0
 20
0.0
 30
0.0
  9
$EXTMIN
 10
1.000000000000000E+20
 20
1.000000000000000E+20
 30
1.000000000000000E+20
  9
$EXTMAX
 10
-1.000000000000000E+20
 20
-1.000000000000000E+20
 30
-1.000000000000000E+20
  9
$LIMMIN
 10
0.0
 20
0.0
  9
$LIMMAX
 10
12.0
 20
9.0
  9
$ORTHOMODE
 70
     0
  9
$REGENMODE
 70
     1
  9
$FILLMODE
 70
     1
  9
$QTEXTMODE
 70
     0
  9
$MIRRTEXT
 70
     1
  9
$LTSCALE
 40
1.0
  9
$ATTMODE
 70
     1
  9
$TEXTSIZE
 40
0.2
  9
$TRACEWID
 40
0.05
  9
$TEXTSTYLE
  7
Standard
  9
$CLAYER
  8
0
  9
$CELTYPE
  6
ByLayer
  9
$CECOLOR
 62
   256
  9
$CELTSCALE
 40
1.0
  9
$DISPSILH
 70
     0
  9
$DIMSCALE
 40
1.0
  9
$DIMASZ
 40
0.18
  9
$DIMEXO
 40
0.0625
  9
$DIMDLI
 40
0.38
  9
$DIMRND
 40
0.0
  9
$DIMDLE
 40
0.0
  9
$DIMEXE
 40
0.18
  9
$DIMTP
 40
0.0
  9
$DIMTM
 40
0.0
  9
$DIMTXT
 40
0.18
  9
$DIMCEN
 40
0.09
  9
$DIMTSZ
 40
0.0
  9
$DIMTOL
 70
     0
  9
$DIMLIM
 70
     0
  9
$DIMTIH
 70
     1
  9
$DIMTOH
 70
     1
  9
$DIMSE1
 70
     0
  9
$DIMSE2
 70
     0
  9
$DIMTAD
 70
     0
  9
$DIMZIN
 70
     0
  9
$DIMBLK
  1

  9
$DIMASO
 70
     1
  9
$DIMSHO
 70
     1
  9
$DIMPOST
  1

  9
$DIMAPOST
  1

  9
$DIMALT
 70
     0
  9
$DIMALTD
 70
     2
  9
$DIMALTF
 40
25.4
  9
$DIMLFAC
 40
1.0
  9
$DIMTOFL
 70
     0
  9
$DIMTVP
 40
0.0
  9
$DIMTIX
 70
     0
  9
$DIMSOXD
 70
     0
  9
$DIMSAH
 70
     0
  9
$DIMBLK1
  1

  9
$DIMBLK2
  1

  9
$DIMSTYLE
  2
Standard
  9
$DIMCLRD
 70
     0
  9
$DIMCLRE
 70
     0
  9
$DIMCLRT
 70
     0
  9
$DIMTFAC
 40
1.0
  9
$DIMGAP
 40
0.09
  9
$DIMJUST
 70
     0
  9
$DIMSD1
 70
     0
  9
$DIMSD2
 70
     0
  9
$DIMTOLJ
 70
     1
  9
$DIMTZIN
 70
     0
  9
$DIMALTZ
 70
     0
  9
$DIMALTTZ
 70
     0
  9
$DIMUPT
 70
     0
  9
$DIMDEC
 70
     4
  9
$DIMTDEC
 70
     4
  9
$DIMALTU
 70
     2
  9
$DIMALTTD
 70
     2
  9
$DIMTXSTY
  7
Standard
  9
$DIMAUNIT
 70
     0
  9
$DIMADEC
 70
     0
  9
$DIMALTRND
 40
0.0
  9
$DIMAZIN
 70
     0
  9
$DIMDSEP
 70
    46
  9
$DIMATFIT
 70
     3
  9
$DIMFRAC
 70
     0
  9
$DIMLDRBLK
  1

  9
$DIMLUNIT
 70
     2
  9
$DIMLWD
 70
    -2
  9
$DIMLWE
 70
    -2
  9
$DIMTMOVE
 70
     0
  9
$DIMFXL
 40
1.0
  9
$DIMFXLON
 70
     0
  9
$DIMJOGANG
 40
0.7853981633974483
  9
$DIMTFILL
 70
     0
  9
$DIMTFILLCLR
 70
     0
  9
$DIMARCSYM
 70
     0
  9
$DIMLTYPE
  6

  9
$DIMLTEX1
  6

  9
$DIMLTEX2
  6

  9
$DIMTXTDIRECTION
 70
     0
  9
$LUNITS
 70
     2
  9
$LUPREC
 70
     4
  9
$SKETCHINC
 40
0.1
  9
$FILLETRAD
 40
0.5
  9
$AUNITS
 70
     0
  9
$AUPREC
 70
     0
  9
$MENU
  1
.
  9
$ELEVATION
 40
0.0
  9
$PELEVATION
 40
0.0
  9
$THICKNESS
 40
0.0
  9
$LIMCHECK
 70
     0
  9
$CHAMFERA
 40
0.5
  9
$CHAMFERB
 40
0.5
  9
$CHAMFERC
 40
1.0
  9
$CHAMFERD
 40
0.0
  9
$SKPOLY
 70
     0
  9
$TDCREATE
 40
2458850.910390972
  9
$TDUCREATE
 40
2458850.368724306
  9
$TDUPDATE
 40
2458850.910391146
  9
$TDUUPDATE
 40
2458850.368724479
  9
$TDINDWG
 40
0.0000000116
  9
$TDUSRTIMER
 40
0.0000000116
  9
$USRTIMER
 70
     1
  9
$ANGBASE
 50
0.0
  9
$ANGDIR
 70
     0
  9
$PDMODE
 70
     0
  9
$PDSIZE
 40
0.0
  9
$PLINEWID
 40
0.0
  9
$SPLFRAME
 70
     0
  9
$SPLINETYPE
 70
     6
  9
$SPLINESEGS
 70
     8
  9
$HANDSEED
  5
19F
  9
$SURFTAB1
 70
     6
  9
$SURFTAB2
 70
     6
  9
$SURFTYPE
 70
     6
  9
$SURFU
 70
     6
  9
$SURFV
 70
     6
  9
$UCSBASE
  2

  9
$UCSNAME
  2

  9
$UCSORG
 10
0.0
 20
0.0
 30
0.0
  9
$UCSXDIR
 10
1.0
 20
0.0
 30
0.0
  9
$UCSYDIR
 10
0.0
 20
1.0
 30
0.0
  9
$UCSORTHOREF
  2

  9
$UCSORTHOVIEW
 70
     0
  9
$UCSORGTOP
 10
0.0
 20
0.0
 30
0.0
  9
$UCSORGBOTTOM
 10
0.0
 20
0.0
 30
0.0
  9
$UCSORGLEFT
 10
0.0
 20
0.0
 30
0.0
  9
$UCSORGRIGHT
 10
0.0
 20
0.0
 30
0.0
  9
$UCSORGFRONT
 10
0.0
 20
0.0
 30
0.0
  9
$UCSORGBACK
 10
0.0
 20
0.0
 30
0.0
  9
$PUCSBASE
  2

  9
$PUCSNAME
  2

  9
$PUCSORG
 10
0.0
 20
0.0
 30
0.0
  9
$PUCSXDIR
 10
1.0
 20
0.0
 30
0.0
  9
$PUCSYDIR
 10
0.0
 20
1.0
 30
0.0
  9
$PUCSORTHOREF
  2

  9
$PUCSORTHOVIEW
 70
     0
  9
$PUCSORGTOP
 10
0.0
 20
0.0
 30
0.0
  9
$PUCSORGBOTTOM
 10
0.0
 20
0.0
 30
0.0
  9
$PUCSORGLEFT
 10
0.0
 20
0.0
 30
0.0
  9
$PUCSORGRIGHT
 10
0.0
 20
0.0
 30
0.0
  9
$PUCSORGFRONT
 10
0.0
 20
0.0
 30
0.0
  9
$PUCSORGBACK
 10
0.0
 20
0.0
 30
0.0
  9
$USERI1
 70
     0
  9
$USERI2
 70
     0
  9
$USERI3
 70
     0
  9
$USERI4
 70
     0
  9
$USERI5
 70
     0
  9
$USERR1
 40
0.0
  9
$USERR2
 40
0.0
  9
$USERR3
 40
0.0
  9
$USERR4
 40
0.0
  9
$USERR5
 40
0.0
  9
$WORLDVIEW
 70
     1
  9
$SHADEDGE
 70
     3
  9
$SHADEDIF
 70
    70
  9
$TILEMODE
 70
     1
  9
$MAXACTVP
 70
    64
  9
$PINSBASE
 10
0.0
 20
0.0
 30
0.0
  9
$PLIMCHECK
 70
     0
  9
$PEXTMIN
 10
1.000000000000000E+20
 20
1.000000000000000E+20
 30
1.000000000000000E+20
  9
$PEXTMAX
 10
-1.000000000000000E+20
 20
-1.000000000000000E+20
 30
-1.000000000000000E+20
  9
$PLIMMIN
 10
0.0
 20
0.0
  9
$PLIMMAX
 10
12.0
 20
9.0
  9
$UNITMODE
 70
     0
  9
$VISRETAIN
 70
     1
  9
$PLINEGEN
 70
     0
  9
$PSLTSCALE
 70
     1
  9
$TREEDEPTH
 70
  3020
  9
$CMLSTYLE
  2
Standard
  9
$CMLJUST
 70
     0
  9
$CMLSCALE
 40
1.0
  9
$PROXYGRAPHICS
 70
     1
  9
$MEASUREMENT
 70
     0
  9
$CELWEIGHT
370
    -1
  9
$ENDCAPS
280
     0
  9
$JOINSTYLE
280
     0
  9
$LWDISPLAY
290
     1
  9
$INSUNITS
 70
     1
  9
$HYPERLINKBASE
  1

  9
$STYLESHEET
  1

  9
$XEDIT
290
     1
  9
$CEPSNTYPE
380
     0
  9
$PSTYLEMODE
290
     1
  9
$FINGERPRINTGUID
  2
{E85AF15F-B301-4BFB-AF18-C6227BA022DC}
  9
$VERSIONGUID
  2
{FAEB1C32-E019-11D5-929B-00C0DF256EC4}
  9
$EXTNAMES
290
     1
  9
$PSVPSCALE
 40
0.0
  9
$OLESTARTUP
290
     0
  9
$SORTENTS
280
   127
  9
$INDEXCTL
280
     0
  9
$HIDETEXT
280
     1
  9
$XCLIPFRAME
280
     2
  9
$HALOGAP
280
     0
  9
$OBSCOLOR
 70
   257
  9
$OBSLTYPE
280
     0
  9
$INTERSECTIONDISPLAY
280
     0
  9
$INTERSECTIONCOLOR
 70
   257
  9
$DIMASSOC
280
     2
  9
$PROJECTNAME
  1

  9
$CAMERADISPLAY
290
     0
  9
$LENSLENGTH
 40
50.0
  9
$CAMERAHEIGHT
 40
0.0
  9
$STEPSPERSEC
 40
2.0
  9
$STEPSIZE
 40
6.0
  9
$3DDWFPREC
 40
2.0
  9
$PSOLWIDTH
 40
0.25
  9
$PSOLHEIGHT
 40
4.0
  9
$LOFTANG1
 40
1.570796326794897
  9
$LOFTANG2
 40
1.570796326794897
  9
$LOFTMAG1
 40
0.0
  9
$LOFTMAG2
 40
0.0
  9
$LOFTPARAM
 70
     7
  9
$LOFTNORMALS
280
     1
  9
$LATITUDE
 40
37.795
  9
$LONGITUDE
 40
-122.394
  9
$NORTHDIRECTION
 40
0.0
  9
$TIMEZONE
 70
 -8000
  9
$LIGHTGLYPHDISPLAY
280
     1
  9
$TILEMODELIGHTSYNCH
280
     1
  9
$CMATERIAL
347
3C
  9
$SOLIDHIST
280
     1
  9
$SHOWHIST
280
     1
  9
$DWFFRAME
280
     2
  9
$DGNFRAME
280
     2
  9
$REALWORLDSCALE
290
     1
  9
$INTERFERECOLOR
 62
   256
  9
$CSHADOW
280
     0
  9
$SHADOWPLANELOCATION
 40
0.0
  0
ENDSEC
  0
SECTION
  2
CLASSES
  0
CLASS
  1
ACDBDICTIONARYWDFLT
  2
AcDbDictionaryWithDefault
  3
ObjectDBX Classes
 90
        0
 91
        4
280
     0
281
     0
  0
CLASS
  1
VISUALSTYLE
  2
AcDbVisualStyle
  3
ObjectDBX Classes
 90
     4095
 91
        4
280
     0
281
     0
  0
CLASS
  1
MATERIAL
  2
AcDbMaterial
  3
ObjectDBX Classes
 90
     1153
 91
        4
280
     0
281
     0
  0
CLASS
  1
SUN
  2
AcDbSun
  3
SCENEOE
 90
     1024
 91
        4
280
     0
281
     0
  0
ENDSEC
  0
SECTION
  2
TABLES
  0
TABLE
  2
VPORT
  5
8
330
0
100
AcDbSymbolTable
 70
     1
  0
VPORT
  5
29
330
8
100
AcDbSymbolTableRecord
100
AcDbViewportTableRecord
  2
*Active
 70
     0
 10
0.0
 20
0.0
 11
1.0
 21
1.0
 12
0.0
 22
0.0
 13
0.0
 23
0.0
 14
0.5
 24
0.5
 15
0.5
 25
0.5
 16
0.0
 26
0.0
 36
1.0
 17
2.631944444444445
 27
2.319444444444444
 37
0.0
 40
11.69291338582677
 41
0.7070707070707065
 42
50.0
 43
0.0
 44
0.0
 50
0.0
 51
0.0
 71
     0
 72
   100
 73
     1
 74
     3
 75
     0
 76
     0
 77
     0
 78
     0
281
     0
 65
     1
110
0.0
120
0.0
130
0.0
111
1.0
121
0.0
131
0.0
112
0.0
122
1.0
132
0.0
 79
     0
146
0.0
 60
     3
 61
     5
292
     1
282
     1
141
0.0
142
0.0
 63
   250
361
3F
  0
ENDTAB
  0
TABLE
  2
LTYPE
  5
5
330
0
100
AcDbSymbolTable
 70
     1
  0
LTYPE
  5
14
330
5
100
AcDbSymbolTableRecord
100
AcDbLinetypeTableRecord
  2
ByBlock
 70
     0
  3

 72
    65
 73
     0
 40
0.0
  0
LTYPE
  5
15
330
5
100
AcDbSymbolTableRecord
100
AcDbLinetypeTableRecord
  2
ByLayer
 70
     0
  3

 72
    65
 73
     0
 40
0.0
  0
LTYPE
  5
16
330
5
100
AcDbSymbolTableRecord
100
AcDbLinetypeTableRecord
  2
Continuous
 70
     0
  3
Solid line
 72
    65
 73
     0
 40
0.0
  0
ENDTAB
  0
TABLE
  2
LAYER
  5
2
330
0
100
AcDbSymbolTable
 70
     3
  0
LAYER
  5
10
330
2
100
AcDbSymbolTableRecord
100
AcDbLayerTableRecord
  2
0
 70
     0
 62
     7
  6
Continuous
370
    -3
390
F
347
3E
  0
LAYER
  5
40
330
2
100
AcDbSymbolTableRecord
100
AcDbLayerTableRecord
  2
Layer 1
 70
     0
 62
     7
  6
Continuous
370
    -3
390
F
347
3E
  0
LAYER
  5
144
330
2
100
AcDbSymbolTableRecord
100
AcDbLayerTableRecord
  2
CALLOUT
 70
     0
 62
     7
  6
Continuous
370
    -3
390
F
347
3E
  0
ENDTAB
  0
TABLE
  2
STYLE
  5
3
330
0
100
AcDbSymbolTable
 70
     1
  0
STYLE
  5
11
330
3
100
AcDbSymbolTableRecord
100
AcDbTextStyleTableRecord
  2
Standard
 70
     0
 40
0.0
 41
1.0
 50
0.0
 71
     0
 42
0.2
  3
txt
  4

  0
ENDTAB
  0
TABLE
  2
VIEW
  5
6
330
0
100
AcDbSymbolTable
 70
     0
  0
ENDTAB
  0
TABLE
  2
UCS
  5
7
330
0
100
AcDbSymbolTable
 70
     0
  0
ENDTAB
  0
TABLE
  2
APPID
  5
9
330
0
100
AcDbSymbolTable
 70
     1
  0
APPID
  5
12
330
9
100
AcDbSymbolTableRecord
100
AcDbRegAppTableRecord
  2
ACAD
 70
     0
  0
ENDTAB
  0
TABLE
  2
DIMSTYLE
  5
A
330
0
100
AcDbSymbolTable
 70
     1
100
AcDbDimStyleTable
  0
DIMSTYLE
105
27
330
A
100
AcDbSymbolTableRecord
100
AcDbDimStyleTableRecord
  2
Standard
 70
     0
178
     0
340
11
  0
ENDTAB
  0
TABLE
  2
BLOCK_RECORD
  5
1
330
0
100
AcDbSymbolTable
 70
     1
  0
BLOCK_RECORD
  5
1F
330
1
100
AcDbSymbolTableRecord
100
AcDbBlockTableRecord
  2
*Model_Space
340
22
 70
     0
280
     1
281
     0
  0
BLOCK_RECORD
  5
1B
330
1
100
AcDbSymbolTableRecord
100
AcDbBlockTableRecord
  2
*Paper_Space
340
1E
 70
     0
280
     1
281
     0
  0
BLOCK_RECORD
  5
23
330
1
100
AcDbSymbolTableRecord
100
AcDbBlockTableRecord
  2
*Paper_Space0
340
26
 70
     0
280
     1
281
     0
  0
ENDTAB
  0
ENDSEC
  0
SECTION
  2
BLOCKS
  0
BLOCK
  5
20
330
1F
100
AcDbEntity
  8
0
100
AcDbBlockBegin
  2
*Model_Space
 70
     0
 10
0.0
 20
0.0
 30
0.0
  3
*Model_Space
  1

  0
ENDBLK
  5
21
330
1F
100
AcDbEntity
  8
0
100
AcDbBlockEnd
  0
BLOCK
  5
1C
330
1B
100
AcDbEntity
 67
     1
  8
0
100
AcDbBlockBegin
  2
*Paper_Space
 70
     0
 10
0.0
 20
0.0
 30
0.0
  3
*Paper_Space
  1

  0
ENDBLK
  5
1D
330
1B
100
AcDbEntity
 67
     1
  8
0
100
AcDbBlockEnd
  0
BLOCK
  5
24
330
23
100
AcDbEntity
  8
0
100
AcDbBlockBegin
  2
*Paper_Space0
 70
     0
 10
0.0
 20
0.0
 30
0.0
  3
*Paper_Space0
  1

  0
ENDBLK
  5
25
330
23
100
AcDbEntity
  8
0
100
AcDbBlockEnd
  0
ENDSEC
  0
SECTION
  2
ENTITIES
  0
POLYLINE
  5
41
330
1F
100
AcDbEntity
  8
Layer 1
 62
     7
420
 16777215
370
    40
100
AcDb2dPolyline
 66
     1
 10
0.0
 20
0.0
 30
0.0
  0
VERTEX
  5
42
330
41
100
AcDbEntity
  8
Layer 1
 62
     7
420
 16777215
370
    40
100
AcDbVertex
100
AcDb2dVertex
 10
1.639179467945433
 20
2.766951630464885
 30
0.0
  0
VERTEX
  5
43
330
41
100
AcDbEntity
  8
Layer 1
 62
     7
420
 16777215
370
    40
100
AcDbVertex
100
AcDb2dVertex
 10
1.640393607830636
 20
3.040289987880341
 30
0.0
  0
VERTEX
  5
44
330
41
100
AcDbEntity
  8
Layer 1
 62
     7
420
 16777215
370
    40
100
AcDbVertex
100
AcDb2dVertex
 10
1.66790615404966
 20
3.081055757677796
 30
0.0
  0
VERTEX
  5
45
330
41
100
AcDbEntity
  8
Layer 1
 62
     7
420
 16777215
370
    40
100
AcDbVertex
100
AcDb2dVertex
 10
1.617546632855894
 20
3.132895438169827
 30
0.0
  0
VERTEX
  5
46
330
41
100
AcDbEntity
  8
Layer 1
 62
     7
420
 16777215
370
    40
100
AcDbVertex
100
AcDb2dVertex
 10
1.645874289840561
 20
3.167385878223525
 30
0.0
  0
VERTEX
  5
47
330
41
100
AcDbEntity
  8
Layer 1
 62
     7
420
 16777215
370
    40
100
AcDbVertex
100
AcDb2dVertex
 10
1.642641130820392
 20
3.343838601203591
 30
0.0
  0
VERTEX
  5
48
330
41
100
AcDbEntity
  8
Layer 1
 62
     7
420
 16777215
370
    40
100
AcDbVertex
100
AcDb2dVertex
 10
2.666427073464042
 20
4.246091187641089
 30
0.0
  0
VERTEX
  5
49
330
41
100
AcDbEntity
  8
Layer 1
 62
     7
420
 16777215
370
    40
100
AcDbVertex
100
AcDb2dVertex
 10
2.67383810147122
 20
4.24896965411051
 30
0.0
  0
VERTEX
  5
4A
330
41
100
AcDbEntity
  8
Layer 1
 62
     7
420
 16777215
370
    40
100
AcDbVertex
100
AcDb2dVertex
 10
3.507945381598726
 20
4.649721078861628
 30
0.0
  0
VERTEX
  5
4B
330
41
100
AcDbEntity
  8
Layer 1
 62
     7
420
 16777215
370
    40
100
AcDbVertex
100
AcDb2dVertex
 10
3.757638705800294
 20
4.509522027173034
 30
0.0
  0
VERTEX
  5
4C
330
41
100
AcDbEntity
  8
Layer 1
 62
     7
420
 16777215
370
    40
100
AcDbVertex
100
AcDb2dVertex
 10
3.756356355809177
 20
4.054649293887173
 30
0.0
  0
VERTEX
  5
4D
330
41
100
AcDbEntity
  8
Layer 1
 62
     7
420
 16777215
370
    40
100
AcDbVertex
100
AcDb2dVertex
 10
3.782034050179214
 20
3.982793357815644
 30
0.0
  0
VERTEX
  5
4E
330
41
100
AcDbEntity
  8
Layer 1
 62
     7
420
 16777215
370
    40
100
AcDbVertex
100
AcDb2dVertex
 10
3.724464720790694
 20
3.918027862253552
 30
0.0
  0
VERTEX
  5
4F
330
41
100
AcDbEntity
  8
Layer 1
 62
     7
420
 16777215
370
    40
100
AcDbVertex
100
AcDb2dVertex
 10
3.752492253309331
 20
3.854449366632113
 30
0.0
  0
VERTEX
  5
50
330
41
100
AcDbEntity
  8
Layer 1
 62
     7
420
 16777215
370
    40
100
AcDbVertex
100
AcDb2dVertex
 10
3.751844257303194
 20
3.327553438417441
 30
0.0
  0
VERTEX
  5
51
330
41
100
AcDbEntity
  8
Layer 1
 62
     7
420
 16777215
370
    40
100
AcDbVertex
100
AcDb2dVertex
 10
1.903391313190064
 20
2.683653449126887
 30
0.0
  0
VERTEX
  5
52
330
41
100
AcDbEntity
  8
Layer 1
 62
     7
420
 16777215
370
    40
100
AcDbVertex
100
AcDb2dVertex
 10
1.639179467945433
 20
2.766951630464885
 30
0.0
  0
SEQEND
  5
54
330
41
100
AcDbEntity
  8
Layer 1
 62
     7
420
 16777215
370
    40
  0
HATCH
  5
53
330
1F
100
AcDbEntity
  8
Layer 1
 62
    43
420
 15510365
100
AcDbHatch
 10
0.0
 20
0.0
 30
0.0
210
0.0
220
0.0
230
1.0
  2
SOLID
 70
     1
 71
     0
 91
        1
 92
        1
 93
       16
 72
     1
 10
1.639179467945433
 20
2.766951630464885
 11
1.640393607830636
 21
3.040289987880341
 72
     1
 10
1.640393607830636
 20
3.040289987880341
 11
1.66790615404966
 21
3.081055757677796
 72
     1
 10
1.66790615404966
 20
3.081055757677796
 11
1.617546632855894
 21
3.132895438169827
 72
     1
 10
1.617546632855894
 20
3.132895438169827
 11
1.645874289840561
 21
3.167385878223525
 72
     1
 10
1.645874289840561
 20
3.167385878223525
 11
1.642641130820392
 21
3.343838601203591
 72
     1
 10
1.642641130820392
 20
3.343838601203591
 11
2.666427073464042
 21
4.246091187641089
 72
     1
 10
2.666427073464042
 20
4.246091187641089
 11
2.67383810147122
 21
4.24896965411051
 72
     1
 10
2.67383810147122
 20
4.24896965411051
 11
3.507945381598726
 21
4.649721078861628
 72
     1
 10
3.507945381598726
 20
4.649721078861628
 11
3.757638705800294
 21
4.509522027173034
 72
     1
 10
3.757638705800294
 20
4.509522027173034
 11
3.756356355809177
 21
4.054649293887173
 72
     1
 10
3.756356355809177
 20
4.054649293887173
 11
3.782034050179214
 21
3.982793357815644
 72
     1
 10
3.782034050179214
 20
3.982793357815644
 11
3.724464720790694
 21
3.918027862253552
 72
     1
 10
3.724464720790694
 20
3.918027862253552
 11
3.752492253309331
 21
3.854449366632113
 72
     1
 10
3.752492253309331
 20
3.854449366632113
 11
3.751844257303194
 21
3.327553438417441
 72
     1
 10
3.751844257303194
 20
3.327553438417441
 11
1.903391313190064
 21
2.683653449126887
 72
     1
 10
1.903391313190064
 20
2.683653449126887
 11
1.639179467945433
 21
2.766951630464885
 97
        0
 75
     2
 76
     1
 98
        0
  0
POLYLINE
  5
55
330
1F
100
AcDbEntity
  8
Layer 1
 62
     7
420
 16777215
370
    40
100
AcDb2dPolyline
 66
     1
 10
0.0
 20
0.0
 30
0.0
  0
VERTEX
  5
56
330
55
100
AcDbEntity
  8
Layer 1
 62
     7
420
 16777215
370
    40
100
AcDbVertex
100
AcDb2dVertex
 10
1.337012109266867
 20
4.630588144153712
 30
0.0
  0
VERTEX
  5
57
330
55
100
AcDbEntity
  8
Layer 1
 62
     7
420
 16777215
370
    40
100
AcDbVertex
100
AcDb2dVertex
 10
1.571368391154427
 20
4.768491925778435
 30
0.0
  0
VERTEX
  5
58
330
55
100
AcDbEntity
  8
Layer 1
 62
     7
420
 16777215
370
    40
100
AcDbVertex
100
AcDb2dVertex
 10
2.672753560787239
 20
4.247956734037731
 30
0.0
  0
VERTEX
  5
59
330
55
100
AcDbEntity
  8
Layer 1
 62
     7
420
 16777215
370
    40
100
AcDbVertex
100
AcDb2dVertex
 10
2.673602776605826
 20
3.136711793595547
 30
0.0
  0
VERTEX
  5
5A
330
55
100
AcDbEntity
  8
Layer 1
 62
     7
420
 16777215
370
    40
100
AcDbVertex
100
AcDb2dVertex
 10
2.418916472651631
 20
3.044403057266752
 30
0.0
  0
VERTEX
  5
5B
330
55
100
AcDbEntity
  8
Layer 1
 62
     7
420
 16777215
370
    40
100
AcDbVertex
100
AcDb2dVertex
 10
1.333414026180081
 20
3.422457569276137
 30
0.0
  0
VERTEX
  5
5C
330
55
100
AcDbEntity
  8
Layer 1
 62
     7
420
 16777215
370
    40
100
AcDbVertex
100
AcDb2dVertex
 10
1.333830107826139
 20
3.972316432623163
 30
0.0
  0
VERTEX
  5
5D
330
55
100
AcDbEntity
  8
Layer 1
 62
     7
420
 16777215
370
    40
100
AcDbVertex
100
AcDb2dVertex
 10
1.294981042004767
 20
4.02480737255131
 30
0.0
  0
VERTEX
  5
5E
330
55
100
AcDbEntity
  8
Layer 1
 62
     7
420
 16777215
370
    40
100
AcDbVertex
100
AcDb2dVertex
 10
1.358044695424395
 20
4.097730796780297
 30
0.0
  0
VERTEX
  5
5F
330
55
100
AcDbEntity
  8
Layer 1
 62
     7
420
 16777215
370
    40
100
AcDbVertex
100
AcDb2dVertex
 10
1.333015123709856
 20
4.158079687984633
 30
0.0
  0
VERTEX
  5
60
330
55
100
AcDbEntity
  8
Layer 1
 62
     7
420
 16777215
370
    40
100
AcDbVertex
100
AcDb2dVertex
 10
1.337012109266867
 20
4.630588144153712
 30
0.0
  0
SEQEND
  5
62
330
55
100
AcDbEntity
  8
Layer 1
 62
     7
420
 16777215
370
    40
  0
HATCH
  5
61
330
1F
100
AcDbEntity
  8
Layer 1
 62
    43
420
 15510365
100
AcDbHatch
 10
0.0
 20
0.0
 30
0.0
210
0.0
220
0.0
230
1.0
  2
SOLID
 70
     1
 71
     0
 91
        1
 92
        1
 93
       10
 72
     1
 10
1.337012109266867
 20
4.630588144153712
 11
1.571368391154427
 21
4.768491925778435
 72
     1
 10
1.571368391154427
 20
4.768491925778435
 11
2.672753560787239
 21
4.247956734037731
 72
     1
 10
2.672753560787239
 20
4.247956734037731
 11
2.673602776605826
 21
3.136711793595547
 72
     1
 10
2.673602776605826
 20
3.136711793595547
 11
2.418916472651631
 21
3.044403057266752
 72
     1
 10
2.418916472651631
 20
3.044403057266752
 11
1.333414026180081
 21
3.422457569276137
 72
     1
 10
1.333414026180081
 20
3.422457569276137
 11
1.333830107826139
 21
3.972316432623163
 72
     1
 10
1.333830107826139
 20
3.972316432623163
 11
1.294981042004767
 21
4.02480737255131
 72
     1
 10
1.294981042004767
 20
4.02480737255131
 11
1.358044695424395
 21
4.097730796780297
 72
     1
 10
1.358044695424395
 20
4.097730796780297
 11
1.333015123709856
 21
4.158079687984633
 72
     1
 10
1.333015123709856
 20
4.158079687984633
 11
1.337012109266867
 21
4.630588144153712
 97
        0
 75
     2
 76
     1
 98
        0
  0
POLYLINE
  5
63
330
1F
100
AcDbEntity
  8
Layer 1
370
     0
100
AcDb2dPolyline
 66
     1
 10
0.0
 20
0.0
 30
0.0
  0
VERTEX
  5
64
330
63
100
AcDbEntity
  8
Layer 1
370
     0
100
AcDbVertex
100
AcDb2dVertex
 10
2.72326314421404
 20
3.542940489851276
 30
0.0
  0
VERTEX
  5
19B
330
63
100
AcDbEntity
  8
0
100
AcDbVertex
100
AcDb2dVertex
 10
2.72326314421404
 20
3.542940489851276
 30
0.0
  0
SEQEND
  5
65
330
63
100
AcDbEntity
  8
Layer 1
370
     0
  0
POLYLINE
  5
66
330
1F
100
AcDbEntity
  8
Layer 1
370
     0
100
AcDb2dPolyline
 66
     1
 10
0.0
 20
0.0
 30
0.0
  0
VERTEX
  5
67
330
66
100
AcDbEntity
  8
Layer 1
370
     0
100
AcDbVertex
100
AcDb2dVertex
 10
2.914872152727437
 20
3.562339580690718
 30
0.0
  0
VERTEX
  5
19C
330
66
100
AcDbEntity
  8
0
100
AcDbVertex
100
AcDb2dVertex
 10
2.914872152727437
 20
3.562339580690718
 30
0.0
  0
SEQEND
  5
68
330
66
100
AcDbEntity
  8
Layer 1
370
     0
  0
SPLINE
  5
69
330
1F
100
AcDbEntity
  8
Layer 1
 62
     7
420
 16777215
370
     9
100
AcDbSpline
210
0.0
220
0.0
230
1.0
 70
     8
 71
     3
 72
    20
 73
    16
 74
     0
 42
0.0000000001
 43
0.0000000001
 12
1.0
 22
0.0
 32
0.0
 13
1.0
 23
0.0
 33
0.0
 40
0.0
 40
0.0
 40
0.0
 40
0.0
 40
1.0
 40
1.0
 40
1.0
 40
2.0
 40
2.0
 40
2.0
 40
3.0
 40
3.0
 40
3.0
 40
4.0
 40
4.0
 40
4.0
 40
5.0
 40
5.0
 40
5.0
 40
5.0
 10
1.565024851304745
 20
4.407691160059104
 30
0.0
 10
1.56553983760437
 20
4.422277891208106
 30
0.0
 10
1.561709840157492
 20
4.46206143548045
 30
0.0
 10
1.558128809597191
 20
4.478882047598
 30
0.0
 10
1.554547779036877
 20
4.49569924921026
 30
0.0
 10
1.558677900949773
 20
4.524777217359934
 30
0.0
 10
1.550884896349481
 20
4.540697456079455
 30
0.0
 10
1.543108944275673
 20
4.556617694798976
 30
0.0
 10
1.538344468377823
 20
4.599562777480274
 30
0.0
 10
1.535646758689103
 20
4.61218846808438
 30
0.0
 10
1.53296610152678
 20
4.624793695656611
 30
0.0
 10
1.536032145787456
 20
4.652851922722953
 30
0.0
 10
1.531468889702043
 20
4.67180410065018
 30
0.0
 10
1.526922686143103
 20
4.690739391275214
 30
0.0
 10
1.513850219345335
 20
4.735017816302805
 30
0.0
 10
1.513850219345335
 20
4.735017816302805
 30
0.0
  0
SPLINE
  5
6A
330
1F
100
AcDbEntity
  8
Layer 1
 62
     7
420
 16777215
370
     9
100
AcDbSpline
210
0.0
220
0.0
230
1.0
 70
     8
 71
     3
 72
    26
 73
    22
 74
     0
 42
0.0000000001
 43
0.0000000001
 12
1.0
 22
0.0
 32
0.0
 13
1.0
 23
0.0
 33
0.0
 40
0.0
 40
0.0
 40
0.0
 40
0.0
 40
1.0
 40
1.0
 40
1.0
 40
2.0
 40
2.0
 40
2.0
 40
3.0
 40
3.0
 40
3.0
 40
4.0
 40
4.0
 40
4.0
 40
5.0
 40
5.0
 40
5.0
 40
6.0
 40
6.0
 40
6.0
 40
7.0
 40
7.0
 40
7.0
 40
7.0
 10
1.468019849184012
 20
4.707406365430188
 30
0.0
 10
1.475314920011151
 20
4.676899395561703
 30
0.0
 10
1.474663513499713
 20
4.658131384920403
 30
0.0
 10
1.480359057343245
 20
4.642279356306782
 30
0.0
 10
1.48607165371325
 20
4.626440969714318
 30
0.0
 10
1.494516064824981
 20
4.569789066250299
 30
0.0
 10
1.499229383143403
 20
4.555018167815382
 30
0.0
 10
1.503925648935352
 20
4.540247269380453
 30
0.0
 10
1.508471852494292
 20
4.491054301177542
 30
0.0
 10
1.512168971409816
 20
4.477364372741489
 30
0.0
 10
1.515865827974999
 20
4.463660962464056
 30
0.0
 10
1.523058583643269
 20
4.400812328778114
 30
0.0
 10
1.529651090379528
 20
4.380761810245619
 30
0.0
 10
1.536264060147535
 20
4.36069439708673
 30
0.0
 10
1.550884896349481
 20
4.271502862598064
 30
0.0
 10
1.550884896349481
 20
4.271502862598064
 30
0.0
 10
1.550884896349481
 20
4.271502862598064
 30
0.0
 10
1.553681510691818
 20
4.262011426360598
 30
0.0
 10
1.559745521484299
 20
4.256582056186655
 30
0.0
 10
1.565822909543903
 20
4.25115237749963
 30
0.0
 10
1.591749570800516
 20
4.216863157258394
 30
0.0
 10
1.591749570800516
 20
4.216863157258394
 30
0.0
  0
SPLINE
  5
6B
330
1F
100
AcDbEntity
  8
Layer 1
 62
     7
420
 16777215
370
     9
100
AcDbSpline
210
0.0
220
0.0
230
1.0
 70
     8
 71
     3
 72
    32
 73
    28
 74
     0
 42
0.0000000001
 43
0.0000000001
 12
1.0
 22
0.0
 32
0.0
 13
1.0
 23
0.0
 33
0.0
 40
0.0
 40
0.0
 40
0.0
 40
0.0
 40
1.0
 40
1.0
 40
1.0
 40
2.0
 40
2.0
 40
2.0
 40
3.0
 40
3.0
 40
3.0
 40
4.0
 40
4.0
 40
4.0
 40
5.0
 40
5.0
 40
5.0
 40
6.0
 40
6.0
 40
6.0
 40
7.0
 40
7.0
 40
7.0
 40
8.0
 40
8.0
 40
8.0
 40
9.0
 40
9.0
 40
9.0
 40
9.0
 10
1.532035033581097
 20
4.150068411045456
 30
0.0
 10
1.537679551664799
 20
4.162411029709991
 30
0.0
 10
1.552249098467693
 20
4.191103610761262
 30
0.0
 10
1.554615989142791
 20
4.19937749660821
 30
0.0
 10
1.55071778159
 20
4.206805577141886
 30
0.0
 10
1.540476166077825
 20
4.212385163805367
 30
0.0
 10
1.536547132087081
 20
4.219830296865502
 30
0.0
 10
1.53264892453429
 20
4.227272019420335
 30
0.0
 10
1.513648999532898
 20
4.25088651219922
 30
0.0
 10
1.513648999532898
 20
4.25088651219922
 30
0.0
 10
1.513648999532898
 20
4.25088651219922
 30
0.0
 10
1.506637000645317
 20
4.259480985761103
 30
0.0
 10
1.505105683767599
 20
4.275182797811933
 30
0.0
 10
1.503557314363434
 20
4.290888174697821
 30
0.0
 10
1.494065878125967
 20
4.347557130688364
 30
0.0
 10
1.490287038258531
 20
4.359180132735509
 30
0.0
 10
1.486521970939533
 20
4.370786082256207
 30
0.0
 10
1.472282980803432
 20
4.441178911555918
 30
0.0
 10
1.471501975090784
 20
4.448521729457184
 30
0.0
 10
1.470717558872783
 20
4.455850905337292
 30
0.0
 10
1.462607377280013
 20
4.492653667981345
 30
0.0
 10
1.460775935936315
 20
4.500013538409083
 30
0.0
 10
1.458961547119088
 20
4.507390621955803
 30
0.0
 10
1.445104664103357
 20
4.558998227495269
 30
0.0
 10
1.444572754744816
 20
4.573619063697189
 30
0.0
 10
1.44404058645115
 20
4.588256952425619
 30
0.0
 10
1.419928314011764
 20
4.674651872571947
 30
0.0
 10
1.421159506423464
 20
4.679829019610565
 30
0.0
  0
SPLINE
  5
6C
330
1F
100
AcDbEntity
  8
Layer 1
 62
     7
420
 16777215
370
     9
100
AcDbSpline
210
0.0
220
0.0
230
1.0
 70
     8
 71
     3
 72
    44
 73
    40
 74
     0
 42
0.0000000001
 43
0.0000000001
 12
1.0
 22
0.0
 32
0.0
 13
1.0
 23
0.0
 33
0.0
 40
0.0
 40
0.0
 40
0.0
 40
0.0
 40
1.0
 40
1.0
 40
1.0
 40
2.0
 40
2.0
 40
2.0
 40
3.0
 40
3.0
 40
3.0
 40
4.0
 40
4.0
 40
4.0
 40
5.0
 40
5.0
 40
5.0
 40
6.0
 40
6.0
 40
6.0
 40
7.0
 40
7.0
 40
7.0
 40
8.0
 40
8.0
 40
8.0
 40
9.0
 40
9.0
 40
9.0
 40
10.0
 40
10.0
 40
10.0
 40
11.0
 40
11.0
 40
11.0
 40
12.0
 40
12.0
 40
12.0
 40
13.0
 40
13.0
 40
13.0
 40
13.0
 10
1.378528190229341
 20
4.654185430293473
 30
0.0
 10
1.389267871404955
 20
4.632934571797048
 30
0.0
 10
1.398762718147711
 20
4.606523618788464
 30
0.0
 10
1.398360406822955
 20
4.595067731500787
 30
0.0
 10
1.397961249403263
 20
4.583594791686626
 30
0.0
 10
1.413448353950255
 20
4.548623632020394
 30
0.0
 10
1.413980521471065
 20
4.534002634184339
 30
0.0
 10
1.414515842107764
 20
4.519381797982393
 30
0.0
 10
1.4201943334248
 20
4.473268355881575
 30
0.0
 10
1.432915518177133
 20
4.448821853923214
 30
0.0
 10
1.445623060908297
 20
4.424375351964891
 30
0.0
 10
1.452849921629511
 20
4.362559943483385
 30
0.0
 10
1.456581014422808
 20
4.349920610858147
 30
0.0
 10
1.460308696710829
 20
4.337264225706463
 30
0.0
 10
1.475864011363784
 20
4.244907742303528
 30
0.0
 10
1.479827018517135
 20
4.238495992347945
 30
0.0
 10
1.483772973144065
 20
4.232101294918809
 30
0.0
 10
1.492350393962321
 20
4.208855290824494
 30
0.0
 10
1.501511011186115
 20
4.202276426109456
 30
0.0
 10
1.510668349041857
 20
4.195697561394342
 30
0.0
 10
1.520592919702557
 20
4.180745906178761
 30
0.0
 10
1.520592919702557
 20
4.180745906178761
 30
0.0
 10
1.520592919702557
 20
4.180745906178761
 30
0.0
 10
1.483009150396394
 20
4.120495919627918
 30
0.0
 10
1.483009150396394
 20
4.120495919627918
 30
0.0
 10
1.483009150396394
 20
4.120495919627918
 30
0.0
 10
1.477528337947938
 20
4.113367963560259
 30
0.0
 10
1.481593660260223
 20
4.110104109992449
 30
0.0
 10
1.485655572067192
 20
4.106840256424663
 30
0.0
 10
1.52197745346459
 20
4.071135676485747
 30
0.0
 10
1.52197745346459
 20
4.071135676485747
 30
0.0
 10
1.52197745346459
 20
4.071135676485747
 30
0.0
 10
1.527904911668214
 20
4.061528283068242
 30
0.0
 10
1.532700213807566
 20
4.049884817989297
 30
0.0
 10
1.53751230508572
 20
4.038244763415668
 30
0.0
 10
1.545871453565054
 20
4.008737071598741
 30
0.0
 10
1.546672922309502
 20
4.001411306223935
 30
0.0
 10
1.547453928022176
 20
3.994082130343852
 30
0.0
 10
1.552501475859572
 20
3.959462091088944
 30
0.0
 10
1.558463039116153
 20
3.950901722797173
 30
0.0
  0
SPLINE
  5
6D
330
1F
100
AcDbEntity
  8
Layer 1
 62
     7
420
 16777215
370
     9
100
AcDbSpline
210
0.0
220
0.0
230
1.0
 70
     8
 71
     3
 72
    50
 73
    46
 74
     0
 42
0.0000000001
 43
0.0000000001
 12
1.0
 22
0.0
 32
0.0
 13
1.0
 23
0.0
 33
0.0
 40
0.0
 40
0.0
 40
0.0
 40
0.0
 40
1.0
 40
1.0
 40
1.0
 40
2.0
 40
2.0
 40
2.0
 40
3.0
 40
3.0
 40
3.0
 40
4.0
 40
4.0
 40
4.0
 40
5.0
 40
5.0
 40
5.0
 40
6.0
 40
6.0
 40
6.0
 40
7.0
 40
7.0
 40
7.0
 40
8.0
 40
8.0
 40
8.0
 40
9.0
 40
9.0
 40
9.0
 40
10.0
 40
10.0
 40
10.0
 40
11.0
 40
11.0
 40
11.0
 40
12.0
 40
12.0
 40
12.0
 40
13.0
 40
13.0
 40
13.0
 40
14.0
 40
14.0
 40
14.0
 40
15.0
 40
15.0
 40
15.0
 40
15.0
 10
1.559046235521691
 20
3.818379718528793
 30
0.0
 10
1.548538468706157
 20
3.845871801716044
 30
0.0
 10
1.541110388172531
 20
3.872218099670679
 30
0.0
 10
1.534582681036858
 20
3.894348723986708
 30
0.0
 10
1.528054973901211
 20
3.916496545375859
 30
0.0
 10
1.517144767460814
 20
3.962790744257379
 30
0.0
 10
1.512332544488825
 20
3.974430945959802
 30
0.0
 10
1.507520321516836
 20
3.986074263909977
 30
0.0
 10
1.492135532128688
 20
4.053384145545818
 30
0.0
 10
1.492135532128688
 20
4.053384145545818
 30
0.0
 10
1.492135532128688
 20
4.053384145545818
 30
0.0
 10
1.485024628587527
 20
4.058861267927126
 30
0.0
 10
1.479925923170716
 20
4.062159226547907
 30
0.0
 10
1.474830628259193
 20
4.065474237695146
 30
0.0
 10
1.458579570526
 20
4.078563757019398
 30
0.0
 10
1.453484275614503
 20
4.081875357661362
 30
0.0
 10
1.448385570197653
 20
4.085173316282142
 30
0.0
 10
1.435197146219846
 20
4.096080112217237
 30
0.0
 10
1.435197146219846
 20
4.096080112217237
 30
0.0
 10
1.435197146219846
 20
4.096080112217237
 30
0.0
 10
1.441891968114975
 20
4.108354520775833
 30
0.0
 10
1.446339267020347
 20
4.116546705214621
 30
0.0
 10
1.45080020794689
 20
4.12474199872084
 30
0.0
 10
1.473783603133496
 20
4.155248968589338
 30
0.0
 10
1.473783603133496
 20
4.155248968589338
 30
0.0
 10
1.473783603133496
 20
4.155248968589338
 30
0.0
 10
1.483056767032003
 20
4.151783895209102
 30
0.0
 10
1.470018405287192
 20
4.166854918110049
 30
0.0
 10
1.456980043542393
 20
4.181908888484523
 30
0.0
 10
1.441325824235908
 20
4.211686010219776
 30
0.0
 10
1.441325824235908
 20
4.211686010219776
 30
0.0
 10
1.441325824235908
 20
4.211686010219776
 30
0.0
 10
1.43504708398685
 20
4.241111849909594
 30
0.0
 10
1.431135363540963
 20
4.248553572464453
 30
0.0
 10
1.427219974333601
 20
4.2559987055246
 30
0.0
 10
1.408953307970756
 20
4.330719466044343
 30
0.0
 10
1.408138197205125
 20
4.336998206293389
 30
0.0
 10
1.407319675934193
 20
4.343293999068957
 30
0.0
 10
1.396979023878152
 20
4.376000744853059
 30
0.0
 10
1.39529764476745
 20
4.387538484267844
 30
0.0
 10
1.39361626565676
 20
4.399062581661446
 30
0.0
 10
1.377296997817653
 20
4.469554315614724
 30
0.0
 10
1.374449225895887
 20
4.477998726726443
 30
0.0
 10
1.371618506500593
 20
4.486439727332936
 30
0.0
 10
1.349419654595762
 20
4.597816598768973
 30
0.0
 10
1.338294459257984
 20
4.607591270069721
 30
0.0
  0
SPLINE
  5
6E
330
1F
100
AcDbEntity
  8
Layer 1
 62
     7
420
 16777215
370
     9
100
AcDbSpline
210
0.0
220
0.0
230
1.0
 70
     8
 71
     3
 72
    47
 73
    43
 74
     0
 42
0.0000000001
 43
0.0000000001
 12
1.0
 22
0.0
 32
0.0
 13
1.0
 23
0.0
 33
0.0
 40
0.0
 40
0.0
 40
0.0
 40
0.0
 40
1.0
 40
1.0
 40
1.0
 40
2.0
 40
2.0
 40
2.0
 40
3.0
 40
3.0
 40
3.0
 40
4.0
 40
4.0
 40
4.0
 40
5.0
 40
5.0
 40
5.0
 40
6.0
 40
6.0
 40
6.0
 40
7.0
 40
7.0
 40
7.0
 40
8.0
 40
8.0
 40
8.0
 40
9.0
 40
9.0
 40
9.0
 40
10.0
 40
10.0
 40
10.0
 40
11.0
 40
11.0
 40
11.0
 40
12.0
 40
12.0
 40
12.0
 40
13.0
 40
13.0
 40
13.0
 40
14.0
 40
14.0
 40
14.0
 40
14.0
 10
1.334546313938201
 20
4.440779882436358
 30
0.0
 10
1.349985671411029
 20
4.404775178031437
 30
0.0
 10
1.35942595006908
 20
4.376266764266108
 30
0.0
 10
1.365656943244011
 20
4.345790488945302
 30
0.0
 10
1.371901578440126
 20
4.315317624129711
 30
0.0
 10
1.385639221749291
 20
4.260579014136472
 30
0.0
 10
1.393247931084817
 20
4.239447523325389
 30
0.0
 10
1.400860178904458
 20
4.218312622008991
 30
0.0
 10
1.401426322783525
 20
4.204725168911598
 30
0.0
 10
1.404308199758248
 20
4.197314140904419
 30
0.0
 10
1.407169613701159
 20
4.189920165423713
 30
0.0
 10
1.420859381957446
 20
4.163359150182158
 30
0.0
 10
1.424805336584376
 20
4.156947400226537
 30
0.0
 10
1.428754701716596
 20
4.150552702797427
 30
0.0
 10
1.433416862455563
 20
4.134748421257945
 30
0.0
 10
1.433416862455563
 20
4.134748421257945
 30
0.0
 10
1.433416862455563
 20
4.134748421257945
 30
0.0
 10
1.428335209565249
 20
4.108838963052031
 30
0.0
 10
1.419808946326422
 20
4.103907221870474
 30
0.0
 10
1.41129973561408
 20
4.098996094244904
 30
0.0
 10
1.401191126289746
 20
4.078478494387038
 30
0.0
 10
1.401191126289746
 20
4.078478494387038
 30
0.0
 10
1.401191126289746
 20
4.078478494387038
 30
0.0
 10
1.395795578540603
 20
4.073451409581404
 30
0.0
 10
1.410102648255348
 20
4.0646079693501
 30
0.0
 10
1.424406307464791
 20
4.055764529118796
 30
0.0
 10
1.442424136354349
 20
4.034264703735781
 30
0.0
 10
1.446520023800998
 20
4.032034381856457
 30
0.0
 10
1.450619451166264
 20
4.029803762809213
 30
0.0
 10
1.457580292474429
 20
4.020162264338763
 30
0.0
 10
1.46109311292883
 20
4.001261243990976
 30
0.0
 10
1.46460593338323
 20
3.982360223643114
 30
0.0
 10
1.469919500633624
 20
3.955048897236527
 30
0.0
 10
1.484458484708461
 20
3.923242524850429
 30
0.0
 10
1.498994058278009
 20
3.891419244969572
 30
0.0
 10
1.502540983785366
 20
3.843307101733835
 30
0.0
 10
1.508952733740961
 20
3.818045489009831
 30
0.0
 10
1.515381536223029
 20
3.792766823759381
 30
0.0
 10
1.529985319898489
 20
3.732782856621611
 30
0.0
 10
1.535363686749532
 20
3.707551938445287
 30
0.0
 10
1.540742053600575
 20
3.682324430774252
 30
0.0
 10
1.552433265753684
 20
3.628701056012649
 30
0.0
 10
1.558428934063196
 20
3.621191123351903
 30
0.0
  0
SPLINE
  5
6F
330
1F
100
AcDbEntity
  8
Layer 1
 62
     7
420
 16777215
370
     9
100
AcDbSpline
210
0.0
220
0.0
230
1.0
 70
     8
 71
     3
 72
    50
 73
    46
 74
     0
 42
0.0000000001
 43
0.0000000001
 12
1.0
 22
0.0
 32
0.0
 13
1.0
 23
0.0
 33
0.0
 40
0.0
 40
0.0
 40
0.0
 40
0.0
 40
1.0
 40
1.0
 40
1.0
 40
2.0
 40
2.0
 40
2.0
 40
3.0
 40
3.0
 40
3.0
 40
4.0
 40
4.0
 40
4.0
 40
5.0
 40
5.0
 40
5.0
 40
6.0
 40
6.0
 40
6.0
 40
7.0
 40
7.0
 40
7.0
 40
8.0
 40
8.0
 40
8.0
 40
9.0
 40
9.0
 40
9.0
 40
10.0
 40
10.0
 40
10.0
 40
11.0
 40
11.0
 40
11.0
 40
12.0
 40
12.0
 40
12.0
 40
13.0
 40
13.0
 40
13.0
 40
14.0
 40
14.0
 40
14.0
 40
15.0
 40
15.0
 40
15.0
 40
15.0
 10
1.526605509150638
 20
3.516928565962278
 30
0.0
 10
1.522093542070504
 20
3.536910716488781
 30
0.0
 10
1.520442726081594
 20
3.549485249513383
 30
0.0
 10
1.517264135146156
 20
3.577761748918634
 30
0.0
 10
1.514082133705428
 20
3.606055300850345
 30
0.0
 10
1.50359141941639
 20
3.634580767142173
 30
0.0
 10
1.498110737406452
 20
3.656694483478355
 30
0.0
 10
1.49261641337537
 20
3.678794557793392
 30
0.0
 10
1.476078873197341
 20
3.743024604024072
 30
0.0
 10
1.472600157795897
 20
3.762959007476449
 30
0.0
 10
1.469135084415661
 20
3.782907052950009
 30
0.0
 10
1.44820481341699
 20
3.841025473691098
 30
0.0
 10
1.447853531371556
 20
3.8608611167497
 30
0.0
 10
1.447505789373041
 20
3.880693060783402
 30
0.0
 10
1.416296125872021
 20
4.002826665921589
 30
0.0
 10
1.408237101858693
 20
4.011451833813971
 30
0.0
 10
1.400195130371837
 20
4.020077001706378
 30
0.0
 10
1.387954826866184
 20
4.027822259232519
 30
0.0
 10
1.383957714659825
 20
4.033166521030631
 30
0.0
 10
1.379977782815685
 20
4.038527835355189
 30
0.0
 10
1.357662718831294
 20
4.057046879109913
 30
0.0
 10
1.357662718831294
 20
4.057046879109913
 30
0.0
 10
1.357662718831294
 20
4.057046879109913
 30
0.0
 10
1.362123659757849
 20
4.065238912829765
 30
0.0
 10
1.366438076450398
 20
4.069253077562595
 30
0.0
 10
1.370752238155534
 20
4.073284294821936
 30
0.0
 10
1.389301976457912
 20
4.09663261407507
 30
0.0
 10
1.393664012730899
 20
4.101693803933687
 30
0.0
 10
1.398012406982692
 20
4.106754993792253
 30
0.0
 10
1.406855847213996
 20
4.121062063506985
 30
0.0
 10
1.406855847213996
 20
4.121062063506985
 30
0.0
 10
1.406855847213996
 20
4.121062063506985
 30
0.0
 10
1.395031625354401
 20
4.141293180920065
 30
0.0
 10
1.387037528955754
 20
4.150968784443484
 30
0.0
 10
1.379026124002482
 20
4.160644539799843
 30
0.0
 10
1.367102997489319
 20
4.177748072023974
 30
0.0
 10
1.367102997489319
 20
4.177748072023974
 30
0.0
 10
1.367102997489319
 20
4.177748072023974
 30
0.0
 10
1.374647035203022
 20
4.184790917902155
 30
0.0
 10
1.364773622372468
 20
4.200796266811153
 30
0.0
 10
1.354896799036624
 20
4.21678145838238
 30
0.0
 10
1.346387588324281
 20
4.24211112796119
 30
0.0
 10
1.345671382212218
 20
4.251534508221754
 30
0.0
 10
1.344955176100156
 20
4.260943938203114
 30
0.0
 10
1.334232547451014
 20
4.282194951603097
 30
0.0
 10
1.334232547451014
 20
4.282194951603097
 30
0.0
  0
SPLINE
  5
70
330
1F
100
AcDbEntity
  8
Layer 1
 62
     7
420
 16777215
370
     9
100
AcDbSpline
210
0.0
220
0.0
230
1.0
 70
     8
 71
     3
 72
    35
 73
    31
 74
     0
 42
0.0000000001
 43
0.0000000001
 12
1.0
 22
0.0
 32
0.0
 13
1.0
 23
0.0
 33
0.0
 40
0.0
 40
0.0
 40
0.0
 40
0.0
 40
1.0
 40
1.0
 40
1.0
 40
2.0
 40
2.0
 40
2.0
 40
3.0
 40
3.0
 40
3.0
 40
4.0
 40
4.0
 40
4.0
 40
5.0
 40
5.0
 40
5.0
 40
6.0
 40
6.0
 40
6.0
 40
7.0
 40
7.0
 40
7.0
 40
8.0
 40
8.0
 40
8.0
 40
9.0
 40
9.0
 40
9.0
 40
10.0
 40
10.0
 40
10.0
 40
10.0
 10
1.483056767032003
 20
3.494446515054165
 30
0.0
 10
1.478677808561669
 20
3.51859289254652
 30
0.0
 10
1.461041955349363
 20
3.551565657743683
 30
0.0
 10
1.462174243107484
 20
3.583856321881752
 30
0.0
 10
1.463306530865591
 20
3.616164038546294
 30
0.0
 10
1.440043474244792
 20
3.69732738369785
 30
0.0
 10
1.439228363479161
 20
3.703605983818369
 30
0.0
 10
1.438396200187033
 20
3.709901776593913
 30
0.0
 10
1.426104739101952
 20
3.776062168821871
 30
0.0
 10
1.418761921200699
 20
3.804488730460093
 30
0.0
 10
1.411402050772937
 20
3.832915292098353
 30
0.0
 10
1.402790524901737
 20
3.885389326575339
 30
0.0
 10
1.397013128931109
 20
3.89916109218599
 30
0.0
 10
1.39123573296048
 20
3.91293256734203
 30
0.0
 10
1.368586694840852
 20
3.981541702372182
 30
0.0
 10
1.362556793930379
 20
3.988004757378917
 30
0.0
 10
1.356530431073174
 20
3.99448115946345
 30
0.0
 10
1.352499213813859
 20
3.998795448662261
 30
0.0
 10
1.347472129008249
 20
4.004190868039776
 30
0.0
 10
1.342441633697351
 20
4.009586287417315
 30
0.0
 10
1.315065507690141
 20
4.032450314918543
 30
0.0
 10
1.315065507690141
 20
4.032450314918543
 30
0.0
 10
1.315065507690141
 20
4.032450314918543
 30
0.0
 10
1.325822241392239
 20
4.041460869909352
 30
0.0
 10
1.333400384158899
 20
4.049553998975638
 30
0.0
 10
1.340992168946741
 20
4.057630075515438
 30
0.0
 10
1.356496326020217
 20
4.083174760178951
 30
0.0
 10
1.358859806190026
 20
4.091435004004741
 30
0.0
 10
1.361243749391595
 20
4.099695247830519
 30
0.0
 10
1.357628613778338
 20
4.115482476843491
 30
0.0
 10
1.346554830075143
 20
4.127337393250766
 30
0.0
  0
SPLINE
  5
71
330
1F
100
AcDbEntity
  8
Layer 1
 62
     7
420
 16777215
370
     9
100
AcDbSpline
210
0.0
220
0.0
230
1.0
 70
     8
 71
     3
 72
    23
 73
    19
 74
     0
 42
0.0000000001
 43
0.0000000001
 12
1.0
 22
0.0
 32
0.0
 13
1.0
 23
0.0
 33
0.0
 40
0.0
 40
0.0
 40
0.0
 40
0.0
 40
1.0
 40
1.0
 40
1.0
 40
2.0
 40
2.0
 40
2.0
 40
3.0
 40
3.0
 40
3.0
 40
4.0
 40
4.0
 40
4.0
 40
5.0
 40
5.0
 40
5.0
 40
6.0
 40
6.0
 40
6.0
 40
6.0
 10
1.441707930224172
 20
3.476063891511267
 30
0.0
 10
1.436196424271442
 20
3.49712717221645
 30
0.0
 10
1.433699934395109
 20
3.545205065367516
 30
0.0
 10
1.433082632936614
 20
3.557745493339174
 30
0.0
 10
1.432482384004591
 20
3.570299563332014
 30
0.0
 10
1.423089852420718
 20
3.63010277368912
 30
0.0
 10
1.419178002846744
 20
3.637544496243954
 30
0.0
 10
1.415262742767482
 20
3.644972576777629
 30
0.0
 10
1.413816688522161
 20
3.693016364875739
 30
0.0
 10
1.403039491788301
 20
3.713216787741165
 30
0.0
 10
1.392265705559731
 20
3.733413800101276
 30
0.0
 10
1.387037528955754
 20
3.762825997769912
 30
0.0
 10
1.385639221749291
 20
3.782692333401478
 30
0.0
 10
1.384257839125831
 20
3.802575579776633
 30
0.0
 10
1.359009868423022
 20
3.856662640471098
 30
0.0
 10
1.357478551545329
 20
3.872368017357012
 30
0.0
 10
1.355930182141164
 20
3.888069983737637
 30
0.0
 10
1.346254578617744
 20
3.939544740163039
 30
0.0
 10
1.334181389871573
 20
3.952484197254294
 30
0.0
  0
SPLINE
  5
72
330
1F
100
AcDbEntity
  8
Layer 1
 62
     7
420
 16777215
370
     9
100
AcDbSpline
210
0.0
220
0.0
230
1.0
 70
     8
 71
     3
 72
    20
 73
    16
 74
     0
 42
0.0000000001
 43
0.0000000001
 12
1.0
 22
0.0
 32
0.0
 13
1.0
 23
0.0
 33
0.0
 40
0.0
 40
0.0
 40
0.0
 40
0.0
 40
1.0
 40
1.0
 40
1.0
 40
2.0
 40
2.0
 40
2.0
 40
3.0
 40
3.0
 40
3.0
 40
4.0
 40
4.0
 40
4.0
 40
5.0
 40
5.0
 40
5.0
 40
5.0
 10
1.402507452962204
 20
3.458660217087514
 30
0.0
 10
1.398312531448697
 20
3.488017712572084
 30
0.0
 10
1.394431376422391
 20
3.496496228736772
 30
0.0
 10
1.394148304482858
 20
3.518425777787026
 30
0.0
 10
1.393882285069809
 20
3.540341820978849
 30
0.0
 10
1.387702449474318
 20
3.572898368367216
 30
0.0
 10
1.386171132596625
 20
3.58860374525313
 30
0.0
 10
1.384639815718932
 20
3.604305711633742
 30
0.0
 10
1.378961324401871
 20
3.621208175878375
 30
0.0
 10
1.375414398894526
 20
3.639058760595175
 30
0.0
 10
1.371867473387169
 20
3.656929808343762
 30
0.0
 10
1.364473497906463
 20
3.684305934350972
 30
0.0
 10
1.362792118795773
 20
3.695847084271033
 30
0.0
 10
1.361110739685071
 20
3.707388374573813
 30
0.0
 10
1.351032696536789
 20
3.777644785436539
 30
0.0
 10
1.33491464851012
 20
3.793865006464544
 30
0.0
  0
SPLINE
  5
73
330
1F
100
AcDbEntity
  8
Layer 1
 62
     7
420
 16777215
370
     9
100
AcDbSpline
210
0.0
220
0.0
230
1.0
 70
     8
 71
     3
 72
    14
 73
    10
 74
     0
 42
0.0000000001
 43
0.0000000001
 12
1.0
 22
0.0
 32
0.0
 13
1.0
 23
0.0
 33
0.0
 40
0.0
 40
0.0
 40
0.0
 40
0.0
 40
1.0
 40
1.0
 40
1.0
 40
2.0
 40
2.0
 40
2.0
 40
3.0
 40
3.0
 40
3.0
 40
3.0
 10
1.368569514766389
 20
3.443138873388218
 30
0.0
 10
1.365172651492053
 20
3.46517073759733
 30
0.0
 10
1.364374593252895
 20
3.472499913477451
 30
0.0
 10
1.360759457639637
 20
3.488283731985133
 30
0.0
 10
1.357130680005184
 20
3.50405731897696
 30
0.0
 10
1.350534762763636
 20
3.52412132163056
 30
0.0
 10
1.34888748870589
 20
3.536695854655186
 30
0.0
 10
1.347236931151504
 20
3.549266977174498
 30
0.0
 10
1.335562644516269
 20
3.57368278458518
 30
0.0
 10
1.333915370458524
 20
3.586253907104505
 30
0.0
  0
POLYLINE
  5
74
330
1F
100
AcDbEntity
  8
Layer 1
 62
     7
420
 16777215
370
    35
100
AcDb2dPolyline
 66
     1
 10
0.0
 20
0.0
 30
0.0
  0
VERTEX
  5
75
330
74
100
AcDbEntity
  8
Layer 1
 62
     7
420
 16777215
370
    35
100
AcDbVertex
100
AcDb2dVertex
 10
1.334532671917019
 20
3.424503872453455
 30
0.0
  0
VERTEX
  5
76
330
74
100
AcDbEntity
  8
Layer 1
 62
     7
420
 16777215
370
    35
100
AcDbVertex
100
AcDb2dVertex
 10
1.559360002008879
 20
3.528302736981522
 30
0.0
  0
SEQEND
  5
77
330
74
100
AcDbEntity
  8
Layer 1
 62
     7
420
 16777215
370
    35
  0
POLYLINE
  5
78
330
1F
100
AcDbEntity
  8
Layer 1
 62
     7
420
 16777215
370
    35
100
AcDb2dPolyline
 66
     1
 10
0.0
 20
0.0
 30
0.0
  0
VERTEX
  5
79
330
78
100
AcDbEntity
  8
Layer 1
 62
     7
420
 16777215
370
    35
100
AcDbVertex
100
AcDb2dVertex
 10
3.507478142373252
 20
3.97882694015694
 30
0.0
  0
VERTEX
  5
7A
330
78
100
AcDbEntity
  8
Layer 1
 62
     7
420
 16777215
370
    35
100
AcDbVertex
100
AcDb2dVertex
 10
3.74836213139646
 20
3.855629257366559
 30
0.0
  0
SEQEND
  5
7B
330
78
100
AcDbEntity
  8
Layer 1
 62
     7
420
 16777215
370
    35
  0
POLYLINE
  5
7C
330
1F
100
AcDbEntity
  8
Layer 1
 62
     7
420
 16777215
370
    35
100
AcDb2dPolyline
 66
     1
 10
0.0
 20
0.0
 30
0.0
  0
VERTEX
  5
7D
330
7C
100
AcDbEntity
  8
Layer 1
 62
     7
420
 16777215
370
    35
100
AcDbVertex
100
AcDb2dVertex
 10
3.472459254695018
 20
4.052050488851958
 30
0.0
  0
VERTEX
  5
7E
330
7C
100
AcDbEntity
  8
Layer 1
 62
     7
420
 16777215
370
    35
100
AcDbVertex
100
AcDb2dVertex
 10
3.723533652845011
 20
3.921192956951674
 30
0.0
  0
SEQEND
  5
7F
330
7C
100
AcDbEntity
  8
Layer 1
 62
     7
420
 16777215
370
    35
  0
POLYLINE
  5
80
330
1F
100
AcDbEntity
  8
Layer 1
 62
     7
420
 16777215
370
    35
100
AcDb2dPolyline
 66
     1
 10
0.0
 20
0.0
 30
0.0
  0
VERTEX
  5
81
330
80
100
AcDbEntity
  8
Layer 1
 62
     7
420
 16777215
370
    35
100
AcDbVertex
100
AcDb2dVertex
 10
3.538186332054187
 20
4.11130119735118
 30
0.0
  0
VERTEX
  5
82
330
80
100
AcDbEntity
  8
Layer 1
 62
     7
420
 16777215
370
    35
100
AcDbVertex
100
AcDb2dVertex
 10
3.778937311370883
 20
3.983956340121456
 30
0.0
  0
SEQEND
  5
83
330
80
100
AcDbEntity
  8
Layer 1
 62
     7
420
 16777215
370
    35
  0
POLYLINE
  5
84
330
1F
100
AcDbEntity
  8
Layer 1
 62
     7
420
 16777215
370
    35
100
AcDb2dPolyline
 66
     1
 10
0.0
 20
0.0
 30
0.0
  0
VERTEX
  5
85
330
84
100
AcDbEntity
  8
Layer 1
 62
     7
420
 16777215
370
    35
100
AcDbVertex
100
AcDb2dVertex
 10
3.505363629090021
 20
4.187573737780402
 30
0.0
  0
VERTEX
  5
86
330
84
100
AcDbEntity
  8
Layer 1
 62
     7
420
 16777215
370
    35
100
AcDbVertex
100
AcDb2dVertex
 10
3.754357799705986
 20
4.056814964749807
 30
0.0
  0
SEQEND
  5
87
330
84
100
AcDbEntity
  8
Layer 1
 62
     7
420
 16777215
370
    35
  0
POLYLINE
  5
88
330
1F
100
AcDbEntity
  8
Layer 1
 62
     7
420
 16777215
370
    35
100
AcDb2dPolyline
 66
     1
 10
0.0
 20
0.0
 30
0.0
  0
VERTEX
  5
89
330
88
100
AcDbEntity
  8
Layer 1
 62
     7
420
 16777215
370
    35
100
AcDbVertex
100
AcDb2dVertex
 10
3.499968209712481
 20
3.435478878494463
 30
0.0
  0
VERTEX
  5
8A
330
88
100
AcDbEntity
  8
Layer 1
 62
     7
420
 16777215
370
    35
100
AcDbVertex
100
AcDb2dVertex
 10
3.505315882015894
 20
3.976814742032603
 30
0.0
  0
VERTEX
  5
8B
330
88
100
AcDbEntity
  8
Layer 1
 62
     7
420
 16777215
370
    35
100
AcDbVertex
100
AcDb2dVertex
 10
3.470375255263181
 20
4.052118698957871
 30
0.0
  0
VERTEX
  5
8C
330
88
100
AcDbEntity
  8
Layer 1
 62
     7
420
 16777215
370
    35
100
AcDbVertex
100
AcDb2dVertex
 10
3.538186332054187
 20
4.11130119735118
 30
0.0
  0
VERTEX
  5
8D
330
88
100
AcDbEntity
  8
Layer 1
 62
     7
420
 16777215
370
    35
100
AcDbVertex
100
AcDb2dVertex
 10
3.505298829489397
 20
4.185489919044825
 30
0.0
  0
VERTEX
  5
8E
330
88
100
AcDbEntity
  8
Layer 1
 62
     7
420
 16777215
370
    35
100
AcDbVertex
100
AcDb2dVertex
 10
3.50683014636709
 20
4.647674775684309
 30
0.0
  0
SEQEND
  5
8F
330
88
100
AcDbEntity
  8
Layer 1
 62
     7
420
 16777215
370
    35
  0
SPLINE
  5
90
330
1F
100
AcDbEntity
  8
Layer 1
 62
     7
420
 16777215
370
     9
100
AcDbSpline
210
0.0
220
0.0
230
1.0
 70
     8
 71
     3
 72
    26
 73
    22
 74
     0
 42
0.0000000001
 43
0.0000000001
 12
1.0
 22
0.0
 32
0.0
 13
1.0
 23
0.0
 33
0.0
 40
0.0
 40
0.0
 40
0.0
 40
0.0
 40
1.0
 40
1.0
 40
1.0
 40
2.0
 40
2.0
 40
2.0
 40
3.0
 40
3.0
 40
3.0
 40
4.0
 40
4.0
 40
4.0
 40
5.0
 40
5.0
 40
5.0
 40
6.0
 40
6.0
 40
6.0
 40
7.0
 40
7.0
 40
7.0
 40
7.0
 10
3.632425414380249
 20
3.971334060022665
 30
0.0
 10
3.651244582600965
 20
3.972766472246791
 30
0.0
 10
3.673276446810102
 20
3.976163335521139
 30
0.0
 10
3.690393772888354
 20
3.988086462034302
 30
0.0
 10
3.707497456945425
 20
4.000009736322442
 30
0.0
 10
3.733840387147413
 20
4.007437669081165
 30
0.0
 10
3.733840387147413
 20
4.007437669081165
 30
0.0
 10
3.733840387147413
 20
4.007437669081165
 30
0.0
 10
3.736074080816656
 20
4.011533685941067
 30
0.0
 10
3.735439726831701
 20
4.023040730808197
 30
0.0
 10
3.734791730825539
 20
4.03453413365412
 30
0.0
 10
3.724314658557685
 20
4.063076652472406
 30
0.0
 10
3.724532930896607
 20
4.069321287668509
 30
0.0
 10
3.724747792730214
 20
4.075582975391108
 30
0.0
 10
3.727878636591514
 20
4.075463607705753
 30
0.0
 10
3.730395776711879
 20
4.087905131023856
 30
0.0
 10
3.732926184428884
 20
4.100326191310172
 30
0.0
 10
3.739621006324013
 20
4.142875806761215
 30
0.0
 10
3.743034922124833
 20
4.151101794149996
 30
0.0
 10
3.746448837925653
 20
4.159327932922817
 30
0.0
 10
3.753293722053791
 20
4.175783620973751
 30
0.0
 10
3.753692751173376
 20
4.187256560787912
 30
0.0
  0
SPLINE
  5
91
330
1F
100
AcDbEntity
  8
Layer 1
 62
     7
420
 16777215
370
     9
100
AcDbSpline
210
0.0
220
0.0
230
1.0
 70
     8
 71
     3
 72
    11
 73
     7
 74
     0
 42
0.0000000001
 43
0.0000000001
 12
1.0
 22
0.0
 32
0.0
 13
1.0
 23
0.0
 33
0.0
 40
0.0
 40
0.0
 40
0.0
 40
0.0
 40
1.0
 40
1.0
 40
1.0
 40
2.0
 40
2.0
 40
2.0
 40
2.0
 10
3.72304936109304
 20
3.340042839912472
 30
0.0
 10
3.73300803655598
 20
3.356379160690797
 30
0.0
 10
3.738986652339058
 20
3.378093716391908
 30
0.0
 10
3.742816649785937
 20
3.397775742452369
 30
0.0
 10
3.746629782328732
 20
3.417478231544654
 30
0.0
 10
3.749910500800625
 20
3.451781093807098
 30
0.0
 10
3.749095390035007
 20
3.458076886582641
 30
0.0
  0
SPLINE
  5
92
330
1F
100
AcDbEntity
  8
Layer 1
 62
     7
420
 16777215
370
     9
100
AcDbSpline
210
0.0
220
0.0
230
1.0
 70
     8
 71
     3
 72
    14
 73
    10
 74
     0
 42
0.0000000001
 43
0.0000000001
 12
1.0
 22
0.0
 32
0.0
 13
1.0
 23
0.0
 33
0.0
 40
0.0
 40
0.0
 40
0.0
 40
0.0
 40
1.0
 40
1.0
 40
1.0
 40
2.0
 40
2.0
 40
2.0
 40
3.0
 40
3.0
 40
3.0
 40
3.0
 10
3.680919389177385
 20
3.358210470518959
 30
0.0
 10
3.691092926473933
 20
3.380808478607138
 30
0.0
 10
3.698353892248128
 20
3.409767079071482
 30
0.0
 10
3.707763476358473
 20
3.439690852534454
 30
0.0
 10
3.717156007942372
 20
3.469635089029175
 30
0.0
 10
3.728594842703564
 20
3.498443627260523
 30
0.0
 10
3.730494494153188
 20
3.523422168044981
 30
0.0
 10
3.732424840150442
 20
3.54838706680827
 30
0.0
 10
3.738072636919848
 20
3.590967225422913
 30
0.0
 10
3.746598900158662
 20
3.595895405574955
 30
0.0
  0
SPLINE
  5
93
330
1F
100
AcDbEntity
  8
Layer 1
 62
     7
420
 16777215
370
     9
100
AcDbSpline
210
0.0
220
0.0
230
1.0
 70
     8
 71
     3
 72
    17
 73
    13
 74
     0
 42
0.0000000001
 43
0.0000000001
 12
1.0
 22
0.0
 32
0.0
 13
1.0
 23
0.0
 33
0.0
 40
0.0
 40
0.0
 40
0.0
 40
0.0
 40
1.0
 40
1.0
 40
1.0
 40
2.0
 40
2.0
 40
2.0
 40
3.0
 40
3.0
 40
3.0
 40
4.0
 40
4.0
 40
4.0
 40
4.0
 10
3.63259252913973
 20
3.378676912797434
 30
0.0
 10
3.640252524033485
 20
3.38883339756751
 30
0.0
 10
3.655524766746869
 20
3.467602427873051
 30
0.0
 10
3.665415232103896
 20
3.481858340008355
 30
0.0
 10
3.675288644934451
 20
3.496127894164867
 30
0.0
 10
3.702900095807056
 20
3.599510541188225
 30
0.0
 10
3.707463351892481
 20
3.610816366242905
 30
0.0
 10
3.712043660504378
 20
3.622142654329347
 30
0.0
 10
3.721050991966093
 20
3.670868543486588
 30
0.0
 10
3.726797506412822
 20
3.686321542980611
 30
0.0
 10
3.732557849856978
 20
3.701757489948174
 30
0.0
 10
3.743983042596988
 20
3.759794058562205
 30
0.0
 10
3.749596922010773
 20
3.771082831090388
 30
0.0
  0
SPLINE
  5
94
330
1F
100
AcDbEntity
  8
Layer 1
 62
     7
420
 16777215
370
     9
100
AcDbSpline
210
0.0
220
0.0
230
1.0
 70
     8
 71
     3
 72
    35
 73
    31
 74
     0
 42
0.0000000001
 43
0.0000000001
 12
1.0
 22
0.0
 32
0.0
 13
1.0
 23
0.0
 33
0.0
 40
0.0
 40
0.0
 40
0.0
 40
0.0
 40
1.0
 40
1.0
 40
1.0
 40
2.0
 40
2.0
 40
2.0
 40
3.0
 40
3.0
 40
3.0
 40
4.0
 40
4.0
 40
4.0
 40
5.0
 40
5.0
 40
5.0
 40
6.0
 40
6.0
 40
6.0
 40
7.0
 40
7.0
 40
7.0
 40
8.0
 40
8.0
 40
8.0
 40
9.0
 40
9.0
 40
9.0
 40
10.0
 40
10.0
 40
10.0
 40
10.0
 10
3.60283245993095
 20
3.393280828920549
 30
0.0
 10
3.607296811362782
 20
3.401472730192747
 30
0.0
 10
3.623268207661744
 20
3.440557120879513
 30
0.0
 10
3.627047047529206
 20
3.459209174340748
 30
0.0
 10
3.630825887396643
 20
3.477861362386407
 30
0.0
 10
3.64659606388318
 20
3.540958986274581
 30
0.0
 10
3.654556183242928
 20
3.559460977502833
 30
0.0
 10
3.662499250076229
 20
3.577959695338866
 30
0.0
 10
3.679469924426762
 20
3.67544544159317
 30
0.0
 10
3.683149859640657
 20
3.690966651193119
 30
0.0
 10
3.686812742328053
 20
3.706487860793092
 30
0.0
 10
3.713141843209542
 20
3.832867545024189
 30
0.0
 10
3.717636889189028
 20
3.842110014375079
 30
0.0
 10
3.722135345673829
 20
3.851335431199497
 30
0.0
 10
3.721668106448356
 20
3.868053728158164
 30
0.0
 10
3.721668106448356
 20
3.868053728158164
 30
0.0
 10
3.721668106448356
 20
3.868053728158164
 30
0.0
 10
3.72368371507802
 20
3.865888057295516
 30
0.0
 10
3.717005945709363
 20
3.883858009697633
 30
0.0
 10
3.710328176340706
 20
3.901841604120982
 30
0.0
 10
3.698405236231666
 20
3.918945288178052
 30
0.0
 10
3.691328251339327
 20
3.925456088678793
 30
0.0
 10
3.684265094872292
 20
3.931966597396379
 30
0.0
 10
3.694824205580921
 20
3.935765900295602
 30
0.0
 10
3.694824205580921
 20
3.935765900295602
 30
0.0
 10
3.694824205580921
 20
3.935765900295602
 30
0.0
 10
3.731875748797872
 20
3.951167742210234
 30
0.0
 10
3.731875748797872
 20
3.951167742210234
 30
0.0
 10
3.731875748797872
 20
3.951167742210234
 30
0.0
 10
3.752908334955388
 20
3.955649146168538
 30
0.0
 10
3.752908334955388
 20
3.955649146168538
 30
0.0
  0
SPLINE
  5
95
330
1F
100
AcDbEntity
  8
Layer 1
 62
     7
420
 16777215
370
     9
100
AcDbSpline
210
0.0
220
0.0
230
1.0
 70
     8
 71
     3
 72
    35
 73
    31
 74
     0
 42
0.0000000001
 43
0.0000000001
 12
1.0
 22
0.0
 32
0.0
 13
1.0
 23
0.0
 33
0.0
 40
0.0
 40
0.0
 40
0.0
 40
0.0
 40
1.0
 40
1.0
 40
1.0
 40
2.0
 40
2.0
 40
2.0
 40
3.0
 40
3.0
 40
3.0
 40
4.0
 40
4.0
 40
4.0
 40
5.0
 40
5.0
 40
5.0
 40
6.0
 40
6.0
 40
6.0
 40
7.0
 40
7.0
 40
7.0
 40
8.0
 40
8.0
 40
8.0
 40
9.0
 40
9.0
 40
9.0
 40
10.0
 40
10.0
 40
10.0
 40
10.0
 10
3.563748069244184
 20
3.409252092771857
 30
0.0
 10
3.573809059865981
 20
3.428719256998736
 30
0.0
 10
3.602815407404452
 20
3.512232300170353
 30
0.0
 10
3.606863677190252
 20
3.538176013953426
 30
0.0
 10
3.61089489444958
 20
3.564106085715328
 30
0.0
 10
3.631808112921767
 20
3.655197271653631
 30
0.0
 10
3.639754590260332
 20
3.67369926288187
 30
0.0
 10
3.647714709620105
 20
3.692214896131304
 30
0.0
 10
3.664300182414813
 20
3.749020272333622
 30
0.0
 10
3.665998428509435
 20
3.767737125395481
 30
0.0
 10
3.667696860146609
 20
3.786453978457353
 30
0.0
 10
3.686679732621517
 20
3.881791243488566
 30
0.0
 10
3.688913613590103
 20
3.885890670853781
 30
0.0
 10
3.691144084053374
 20
3.889986832709256
 30
0.0
 10
3.680152025485869
 20
3.903925422856521
 30
0.0
 10
3.680152025485869
 20
3.903925422856521
 30
0.0
 10
3.680152025485869
 20
3.903925422856521
 30
0.0
 10
3.667147768794014
 20
3.920043470883216
 30
0.0
 10
3.663382570947761
 20
3.931649420403889
 30
0.0
 10
3.659603731080324
 20
3.943258926771174
 30
0.0
 10
3.65385702965735
 20
3.958063783917825
 30
0.0
 10
3.65385702965735
 20
3.958063783917825
 30
0.0
 10
3.65385702965735
 20
3.958063783917825
 30
0.0
 10
3.669712468776273
 20
3.963759327761295
 30
0.0
 10
3.68230064382207
 20
3.965423654345525
 30
0.0
 10
3.694875176846684
 20
3.967070928403258
 30
0.0
 10
3.730443336573747
 20
3.970003962957422
 30
0.0
 10
3.737922574686839
 20
3.974949195635936
 30
0.0
 10
3.745415454821114
 20
3.979911480840921
 30
0.0
 10
3.760503530248545
 20
3.993983225690297
 30
0.0
 10
3.760503530248545
 20
3.993983225690297
 30
0.0
  0
SPLINE
  5
96
330
1F
100
AcDbEntity
  8
Layer 1
 62
     7
420
 16777215
370
     9
100
AcDbSpline
210
0.0
220
0.0
230
1.0
 70
     8
 71
     3
 72
    56
 73
    52
 74
     0
 42
0.0000000001
 43
0.0000000001
 12
1.0
 22
0.0
 32
0.0
 13
1.0
 23
0.0
 33
0.0
 40
0.0
 40
0.0
 40
0.0
 40
0.0
 40
1.0
 40
1.0
 40
1.0
 40
2.0
 40
2.0
 40
2.0
 40
3.0
 40
3.0
 40
3.0
 40
4.0
 40
4.0
 40
4.0
 40
5.0
 40
5.0
 40
5.0
 40
6.0
 40
6.0
 40
6.0
 40
7.0
 40
7.0
 40
7.0
 40
8.0
 40
8.0
 40
8.0
 40
9.0
 40
9.0
 40
9.0
 40
10.0
 40
10.0
 40
10.0
 40
11.0
 40
11.0
 40
11.0
 40
12.0
 40
12.0
 40
12.0
 40
13.0
 40
13.0
 40
13.0
 40
14.0
 40
14.0
 40
14.0
 40
15.0
 40
15.0
 40
15.0
 40
16.0
 40
16.0
 40
16.0
 40
17.0
 40
17.0
 40
17.0
 40
17.0
 10
3.753607488540991
 20
4.483591955411144
 30
0.0
 10
3.748495141102972
 20
4.456631911049991
 30
0.0
 10
3.753542688940367
 20
4.42202892432153
 30
0.0
 10
3.749579681786953
 20
4.398165618768707
 30
0.0
 10
3.745616674633563
 20
4.374302313215884
 30
0.0
 10
3.743034922124833
 20
4.300311400829401
 30
0.0
 10
3.738355708859368
 20
4.28587473191342
 30
0.0
 10
3.733676495593904
 20
4.271421010470968
 30
0.0
 10
3.732677217542308
 20
4.213016107285006
 30
0.0
 10
3.725549261474675
 20
4.18823878631301
 30
0.0
 10
3.718421305407016
 20
4.163441154212793
 30
0.0
 10
3.701102759516314
 20
4.085790617740624
 30
0.0
 10
3.701102759516314
 20
4.085790617740624
 30
0.0
 10
3.701102759516314
 20
4.085790617740624
 30
0.0
 10
3.700785582523824
 20
4.076415138683223
 30
0.0
 10
3.703582196866162
 20
4.066923851911105
 30
0.0
 10
3.706382221713789
 20
4.057445908229472
 30
0.0
 10
3.711511621678255
 20
4.024923329731324
 30
0.0
 10
3.711361559445272
 20
4.020745609043098
 30
0.0
 10
3.711211497212263
 20
4.016581233778462
 30
0.0
 10
3.710993224873341
 20
4.010319546055863
 30
0.0
 10
3.70158364076297
 20
4.009603339943825
 30
0.0
 10
3.692160414631442
 20
4.00890418635821
 30
0.0
 10
3.675305697460923
 20
4.004259078145714
 30
0.0
 10
3.666864696854494
 20
4.001424948245131
 30
0.0
 10
3.658420285742775
 20
3.998594228849836
 30
0.0
 10
3.608780381166348
 20
3.981541702372182
 30
0.0
 10
3.608780381166348
 20
3.981541702372182
 30
0.0
 10
3.608780381166348
 20
3.981541702372182
 30
0.0
 10
3.616754142547279
 20
3.970836126249537
 30
0.0
 10
3.620734202227165
 20
3.965471401419652
 30
0.0
 10
3.624714261907052
 20
3.960127139621578
 30
0.0
 10
3.666748739674454
 20
3.908570531069055
 30
0.0
 10
3.660169874959365
 20
3.899409913845261
 30
0.0
 10
3.653591195516305
 20
3.890252707126781
 30
0.0
 10
3.652243860652561
 20
3.881958358248046
 30
0.0
 10
3.650477218909474
 20
3.861144044429428
 30
0.0
 10
3.648710577166387
 20
3.840343372631992
 30
0.0
 10
3.629311623045421
 20
3.762757787664024
 30
0.0
 10
3.626931090349141
 20
3.754497543838233
 30
0.0
 10
3.62455055765286
 20
3.746237300012467
 30
0.0
 10
3.613790597712068
 20
3.706955100018566
 30
0.0
 10
3.609762606691447
 20
3.681007975730191
 30
0.0
 10
3.605714336905673
 20
3.655064261947107
 30
0.0
 10
3.596673087367208
 20
3.605304989685313
 30
0.0
 10
3.585466166966095
 20
3.582741086650117
 30
0.0
 10
3.574242194038511
 20
3.560177183614895
 30
0.0
 10
3.561169727240768
 20
3.514728925562432
 30
0.0
 10
3.55202634524974
 20
3.49208316982803
 30
0.0
 10
3.542899650372621
 20
3.469450921743234
 30
0.0
 10
3.530294422800327
 20
3.437545644703568
 30
0.0
 10
3.525731348756936
 20
3.426236409143573
 30
0.0
  0
SPLINE
  5
97
330
1F
100
AcDbEntity
  8
Layer 1
 62
     7
420
 16777215
370
     9
100
AcDbSpline
210
0.0
220
0.0
230
1.0
 70
     8
 71
     3
 72
    62
 73
    58
 74
     0
 42
0.0000000001
 43
0.0000000001
 12
1.0
 22
0.0
 32
0.0
 13
1.0
 23
0.0
 33
0.0
 40
0.0
 40
0.0
 40
0.0
 40
0.0
 40
1.0
 40
1.0
 40
1.0
 40
2.0
 40
2.0
 40
2.0
 40
3.0
 40
3.0
 40
3.0
 40
4.0
 40
4.0
 40
4.0
 40
5.0
 40
5.0
 40
5.0
 40
6.0
 40
6.0
 40
6.0
 40
7.0
 40
7.0
 40
7.0
 40
8.0
 40
8.0
 40
8.0
 40
9.0
 40
9.0
 40
9.0
 40
10.0
 40
10.0
 40
10.0
 40
11.0
 40
11.0
 40
11.0
 40
12.0
 40
12.0
 40
12.0
 40
13.0
 40
13.0
 40
13.0
 40
14.0
 40
14.0
 40
14.0
 40
15.0
 40
15.0
 40
15.0
 40
16.0
 40
16.0
 40
16.0
 40
17.0
 40
17.0
 40
17.0
 40
18.0
 40
18.0
 40
18.0
 40
19.0
 40
19.0
 40
19.0
 40
19.0
 10
3.501550865600823
 20
3.510550921059639
 30
0.0
 10
3.515455314259498
 20
3.520492679657473
 30
0.0
 10
3.525748219241399
 20
3.546221395945584
 30
0.0
 10
3.532756989843215
 20
3.56788492558279
 30
0.0
 10
3.539785859037794
 20
3.589551865725298
 30
0.0
 10
3.550443688086312
 20
3.625703221857886
 30
0.0
 10
3.554938734065824
 20
3.634932049187594
 30
0.0
 10
3.559437190550625
 20
3.644157604797353
 30
0.0
 10
3.57510505187828
 20
3.674913402767073
 30
0.0
 10
3.577922129252404
 20
3.695697022038037
 30
0.0
 10
3.580735796121214
 20
3.716463588782504
 30
0.0
 10
3.601816129352882
 20
3.78250802383041
 30
0.0
 10
3.604715058854076
 20
3.805354998805178
 30
0.0
 10
3.607596935828799
 20
3.828201973779907
 30
0.0
 10
3.626399051523044
 20
3.918328132431055
 30
0.0
 10
3.626399051523044
 20
3.918328132431055
 30
0.0
 10
3.626399051523044
 20
3.918328132431055
 30
0.0
 10
3.626497956176611
 20
3.92145883058087
 30
0.0
 10
3.618571941869807
 20
3.933214842334526
 30
0.0
 10
3.610628875036531
 20
3.944957212067051
 30
0.0
 10
3.59137657264326
 20
3.961293532432629
 30
0.0
 10
3.589545131299549
 20
3.968653402860392
 30
0.0
 10
3.587713689955863
 20
3.976030325814627
 30
0.0
 10
3.578021033905972
 20
3.997230026731598
 30
0.0
 10
3.578021033905972
 20
3.997230026731598
 30
0.0
 10
3.578021033905972
 20
3.997230026731598
 30
0.0
 10
3.586581402197756
 20
4.003191589988205
 30
0.0
 10
3.596038733382253
 20
4.00494117920482
 30
0.0
 10
3.605482422545568
 20
4.006704410442593
 30
0.0
 10
3.64358458770721
 20
4.022075706141966
 30
0.0
 10
3.649945180083376
 20
4.024974635716376
 30
0.0
 10
3.656305772459543
 20
4.027887058833143
 30
0.0
 10
3.675506917273373
 20
4.03972833321921
 30
0.0
 10
3.675506917273373
 20
4.03972833321921
 30
0.0
 10
3.675506917273373
 20
4.03972833321921
 30
0.0
 10
3.681035346357425
 20
4.04893669751713
 30
0.0
 10
3.674391682041737
 20
4.06795367504502
 30
0.0
 10
3.667761659747232
 20
4.086957010551714
 30
0.0
 10
3.660787361871699
 20
4.096598509022152
 30
0.0
 10
3.661083890378576
 20
4.104923552448541
 30
0.0
 10
3.661367147786601
 20
4.113265648401403
 30
0.0
 10
3.664832035698358
 20
4.122542222805237
 30
0.0
 10
3.666049586088876
 20
4.127705727822672
 30
0.0
 10
3.667280778500551
 20
4.132883025992896
 30
0.0
 10
3.671908834186575
 20
4.146289571178019
 30
0.0
 10
3.674473534168833
 20
4.159761067095348
 30
0.0
 10
3.677038234151066
 20
4.173232563012688
 30
0.0
 10
3.684234400324637
 20
4.20011075524677
 30
0.0
 10
3.688446560517175
 20
4.231269131626719
 30
0.0
 10
3.692675587190454
 20
4.262427508006655
 30
0.0
 10
3.691294146286357
 20
4.312551704335053
 30
0.0
 10
3.69805376778211
 20
4.326923573650435
 30
0.0
 10
3.70481698634924
 20
4.341295442965765
 30
0.0
 10
3.706880155486942
 20
4.370438210716076
 30
0.0
 10
3.707463351892481
 20
4.387122402621786
 30
0.0
 10
3.708046548298019
 20
4.403792952506339
 30
0.0
 10
3.726016500700148
 20
4.500197705695061
 30
0.0
 10
3.730978785905133
 20
4.522976631550098
 30
0.0
  0
SPLINE
  5
98
330
1F
100
AcDbEntity
  8
Layer 1
 62
     7
420
 16777215
370
     9
100
AcDbSpline
210
0.0
220
0.0
230
1.0
 70
     8
 71
     3
 72
    50
 73
    46
 74
     0
 42
0.0000000001
 43
0.0000000001
 12
1.0
 22
0.0
 32
0.0
 13
1.0
 23
0.0
 33
0.0
 40
0.0
 40
0.0
 40
0.0
 40
0.0
 40
1.0
 40
1.0
 40
1.0
 40
2.0
 40
2.0
 40
2.0
 40
3.0
 40
3.0
 40
3.0
 40
4.0
 40
4.0
 40
4.0
 40
5.0
 40
5.0
 40
5.0
 40
6.0
 40
6.0
 40
6.0
 40
7.0
 40
7.0
 40
7.0
 40
8.0
 40
8.0
 40
8.0
 40
9.0
 40
9.0
 40
9.0
 40
10.0
 40
10.0
 40
10.0
 40
11.0
 40
11.0
 40
11.0
 40
12.0
 40
12.0
 40
12.0
 40
13.0
 40
13.0
 40
13.0
 40
14.0
 40
14.0
 40
14.0
 40
15.0
 40
15.0
 40
15.0
 40
15.0
 10
3.505581901428943
 20
3.775431225342206
 30
0.0
 10
3.512709857496601
 20
3.800225598840686
 30
0.0
 10
3.52321762431211
 20
3.832199085986265
 30
0.0
 10
3.531242543272482
 20
3.852781485444805
 30
0.0
 10
3.539271055122248
 20
3.873367295408608
 30
0.0
 10
3.551258798851955
 20
3.94808805592835
 30
0.0
 10
3.553574531947611
 20
3.954264481018564
 30
0.0
 10
3.546562533060018
 20
3.962858954363292
 30
0.0
 10
3.546562533060018
 20
3.962858954363292
 30
0.0
 10
3.535638684598426
 20
3.978878097736368
 30
0.0
 10
3.524731888663331
 20
3.994914293635967
 30
0.0
 10
3.515673586598394
 20
4.004624002212331
 30
0.0
 10
3.504616728430291
 20
4.016482477315991
 30
0.0
 10
3.493556459756898
 20
4.028354298058616
 30
0.0
 10
3.485613392923621
 20
4.040110309812323
 30
0.0
 10
3.491008812301136
 20
4.045140805123221
 30
0.0
 10
3.496404231678677
 20
4.050167889928831
 30
0.0
 10
3.55102688449185
 20
4.060777971903223
 30
0.0
 10
3.559471295603594
 20
4.063608691298504
 30
0.0
 10
3.567912296210023
 20
4.066456463220283
 30
0.0
 10
3.577270722740953
 20
4.065075208575624
 30
0.0
 10
3.587829647135903
 20
4.068888153495992
 30
0.0
 10
3.598405624057351
 20
4.072684045889913
 30
0.0
 10
3.593409233799396
 20
4.079129900898478
 30
0.0
 10
3.595639704262668
 20
4.083226067635565
 30
0.0
 10
3.597870174725939
 20
4.087321934618318
 30
0.0
 10
3.593525190979436
 20
4.112501695215188
 30
0.0
 10
3.591843811868759
 20
4.124042845135275
 30
0.0
 10
3.590162432758057
 20
4.13558058455006
 30
0.0
 10
3.590261337411625
 20
4.13871142841136
 30
0.0
 10
3.588477643142066
 20
4.147121734470135
 30
0.0
 10
3.592826037393858
 20
4.152186486453236
 30
0.0
 10
3.607927754842472
 20
4.2559987055246
 30
0.0
 10
3.611491732876301
 20
4.268389071263237
 30
0.0
 10
3.61505571091013
 20
4.280779437001899
 30
0.0
 10
3.616054988961701
 20
4.339180929682533
 30
0.0
 10
3.620836517386048
 20
4.356748599246783
 30
0.0
 10
3.625631687831552
 20
4.374315955237067
 30
0.0
 10
3.628946698978805
 20
4.409689716162309
 30
0.0
 10
3.62633084141713
 20
4.424375351964891
 30
0.0
 10
3.623715168372807
 20
4.439081450799209
 30
0.0
 10
3.633840774077902
 20
4.489853643133718
 30
0.0
 10
3.638438135216271
 20
4.502209903819423
 30
0.0
 10
3.643032085849351
 20
4.514566164505102
 30
0.0
 10
3.642452299949102
 20
4.557381647985178
 30
0.0
 10
3.646046972530586
 20
4.570805396828379
 30
0.0
  0
SPLINE
  5
99
330
1F
100
AcDbEntity
  8
Layer 1
 62
     7
420
 16777215
370
     9
100
AcDbSpline
210
0.0
220
0.0
230
1.0
 70
     8
 71
     3
 72
    71
 73
    67
 74
     0
 42
0.0000000001
 43
0.0000000001
 12
1.0
 22
0.0
 32
0.0
 13
1.0
 23
0.0
 33
0.0
 40
0.0
 40
0.0
 40
0.0
 40
0.0
 40
1.0
 40
1.0
 40
1.0
 40
2.0
 40
2.0
 40
2.0
 40
3.0
 40
3.0
 40
3.0
 40
4.0
 40
4.0
 40
4.0
 40
5.0
 40
5.0
 40
5.0
 40
6.0
 40
6.0
 40
6.0
 40
7.0
 40
7.0
 40
7.0
 40
8.0
 40
8.0
 40
8.0
 40
9.0
 40
9.0
 40
9.0
 40
10.0
 40
10.0
 40
10.0
 40
11.0
 40
11.0
 40
11.0
 40
12.0
 40
12.0
 40
12.0
 40
13.0
 40
13.0
 40
13.0
 40
14.0
 40
14.0
 40
14.0
 40
15.0
 40
15.0
 40
15.0
 40
16.0
 40
16.0
 40
16.0
 40
17.0
 40
17.0
 40
17.0
 40
18.0
 40
18.0
 40
18.0
 40
19.0
 40
19.0
 40
19.0
 40
20.0
 40
20.0
 40
20.0
 40
21.0
 40
21.0
 40
21.0
 40
22.0
 40
22.0
 40
22.0
 40
22.0
 10
3.696174579364272
 20
4.541928648491131
 30
0.0
 10
3.690444930467796
 20
4.52752267412283
 30
0.0
 10
3.68857938407114
 20
4.503594568969421
 30
0.0
 10
3.687095814267574
 20
4.491118940598363
 30
0.0
 10
3.685615841050346
 20
4.478663775259077
 30
0.0
 10
3.680735221891407
 20
4.428737388237866
 30
0.0
 10
3.677171243857578
 20
4.416350433004469
 30
0.0
 10
3.673607265823749
 20
4.403943014739335
 30
0.0
 10
3.670878861587324
 20
4.385256856225118
 30
0.0
 10
3.670261560128842
 20
4.367539281214881
 30
0.0
 10
3.66964425867036
 20
4.34982170620463
 30
0.0
 10
3.664266077360985
 20
4.315583799289811
 30
0.0
 10
3.660701913785488
 20
4.303193277804123
 30
0.0
 10
3.657138121113298
 20
4.29078585953899
 30
0.0
 10
3.660903133597913
 20
4.279179910018292
 30
0.0
 10
3.657021978571593
 20
4.257414065222242
 30
0.0
 10
3.653123771018802
 20
4.235631167899694
 30
0.0
 10
3.651292329675117
 20
4.212750087872033
 30
0.0
 10
3.645497881178017
 20
4.196246652746936
 30
0.0
 10
3.639703432680916
 20
4.179763680653638
 30
0.0
 10
3.630392753224113
 20
4.122692285038245
 30
0.0
 10
3.630392753224113
 20
4.122692285038245
 30
0.0
 10
3.630392753224113
 20
4.122692285038245
 30
0.0
 10
3.639635222575003
 20
4.118197239058733
 30
0.0
 10
3.639635222575003
 20
4.118197239058733
 30
0.0
 10
3.639635222575003
 20
4.118197239058733
 30
0.0
 10
3.64358458770721
 20
4.111802541629623
 30
0.0
 10
3.64120064450564
 20
4.103542297803857
 30
0.0
 10
3.638837164335832
 20
4.095282053978116
 30
0.0
 10
3.639703432680916
 20
4.090019644307088
 30
0.0
 10
3.642349984790245
 20
4.076363981103782
 30
0.0
 10
3.644999947404863
 20
4.062708317900475
 30
0.0
 10
3.645716153516913
 20
4.053298733790131
 30
0.0
 10
3.645716153516913
 20
4.053298733790131
 30
0.0
 10
3.645716153516913
 20
4.053298733790131
 30
0.0
 10
3.642268317649167
 20
4.044025569891586
 30
0.0
 10
3.631808112921767
 20
4.043357259723671
 30
0.0
 10
3.621351503685673
 20
4.042675158647335
 30
0.0
 10
3.592959047100395
 20
4.036365723691221
 30
0.0
 10
3.586598454724228
 20
4.033449592970138
 30
0.0
 10
3.5802173993163
 20
4.030537021447736
 30
0.0
 10
3.535024793645233
 20
4.020643293881638
 30
0.0
 10
3.535024793645233
 20
4.020643293881638
 30
0.0
 10
3.535024793645233
 20
4.020643293881638
 30
0.0
 10
3.542084539606978
 20
4.014132490976269
 30
0.0
 10
3.547047007392469
 20
4.006656663368466
 30
0.0
 10
3.552009110016974
 20
3.999177425255374
 30
0.0
 10
3.566162706993408
 20
3.986173168563507
 30
0.0
 10
3.570927182891258
 20
3.973482678358891
 30
0.0
 10
3.575705300810316
 20
3.960792188154237
 30
0.0
 10
3.58974294060671
 20
3.9446572339777
 30
0.0
 10
3.590609208951769
 20
3.939411730456527
 30
0.0
 10
3.591475477296828
 20
3.934149320785524
 30
0.0
 10
3.589961212945607
 20
3.920643719815227
 30
0.0
 10
3.58764547984995
 20
3.914463884219723
 30
0.0
 10
3.585346982828848
 20
3.908287459129547
 30
0.0
 10
3.580984763007791
 20
3.872964855783733
 30
0.0
 10
3.576237339636413
 20
3.856430726111019
 30
0.0
 10
3.571476274243853
 20
3.839910238459462
 30
0.0
 10
3.56325013547103
 20
3.813066151278349
 30
0.0
 10
3.558335780205855
 20
3.792367794639795
 30
0.0
 10
3.553458757510043
 20
3.771666027495927
 30
0.0
 10
3.546797857925412
 20
3.76042500204187
 30
0.0
 10
3.543950086003633
 20
3.738611410171655
 30
0.0
 10
3.541102314081879
 20
3.716794407796177
 30
0.0
 10
3.509476698476419
 20
3.648004515985361
 30
0.0
 10
3.504214288805416
 20
3.616880244658343
 30
0.0
  0
SPLINE
  5
9A
330
1F
100
AcDbEntity
  8
Layer 1
 62
     7
420
 16777215
370
     9
100
AcDbSpline
210
0.0
220
0.0
230
1.0
 70
     8
 71
     3
 72
    26
 73
    22
 74
     0
 42
0.0000000001
 43
0.0000000001
 12
1.0
 22
0.0
 32
0.0
 13
1.0
 23
0.0
 33
0.0
 40
0.0
 40
0.0
 40
0.0
 40
0.0
 40
1.0
 40
1.0
 40
1.0
 40
2.0
 40
2.0
 40
2.0
 40
3.0
 40
3.0
 40
3.0
 40
4.0
 40
4.0
 40
4.0
 40
5.0
 40
5.0
 40
5.0
 40
6.0
 40
6.0
 40
6.0
 40
7.0
 40
7.0
 40
7.0
 40
7.0
 10
3.593842367971926
 20
4.599763997292749
 30
0.0
 10
3.592225788461847
 20
4.583127552461128
 30
0.0
 10
3.593109109333378
 20
4.54867121746041
 30
0.0
 10
3.59212688380828
 20
4.520531138266973
 30
0.0
 10
3.591144841977641
 20
4.492387648568297
 30
0.0
 10
3.584582846094564
 20
4.454019463993581
 30
0.0
 10
3.580619838941149
 20
4.430152747935469
 30
0.0
 10
3.57665683178776
 20
4.406289442382672
 30
0.0
 10
3.569095741547572
 20
4.368988745965478
 30
0.0
 10
3.56839677108183
 20
4.349187352219625
 30
0.0
 10
3.567711076397573
 20
4.329389368979074
 30
0.0
 10
3.557520486574554
 20
4.276533512669516
 30
0.0
 10
3.553625689527053
 20
4.2547675131129
 30
0.0
 10
3.549744534500733
 20
4.23298461579039
 30
0.0
 10
3.536157081403341
 20
4.172949491073155
 30
0.0
 10
3.536157081403341
 20
4.172949491073155
 30
0.0
 10
3.536157081403341
 20
4.172949491073155
 30
0.0
 10
3.533824295781212
 20
4.165722630351903
 30
0.0
 10
3.538704728859102
 20
4.156166394513863
 30
0.0
 10
3.543581751431727
 20
4.146589695644075
 30
0.0
 10
3.543366889598095
 20
4.110087057465977
 30
0.0
 10
3.543366889598095
 20
4.110087057465977
 30
0.0
  0
SPLINE
  5
9B
330
1F
100
AcDbEntity
  8
Layer 1
 62
     7
420
 16777215
370
     9
100
AcDbSpline
210
0.0
220
0.0
230
1.0
 70
     8
 71
     3
 72
    17
 73
    13
 74
     0
 42
0.0000000001
 43
0.0000000001
 12
1.0
 22
0.0
 32
0.0
 13
1.0
 23
0.0
 33
0.0
 40
0.0
 40
0.0
 40
0.0
 40
0.0
 40
1.0
 40
1.0
 40
1.0
 40
2.0
 40
2.0
 40
2.0
 40
3.0
 40
3.0
 40
3.0
 40
4.0
 40
4.0
 40
4.0
 40
4.0
 10
3.540635257274895
 20
4.629790085914553
 30
0.0
 10
3.537204106529089
 20
4.591302533654508
 30
0.0
 10
3.534557554419759
 20
4.51523478433368
 30
0.0
 10
3.534557554419759
 20
4.51523478433368
 30
0.0
 10
3.534557554419759
 20
4.51523478433368
 30
0.0
 10
3.531443763084932
 20
4.486125960845698
 30
0.0
 10
3.528312919223632
 20
4.455983915043803
 30
0.0
 10
3.525165022835861
 20
4.425824816715464
 30
0.0
 10
3.521283867809542
 20
4.404058971919375
 30
0.0
 10
3.521734054508569
 20
4.387340832520484
 30
0.0
 10
3.522201293734042
 20
4.370636020023198
 30
0.0
 10
3.516505749890509
 20
4.327005425777505
 30
0.0
 10
3.507829424418686
 20
4.317913018659624
 30
0.0
  0
SPLINE
  5
9C
330
1F
100
AcDbEntity
  8
Layer 1
 62
     7
420
 16777215
370
    25
100
AcDbSpline
210
0.0
220
0.0
230
1.0
 70
    11
 71
     3
 72
    98
 73
    94
 74
     0
 42
0.0000000001
 43
0.0000000001
 12
1.0
 22
0.0
 32
0.0
 13
1.0
 23
0.0
 33
0.0
 40
0.0
 40
0.0
 40
0.0
 40
0.0
 40
1.0
 40
1.0
 40
1.0
 40
2.0
 40
2.0
 40
2.0
 40
3.0
 40
3.0
 40
3.0
 40
4.0
 40
4.0
 40
4.0
 40
5.0
 40
5.0
 40
5.0
 40
6.0
 40
6.0
 40
6.0
 40
7.0
 40
7.0
 40
7.0
 40
8.0
 40
8.0
 40
8.0
 40
9.0
 40
9.0
 40
9.0
 40
10.0
 40
10.0
 40
10.0
 40
11.0
 40
11.0
 40
11.0
 40
12.0
 40
12.0
 40
12.0
 40
13.0
 40
13.0
 40
13.0
 40
14.0
 40
14.0
 40
14.0
 40
15.0
 40
15.0
 40
15.0
 40
16.0
 40
16.0
 40
16.0
 40
17.0
 40
17.0
 40
17.0
 40
18.0
 40
18.0
 40
18.0
 40
19.0
 40
19.0
 40
19.0
 40
20.0
 40
20.0
 40
20.0
 40
21.0
 40
21.0
 40
21.0
 40
22.0
 40
22.0
 40
22.0
 40
23.0
 40
23.0
 40
23.0
 40
24.0
 40
24.0
 40
24.0
 40
25.0
 40
25.0
 40
25.0
 40
26.0
 40
26.0
 40
26.0
 40
27.0
 40
27.0
 40
27.0
 40
28.0
 40
28.0
 40
28.0
 40
29.0
 40
29.0
 40
29.0
 40
30.0
 40
30.0
 40
30.0
 40
31.0
 40
31.0
 40
31.0
 40
31.0
 10
2.631605814396683
 20
3.248784408111937
 30
0.0
 10
2.631605814396683
 20
3.248784408111937
 30
0.0
 10
2.658166989763787
 20
3.262457123841702
 30
0.0
 10
2.658166989763787
 20
3.262457123841702
 30
0.0
 10
2.658166989763787
 20
3.262457123841702
 30
0.0
 10
2.664578739881361
 20
3.535611313971192
 30
0.0
 10
2.663862533751197
 20
3.545020898081563
 30
0.0
 10
2.663146327621032
 20
3.554430482191934
 30
0.0
 10
2.660380247575075
 20
3.564972354060412
 30
0.0
 10
2.669755726632477
 20
3.564638124541438
 30
0.0
 10
2.679134616195193
 20
3.564320947548961
 30
0.0
 10
2.677852266204051
 20
3.55706339228008
 30
0.0
 10
2.677633993865154
 20
3.550801704557481
 30
0.0
 10
2.677402240116483
 20
3.544557069361379
 30
0.0
 10
2.678998195983366
 20
3.261723865203155
 30
0.0
 10
2.678998195983366
 20
3.261723865203155
 30
0.0
 10
2.678998195983366
 20
3.261723865203155
 30
0.0
 10
2.704727047932819
 20
3.251448012747725
 30
0.0
 10
2.704727047932819
 20
3.251448012747725
 30
0.0
 10
2.704727047932819
 20
3.251448012747725
 30
0.0
 10
2.858019029450967
 20
3.308683112617283
 30
0.0
 10
2.858019029450967
 20
3.308683112617283
 30
0.0
 10
2.858019029450967
 20
3.308683112617283
 30
0.0
 10
2.860733791666209
 20
3.416063004870276
 30
0.0
 10
2.860733791666209
 20
3.416063004870276
 30
0.0
 10
2.860733791666209
 20
3.416063004870276
 30
0.0
 10
2.932422612978219
 20
3.556510890422196
 30
0.0
 10
2.932422612978219
 20
3.556510890422196
 30
0.0
 10
2.932422612978219
 20
3.556510890422196
 30
0.0
 10
2.933254776270334
 20
3.670217136975136
 30
0.0
 10
2.933254776270334
 20
3.670217136975136
 30
0.0
 10
2.933254776270334
 20
3.670217136975136
 30
0.0
 10
2.91370575991636
 20
3.678194448506613
 30
0.0
 10
2.91370575991636
 20
3.678194448506613
 30
0.0
 10
2.91370575991636
 20
3.678194448506613
 30
0.0
 10
2.859799313215237
 20
3.658161000755424
 30
0.0
 10
2.859799313215237
 20
3.658161000755424
 30
0.0
 10
2.859799313215237
 20
3.658161000755424
 30
0.0
 10
2.85998348050119
 20
3.842839862508337
 30
0.0
 10
2.85998348050119
 20
3.842839862508337
 30
0.0
 10
2.85998348050119
 20
3.842839862508337
 30
0.0
 10
2.936470882764019
 20
3.971651237015155
 30
0.0
 10
2.936470882764019
 20
3.971651237015155
 30
0.0
 10
2.936470882764019
 20
3.971651237015155
 30
0.0
 10
2.938049946715839
 20
4.106188849913186
 30
0.0
 10
2.938049946715839
 20
4.106188849913186
 30
0.0
 10
2.938049946715839
 20
4.106188849913186
 30
0.0
 10
2.860481414274343
 20
4.155849217521373
 30
0.0
 10
2.860481414274343
 20
4.155849217521373
 30
0.0
 10
2.860481414274343
 20
4.155849217521373
 30
0.0
 10
2.862213950964461
 20
4.2350820765471
 30
0.0
 10
2.862213950964461
 20
4.2350820765471
 30
0.0
 10
2.862213950964461
 20
4.2350820765471
 30
0.0
 10
2.840581115874935
 20
4.24314110056044
 30
0.0
 10
2.840581115874935
 20
4.24314110056044
 30
0.0
 10
2.840581115874935
 20
4.24314110056044
 30
0.0
 10
2.67085731984293
 20
4.16350936432045
 30
0.0
 10
2.67085731984293
 20
4.16350936432045
 30
0.0
 10
2.67085731984293
 20
4.16350936432045
 30
0.0
 10
2.440730064521833
 20
4.266506626847343
 30
0.0
 10
2.440730064521833
 20
4.266506626847343
 30
0.0
 10
2.440730064521833
 20
4.266506626847343
 30
0.0
 10
2.420563746709351
 20
4.256766069216092
 30
0.0
 10
2.420563746709351
 20
4.256766069216092
 30
0.0
 10
2.420563746709351
 20
4.256766069216092
 30
0.0
 10
2.421563024760947
 20
4.165957955217323
 30
0.0
 10
2.421563024760947
 20
4.165957955217323
 30
0.0
 10
2.421563024760947
 20
4.165957955217323
 30
0.0
 10
2.505509202105107
 20
4.059727685555761
 30
0.0
 10
2.505509202105107
 20
4.059727685555761
 30
0.0
 10
2.505509202105107
 20
4.059727685555761
 30
0.0
 10
2.508108007140284
 20
3.925039861141171
 30
0.0
 10
2.508108007140284
 20
3.925039861141171
 30
0.0
 10
2.508108007140284
 20
3.925039861141171
 30
0.0
 10
2.421262900294955
 20
3.88842126578307
 30
0.0
 10
2.421262900294955
 20
3.88842126578307
 30
0.0
 10
2.421262900294955
 20
3.88842126578307
 30
0.0
 10
2.415417294218413
 20
3.661176026652015
 30
0.0
 10
2.415417294218413
 20
3.661176026652015
 30
0.0
 10
2.415417294218413
 20
3.661176026652015
 30
0.0
 10
2.503827822994405
 20
3.623656918680568
 30
0.0
 10
2.503827822994405
 20
3.623656918680568
 30
0.0
 10
2.503827822994405
 20
3.623656918680568
 30
0.0
 10
2.502746692815713
 20
3.502655736511226
 30
0.0
 10
2.502746692815713
 20
3.502655736511226
 30
0.0
 10
2.502746692815713
 20
3.502655736511226
 30
0.0
 10
2.418633400712098
 20
3.45446175096937
 30
0.0
 10
2.418633400712098
 20
3.45446175096937
 30
0.0
 10
2.418633400712098
 20
3.45446175096937
 30
0.0
 10
2.420512589129935
 20
3.329183659948727
 30
0.0
 10
2.420512589129935
 20
3.329183659948727
 30
0.0
 10
2.420512589129935
 20
3.329183659948727
 30
0.0
 10
2.631605814396683
 20
3.248784408111937
 30
0.0
 10
2.631605814396683
 20
3.248784408111937
 30
0.0
  0
HATCH
  5
9D
330
1F
100
AcDbEntity
  8
Layer 1
 62
   254
420
 13358815
100
AcDbHatch
 10
0.0
 20
0.0
 30
0.0
210
0.0
220
0.0
230
1.0
  2
SOLID
 70
     1
 71
     0
 91
        1
 92
        1
 93
        1
 72
     4
 94
        3
 73
     0
 74
     1
 95
       98
 96
       94
 40
0.0
 40
0.0
 40
0.0
 40
0.0
 40
1.0
 40
1.0
 40
1.0
 40
2.0
 40
2.0
 40
2.0
 40
3.0
 40
3.0
 40
3.0
 40
4.0
 40
4.0
 40
4.0
 40
5.0
 40
5.0
 40
5.0
 40
6.0
 40
6.0
 40
6.0
 40
7.0
 40
7.0
 40
7.0
 40
8.0
 40
8.0
 40
8.0
 40
9.0
 40
9.0
 40
9.0
 40
10.0
 40
10.0
 40
10.0
 40
11.0
 40
11.0
 40
11.0
 40
12.0
 40
12.0
 40
12.0
 40
13.0
 40
13.0
 40
13.0
 40
14.0
 40
14.0
 40
14.0
 40
15.0
 40
15.0
 40
15.0
 40
16.0
 40
16.0
 40
16.0
 40
17.0
 40
17.0
 40
17.0
 40
18.0
 40
18.0
 40
18.0
 40
19.0
 40
19.0
 40
19.0
 40
20.0
 40
20.0
 40
20.0
 40
21.0
 40
21.0
 40
21.0
 40
22.0
 40
22.0
 40
22.0
 40
23.0
 40
23.0
 40
23.0
 40
24.0
 40
24.0
 40
24.0
 40
25.0
 40
25.0
 40
25.0
 40
26.0
 40
26.0
 40
26.0
 40
27.0
 40
27.0
 40
27.0
 40
28.0
 40
28.0
 40
28.0
 40
29.0
 40
29.0
 40
29.0
 40
30.0
 40
30.0
 40
30.0
 40
31.0
 40
31.0
 40
31.0
 40
31.0
 10
2.631605814396683
 20
3.248784408111937
 10
2.631605814396683
 20
3.248784408111937
 10
2.658166989763787
 20
3.262457123841702
 10
2.658166989763787
 20
3.262457123841702
 10
2.658166989763787
 20
3.262457123841702
 10
2.664578739881361
 20
3.535611313971192
 10
2.663862533751197
 20
3.545020898081563
 10
2.663146327621032
 20
3.554430482191934
 10
2.660380247575075
 20
3.564972354060412
 10
2.669755726632477
 20
3.564638124541438
 10
2.679134616195193
 20
3.564320947548961
 10
2.677852266204051
 20
3.55706339228008
 10
2.677633993865154
 20
3.550801704557481
 10
2.677402240116483
 20
3.544557069361379
 10
2.678998195983366
 20
3.261723865203155
 10
2.678998195983366
 20
3.261723865203155
 10
2.678998195983366
 20
3.261723865203155
 10
2.704727047932819
 20
3.251448012747725
 10
2.704727047932819
 20
3.251448012747725
 10
2.704727047932819
 20
3.251448012747725
 10
2.858019029450967
 20
3.308683112617283
 10
2.858019029450967
 20
3.308683112617283
 10
2.858019029450967
 20
3.308683112617283
 10
2.860733791666209
 20
3.416063004870276
 10
2.860733791666209
 20
3.416063004870276
 10
2.860733791666209
 20
3.416063004870276
 10
2.932422612978219
 20
3.556510890422196
 10
2.932422612978219
 20
3.556510890422196
 10
2.932422612978219
 20
3.556510890422196
 10
2.933254776270334
 20
3.670217136975136
 10
2.933254776270334
 20
3.670217136975136
 10
2.933254776270334
 20
3.670217136975136
 10
2.91370575991636
 20
3.678194448506613
 10
2.91370575991636
 20
3.678194448506613
 10
2.91370575991636
 20
3.678194448506613
 10
2.859799313215237
 20
3.658161000755424
 10
2.859799313215237
 20
3.658161000755424
 10
2.859799313215237
 20
3.658161000755424
 10
2.85998348050119
 20
3.842839862508337
 10
2.85998348050119
 20
3.842839862508337
 10
2.85998348050119
 20
3.842839862508337
 10
2.936470882764019
 20
3.971651237015155
 10
2.936470882764019
 20
3.971651237015155
 10
2.936470882764019
 20
3.971651237015155
 10
2.938049946715839
 20
4.106188849913186
 10
2.938049946715839
 20
4.106188849913186
 10
2.938049946715839
 20
4.106188849913186
 10
2.860481414274343
 20
4.155849217521373
 10
2.860481414274343
 20
4.155849217521373
 10
2.860481414274343
 20
4.155849217521373
 10
2.862213950964461
 20
4.2350820765471
 10
2.862213950964461
 20
4.2350820765471
 10
2.862213950964461
 20
4.2350820765471
 10
2.840581115874935
 20
4.24314110056044
 10
2.840581115874935
 20
4.24314110056044
 10
2.840581115874935
 20
4.24314110056044
 10
2.67085731984293
 20
4.16350936432045
 10
2.67085731984293
 20
4.16350936432045
 10
2.67085731984293
 20
4.16350936432045
 10
2.440730064521833
 20
4.266506626847343
 10
2.440730064521833
 20
4.266506626847343
 10
2.440730064521833
 20
4.266506626847343
 10
2.420563746709351
 20
4.256766069216092
 10
2.420563746709351
 20
4.256766069216092
 10
2.420563746709351
 20
4.256766069216092
 10
2.421563024760947
 20
4.165957955217323
 10
2.421563024760947
 20
4.165957955217323
 10
2.421563024760947
 20
4.165957955217323
 10
2.505509202105107
 20
4.059727685555761
 10
2.505509202105107
 20
4.059727685555761
 10
2.505509202105107
 20
4.059727685555761
 10
2.508108007140284
 20
3.925039861141171
 10
2.508108007140284
 20
3.925039861141171
 10
2.508108007140284
 20
3.925039861141171
 10
2.421262900294955
 20
3.88842126578307
 10
2.421262900294955
 20
3.88842126578307
 10
2.421262900294955
 20
3.88842126578307
 10
2.415417294218413
 20
3.661176026652015
 10
2.415417294218413
 20
3.661176026652015
 10
2.415417294218413
 20
3.661176026652015
 10
2.503827822994405
 20
3.623656918680568
 10
2.503827822994405
 20
3.623656918680568
 10
2.503827822994405
 20
3.623656918680568
 10
2.502746692815713
 20
3.502655736511226
 10
2.502746692815713
 20
3.502655736511226
 10
2.502746692815713
 20
3.502655736511226
 10
2.418633400712098
 20
3.45446175096937
 10
2.418633400712098
 20
3.45446175096937
 10
2.418633400712098
 20
3.45446175096937
 10
2.420512589129935
 20
3.329183659948727
 10
2.420512589129935
 20
3.329183659948727
 10
2.420512589129935
 20
3.329183659948727
 10
2.631605814396683
 20
3.248784408111937
 10
2.631605814396683
 20
3.248784408111937
 97
        0
 97
        0
 75
     2
 76
     1
 98
        0
  0
SPLINE
  5
9E
330
1F
100
AcDbEntity
  8
Layer 1
 62
     7
420
 16777215
370
    18
100
AcDbSpline
210
0.0
220
0.0
230
1.0
 70
     8
 71
     3
 72
    17
 73
    13
 74
     0
 42
0.0000000001
 43
0.0000000001
 12
1.0
 22
0.0
 32
0.0
 13
1.0
 23
0.0
 33
0.0
 40
0.0
 40
0.0
 40
0.0
 40
0.0
 40
1.0
 40
1.0
 40
1.0
 40
2.0
 40
2.0
 40
2.0
 40
3.0
 40
3.0
 40
3.0
 40
4.0
 40
4.0
 40
4.0
 40
4.0
 10
2.50164509960526
 20
3.501441461415286
 30
0.0
 10
2.512289286632621
 20
3.507334814565954
 30
0.0
 10
2.524843356625448
 20
3.508136283310414
 30
0.0
 10
2.526494041188496
 20
3.525819753267733
 30
0.0
 10
2.52815852461395
 20
3.543506633730342
 30
0.0
 10
2.526026801962997
 20
3.637278476830905
 30
0.0
 10
2.526026801962997
 20
3.637278476830905
 30
0.0
 10
2.526026801962997
 20
3.637278476830905
 30
0.0
 10
2.43546765485083
 20
3.674214249181495
 30
0.0
 10
2.43546765485083
 20
3.674214249181495
 30
0.0
 10
2.43546765485083
 20
3.674214249181495
 30
0.0
 10
2.442394391106038
 20
3.896030103097385
 30
0.0
 10
2.442394391106038
 20
3.896030103097385
 30
0.0
  0
POLYLINE
  5
9F
330
1F
100
AcDbEntity
  8
Layer 1
 62
     7
420
 16777215
370
    20
100
AcDb2dPolyline
 66
     1
 10
0.0
 20
0.0
 30
0.0
  0
VERTEX
  5
A0
330
9F
100
AcDbEntity
  8
Layer 1
 62
     7
420
 16777215
370
    20
100
AcDbVertex
100
AcDb2dVertex
 10
2.504179105039839
 20
3.624274358422162
 30
0.0
  0
VERTEX
  5
A1
330
9F
100
AcDbEntity
  8
Layer 1
 62
     7
420
 16777215
370
    20
100
AcDbVertex
100
AcDb2dVertex
 10
2.524444327505888
 20
3.637128414597921
 30
0.0
  0
SEQEND
  5
A2
330
9F
100
AcDbEntity
  8
Layer 1
 62
     7
420
 16777215
370
    20
  0
POLYLINE
  5
A3
330
1F
100
AcDbEntity
  8
Layer 1
 62
     7
420
 16777215
370
    20
100
AcDb2dPolyline
 66
     1
 10
0.0
 20
0.0
 30
0.0
  0
VERTEX
  5
A4
330
A3
100
AcDbEntity
  8
Layer 1
 62
     7
420
 16777215
370
    20
100
AcDbVertex
100
AcDb2dVertex
 10
2.417531807501645
 20
3.662141060435324
 30
0.0
  0
VERTEX
  5
A5
330
A3
100
AcDbEntity
  8
Layer 1
 62
     7
420
 16777215
370
    20
100
AcDbVertex
100
AcDb2dVertex
 10
2.43546765485083
 20
3.674214249181495
 30
0.0
  0
SEQEND
  5
A6
330
A3
100
AcDbEntity
  8
Layer 1
 62
     7
420
 16777215
370
    20
  0
POLYLINE
  5
A7
330
1F
100
AcDbEntity
  8
Layer 1
 62
     7
420
 16777215
370
    18
100
AcDb2dPolyline
 66
     1
 10
0.0
 20
0.0
 30
0.0
  0
VERTEX
  5
A8
330
A7
100
AcDbEntity
  8
Layer 1
 62
     7
420
 16777215
370
    18
100
AcDbVertex
100
AcDb2dVertex
 10
2.656536608107015
 20
3.261440793263634
 30
0.0
  0
VERTEX
  5
A9
330
A7
100
AcDbEntity
  8
Layer 1
 62
     7
420
 16777215
370
    18
100
AcDbVertex
100
AcDb2dVertex
 10
2.442029467039422
 20
3.343572581790555
 30
0.0
  0
VERTEX
  5
AA
330
A7
100
AcDbEntity
  8
Layer 1
 62
     7
420
 16777215
370
    18
100
AcDbVertex
100
AcDb2dVertex
 10
2.439863796176749
 20
3.465204842650312
 30
0.0
  0
SEQEND
  5
AB
330
A7
100
AcDbEntity
  8
Layer 1
 62
     7
420
 16777215
370
    18
  0
POLYLINE
  5
AC
330
1F
100
AcDbEntity
  8
Layer 1
 62
     7
420
 16777215
370
    20
100
AcDb2dPolyline
 66
     1
 10
0.0
 20
0.0
 30
0.0
  0
VERTEX
  5
AD
330
AC
100
AcDbEntity
  8
Layer 1
 62
     7
420
 16777215
370
    20
100
AcDbVertex
100
AcDb2dVertex
 10
2.419547416131283
 20
3.331315225758431
 30
0.0
  0
VERTEX
  5
AE
330
AC
100
AcDbEntity
  8
Layer 1
 62
     7
420
 16777215
370
    20
100
AcDbVertex
100
AcDb2dVertex
 10
2.442029467039422
 20
3.343572581790555
 30
0.0
  0
SEQEND
  5
AF
330
AC
100
AcDbEntity
  8
Layer 1
 62
     7
420
 16777215
370
    20
  0
SPLINE
  5
B0
330
1F
100
AcDbEntity
  8
Layer 1
 62
     7
420
 16777215
370
    25
100
AcDbSpline
210
0.0
220
0.0
230
1.0
 70
     8
 71
     3
 72
    11
 73
     7
 74
     0
 42
0.0000000001
 43
0.0000000001
 12
1.0
 22
0.0
 32
0.0
 13
1.0
 23
0.0
 33
0.0
 40
0.0
 40
0.0
 40
0.0
 40
0.0
 40
1.0
 40
1.0
 40
1.0
 40
2.0
 40
2.0
 40
2.0
 40
2.0
 10
2.670840267316458
 20
3.565654455119518
 30
0.0
 10
2.682412111784187
 20
3.568369217334761
 30
0.0
 10
2.689741287664269
 20
3.569167275573907
 30
0.0
 10
2.689373114006205
 20
3.55874477139077
 30
0.0
 10
2.689008029025773
 20
3.548318856702344
 30
0.0
 10
2.690556398429913
 20
3.260257347926085
 30
0.0
 10
2.690556398429913
 20
3.260257347926085
 30
0.0
  0
SPLINE
  5
B1
330
1F
100
AcDbEntity
  8
Layer 1
 62
     7
420
 16777215
370
    35
100
AcDbSpline
210
0.0
220
0.0
230
1.0
 70
    11
 71
     3
 72
    17
 73
    13
 74
     0
 42
0.0000000001
 43
0.0000000001
 12
1.0
 22
0.0
 32
0.0
 13
1.0
 23
0.0
 33
0.0
 40
0.0
 40
0.0
 40
0.0
 40
0.0
 40
1.0
 40
1.0
 40
1.0
 40
2.0
 40
2.0
 40
2.0
 40
3.0
 40
3.0
 40
3.0
 40
4.0
 40
4.0
 40
4.0
 40
4.0
 10
2.480581974539417
 20
3.368701184807997
 30
0.0
 10
2.489172881739528
 20
3.368401060342004
 30
0.0
 10
2.496399742460754
 20
3.376095160288703
 30
0.0
 10
2.496751024506188
 20
3.385852615939219
 30
0.0
 10
2.49708525402515
 20
3.395630534621495
 30
0.0
 10
2.490407484656505
 20
3.403788463288404
 30
0.0
 10
2.481830063838237
 20
3.404088587754422
 30
0.0
 10
2.473235590493509
 20
3.404388712220414
 30
0.0
 10
2.466008729772284
 20
3.396711664800174
 30
0.0
 10
2.465660858232139
 20
3.386937288910644
 30
0.0
 10
2.465326628713178
 20
3.377176290467383
 30
0.0
 10
2.472004398081834
 20
3.369001309274015
 30
0.0
 10
2.480581974539417
 20
3.368701184807997
 30
0.0
  0
HATCH
  5
B2
330
1F
100
AcDbEntity
  8
Layer 1
 62
     7
420
 16777215
100
AcDbHatch
 10
0.0
 20
0.0
 30
0.0
210
0.0
220
0.0
230
1.0
  2
SOLID
 70
     1
 71
     0
 91
        1
 92
        1
 93
        1
 72
     4
 94
        3
 73
     0
 74
     1
 95
       17
 96
       13
 40
0.0
 40
0.0
 40
0.0
 40
0.0
 40
1.0
 40
1.0
 40
1.0
 40
2.0
 40
2.0
 40
2.0
 40
3.0
 40
3.0
 40
3.0
 40
4.0
 40
4.0
 40
4.0
 40
4.0
 10
2.480581974539417
 20
3.368701184807997
 10
2.489172881739528
 20
3.368401060342004
 10
2.496399742460754
 20
3.376095160288703
 10
2.496751024506188
 20
3.385852615939219
 10
2.49708525402515
 20
3.395630534621495
 10
2.490407484656505
 20
3.403788463288404
 10
2.481830063838237
 20
3.404088587754422
 10
2.473235590493509
 20
3.404388712220414
 10
2.466008729772284
 20
3.396711664800174
 10
2.465660858232139
 20
3.386937288910644
 10
2.465326628713178
 20
3.377176290467383
 10
2.472004398081834
 20
3.369001309274015
 10
2.480581974539417
 20
3.368701184807997
 97
        0
 97
        0
 75
     2
 76
     1
 98
        0
  0
SPLINE
  5
B3
330
1F
100
AcDbEntity
  8
Layer 1
 62
     7
420
 16777215
370
    18
100
AcDbSpline
210
0.0
220
0.0
230
1.0
 70
    11
 71
     3
 72
    17
 73
    13
 74
     0
 42
0.0000000001
 43
0.0000000001
 12
1.0
 22
0.0
 32
0.0
 13
1.0
 23
0.0
 33
0.0
 40
0.0
 40
0.0
 40
0.0
 40
0.0
 40
1.0
 40
1.0
 40
1.0
 40
2.0
 40
2.0
 40
2.0
 40
3.0
 40
3.0
 40
3.0
 40
4.0
 40
4.0
 40
4.0
 40
4.0
 10
2.487975794380797
 20
3.368735289860966
 30
0.0
 10
2.496549804693738
 20
3.368452349741915
 30
0.0
 10
2.503793717941461
 20
3.376112212815188
 30
0.0
 10
2.504127947460423
 20
3.3858867209922
 30
0.0
 10
2.504479229505856
 20
3.395661229169175
 30
0.0
 10
2.497784407610728
 20
3.403822568341373
 30
0.0
 10
2.489206986792472
 20
3.404122692807366
 30
0.0
 10
2.480629565974216
 20
3.404422817273383
 30
0.0
 10
2.473385808184048
 20
3.396745769853131
 30
0.0
 10
2.473054833712846
 20
3.386967851170867
 30
0.0
 10
2.472703707107737
 20
3.377210395520365
 30
0.0
 10
2.479398373562566
 20
3.369035414326959
 30
0.0
 10
2.487975794380797
 20
3.368735289860966
 30
0.0
  0
HATCH
  5
B4
330
1F
100
AcDbEntity
  8
Layer 1
 62
   254
420
 13358815
100
AcDbHatch
 10
0.0
 20
0.0
 30
0.0
210
0.0
220
0.0
230
1.0
  2
SOLID
 70
     1
 71
     0
 91
        1
 92
        1
 93
        1
 72
     4
 94
        3
 73
     0
 74
     1
 95
       17
 96
       13
 40
0.0
 40
0.0
 40
0.0
 40
0.0
 40
1.0
 40
1.0
 40
1.0
 40
2.0
 40
2.0
 40
2.0
 40
3.0
 40
3.0
 40
3.0
 40
4.0
 40
4.0
 40
4.0
 40
4.0
 10
2.487975794380797
 20
3.368735289860966
 10
2.496549804693738
 20
3.368452349741915
 10
2.503793717941461
 20
3.376112212815188
 10
2.504127947460423
 20
3.3858867209922
 10
2.504479229505856
 20
3.395661229169175
 10
2.497784407610728
 20
3.403822568341373
 10
2.489206986792472
 20
3.404122692807366
 10
2.480629565974216
 20
3.404422817273383
 10
2.473385808184048
 20
3.396745769853131
 10
2.473054833712846
 20
3.386967851170867
 10
2.472703707107737
 20
3.377210395520365
 10
2.479398373562566
 20
3.369035414326959
 10
2.487975794380797
 20
3.368735289860966
 97
        0
 97
        0
 75
     2
 76
     1
 98
        0
  0
SPLINE
  5
B5
330
1F
100
AcDbEntity
  8
Layer 1
 62
     7
420
 16777215
370
    35
100
AcDbSpline
210
0.0
220
0.0
230
1.0
 70
    11
 71
     3
 72
    17
 73
    13
 74
     0
 42
0.0000000001
 43
0.0000000001
 12
1.0
 22
0.0
 32
0.0
 13
1.0
 23
0.0
 33
0.0
 40
0.0
 40
0.0
 40
0.0
 40
0.0
 40
1.0
 40
1.0
 40
1.0
 40
2.0
 40
2.0
 40
2.0
 40
3.0
 40
3.0
 40
3.0
 40
4.0
 40
4.0
 40
4.0
 40
4.0
 10
2.609758117473524
 20
3.374345571072114
 30
0.0
 10
2.618349180312963
 20
3.374045578567916
 30
0.0
 10
2.625576041034189
 20
3.381722494026349
 30
0.0
 10
2.625927323079648
 20
3.391500412708625
 30
0.0
 10
2.626261552598609
 20
3.40125786835914
 30
0.0
 10
2.619583783229953
 20
3.409415797026023
 30
0.0
 10
2.610989309885225
 20
3.409732974018513
 30
0.0
 10
2.602411889066969
 20
3.410033098484531
 30
0.0
 10
2.595185028345743
 20
3.402338998537807
 30
0.0
 10
2.594837156805599
 20
3.392581542887291
 30
0.0
 10
2.594502927286638
 20
3.382807034710304
 30
0.0
 10
2.601180696655269
 20
3.374645695538106
 30
0.0
 10
2.609758117473524
 20
3.374345571072114
 30
0.0
  0
HATCH
  5
B6
330
1F
100
AcDbEntity
  8
Layer 1
 62
     7
420
 16777215
100
AcDbHatch
 10
0.0
 20
0.0
 30
0.0
210
0.0
220
0.0
230
1.0
  2
SOLID
 70
     1
 71
     0
 91
        1
 92
        1
 93
        1
 72
     4
 94
        3
 73
     0
 74
     1
 95
       17
 96
       13
 40
0.0
 40
0.0
 40
0.0
 40
0.0
 40
1.0
 40
1.0
 40
1.0
 40
2.0
 40
2.0
 40
2.0
 40
3.0
 40
3.0
 40
3.0
 40
4.0
 40
4.0
 40
4.0
 40
4.0
 10
2.609758117473524
 20
3.374345571072114
 10
2.618349180312963
 20
3.374045578567916
 10
2.625576041034189
 20
3.381722494026349
 10
2.625927323079648
 20
3.391500412708625
 10
2.626261552598609
 20
3.40125786835914
 10
2.619583783229953
 20
3.409415797026023
 10
2.610989309885225
 20
3.409732974018513
 10
2.602411889066969
 20
3.410033098484531
 10
2.595185028345743
 20
3.402338998537807
 10
2.594837156805599
 20
3.392581542887291
 10
2.594502927286638
 20
3.382807034710304
 10
2.601180696655269
 20
3.374645695538106
 10
2.609758117473524
 20
3.374345571072114
 97
        0
 97
        0
 75
     2
 76
     1
 98
        0
  0
SPLINE
  5
B7
330
1F
100
AcDbEntity
  8
Layer 1
 62
     7
420
 16777215
370
    18
100
AcDbSpline
210
0.0
220
0.0
230
1.0
 70
    11
 71
     3
 72
    17
 73
    13
 74
     0
 42
0.0000000001
 43
0.0000000001
 12
1.0
 22
0.0
 32
0.0
 13
1.0
 23
0.0
 33
0.0
 40
0.0
 40
0.0
 40
0.0
 40
0.0
 40
1.0
 40
1.0
 40
1.0
 40
2.0
 40
2.0
 40
2.0
 40
3.0
 40
3.0
 40
3.0
 40
4.0
 40
4.0
 40
4.0
 40
4.0
 10
2.617152092954231
 20
3.374379676125058
 30
0.0
 10
2.625726103267198
 20
3.374079683621668
 30
0.0
 10
2.632952963988436
 20
3.381756599079292
 30
0.0
 10
2.633304405531286
 20
3.391531107256279
 30
0.0
 10
2.633638475552819
 20
3.401291973412084
 30
0.0
 10
2.626960865521369
 20
3.40944990207898
 30
0.0
 10
2.618383285365932
 20
3.409750026544985
 30
0.0
 10
2.609788812021204
 20
3.410050151011003
 30
0.0
 10
2.602561951299978
 20
3.402373103590776
 30
0.0
 10
2.602231132286306
 20
3.392615647940261
 30
0.0
 10
2.601879850240872
 20
3.382841139763273
 30
0.0
 10
2.608557619609503
 20
3.374679800591075
 30
0.0
 10
2.617152092954231
 20
3.374379676125058
 30
0.0
  0
HATCH
  5
B8
330
1F
100
AcDbEntity
  8
Layer 1
 62
   254
420
 13358815
100
AcDbHatch
 10
0.0
 20
0.0
 30
0.0
210
0.0
220
0.0
230
1.0
  2
SOLID
 70
     1
 71
     0
 91
        1
 92
        1
 93
        1
 72
     4
 94
        3
 73
     0
 74
     1
 95
       17
 96
       13
 40
0.0
 40
0.0
 40
0.0
 40
0.0
 40
1.0
 40
1.0
 40
1.0
 40
2.0
 40
2.0
 40
2.0
 40
3.0
 40
3.0
 40
3.0
 40
4.0
 40
4.0
 40
4.0
 40
4.0
 10
2.617152092954231
 20
3.374379676125058
 10
2.625726103267198
 20
3.374079683621668
 10
2.632952963988436
 20
3.381756599079292
 10
2.633304405531286
 20
3.391531107256279
 10
2.633638475552819
 20
3.401291973412084
 10
2.626960865521369
 20
3.40944990207898
 10
2.618383285365932
 20
3.409750026544985
 10
2.609788812021204
 20
3.410050151011003
 10
2.602561951299978
 20
3.402373103590776
 10
2.602231132286306
 20
3.392615647940261
 10
2.601879850240872
 20
3.382841139763273
 10
2.608557619609503
 20
3.374679800591075
 10
2.617152092954231
 20
3.374379676125058
 97
        0
 97
        0
 75
     2
 76
     1
 98
        0
  0
SPLINE
  5
B9
330
1F
100
AcDbEntity
  8
Layer 1
 62
     7
420
 16777215
370
    35
100
AcDbSpline
210
0.0
220
0.0
230
1.0
 70
    11
 71
     3
 72
    17
 73
    13
 74
     0
 42
0.0000000001
 43
0.0000000001
 12
1.0
 22
0.0
 32
0.0
 13
1.0
 23
0.0
 33
0.0
 40
0.0
 40
0.0
 40
0.0
 40
0.0
 40
1.0
 40
1.0
 40
1.0
 40
2.0
 40
2.0
 40
2.0
 40
3.0
 40
3.0
 40
3.0
 40
4.0
 40
4.0
 40
4.0
 40
4.0
 10
2.481465139771621
 20
3.771249945849869
 30
0.0
 10
2.490056202611059
 20
3.770949821383876
 30
0.0
 10
2.497283063332285
 20
3.778643921330563
 30
0.0
 10
2.497634501447843
 20
3.78840478748638
 30
0.0
 10
2.497965164391391
 20
3.798179295663355
 30
0.0
 10
2.491287395022735
 20
3.806337224330276
 30
0.0
 10
2.482696487876056
 20
3.806637348796294
 30
0.0
 10
2.474118911365041
 20
3.806937473262287
 30
0.0
 10
2.466892050643815
 20
3.799260425842059
 30
0.0
 10
2.46654417910367
 20
3.789485917665072
 30
0.0
 10
2.466209949584709
 20
3.779728462014557
 30
0.0
 10
2.472887718953365
 20
3.771550070315887
 30
0.0
 10
2.481465139771621
 20
3.771249945849869
 30
0.0
  0
HATCH
  5
BA
330
1F
100
AcDbEntity
  8
Layer 1
 62
     7
420
 16777215
100
AcDbHatch
 10
0.0
 20
0.0
 30
0.0
210
0.0
220
0.0
230
1.0
  2
SOLID
 70
     1
 71
     0
 91
        1
 92
        1
 93
        1
 72
     4
 94
        3
 73
     0
 74
     1
 95
       17
 96
       13
 40
0.0
 40
0.0
 40
0.0
 40
0.0
 40
1.0
 40
1.0
 40
1.0
 40
2.0
 40
2.0
 40
2.0
 40
3.0
 40
3.0
 40
3.0
 40
4.0
 40
4.0
 40
4.0
 40
4.0
 10
2.481465139771621
 20
3.771249945849869
 10
2.490056202611059
 20
3.770949821383876
 10
2.497283063332285
 20
3.778643921330563
 10
2.497634501447843
 20
3.78840478748638
 10
2.497965164391391
 20
3.798179295663355
 10
2.491287395022735
 20
3.806337224330276
 10
2.482696487876056
 20
3.806637348796294
 10
2.474118911365041
 20
3.806937473262287
 10
2.466892050643815
 20
3.799260425842059
 10
2.46654417910367
 20
3.789485917665072
 10
2.466209949584709
 20
3.779728462014557
 10
2.472887718953365
 20
3.771550070315887
 10
2.481465139771621
 20
3.771249945849869
 97
        0
 97
        0
 75
     2
 76
     1
 98
        0
  0
SPLINE
  5
BB
330
1F
100
AcDbEntity
  8
Layer 1
 62
     7
420
 16777215
370
    18
100
AcDbSpline
210
0.0
220
0.0
230
1.0
 70
    11
 71
     3
 72
    17
 73
    13
 74
     0
 42
0.0000000001
 43
0.0000000001
 12
1.0
 22
0.0
 32
0.0
 13
1.0
 23
0.0
 33
0.0
 40
0.0
 40
0.0
 40
0.0
 40
0.0
 40
1.0
 40
1.0
 40
1.0
 40
2.0
 40
2.0
 40
2.0
 40
3.0
 40
3.0
 40
3.0
 40
4.0
 40
4.0
 40
4.0
 40
4.0
 10
2.488855704747039
 20
3.771284050902838
 30
0.0
 10
2.497433125565294
 20
3.771000978963318
 30
0.0
 10
2.504677038812992
 20
3.778678026383545
 30
0.0
 10
2.505011268331954
 20
3.78843548203406
 30
0.0
 10
2.505342243610433
 20
3.798213400716337
 30
0.0
 10
2.498664317976969
 20
3.806371329383246
 30
0.0
 10
2.490090307664003
 20
3.806671453849238
 30
0.0
 10
2.481512886845747
 20
3.806971578315243
 30
0.0
 10
2.47426897359805
 20
3.799294530895003
 30
0.0
 10
2.473921102057905
 20
3.789520022718016
 30
0.0
 10
2.473586872538943
 20
3.779759298773178
 30
0.0
 10
2.4802646419076
 20
3.771584175368831
 30
0.0
 10
2.488855704747039
 20
3.771284050902838
 30
0.0
  0
HATCH
  5
BC
330
1F
100
AcDbEntity
  8
Layer 1
 62
   254
420
 13358815
100
AcDbHatch
 10
0.0
 20
0.0
 30
0.0
210
0.0
220
0.0
230
1.0
  2
SOLID
 70
     1
 71
     0
 91
        1
 92
        1
 93
        1
 72
     4
 94
        3
 73
     0
 74
     1
 95
       17
 96
       13
 40
0.0
 40
0.0
 40
0.0
 40
0.0
 40
1.0
 40
1.0
 40
1.0
 40
2.0
 40
2.0
 40
2.0
 40
3.0
 40
3.0
 40
3.0
 40
4.0
 40
4.0
 40
4.0
 40
4.0
 10
2.488855704747039
 20
3.771284050902838
 10
2.497433125565294
 20
3.771000978963318
 10
2.504677038812992
 20
3.778678026383545
 10
2.505011268331954
 20
3.78843548203406
 10
2.505342243610433
 20
3.798213400716337
 10
2.498664317976969
 20
3.806371329383246
 10
2.490090307664003
 20
3.806671453849238
 10
2.481512886845747
 20
3.806971578315243
 10
2.47426897359805
 20
3.799294530895003
 10
2.473921102057905
 20
3.789520022718016
 10
2.473586872538943
 20
3.779759298773178
 10
2.4802646419076
 20
3.771584175368831
 10
2.488855704747039
 20
3.771284050902838
 97
        0
 97
        0
 75
     2
 76
     1
 98
        0
  0
SPLINE
  5
BD
330
1F
100
AcDbEntity
  8
Layer 1
 62
     7
420
 16777215
370
    35
100
AcDbSpline
210
0.0
220
0.0
230
1.0
 70
    11
 71
     3
 72
    17
 73
    13
 74
     0
 42
0.0000000001
 43
0.0000000001
 12
1.0
 22
0.0
 32
0.0
 13
1.0
 23
0.0
 33
0.0
 40
0.0
 40
0.0
 40
0.0
 40
0.0
 40
1.0
 40
1.0
 40
1.0
 40
2.0
 40
2.0
 40
2.0
 40
3.0
 40
3.0
 40
3.0
 40
4.0
 40
4.0
 40
4.0
 40
4.0
 10
2.569142409909091
 20
3.999344540014855
 30
0.0
 10
2.577716420222032
 20
3.999044415548888
 30
0.0
 10
2.58496033346973
 20
4.006721462969103
 30
0.0
 10
2.585294562988717
 20
4.016482477315991
 30
0.0
 10
2.585642434528836
 20
4.026256837301895
 30
0.0
 10
2.578951023139022
 20
4.034414765968765
 30
0.0
 10
2.570373602320766
 20
4.034714890434783
 30
0.0
 10
2.561796181502511
 20
4.035015014900801
 30
0.0
 10
2.554552268254825
 20
4.027337967480561
 30
0.0
 10
2.55422144924114
 20
4.017580511830058
 30
0.0
 10
2.553870167195706
 20
4.007806003653071
 30
0.0
 10
2.560564989090835
 20
3.999644664480873
 30
0.0
 10
2.569142409909091
 20
3.999344540014855
 30
0.0
  0
HATCH
  5
BE
330
1F
100
AcDbEntity
  8
Layer 1
 62
     7
420
 16777215
100
AcDbHatch
 10
0.0
 20
0.0
 30
0.0
210
0.0
220
0.0
230
1.0
  2
SOLID
 70
     1
 71
     0
 91
        1
 92
        1
 93
        1
 72
     4
 94
        3
 73
     0
 74
     1
 95
       17
 96
       13
 40
0.0
 40
0.0
 40
0.0
 40
0.0
 40
1.0
 40
1.0
 40
1.0
 40
2.0
 40
2.0
 40
2.0
 40
3.0
 40
3.0
 40
3.0
 40
4.0
 40
4.0
 40
4.0
 40
4.0
 10
2.569142409909091
 20
3.999344540014855
 10
2.577716420222032
 20
3.999044415548888
 10
2.58496033346973
 20
4.006721462969103
 10
2.585294562988717
 20
4.016482477315991
 10
2.585642434528836
 20
4.026256837301895
 10
2.578951023139022
 20
4.034414765968765
 10
2.570373602320766
 20
4.034714890434783
 10
2.561796181502511
 20
4.035015014900801
 10
2.554552268254825
 20
4.027337967480561
 10
2.55422144924114
 20
4.017580511830058
 10
2.553870167195706
 20
4.007806003653071
 10
2.560564989090835
 20
3.999644664480873
 10
2.569142409909091
 20
3.999344540014855
 97
        0
 97
        0
 75
     2
 76
     1
 98
        0
  0
SPLINE
  5
BF
330
1F
100
AcDbEntity
  8
Layer 1
 62
     7
420
 16777215
370
    18
100
AcDbSpline
210
0.0
220
0.0
230
1.0
 70
    11
 71
     3
 72
    17
 73
    13
 74
     0
 42
0.0000000001
 43
0.0000000001
 12
1.0
 22
0.0
 32
0.0
 13
1.0
 23
0.0
 33
0.0
 40
0.0
 40
0.0
 40
0.0
 40
0.0
 40
1.0
 40
1.0
 40
1.0
 40
2.0
 40
2.0
 40
2.0
 40
3.0
 40
3.0
 40
3.0
 40
4.0
 40
4.0
 40
4.0
 40
4.0
 10
2.576519490926242
 20
3.999378645067812
 30
0.0
 10
2.585110395702739
 20
3.999078520601806
 30
0.0
 10
2.592337256423964
 20
4.006755568022021
 30
0.0
 10
2.592688538469398
 20
4.016530076199034
 30
0.0
 10
2.593019357483071
 20
4.026290942354813
 30
0.0
 10
2.586341746425458
 20
4.034448871021734
 30
0.0
 10
2.577750525275001
 20
4.034766048014224
 30
0.0
 10
2.569173104456745
 20
4.035049119953745
 30
0.0
 10
2.56194624373552
 20
4.027372072533518
 30
0.0
 10
2.561598372195375
 20
4.017614616883002
 30
0.0
 10
2.561264142676413
 20
4.007836698200726
 30
0.0
 10
2.567941912045045
 20
3.999678769533817
 30
0.0
 10
2.576519490926242
 20
3.999378645067812
 30
0.0
  0
HATCH
  5
C0
330
1F
100
AcDbEntity
  8
Layer 1
 62
   254
420
 13358815
100
AcDbHatch
 10
0.0
 20
0.0
 30
0.0
210
0.0
220
0.0
230
1.0
  2
SOLID
 70
     1
 71
     0
 91
        1
 92
        1
 93
        1
 72
     4
 94
        3
 73
     0
 74
     1
 95
       17
 96
       13
 40
0.0
 40
0.0
 40
0.0
 40
0.0
 40
1.0
 40
1.0
 40
1.0
 40
2.0
 40
2.0
 40
2.0
 40
3.0
 40
3.0
 40
3.0
 40
4.0
 40
4.0
 40
4.0
 40
4.0
 10
2.576519490926242
 20
3.999378645067812
 10
2.585110395702739
 20
3.999078520601806
 10
2.592337256423964
 20
4.006755568022021
 10
2.592688538469398
 20
4.016530076199034
 10
2.593019357483071
 20
4.026290942354813
 10
2.586341746425458
 20
4.034448871021734
 10
2.577750525275001
 20
4.034766048014224
 10
2.569173104456745
 20
4.035049119953745
 10
2.56194624373552
 20
4.027372072533518
 10
2.561598372195375
 20
4.017614616883002
 10
2.561264142676413
 20
4.007836698200726
 10
2.567941912045045
 20
3.999678769533817
 10
2.576519490926242
 20
3.999378645067812
 97
        0
 97
        0
 75
     2
 76
     1
 98
        0
  0
SPLINE
  5
C1
330
1F
100
AcDbEntity
  8
Layer 1
 62
     7
420
 16777215
370
    35
100
AcDbSpline
210
0.0
220
0.0
230
1.0
 70
    11
 71
     3
 72
    17
 73
    13
 74
     0
 42
0.0000000001
 43
0.0000000001
 12
1.0
 22
0.0
 32
0.0
 13
1.0
 23
0.0
 33
0.0
 40
0.0
 40
0.0
 40
0.0
 40
0.0
 40
1.0
 40
1.0
 40
1.0
 40
2.0
 40
2.0
 40
2.0
 40
3.0
 40
3.0
 40
3.0
 40
4.0
 40
4.0
 40
4.0
 40
4.0
 10
2.48855899078631
 20
4.1818440888839
 30
0.0
 10
2.497150053625748
 20
4.181543964417907
 30
0.0
 10
2.504376914346974
 20
4.189238064364607
 30
0.0
 10
2.504728352641728
 20
4.198995520015122
 30
0.0
 10
2.50505901540608
 20
4.208770028192109
 30
0.0
 10
2.498381246037449
 20
4.216931367364307
 30
0.0
 10
2.489790339069966
 20
4.217231491830299
 30
0.0
 10
2.481212762379755
 20
4.217531769566335
 30
0.0
 10
2.473985901658529
 20
4.209854568876103
 30
0.0
 10
2.473638030118384
 20
4.200093702720311
 30
0.0
 10
2.473303800599423
 20
4.190319194543311
 30
0.0
 10
2.479981569968054
 20
4.182144213349917
 30
0.0
 10
2.48855899078631
 20
4.1818440888839
 30
0.0
  0
HATCH
  5
C2
330
1F
100
AcDbEntity
  8
Layer 1
 62
     7
420
 16777215
100
AcDbHatch
 10
0.0
 20
0.0
 30
0.0
210
0.0
220
0.0
230
1.0
  2
SOLID
 70
     1
 71
     0
 91
        1
 92
        1
 93
        1
 72
     4
 94
        3
 73
     0
 74
     1
 95
       17
 96
       13
 40
0.0
 40
0.0
 40
0.0
 40
0.0
 40
1.0
 40
1.0
 40
1.0
 40
2.0
 40
2.0
 40
2.0
 40
3.0
 40
3.0
 40
3.0
 40
4.0
 40
4.0
 40
4.0
 40
4.0
 10
2.48855899078631
 20
4.1818440888839
 10
2.497150053625748
 20
4.181543964417907
 10
2.504376914346974
 20
4.189238064364607
 10
2.504728352641728
 20
4.198995520015122
 10
2.50505901540608
 20
4.208770028192109
 10
2.498381246037449
 20
4.216931367364307
 10
2.489790339069966
 20
4.217231491830299
 10
2.481212762379755
 20
4.217531769566335
 10
2.473985901658529
 20
4.209854568876103
 10
2.473638030118384
 20
4.200093702720311
 10
2.473303800599423
 20
4.190319194543311
 10
2.479981569968054
 20
4.182144213349917
 10
2.48855899078631
 20
4.1818440888839
 97
        0
 97
        0
 75
     2
 76
     1
 98
        0
  0
SPLINE
  5
C3
330
1F
100
AcDbEntity
  8
Layer 1
 62
     7
420
 16777215
370
    18
100
AcDbSpline
210
0.0
220
0.0
230
1.0
 70
    11
 71
     3
 72
    17
 73
    13
 74
     0
 42
0.0000000001
 43
0.0000000001
 12
1.0
 22
0.0
 32
0.0
 13
1.0
 23
0.0
 33
0.0
 40
0.0
 40
0.0
 40
0.0
 40
0.0
 40
1.0
 40
1.0
 40
1.0
 40
2.0
 40
2.0
 40
2.0
 40
3.0
 40
3.0
 40
3.0
 40
4.0
 40
4.0
 40
4.0
 40
4.0
 10
2.495952966267017
 20
4.181878193936869
 30
0.0
 10
2.504526976579983
 20
4.181578069470851
 30
0.0
 10
2.511770889827681
 20
4.189272169417588
 30
0.0
 10
2.512105119346643
 20
4.19902962506804
 30
0.0
 10
2.512452990886762
 20
4.208804133245053
 30
0.0
 10
2.505761579496973
 20
4.216965472417251
 30
0.0
 10
2.497184158678718
 20
4.217265596883268
 30
0.0
 10
2.488606737860462
 20
4.217562310843972
 30
0.0
 10
2.481362824612764
 20
4.209888673929021
 30
0.0
 10
2.481032005599066
 20
4.20011075524677
 30
0.0
 10
2.480680723553658
 20
4.19035329959623
 30
0.0
 10
2.487358492922289
 20
4.182178318402887
 30
0.0
 10
2.495952966267017
 20
4.181878193936869
 30
0.0
  0
HATCH
  5
C4
330
1F
100
AcDbEntity
  8
Layer 1
 62
   254
420
 13358815
100
AcDbHatch
 10
0.0
 20
0.0
 30
0.0
210
0.0
220
0.0
230
1.0
  2
SOLID
 70
     1
 71
     0
 91
        1
 92
        1
 93
        1
 72
     4
 94
        3
 73
     0
 74
     1
 95
       17
 96
       13
 40
0.0
 40
0.0
 40
0.0
 40
0.0
 40
1.0
 40
1.0
 40
1.0
 40
2.0
 40
2.0
 40
2.0
 40
3.0
 40
3.0
 40
3.0
 40
4.0
 40
4.0
 40
4.0
 40
4.0
 10
2.495952966267017
 20
4.181878193936869
 10
2.504526976579983
 20
4.181578069470851
 10
2.511770889827681
 20
4.189272169417588
 10
2.512105119346643
 20
4.19902962506804
 10
2.512452990886762
 20
4.208804133245053
 10
2.505761579496973
 20
4.216965472417251
 10
2.497184158678718
 20
4.217265596883268
 10
2.488606737860462
 20
4.217562310843972
 10
2.481362824612764
 20
4.209888673929021
 10
2.481032005599066
 20
4.20011075524677
 10
2.480680723553658
 20
4.19035329959623
 10
2.487358492922289
 20
4.182178318402887
 10
2.495952966267017
 20
4.181878193936869
 97
        0
 97
        0
 75
     2
 76
     1
 98
        0
  0
SPLINE
  5
C5
330
1F
100
AcDbEntity
  8
Layer 1
 62
     7
420
 16777215
370
    35
100
AcDbSpline
210
0.0
220
0.0
230
1.0
 70
    11
 71
     3
 72
    17
 73
    13
 74
     0
 42
0.0000000001
 43
0.0000000001
 12
1.0
 22
0.0
 32
0.0
 13
1.0
 23
0.0
 33
0.0
 40
0.0
 40
0.0
 40
0.0
 40
0.0
 40
1.0
 40
1.0
 40
1.0
 40
2.0
 40
2.0
 40
2.0
 40
3.0
 40
3.0
 40
3.0
 40
4.0
 40
4.0
 40
4.0
 40
4.0
 10
2.562464640540434
 20
3.493382437401944
 30
0.0
 10
2.571055703379872
 20
3.493082312935952
 30
0.0
 10
2.578282564101123
 20
3.50075936035618
 30
0.0
 10
2.578634004262881
 20
3.510534003942906
 30
0.0
 10
2.578964665160204
 20
3.520291324183682
 30
0.0
 10
2.572286895791548
 20
3.52845266335588
 30
0.0
 10
2.563712885478644
 20
3.528752787821897
 30
0.0
 10
2.555118412133866
 20
3.529053048165464
 30
0.0
 10
2.547891551412628
 20
3.521375864867663
 30
0.0
 10
2.547543679872483
 20
3.511614998711858
 30
0.0
 10
2.547209450353522
 20
3.501840490534871
 30
0.0
 10
2.553887219722204
 20
3.493682561867963
 30
0.0
 10
2.562464640540434
 20
3.493382437401944
 30
0.0
  0
HATCH
  5
C6
330
1F
100
AcDbEntity
  8
Layer 1
 62
     7
420
 16777215
100
AcDbHatch
 10
0.0
 20
0.0
 30
0.0
210
0.0
220
0.0
230
1.0
  2
SOLID
 70
     1
 71
     0
 91
        1
 92
        1
 93
        1
 72
     4
 94
        3
 73
     0
 74
     1
 95
       17
 96
       13
 40
0.0
 40
0.0
 40
0.0
 40
0.0
 40
1.0
 40
1.0
 40
1.0
 40
2.0
 40
2.0
 40
2.0
 40
3.0
 40
3.0
 40
3.0
 40
4.0
 40
4.0
 40
4.0
 40
4.0
 10
2.562464640540434
 20
3.493382437401944
 10
2.571055703379872
 20
3.493082312935952
 10
2.578282564101123
 20
3.50075936035618
 10
2.578634004262881
 20
3.510534003942906
 10
2.578964665160204
 20
3.520291324183682
 10
2.572286895791548
 20
3.52845266335588
 10
2.563712885478644
 20
3.528752787821897
 10
2.555118412133866
 20
3.529053048165464
 10
2.547891551412628
 20
3.521375864867663
 10
2.547543679872483
 20
3.511614998711858
 10
2.547209450353522
 20
3.501840490534871
 10
2.553887219722204
 20
3.493682561867963
 10
2.562464640540434
 20
3.493382437401944
 97
        0
 97
        0
 75
     2
 76
     1
 98
        0
  0
SPLINE
  5
C7
330
1F
100
AcDbEntity
  8
Layer 1
 62
     7
420
 16777215
370
    18
100
AcDbSpline
210
0.0
220
0.0
230
1.0
 70
    11
 71
     3
 72
    17
 73
    13
 74
     0
 42
0.0000000001
 43
0.0000000001
 12
1.0
 22
0.0
 32
0.0
 13
1.0
 23
0.0
 33
0.0
 40
0.0
 40
0.0
 40
0.0
 40
0.0
 40
1.0
 40
1.0
 40
1.0
 40
2.0
 40
2.0
 40
2.0
 40
3.0
 40
3.0
 40
3.0
 40
4.0
 40
4.0
 40
4.0
 40
4.0
 10
2.569855205515851
 20
3.4934132669269
 30
0.0
 10
2.578449678860579
 20
3.493116417988908
 30
0.0
 10
2.585676539581805
 20
3.500790054903834
 30
0.0
 10
2.586010769100767
 20
3.510550921059639
 30
0.0
 10
2.586358640640911
 20
3.520325429236626
 30
0.0
 10
2.579680871272255
 20
3.528486768408824
 30
0.0
 10
2.571089808432816
 20
3.528783482369552
 30
0.0
 10
2.562512387614561
 20
3.529100659362042
 30
0.0
 10
2.555268474366863
 20
3.521423611941789
 30
0.0
 10
2.554934244847901
 20
3.511649103764802
 30
0.0
 10
2.554586373307769
 20
3.501874595587815
 30
0.0
 10
2.561281195202885
 20
3.493713256415604
 30
0.0
 10
2.569855205515851
 20
3.4934132669269
 30
0.0
  0
HATCH
  5
C8
330
1F
100
AcDbEntity
  8
Layer 1
 62
   254
420
 13358815
100
AcDbHatch
 10
0.0
 20
0.0
 30
0.0
210
0.0
220
0.0
230
1.0
  2
SOLID
 70
     1
 71
     0
 91
        1
 92
        1
 93
        1
 72
     4
 94
        3
 73
     0
 74
     1
 95
       17
 96
       13
 40
0.0
 40
0.0
 40
0.0
 40
0.0
 40
1.0
 40
1.0
 40
1.0
 40
2.0
 40
2.0
 40
2.0
 40
3.0
 40
3.0
 40
3.0
 40
4.0
 40
4.0
 40
4.0
 40
4.0
 10
2.569855205515851
 20
3.4934132669269
 10
2.578449678860579
 20
3.493116417988908
 10
2.585676539581805
 20
3.500790054903834
 10
2.586010769100767
 20
3.510550921059639
 10
2.586358640640911
 20
3.520325429236626
 10
2.579680871272255
 20
3.528486768408824
 10
2.571089808432816
 20
3.528783482369552
 10
2.562512387614561
 20
3.529100659362042
 10
2.555268474366863
 20
3.521423611941789
 10
2.554934244847901
 20
3.511649103764802
 10
2.554586373307769
 20
3.501874595587815
 10
2.561281195202885
 20
3.493713256415604
 10
2.569855205515851
 20
3.4934132669269
 97
        0
 97
        0
 75
     2
 76
     1
 98
        0
  0
SPLINE
  5
C9
330
1F
100
AcDbEntity
  8
Layer 1
 62
     7
420
 16777215
370
    35
100
AcDbSpline
210
0.0
220
0.0
230
1.0
 70
    11
 71
     3
 72
    17
 73
    13
 74
     0
 42
0.0000000001
 43
0.0000000001
 12
1.0
 22
0.0
 32
0.0
 13
1.0
 23
0.0
 33
0.0
 40
0.0
 40
0.0
 40
0.0
 40
0.0
 40
1.0
 40
1.0
 40
1.0
 40
2.0
 40
2.0
 40
2.0
 40
3.0
 40
3.0
 40
3.0
 40
4.0
 40
4.0
 40
4.0
 40
4.0
 10
2.786395007739606
 20
3.473229761610671
 30
0.0
 10
2.7778175869213
 20
3.47353002055167
 30
0.0
 10
2.771122928005222
 20
3.481708277775359
 30
0.0
 10
2.77147404707163
 20
3.491465733425874
 30
0.0
 10
2.771805029081532
 20
3.501240241602861
 30
0.0
 10
2.779048779333
 20
3.508917289023088
 30
0.0
 10
2.787626200151256
 20
3.50861716455707
 30
0.0
 10
2.796203620969512
 20
3.508320450596354
 30
0.0
 10
2.80289844286464
 20
3.500159111424169
 30
0.0
 10
2.802547160819181
 20
3.490384603247182
 30
0.0
 10
2.80221293130022
 20
3.480610095070195
 30
0.0
 10
2.794969018052522
 20
3.472933047649967
 30
0.0
 10
2.786395007739606
 20
3.473229761610671
 30
0.0
  0
HATCH
  5
CA
330
1F
100
AcDbEntity
  8
Layer 1
 62
     7
420
 16777215
100
AcDbHatch
 10
0.0
 20
0.0
 30
0.0
210
0.0
220
0.0
230
1.0
  2
SOLID
 70
     1
 71
     0
 91
        1
 92
        1
 93
        1
 72
     4
 94
        3
 73
     0
 74
     1
 95
       17
 96
       13
 40
0.0
 40
0.0
 40
0.0
 40
0.0
 40
1.0
 40
1.0
 40
1.0
 40
2.0
 40
2.0
 40
2.0
 40
3.0
 40
3.0
 40
3.0
 40
4.0
 40
4.0
 40
4.0
 40
4.0
 10
2.786395007739606
 20
3.473229761610671
 10
2.7778175869213
 20
3.47353002055167
 10
2.771122928005222
 20
3.481708277775359
 10
2.77147404707163
 20
3.491465733425874
 10
2.771805029081532
 20
3.501240241602861
 10
2.779048779333
 20
3.508917289023088
 10
2.787626200151256
 20
3.50861716455707
 10
2.796203620969512
 20
3.508320450596354
 10
2.80289844286464
 20
3.500159111424169
 10
2.802547160819181
 20
3.490384603247182
 10
2.80221293130022
 20
3.480610095070195
 10
2.794969018052522
 20
3.472933047649967
 10
2.786395007739606
 20
3.473229761610671
 97
        0
 97
        0
 75
     2
 76
     1
 98
        0
  0
SPLINE
  5
CB
330
1F
100
AcDbEntity
  8
Layer 1
 62
     7
420
 16777215
370
    18
100
AcDbSpline
210
0.0
220
0.0
230
1.0
 70
    11
 71
     3
 72
    17
 73
    13
 74
     0
 42
0.0000000001
 43
0.0000000001
 12
1.0
 22
0.0
 32
0.0
 13
1.0
 23
0.0
 33
0.0
 40
0.0
 40
0.0
 40
0.0
 40
0.0
 40
1.0
 40
1.0
 40
1.0
 40
2.0
 40
2.0
 40
2.0
 40
3.0
 40
3.0
 40
3.0
 40
4.0
 40
4.0
 40
4.0
 40
4.0
 10
2.779031726806529
 20
3.473782263468554
 30
0.0
 10
2.77044082692886
 20
3.474078977429258
 30
0.0
 10
2.763762894598433
 20
3.482257369127928
 30
0.0
 10
2.764097286918943
 20
3.492014959720374
 30
0.0
 10
2.76444499565754
 20
3.50178933295543
 30
0.0
 10
2.771688908905237
 20
3.509466380375683
 30
0.0
 10
2.780266329723493
 20
3.509169801790297
 30
0.0
 10
2.788840340036459
 20
3.508869541948962
 30
0.0
 10
2.795535161931588
 20
3.500708202776764
 30
0.0
 10
2.795187290391444
 20
3.490933694599776
 30
0.0
 10
2.794853060872507
 20
3.48115918642279
 30
0.0
 10
2.787609147624784
 20
3.473482139002537
 30
0.0
 10
2.779031726806529
 20
3.473782263468554
 30
0.0
  0
HATCH
  5
CC
330
1F
100
AcDbEntity
  8
Layer 1
 62
   254
420
 13358815
100
AcDbHatch
 10
0.0
 20
0.0
 30
0.0
210
0.0
220
0.0
230
1.0
  2
SOLID
 70
     1
 71
     0
 91
        1
 92
        1
 93
        1
 72
     4
 94
        3
 73
     0
 74
     1
 95
       17
 96
       13
 40
0.0
 40
0.0
 40
0.0
 40
0.0
 40
1.0
 40
1.0
 40
1.0
 40
2.0
 40
2.0
 40
2.0
 40
3.0
 40
3.0
 40
3.0
 40
4.0
 40
4.0
 40
4.0
 40
4.0
 10
2.779031726806529
 20
3.473782263468554
 10
2.77044082692886
 20
3.474078977429258
 10
2.763762894598433
 20
3.482257369127928
 10
2.764097286918943
 20
3.492014959720374
 10
2.76444499565754
 20
3.50178933295543
 10
2.771688908905237
 20
3.509466380375683
 10
2.780266329723493
 20
3.509169801790297
 10
2.788840340036459
 20
3.508869541948962
 10
2.795535161931588
 20
3.500708202776764
 10
2.795187290391444
 20
3.490933694599776
 10
2.794853060872507
 20
3.48115918642279
 10
2.787609147624784
 20
3.473482139002537
 10
2.779031726806529
 20
3.473782263468554
 97
        0
 97
        0
 75
     2
 76
     1
 98
        0
  0
SPLINE
  5
CD
330
1F
100
AcDbEntity
  8
Layer 1
 62
     7
420
 16777215
370
    35
100
AcDbSpline
210
0.0
220
0.0
230
1.0
 70
    11
 71
     3
 72
    17
 73
    13
 74
     0
 42
0.0000000001
 43
0.0000000001
 12
1.0
 22
0.0
 32
0.0
 13
1.0
 23
0.0
 33
0.0
 40
0.0
 40
0.0
 40
0.0
 40
0.0
 40
1.0
 40
1.0
 40
1.0
 40
2.0
 40
2.0
 40
2.0
 40
3.0
 40
3.0
 40
3.0
 40
4.0
 40
4.0
 40
4.0
 40
4.0
 10
2.864829808526136
 20
3.540774818988628
 30
0.0
 10
2.85625238770788
 20
3.541074943454621
 30
0.0
 10
2.849574618339248
 20
3.549249924648027
 30
0.0
 10
2.84990884785821
 20
3.559010790803831
 30
0.0
 10
2.850256719398355
 20
3.56878543586212
 30
0.0
 10
2.857483580119581
 20
3.576462346401045
 30
0.0
 10
2.866061000937836
 20
3.576162221935028
 30
0.0
 10
2.874655474282564
 20
3.575862097469048
 30
0.0
 10
2.881333243651195
 20
3.567704168802126
 30
0.0
 10
2.880999014132233
 20
3.55792625011985
 30
0.0
 10
2.8806477320868
 20
3.548151878302949
 30
0.0
 10
2.873420871365574
 20
3.54047469452261
 30
0.0
 10
2.864829808526136
 20
3.540774818988628
 30
0.0
  0
HATCH
  5
CE
330
1F
100
AcDbEntity
  8
Layer 1
 62
     7
420
 16777215
100
AcDbHatch
 10
0.0
 20
0.0
 30
0.0
210
0.0
220
0.0
230
1.0
  2
SOLID
 70
     1
 71
     0
 91
        1
 92
        1
 93
        1
 72
     4
 94
        3
 73
     0
 74
     1
 95
       17
 96
       13
 40
0.0
 40
0.0
 40
0.0
 40
0.0
 40
1.0
 40
1.0
 40
1.0
 40
2.0
 40
2.0
 40
2.0
 40
3.0
 40
3.0
 40
3.0
 40
4.0
 40
4.0
 40
4.0
 40
4.0
 10
2.864829808526136
 20
3.540774818988628
 10
2.85625238770788
 20
3.541074943454621
 10
2.849574618339248
 20
3.549249924648027
 10
2.84990884785821
 20
3.559010790803831
 10
2.850256719398355
 20
3.56878543586212
 10
2.857483580119581
 20
3.576462346401045
 10
2.866061000937836
 20
3.576162221935028
 10
2.874655474282564
 20
3.575862097469048
 10
2.881333243651195
 20
3.567704168802126
 10
2.880999014132233
 20
3.55792625011985
 10
2.8806477320868
 20
3.548151878302949
 10
2.873420871365574
 20
3.54047469452261
 10
2.864829808526136
 20
3.540774818988628
 97
        0
 97
        0
 75
     2
 76
     1
 98
        0
  0
SPLINE
  5
CF
330
1F
100
AcDbEntity
  8
Layer 1
 62
     7
420
 16777215
370
    18
100
AcDbSpline
210
0.0
220
0.0
230
1.0
 70
    11
 71
     3
 72
    17
 73
    13
 74
     0
 42
0.0000000001
 43
0.0000000001
 12
1.0
 22
0.0
 32
0.0
 13
1.0
 23
0.0
 33
0.0
 40
0.0
 40
0.0
 40
0.0
 40
0.0
 40
1.0
 40
1.0
 40
1.0
 40
2.0
 40
2.0
 40
2.0
 40
3.0
 40
3.0
 40
3.0
 40
4.0
 40
4.0
 40
4.0
 40
4.0
 10
2.857469938098398
 20
3.541323910341197
 30
0.0
 10
2.848875464753645
 20
3.541624034807228
 30
0.0
 10
2.842197860159533
 20
3.549802426505885
 30
0.0
 10
2.842548977430447
 20
3.5595598821564
 30
0.0
 10
2.842879961235894
 20
3.569334390333387
 30
0.0
 10
2.850123709691818
 20
3.577011437753615
 30
0.0
 10
2.858701130510073
 20
3.576711313287622
 30
0.0
 10
2.867278551328329
 20
3.576411188821617
 30
0.0
 10
2.873969962718168
 20
3.568253260154695
 30
0.0
 10
2.873622091178024
 20
3.558478751977709
 30
0.0
 10
2.873287861659062
 20
3.548717885821904
 30
0.0
 10
2.866043948411339
 20
3.541023922055185
 30
0.0
 10
2.857469938098398
 20
3.541323910341197
 30
0.0
  0
HATCH
  5
D0
330
1F
100
AcDbEntity
  8
Layer 1
 62
   254
420
 13358815
100
AcDbHatch
 10
0.0
 20
0.0
 30
0.0
210
0.0
220
0.0
230
1.0
  2
SOLID
 70
     1
 71
     0
 91
        1
 92
        1
 93
        1
 72
     4
 94
        3
 73
     0
 74
     1
 95
       17
 96
       13
 40
0.0
 40
0.0
 40
0.0
 40
0.0
 40
1.0
 40
1.0
 40
1.0
 40
2.0
 40
2.0
 40
2.0
 40
3.0
 40
3.0
 40
3.0
 40
4.0
 40
4.0
 40
4.0
 40
4.0
 10
2.857469938098398
 20
3.541323910341197
 10
2.848875464753645
 20
3.541624034807228
 10
2.842197860159533
 20
3.549802426505885
 10
2.842548977430447
 20
3.5595598821564
 10
2.842879961235894
 20
3.569334390333387
 10
2.850123709691818
 20
3.577011437753615
 10
2.858701130510073
 20
3.576711313287622
 10
2.867278551328329
 20
3.576411188821617
 10
2.873969962718168
 20
3.568253260154695
 10
2.873622091178024
 20
3.558478751977709
 10
2.873287861659062
 20
3.548717885821904
 10
2.866043948411339
 20
3.541023922055185
 10
2.857469938098398
 20
3.541323910341197
 97
        0
 97
        0
 75
     2
 76
     1
 98
        0
  0
SPLINE
  5
D1
330
1F
100
AcDbEntity
  8
Layer 1
 62
     7
420
 16777215
370
    35
100
AcDbSpline
210
0.0
220
0.0
230
1.0
 70
    11
 71
     3
 72
    17
 73
    13
 74
     0
 42
0.0000000001
 43
0.0000000001
 12
1.0
 22
0.0
 32
0.0
 13
1.0
 23
0.0
 33
0.0
 40
0.0
 40
0.0
 40
0.0
 40
0.0
 40
1.0
 40
1.0
 40
1.0
 40
2.0
 40
2.0
 40
2.0
 40
3.0
 40
3.0
 40
3.0
 40
4.0
 40
4.0
 40
4.0
 40
4.0
 10
2.781613479315233
 20
3.726722388711462
 30
0.0
 10
2.773039469002267
 20
3.727019102672165
 30
0.0
 10
2.766344647107164
 20
3.735180441844363
 30
0.0
 10
2.766692518647308
 20
3.74495495002135
 30
0.0
 10
2.76702674816627
 20
3.754715816177155
 30
0.0
 10
2.774270661413968
 20
3.762392863597395
 30
0.0
 10
2.782848082232224
 20
3.762109791657862
 30
0.0
 10
2.791439145071662
 20
3.761809667191844
 30
0.0
 10
2.798116914440293
 20
3.753631275493186
 30
0.0
 10
2.797769042900149
 20
3.743873819842646
 30
0.0
 10
2.797434813381187
 20
3.734099311665672
 30
0.0
 10
2.790190900133489
 20
3.726422264245444
 30
0.0
 10
2.781613479315233
 20
3.726722388711462
 30
0.0
  0
HATCH
  5
D2
330
1F
100
AcDbEntity
  8
Layer 1
 62
     7
420
 16777215
100
AcDbHatch
 10
0.0
 20
0.0
 30
0.0
210
0.0
220
0.0
230
1.0
  2
SOLID
 70
     1
 71
     0
 91
        1
 92
        1
 93
        1
 72
     4
 94
        3
 73
     0
 74
     1
 95
       17
 96
       13
 40
0.0
 40
0.0
 40
0.0
 40
0.0
 40
1.0
 40
1.0
 40
1.0
 40
2.0
 40
2.0
 40
2.0
 40
3.0
 40
3.0
 40
3.0
 40
4.0
 40
4.0
 40
4.0
 40
4.0
 10
2.781613479315233
 20
3.726722388711462
 10
2.773039469002267
 20
3.727019102672165
 10
2.766344647107164
 20
3.735180441844363
 10
2.766692518647308
 20
3.74495495002135
 10
2.76702674816627
 20
3.754715816177155
 10
2.774270661413968
 20
3.762392863597395
 10
2.782848082232224
 20
3.762109791657862
 10
2.791439145071662
 20
3.761809667191844
 10
2.798116914440293
 20
3.753631275493186
 10
2.797769042900149
 20
3.743873819842646
 10
2.797434813381187
 20
3.734099311665672
 10
2.790190900133489
 20
3.726422264245444
 10
2.781613479315233
 20
3.726722388711462
 97
        0
 97
        0
 75
     2
 76
     1
 98
        0
  0
SPLINE
  5
D3
330
1F
100
AcDbEntity
  8
Layer 1
 62
     7
420
 16777215
370
    18
100
AcDbSpline
210
0.0
220
0.0
230
1.0
 70
    11
 71
     3
 72
    17
 73
    13
 74
     0
 42
0.0000000001
 43
0.0000000001
 12
1.0
 22
0.0
 32
0.0
 13
1.0
 23
0.0
 33
0.0
 40
0.0
 40
0.0
 40
0.0
 40
0.0
 40
1.0
 40
1.0
 40
1.0
 40
2.0
 40
2.0
 40
2.0
 40
3.0
 40
3.0
 40
3.0
 40
4.0
 40
4.0
 40
4.0
 40
4.0
 10
2.774253608887496
 20
3.727271620949081
 30
0.0
 10
2.765662546048058
 20
3.727571604530062
 30
0.0
 10
2.758984776679401
 20
3.735729674295637
 30
0.0
 10
2.759332648219545
 20
3.74550404137392
 30
0.0
 10
2.759666877738507
 20
3.755281960056221
 30
0.0
 10
2.766910790986205
 20
3.762959007476449
 30
0.0
 10
2.775484801299172
 20
3.762658883010431
 30
0.0
 10
2.784062222117427
 20
3.762358758544451
 30
0.0
 10
2.790757044012581
 20
3.754180508410538
 30
0.0
 10
2.790405761967122
 20
3.744422911195253
 30
0.0
 10
2.79007494295345
 20
3.734648403018266
 30
0.0
 10
2.782831029705751
 20
3.726971355598039
 30
0.0
 10
2.774253608887496
 20
3.727271620949081
 30
0.0
  0
HATCH
  5
D4
330
1F
100
AcDbEntity
  8
Layer 1
 62
   254
420
 13358815
100
AcDbHatch
 10
0.0
 20
0.0
 30
0.0
210
0.0
220
0.0
230
1.0
  2
SOLID
 70
     1
 71
     0
 91
        1
 92
        1
 93
        1
 72
     4
 94
        3
 73
     0
 74
     1
 95
       17
 96
       13
 40
0.0
 40
0.0
 40
0.0
 40
0.0
 40
1.0
 40
1.0
 40
1.0
 40
2.0
 40
2.0
 40
2.0
 40
3.0
 40
3.0
 40
3.0
 40
4.0
 40
4.0
 40
4.0
 40
4.0
 10
2.774253608887496
 20
3.727271620949081
 10
2.765662546048058
 20
3.727571604530062
 10
2.758984776679401
 20
3.735729674295637
 10
2.759332648219545
 20
3.74550404137392
 10
2.759666877738507
 20
3.755281960056221
 10
2.766910790986205
 20
3.762959007476449
 10
2.775484801299172
 20
3.762658883010431
 10
2.784062222117427
 20
3.762358758544451
 10
2.790757044012581
 20
3.754180508410538
 10
2.790405761967122
 20
3.744422911195253
 10
2.79007494295345
 20
3.734648403018266
 10
2.782831029705751
 20
3.726971355598039
 10
2.774253608887496
 20
3.727271620949081
 97
        0
 97
        0
 75
     2
 76
     1
 98
        0
  0
SPLINE
  5
D5
330
1F
100
AcDbEntity
  8
Layer 1
 62
     7
420
 16777215
370
    35
100
AcDbSpline
210
0.0
220
0.0
230
1.0
 70
    11
 71
     3
 72
    17
 73
    13
 74
     0
 42
0.0000000001
 43
0.0000000001
 12
1.0
 22
0.0
 32
0.0
 13
1.0
 23
0.0
 33
0.0
 40
0.0
 40
0.0
 40
0.0
 40
0.0
 40
1.0
 40
1.0
 40
1.0
 40
2.0
 40
2.0
 40
2.0
 40
3.0
 40
3.0
 40
3.0
 40
4.0
 40
4.0
 40
4.0
 40
4.0
 10
2.848425278054644
 20
4.021458256351075
 30
0.0
 10
2.839851267741677
 20
4.02175838081708
 30
0.0
 10
2.833156445846574
 20
4.029919868519818
 30
0.0
 10
2.833504317386718
 20
4.039694228166265
 30
0.0
 10
2.83383854690568
 20
4.049468736343227
 30
0.0
 10
2.841082460153378
 20
4.05714578376348
 30
0.0
 10
2.849673522992816
 20
4.056845659297462
 30
0.0
 10
2.858250943811072
 20
4.056548945336759
 30
0.0
 10
2.864928713179703
 20
4.048387606164561
 30
0.0
 10
2.864580841639559
 20
4.038613097987573
 30
0.0
 10
2.864246612120597
 20
4.028838589810587
 30
0.0
 10
2.857019751399371
 20
4.02116154239036
 30
0.0
 10
2.848425278054644
 20
4.021458256351075
 30
0.0
  0
HATCH
  5
D6
330
1F
100
AcDbEntity
  8
Layer 1
 62
     7
420
 16777215
100
AcDbHatch
 10
0.0
 20
0.0
 30
0.0
210
0.0
220
0.0
230
1.0
  2
SOLID
 70
     1
 71
     0
 91
        1
 92
        1
 93
        1
 72
     4
 94
        3
 73
     0
 74
     1
 95
       17
 96
       13
 40
0.0
 40
0.0
 40
0.0
 40
0.0
 40
1.0
 40
1.0
 40
1.0
 40
2.0
 40
2.0
 40
2.0
 40
3.0
 40
3.0
 40
3.0
 40
4.0
 40
4.0
 40
4.0
 40
4.0
 10
2.848425278054644
 20
4.021458256351075
 10
2.839851267741677
 20
4.02175838081708
 10
2.833156445846574
 20
4.029919868519818
 10
2.833504317386718
 20
4.039694228166265
 10
2.83383854690568
 20
4.049468736343227
 10
2.841082460153378
 20
4.05714578376348
 10
2.849673522992816
 20
4.056845659297462
 10
2.858250943811072
 20
4.056548945336759
 10
2.864928713179703
 20
4.048387606164561
 10
2.864580841639559
 20
4.038613097987573
 10
2.864246612120597
 20
4.028838589810587
 10
2.857019751399371
 20
4.02116154239036
 10
2.848425278054644
 20
4.021458256351075
 97
        0
 97
        0
 75
     2
 76
     1
 98
        0
  0
SPLINE
  5
D7
330
1F
100
AcDbEntity
  8
Layer 1
 62
     7
420
 16777215
370
    18
100
AcDbSpline
210
0.0
220
0.0
230
1.0
 70
    11
 71
     3
 72
    17
 73
    13
 74
     0
 42
0.0000000001
 43
0.0000000001
 12
1.0
 22
0.0
 32
0.0
 13
1.0
 23
0.0
 33
0.0
 40
0.0
 40
0.0
 40
0.0
 40
0.0
 40
1.0
 40
1.0
 40
1.0
 40
2.0
 40
2.0
 40
2.0
 40
3.0
 40
3.0
 40
3.0
 40
4.0
 40
4.0
 40
4.0
 40
4.0
 10
2.841065407626906
 20
4.022010758208946
 30
0.0
 10
2.832470934282153
 20
4.022310882674939
 30
0.0
 10
2.82579332927364
 20
4.03048586386832
 30
0.0
 10
2.826144446958955
 20
4.040243319518835
 30
0.0
 10
2.826478676477917
 20
4.050021238201111
 30
0.0
 10
2.833722589725615
 20
4.057694875116074
 30
0.0
 10
2.842296600038581
 20
4.057398161155346
 30
0.0
 10
2.850891073383309
 20
4.057098036689341
 30
0.0
 10
2.857568842751966
 20
4.04893669751713
 30
0.0
 10
2.857217560706532
 20
4.039162338104195
 30
0.0
 10
2.856886741692859
 20
4.029387681163181
 30
0.0
 10
2.849642828445162
 20
4.021710633742929
 30
0.0
 10
2.841065407626906
 20
4.022010758208946
 30
0.0
  0
HATCH
  5
D8
330
1F
100
AcDbEntity
  8
Layer 1
 62
   254
420
 13358815
100
AcDbHatch
 10
0.0
 20
0.0
 30
0.0
210
0.0
220
0.0
230
1.0
  2
SOLID
 70
     1
 71
     0
 91
        1
 92
        1
 93
        1
 72
     4
 94
        3
 73
     0
 74
     1
 95
       17
 96
       13
 40
0.0
 40
0.0
 40
0.0
 40
0.0
 40
1.0
 40
1.0
 40
1.0
 40
2.0
 40
2.0
 40
2.0
 40
3.0
 40
3.0
 40
3.0
 40
4.0
 40
4.0
 40
4.0
 40
4.0
 10
2.841065407626906
 20
4.022010758208946
 10
2.832470934282153
 20
4.022310882674939
 10
2.82579332927364
 20
4.03048586386832
 10
2.826144446958955
 20
4.040243319518835
 10
2.826478676477917
 20
4.050021238201111
 10
2.833722589725615
 20
4.057694875116074
 10
2.842296600038581
 20
4.057398161155346
 10
2.850891073383309
 20
4.057098036689341
 10
2.857568842751966
 20
4.04893669751713
 10
2.857217560706532
 20
4.039162338104195
 10
2.856886741692859
 20
4.029387681163181
 10
2.849642828445162
 20
4.021710633742929
 10
2.841065407626906
 20
4.022010758208946
 97
        0
 97
        0
 75
     2
 76
     1
 98
        0
  0
SPLINE
  5
D9
330
1F
100
AcDbEntity
  8
Layer 1
 62
     7
420
 16777215
370
    35
100
AcDbSpline
210
0.0
220
0.0
230
1.0
 70
    11
 71
     3
 72
    17
 73
    13
 74
     0
 42
0.0000000001
 43
0.0000000001
 12
1.0
 22
0.0
 32
0.0
 13
1.0
 23
0.0
 33
0.0
 40
0.0
 40
0.0
 40
0.0
 40
0.0
 40
1.0
 40
1.0
 40
1.0
 40
2.0
 40
2.0
 40
2.0
 40
3.0
 40
3.0
 40
3.0
 40
4.0
 40
4.0
 40
4.0
 40
4.0
 10
2.786978204145094
 20
4.129404310503597
 30
0.0
 10
2.778400783326838
 20
4.129704283925864
 30
0.0
 10
2.771723013958207
 20
4.137862363850155
 30
0.0
 10
2.772057243477168
 20
4.147640131275062
 30
0.0
 10
2.772405115017313
 20
4.157414639452036
 30
0.0
 10
2.779631975738539
 20
4.165091686872263
 30
0.0
 10
2.788226449083266
 20
4.164791562406245
 30
0.0
 10
2.796800459396233
 20
4.164491437940253
 30
0.0
 10
2.803478228764864
 20
4.156330098768055
 30
0.0
 10
2.803147573539213
 20
4.146555590591068
 30
0.0
 10
2.802796127705758
 20
4.136781082414081
 30
0.0
 10
2.795569266984532
 20
4.129104034993841
 30
0.0
 10
2.786978204145094
 20
4.129404310503597
 30
0.0
  0
HATCH
  5
DA
330
1F
100
AcDbEntity
  8
Layer 1
 62
     7
420
 16777215
100
AcDbHatch
 10
0.0
 20
0.0
 30
0.0
210
0.0
220
0.0
230
1.0
  2
SOLID
 70
     1
 71
     0
 91
        1
 92
        1
 93
        1
 72
     4
 94
        3
 73
     0
 74
     1
 95
       17
 96
       13
 40
0.0
 40
0.0
 40
0.0
 40
0.0
 40
1.0
 40
1.0
 40
1.0
 40
2.0
 40
2.0
 40
2.0
 40
3.0
 40
3.0
 40
3.0
 40
4.0
 40
4.0
 40
4.0
 40
4.0
 10
2.786978204145094
 20
4.129404310503597
 10
2.778400783326838
 20
4.129704283925864
 10
2.771723013958207
 20
4.137862363850155
 10
2.772057243477168
 20
4.147640131275062
 10
2.772405115017313
 20
4.157414639452036
 10
2.779631975738539
 20
4.165091686872263
 10
2.788226449083266
 20
4.164791562406245
 10
2.796800459396233
 20
4.164491437940253
 10
2.803478228764864
 20
4.156330098768055
 10
2.803147573539213
 20
4.146555590591068
 10
2.802796127705758
 20
4.136781082414081
 10
2.795569266984532
 20
4.129104034993841
 10
2.786978204145094
 20
4.129404310503597
 97
        0
 97
        0
 75
     2
 76
     1
 98
        0
  0
SPLINE
  5
DB
330
1F
100
AcDbEntity
  8
Layer 1
 62
     7
420
 16777215
370
    18
100
AcDbSpline
210
0.0
220
0.0
230
1.0
 70
    11
 71
     3
 72
    17
 73
    13
 74
     0
 42
0.0000000001
 43
0.0000000001
 12
1.0
 22
0.0
 32
0.0
 13
1.0
 23
0.0
 33
0.0
 40
0.0
 40
0.0
 40
0.0
 40
0.0
 40
1.0
 40
1.0
 40
1.0
 40
2.0
 40
2.0
 40
2.0
 40
3.0
 40
3.0
 40
3.0
 40
4.0
 40
4.0
 40
4.0
 40
4.0
 10
2.779615086405606
 20
4.129953250812441
 30
0.0
 10
2.771040912899126
 20
4.130253375278433
 30
0.0
 10
2.764363143530444
 20
4.138411303945341
 30
0.0
 10
2.764693962544116
 20
4.14818922262763
 30
0.0
 10
2.76504524458955
 20
4.157963730804605
 30
0.0
 10
2.772272105310776
 20
4.165640778224833
 30
0.0
 10
2.780849526129032
 20
4.165340653758853
 30
0.0
 10
2.78944058896847
 20
4.165040529292822
 30
0.0
 10
2.796118358337127
 20
4.156865548099441
 30
0.0
 10
2.795787539323454
 20
4.147104833434557
 30
0.0
 10
2.795436257278046
 20
4.13733017376665
 30
0.0
 10
2.788209559967476
 20
4.12965312634641
 30
0.0
 10
2.779615086405606
 20
4.129953250812441
 30
0.0
  0
HATCH
  5
DC
330
1F
100
AcDbEntity
  8
Layer 1
 62
   254
420
 13358815
100
AcDbHatch
 10
0.0
 20
0.0
 30
0.0
210
0.0
220
0.0
230
1.0
  2
SOLID
 70
     1
 71
     0
 91
        1
 92
        1
 93
        1
 72
     4
 94
        3
 73
     0
 74
     1
 95
       17
 96
       13
 40
0.0
 40
0.0
 40
0.0
 40
0.0
 40
1.0
 40
1.0
 40
1.0
 40
2.0
 40
2.0
 40
2.0
 40
3.0
 40
3.0
 40
3.0
 40
4.0
 40
4.0
 40
4.0
 40
4.0
 10
2.779615086405606
 20
4.129953250812441
 10
2.771040912899126
 20
4.130253375278433
 10
2.764363143530444
 20
4.138411303945341
 10
2.764693962544116
 20
4.14818922262763
 10
2.76504524458955
 20
4.157963730804605
 10
2.772272105310776
 20
4.165640778224833
 10
2.780849526129032
 20
4.165340653758853
 10
2.78944058896847
 20
4.165040529292822
 10
2.796118358337127
 20
4.156865548099441
 10
2.795787539323454
 20
4.147104833434557
 10
2.795436257278046
 20
4.13733017376665
 10
2.788209559967476
 20
4.12965312634641
 10
2.779615086405606
 20
4.129953250812441
 97
        0
 97
        0
 75
     2
 76
     1
 98
        0
  0
SPLINE
  5
DD
330
1F
100
AcDbEntity
  8
Layer 1
 62
     7
420
 16777215
370
    35
100
AcDbSpline
210
0.0
220
0.0
230
1.0
 70
    11
 71
     3
 72
    17
 73
    13
 74
     0
 42
0.0000000001
 43
0.0000000001
 12
1.0
 22
0.0
 32
0.0
 13
1.0
 23
0.0
 33
0.0
 40
0.0
 40
0.0
 40
0.0
 40
0.0
 40
1.0
 40
1.0
 40
1.0
 40
2.0
 40
2.0
 40
2.0
 40
3.0
 40
3.0
 40
3.0
 40
4.0
 40
4.0
 40
4.0
 40
4.0
 10
2.793553658354893
 20
3.34618502884694
 30
0.0
 10
2.784962595515481
 20
3.346485153312933
 30
0.0
 10
2.778284989306762
 20
3.354646492485131
 30
0.0
 10
2.778615645160471
 20
3.364421000662105
 30
0.0
 10
2.778967090383074
 20
3.374178456312633
 30
0.0
 10
2.786193787927131
 20
3.381872556259332
 30
0.0
 10
2.794788261271883
 20
3.381572431793327
 30
0.0
 10
2.803362271584824
 20
3.381275849977075
 30
0.0
 10
2.810040040953481
 20
3.373097326133941
 30
0.0
 10
2.809709221939809
 20
3.363339870483426
 30
0.0
 10
2.8093579398944
 20
3.353565362306464
 30
0.0
 10
2.802131079173149
 20
3.345888314886211
 30
0.0
 10
2.793553658354893
 20
3.34618502884694
 30
0.0
  0
HATCH
  5
DE
330
1F
100
AcDbEntity
  8
Layer 1
 62
     7
420
 16777215
100
AcDbHatch
 10
0.0
 20
0.0
 30
0.0
210
0.0
220
0.0
230
1.0
  2
SOLID
 70
     1
 71
     0
 91
        1
 92
        1
 93
        1
 72
     4
 94
        3
 73
     0
 74
     1
 95
       17
 96
       13
 40
0.0
 40
0.0
 40
0.0
 40
0.0
 40
1.0
 40
1.0
 40
1.0
 40
2.0
 40
2.0
 40
2.0
 40
3.0
 40
3.0
 40
3.0
 40
4.0
 40
4.0
 40
4.0
 40
4.0
 10
2.793553658354893
 20
3.34618502884694
 10
2.784962595515481
 20
3.346485153312933
 10
2.778284989306762
 20
3.354646492485131
 10
2.778615645160471
 20
3.364421000662105
 10
2.778967090383074
 20
3.374178456312633
 10
2.786193787927131
 20
3.381872556259332
 10
2.794788261271883
 20
3.381572431793327
 10
2.803362271584824
 20
3.381275849977075
 10
2.810040040953481
 20
3.373097326133941
 10
2.809709221939809
 20
3.363339870483426
 10
2.8093579398944
 20
3.353565362306464
 10
2.802131079173149
 20
3.345888314886211
 10
2.793553658354893
 20
3.34618502884694
 97
        0
 97
        0
 75
     2
 76
     1
 98
        0
  0
SPLINE
  5
DF
330
1F
100
AcDbEntity
  8
Layer 1
 62
     7
420
 16777215
370
    18
100
AcDbSpline
210
0.0
220
0.0
230
1.0
 70
    11
 71
     3
 72
    17
 73
    13
 74
     0
 42
0.0000000001
 43
0.0000000001
 12
1.0
 22
0.0
 32
0.0
 13
1.0
 23
0.0
 33
0.0
 40
0.0
 40
0.0
 40
0.0
 40
0.0
 40
1.0
 40
1.0
 40
1.0
 40
2.0
 40
2.0
 40
2.0
 40
3.0
 40
3.0
 40
3.0
 40
4.0
 40
4.0
 40
4.0
 40
4.0
 10
2.786176735400659
 20
3.346737530704811
 30
0.0
 10
2.777602888230402
 20
3.34703437594491
 30
0.0
 10
2.770924955719036
 20
3.355195583837725
 30
0.0
 10
2.771255774732708
 20
3.364970092014712
 30
0.0
 10
2.771607056778142
 20
3.374744600191686
 30
0.0
 10
2.778833917499368
 20
3.382421647611927
 30
0.0
 10
2.787411338317623
 20
3.382124933651198
 30
0.0
 10
2.796002401157061
 20
3.381824809185205
 30
0.0
 10
2.802680170525718
 20
3.373646417486535
 30
0.0
 10
2.802345941006756
 20
3.363888961836007
 30
0.0
 10
2.801998069466612
 20
3.354114453659033
 30
0.0
 10
2.794771208745386
 20
3.346437406238806
 30
0.0
 10
2.786176735400659
 20
3.346737530704811
 30
0.0
  0
HATCH
  5
E0
330
1F
100
AcDbEntity
  8
Layer 1
 62
   254
420
 13358815
100
AcDbHatch
 10
0.0
 20
0.0
 30
0.0
210
0.0
220
0.0
230
1.0
  2
SOLID
 70
     1
 71
     0
 91
        1
 92
        1
 93
        1
 72
     4
 94
        3
 73
     0
 74
     1
 95
       17
 96
       13
 40
0.0
 40
0.0
 40
0.0
 40
0.0
 40
1.0
 40
1.0
 40
1.0
 40
2.0
 40
2.0
 40
2.0
 40
3.0
 40
3.0
 40
3.0
 40
4.0
 40
4.0
 40
4.0
 40
4.0
 10
2.786176735400659
 20
3.346737530704811
 10
2.777602888230402
 20
3.34703437594491
 10
2.770924955719036
 20
3.355195583837725
 10
2.771255774732708
 20
3.364970092014712
 10
2.771607056778142
 20
3.374744600191686
 10
2.778833917499368
 20
3.382421647611927
 10
2.787411338317623
 20
3.382124933651198
 10
2.796002401157061
 20
3.381824809185205
 10
2.802680170525718
 20
3.373646417486535
 10
2.802345941006756
 20
3.363888961836007
 10
2.801998069466612
 20
3.354114453659033
 10
2.794771208745386
 20
3.346437406238806
 10
2.786176735400659
 20
3.346737530704811
 97
        0
 97
        0
 75
     2
 76
     1
 98
        0
  0
SPLINE
  5
E1
330
1F
100
AcDbEntity
  8
Layer 1
 62
     7
420
 16777215
370
    18
100
AcDbSpline
210
0.0
220
0.0
230
1.0
 70
    11
 71
     3
 72
    38
 73
    34
 74
     0
 42
0.0000000001
 43
0.0000000001
 12
1.0
 22
0.0
 32
0.0
 13
1.0
 23
0.0
 33
0.0
 40
0.0
 40
0.0
 40
0.0
 40
0.0
 40
1.0
 40
1.0
 40
1.0
 40
2.0
 40
2.0
 40
2.0
 40
3.0
 40
3.0
 40
3.0
 40
4.0
 40
4.0
 40
4.0
 40
5.0
 40
5.0
 40
5.0
 40
6.0
 40
6.0
 40
6.0
 40
7.0
 40
7.0
 40
7.0
 40
8.0
 40
8.0
 40
8.0
 40
9.0
 40
9.0
 40
9.0
 40
10.0
 40
10.0
 40
10.0
 40
11.0
 40
11.0
 40
11.0
 40
11.0
 10
2.621214004761214
 20
3.608203919186508
 30
0.0
 10
2.621214004761214
 20
3.608203919186508
 30
0.0
 10
2.587276066565412
 20
3.625604455520981
 30
0.0
 10
2.587276066565412
 20
3.625604455520981
 30
0.0
 10
2.586975942099393
 20
3.625754379437328
 30
0.0
 10
2.586692870159873
 20
3.625921494196809
 30
0.0
 10
2.586375851479286
 20
3.626071556429793
 30
0.0
 10
2.586375851479286
 20
3.626071556429793
 30
0.0
 10
2.585045754380442
 20
3.626753657488898
 30
0.0
 10
2.585045754380442
 20
3.626753657488898
 30
0.0
 10
2.585045754380442
 20
3.626753657488898
 30
0.0
 10
2.584977544272786
 20
3.626569490202946
 30
0.0
 10
2.584977544272786
 20
3.626569490202946
 30
0.0
 10
2.583643878425669
 20
3.627002762727493
 30
0.0
 10
2.582262623780985
 20
3.627319801367978
 30
0.0
 10
2.58079610650389
 20
3.627370958947406
 30
0.0
 10
2.57238921095043
 20
3.627671083413399
 30
0.0
 10
2.565343107009855
 20
3.621041061118894
 30
0.0
 10
2.56504298254385
 20
3.612565955459533
 30
0.0
 10
2.564759910604329
 20
3.604455773866738
 30
0.0
 10
2.570806736493296
 20
3.597662047318042
 30
0.0
 10
2.578715698273628
 20
3.596846936552437
 30
0.0
 10
2.578715698273628
 20
3.596846936552437
 30
0.0
 10
2.604478655276049
 20
3.583607354995176
 30
0.0
 10
2.604478655276049
 20
3.583607354995176
 30
0.0
 10
2.60714225991185
 20
3.580674320441012
 30
0.0
 10
2.610924510284601
 20
3.57877821663044
 30
0.0
 10
2.615170589377537
 20
3.578628017263693
 30
0.0
 10
2.623577484931022
 20
3.578327892797688
 30
0.0
 10
2.630640641398057
 20
3.584954504586916
 30
0.0
 10
2.630923713337577
 20
3.593433020751617
 30
0.0
 10
2.631172680224154
 20
3.600124432141418
 30
0.0
 10
2.627076663364227
 20
3.605905238617336
 30
0.0
 10
2.621214004761214
 20
3.608203919186508
 30
0.0
  0
SPLINE
  5
E2
330
1F
100
AcDbEntity
  8
Layer 1
 62
     7
420
 16777215
370
    18
100
AcDbSpline
210
0.0
220
0.0
230
1.0
 70
    11
 71
     3
 72
    38
 73
    34
 74
     0
 42
0.0000000001
 43
0.0000000001
 12
1.0
 22
0.0
 32
0.0
 13
1.0
 23
0.0
 33
0.0
 40
0.0
 40
0.0
 40
0.0
 40
0.0
 40
1.0
 40
1.0
 40
1.0
 40
2.0
 40
2.0
 40
2.0
 40
3.0
 40
3.0
 40
3.0
 40
4.0
 40
4.0
 40
4.0
 40
5.0
 40
5.0
 40
5.0
 40
6.0
 40
6.0
 40
6.0
 40
7.0
 40
7.0
 40
7.0
 40
8.0
 40
8.0
 40
8.0
 40
9.0
 40
9.0
 40
9.0
 40
10.0
 40
10.0
 40
10.0
 40
11.0
 40
11.0
 40
11.0
 40
11.0
 10
2.567692945158468
 20
3.620607926946364
 30
0.0
 10
2.569872258042324
 20
3.615795703974388
 30
0.0
 10
2.574435514127749
 20
3.612282883519975
 30
0.0
 10
2.579946890685303
 20
3.611716739640933
 30
0.0
 10
2.579946890685303
 20
3.611716739640933
 30
0.0
 10
2.605726900214222
 20
3.598477158083685
 30
0.0
 10
2.605726900214222
 20
3.598477158083685
 30
0.0
 10
2.60837361119118
 20
3.59554753403481
 30
0.0
 10
2.612155702696277
 20
3.593648020094595
 30
0.0
 10
2.616418834315709
 20
3.593497820352202
 30
0.0
 10
2.621797201166752
 20
3.593300011045067
 30
0.0
 10
2.626592371612244
 20
3.59596361568088
 30
0.0
 10
2.629457196060507
 20
3.600124432141418
 30
0.0
 10
2.627826974529246
 20
3.603756620281173
 30
0.0
 10
2.624962150080996
 20
3.606737401909438
 30
0.0
 10
2.621214004761214
 20
3.608203919186508
 30
0.0
 10
2.621214004761214
 20
3.608203919186508
 30
0.0
 10
2.587276066565412
 20
3.625604455520981
 30
0.0
 10
2.587276066565412
 20
3.625604455520981
 30
0.0
 10
2.586975942099393
 20
3.625754379437328
 30
0.0
 10
2.586692870159873
 20
3.625921494196809
 30
0.0
 10
2.586375851479286
 20
3.626071556429793
 30
0.0
 10
2.586375851479286
 20
3.626071556429793
 30
0.0
 10
2.585045754380442
 20
3.626753657488898
 30
0.0
 10
2.585045754380442
 20
3.626753657488898
 30
0.0
 10
2.585045754380442
 20
3.626753657488898
 30
0.0
 10
2.584977544272786
 20
3.626569490202946
 30
0.0
 10
2.584977544272786
 20
3.626569490202946
 30
0.0
 10
2.583643878425669
 20
3.627002762727493
 30
0.0
 10
2.582262623780985
 20
3.627319801367978
 30
0.0
 10
2.58079610650389
 20
3.627370958947406
 30
0.0
 10
2.575369992578721
 20
3.627568768254541
 30
0.0
 10
2.570523664553775
 20
3.624840364018104
 30
0.0
 10
2.567692945158468
 20
3.620607926946364
 30
0.0
  0
HATCH
  5
E3
330
1F
100
AcDbEntity
  8
Layer 1
 62
    43
420
 15510365
100
AcDbHatch
 10
0.0
 20
0.0
 30
0.0
210
0.0
220
0.0
230
1.0
  2
SOLID
 70
     1
 71
     0
 91
        1
 92
        1
 93
        1
 72
     4
 94
        3
 73
     0
 74
     1
 95
       38
 96
       34
 40
0.0
 40
0.0
 40
0.0
 40
0.0
 40
1.0
 40
1.0
 40
1.0
 40
2.0
 40
2.0
 40
2.0
 40
3.0
 40
3.0
 40
3.0
 40
4.0
 40
4.0
 40
4.0
 40
5.0
 40
5.0
 40
5.0
 40
6.0
 40
6.0
 40
6.0
 40
7.0
 40
7.0
 40
7.0
 40
8.0
 40
8.0
 40
8.0
 40
9.0
 40
9.0
 40
9.0
 40
10.0
 40
10.0
 40
10.0
 40
11.0
 40
11.0
 40
11.0
 40
11.0
 10
2.567692945158468
 20
3.620607926946364
 10
2.569872258042324
 20
3.615795703974388
 10
2.574435514127749
 20
3.612282883519975
 10
2.579946890685303
 20
3.611716739640933
 10
2.579946890685303
 20
3.611716739640933
 10
2.605726900214222
 20
3.598477158083685
 10
2.605726900214222
 20
3.598477158083685
 10
2.60837361119118
 20
3.59554753403481
 10
2.612155702696277
 20
3.593648020094595
 10
2.616418834315709
 20
3.593497820352202
 10
2.621797201166752
 20
3.593300011045067
 10
2.626592371612244
 20
3.59596361568088
 10
2.629457196060507
 20
3.600124432141418
 10
2.627826974529246
 20
3.603756620281173
 10
2.624962150080996
 20
3.606737401909438
 10
2.621214004761214
 20
3.608203919186508
 10
2.621214004761214
 20
3.608203919186508
 10
2.587276066565412
 20
3.625604455520981
 10
2.587276066565412
 20
3.625604455520981
 10
2.586975942099393
 20
3.625754379437328
 10
2.586692870159873
 20
3.625921494196809
 10
2.586375851479286
 20
3.626071556429793
 10
2.586375851479286
 20
3.626071556429793
 10
2.585045754380442
 20
3.626753657488898
 10
2.585045754380442
 20
3.626753657488898
 10
2.585045754380442
 20
3.626753657488898
 10
2.584977544272786
 20
3.626569490202946
 10
2.584977544272786
 20
3.626569490202946
 10
2.583643878425669
 20
3.627002762727493
 10
2.582262623780985
 20
3.627319801367978
 10
2.58079610650389
 20
3.627370958947406
 10
2.575369992578721
 20
3.627568768254541
 10
2.570523664553775
 20
3.624840364018104
 10
2.567692945158468
 20
3.620607926946364
 97
        0
 97
        0
 75
     2
 76
     1
 98
        0
  0
SPLINE
  5
E4
330
1F
100
AcDbEntity
  8
Layer 1
 62
     7
420
 16777215
370
    18
100
AcDbSpline
210
0.0
220
0.0
230
1.0
 70
    11
 71
     3
 72
    38
 73
    34
 74
     0
 42
0.0000000001
 43
0.0000000001
 12
1.0
 22
0.0
 32
0.0
 13
1.0
 23
0.0
 33
0.0
 40
0.0
 40
0.0
 40
0.0
 40
0.0
 40
1.0
 40
1.0
 40
1.0
 40
2.0
 40
2.0
 40
2.0
 40
3.0
 40
3.0
 40
3.0
 40
4.0
 40
4.0
 40
4.0
 40
5.0
 40
5.0
 40
5.0
 40
6.0
 40
6.0
 40
6.0
 40
7.0
 40
7.0
 40
7.0
 40
8.0
 40
8.0
 40
8.0
 40
9.0
 40
9.0
 40
9.0
 40
10.0
 40
10.0
 40
10.0
 40
11.0
 40
11.0
 40
11.0
 40
11.0
 10
2.751890925664712
 20
3.60355540046871
 30
0.0
 10
2.751890925664712
 20
3.60355540046871
 30
0.0
 10
2.78694409909215
 20
3.618544709380949
 30
0.0
 10
2.78694409909215
 20
3.618544709380949
 30
0.0
 10
2.78726127608464
 20
3.618677580949086
 30
0.0
 10
2.787557990045343
 20
3.618827643182094
 30
0.0
 10
2.787875167037833
 20
3.618943600362172
 30
0.0
 10
2.787875167037833
 20
3.618943600362172
 30
0.0
 10
2.789259832187831
 20
3.61952679676766
 30
0.0
 10
2.789259832187831
 20
3.61952679676766
 30
0.0
 10
2.789259832187831
 20
3.61952679676766
 30
0.0
 10
2.789324631788455
 20
3.61934262948172
 30
0.0
 10
2.789324631788455
 20
3.61934262948172
 30
0.0
 10
2.79067519188546
 20
3.619676859000681
 30
0.0
 10
2.792073499056616
 20
3.619908911533571
 30
0.0
 10
2.793536605828396
 20
3.619861026286634
 30
0.0
 10
2.801946911887171
 20
3.619577954347114
 30
0.0
 10
2.80852577660226
 20
3.612467050805928
 30
0.0
 10
2.808225652136242
 20
3.603988534641265
 30
0.0
 10
2.807942580196721
 20
3.595878353048483
 30
0.0
 10
2.801431925587546
 20
3.589517760672316
 30
0.0
 10
2.79348885875427
 20
3.589251741259267
 30
0.0
 10
2.79348885875427
 20
3.589251741259267
 30
0.0
 10
2.766859796278115
 20
3.577860653572214
 30
0.0
 10
2.766859796278115
 20
3.577860653572214
 30
0.0
 10
2.763994971757484
 20
3.575111786304016
 30
0.0
 10
2.760100011911037
 20
3.573481564772755
 30
0.0
 10
2.755836880291629
 20
3.573631627005764
 30
0.0
 10
2.747426574232855
 20
3.573914698945297
 30
0.0
 10
2.740864762044263
 20
3.581025602486445
 30
0.0
 10
2.741147833983784
 20
3.589500708145844
 30
0.0
 10
2.741379748343888
 20
3.596195530040973
 30
0.0
 10
2.745878204828689
 20
3.601676212050898
 30
0.0
 10
2.751890925664712
 20
3.60355540046871
 30
0.0
  0
SPLINE
  5
E5
330
1F
100
AcDbEntity
  8
Layer 1
 62
     7
420
 16777215
370
    18
100
AcDbSpline
210
0.0
220
0.0
230
1.0
 70
    11
 71
     3
 72
    38
 73
    34
 74
     0
 42
0.0000000001
 43
0.0000000001
 12
1.0
 22
0.0
 32
0.0
 13
1.0
 23
0.0
 33
0.0
 40
0.0
 40
0.0
 40
0.0
 40
0.0
 40
1.0
 40
1.0
 40
1.0
 40
2.0
 40
2.0
 40
2.0
 40
3.0
 40
3.0
 40
3.0
 40
4.0
 40
4.0
 40
4.0
 40
5.0
 40
5.0
 40
5.0
 40
6.0
 40
6.0
 40
6.0
 40
7.0
 40
7.0
 40
7.0
 40
8.0
 40
8.0
 40
8.0
 40
9.0
 40
9.0
 40
9.0
 40
10.0
 40
10.0
 40
10.0
 40
11.0
 40
11.0
 40
11.0
 40
11.0
 10
2.80614524390598
 20
3.612197620887577
 30
0.0
 10
2.803628290997873
 20
3.607552512675094
 30
0.0
 10
2.798833120552369
 20
3.604357006993079
 30
0.0
 10
2.79328763894182
 20
3.604172701927218
 30
0.0
 10
2.79328763894182
 20
3.604172701927218
 30
0.0
 10
2.766661824099629
 20
3.592781614240153
 30
0.0
 10
2.766661824099629
 20
3.592781614240153
 30
0.0
 10
2.763796999651403
 20
3.590032884390022
 30
0.0
 10
2.759898792098612
 20
3.58840252544068
 30
0.0
 10
2.755635660479179
 20
3.588552587673689
 30
0.0
 10
2.750257293628136
 20
3.588736892344956
 30
0.0
 10
2.745659932489767
 20
3.59173458911443
 30
0.0
 10
2.743095232507534
 20
3.596079572860933
 30
0.0
 10
2.744977831430661
 20
3.599592393315321
 30
0.0
 10
2.748043875691337
 20
3.602358313109966
 30
0.0
 10
2.751890925664712
 20
3.60355540046871
 30
0.0
 10
2.751890925664712
 20
3.60355540046871
 30
0.0
 10
2.78694409909215
 20
3.618544709380949
 30
0.0
 10
2.78694409909215
 20
3.618544709380949
 30
0.0
 10
2.78726127608464
 20
3.618677580949086
 30
0.0
 10
2.787557990045343
 20
3.618827643182094
 30
0.0
 10
2.787875167037833
 20
3.618943600362172
 30
0.0
 10
2.787875167037833
 20
3.618943600362172
 30
0.0
 10
2.789259832187831
 20
3.61952679676766
 30
0.0
 10
2.789259832187831
 20
3.61952679676766
 30
0.0
 10
2.789259832187831
 20
3.61952679676766
 30
0.0
 10
2.789324631788455
 20
3.61934262948172
 30
0.0
 10
2.789324631788455
 20
3.61934262948172
 30
0.0
 10
2.79067519188546
 20
3.619676859000681
 30
0.0
 10
2.792073499056616
 20
3.619908911533571
 30
0.0
 10
2.793536605828396
 20
3.619861026286634
 30
0.0
 10
2.79896613025888
 20
3.619676859000681
 30
0.0
 10
2.803614648976691
 20
3.616610814740006
 30
0.0
 10
2.80614524390598
 20
3.612197620887577
 30
0.0
  0
HATCH
  5
E6
330
1F
100
AcDbEntity
  8
Layer 1
 62
    43
420
 15510365
100
AcDbHatch
 10
0.0
 20
0.0
 30
0.0
210
0.0
220
0.0
230
1.0
  2
SOLID
 70
     1
 71
     0
 91
        1
 92
        1
 93
        1
 72
     4
 94
        3
 73
     0
 74
     1
 95
       38
 96
       34
 40
0.0
 40
0.0
 40
0.0
 40
0.0
 40
1.0
 40
1.0
 40
1.0
 40
2.0
 40
2.0
 40
2.0
 40
3.0
 40
3.0
 40
3.0
 40
4.0
 40
4.0
 40
4.0
 40
5.0
 40
5.0
 40
5.0
 40
6.0
 40
6.0
 40
6.0
 40
7.0
 40
7.0
 40
7.0
 40
8.0
 40
8.0
 40
8.0
 40
9.0
 40
9.0
 40
9.0
 40
10.0
 40
10.0
 40
10.0
 40
11.0
 40
11.0
 40
11.0
 40
11.0
 10
2.80614524390598
 20
3.612197620887577
 10
2.803628290997873
 20
3.607552512675094
 10
2.798833120552369
 20
3.604357006993079
 10
2.79328763894182
 20
3.604172701927218
 10
2.79328763894182
 20
3.604172701927218
 10
2.766661824099629
 20
3.592781614240153
 10
2.766661824099629
 20
3.592781614240153
 10
2.763796999651403
 20
3.590032884390022
 10
2.759898792098612
 20
3.58840252544068
 10
2.755635660479179
 20
3.588552587673689
 10
2.750257293628136
 20
3.588736892344956
 10
2.745659932489767
 20
3.59173458911443
 10
2.743095232507534
 20
3.596079572860933
 10
2.744977831430661
 20
3.599592393315321
 10
2.748043875691337
 20
3.602358313109966
 10
2.751890925664712
 20
3.60355540046871
 10
2.751890925664712
 20
3.60355540046871
 10
2.78694409909215
 20
3.618544709380949
 10
2.78694409909215
 20
3.618544709380949
 10
2.78726127608464
 20
3.618677580949086
 10
2.787557990045343
 20
3.618827643182094
 10
2.787875167037833
 20
3.618943600362172
 10
2.787875167037833
 20
3.618943600362172
 10
2.789259832187831
 20
3.61952679676766
 10
2.789259832187831
 20
3.61952679676766
 10
2.789259832187831
 20
3.61952679676766
 10
2.789324631788455
 20
3.61934262948172
 10
2.789324631788455
 20
3.61934262948172
 10
2.79067519188546
 20
3.619676859000681
 10
2.792073499056616
 20
3.619908911533571
 10
2.793536605828396
 20
3.619861026286634
 10
2.79896613025888
 20
3.619676859000681
 10
2.803614648976691
 20
3.616610814740006
 10
2.80614524390598
 20
3.612197620887577
 97
        0
 97
        0
 75
     2
 76
     1
 98
        0
  0
POLYLINE
  5
E7
330
1F
100
AcDbEntity
  8
Layer 1
 62
     7
420
 16777215
370
    25
100
AcDb2dPolyline
 66
     1
 10
0.0
 20
0.0
 30
0.0
  0
VERTEX
  5
E8
330
E7
100
AcDbEntity
  8
Layer 1
 62
     7
420
 16777215
370
    25
100
AcDbVertex
100
AcDb2dVertex
 10
2.616320088730516
 20
3.797094754979387
 30
0.0
  0
VERTEX
  5
E9
330
E7
100
AcDbEntity
  8
Layer 1
 62
     7
420
 16777215
370
    25
100
AcDbVertex
100
AcDb2dVertex
 10
2.616950873141807
 20
3.904539313809753
 30
0.0
  0
VERTEX
  5
EA
330
E7
100
AcDbEntity
  8
Layer 1
 62
     7
420
 16777215
370
    25
100
AcDbVertex
100
AcDb2dVertex
 10
2.600382638416123
 20
3.938511357058498
 30
0.0
  0
VERTEX
  5
EB
330
E7
100
AcDbEntity
  8
Layer 1
 62
     7
420
 16777215
370
    25
100
AcDbVertex
100
AcDb2dVertex
 10
2.579466009438647
 20
3.90690620448485
 30
0.0
  0
VERTEX
  5
EC
330
E7
100
AcDbEntity
  8
Layer 1
 62
     7
420
 16777215
370
    25
100
AcDbVertex
100
AcDb2dVertex
 10
2.578449678860579
 20
3.805440404297302
 30
0.0
  0
SEQEND
  5
ED
330
E7
100
AcDbEntity
  8
Layer 1
 62
     7
420
 16777215
370
    25
  0
POLYLINE
  5
EE
330
1F
100
AcDbEntity
  8
Layer 1
 62
     7
420
 16777215
370
    13
100
AcDb2dPolyline
 66
     1
 10
0.0
 20
0.0
 30
0.0
  0
VERTEX
  5
EF
330
EE
100
AcDbEntity
  8
Layer 1
 62
     7
420
 16777215
370
    13
100
AcDbVertex
100
AcDb2dVertex
 10
2.663729363775272
 20
4.140113297402106
 30
0.0
  0
VERTEX
  5
F0
330
EE
100
AcDbEntity
  8
Layer 1
 62
     7
420
 16777215
370
    13
100
AcDbVertex
100
AcDb2dVertex
 10
2.663511091436324
 20
3.573863541365843
 30
0.0
  0
SEQEND
  5
F1
330
EE
100
AcDbEntity
  8
Layer 1
 62
     7
420
 16777215
370
    13
  0
POLYLINE
  5
F2
330
1F
100
AcDbEntity
  8
Layer 1
 62
     7
420
 16777215
370
    13
100
AcDb2dPolyline
 66
     1
 10
0.0
 20
0.0
 30
0.0
  0
VERTEX
  5
F3
330
F2
100
AcDbEntity
  8
Layer 1
 62
     7
420
 16777215
370
    13
100
AcDbVertex
100
AcDb2dVertex
 10
2.680430608207492
 20
4.14932166193263
 30
0.0
  0
VERTEX
  5
F4
330
F2
100
AcDbEntity
  8
Layer 1
 62
     7
420
 16777215
370
    13
100
AcDbVertex
100
AcDb2dVertex
 10
2.680215746373859
 20
3.583058263642581
 30
0.0
  0
SEQEND
  5
F5
330
F2
100
AcDbEntity
  8
Layer 1
 62
     7
420
 16777215
370
    13
  0
POLYLINE
  5
F6
330
1F
100
AcDbEntity
  8
Layer 1
 62
     7
420
 16777215
370
    35
100
AcDb2dPolyline
 66
     1
 10
0.0
 20
0.0
 30
0.0
  0
VERTEX
  5
F7
330
F6
100
AcDbEntity
  8
Layer 1
 62
     7
420
 16777215
370
    35
100
AcDbVertex
100
AcDb2dVertex
 10
1.571252433974387
 20
4.765361249026506
 30
0.0
  0
VERTEX
  5
F8
330
F6
100
AcDbEntity
  8
Layer 1
 62
     7
420
 16777215
370
    35
100
AcDbVertex
100
AcDb2dVertex
 10
1.569935978930314
 20
4.279179910018292
 30
0.0
  0
VERTEX
  5
F9
330
F6
100
AcDbEntity
  8
Layer 1
 62
     7
420
 16777215
370
    35
100
AcDbVertex
100
AcDb2dVertex
 10
1.59822953086205
 20
4.222892930620889
 30
0.0
  0
VERTEX
  5
FA
330
F6
100
AcDbEntity
  8
Layer 1
 62
     7
420
 16777215
370
    35
100
AcDbVertex
100
AcDb2dVertex
 10
1.528621117780302
 20
4.141859324799118
 30
0.0
  0
VERTEX
  5
FB
330
F6
100
AcDbEntity
  8
Layer 1
 62
     7
420
 16777215
370
    35
100
AcDbVertex
100
AcDb2dVertex
 10
1.562374888690126
 20
4.092666196416391
 30
0.0
  0
VERTEX
  5
FC
330
F6
100
AcDbEntity
  8
Layer 1
 62
     7
420
 16777215
370
    35
100
AcDbVertex
100
AcDb2dVertex
 10
1.561443820744444
 20
3.528217338490486
 30
0.0
  0
VERTEX
  5
FD
330
F6
100
AcDbEntity
  8
Layer 1
 62
     7
420
 16777215
370
    35
100
AcDbVertex
100
AcDb2dVertex
 10
2.664145445421329
 20
3.134962204378944
 30
0.0
  0
SEQEND
  5
FE
330
F6
100
AcDbEntity
  8
Layer 1
 62
     7
420
 16777215
370
    35
  0
POLYLINE
  5
FF
330
1F
100
AcDbEntity
  8
Layer 1
 62
     7
420
 16777215
370
    35
100
AcDb2dPolyline
 66
     1
 10
0.0
 20
0.0
 30
0.0
  0
VERTEX
  5
100
330
FF
100
AcDbEntity
  8
Layer 1
 62
     7
420
 16777215
370
    35
100
AcDbVertex
100
AcDb2dVertex
 10
1.652702121442214
 20
2.765433955608374
 30
0.0
  0
VERTEX
  5
101
330
FF
100
AcDbEntity
  8
Layer 1
 62
     7
420
 16777215
370
    35
100
AcDbVertex
100
AcDb2dVertex
 10
3.501018645343517
 20
3.435444773441519
 30
0.0
  0
VERTEX
  5
102
330
FF
100
AcDbEntity
  8
Layer 1
 62
     7
420
 16777215
370
    35
100
AcDbVertex
100
AcDb2dVertex
 10
3.747662977810882
 20
3.32770350065045
 30
0.0
  0
SEQEND
  5
103
330
FF
100
AcDbEntity
  8
Layer 1
 62
     7
420
 16777215
370
    35
  0
POLYLINE
  5
104
330
1F
100
AcDbEntity
  8
Layer 1
 62
     7
420
 16777215
370
    20
100
AcDb2dPolyline
 66
     1
 10
0.0
 20
0.0
 30
0.0
  0
VERTEX
  5
105
330
104
100
AcDbEntity
  8
Layer 1
 62
     7
420
 16777215
370
    20
100
AcDbVertex
100
AcDb2dVertex
 10
2.909626795582906
 20
3.976845436580245
 30
0.0
  0
VERTEX
  5
106
330
104
100
AcDbEntity
  8
Layer 1
 62
     7
420
 16777215
370
    20
100
AcDbVertex
100
AcDb2dVertex
 10
2.929141706883936
 20
3.967821239568277
 30
0.0
  0
SEQEND
  5
107
330
104
100
AcDbEntity
  8
Layer 1
 62
     7
420
 16777215
370
    20
  0
POLYLINE
  5
108
330
1F
100
AcDbEntity
  8
Layer 1
 62
     7
420
 16777215
370
    20
100
AcDb2dPolyline
 66
     1
 10
0.0
 20
0.0
 30
0.0
  0
VERTEX
  5
109
330
108
100
AcDbEntity
  8
Layer 1
 62
     7
420
 16777215
370
    20
100
AcDbVertex
100
AcDb2dVertex
 10
2.836120174948367
 20
3.843774484787433
 30
0.0
  0
VERTEX
  5
10A
330
108
100
AcDbEntity
  8
Layer 1
 62
     7
420
 16777215
370
    20
100
AcDbVertex
100
AcDb2dVertex
 10
2.859632198455756
 20
3.840425224759088
 30
0.0
  0
SEQEND
  5
10B
330
108
100
AcDbEntity
  8
Layer 1
 62
     7
420
 16777215
370
    20
  0
POLYLINE
  5
10C
330
1F
100
AcDbEntity
  8
Layer 1
 62
     7
420
 16777215
370
    20
100
AcDb2dPolyline
 66
     1
 10
0.0
 20
0.0
 30
0.0
  0
VERTEX
  5
10D
330
10C
100
AcDbEntity
  8
Layer 1
 62
     7
420
 16777215
370
    20
100
AcDbVertex
100
AcDb2dVertex
 10
2.91163899370728
 20
4.124407769201891
 30
0.0
  0
VERTEX
  5
10E
330
10C
100
AcDbEntity
  8
Layer 1
 62
     7
420
 16777215
370
    20
100
AcDbVertex
100
AcDb2dVertex
 10
2.909592690529962
 20
3.975798411454523
 30
0.0
  0
VERTEX
  5
10F
330
10C
100
AcDbEntity
  8
Layer 1
 62
     7
420
 16777215
370
    20
100
AcDbVertex
100
AcDb2dVertex
 10
2.835035798858017
 20
3.842758010381241
 30
0.0
  0
VERTEX
  5
110
330
10C
100
AcDbEntity
  8
Layer 1
 62
     7
420
 16777215
370
    20
100
AcDbVertex
100
AcDb2dVertex
 10
2.835485820963413
 20
3.646589156287708
 30
0.0
  0
VERTEX
  5
111
330
10C
100
AcDbEntity
  8
Layer 1
 62
     7
420
 16777215
370
    20
100
AcDbVertex
100
AcDb2dVertex
 10
2.861746711738988
 20
3.656912894924908
 30
0.0
  0
SEQEND
  5
112
330
10C
100
AcDbEntity
  8
Layer 1
 62
     7
420
 16777215
370
    20
  0
POLYLINE
  5
113
330
1F
100
AcDbEntity
  8
Layer 1
 62
     7
420
 16777215
370
    20
100
AcDb2dPolyline
 66
     1
 10
0.0
 20
0.0
 30
0.0
  0
VERTEX
  5
114
330
113
100
AcDbEntity
  8
Layer 1
 62
     7
420
 16777215
370
    20
100
AcDbVertex
100
AcDb2dVertex
 10
2.840533368800783
 20
4.24211112796119
 30
0.0
  0
VERTEX
  5
115
330
113
100
AcDbEntity
  8
Layer 1
 62
     7
420
 16777215
370
    20
100
AcDbVertex
100
AcDb2dVertex
 10
2.838834937163609
 20
4.161077522139433
 30
0.0
  0
VERTEX
  5
116
330
113
100
AcDbEntity
  8
Layer 1
 62
     7
420
 16777215
370
    20
100
AcDbVertex
100
AcDb2dVertex
 10
2.864096549887613
 20
4.151650885502603
 30
0.0
  0
SEQEND
  5
117
330
113
100
AcDbEntity
  8
Layer 1
 62
     7
420
 16777215
370
    20
  0
POLYLINE
  5
118
330
1F
100
AcDbEntity
  8
Layer 1
 62
     7
420
 16777215
370
    20
100
AcDb2dPolyline
 66
     1
 10
0.0
 20
0.0
 30
0.0
  0
VERTEX
  5
119
330
118
100
AcDbEntity
  8
Layer 1
 62
     7
420
 16777215
370
    20
100
AcDbVertex
100
AcDb2dVertex
 10
2.840932397920369
 20
3.42728684477461
 30
0.0
  0
VERTEX
  5
11A
330
118
100
AcDbEntity
  8
Layer 1
 62
     7
420
 16777215
370
    20
100
AcDbVertex
100
AcDb2dVertex
 10
2.859683356035197
 20
3.41609356639468
 30
0.0
  0
SEQEND
  5
11B
330
118
100
AcDbEntity
  8
Layer 1
 62
     7
420
 16777215
370
    20
  0
POLYLINE
  5
11C
330
1F
100
AcDbEntity
  8
Layer 1
 62
     7
420
 16777215
370
    20
100
AcDb2dPolyline
 66
     1
 10
0.0
 20
0.0
 30
0.0
  0
VERTEX
  5
11D
330
11C
100
AcDbEntity
  8
Layer 1
 62
     7
420
 16777215
370
    20
100
AcDbVertex
100
AcDb2dVertex
 10
2.841781613738956
 20
3.321772631941523
 30
0.0
  0
VERTEX
  5
11E
330
11C
100
AcDbEntity
  8
Layer 1
 62
     7
420
 16777215
370
    20
100
AcDbVertex
100
AcDb2dVertex
 10
2.854970037716763
 20
3.310883018899075
 30
0.0
  0
SEQEND
  5
11F
330
11C
100
AcDbEntity
  8
Layer 1
 62
     7
420
 16777215
370
    20
  0
POLYLINE
  5
120
330
1F
100
AcDbEntity
  8
Layer 1
 62
     7
420
 16777215
370
    20
100
AcDb2dPolyline
 66
     1
 10
0.0
 20
0.0
 30
0.0
  0
VERTEX
  5
121
330
120
100
AcDbEntity
  8
Layer 1
 62
     7
420
 16777215
370
    20
100
AcDbVertex
100
AcDb2dVertex
 10
2.913671654863416
 20
3.677160925756816
 30
0.0
  0
VERTEX
  5
122
330
120
100
AcDbEntity
  8
Layer 1
 62
     7
420
 16777215
370
    20
100
AcDbVertex
100
AcDb2dVertex
 10
2.912754228938916
 20
3.561374270973614
 30
0.0
  0
VERTEX
  5
123
330
120
100
AcDbEntity
  8
Layer 1
 62
     7
420
 16777215
370
    20
100
AcDbVertex
100
AcDb2dVertex
 10
2.838865631711289
 20
3.429500396074054
 30
0.0
  0
VERTEX
  5
124
330
120
100
AcDbEntity
  8
Layer 1
 62
     7
420
 16777215
370
    20
100
AcDbVertex
100
AcDb2dVertex
 10
2.840816440740329
 20
3.323904197751226
 30
0.0
  0
VERTEX
  5
125
330
120
100
AcDbEntity
  8
Layer 1
 62
     7
420
 16777215
370
    20
100
AcDbVertex
100
AcDb2dVertex
 10
2.681163866846014
 20
3.263739473832818
 30
0.0
  0
SEQEND
  5
126
330
120
100
AcDbEntity
  8
Layer 1
 62
     7
420
 16777215
370
    20
  0
POLYLINE
  5
127
330
1F
100
AcDbEntity
  8
Layer 1
 62
     7
420
 16777215
370
    20
100
AcDb2dPolyline
 66
     1
 10
0.0
 20
0.0
 30
0.0
  0
VERTEX
  5
128
330
127
100
AcDbEntity
  8
Layer 1
 62
     7
420
 16777215
370
    20
100
AcDbVertex
100
AcDb2dVertex
 10
2.914872152727437
 20
3.562339580690718
 30
0.0
  0
VERTEX
  5
129
330
127
100
AcDbEntity
  8
Layer 1
 62
     7
420
 16777215
370
    20
100
AcDbVertex
100
AcDb2dVertex
 10
2.928626720584311
 20
3.55646314334807
 30
0.0
  0
SEQEND
  5
12A
330
127
100
AcDbEntity
  8
Layer 1
 62
     7
420
 16777215
370
    20
  0
POLYLINE
  5
12B
330
1F
100
AcDbEntity
  8
Layer 1
 62
     7
420
 16777215
370
    20
100
AcDb2dPolyline
 66
     1
 10
0.0
 20
0.0
 30
0.0
  0
VERTEX
  5
12C
330
12B
100
AcDbEntity
  8
Layer 1
 62
     7
420
 16777215
370
    20
100
AcDbVertex
100
AcDb2dVertex
 10
2.50557741221102
 20
4.061811355007762
 30
0.0
  0
VERTEX
  5
12D
330
12B
100
AcDbEntity
  8
Layer 1
 62
     7
420
 16777215
370
    20
100
AcDbVertex
100
AcDb2dVertex
 10
2.52397708828039
 20
4.071817777544867
 30
0.0
  0
SEQEND
  5
12E
330
12B
100
AcDbEntity
  8
Layer 1
 62
     7
420
 16777215
370
    20
  0
POLYLINE
  5
12F
330
1F
100
AcDbEntity
  8
Layer 1
 62
     7
420
 16777215
370
    20
100
AcDb2dPolyline
 66
     1
 10
0.0
 20
0.0
 30
0.0
  0
VERTEX
  5
130
330
12F
100
AcDbEntity
  8
Layer 1
 62
     7
420
 16777215
370
    20
100
AcDbVertex
100
AcDb2dVertex
 10
2.423544528337642
 20
4.166674161329398
 30
0.0
  0
VERTEX
  5
131
330
12F
100
AcDbEntity
  8
Layer 1
 62
     7
420
 16777215
370
    20
100
AcDbVertex
100
AcDb2dVertex
 10
2.439383069528655
 20
4.17236970517293
 30
0.0
  0
SEQEND
  5
132
330
12F
100
AcDbEntity
  8
Layer 1
 62
     7
420
 16777215
370
    20
  0
SPLINE
  5
133
330
1F
100
AcDbEntity
  8
Layer 1
 62
     7
420
 16777215
370
    20
100
AcDbSpline
210
0.0
220
0.0
230
1.0
 70
     8
 71
     3
 72
    17
 73
    13
 74
     0
 42
0.0000000001
 43
0.0000000001
 12
1.0
 22
0.0
 32
0.0
 13
1.0
 23
0.0
 33
0.0
 40
0.0
 40
0.0
 40
0.0
 40
0.0
 40
1.0
 40
1.0
 40
1.0
 40
2.0
 40
2.0
 40
2.0
 40
3.0
 40
3.0
 40
3.0
 40
4.0
 40
4.0
 40
4.0
 40
4.0
 10
2.507057571509272
 20
3.925073966194115
 30
0.0
 10
2.517633548430695
 20
3.928886911114533
 30
0.0
 10
2.528124419560122
 20
3.930602395278167
 30
0.0
 10
2.528990531064816
 20
3.955615041115594
 30
0.0
 10
2.529873851936347
 20
3.980627686952996
 30
0.0
 10
2.52397708828039
 20
4.071817777544867
 30
0.0
 10
2.52397708828039
 20
4.071817777544867
 30
0.0
 10
2.52397708828039
 20
4.071817777544867
 30
0.0
 10
2.440648212394737
 20
4.174682027763285
 30
0.0
 10
2.440648212394737
 20
4.174682027763285
 30
0.0
 10
2.440648212394737
 20
4.174682027763285
 30
0.0
 10
2.439614829290197
 20
4.264456758657502
 30
0.0
 10
2.439614829290197
 20
4.264456758657502
 30
0.0
  0
POLYLINE
  5
134
330
1F
100
AcDbEntity
  8
Layer 1
 62
     7
420
 16777215
370
    35
100
AcDb2dPolyline
 66
     1
 10
0.0
 20
0.0
 30
0.0
  0
VERTEX
  5
135
330
134
100
AcDbEntity
  8
Layer 1
 62
     7
420
 16777215
370
    35
100
AcDbVertex
100
AcDb2dVertex
 10
1.334181389871573
 20
4.161159374266528
 30
0.0
  0
VERTEX
  5
136
330
134
100
AcDbEntity
  8
Layer 1
 62
     7
420
 16777215
370
    35
100
AcDbVertex
100
AcDb2dVertex
 10
1.567770308067654
 20
4.277164301388654
 30
0.0
  0
SEQEND
  5
137
330
134
100
AcDbEntity
  8
Layer 1
 62
     7
420
 16777215
370
    35
  0
POLYLINE
  5
138
330
1F
100
AcDbEntity
  8
Layer 1
 62
     7
420
 16777215
370
    35
100
AcDb2dPolyline
 66
     1
 10
0.0
 20
0.0
 30
0.0
  0
VERTEX
  5
139
330
138
100
AcDbEntity
  8
Layer 1
 62
     7
420
 16777215
370
    35
100
AcDbVertex
100
AcDb2dVertex
 10
1.300308377099504
 20
4.027754049126606
 30
0.0
  0
VERTEX
  5
13A
330
138
100
AcDbEntity
  8
Layer 1
 62
     7
420
 16777215
370
    35
100
AcDbVertex
100
AcDb2dVertex
 10
1.527570682149253
 20
4.141893429852075
 30
0.0
  0
SEQEND
  5
13B
330
138
100
AcDbEntity
  8
Layer 1
 62
     7
420
 16777215
370
    35
  0
POLYLINE
  5
13C
330
1F
100
AcDbEntity
  8
Layer 1
 62
     7
420
 16777215
370
    35
100
AcDb2dPolyline
 66
     1
 10
0.0
 20
0.0
 30
0.0
  0
VERTEX
  5
13D
330
13C
100
AcDbEntity
  8
Layer 1
 62
     7
420
 16777215
370
    35
100
AcDbVertex
100
AcDb2dVertex
 10
1.333881265405567
 20
3.973366721178801
 30
0.0
  0
VERTEX
  5
13E
330
13C
100
AcDbEntity
  8
Layer 1
 62
     7
420
 16777215
370
    35
100
AcDbVertex
100
AcDb2dVertex
 10
1.560178523279774
 20
4.089620615187502
 30
0.0
  0
SEQEND
  5
13F
330
13C
100
AcDbEntity
  8
Layer 1
 62
     7
420
 16777215
370
    35
  0
POLYLINE
  5
140
330
1F
100
AcDbEntity
  8
Layer 1
 62
     7
420
 16777215
370
    35
100
AcDb2dPolyline
 66
     1
 10
0.0
 20
0.0
 30
0.0
  0
VERTEX
  5
141
330
140
100
AcDbEntity
  8
Layer 1
 62
     7
420
 16777215
370
    35
100
AcDbVertex
100
AcDb2dVertex
 10
1.358044695424395
 20
4.097730796780297
 30
0.0
  0
VERTEX
  5
142
330
140
100
AcDbEntity
  8
Layer 1
 62
     7
420
 16777215
370
    35
100
AcDbVertex
100
AcDb2dVertex
 10
1.592834111484485
 20
4.21786243530999
 30
0.0
  0
SEQEND
  5
143
330
140
100
AcDbEntity
  8
Layer 1
 62
     7
420
 16777215
370
    35
  0
POLYLINE
  5
145
330
1F
100
AcDbEntity
  8
CALLOUT
370
     0
100
AcDb2dPolyline
 66
     1
 10
0.0
 20
0.0
 30
0.0
  0
VERTEX
  5
146
330
145
100
AcDbEntity
  8
CALLOUT
370
     0
100
AcDbVertex
100
AcDb2dVertex
 10
2.669339644986419
 20
4.538149808623694
 30
0.0
  0
VERTEX
  5
147
330
145
100
AcDbEntity
  8
CALLOUT
370
     0
100
AcDbVertex
100
AcDb2dVertex
 10
2.671307506541931
 20
5.012820525150119
 30
0.0
  0
VERTEX
  5
148
330
145
100
AcDbEntity
  8
CALLOUT
370
     0
100
AcDbVertex
100
AcDb2dVertex
 10
2.705160182105374
 20
5.026261326519792
 30
0.0
  0
VERTEX
  5
149
330
145
100
AcDbEntity
  8
CALLOUT
370
     0
100
AcDbVertex
100
AcDb2dVertex
 10
2.705310244338357
 20
4.552535319960283
 30
0.0
  0
VERTEX
  5
14A
330
145
100
AcDbEntity
  8
CALLOUT
370
     0
100
AcDbVertex
100
AcDb2dVertex
 10
2.669339644986419
 20
4.538149808623694
 30
0.0
  0
SEQEND
  5
14C
330
145
100
AcDbEntity
  8
CALLOUT
370
     0
  0
HATCH
  5
14B
330
1F
100
AcDbEntity
  8
CALLOUT
 62
     7
420
 16777215
100
AcDbHatch
 10
0.0
 20
0.0
 30
0.0
210
0.0
220
0.0
230
1.0
  2
SOLID
 70
     1
 71
     0
 91
        1
 92
        1
 93
        4
 72
     1
 10
2.669339644986419
 20
4.538149808623694
 11
2.671307506541931
 21
5.012820525150119
 72
     1
 10
2.671307506541931
 20
5.012820525150119
 11
2.705160182105374
 21
5.026261326519792
 72
     1
 10
2.705160182105374
 20
5.026261326519792
 11
2.705310244338357
 21
4.552535319960283
 72
     1
 10
2.705310244338357
 20
4.552535319960283
 11
2.669339644986419
 21
4.538149808623694
 97
        0
 75
     2
 76
     1
 98
        0
  0
POLYLINE
  5
14D
330
1F
100
AcDbEntity
  8
CALLOUT
370
     0
100
AcDb2dPolyline
 66
     1
 10
0.0
 20
0.0
 30
0.0
  0
VERTEX
  5
14E
330
14D
100
AcDbEntity
  8
CALLOUT
370
     0
100
AcDbVertex
100
AcDb2dVertex
 10
2.628140741016422
 20
4.523941643562529
 30
0.0
  0
VERTEX
  5
14F
330
14D
100
AcDbEntity
  8
CALLOUT
370
     0
100
AcDbVertex
100
AcDb2dVertex
 10
2.74794156053248
 20
4.578182319782614
 30
0.0
  0
VERTEX
  5
150
330
14D
100
AcDbEntity
  8
CALLOUT
370
     0
100
AcDbVertex
100
AcDb2dVertex
 10
2.684676687300427
 20
4.380062656660041
 30
0.0
  0
VERTEX
  5
151
330
14D
100
AcDbEntity
  8
CALLOUT
370
     0
100
AcDbVertex
100
AcDb2dVertex
 10
2.628140741016422
 20
4.523941643562529
 30
0.0
  0
SEQEND
  5
153
330
14D
100
AcDbEntity
  8
CALLOUT
370
     0
  0
HATCH
  5
152
330
1F
100
AcDbEntity
  8
CALLOUT
 62
     7
420
 16777215
100
AcDbHatch
 10
0.0
 20
0.0
 30
0.0
210
0.0
220
0.0
230
1.0
  2
SOLID
 70
     1
 71
     0
 91
        1
 92
        1
 93
        3
 72
     1
 10
2.628140741016422
 20
4.523941643562529
 11
2.74794156053248
 21
4.578182319782614
 72
     1
 10
2.74794156053248
 20
4.578182319782614
 11
2.684676687300427
 21
4.380062656660041
 72
     1
 10
2.684676687300427
 20
4.380062656660041
 11
2.628140741016422
 21
4.523941643562529
 97
        0
 75
     2
 76
     1
 98
        0
  0
POLYLINE
  5
154
330
1F
100
AcDbEntity
  8
CALLOUT
370
     0
100
AcDb2dPolyline
 66
     1
 10
0.0
 20
0.0
 30
0.0
  0
VERTEX
  5
155
330
154
100
AcDbEntity
  8
CALLOUT
370
     0
100
AcDbVertex
100
AcDb2dVertex
 10
2.686709348456563
 20
5.155236405280814
 30
0.0
  0
VERTEX
  5
156
330
154
100
AcDbEntity
  8
CALLOUT
370
     0
100
AcDbVertex
100
AcDb2dVertex
 10
2.624679078141475
 20
4.992538250157609
 30
0.0
  0
VERTEX
  5
157
330
154
100
AcDbEntity
  8
CALLOUT
370
     0
100
AcDbVertex
100
AcDb2dVertex
 10
2.741963106991787
 20
5.034354455586077
 30
0.0
  0
VERTEX
  5
158
330
154
100
AcDbEntity
  8
CALLOUT
370
     0
100
AcDbVertex
100
AcDb2dVertex
 10
2.686709348456563
 20
5.155236405280814
 30
0.0
  0
SEQEND
  5
15A
330
154
100
AcDbEntity
  8
CALLOUT
370
     0
  0
HATCH
  5
159
330
1F
100
AcDbEntity
  8
CALLOUT
 62
     7
420
 16777215
100
AcDbHatch
 10
0.0
 20
0.0
 30
0.0
210
0.0
220
0.0
230
1.0
  2
SOLID
 70
     1
 71
     0
 91
        1
 92
        1
 93
        3
 72
     1
 10
2.686709348456563
 20
5.155236405280814
 11
2.624679078141475
 21
4.992538250157609
 72
     1
 10
2.624679078141475
 20
4.992538250157609
 11
2.741963106991787
 21
5.034354455586077
 72
     1
 10
2.741963106991787
 20
5.034354455586077
 11
2.686709348456563
 21
5.155236405280814
 97
        0
 75
     2
 76
     1
 98
        0
  0
POLYLINE
  5
15B
330
1F
100
AcDbEntity
  8
CALLOUT
370
     0
100
AcDb2dPolyline
 66
     1
 10
0.0
 20
0.0
 30
0.0
  0
VERTEX
  5
15C
330
15B
100
AcDbEntity
  8
CALLOUT
370
     0
100
AcDbVertex
100
AcDb2dVertex
 10
1.339795081588022
 20
2.828548766607443
 30
0.0
  0
VERTEX
  5
15D
330
15B
100
AcDbEntity
  8
CALLOUT
370
     0
100
AcDbVertex
100
AcDb2dVertex
 10
1.900396889540591
 20
3.04581854063445
 30
0.0
  0
VERTEX
  5
15E
330
15B
100
AcDbEntity
  8
CALLOUT
370
     0
100
AcDbVertex
100
AcDb2dVertex
 10
1.899012224390617
 20
3.006219039978014
 30
0.0
  0
VERTEX
  5
15F
330
15B
100
AcDbEntity
  8
CALLOUT
370
     0
100
AcDbVertex
100
AcDb2dVertex
 10
1.335279572576761
 20
2.78904829427462
 30
0.0
  0
VERTEX
  5
160
330
15B
100
AcDbEntity
  8
CALLOUT
370
     0
100
AcDbVertex
100
AcDb2dVertex
 10
1.339795081588022
 20
2.828548766607443
 30
0.0
  0
SEQEND
  5
162
330
15B
100
AcDbEntity
  8
CALLOUT
370
     0
  0
HATCH
  5
161
330
1F
100
AcDbEntity
  8
CALLOUT
 62
     7
420
 16777215
100
AcDbHatch
 10
0.0
 20
0.0
 30
0.0
210
0.0
220
0.0
230
1.0
  2
SOLID
 70
     1
 71
     0
 91
        1
 92
        1
 93
        4
 72
     1
 10
1.339795081588022
 20
2.828548766607443
 11
1.900396889540591
 21
3.04581854063445
 72
     1
 10
1.900396889540591
 20
3.04581854063445
 11
1.899012224390617
 21
3.006219039978014
 72
     1
 10
1.899012224390617
 20
3.006219039978014
 11
1.335279572576761
 21
2.78904829427462
 72
     1
 10
1.335279572576761
 20
2.78904829427462
 11
1.339795081588022
 21
2.828548766607443
 97
        0
 75
     2
 76
     1
 98
        0
  0
POLYLINE
  5
163
330
1F
100
AcDbEntity
  8
CALLOUT
370
     0
100
AcDb2dPolyline
 66
     1
 10
0.0
 20
0.0
 30
0.0
  0
VERTEX
  5
164
330
163
100
AcDbEntity
  8
CALLOUT
370
     0
100
AcDbVertex
100
AcDb2dVertex
 10
1.890571223784162
 20
3.093111893897496
 30
0.0
  0
VERTEX
  5
165
330
163
100
AcDbEntity
  8
CALLOUT
370
     0
100
AcDbVertex
100
AcDb2dVertex
 10
1.893268933472932
 20
2.961538010101283
 30
0.0
  0
VERTEX
  5
166
330
163
100
AcDbEntity
  8
CALLOUT
370
     0
100
AcDbVertex
100
AcDb2dVertex
 10
2.037396887261972
 20
3.084851650071742
 30
0.0
  0
VERTEX
  5
167
330
163
100
AcDbEntity
  8
CALLOUT
370
     0
100
AcDbVertex
100
AcDb2dVertex
 10
1.890571223784162
 20
3.093111893897496
 30
0.0
  0
SEQEND
  5
169
330
163
100
AcDbEntity
  8
CALLOUT
370
     0
  0
HATCH
  5
168
330
1F
100
AcDbEntity
  8
CALLOUT
 62
     7
420
 16777215
100
AcDbHatch
 10
0.0
 20
0.0
 30
0.0
210
0.0
220
0.0
230
1.0
  2
SOLID
 70
     1
 71
     0
 91
        1
 92
        1
 93
        3
 72
     1
 10
1.890571223784162
 20
3.093111893897496
 11
1.893268933472932
 21
2.961538010101283
 72
     1
 10
1.893268933472932
 20
2.961538010101283
 11
2.037396887261972
 21
3.084851650071742
 72
     1
 10
2.037396887261972
 20
3.084851650071742
 11
1.890571223784162
 21
3.093111893897496
 97
        0
 75
     2
 76
     1
 98
        0
  0
POLYLINE
  5
16A
330
1F
100
AcDbEntity
  8
CALLOUT
370
     0
100
AcDb2dPolyline
 66
     1
 10
0.0
 20
0.0
 30
0.0
  0
VERTEX
  5
16B
330
16A
100
AcDbEntity
  8
CALLOUT
370
     0
100
AcDbVertex
100
AcDb2dVertex
 10
1.369967821937558
 20
2.955310427431654
 30
0.0
  0
VERTEX
  5
16C
330
16A
100
AcDbEntity
  8
CALLOUT
370
     0
100
AcDbVertex
100
AcDb2dVertex
 10
1.350500657710679
 20
2.947899399424475
 30
0.0
  0
VERTEX
  5
16D
330
16A
100
AcDbEntity
  8
CALLOUT
370
     0
100
AcDbVertex
100
AcDb2dVertex
 10
1.356462220967261
 20
3.119226132945351
 30
0.0
  0
VERTEX
  5
16E
330
16A
100
AcDbEntity
  8
CALLOUT
370
     0
100
AcDbVertex
100
AcDb2dVertex
 10
1.456229732377374
 20
3.157243035474645
 30
0.0
  0
VERTEX
  5
16F
330
16A
100
AcDbEntity
  8
CALLOUT
370
     0
100
AcDbVertex
100
AcDb2dVertex
 10
1.455513526265311
 20
3.136725435616717
 30
0.0
  0
VERTEX
  5
170
330
16A
100
AcDbEntity
  8
CALLOUT
370
     0
100
AcDbVertex
100
AcDb2dVertex
 10
1.375213179082089
 20
3.106119561094639
 30
0.0
  0
VERTEX
  5
171
330
16A
100
AcDbEntity
  8
CALLOUT
370
     0
100
AcDbVertex
100
AcDb2dVertex
 10
1.373381737738391
 20
3.053628597958537
 30
0.0
  0
VERTEX
  5
172
330
16A
100
AcDbEntity
  8
CALLOUT
370
     0
100
AcDbVertex
100
AcDb2dVertex
 10
1.444057638977635
 20
3.080557823904668
 30
0.0
  0
VERTEX
  5
173
330
16A
100
AcDbEntity
  8
CALLOUT
370
     0
100
AcDbVertex
100
AcDb2dVertex
 10
1.443341432865572
 20
3.060040348076111
 30
0.0
  0
VERTEX
  5
174
330
16A
100
AcDbEntity
  8
CALLOUT
370
     0
100
AcDbVertex
100
AcDb2dVertex
 10
1.372665531626328
 20
3.033097355560774
 30
0.0
  0
VERTEX
  5
175
330
16A
100
AcDbEntity
  8
CALLOUT
370
     0
100
AcDbVertex
100
AcDb2dVertex
 10
1.369967821937558
 20
2.955310427431654
 30
0.0
  0
SEQEND
  5
176
330
16A
100
AcDbEntity
  8
CALLOUT
370
     0
  0
HATCH
  5
177
330
1F
100
AcDbEntity
  8
CALLOUT
 62
     7
420
 16777215
100
AcDbHatch
 10
0.0
 20
0.0
 30
0.0
210
0.0
220
0.0
230
1.0
  2
SOLID
 70
     1
 71
     0
 91
        1
 92
        1
 93
       10
 72
     1
 10
1.369967821937558
 20
2.955310427431654
 11
1.350500657710679
 21
2.947899399424475
 72
     1
 10
1.350500657710679
 20
2.947899399424475
 11
1.356462220967261
 21
3.119226132945351
 72
     1
 10
1.356462220967261
 20
3.119226132945351
 11
1.456229732377374
 21
3.157243035474645
 72
     1
 10
1.456229732377374
 20
3.157243035474645
 11
1.455513526265311
 21
3.136725435616717
 72
     1
 10
1.455513526265311
 20
3.136725435616717
 11
1.375213179082089
 21
3.106119561094639
 72
     1
 10
1.375213179082089
 20
3.106119561094639
 11
1.373381737738391
 21
3.053628597958537
 72
     1
 10
1.373381737738391
 20
3.053628597958537
 11
1.444057638977635
 21
3.080557823904668
 72
     1
 10
1.444057638977635
 20
3.080557823904668
 11
1.443341432865572
 21
3.060040348076111
 72
     1
 10
1.443341432865572
 20
3.060040348076111
 11
1.372665531626328
 21
3.033097355560774
 72
     1
 10
1.372665531626328
 20
3.033097355560774
 11
1.369967821937558
 21
2.955310427431654
 97
        0
 75
     2
 76
     1
 98
        0
  0
SPLINE
  5
178
330
1F
100
AcDbEntity
  8
CALLOUT
370
     0
100
AcDbSpline
210
0.0
220
0.0
230
1.0
 70
    11
 71
     3
 72
    47
 73
    43
 74
     0
 42
0.0000000001
 43
0.0000000001
 12
1.0
 22
0.0
 32
0.0
 13
1.0
 23
0.0
 33
0.0
 40
0.0
 40
0.0
 40
0.0
 40
0.0
 40
1.0
 40
1.0
 40
1.0
 40
2.0
 40
2.0
 40
2.0
 40
3.0
 40
3.0
 40
3.0
 40
4.0
 40
4.0
 40
4.0
 40
5.0
 40
5.0
 40
5.0
 40
6.0
 40
6.0
 40
6.0
 40
7.0
 40
7.0
 40
7.0
 40
8.0
 40
8.0
 40
8.0
 40
9.0
 40
9.0
 40
9.0
 40
10.0
 40
10.0
 40
10.0
 40
11.0
 40
11.0
 40
11.0
 40
12.0
 40
12.0
 40
12.0
 40
13.0
 40
13.0
 40
13.0
 40
14.0
 40
14.0
 40
14.0
 40
14.0
 10
1.465438096675307
 20
3.012797904693078
 30
0.0
 10
1.467337748124919
 20
3.067434199527459
 30
0.0
 10
1.501060824487101
 20
3.085700865890317
 30
0.0
 10
1.516312604168711
 20
3.091515777419179
 30
0.0
 10
1.540810263706488
 20
3.100857151423636
 30
0.0
 10
1.559827241234365
 20
3.08950016878954
 30
0.0
 10
1.558729058529214
 20
3.05824288775601
 30
0.0
 10
1.557678622898177
 20
3.028182694081213
 30
0.0
 10
1.540578481239246
 20
3.009182769079833
 30
0.0
 10
1.519044418910426
 20
2.987785258855676
 30
0.0
 10
1.519044418910426
 20
2.987785258855676
 30
0.0
 10
1.504058658641876
 20
2.972663200197353
 30
0.0
 10
1.504058658641876
 20
2.972663200197353
 30
0.0
 10
1.484339247495237
 20
2.952663875322325
 30
0.0
 10
1.479676956284139
 20
2.937940723961547
 30
0.0
 10
1.478643703507853
 20
2.931181102465783
 30
0.0
 10
1.478643703507853
 20
2.931181102465783
 30
0.0
 10
1.555332195254853
 20
2.960405722343176
 30
0.0
 10
1.555332195254853
 20
2.960405722343176
 30
0.0
 10
1.555332195254853
 20
2.960405722343176
 30
0.0
 10
1.554633041669275
 20
2.940607739102625
 30
0.0
 10
1.554633041669275
 20
2.940607739102625
 30
0.0
 10
1.554633041669275
 20
2.940607739102625
 30
0.0
 10
1.458078356056275
 20
2.903805096541078
 30
0.0
 10
1.458078356056275
 20
2.903805096541078
 30
0.0
 10
1.460295184554361
 20
2.939025264645491
 30
0.0
 10
1.474199684779516
 20
2.962687350385889
 30
0.0
 10
1.493516786773398
 20
2.983003730431367
 30
0.0
 10
1.493516786773398
 20
2.983003730431367
 30
0.0
 10
1.51263266895483
 20
3.003002933484329
 30
0.0
 10
1.51263266895483
 20
3.003002933484329
 30
0.0
 10
1.528054973901211
 20
3.019008434836236
 30
0.0
 10
1.539128884595812
 20
3.030048240477855
 30
0.0
 10
1.539892837781988
 20
3.051998252559909
 30
0.0
 10
1.540360077007487
 20
3.065370843823669
 30
0.0
 10
1.533716412691787
 20
3.079558545853072
 30
0.0
 10
1.513048750600888
 20
3.071680278620394
 30
0.0
 10
1.486354725652783
 20
3.06148968879735
 30
0.0
 10
1.484107202663027
 20
3.031446547649062
 30
0.0
 10
1.483107924611444
 20
3.019523544141685
 30
0.0
 10
1.483107924611444
 20
3.019523544141685
 30
0.0
 10
1.465438096675307
 20
3.012797904693078
 30
0.0
 10
1.465438096675307
 20
3.012797904693078
 30
0.0
  0
HATCH
  5
179
330
1F
100
AcDbEntity
  8
CALLOUT
 62
     7
420
 16777215
100
AcDbHatch
 10
0.0
 20
0.0
 30
0.0
210
0.0
220
0.0
230
1.0
  2
SOLID
 70
     1
 71
     0
 91
        1
 92
        1
 93
        1
 72
     4
 94
        3
 73
     0
 74
     1
 95
       47
 96
       43
 40
0.0
 40
0.0
 40
0.0
 40
0.0
 40
1.0
 40
1.0
 40
1.0
 40
2.0
 40
2.0
 40
2.0
 40
3.0
 40
3.0
 40
3.0
 40
4.0
 40
4.0
 40
4.0
 40
5.0
 40
5.0
 40
5.0
 40
6.0
 40
6.0
 40
6.0
 40
7.0
 40
7.0
 40
7.0
 40
8.0
 40
8.0
 40
8.0
 40
9.0
 40
9.0
 40
9.0
 40
10.0
 40
10.0
 40
10.0
 40
11.0
 40
11.0
 40
11.0
 40
12.0
 40
12.0
 40
12.0
 40
13.0
 40
13.0
 40
13.0
 40
14.0
 40
14.0
 40
14.0
 40
14.0
 10
1.465438096675307
 20
3.012797904693078
 10
1.467337748124919
 20
3.067434199527459
 10
1.501060824487101
 20
3.085700865890317
 10
1.516312604168711
 20
3.091515777419179
 10
1.540810263706488
 20
3.100857151423636
 10
1.559827241234365
 20
3.08950016878954
 10
1.558729058529214
 20
3.05824288775601
 10
1.557678622898177
 20
3.028182694081213
 10
1.540578481239246
 20
3.009182769079833
 10
1.519044418910426
 20
2.987785258855676
 10
1.519044418910426
 20
2.987785258855676
 10
1.504058658641876
 20
2.972663200197353
 10
1.504058658641876
 20
2.972663200197353
 10
1.484339247495237
 20
2.952663875322325
 10
1.479676956284139
 20
2.937940723961547
 10
1.478643703507853
 20
2.931181102465783
 10
1.478643703507853
 20
2.931181102465783
 10
1.555332195254853
 20
2.960405722343176
 10
1.555332195254853
 20
2.960405722343176
 10
1.555332195254853
 20
2.960405722343176
 10
1.554633041669275
 20
2.940607739102625
 10
1.554633041669275
 20
2.940607739102625
 10
1.554633041669275
 20
2.940607739102625
 10
1.458078356056275
 20
2.903805096541078
 10
1.458078356056275
 20
2.903805096541078
 10
1.460295184554361
 20
2.939025264645491
 10
1.474199684779516
 20
2.962687350385889
 10
1.493516786773398
 20
2.983003730431367
 10
1.493516786773398
 20
2.983003730431367
 10
1.51263266895483
 20
3.003002933484329
 10
1.51263266895483
 20
3.003002933484329
 10
1.528054973901211
 20
3.019008434836236
 10
1.539128884595812
 20
3.030048240477855
 10
1.539892837781988
 20
3.051998252559909
 10
1.540360077007487
 20
3.065370843823669
 10
1.533716412691787
 20
3.079558545853072
 10
1.513048750600888
 20
3.071680278620394
 10
1.486354725652783
 20
3.06148968879735
 10
1.484107202663027
 20
3.031446547649062
 10
1.483107924611444
 20
3.019523544141685
 10
1.483107924611444
 20
3.019523544141685
 10
1.465438096675307
 20
3.012797904693078
 10
1.465438096675307
 20
3.012797904693078
 97
        0
 97
        0
 75
     2
 76
     1
 98
        0
  0
POLYLINE
  5
17A
330
1F
100
AcDbEntity
  8
CALLOUT
370
     0
100
AcDb2dPolyline
 66
     1
 10
0.0
 20
0.0
 30
0.0
  0
VERTEX
  5
17B
330
17A
100
AcDbEntity
  8
CALLOUT
370
     0
100
AcDbVertex
100
AcDb2dVertex
 10
2.796950521629242
 20
4.767373447201698
 30
0.0
  0
VERTEX
  5
17C
330
17A
100
AcDbEntity
  8
CALLOUT
370
     0
100
AcDbVertex
100
AcDb2dVertex
 10
2.778216779199106
 20
4.758267397832608
 30
0.0
  0
VERTEX
  5
17D
330
17A
100
AcDbEntity
  8
CALLOUT
370
     0
100
AcDbVertex
100
AcDb2dVertex
 10
2.783980533294147
 20
4.929590553918033
 30
0.0
  0
VERTEX
  5
17E
330
17A
100
AcDbEntity
  8
CALLOUT
370
     0
100
AcDbVertex
100
AcDb2dVertex
 10
2.880016788607135
 20
4.976253087371459
 30
0.0
  0
VERTEX
  5
17F
330
17A
100
AcDbEntity
  8
CALLOUT
370
     0
100
AcDbVertex
100
AcDb2dVertex
 10
2.879317635021557
 20
4.955735659432194
 30
0.0
  0
VERTEX
  5
180
330
17A
100
AcDbEntity
  8
CALLOUT
370
     0
100
AcDbVertex
100
AcDb2dVertex
 10
2.802032174519556
 20
4.918165361178012
 30
0.0
  0
VERTEX
  5
181
330
17A
100
AcDbEntity
  8
CALLOUT
370
     0
100
AcDbVertex
100
AcDb2dVertex
 10
2.800265532776494
 20
4.865677684679818
 30
0.0
  0
VERTEX
  5
182
330
17A
100
AcDbEntity
  8
CALLOUT
370
     0
100
AcDbVertex
100
AcDb2dVertex
 10
2.868274418874635
 20
4.898732302004078
 30
0.0
  0
VERTEX
  5
183
330
17A
100
AcDbEntity
  8
CALLOUT
370
     0
100
AcDbVertex
100
AcDb2dVertex
 10
2.867592317815529
 20
4.878201060125004
 30
0.0
  0
VERTEX
  5
184
330
17A
100
AcDbEntity
  8
CALLOUT
370
     0
100
AcDbVertex
100
AcDb2dVertex
 10
2.799583431717388
 20
4.845160084821916
 30
0.0
  0
VERTEX
  5
185
330
17A
100
AcDbEntity
  8
CALLOUT
370
     0
100
AcDbVertex
100
AcDb2dVertex
 10
2.796950521629242
 20
4.767373447201698
 30
0.0
  0
SEQEND
  5
186
330
17A
100
AcDbEntity
  8
CALLOUT
370
     0
  0
HATCH
  5
187
330
1F
100
AcDbEntity
  8
CALLOUT
 62
     7
420
 16777215
100
AcDbHatch
 10
0.0
 20
0.0
 30
0.0
210
0.0
220
0.0
230
1.0
  2
SOLID
 70
     1
 71
     0
 91
        1
 92
        1
 93
       10
 72
     1
 10
2.796950521629242
 20
4.767373447201698
 11
2.778216779199106
 21
4.758267397832608
 72
     1
 10
2.778216779199106
 20
4.758267397832608
 11
2.783980533294147
 21
4.929590553918033
 72
     1
 10
2.783980533294147
 20
4.929590553918033
 11
2.880016788607135
 21
4.976253087371459
 72
     1
 10
2.880016788607135
 20
4.976253087371459
 11
2.879317635021557
 21
4.955735659432194
 72
     1
 10
2.879317635021557
 20
4.955735659432194
 11
2.802032174519556
 21
4.918165361178012
 72
     1
 10
2.802032174519556
 20
4.918165361178012
 11
2.800265532776494
 21
4.865677684679818
 72
     1
 10
2.800265532776494
 20
4.865677684679818
 11
2.868274418874635
 21
4.898732302004078
 72
     1
 10
2.868274418874635
 20
4.898732302004078
 11
2.867592317815529
 21
4.878201060125004
 72
     1
 10
2.867592317815529
 20
4.878201060125004
 11
2.799583431717388
 21
4.845160084821916
 72
     1
 10
2.799583431717388
 20
4.845160084821916
 11
2.796950521629242
 21
4.767373447201698
 97
        0
 75
     2
 76
     1
 98
        0
  0
SPLINE
  5
188
330
1F
100
AcDbEntity
  8
CALLOUT
370
     0
100
AcDbSpline
210
0.0
220
0.0
230
1.0
 70
    11
 71
     3
 72
    26
 73
    22
 74
     0
 42
0.0000000001
 43
0.0000000001
 12
1.0
 22
0.0
 32
0.0
 13
1.0
 23
0.0
 33
0.0
 40
0.0
 40
0.0
 40
0.0
 40
0.0
 40
1.0
 40
1.0
 40
1.0
 40
2.0
 40
2.0
 40
2.0
 40
3.0
 40
3.0
 40
3.0
 40
4.0
 40
4.0
 40
4.0
 40
5.0
 40
5.0
 40
5.0
 40
6.0
 40
6.0
 40
6.0
 40
7.0
 40
7.0
 40
7.0
 40
7.0
 10
2.946061223655053
 20
4.754218961116635
 30
0.0
 10
2.946061223655053
 20
4.754218961116635
 30
0.0
 10
2.927893461945763
 20
4.745392573411802
 30
0.0
 10
2.927893461945763
 20
4.745392573411802
 30
0.0
 10
2.927893461945763
 20
4.745392573411802
 30
0.0
 10
2.931907626678594
 20
4.864460134289313
 30
0.0
 10
2.931907626678594
 20
4.864460134289313
 30
0.0
 10
2.931907626678594
 20
4.864460134289313
 30
0.0
 10
2.90021721147256
 20
4.849058292374732
 30
0.0
 10
2.90021721147256
 20
4.849058292374732
 30
0.0
 10
2.90021721147256
 20
4.849058292374732
 30
0.0
 10
2.900783355351602
 20
4.865759536806914
 30
0.0
 10
2.900783355351602
 20
4.865759536806914
 30
0.0
 10
2.922880019161337
 20
4.878364764379183
 30
0.0
 10
2.932040636385131
 20
4.885411038461825
 30
0.0
 10
2.938384176234801
 20
4.915484704015726
 30
0.0
 10
2.938384176234801
 20
4.915484704015726
 30
0.0
 10
2.951705609919145
 20
4.92194761155075
 30
0.0
 10
2.951705609919145
 20
4.92194761155075
 30
0.0
 10
2.951705609919145
 20
4.92194761155075
 30
0.0
 10
2.946061223655053
 20
4.754218961116635
 30
0.0
 10
2.946061223655053
 20
4.754218961116635
 30
0.0
  0
HATCH
  5
189
330
1F
100
AcDbEntity
  8
CALLOUT
 62
     7
420
 16777215
100
AcDbHatch
 10
0.0
 20
0.0
 30
0.0
210
0.0
220
0.0
230
1.0
  2
SOLID
 70
     1
 71
     0
 91
        1
 92
        1
 93
        1
 72
     4
 94
        3
 73
     0
 74
     1
 95
       26
 96
       22
 40
0.0
 40
0.0
 40
0.0
 40
0.0
 40
1.0
 40
1.0
 40
1.0
 40
2.0
 40
2.0
 40
2.0
 40
3.0
 40
3.0
 40
3.0
 40
4.0
 40
4.0
 40
4.0
 40
5.0
 40
5.0
 40
5.0
 40
6.0
 40
6.0
 40
6.0
 40
7.0
 40
7.0
 40
7.0
 40
7.0
 10
2.946061223655053
 20
4.754218961116635
 10
2.946061223655053
 20
4.754218961116635
 10
2.927893461945763
 20
4.745392573411802
 10
2.927893461945763
 20
4.745392573411802
 10
2.927893461945763
 20
4.745392573411802
 10
2.931907626678594
 20
4.864460134289313
 10
2.931907626678594
 20
4.864460134289313
 10
2.931907626678594
 20
4.864460134289313
 10
2.90021721147256
 20
4.849058292374732
 10
2.90021721147256
 20
4.849058292374732
 10
2.90021721147256
 20
4.849058292374732
 10
2.900783355351602
 20
4.865759536806914
 10
2.900783355351602
 20
4.865759536806914
 10
2.922880019161337
 20
4.878364764379183
 10
2.932040636385131
 20
4.885411038461825
 10
2.938384176234801
 20
4.915484704015726
 10
2.938384176234801
 20
4.915484704015726
 10
2.951705609919145
 20
4.92194761155075
 10
2.951705609919145
 20
4.92194761155075
 10
2.951705609919145
 20
4.92194761155075
 10
2.946061223655053
 20
4.754218961116635
 10
2.946061223655053
 20
4.754218961116635
 97
        0
 97
        0
 75
     2
 76
     1
 98
        0
  0
MTEXT
  5
18A
330
1F
100
AcDbEntity
  8
CALLOUT
 62
   250
420
  2236191
100
AcDbMText
 10
1.822850545247396
 20
2.082508934868707
 30
0.0
 40
0.118
 41
0.0
 46
0.0
 71
     7
 72
     1
  1
\fHelvetica Neue LT Std 55 Roman|b0|i0|c0|p34;\W1;SIMPSON Strong-Tie\H0.068794;®\H0.118; ^C
 73
     1
 44
1.0
  0
MTEXT
  5
18B
330
1F
100
AcDbEntity
  8
CALLOUT
 62
   250
420
  2236191
100
AcDbMText
 10
1.24581061469184
 20
1.88251707288954
 30
0.0
 40
0.118
 41
0.0
 46
0.0
 71
     7
 72
     1
  1
\fHelvetica Neue LT Std 55 Roman|b0|i0|c0|p34;\W1;A35/A35SS Joist-to-Beam Installation 
 73
     1
 44
1.0
  0
MTEXT
  5
18C
330
1F
100
AcDbEntity
  8
CALLOUT
 62
   250
420
  2236191
100
AcDbMText
 10
2.489468256632487
 20
2.683653910954793
 30
0.0
 40
0.118
 41
0.0
 46
0.0
 71
     7
 72
     1
  1
\fHelvetica Neue LT Std 57 Condensed|b0|i0|c0|p34;\W1;A35 / A35SS
 73
     1
 44
1.0
  0
MTEXT
  5
18D
330
1F
100
AcDbEntity
  8
CALLOUT
 62
   250
420
  2236191
100
AcDbMText
 10
3.428536309136284
 20
2.683653910954793
 30
0.0
 40
0.118
 41
0.0
 46
0.0
 71
     7
 72
     1
  1
\fHelvetica Neue LT Std 57 Condensed|b0|i0|c0|p34;\W1;Beam
 73
     1
 44
1.0
  0
POLYLINE
  5
18E
330
1F
100
AcDbEntity
  8
CALLOUT
 62
   250
420
  2236191
370
    18
100
AcDb2dPolyline
 66
     1
 10
0.0
 20
0.0
 30
0.0
  0
VERTEX
  5
18F
330
18E
100
AcDbEntity
  8
CALLOUT
 62
   250
420
  2236191
370
    18
100
AcDbVertex
100
AcDb2dVertex
 10
2.795799318658687
 20
2.871863799283157
 30
0.0
  0
VERTEX
  5
190
330
18E
100
AcDbEntity
  8
CALLOUT
 62
   250
420
  2236191
370
    18
100
AcDbVertex
100
AcDb2dVertex
 10
2.809721001505143
 20
3.285977673612301
 30
0.0
  0
SEQEND
  5
191
330
18E
100
AcDbEntity
  8
CALLOUT
 62
   250
420
  2236191
370
    18
  0
POLYLINE
  5
192
330
1F
100
AcDbEntity
  8
CALLOUT
 62
   250
420
  2236191
370
    18
100
AcDb2dPolyline
 66
     1
 10
0.0
 20
0.0
 30
0.0
  0
VERTEX
  5
193
330
192
100
AcDbEntity
  8
CALLOUT
 62
   250
420
  2236191
370
    18
100
AcDbVertex
100
AcDb2dVertex
 10
3.600194434084844
 20
2.843189964157709
 30
0.0
  0
VERTEX
  5
194
330
192
100
AcDbEntity
  8
CALLOUT
 62
   250
420
  2236191
370
    18
100
AcDbVertex
100
AcDb2dVertex
 10
3.501550865600823
 20
3.240364899077058
 30
0.0
  0
SEQEND
  5
195
330
192
100
AcDbEntity
  8
CALLOUT
 62
   250
420
  2236191
370
    18
  0
MTEXT
  5
196
330
1F
100
AcDbEntity
  8
CALLOUT
 62
   250
420
  2236191
100
AcDbMText
 10
2.096380127800836
 20
4.921944300333658
 30
0.0
 40
0.118
 41
0.0
 46
0.0
 71
     7
 72
     1
  1
\fHelvetica Neue LT Std 57 Condensed|b0|i0|c0|p34;\W1;Joist
 73
     1
 44
1.0
  0
POLYLINE
  5
197
330
1F
100
AcDbEntity
  8
CALLOUT
 62
   250
420
  2236191
370
    18
100
AcDb2dPolyline
 66
     1
 10
0.0
 20
0.0
 30
0.0
  0
VERTEX
  5
198
330
197
100
AcDbEntity
  8
CALLOUT
 62
   250
420
  2236191
370
    18
100
AcDbVertex
100
AcDb2dVertex
 10
2.187051971326153
 20
4.86726024260204
 30
0.0
  0
VERTEX
  5
199
330
197
100
AcDbEntity
  8
CALLOUT
 62
   250
420
  2236191
370
    18
100
AcDbVertex
100
AcDb2dVertex
 10
1.989647529004224
 20
4.570805396828379
 30
0.0
  0
SEQEND
  5
19A
330
197
100
AcDbEntity
  8
CALLOUT
 62
   250
420
  2236191
370
    18
  0
ENDSEC
  0
SECTION
  2
OBJECTS
  0
DICTIONARY
  5
C
330
0
100
AcDbDictionary
281
     1
  3
ACAD_GROUP
350
D
  3
ACAD_LAYOUT
350
1A
  3
ACAD_MATERIAL
350
3B
  3
ACAD_MLEADERSTYLE
350
19E
  3
ACAD_MLINESTYLE
350
17
  3
ACAD_PLOTSETTINGS
350
19
  3
ACAD_PLOTSTYLENAME
350
E
  3
ACAD_TABLESTYLE
350
19D
  3
ACAD_VISUALSTYLE
350
2A
  0
SUN
  5
3F
330
29
100
AcDbSun
 90
        1
290
     0
 63
     7
421
 16777215
 40
1.0
291
     1
 91
  2455826
 92
 54000000
292
     0
 70
     2
 71
   256
280
     1
  0
DICTIONARY
  5
D
102
{ACAD_REACTORS
330
C
102
}
330
C
100
AcDbDictionary
281
     1
  0
DICTIONARY
  5
1A
102
{ACAD_REACTORS
330
C
102
}
330
C
100
AcDbDictionary
281
     1
  3
Layout1
350
1E
  3
Layout2
350
26
  3
Model
350
22
  0
DICTIONARY
  5
3B
102
{ACAD_REACTORS
330
C
102
}
330
C
100
AcDbDictionary
281
     1
  3
ByBlock
350
3D
  3
ByLayer
350
3C
  3
Global
350
3E
  0
DICTIONARY
  5
19E
102
{ACAD_REACTORS
330
C
102
}
330
C
100
AcDbDictionary
281
     1
  0
DICTIONARY
  5
17
102
{ACAD_REACTORS
330
C
102
}
330
C
100
AcDbDictionary
281
     1
  3
Standard
350
18
  0
DICTIONARY
  5
19
102
{ACAD_REACTORS
330
C
102
}
330
C
100
AcDbDictionary
281
     1
  0
ACDBDICTIONARYWDFLT
  5
E
102
{ACAD_REACTORS
330
C
102
}
330
C
100
AcDbDictionary
281
     1
  3
Normal
350
F
100
AcDbDictionaryWithDefault
340
F
  0
DICTIONARY
  5
19D
102
{ACAD_REACTORS
330
C
102
}
330
C
100
AcDbDictionary
281
     1
  0
DICTIONARY
  5
2A
102
{ACAD_REACTORS
330
C
102
}
330
C
100
AcDbDictionary
281
     1
  3
2dWireframe
350
2F
  3
3D Hidden
350
31
  3
3dWireframe
350
30
  3
Basic
350
32
  3
Brighten
350
36
  3
ColorChange
350
3A
  3
Conceptual
350
34
  3
Dim
350
35
  3
Facepattern
350
39
  3
Flat
350
2B
  3
FlatWithEdges
350
2C
  3
Gouraud
350
2D
  3
GouraudWithEdges
350
2E
  3
Linepattern
350
38
  3
Realistic
350
33
  3
Thicken
350
37
  0
LAYOUT
  5
1E
102
{ACAD_REACTORS
330
1A
102
}
330
1A
100
AcDbPlotSettings
  1

  2
none_device
  4

  6

 40
0.0
 41
0.0
 42
0.0
 43
0.0
 44
0.0
 45
0.0
 46
0.0
 47
0.0
 48
0.0
 49
0.0
140
0.0
141
0.0
142
1.0
143
1.0
 70
   688
 72
     0
 73
     0
 74
     5
  7

 75
    16
 76
     0
 77
     2
 78
   300
147
1.0
148
0.0
149
0.0
100
AcDbLayout
  1
Layout1
 70
     1
 71
     1
 10
0.0
 20
0.0
 11
12.0
 21
9.0
 12
0.0
 22
0.0
 32
0.0
 14
1.000000000000000E+20
 24
1.000000000000000E+20
 34
1.000000000000000E+20
 15
-1.000000000000000E+20
 25
-1.000000000000000E+20
 35
-1.000000000000000E+20
146
0.0
 13
0.0
 23
0.0
 33
0.0
 16
1.0
 26
0.0
 36
0.0
 17
0.0
 27
1.0
 37
0.0
 76
     0
330
1B
  0
LAYOUT
  5
26
102
{ACAD_REACTORS
330
1A
102
}
330
1A
100
AcDbPlotSettings
  1

  2
none_device
  4

  6

 40
0.0
 41
0.0
 42
0.0
 43
0.0
 44
0.0
 45
0.0
 46
0.0
 47
0.0
 48
0.0
 49
0.0
140
0.0
141
0.0
142
1.0
143
1.0
 70
   688
 72
     0
 73
     0
 74
     5
  7

 75
    16
 76
     0
 77
     2
 78
   300
147
1.0
148
0.0
149
0.0
100
AcDbLayout
  1
Layout2
 70
     1
 71
     2
 10
0.0
 20
0.0
 11
0.0
 21
0.0
 12
0.0
 22
0.0
 32
0.0
 14
0.0
 24
0.0
 34
0.0
 15
0.0
 25
0.0
 35
0.0
146
0.0
 13
0.0
 23
0.0
 33
0.0
 16
1.0
 26
0.0
 36
0.0
 17
0.0
 27
1.0
 37
0.0
 76
     0
330
23
  0
LAYOUT
  5
22
102
{ACAD_REACTORS
330
1A
102
}
330
1A
100
AcDbPlotSettings
  1

  2
none_device
  4

  6

 40
0.0
 41
0.0
 42
0.0
 43
0.0
 44
0.0
 45
0.0
 46
0.0
 47
0.0
 48
0.0
 49
0.0
140
0.0
141
0.0
142
1.0
143
1.0
 70
  1712
 72
     0
 73
     0
 74
     0
  7

 75
     0
 76
     0
 77
     2
 78
   300
147
1.0
148
0.0
149
0.0
100
AcDbLayout
  1
Model
 70
     1
 71
     0
 10
0.0
 20
0.0
 11
12.0
 21
9.0
 12
0.0
 22
0.0
 32
0.0
 14
1.000000000000000E+20
 24
1.000000000000000E+20
 34
1.000000000000000E+20
 15
-1.000000000000000E+20
 25
-1.000000000000000E+20
 35
-1.000000000000000E+20
146
0.0
 13
0.0
 23
0.0
 33
0.0
 16
1.0
 26
0.0
 36
0.0
 17
0.0
 27
1.0
 37
0.0
 76
     0
330
1F
331
29
  0
MATERIAL
  5
3D
102
{ACAD_REACTORS
330
3B
102
}
330
3B
100
AcDbMaterial
  1
ByBlock
 72
     1
 94
      127
  0
MATERIAL
  5
3C
102
{ACAD_REACTORS
330
3B
102
}
330
3B
100
AcDbMaterial
  1
ByLayer
 72
     1
 94
      127
  0
MATERIAL
  5
3E
102
{ACAD_REACTORS
330
3B
102
}
330
3B
100
AcDbMaterial
  1
Global
 72
     1
 94
      127
  0
MLINESTYLE
  5
18
102
{ACAD_REACTORS
330
17
102
}
330
17
100
AcDbMlineStyle
  2
Standard
 70
     0
  3

 62
   256
 51
90.0
 52
90.0
 71
     2
 49
0.5
 62
   256
  6
BYLAYER
 49
-0.5
 62
   256
  6
BYLAYER
  0
ACDBPLACEHOLDER
  5
F
102
{ACAD_REACTORS
330
E
102
}
330
E
  0
VISUALSTYLE
  5
2F
102
{ACAD_REACTORS
330
2A
102
}
330
2A
100
AcDbVisualStyle
  2
2dWireframe
 70
     4
177
     2
291
     0
 71
     0
176
     1
 72
     2
176
     1
 73
     0
176
     1
 90
        0
176
     1
 40
-0.6
176
     1
 41
-30.0
176
     1
 62
     5
 63
     7
421
 16777215
176
     1
 74
     1
176
     1
 91
        4
176
     1
 64
     7
176
     1
 65
   257
176
     1
 75
     1
176
     1
175
     1
176
     1
 42
1.0
176
     1
 92
        0
176
     1
 66
   257
176
     1
 43
1.0
176
     1
 76
     1
176
     1
 77
     6
176
     1
 78
     2
176
     1
 67
     7
176
     1
 79
     5
176
     1
170
     0
176
     1
171
     0
176
     1
290
     0
176
     1
 93
        1
176
     1
 44
0.0
176
     1
173
     0
176
     1
  0
VISUALSTYLE
  5
31
102
{ACAD_REACTORS
330
2A
102
}
330
2A
100
AcDbVisualStyle
  2
3D Hidden
 70
     6
177
     2
291
     0
 71
     1
176
     1
 72
     2
176
     1
 73
     2
176
     1
 90
        0
176
     1
 40
-0.6
176
     1
 41
-30.0
176
     1
 62
     5
 63
     7
421
 16777215
176
     1
 74
     2
176
     1
 91
        2
176
     1
 64
     7
176
     1
 65
   257
176
     1
 75
     2
176
     1
175
     1
176
     1
 42
40.0
176
     1
 92
        0
176
     1
 66
   257
176
     1
 43
1.0
176
     1
 76
     1
176
     1
 77
     6
176
     1
 78
     2
176
     1
 67
     7
176
     1
 79
     3
176
     1
170
     0
176
     1
171
     0
176
     1
290
     0
176
     1
 93
        1
176
     1
 44
0.0
176
     1
173
     0
176
     1
  0
VISUALSTYLE
  5
30
102
{ACAD_REACTORS
330
2A
102
}
330
2A
100
AcDbVisualStyle
  2
3dWireframe
 70
     5
177
     2
291
     0
 71
     0
176
     1
 72
     2
176
     1
 73
     0
176
     1
 90
        0
176
     1
 40
-0.6
176
     1
 41
-30.0
176
     1
 62
     5
 63
     7
421
 16777215
176
     1
 74
     1
176
     1
 91
        4
176
     1
 64
     7
176
     1
 65
   257
176
     1
 75
     1
176
     1
175
     1
176
     1
 42
1.0
176
     1
 92
        0
176
     1
 66
   257
176
     1
 43
1.0
176
     1
 76
     1
176
     1
 77
     6
176
     1
 78
     2
176
     1
 67
     7
176
     1
 79
     5
176
     1
170
     0
176
     1
171
     0
176
     1
290
     0
176
     1
 93
        1
176
     1
 44
0.0
176
     1
173
     0
176
     1
  0
VISUALSTYLE
  5
32
102
{ACAD_REACTORS
330
2A
102
}
330
2A
100
AcDbVisualStyle
  2
Basic
 70
     7
177
     2
291
     1
 71
     1
176
     1
 72
     0
176
     1
 73
     1
176
     1
 90
        0
176
     1
 40
-0.6
176
     1
 41
-30.0
176
     1
 62
     5
 63
     7
421
 16777215
176
     1
 74
     0
176
     1
 91
        4
176
     1
 64
     7
176
     1
 65
   257
176
     1
 75
     1
176
     1
175
     1
176
     1
 42
1.0
176
     1
 92
        8
176
     1
 66
     7
176
     1
 43
1.0
176
     1
 76
     1
176
     1
 77
     6
176
     1
 78
     2
176
     1
 67
     7
176
     1
 79
     5
176
     1
170
     0
176
     1
171
     0
176
     1
290
     0
176
     1
 93
        1
176
     1
 44
0.0
176
     1
173
     0
176
     1
  0
VISUALSTYLE
  5
36
102
{ACAD_REACTORS
330
2A
102
}
330
2A
100
AcDbVisualStyle
  2
Brighten
 70
    12
177
     2
291
     1
 71
     2
176
     1
 72
     2
176
     1
 73
     0
176
     1
 90
        0
176
     1
 40
-0.6
176
     1
 41
-30.0
176
     1
 62
     5
 63
     7
421
 16777215
176
     1
 74
     1
176
     1
 91
        4
176
     1
 64
     7
176
     1
 65
   257
176
     1
 75
     1
176
     1
175
     1
176
     1
 42
1.0
176
     1
 92
        8
176
     1
 66
     7
176
     1
 43
1.0
176
     1
 76
     1
176
     1
 77
     6
176
     1
 78
     2
176
     1
 67
     7
176
     1
 79
     5
176
     1
170
     0
176
     1
171
     0
176
     1
290
     0
176
     1
 93
        1
176
     1
 44
50.0
176
     1
173
     0
176
     1
  0
VISUALSTYLE
  5
3A
102
{ACAD_REACTORS
330
2A
102
}
330
2A
100
AcDbVisualStyle
  2
ColorChange
 70
    16
177
     2
291
     1
 71
     2
176
     1
 72
     2
176
     1
 73
     3
176
     1
 90
        0
176
     1
 40
-0.6
176
     1
 41
-30.0
176
     1
 62
     5
 63
     8
421
  8421504
176
     1
 74
     1
176
     1
 91
        4
176
     1
 64
     7
176
     1
 65
   257
176
     1
 75
     1
176
     1
175
     1
176
     1
 42
1.0
176
     1
 92
        8
176
     1
 66
     8
424
  8421504
176
     1
 43
1.0
176
     1
 76
     1
176
     1
 77
     6
176
     1
 78
     2
176
     1
 67
     7
176
     1
 79
     5
176
     1
170
     0
176
     1
171
     0
176
     1
290
     0
176
     1
 93
        1
176
     1
 44
0.0
176
     1
173
     0
176
     1
  0
VISUALSTYLE
  5
34
102
{ACAD_REACTORS
330
2A
102
}
330
2A
100
AcDbVisualStyle
  2
Conceptual
 70
     9
177
     2
291
     0
 71
     3
176
     1
 72
     2
176
     1
 73
     0
176
     1
 90
        0
176
     1
 40
-0.6
176
     1
 41
-30.0
176
     1
 62
     5
 63
     7
421
 16777215
176
     1
 74
     2
176
     1
 91
        2
176
     1
 64
     7
176
     1
 65
   257
176
     1
 75
     1
176
     1
175
     1
176
     1
 42
40.0
176
     1
 92
        8
176
     1
 66
     7
176
     1
 43
1.0
176
     1
 76
     1
176
     1
 77
     6
176
     1
 78
     2
176
     1
 67
     7
176
     1
 79
     3
176
     1
170
     0
176
     1
171
     0
176
     1
290
     0
176
     1
 93
        1
176
     1
 44
0.0
176
     1
173
     0
176
     1
  0
VISUALSTYLE
  5
35
102
{ACAD_REACTORS
330
2A
102
}
330
2A
100
AcDbVisualStyle
  2
Dim
 70
    11
177
     2
291
     1
 71
     2
176
     1
 72
     2
176
     1
 73
     0
176
     1
 90
        0
176
     1
 40
-0.6
176
     1
 41
-30.0
176
     1
 62
     5
 63
     7
421
 16777215
176
     1
 74
     1
176
     1
 91
        4
176
     1
 64
     7
176
     1
 65
   257
176
     1
 75
     1
176
     1
175
     1
176
     1
 42
1.0
176
     1
 92
        8
176
     1
 66
     7
176
     1
 43
1.0
176
     1
 76
     1
176
     1
 77
     6
176
     1
 78
     2
176
     1
 67
     7
176
     1
 79
     5
176
     1
170
     0
176
     1
171
     0
176
     1
290
     0
176
     1
 93
        1
176
     1
 44
-50.0
176
     1
173
     0
176
     1
  0
VISUALSTYLE
  5
39
102
{ACAD_REACTORS
330
2A
102
}
330
2A
100
AcDbVisualStyle
  2
Facepattern
 70
    15
177
     2
291
     1
 71
     2
176
     1
 72
     2
176
     1
 73
     0
176
     1
 90
        0
176
     1
 40
-0.6
176
     1
 41
-30.0
176
     1
 62
     5
 63
     7
421
 16777215
176
     1
 74
     1
176
     1
 91
        4
176
     1
 64
     7
176
     1
 65
   257
176
     1
 75
     1
176
     1
175
     1
176
     1
 42
1.0
176
     1
 92
        8
176
     1
 66
     7
176
     1
 43
1.0
176
     1
 76
     1
176
     1
 77
     6
176
     1
 78
     2
176
     1
 67
     7
176
     1
 79
     5
176
     1
170
     0
176
     1
171
     0
176
     1
290
     0
176
     1
 93
        1
176
     1
 44
0.0
176
     1
173
     0
176
     1
  0
VISUALSTYLE
  5
2B
102
{ACAD_REACTORS
330
2A
102
}
330
2A
100
AcDbVisualStyle
  2
Flat
 70
     0
177
     2
291
     1
 71
     2
176
     1
 72
     1
176
     1
 73
     1
176
     1
 90
        2
176
     1
 40
-0.6
176
     1
 41
30.0
176
     1
 62
     5
 63
     7
421
 16777215
176
     1
 74
     0
176
     1
 91
        4
176
     1
 64
     7
176
     1
 65
   257
176
     1
 75
     1
176
     1
175
     1
176
     1
 42
1.0
176
     1
 92
        8
176
     1
 66
     7
176
     1
 43
1.0
176
     1
 76
     1
176
     1
 77
     6
176
     1
 78
     2
176
     1
 67
     7
176
     1
 79
     5
176
     1
170
     0
176
     1
171
     0
176
     1
290
     0
176
     1
 93
       13
176
     1
 44
0.0
176
     1
173
     0
176
     1
  0
VISUALSTYLE
  5
2C
102
{ACAD_REACTORS
330
2A
102
}
330
2A
100
AcDbVisualStyle
  2
FlatWithEdges
 70
     1
177
     2
291
     1
 71
     2
176
     1
 72
     1
176
     1
 73
     1
176
     1
 90
        2
176
     1
 40
-0.6
176
     1
 41
30.0
176
     1
 62
     5
 63
     7
421
 16777215
176
     1
 74
     1
176
     1
 91
        4
176
     1
 64
     7
176
     1
 65
   257
176
     1
 75
     1
176
     1
175
     1
176
     1
 42
1.0
176
     1
 92
        0
176
     1
 66
   257
176
     1
 43
1.0
176
     1
 76
     1
176
     1
 77
     6
176
     1
 78
     2
176
     1
 67
     7
176
     1
 79
     5
176
     1
170
     0
176
     1
171
     0
176
     1
290
     0
176
     1
 93
       13
176
     1
 44
0.0
176
     1
173
     0
176
     1
  0
VISUALSTYLE
  5
2D
102
{ACAD_REACTORS
330
2A
102
}
330
2A
100
AcDbVisualStyle
  2
Gouraud
 70
     2
177
     2
291
     1
 71
     2
176
     1
 72
     2
176
     1
 73
     1
176
     1
 90
        2
176
     1
 40
-0.6
176
     1
 41
30.0
176
     1
 62
     5
 63
     7
421
 16777215
176
     1
 74
     0
176
     1
 91
        4
176
     1
 64
     7
176
     1
 65
   257
176
     1
 75
     1
176
     1
175
     1
176
     1
 42
1.0
176
     1
 92
        0
176
     1
 66
     7
176
     1
 43
1.0
176
     1
 76
     1
176
     1
 77
     6
176
     1
 78
     2
176
     1
 67
     7
176
     1
 79
     5
176
     1
170
     0
176
     1
171
     0
176
     1
290
     0
176
     1
 93
       13
176
     1
 44
0.0
176
     1
173
     0
176
     1
  0
VISUALSTYLE
  5
2E
102
{ACAD_REACTORS
330
2A
102
}
330
2A
100
AcDbVisualStyle
  2
GouraudWithEdges
 70
     3
177
     2
291
     1
 71
     2
176
     1
 72
     2
176
     1
 73
     1
176
     1
 90
        2
176
     1
 40
-0.6
176
     1
 41
30.0
176
     1
 62
     5
 63
     7
421
 16777215
176
     1
 74
     1
176
     1
 91
        4
176
     1
 64
     7
176
     1
 65
   257
176
     1
 75
     1
176
     1
175
     1
176
     1
 42
1.0
176
     1
 92
        0
176
     1
 66
   257
176
     1
 43
1.0
176
     1
 76
     1
176
     1
 77
     6
176
     1
 78
     2
176
     1
 67
     7
176
     1
 79
     5
176
     1
170
     0
176
     1
171
     0
176
     1
290
     0
176
     1
 93
       13
176
     1
 44
0.0
176
     1
173
     0
176
     1
  0
VISUALSTYLE
  5
38
102
{ACAD_REACTORS
330
2A
102
}
330
2A
100
AcDbVisualStyle
  2
Linepattern
 70
    14
177
     2
291
     1
 71
     2
176
     1
 72
     2
176
     1
 73
     0
176
     1
 90
        0
176
     1
 40
-0.6
176
     1
 41
-30.0
176
     1
 62
     5
 63
     7
421
 16777215
176
     1
 74
     1
176
     1
 91
        4
176
     1
 64
     7
176
     1
 65
   257
176
     1
 75
     7
176
     1
175
     7
176
     1
 42
1.0
176
     1
 92
        8
176
     1
 66
     7
176
     1
 43
1.0
176
     1
 76
     1
176
     1
 77
     6
176
     1
 78
     2
176
     1
 67
     7
176
     1
 79
     5
176
     1
170
     0
176
     1
171
     0
176
     1
290
     0
176
     1
 93
        1
176
     1
 44
0.0
176
     1
173
     0
176
     1
  0
VISUALSTYLE
  5
33
102
{ACAD_REACTORS
330
2A
102
}
330
2A
100
AcDbVisualStyle
  2
Realistic
 70
     8
177
     2
291
     0
 71
     2
176
     1
 72
     2
176
     1
 73
     0
176
     1
 90
        0
176
     1
 40
-0.6
176
     1
 41
-30.0
176
     1
 62
     5
 63
     7
421
 16777215
176
     1
 74
     1
176
     1
 91
        0
176
     1
 64
     7
176
     1
 65
   257
176
     1
 75
     1
176
     1
175
     1
176
     1
 42
1.0
176
     1
 92
        8
176
     1
 66
     8
424
  7895160
176
     1
 43
1.0
176
     1
 76
     1
176
     1
 77
     6
176
     1
 78
     2
176
     1
 67
     7
176
     1
 79
     5
176
     1
170
     0
176
     1
171
     0
176
     1
290
     0
176
     1
 93
       13
176
     1
 44
0.0
176
     1
173
     0
176
     1
  0
VISUALSTYLE
  5
37
102
{ACAD_REACTORS
330
2A
102
}
330
2A
100
AcDbVisualStyle
  2
Thicken
 70
    13
177
     2
291
     1
 71
     2
176
     1
 72
     2
176
     1
 73
     0
176
     1
 90
        0
176
     1
 40
-0.6
176
     1
 41
-30.0
176
     1
 62
     5
 63
     7
421
 16777215
176
     1
 74
     1
176
     1
 91
        4
176
     1
 64
     7
176
     1
 65
   257
176
     1
 75
     1
176
     1
175
     1
176
     1
 42
1.0
176
     1
 92
       12
176
     1
 66
     7
176
     1
 43
1.0
176
     1
 76
     1
176
     1
 77
     6
176
     1
 78
     2
176
     1
 67
     7
176
     1
 79
     5
176
     1
170
     0
176
     1
171
     0
176
     1
290
     0
176
     1
 93
        1
176
     1
 44
0.0
176
     1
173
     0
176
     1
  0
ENDSEC
  0
EOF
