  0
SECTION
  2
HEADER
  9
$ACADVER
  1
AC1024
  9
$ACADMAINTVER
 70
     6
  9
$DWGCODEPAGE
  3
ANSI_1252
  9
$INSBASE
 10
0.0
 20
0.0
 30
0.0
  9
$EXTMIN
 10
1.000000000000000E+20
 20
1.000000000000000E+20
 30
1.000000000000000E+20
  9
$EXTMAX
 10
-1.000000000000000E+20
 20
-1.000000000000000E+20
 30
-1.000000000000000E+20
  9
$LIMMIN
 10
0.0
 20
0.0
  9
$LIMMAX
 10
12.0
 20
9.0
  9
$ORTHOMODE
 70
     0
  9
$REGENMODE
 70
     1
  9
$FILLMODE
 70
     1
  9
$QTEXTMODE
 70
     0
  9
$MIRRTEXT
 70
     1
  9
$LTSCALE
 40
1.0
  9
$ATTMODE
 70
     1
  9
$TEXTSIZE
 40
0.2
  9
$TRACEWID
 40
0.05
  9
$TEXTSTYLE
  7
Standard
  9
$CLAYER
  8
0
  9
$CELTYPE
  6
ByLayer
  9
$CECOLOR
 62
   256
  9
$CELTSCALE
 40
1.0
  9
$DISPSILH
 70
     0
  9
$DIMSCALE
 40
1.0
  9
$DIMASZ
 40
0.18
  9
$DIMEXO
 40
0.0625
  9
$DIMDLI
 40
0.38
  9
$DIMRND
 40
0.0
  9
$DIMDLE
 40
0.0
  9
$DIMEXE
 40
0.18
  9
$DIMTP
 40
0.0
  9
$DIMTM
 40
0.0
  9
$DIMTXT
 40
0.18
  9
$DIMCEN
 40
0.09
  9
$DIMTSZ
 40
0.0
  9
$DIMTOL
 70
     0
  9
$DIMLIM
 70
     0
  9
$DIMTIH
 70
     1
  9
$DIMTOH
 70
     1
  9
$DIMSE1
 70
     0
  9
$DIMSE2
 70
     0
  9
$DIMTAD
 70
     0
  9
$DIMZIN
 70
     0
  9
$DIMBLK
  1

  9
$DIMASO
 70
     1
  9
$DIMSHO
 70
     1
  9
$DIMPOST
  1

  9
$DIMAPOST
  1

  9
$DIMALT
 70
     0
  9
$DIMALTD
 70
     2
  9
$DIMALTF
 40
25.4
  9
$DIMLFAC
 40
1.0
  9
$DIMTOFL
 70
     0
  9
$DIMTVP
 40
0.0
  9
$DIMTIX
 70
     0
  9
$DIMSOXD
 70
     0
  9
$DIMSAH
 70
     0
  9
$DIMBLK1
  1

  9
$DIMBLK2
  1

  9
$DIMSTYLE
  2
Standard
  9
$DIMCLRD
 70
     0
  9
$DIMCLRE
 70
     0
  9
$DIMCLRT
 70
     0
  9
$DIMTFAC
 40
1.0
  9
$DIMGAP
 40
0.09
  9
$DIMJUST
 70
     0
  9
$DIMSD1
 70
     0
  9
$DIMSD2
 70
     0
  9
$DIMTOLJ
 70
     1
  9
$DIMTZIN
 70
     0
  9
$DIMALTZ
 70
     0
  9
$DIMALTTZ
 70
     0
  9
$DIMUPT
 70
     0
  9
$DIMDEC
 70
     4
  9
$DIMTDEC
 70
     4
  9
$DIMALTU
 70
     2
  9
$DIMALTTD
 70
     2
  9
$DIMTXSTY
  7
Standard
  9
$DIMAUNIT
 70
     0
  9
$DIMADEC
 70
     0
  9
$DIMALTRND
 40
0.0
  9
$DIMAZIN
 70
     0
  9
$DIMDSEP
 70
    46
  9
$DIMATFIT
 70
     3
  9
$DIMFRAC
 70
     0
  9
$DIMLDRBLK
  1

  9
$DIMLUNIT
 70
     2
  9
$DIMLWD
 70
    -2
  9
$DIMLWE
 70
    -2
  9
$DIMTMOVE
 70
     0
  9
$DIMFXL
 40
1.0
  9
$DIMFXLON
 70
     0
  9
$DIMJOGANG
 40
0.7853981633974483
  9
$DIMTFILL
 70
     0
  9
$DIMTFILLCLR
 70
     0
  9
$DIMARCSYM
 70
     0
  9
$DIMLTYPE
  6

  9
$DIMLTEX1
  6

  9
$DIMLTEX2
  6

  9
$DIMTXTDIRECTION
 70
     0
  9
$LUNITS
 70
     2
  9
$LUPREC
 70
     4
  9
$SKETCHINC
 40
0.1
  9
$FILLETRAD
 40
0.5
  9
$AUNITS
 70
     0
  9
$AUPREC
 70
     0
  9
$MENU
  1
.
  9
$ELEVATION
 40
0.0
  9
$PELEVATION
 40
0.0
  9
$THICKNESS
 40
0.0
  9
$LIMCHECK
 70
     0
  9
$CHAMFERA
 40
0.5
  9
$CHAMFERB
 40
0.5
  9
$CHAMFERC
 40
1.0
  9
$CHAMFERD
 40
0.0
  9
$SKPOLY
 70
     0
  9
$TDCREATE
 40
2458850.911747893
  9
$TDUCREATE
 40
2458850.370081227
  9
$TDUPDATE
 40
2458850.911748079
  9
$TDUUPDATE
 40
2458850.370081412
  9
$TDINDWG
 40
0.0000000116
  9
$TDUSRTIMER
 40
0.0000000116
  9
$USRTIMER
 70
     1
  9
$ANGBASE
 50
0.0
  9
$ANGDIR
 70
     0
  9
$PDMODE
 70
     0
  9
$PDSIZE
 40
0.0
  9
$PLINEWID
 40
0.0
  9
$SPLFRAME
 70
     0
  9
$SPLINETYPE
 70
     6
  9
$SPLINESEGS
 70
     8
  9
$HANDSEED
  5
198
  9
$SURFTAB1
 70
     6
  9
$SURFTAB2
 70
     6
  9
$SURFTYPE
 70
     6
  9
$SURFU
 70
     6
  9
$SURFV
 70
     6
  9
$UCSBASE
  2

  9
$UCSNAME
  2

  9
$UCSORG
 10
0.0
 20
0.0
 30
0.0
  9
$UCSXDIR
 10
1.0
 20
0.0
 30
0.0
  9
$UCSYDIR
 10
0.0
 20
1.0
 30
0.0
  9
$UCSORTHOREF
  2

  9
$UCSORTHOVIEW
 70
     0
  9
$UCSORGTOP
 10
0.0
 20
0.0
 30
0.0
  9
$UCSORGBOTTOM
 10
0.0
 20
0.0
 30
0.0
  9
$UCSORGLEFT
 10
0.0
 20
0.0
 30
0.0
  9
$UCSORGRIGHT
 10
0.0
 20
0.0
 30
0.0
  9
$UCSORGFRONT
 10
0.0
 20
0.0
 30
0.0
  9
$UCSORGBACK
 10
0.0
 20
0.0
 30
0.0
  9
$PUCSBASE
  2

  9
$PUCSNAME
  2

  9
$PUCSORG
 10
0.0
 20
0.0
 30
0.0
  9
$PUCSXDIR
 10
1.0
 20
0.0
 30
0.0
  9
$PUCSYDIR
 10
0.0
 20
1.0
 30
0.0
  9
$PUCSORTHOREF
  2

  9
$PUCSORTHOVIEW
 70
     0
  9
$PUCSORGTOP
 10
0.0
 20
0.0
 30
0.0
  9
$PUCSORGBOTTOM
 10
0.0
 20
0.0
 30
0.0
  9
$PUCSORGLEFT
 10
0.0
 20
0.0
 30
0.0
  9
$PUCSORGRIGHT
 10
0.0
 20
0.0
 30
0.0
  9
$PUCSORGFRONT
 10
0.0
 20
0.0
 30
0.0
  9
$PUCSORGBACK
 10
0.0
 20
0.0
 30
0.0
  9
$USERI1
 70
     0
  9
$USERI2
 70
     0
  9
$USERI3
 70
     0
  9
$USERI4
 70
     0
  9
$USERI5
 70
     0
  9
$USERR1
 40
0.0
  9
$USERR2
 40
0.0
  9
$USERR3
 40
0.0
  9
$USERR4
 40
0.0
  9
$USERR5
 40
0.0
  9
$WORLDVIEW
 70
     1
  9
$SHADEDGE
 70
     3
  9
$SHADEDIF
 70
    70
  9
$TILEMODE
 70
     1
  9
$MAXACTVP
 70
    64
  9
$PINSBASE
 10
0.0
 20
0.0
 30
0.0
  9
$PLIMCHECK
 70
     0
  9
$PEXTMIN
 10
1.000000000000000E+20
 20
1.000000000000000E+20
 30
1.000000000000000E+20
  9
$PEXTMAX
 10
-1.000000000000000E+20
 20
-1.000000000000000E+20
 30
-1.000000000000000E+20
  9
$PLIMMIN
 10
0.0
 20
0.0
  9
$PLIMMAX
 10
12.0
 20
9.0
  9
$UNITMODE
 70
     0
  9
$VISRETAIN
 70
     1
  9
$PLINEGEN
 70
     0
  9
$PSLTSCALE
 70
     1
  9
$TREEDEPTH
 70
  3020
  9
$CMLSTYLE
  2
Standard
  9
$CMLJUST
 70
     0
  9
$CMLSCALE
 40
1.0
  9
$PROXYGRAPHICS
 70
     1
  9
$MEASUREMENT
 70
     0
  9
$CELWEIGHT
370
    -1
  9
$ENDCAPS
280
     0
  9
$JOINSTYLE
280
     0
  9
$LWDISPLAY
290
     1
  9
$INSUNITS
 70
     1
  9
$HYPERLINKBASE
  1

  9
$STYLESHEET
  1

  9
$XEDIT
290
     1
  9
$CEPSNTYPE
380
     0
  9
$PSTYLEMODE
290
     1
  9
$FINGERPRINTGUID
  2
{92A8B45C-B1C8-4E20-B624-5C65DE3308B9}
  9
$VERSIONGUID
  2
{FAEB1C32-E019-11D5-929B-00C0DF256EC4}
  9
$EXTNAMES
290
     1
  9
$PSVPSCALE
 40
0.0
  9
$OLESTARTUP
290
     0
  9
$SORTENTS
280
   127
  9
$INDEXCTL
280
     0
  9
$HIDETEXT
280
     1
  9
$XCLIPFRAME
280
     2
  9
$HALOGAP
280
     0
  9
$OBSCOLOR
 70
   257
  9
$OBSLTYPE
280
     0
  9
$INTERSECTIONDISPLAY
280
     0
  9
$INTERSECTIONCOLOR
 70
   257
  9
$DIMASSOC
280
     2
  9
$PROJECTNAME
  1

  9
$CAMERADISPLAY
290
     0
  9
$LENSLENGTH
 40
50.0
  9
$CAMERAHEIGHT
 40
0.0
  9
$STEPSPERSEC
 40
2.0
  9
$STEPSIZE
 40
6.0
  9
$3DDWFPREC
 40
2.0
  9
$PSOLWIDTH
 40
0.25
  9
$PSOLHEIGHT
 40
4.0
  9
$LOFTANG1
 40
1.570796326794897
  9
$LOFTANG2
 40
1.570796326794897
  9
$LOFTMAG1
 40
0.0
  9
$LOFTMAG2
 40
0.0
  9
$LOFTPARAM
 70
     7
  9
$LOFTNORMALS
280
     1
  9
$LATITUDE
 40
37.795
  9
$LONGITUDE
 40
-122.394
  9
$NORTHDIRECTION
 40
0.0
  9
$TIMEZONE
 70
 -8000
  9
$LIGHTGLYPHDISPLAY
280
     1
  9
$TILEMODELIGHTSYNCH
280
     1
  9
$CMATERIAL
347
3C
  9
$SOLIDHIST
280
     1
  9
$SHOWHIST
280
     1
  9
$DWFFRAME
280
     2
  9
$DGNFRAME
280
     2
  9
$REALWORLDSCALE
290
     1
  9
$INTERFERECOLOR
 62
   256
  9
$CSHADOW
280
     0
  9
$SHADOWPLANELOCATION
 40
0.0
  0
ENDSEC
  0
SECTION
  2
CLASSES
  0
CLASS
  1
ACDBDICTIONARYWDFLT
  2
AcDbDictionaryWithDefault
  3
ObjectDBX Classes
 90
        0
 91
        4
280
     0
281
     0
  0
CLASS
  1
VISUALSTYLE
  2
AcDbVisualStyle
  3
ObjectDBX Classes
 90
     4095
 91
        4
280
     0
281
     0
  0
CLASS
  1
MATERIAL
  2
AcDbMaterial
  3
ObjectDBX Classes
 90
     1153
 91
        4
280
     0
281
     0
  0
CLASS
  1
SUN
  2
AcDbSun
  3
SCENEOE
 90
     1024
 91
        4
280
     0
281
     0
  0
ENDSEC
  0
SECTION
  2
TABLES
  0
TABLE
  2
VPORT
  5
8
330
0
100
AcDbSymbolTable
 70
     1
  0
VPORT
  5
29
330
8
100
AcDbSymbolTableRecord
100
AcDbViewportTableRecord
  2
*Active
 70
     0
 10
0.0
 20
0.0
 11
1.0
 21
1.0
 12
0.0
 22
0.0
 13
0.0
 23
0.0
 14
0.5
 24
0.5
 15
0.5
 25
0.5
 16
0.0
 26
0.0
 36
1.0
 17
2.305555555555555
 27
2.298611111111112
 37
0.0
 40
11.69291338582677
 41
0.7070707070707065
 42
50.0
 43
0.0
 44
0.0
 50
0.0
 51
0.0
 71
     0
 72
   100
 73
     1
 74
     3
 75
     0
 76
     0
 77
     0
 78
     0
281
     0
 65
     1
110
0.0
120
0.0
130
0.0
111
1.0
121
0.0
131
0.0
112
0.0
122
1.0
132
0.0
 79
     0
146
0.0
 60
     3
 61
     5
292
     1
282
     1
141
0.0
142
0.0
 63
   250
361
3F
  0
ENDTAB
  0
TABLE
  2
LTYPE
  5
5
330
0
100
AcDbSymbolTable
 70
     1
  0
LTYPE
  5
14
330
5
100
AcDbSymbolTableRecord
100
AcDbLinetypeTableRecord
  2
ByBlock
 70
     0
  3

 72
    65
 73
     0
 40
0.0
  0
LTYPE
  5
15
330
5
100
AcDbSymbolTableRecord
100
AcDbLinetypeTableRecord
  2
ByLayer
 70
     0
  3

 72
    65
 73
     0
 40
0.0
  0
LTYPE
  5
16
330
5
100
AcDbSymbolTableRecord
100
AcDbLinetypeTableRecord
  2
Continuous
 70
     0
  3
Solid line
 72
    65
 73
     0
 40
0.0
  0
ENDTAB
  0
TABLE
  2
LAYER
  5
2
330
0
100
AcDbSymbolTable
 70
     3
  0
LAYER
  5
10
330
2
100
AcDbSymbolTableRecord
100
AcDbLayerTableRecord
  2
0
 70
     0
 62
     7
  6
Continuous
370
    -3
390
F
347
3E
  0
LAYER
  5
40
330
2
100
AcDbSymbolTableRecord
100
AcDbLayerTableRecord
  2
Layer 1
 70
     0
 62
     7
  6
Continuous
370
    -3
390
F
347
3E
  0
LAYER
  5
139
330
2
100
AcDbSymbolTableRecord
100
AcDbLayerTableRecord
  2
CALLOUT
 70
     0
 62
     7
  6
Continuous
370
    -3
390
F
347
3E
  0
ENDTAB
  0
TABLE
  2
STYLE
  5
3
330
0
100
AcDbSymbolTable
 70
     1
  0
STYLE
  5
11
330
3
100
AcDbSymbolTableRecord
100
AcDbTextStyleTableRecord
  2
Standard
 70
     0
 40
0.0
 41
1.0
 50
0.0
 71
     0
 42
0.2
  3
txt
  4

  0
ENDTAB
  0
TABLE
  2
VIEW
  5
6
330
0
100
AcDbSymbolTable
 70
     0
  0
ENDTAB
  0
TABLE
  2
UCS
  5
7
330
0
100
AcDbSymbolTable
 70
     0
  0
ENDTAB
  0
TABLE
  2
APPID
  5
9
330
0
100
AcDbSymbolTable
 70
     1
  0
APPID
  5
12
330
9
100
AcDbSymbolTableRecord
100
AcDbRegAppTableRecord
  2
ACAD
 70
     0
  0
ENDTAB
  0
TABLE
  2
DIMSTYLE
  5
A
330
0
100
AcDbSymbolTable
 70
     1
100
AcDbDimStyleTable
  0
DIMSTYLE
105
27
330
A
100
AcDbSymbolTableRecord
100
AcDbDimStyleTableRecord
  2
Standard
 70
     0
178
     0
340
11
  0
ENDTAB
  0
TABLE
  2
BLOCK_RECORD
  5
1
330
0
100
AcDbSymbolTable
 70
     1
  0
BLOCK_RECORD
  5
1F
330
1
100
AcDbSymbolTableRecord
100
AcDbBlockTableRecord
  2
*Model_Space
340
22
 70
     0
280
     1
281
     0
  0
BLOCK_RECORD
  5
1B
330
1
100
AcDbSymbolTableRecord
100
AcDbBlockTableRecord
  2
*Paper_Space
340
1E
 70
     0
280
     1
281
     0
  0
BLOCK_RECORD
  5
23
330
1
100
AcDbSymbolTableRecord
100
AcDbBlockTableRecord
  2
*Paper_Space0
340
26
 70
     0
280
     1
281
     0
  0
ENDTAB
  0
ENDSEC
  0
SECTION
  2
BLOCKS
  0
BLOCK
  5
20
330
1F
100
AcDbEntity
  8
0
100
AcDbBlockBegin
  2
*Model_Space
 70
     0
 10
0.0
 20
0.0
 30
0.0
  3
*Model_Space
  1

  0
ENDBLK
  5
21
330
1F
100
AcDbEntity
  8
0
100
AcDbBlockEnd
  0
BLOCK
  5
1C
330
1B
100
AcDbEntity
 67
     1
  8
0
100
AcDbBlockBegin
  2
*Paper_Space
 70
     0
 10
0.0
 20
0.0
 30
0.0
  3
*Paper_Space
  1

  0
ENDBLK
  5
1D
330
1B
100
AcDbEntity
 67
     1
  8
0
100
AcDbBlockEnd
  0
BLOCK
  5
24
330
23
100
AcDbEntity
  8
0
100
AcDbBlockBegin
  2
*Paper_Space0
 70
     0
 10
0.0
 20
0.0
 30
0.0
  3
*Paper_Space0
  1

  0
ENDBLK
  5
25
330
23
100
AcDbEntity
  8
0
100
AcDbBlockEnd
  0
ENDSEC
  0
SECTION
  2
ENTITIES
  0
POLYLINE
  5
41
330
1F
100
AcDbEntity
  8
Layer 1
 62
     7
420
 16777215
370
    50
100
AcDb2dPolyline
 66
     1
 10
0.0
 20
0.0
 30
0.0
  0
VERTEX
  5
42
330
41
100
AcDbEntity
  8
Layer 1
 62
     7
420
 16777215
370
    50
100
AcDbVertex
100
AcDb2dVertex
 10
0.9192931589062583
 20
2.095297485408612
 30
0.0
  0
VERTEX
  5
43
330
41
100
AcDbEntity
  8
Layer 1
 62
     7
420
 16777215
370
    50
100
AcDbVertex
100
AcDb2dVertex
 10
1.297635369175534
 20
1.892101584484281
 30
0.0
  0
VERTEX
  5
44
330
41
100
AcDbEntity
  8
Layer 1
 62
     7
420
 16777215
370
    50
100
AcDbVertex
100
AcDb2dVertex
 10
1.393066978425319
 20
1.896579904247321
 30
0.0
  0
VERTEX
  5
45
330
41
100
AcDbEntity
  8
Layer 1
 62
     7
420
 16777215
370
    50
100
AcDbVertex
100
AcDb2dVertex
 10
1.39418735158098
 20
1.780946063892012
 30
0.0
  0
VERTEX
  5
46
330
41
100
AcDbEntity
  8
Layer 1
 62
     7
420
 16777215
370
    50
100
AcDbVertex
100
AcDb2dVertex
 10
1.524413636019643
 20
1.771971057644628
 30
0.0
  0
VERTEX
  5
47
330
41
100
AcDbEntity
  8
Layer 1
 62
     7
420
 16777215
370
    50
100
AcDbVertex
100
AcDb2dVertex
 10
1.869081544255727
 20
1.587845915915245
 30
0.0
  0
VERTEX
  5
48
330
41
100
AcDbEntity
  8
Layer 1
 62
     7
420
 16777215
370
    50
100
AcDbVertex
100
AcDb2dVertex
 10
3.747313259899177
 20
2.619575230614752
 30
0.0
  0
VERTEX
  5
49
330
41
100
AcDbEntity
  8
Layer 1
 62
     7
420
 16777215
370
    50
100
AcDbVertex
100
AcDb2dVertex
 10
3.743955444585531
 20
2.911483433070897
 30
0.0
  0
VERTEX
  5
4A
330
41
100
AcDbEntity
  8
Layer 1
 62
     7
420
 16777215
370
    50
100
AcDbVertex
100
AcDb2dVertex
 10
3.212921390372735
 20
3.10120354408923
 30
0.0
  0
VERTEX
  5
4B
330
41
100
AcDbEntity
  8
Layer 1
 62
     7
420
 16777215
370
    50
100
AcDbVertex
100
AcDb2dVertex
 10
1.956658396962691
 20
2.841871479661348
 30
0.0
  0
VERTEX
  5
4C
330
41
100
AcDbEntity
  8
Layer 1
 62
     7
420
 16777215
370
    50
100
AcDbVertex
100
AcDb2dVertex
 10
0.9192931589062583
 20
2.419740843038577
 30
0.0
  0
VERTEX
  5
4D
330
41
100
AcDbEntity
  8
Layer 1
 62
     7
420
 16777215
370
    50
100
AcDbVertex
100
AcDb2dVertex
 10
0.9192931589062583
 20
2.095297485408612
 30
0.0
  0
SEQEND
  5
4F
330
41
100
AcDbEntity
  8
Layer 1
 62
     7
420
 16777215
370
    50
  0
HATCH
  5
4E
330
1F
100
AcDbEntity
  8
Layer 1
 62
    43
420
 15510365
100
AcDbHatch
 10
0.0
 20
0.0
 30
0.0
210
0.0
220
0.0
230
1.0
  2
SOLID
 70
     1
 71
     0
 91
        1
 92
        1
 93
       11
 72
     1
 10
0.9192931589062583
 20
2.095297485408612
 11
1.297635369175534
 21
1.892101584484281
 72
     1
 10
1.297635369175534
 20
1.892101584484281
 11
1.393066978425319
 21
1.896579904247321
 72
     1
 10
1.393066978425319
 20
1.896579904247321
 11
1.39418735158098
 21
1.780946063892012
 72
     1
 10
1.39418735158098
 20
1.780946063892012
 11
1.524413636019643
 21
1.771971057644628
 72
     1
 10
1.524413636019643
 20
1.771971057644628
 11
1.869081544255727
 21
1.587845915915245
 72
     1
 10
1.869081544255727
 20
1.587845915915245
 11
3.747313259899177
 21
2.619575230614752
 72
     1
 10
3.747313259899177
 20
2.619575230614752
 11
3.743955444585531
 21
2.911483433070897
 72
     1
 10
3.743955444585531
 20
2.911483433070897
 11
3.212921390372735
 21
3.10120354408923
 72
     1
 10
3.212921390372735
 20
3.10120354408923
 11
1.956658396962691
 21
2.841871479661348
 72
     1
 10
1.956658396962691
 20
2.841871479661348
 11
0.9192931589062583
 21
2.419740843038577
 72
     1
 10
0.9192931589062583
 20
2.419740843038577
 11
0.9192931589062583
 21
2.095297485408612
 97
        0
 75
     2
 76
     1
 98
        0
  0
POLYLINE
  5
50
330
1F
100
AcDbEntity
  8
Layer 1
 62
     7
420
 16777215
370
    40
100
AcDb2dPolyline
 66
     1
 10
0.0
 20
0.0
 30
0.0
  0
VERTEX
  5
51
330
50
100
AcDbEntity
  8
Layer 1
 62
     7
420
 16777215
370
    40
100
AcDbVertex
100
AcDb2dVertex
 10
0.9215489599429626
 20
2.419740843038577
 30
0.0
  0
VERTEX
  5
52
330
50
100
AcDbEntity
  8
Layer 1
 62
     7
420
 16777215
370
    40
100
AcDbVertex
100
AcDb2dVertex
 10
1.301015372696106
 20
2.227779570883942
 30
0.0
  0
VERTEX
  5
53
330
50
100
AcDbEntity
  8
Layer 1
 62
     7
420
 16777215
370
    40
100
AcDbVertex
100
AcDb2dVertex
 10
1.428423754856112
 20
2.236754700582449
 30
0.0
  0
VERTEX
  5
54
330
50
100
AcDbEntity
  8
Layer 1
 62
     7
420
 16777215
370
    40
100
AcDbVertex
100
AcDb2dVertex
 10
1.397005253859637
 20
2.126172375335575
 30
0.0
  0
VERTEX
  5
55
330
50
100
AcDbEntity
  8
Layer 1
 62
     7
420
 16777215
370
    40
100
AcDbVertex
100
AcDb2dVertex
 10
1.51320119545686
 20
2.122237666642048
 30
0.0
  0
VERTEX
  5
56
330
50
100
AcDbEntity
  8
Layer 1
 62
     7
420
 16777215
370
    40
100
AcDbVertex
100
AcDb2dVertex
 10
1.866840535356965
 20
1.947102451400547
 30
0.0
  0
VERTEX
  5
57
330
50
100
AcDbEntity
  8
Layer 1
 62
     7
420
 16777215
370
    40
100
AcDbVertex
100
AcDb2dVertex
 10
3.740579329696326
 20
2.909223781762168
 30
0.0
  0
SEQEND
  5
58
330
50
100
AcDbEntity
  8
Layer 1
 62
     7
420
 16777215
370
    40
  0
POLYLINE
  5
59
330
1F
100
AcDbEntity
  8
Layer 1
 62
     7
420
 16777215
370
    50
100
AcDb2dPolyline
 66
     1
 10
0.0
 20
0.0
 30
0.0
  0
VERTEX
  5
5A
330
59
100
AcDbEntity
  8
Layer 1
 62
     7
420
 16777215
370
    50
100
AcDbVertex
100
AcDb2dVertex
 10
1.180881024370857
 20
4.092524736828687
 30
0.0
  0
VERTEX
  5
5B
330
59
100
AcDbEntity
  8
Layer 1
 62
     7
420
 16777215
370
    50
100
AcDbVertex
100
AcDb2dVertex
 10
1.497473454786207
 20
4.157635847957573
 30
0.0
  0
VERTEX
  5
5C
330
59
100
AcDbEntity
  8
Layer 1
 62
     7
420
 16777215
370
    50
100
AcDbVertex
100
AcDb2dVertex
 10
3.586770488741017
 20
3.640092223551164
 30
0.0
  0
VERTEX
  5
5D
330
59
100
AcDbEntity
  8
Layer 1
 62
     7
420
 16777215
370
    50
100
AcDbVertex
100
AcDb2dVertex
 10
3.596884613061345
 20
3.183163082411359
 30
0.0
  0
VERTEX
  5
5E
330
59
100
AcDbEntity
  8
Layer 1
 62
     7
420
 16777215
370
    50
100
AcDbVertex
100
AcDb2dVertex
 10
3.650202874286277
 20
3.084377487176097
 30
0.0
  0
VERTEX
  5
5F
330
59
100
AcDbEntity
  8
Layer 1
 62
     7
420
 16777215
370
    50
100
AcDbVertex
100
AcDb2dVertex
 10
3.556472492193936
 20
3.041147464030069
 30
0.0
  0
VERTEX
  5
60
330
59
100
AcDbEntity
  8
Layer 1
 62
     7
420
 16777215
370
    50
100
AcDbVertex
100
AcDb2dVertex
 10
3.596322511819405
 20
2.971539514647247
 30
0.0
  0
VERTEX
  5
61
330
59
100
AcDbEntity
  8
Layer 1
 62
     7
420
 16777215
370
    50
100
AcDbVertex
100
AcDb2dVertex
 10
3.599121923925597
 20
2.42311714852465
 30
0.0
  0
VERTEX
  5
62
330
59
100
AcDbEntity
  8
Layer 1
 62
     7
420
 16777215
370
    50
100
AcDbVertex
100
AcDb2dVertex
 10
3.317327998027319
 20
2.268191691751352
 30
0.0
  0
VERTEX
  5
63
330
59
100
AcDbEntity
  8
Layer 1
 62
     7
420
 16777215
370
    50
100
AcDbVertex
100
AcDb2dVertex
 10
1.185377834306324
 20
3.09558992773888
 30
0.0
  0
VERTEX
  5
64
330
59
100
AcDbEntity
  8
Layer 1
 62
     7
420
 16777215
370
    50
100
AcDbVertex
100
AcDb2dVertex
 10
1.179760519921476
 20
3.519961573260389
 30
0.0
  0
VERTEX
  5
65
330
59
100
AcDbEntity
  8
Layer 1
 62
     7
420
 16777215
370
    50
100
AcDbVertex
100
AcDb2dVertex
 10
1.226910459623102
 20
3.564866806028779
 30
0.0
  0
VERTEX
  5
66
330
59
100
AcDbEntity
  8
Layer 1
 62
     7
420
 16777215
370
    50
100
AcDbVertex
100
AcDb2dVertex
 10
1.141589407952842
 20
3.635595584145878
 30
0.0
  0
VERTEX
  5
67
330
59
100
AcDbEntity
  8
Layer 1
 62
     7
420
 16777215
370
    50
100
AcDbVertex
100
AcDb2dVertex
 10
1.180881024370857
 20
3.685001326132326
 30
0.0
  0
VERTEX
  5
68
330
59
100
AcDbEntity
  8
Layer 1
 62
     7
420
 16777215
370
    50
100
AcDbVertex
100
AcDb2dVertex
 10
1.180881024370857
 20
4.092524736828687
 30
0.0
  0
SEQEND
  5
6A
330
59
100
AcDbEntity
  8
Layer 1
 62
     7
420
 16777215
370
    50
  0
HATCH
  5
69
330
1F
100
AcDbEntity
  8
Layer 1
 62
    43
420
 15510365
100
AcDbHatch
 10
0.0
 20
0.0
 30
0.0
210
0.0
220
0.0
230
1.0
  2
SOLID
 70
     1
 71
     0
 91
        1
 92
        1
 93
       14
 72
     1
 10
1.180881024370857
 20
4.092524736828687
 11
1.497473454786207
 21
4.157635847957573
 72
     1
 10
1.497473454786207
 20
4.157635847957573
 11
3.586770488741017
 21
3.640092223551164
 72
     1
 10
3.586770488741017
 20
3.640092223551164
 11
3.596884613061345
 21
3.183163082411359
 72
     1
 10
3.596884613061345
 20
3.183163082411359
 11
3.650202874286277
 21
3.084377487176097
 72
     1
 10
3.650202874286277
 20
3.084377487176097
 11
3.556472492193936
 21
3.041147464030069
 72
     1
 10
3.556472492193936
 20
3.041147464030069
 11
3.596322511819405
 21
2.971539514647247
 72
     1
 10
3.596322511819405
 20
2.971539514647247
 11
3.599121923925597
 21
2.42311714852465
 72
     1
 10
3.599121923925597
 20
2.42311714852465
 11
3.317327998027319
 21
2.268191691751352
 72
     1
 10
3.317327998027319
 20
2.268191691751352
 11
1.185377834306324
 21
3.09558992773888
 72
     1
 10
1.185377834306324
 20
3.09558992773888
 11
1.179760519921476
 21
3.519961573260389
 72
     1
 10
1.179760519921476
 20
3.519961573260389
 11
1.226910459623102
 21
3.564866806028779
 72
     1
 10
1.226910459623102
 20
3.564866806028779
 11
1.141589407952842
 21
3.635595584145878
 72
     1
 10
1.141589407952842
 20
3.635595584145878
 11
1.180881024370857
 21
3.685001326132326
 72
     1
 10
1.180881024370857
 20
3.685001326132326
 11
1.180881024370857
 21
4.092524736828687
 97
        0
 75
     2
 76
     1
 98
        0
  0
POLYLINE
  5
6B
330
1F
100
AcDbEntity
  8
Layer 1
370
     0
100
AcDb2dPolyline
 66
     1
 10
0.0
 20
0.0
 30
0.0
  0
VERTEX
  5
6C
330
6B
100
AcDbEntity
  8
Layer 1
370
     0
100
AcDbVertex
100
AcDb2dVertex
 10
2.629127478142436
 20
3.111317668409533
 30
0.0
  0
VERTEX
  5
195
330
6B
100
AcDbEntity
  8
0
100
AcDbVertex
100
AcDb2dVertex
 10
2.629127478142436
 20
3.111317668409533
 30
0.0
  0
SEQEND
  5
6D
330
6B
100
AcDbEntity
  8
Layer 1
370
     0
  0
POLYLINE
  5
6E
330
1F
100
AcDbEntity
  8
Layer 1
 62
     7
420
 16777215
370
    35
100
AcDb2dPolyline
 66
     1
 10
0.0
 20
0.0
 30
0.0
  0
VERTEX
  5
6F
330
6E
100
AcDbEntity
  8
Layer 1
 62
     7
420
 16777215
370
    35
100
AcDbVertex
100
AcDb2dVertex
 10
2.526961879386616
 20
3.201131831980774
 30
0.0
  0
VERTEX
  5
70
330
6E
100
AcDbEntity
  8
Layer 1
 62
     7
420
 16777215
370
    35
100
AcDbVertex
100
AcDb2dVertex
 10
2.549423740857012
 20
3.211223768094214
 30
0.0
  0
VERTEX
  5
71
330
6E
100
AcDbEntity
  8
Layer 1
 62
     7
420
 16777215
370
    35
100
AcDbVertex
100
AcDb2dVertex
 10
2.832338171204684
 20
3.11355497927381
 30
0.0
  0
VERTEX
  5
72
330
6E
100
AcDbEntity
  8
Layer 1
 62
     7
420
 16777215
370
    35
100
AcDbVertex
100
AcDb2dVertex
 10
2.837955485589545
 20
2.45117783420748
 30
0.0
  0
VERTEX
  5
73
330
6E
100
AcDbEntity
  8
Layer 1
 62
     7
420
 16777215
370
    35
100
AcDbVertex
100
AcDb2dVertex
 10
2.814373119669754
 20
2.436589088158624
 30
0.0
  0
VERTEX
  5
74
330
6E
100
AcDbEntity
  8
Layer 1
 62
     7
420
 16777215
370
    35
100
AcDbVertex
100
AcDb2dVertex
 10
2.814373119669754
 20
2.078449240288566
 30
0.0
  0
VERTEX
  5
75
330
6E
100
AcDbEntity
  8
Layer 1
 62
     7
420
 16777215
370
    35
100
AcDbVertex
100
AcDb2dVertex
 10
2.668437584732879
 20
1.993131886652792
 30
0.0
  0
VERTEX
  5
76
330
6E
100
AcDbEntity
  8
Layer 1
 62
     7
420
 16777215
370
    35
100
AcDbVertex
100
AcDb2dVertex
 10
2.650472696256353
 20
2.006600128252254
 30
0.0
  0
VERTEX
  5
77
330
6E
100
AcDbEntity
  8
Layer 1
 62
     7
420
 16777215
370
    35
100
AcDbVertex
100
AcDb2dVertex
 10
2.650472696256353
 20
2.105407911694429
 30
0.0
  0
VERTEX
  5
78
330
6E
100
AcDbEntity
  8
Layer 1
 62
     7
420
 16777215
370
    35
100
AcDbVertex
100
AcDb2dVertex
 10
2.559538025938587
 20
2.157050963297024
 30
0.0
  0
VERTEX
  5
79
330
6E
100
AcDbEntity
  8
Layer 1
 62
     7
420
 16777215
370
    35
100
AcDbVertex
100
AcDb2dVertex
 10
2.556161559691241
 20
2.29850817847086
 30
0.0
  0
VERTEX
  5
7A
330
6E
100
AcDbEntity
  8
Layer 1
 62
     7
420
 16777215
370
    35
100
AcDbVertex
100
AcDb2dVertex
 10
2.651589339612832
 20
2.35015123007348
 30
0.0
  0
VERTEX
  5
7B
330
6E
100
AcDbEntity
  8
Layer 1
 62
     7
420
 16777215
370
    35
100
AcDbVertex
100
AcDb2dVertex
 10
2.648213034126759
 20
2.36024316618687
 30
0.0
  0
VERTEX
  5
7C
330
6E
100
AcDbEntity
  8
Layer 1
 62
     7
420
 16777215
370
    35
100
AcDbVertex
100
AcDb2dVertex
 10
2.509015318024088
 20
2.288394054150558
 30
0.0
  0
VERTEX
  5
7D
330
6E
100
AcDbEntity
  8
Layer 1
 62
     7
420
 16777215
370
    35
100
AcDbVertex
100
AcDb2dVertex
 10
2.239569129275929
 20
2.400655287054254
 30
0.0
  0
VERTEX
  5
7E
330
6E
100
AcDbEntity
  8
Layer 1
 62
     7
420
 16777215
370
    35
100
AcDbVertex
100
AcDb2dVertex
 10
2.241810138174666
 20
2.432092278223156
 30
0.0
  0
VERTEX
  5
7F
330
6E
100
AcDbEntity
  8
Layer 1
 62
     7
420
 16777215
370
    35
100
AcDbVertex
100
AcDb2dVertex
 10
2.347333552244133
 20
2.48037381647762
 30
0.0
  0
VERTEX
  5
80
330
6E
100
AcDbEntity
  8
Layer 1
 62
     7
420
 16777215
370
    35
100
AcDbVertex
100
AcDb2dVertex
 10
2.491046568454673
 20
2.472519191228507
 30
0.0
  0
VERTEX
  5
81
330
6E
100
AcDbEntity
  8
Layer 1
 62
     7
420
 16777215
370
    35
100
AcDbVertex
100
AcDb2dVertex
 10
2.613418389766543
 20
2.530900061665332
 30
0.0
  0
VERTEX
  5
82
330
6E
100
AcDbEntity
  8
Layer 1
 62
     7
420
 16777215
370
    35
100
AcDbVertex
100
AcDb2dVertex
 10
2.521366753208693
 20
2.567932179012157
 30
0.0
  0
VERTEX
  5
83
330
6E
100
AcDbEntity
  8
Layer 1
 62
     7
420
 16777215
370
    35
100
AcDbVertex
100
AcDb2dVertex
 10
2.525845072971707
 20
2.793590090666258
 30
0.0
  0
VERTEX
  5
84
330
6E
100
AcDbEntity
  8
Layer 1
 62
     7
420
 16777215
370
    35
100
AcDbVertex
100
AcDb2dVertex
 10
2.564016184940354
 20
2.818289113741558
 30
0.0
  0
VERTEX
  5
85
330
6E
100
AcDbEntity
  8
Layer 1
 62
     7
420
 16777215
370
    35
100
AcDbVertex
100
AcDb2dVertex
 10
2.622393357342692
 20
2.891277220399666
 30
0.0
  0
VERTEX
  5
86
330
6E
100
AcDbEntity
  8
Layer 1
 62
     7
420
 16777215
370
    35
100
AcDbVertex
100
AcDb2dVertex
 10
2.617915037579653
 20
2.981091383970907
 30
0.0
  0
VERTEX
  5
87
330
6E
100
AcDbEntity
  8
Layer 1
 62
     7
420
 16777215
370
    35
100
AcDbVertex
100
AcDb2dVertex
 10
2.524724568522338
 20
3.094469423289486
 30
0.0
  0
VERTEX
  5
88
330
6E
100
AcDbEntity
  8
Layer 1
 62
     7
420
 16777215
370
    35
100
AcDbVertex
100
AcDb2dVertex
 10
2.526961879386616
 20
3.201131831980774
 30
0.0
  0
SEQEND
  5
8A
330
6E
100
AcDbEntity
  8
Layer 1
 62
     7
420
 16777215
370
    35
  0
HATCH
  5
89
330
1F
100
AcDbEntity
  8
Layer 1
 62
   254
420
 13358815
100
AcDbHatch
 10
0.0
 20
0.0
 30
0.0
210
0.0
220
0.0
230
1.0
  2
SOLID
 70
     1
 71
     0
 91
        1
 92
        1
 93
       25
 72
     1
 10
2.526961879386616
 20
3.201131831980774
 11
2.549423740857012
 21
3.211223768094214
 72
     1
 10
2.549423740857012
 20
3.211223768094214
 11
2.832338171204684
 21
3.11355497927381
 72
     1
 10
2.832338171204684
 20
3.11355497927381
 11
2.837955485589545
 21
2.45117783420748
 72
     1
 10
2.837955485589545
 20
2.45117783420748
 11
2.814373119669754
 21
2.436589088158624
 72
     1
 10
2.814373119669754
 20
2.436589088158624
 11
2.814373119669754
 21
2.078449240288566
 72
     1
 10
2.814373119669754
 20
2.078449240288566
 11
2.668437584732879
 21
1.993131886652792
 72
     1
 10
2.668437584732879
 20
1.993131886652792
 11
2.650472696256353
 21
2.006600128252254
 72
     1
 10
2.650472696256353
 20
2.006600128252254
 11
2.650472696256353
 21
2.105407911694429
 72
     1
 10
2.650472696256353
 20
2.105407911694429
 11
2.559538025938587
 21
2.157050963297024
 72
     1
 10
2.559538025938587
 20
2.157050963297024
 11
2.556161559691241
 21
2.29850817847086
 72
     1
 10
2.556161559691241
 20
2.29850817847086
 11
2.651589339612832
 21
2.35015123007348
 72
     1
 10
2.651589339612832
 20
2.35015123007348
 11
2.648213034126759
 21
2.36024316618687
 72
     1
 10
2.648213034126759
 20
2.36024316618687
 11
2.509015318024088
 21
2.288394054150558
 72
     1
 10
2.509015318024088
 20
2.288394054150558
 11
2.239569129275929
 21
2.400655287054254
 72
     1
 10
2.239569129275929
 20
2.400655287054254
 11
2.241810138174666
 21
2.432092278223156
 72
     1
 10
2.241810138174666
 20
2.432092278223156
 11
2.347333552244133
 21
2.48037381647762
 72
     1
 10
2.347333552244133
 20
2.48037381647762
 11
2.491046568454673
 21
2.472519191228507
 72
     1
 10
2.491046568454673
 20
2.472519191228507
 11
2.613418389766543
 21
2.530900061665332
 72
     1
 10
2.613418389766543
 20
2.530900061665332
 11
2.521366753208693
 21
2.567932179012157
 72
     1
 10
2.521366753208693
 20
2.567932179012157
 11
2.525845072971707
 21
2.793590090666258
 72
     1
 10
2.525845072971707
 20
2.793590090666258
 11
2.564016184940354
 21
2.818289113741558
 72
     1
 10
2.564016184940354
 20
2.818289113741558
 11
2.622393357342692
 21
2.891277220399666
 72
     1
 10
2.622393357342692
 20
2.891277220399666
 11
2.617915037579653
 21
2.981091383970907
 72
     1
 10
2.617915037579653
 20
2.981091383970907
 11
2.524724568522338
 21
3.094469423289486
 72
     1
 10
2.524724568522338
 20
3.094469423289486
 11
2.526961879386616
 21
3.201131831980774
 97
        0
 75
     2
 76
     1
 98
        0
  0
POLYLINE
  5
8B
330
1F
100
AcDbEntity
  8
Layer 1
 62
     7
420
 16777215
370
    40
100
AcDb2dPolyline
 66
     1
 10
0.0
 20
0.0
 30
0.0
  0
VERTEX
  5
8C
330
8B
100
AcDbEntity
  8
Layer 1
 62
     7
420
 16777215
370
    40
100
AcDbVertex
100
AcDb2dVertex
 10
3.315086989128556
 20
2.835695762069034
 30
0.0
  0
VERTEX
  5
8D
330
8B
100
AcDbEntity
  8
Layer 1
 62
     7
420
 16777215
370
    40
100
AcDbVertex
100
AcDb2dVertex
 10
3.594643604162583
 20
2.971539514647247
 30
0.0
  0
SEQEND
  5
8E
330
8B
100
AcDbEntity
  8
Layer 1
 62
     7
420
 16777215
370
    40
  0
POLYLINE
  5
8F
330
1F
100
AcDbEntity
  8
Layer 1
 62
     7
420
 16777215
370
    40
100
AcDb2dPolyline
 66
     1
 10
0.0
 20
0.0
 30
0.0
  0
VERTEX
  5
90
330
8F
100
AcDbEntity
  8
Layer 1
 62
     7
420
 16777215
370
    40
100
AcDbVertex
100
AcDb2dVertex
 10
3.365051133074328
 20
2.958629522500511
 30
0.0
  0
VERTEX
  5
91
330
8F
100
AcDbEntity
  8
Layer 1
 62
     7
420
 16777215
370
    40
100
AcDbVertex
100
AcDb2dVertex
 10
3.556472492193936
 20
3.041147464030069
 30
0.0
  0
SEQEND
  5
92
330
8F
100
AcDbEntity
  8
Layer 1
 62
     7
420
 16777215
370
    40
  0
POLYLINE
  5
93
330
1F
100
AcDbEntity
  8
Layer 1
 62
     7
420
 16777215
370
    40
100
AcDb2dPolyline
 66
     1
 10
0.0
 20
0.0
 30
0.0
  0
VERTEX
  5
94
330
93
100
AcDbEntity
  8
Layer 1
 62
     7
420
 16777215
370
    40
100
AcDbVertex
100
AcDb2dVertex
 10
3.317904891407175
 20
3.057418815770234
 30
0.0
  0
VERTEX
  5
95
330
93
100
AcDbEntity
  8
Layer 1
 62
     7
420
 16777215
370
    40
100
AcDbVertex
100
AcDb2dVertex
 10
3.594643604162583
 20
3.181484174754536
 30
0.0
  0
SEQEND
  5
96
330
93
100
AcDbEntity
  8
Layer 1
 62
     7
420
 16777215
370
    40
  0
SPLINE
  5
97
330
1F
100
AcDbEntity
  8
Layer 1
 62
     7
420
 16777215
370
    15
100
AcDbSpline
210
0.0
220
0.0
230
1.0
 70
     8
 71
     3
 72
    11
 73
     7
 74
     0
 42
0.0000000001
 43
0.0000000001
 12
1.0
 22
0.0
 32
0.0
 13
1.0
 23
0.0
 33
0.0
 40
0.0
 40
0.0
 40
0.0
 40
0.0
 40
1.0
 40
1.0
 40
1.0
 40
2.0
 40
2.0
 40
2.0
 40
2.0
 10
1.798334588028006
 20
1.627895630414741
 30
0.0
 10
1.806747474952949
 20
1.63462963140306
 30
0.0
 10
1.821339919036316
 20
1.635750135852428
 30
0.0
 10
1.831450345322107
 20
1.63462963140306
 30
0.0
 10
1.841560771607924
 20
1.633512824988151
 30
0.0
 10
1.868504650875846
 20
1.623960801909789
 30
0.0
 10
1.872439359569398
 20
1.623960801909789
 30
0.0
  0
SPLINE
  5
98
330
1F
100
AcDbEntity
  8
Layer 1
 62
     7
420
 16777215
370
    15
100
AcDbSpline
210
0.0
220
0.0
230
1.0
 70
     8
 71
     3
 72
    17
 73
    13
 74
     0
 42
0.0000000001
 43
0.0000000001
 12
1.0
 22
0.0
 32
0.0
 13
1.0
 23
0.0
 33
0.0
 40
0.0
 40
0.0
 40
0.0
 40
0.0
 40
1.0
 40
1.0
 40
1.0
 40
2.0
 40
2.0
 40
2.0
 40
3.0
 40
3.0
 40
3.0
 40
4.0
 40
4.0
 40
4.0
 40
4.0
 10
1.652942522629019
 20
1.705920340231917
 30
0.0
 10
1.669228666507125
 20
1.70929664571799
 30
0.0
 10
1.69728935218993
 20
1.70759924788874
 30
0.0
 10
1.711896588411239
 20
1.704241432575069
 30
0.0
 10
1.726485334460095
 20
1.700861429054511
 30
0.0
 10
1.766897455327492
 20
1.692448400597944
 30
0.0
 10
1.783183599205586
 20
1.690769492941121
 30
0.0
 10
1.79945495094575
 20
1.689090585284298
 30
0.0
 10
1.824716224522364
 20
1.684035372141377
 30
0.0
 10
1.83930497057122
 20
1.677297553307148
 30
0.0
 10
1.853912206792504
 20
1.670563432507429
 30
0.0
 10
1.872439359569398
 20
1.664387714915114
 30
0.0
 10
1.872439359569398
 20
1.664387714915114
 30
0.0
  0
SPLINE
  5
99
330
1F
100
AcDbEntity
  8
Layer 1
 62
     7
420
 16777215
370
    15
100
AcDbSpline
210
0.0
220
0.0
230
1.0
 70
     8
 71
     3
 72
    23
 73
    19
 74
     0
 42
0.0000000001
 43
0.0000000001
 12
1.0
 22
0.0
 32
0.0
 13
1.0
 23
0.0
 33
0.0
 40
0.0
 40
0.0
 40
0.0
 40
0.0
 40
1.0
 40
1.0
 40
1.0
 40
2.0
 40
2.0
 40
2.0
 40
3.0
 40
3.0
 40
3.0
 40
4.0
 40
4.0
 40
4.0
 40
5.0
 40
5.0
 40
5.0
 40
6.0
 40
6.0
 40
6.0
 40
6.0
 10
1.526092543676466
 20
1.781704160961731
 30
0.0
 10
1.541801929225762
 20
1.780583656512363
 30
0.0
 10
1.565384160094482
 20
1.780025253304908
 30
0.0
 10
1.575476096207871
 20
1.779463152062969
 30
0.0
 10
1.585590220528186
 20
1.778886382308883
 30
0.0
 10
1.645088035040165
 20
1.767111716878389
 30
0.0
 10
1.659676643428737
 20
1.763177008184862
 30
0.0
 10
1.674283879650046
 20
1.759242299491335
 30
0.0
 10
1.710199190581963
 20
1.751387674242222
 30
0.0
 10
1.72704743570201
 20
1.748588262136006
 30
0.0
 10
1.74389198278757
 20
1.745770359857362
 30
0.0
 10
1.7820483026183
 20
1.732860521465353
 30
0.0
 10
1.795535034390165
 20
1.731740017015959
 30
0.0
 10
1.809006974024138
 20
1.730619512566591
 30
0.0
 10
1.846601192612904
 20
1.724443794974301
 30
0.0
 10
1.856153215691266
 20
1.721086101826257
 30
0.0
 10
1.865686748597227
 20
1.717709674174557
 30
0.0
 10
1.872997906194617
 20
1.712654582984239
 30
0.0
 10
1.872997906194617
 20
1.712654582984239
 30
0.0
  0
SPLINE
  5
9A
330
1F
100
AcDbEntity
  8
Layer 1
 62
     7
420
 16777215
370
    15
100
AcDbSpline
210
0.0
220
0.0
230
1.0
 70
     8
 71
     3
 72
    26
 73
    22
 74
     0
 42
0.0000000001
 43
0.0000000001
 12
1.0
 22
0.0
 32
0.0
 13
1.0
 23
0.0
 33
0.0
 40
0.0
 40
0.0
 40
0.0
 40
0.0
 40
1.0
 40
1.0
 40
1.0
 40
2.0
 40
2.0
 40
2.0
 40
3.0
 40
3.0
 40
3.0
 40
4.0
 40
4.0
 40
4.0
 40
5.0
 40
5.0
 40
5.0
 40
6.0
 40
6.0
 40
6.0
 40
7.0
 40
7.0
 40
7.0
 40
7.0
 10
1.446370316218614
 20
1.777207351026264
 30
0.0
 10
1.460400659060017
 20
1.784503573067948
 30
0.0
 10
1.479486215044327
 20
1.794613999353765
 30
0.0
 10
1.489600339364642
 20
1.801348120153509
 30
0.0
 10
1.499710765650459
 20
1.808085938987738
 30
0.0
 10
1.516540520598078
 20
1.817619471893674
 30
0.0
 10
1.523274775980831
 20
1.818754768480984
 30
0.0
 10
1.530008762197566
 20
1.819875272930378
 30
0.0
 10
1.556390540223548
 20
1.813699555338088
 30
0.0
 10
1.564263655645088
 20
1.813141152130634
 30
0.0
 10
1.572118280894225
 20
1.812579050888694
 30
0.0
 10
1.632174360953387
 20
1.800789716946054
 30
0.0
 10
1.64172638403175
 20
1.800789716946054
 30
0.0
 10
1.65125991693771
 20
1.800789716946054
 30
0.0
 10
1.713575635458457
 20
1.785638869655259
 30
0.0
 10
1.727605838909464
 20
1.784503573067948
 30
0.0
 10
1.741636181750866
 20
1.783383068618554
 30
0.0
 10
1.811244284888415
 20
1.763177008184862
 30
0.0
 10
1.825836728971757
 20
1.759819192871216
 30
0.0
 10
1.840443965193041
 20
1.756442887385118
 30
0.0
 10
1.862887336491035
 20
1.748026160894066
 30
0.0
 10
1.871300364947577
 20
1.747467757686637
 30
0.0
  0
SPLINE
  5
9B
330
1F
100
AcDbEntity
  8
Layer 1
 62
     7
420
 16777215
370
    15
100
AcDbSpline
210
0.0
220
0.0
230
1.0
 70
     8
 71
     3
 72
    32
 73
    28
 74
     0
 42
0.0000000001
 43
0.0000000001
 12
1.0
 22
0.0
 32
0.0
 13
1.0
 23
0.0
 33
0.0
 40
0.0
 40
0.0
 40
0.0
 40
0.0
 40
1.0
 40
1.0
 40
1.0
 40
2.0
 40
2.0
 40
2.0
 40
3.0
 40
3.0
 40
3.0
 40
4.0
 40
4.0
 40
4.0
 40
5.0
 40
5.0
 40
5.0
 40
6.0
 40
6.0
 40
6.0
 40
7.0
 40
7.0
 40
7.0
 40
8.0
 40
8.0
 40
8.0
 40
9.0
 40
9.0
 40
9.0
 40
9.0
 10
1.399224074551461
 20
1.787879878554021
 30
0.0
 10
1.407640801042513
 20
1.795734503803134
 30
0.0
 10
1.431223166962304
 20
1.806403333296405
 30
0.0
 10
1.437957287762048
 20
1.809764971050375
 30
0.0
 10
1.444691541159626
 20
1.813141152130634
 30
0.0
 10
1.48566193263663
 20
1.827171494972036
 30
0.0
 10
1.491837650228919
 20
1.835026120221174
 30
0.0
 10
1.498013367821209
 20
1.842880745470287
 30
0.0
 10
1.521595733740999
 20
1.852991171756104
 30
0.0
 10
1.52553057707453
 20
1.85579058386232
 30
0.0
 10
1.52945049372915
 20
1.858608486140939
 30
0.0
 10
1.53674658103177
 20
1.860845797005216
 30
0.0
 10
1.548535914974435
 20
1.859725418223787
 30
0.0
 10
1.560329082470667
 20
1.858608486140939
 30
0.0
 10
1.587269128184996
 20
1.850753860891826
 30
0.0
 10
1.60635468416932
 20
1.847935958613182
 30
0.0
 10
1.625440240153643
 20
1.845136546506991
 30
0.0
 10
1.676524888548784
 20
1.841201837813464
 30
0.0
 10
1.686635314834626
 20
1.838960828914701
 30
0.0
 10
1.696727250948015
 20
1.836705027877997
 30
0.0
 10
1.747811899343156
 20
1.828850402628859
 30
0.0
 10
1.763539640013833
 20
1.825492587315213
 30
0.0
 10
1.779248890512058
 20
1.822116406547012
 30
0.0
 10
1.829213176769523
 20
1.809202745402621
 30
0.0
 10
1.841002368400495
 20
1.805845054395756
 30
0.0
 10
1.852776910205193
 20
1.802468624602877
 30
0.0
 10
1.865128345389773
 20
1.794055596146311
 30
0.0
 10
1.871300364947577
 20
1.797413535553813
 30
0.0
  0
SPLINE
  5
9C
330
1F
100
AcDbEntity
  8
Layer 1
 62
     7
420
 16777215
370
    15
100
AcDbSpline
210
0.0
220
0.0
230
1.0
 70
     8
 71
     3
 72
    35
 73
    31
 74
     0
 42
0.0000000001
 43
0.0000000001
 12
1.0
 22
0.0
 32
0.0
 13
1.0
 23
0.0
 33
0.0
 40
0.0
 40
0.0
 40
0.0
 40
0.0
 40
1.0
 40
1.0
 40
1.0
 40
2.0
 40
2.0
 40
2.0
 40
3.0
 40
3.0
 40
3.0
 40
4.0
 40
4.0
 40
4.0
 40
5.0
 40
5.0
 40
5.0
 40
6.0
 40
6.0
 40
6.0
 40
7.0
 40
7.0
 40
7.0
 40
8.0
 40
8.0
 40
8.0
 40
9.0
 40
9.0
 40
9.0
 40
10.0
 40
10.0
 40
10.0
 40
10.0
 10
1.397545166894613
 20
1.829985699216195
 30
0.0
 10
1.416072319671507
 20
1.837840324465307
 30
0.0
 10
1.426726357026837
 20
1.840639736571524
 30
0.0
 10
1.441315103075693
 20
1.849056463062576
 30
0.0
 10
1.455922339296977
 20
1.85748798169157
 30
0.0
 10
1.492958154678288
 20
1.878252571468693
 30
0.0
 10
1.495776056956932
 20
1.879372949782085
 30
0.0
 10
1.498571904987633
 20
1.880493454231479
 30
0.0
 10
1.519358422876722
 20
1.890604006965254
 30
0.0
 10
1.524395145847191
 20
1.896221194902131
 30
0.0
 10
1.52945049372915
 20
1.901834811252507
 30
0.0
 10
1.540122886517881
 20
1.899579010215803
 30
0.0
 10
1.54517809966079
 20
1.899016908973863
 30
0.0
 10
1.550214822631258
 20
1.898458505766409
 30
0.0
 10
1.573797188551036
 20
1.899016908973863
 30
0.0
 10
1.586148623735628
 20
1.894523923619873
 30
0.0
 10
1.598500058920207
 20
1.890045477309842
 30
0.0
 10
1.638350078545677
 20
1.882749255268183
 30
0.0
 10
1.64734383613389
 20
1.881628750818789
 30
0.0
 10
1.656318828115092
 20
1.880493454231479
 30
0.0
 10
1.679901194034869
 20
1.878814546574656
 30
0.0
 10
1.691672037805094
 20
1.877694042125262
 30
0.0
 10
1.703465069782245
 20
1.876573537675894
 30
0.0
 10
1.729284746566299
 20
1.86983941687615
 30
0.0
 10
1.74389198278757
 20
1.866463111390077
 30
0.0
 10
1.758484426870912
 20
1.863105296076406
 30
0.0
 10
1.782625195998157
 20
1.85748798169157
 30
0.0
 10
1.800013354153205
 20
1.855232180654866
 30
0.0
 10
1.817420002480705
 20
1.852991171756104
 30
0.0
 10
1.866263641977108
 20
1.843457638850168
 30
0.0
 10
1.869621457290754
 20
1.841201837813464
 30
0.0
  0
SPLINE
  5
9D
330
1F
100
AcDbEntity
  8
Layer 1
 62
     7
420
 16777215
370
    15
100
AcDbSpline
210
0.0
220
0.0
230
1.0
 70
     8
 71
     3
 72
    32
 73
    28
 74
     0
 42
0.0000000001
 43
0.0000000001
 12
1.0
 22
0.0
 32
0.0
 13
1.0
 23
0.0
 33
0.0
 40
0.0
 40
0.0
 40
0.0
 40
0.0
 40
1.0
 40
1.0
 40
1.0
 40
2.0
 40
2.0
 40
2.0
 40
3.0
 40
3.0
 40
3.0
 40
4.0
 40
4.0
 40
4.0
 40
5.0
 40
5.0
 40
5.0
 40
6.0
 40
6.0
 40
6.0
 40
7.0
 40
7.0
 40
7.0
 40
8.0
 40
8.0
 40
8.0
 40
9.0
 40
9.0
 40
9.0
 40
9.0
 10
1.398103570102093
 20
1.872076853720349
 30
0.0
 10
1.408757607457422
 20
1.879931352989539
 30
0.0
 10
1.433460477826581
 20
1.890045477309842
 30
0.0
 10
1.440756699868264
 20
1.894523923619873
 30
0.0
 10
1.448067714047865
 20
1.899016908973863
 30
0.0
 10
1.472193691037142
 20
1.909689436501619
 30
0.0
 10
1.483983024979807
 20
1.918106162992672
 30
0.0
 10
1.495776056956932
 20
1.926519191449238
 30
0.0
 10
1.521595733740999
 20
1.939991131083186
 30
0.0
 10
1.524972039227072
 20
1.942246932119891
 30
0.0
 10
1.528329854540756
 20
1.944484370793286
 30
0.0
 10
1.541801929225762
 20
1.947302145262812
 30
0.0
 10
1.551353817253079
 20
1.947302145262812
 30
0.0
 10
1.560887350159015
 20
1.947302145262812
 30
0.0
 10
1.589524929221701
 20
1.941126427670522
 30
0.0
 10
1.598500058920207
 20
1.939991131083186
 30
0.0
 10
1.607475188618714
 20
1.938870626633818
 30
0.0
 10
1.671465977371402
 20
1.929337093727857
 30
0.0
 10
1.68493791700535
 20
1.925960788241784
 30
0.0
 10
1.698409856639324
 20
1.922599274893653
 30
0.0
 10
1.752867112486077
 20
1.914186246437086
 30
0.0
 10
1.770832164021057
 20
1.911930445400382
 30
0.0
 10
1.788782423418019
 20
1.909689436501619
 30
0.0
 10
1.837626062914397
 20
1.899016908973863
 30
0.0
 10
1.84548068816351
 20
1.89733800131704
 30
0.0
 10
1.853353803585075
 20
1.895659093660217
 30
0.0
 10
1.870183558532694
 20
1.89116228372475
 30
0.0
 10
1.870183558532694
 20
1.89116228372475
 30
0.0
  0
SPLINE
  5
9E
330
1F
100
AcDbEntity
  8
Layer 1
 62
     7
420
 16777215
370
    15
100
AcDbSpline
210
0.0
220
0.0
230
1.0
 70
     8
 71
     3
 72
    41
 73
    37
 74
     0
 42
0.0000000001
 43
0.0000000001
 12
1.0
 22
0.0
 32
0.0
 13
1.0
 23
0.0
 33
0.0
 40
0.0
 40
0.0
 40
0.0
 40
0.0
 40
1.0
 40
1.0
 40
1.0
 40
2.0
 40
2.0
 40
2.0
 40
3.0
 40
3.0
 40
3.0
 40
4.0
 40
4.0
 40
4.0
 40
5.0
 40
5.0
 40
5.0
 40
6.0
 40
6.0
 40
6.0
 40
7.0
 40
7.0
 40
7.0
 40
8.0
 40
8.0
 40
8.0
 40
9.0
 40
9.0
 40
9.0
 40
10.0
 40
10.0
 40
10.0
 40
11.0
 40
11.0
 40
11.0
 40
12.0
 40
12.0
 40
12.0
 40
12.0
 10
1.336912193455608
 20
1.894523923619873
 30
0.0
 10
1.349259930605702
 20
1.902955442461891
 30
0.0
 10
1.365549772518294
 20
1.914186246437086
 30
0.0
 10
1.37284229652548
 20
1.918106162992672
 30
0.0
 10
1.380138518567151
 20
1.922040871686199
 30
0.0
 10
1.39248995375173
 20
1.922599274893653
 30
0.0
 10
1.39642466244527
 20
1.925960788241784
 30
0.0
 10
1.402023486657678
 20
1.923161376135567
 30
0.0
 10
1.409896602079218
 20
1.920343473856949
 30
0.0
 10
1.415495426291651
 20
1.924278182550476
 30
0.0
 10
1.421109042642001
 20
1.928216589278488
 30
0.0
 10
1.453108135052844
 20
1.945046344226107
 30
0.0
 10
1.458721751403194
 20
1.947860548470266
 30
0.0
 10
1.464339065788029
 20
1.950660088541554
 30
0.0
 10
1.492958154678288
 20
1.975921234153071
 30
0.0
 10
1.500269168857914
 20
1.977041738602439
 30
0.0
 10
1.507565390899597
 20
1.978162243051833
 30
0.0
 10
1.521037330533545
 20
1.98827266933765
 30
0.0
 10
1.52553057707453
 20
1.992211076065663
 30
0.0
 10
1.530008762197566
 20
1.996127294586763
 30
0.0
 10
1.537304984239224
 20
1.993327882480571
 30
0.0
 10
1.546298604110158
 20
1.993327882480571
 30
0.0
 10
1.555270035774179
 20
1.993327882480571
 30
0.0
 10
1.583911312871351
 20
1.986593761680827
 30
0.0
 10
1.595123753434109
 20
1.986035358473373
 30
0.0
 10
1.60635468416932
 20
1.985454767059006
 30
0.0
 10
1.656318828115092
 20
1.975362959534828
 30
0.0
 10
1.661374041258012
 20
1.974804427738187
 30
0.0
 10
1.666429254400908
 20
1.974242326496248
 30
0.0
 10
1.718630709210957
 20
1.971443042880234
 30
0.0
 10
1.727605838909464
 20
1.968066608903958
 30
0.0
 10
1.73658096860797
 20
1.96469030341786
 30
0.0
 10
1.770832164021057
 20
1.95851458582557
 30
0.0
 10
1.783183599205586
 20
1.95851458582557
 30
0.0
 10
1.795535034390165
 20
1.95851458582557
 30
0.0
 10
1.844922284956081
 20
1.952357358405708
 30
0.0
 10
1.852776910205193
 20
1.95290096947522
 30
0.0
  0
SPLINE
  5
9F
330
1F
100
AcDbEntity
  8
Layer 1
 62
     7
420
 16777215
370
    15
100
AcDbSpline
210
0.0
220
0.0
230
1.0
 70
     8
 71
     3
 72
    41
 73
    37
 74
     0
 42
0.0000000001
 43
0.0000000001
 12
1.0
 22
0.0
 32
0.0
 13
1.0
 23
0.0
 33
0.0
 40
0.0
 40
0.0
 40
0.0
 40
0.0
 40
1.0
 40
1.0
 40
1.0
 40
2.0
 40
2.0
 40
2.0
 40
3.0
 40
3.0
 40
3.0
 40
4.0
 40
4.0
 40
4.0
 40
5.0
 40
5.0
 40
5.0
 40
6.0
 40
6.0
 40
6.0
 40
7.0
 40
7.0
 40
7.0
 40
8.0
 40
8.0
 40
8.0
 40
9.0
 40
9.0
 40
9.0
 40
10.0
 40
10.0
 40
10.0
 40
11.0
 40
11.0
 40
11.0
 40
12.0
 40
12.0
 40
12.0
 40
12.0
 10
1.209485321123136
 20
1.941126427670522
 30
0.0
 10
1.228570877107497
 20
1.942805335327345
 30
0.0
 10
1.251032738577869
 20
1.942805335327345
 30
0.0
 10
1.268997918272273
 20
1.941126427670522
 30
0.0
 10
1.286948049509824
 20
1.939429029841247
 30
0.0
 10
1.304913101044766
 20
1.936629617735055
 30
0.0
 10
1.309968314187687
 20
1.936071214527601
 30
0.0
 10
1.315027225365081
 20
1.935512811320147
 30
0.0
 10
1.33129487907076
 20
1.943367436569285
 30
0.0
 10
1.34140543534521
 20
1.94842264971218
 30
0.0
 10
1.351501069748135
 20
1.953477862855101
 30
0.0
 10
1.39248995375173
 20
1.968066608903958
 30
0.0
 10
1.39248995375173
 20
1.968066608903958
 30
0.0
 10
1.39248995375173
 20
1.968066608903958
 30
0.0
 10
1.399786175793401
 20
1.973683923288793
 30
0.0
 10
1.399786175793401
 20
1.973683923288793
 30
0.0
 10
1.399786175793401
 20
1.973683923288793
 30
0.0
 10
1.422806440471251
 20
1.978739136431715
 30
0.0
 10
1.435157875655831
 20
1.986593761680827
 30
0.0
 10
1.447490820667983
 20
1.99444838692994
 30
0.0
 10
1.47387259869399
 20
2.006799822114519
 30
0.0
 10
1.476686802938123
 20
2.007920326563913
 30
0.0
 10
1.479486215044327
 20
2.009037132978796
 30
0.0
 10
1.524395145847191
 20
2.030382188034309
 30
0.0
 10
1.524395145847191
 20
2.030382188034309
 30
0.0
 10
1.524395145847191
 20
2.030382188034309
 30
0.0
 10
1.532268261268756
 20
2.038795216490876
 30
0.0
 10
1.540681289725323
 20
2.035981012246717
 30
0.0
 10
1.549098016216375
 20
2.033181600140526
 30
0.0
 10
1.554153364722348
 20
2.029805294654428
 30
0.0
 10
1.570439373237377
 20
2.028126386997605
 30
0.0
 10
1.586707026943082
 20
2.026443781306297
 30
0.0
 10
1.642288485273689
 20
2.017453859469848
 30
0.0
 10
1.651822018179625
 20
2.01633335502048
 30
0.0
 10
1.661374041258012
 20
2.015212850571086
 30
0.0
 10
1.717495552113102
 20
2.015212850571086
 30
0.0
 10
1.724229533423365
 20
2.01633335502048
 30
0.0
  0
SPLINE
  5
A0
330
1F
100
AcDbEntity
  8
Layer 1
 62
     7
420
 16777215
370
    15
100
AcDbSpline
210
0.0
220
0.0
230
1.0
 70
     8
 71
     3
 72
    35
 73
    31
 74
     0
 42
0.0000000001
 43
0.0000000001
 12
1.0
 22
0.0
 32
0.0
 13
1.0
 23
0.0
 33
0.0
 40
0.0
 40
0.0
 40
0.0
 40
0.0
 40
1.0
 40
1.0
 40
1.0
 40
2.0
 40
2.0
 40
2.0
 40
3.0
 40
3.0
 40
3.0
 40
4.0
 40
4.0
 40
4.0
 40
5.0
 40
5.0
 40
5.0
 40
6.0
 40
6.0
 40
6.0
 40
7.0
 40
7.0
 40
7.0
 40
8.0
 40
8.0
 40
8.0
 40
9.0
 40
9.0
 40
9.0
 40
10.0
 40
10.0
 40
10.0
 40
10.0
 10
1.100600393705564
 20
2.001182507729684
 30
0.0
 10
1.121927083032763
 20
2.000624104522229
 30
0.0
 10
1.158419162900448
 20
1.997824692416038
 30
0.0
 10
1.171329001292482
 20
1.996689395828702
 30
0.0
 10
1.184224047546561
 20
1.995568891379333
 30
0.0
 10
1.21286175335058
 20
1.989951576994473
 30
0.0
 10
1.231385081351643
 20
1.989393173787019
 30
0.0
 10
1.249912234128512
 20
1.98883477057959
 30
0.0
 10
1.302675790180501
 20
1.978162243051833
 30
0.0
 10
1.307172600115955
 20
1.980980145330477
 30
0.0
 10
1.311650919878995
 20
1.983775859402183
 30
0.0
 10
1.330736475863318
 20
1.98827266933765
 30
0.0
 10
1.33747059666305
 20
1.992769479273117
 30
0.0
 10
1.344204717462794
 20
1.997247799036156
 30
0.0
 10
1.367787083382571
 20
2.008478729771342
 30
0.0
 10
1.3745249022168
 20
2.011296632049986
 30
0.0
 10
1.381259023016532
 20
2.014096044156203
 30
0.0
 10
1.39472726461602
 20
2.024764873649474
 30
0.0
 10
1.400344579000855
 20
2.028684790205059
 30
0.0
 10
1.405958195351205
 20
2.032619498898586
 30
0.0
 10
1.431781570169758
 20
2.038236813283422
 30
0.0
 10
1.434580982275949
 20
2.039915720940245
 30
0.0
 10
1.437395186520108
 20
2.041594758859421
 30
0.0
 10
1.519916826084176
 20
2.07303161976597
 30
0.0
 10
1.524972039227072
 20
2.073590022973424
 30
0.0
 10
1.530008762197566
 20
2.074152124215364
 30
0.0
 10
1.544057730319436
 20
2.071911115316602
 30
0.0
 10
1.552474321702448
 20
2.06911540124487
 30
0.0
 10
1.560887350159015
 20
2.066297629852619
 30
0.0
 10
1.609172586447964
 20
2.071352712109147
 30
0.0
 10
1.620385164046967
 20
2.067976406623075
 30
0.0
  0
POLYLINE
  5
A1
330
1F
100
AcDbEntity
  8
Layer 1
 62
     7
420
 16777215
370
    40
100
AcDb2dPolyline
 66
     1
 10
0.0
 20
0.0
 30
0.0
  0
VERTEX
  5
A2
330
A1
100
AcDbEntity
  8
Layer 1
 62
     7
420
 16777215
370
    40
100
AcDbVertex
100
AcDb2dVertex
 10
1.520493719464007
 20
2.117197245637069
 30
0.0
  0
VERTEX
  5
A3
330
A1
100
AcDbEntity
  8
Layer 1
 62
     7
420
 16777215
370
    40
100
AcDbVertex
100
AcDb2dVertex
 10
1.521055955232972
 20
1.774770346299723
 30
0.0
  0
SEQEND
  5
A4
330
A1
100
AcDbEntity
  8
Layer 1
 62
     7
420
 16777215
370
    40
  0
SPLINE
  5
A5
330
1F
100
AcDbEntity
  8
Layer 1
 62
     7
420
 16777215
370
    15
100
AcDbSpline
210
0.0
220
0.0
230
1.0
 70
     8
 71
     3
 72
    35
 73
    31
 74
     0
 42
0.0000000001
 43
0.0000000001
 12
1.0
 22
0.0
 32
0.0
 13
1.0
 23
0.0
 33
0.0
 40
0.0
 40
0.0
 40
0.0
 40
0.0
 40
1.0
 40
1.0
 40
1.0
 40
2.0
 40
2.0
 40
2.0
 40
3.0
 40
3.0
 40
3.0
 40
4.0
 40
4.0
 40
4.0
 40
5.0
 40
5.0
 40
5.0
 40
6.0
 40
6.0
 40
6.0
 40
7.0
 40
7.0
 40
7.0
 40
8.0
 40
8.0
 40
8.0
 40
9.0
 40
9.0
 40
9.0
 40
10.0
 40
10.0
 40
10.0
 40
10.0
 10
0.9933795818068221
 20
2.058442873717114
 30
0.0
 10
1.014144045447968
 20
2.059563378166508
 30
0.0
 10
1.034912329369553
 20
2.060121912104326
 30
0.0
 10
1.051198351001719
 20
2.057880772475199
 30
0.0
 10
1.067466004707398
 20
2.055643461610922
 30
0.0
 10
1.119685949689913
 20
2.050026277701439
 30
0.0
 10
1.132018894702027
 20
2.051146651675456
 30
0.0
 10
1.144370329886606
 20
2.052267156124824
 30
0.0
 10
1.189837663896924
 20
2.046091438532534
 30
0.0
 10
1.203309603530885
 20
2.044970934083166
 30
0.0
 10
1.216796335302787
 20
2.043850559953095
 30
0.0
 10
1.260566399430281
 20
2.042715133046461
 30
0.0
 10
1.272917834926918
 20
2.038795216490876
 30
0.0
 10
1.285269270423517
 20
2.034860507797349
 30
0.0
 10
1.294259063689449
 20
2.032619498898586
 30
0.0
 10
1.305475202286705
 20
2.033181600140526
 30
0.0
 10
1.316706133021866
 20
2.033740003347955
 30
0.0
 10
1.342525809805958
 20
2.045533035325105
 30
0.0
 10
1.35375687084181
 20
2.046091438532534
 30
0.0
 10
1.364972879138425
 20
2.046649841739989
 30
0.0
 10
1.395289365857934
 20
2.055643461610922
 30
0.0
 10
1.399786175793401
 20
2.062939683652581
 30
0.0
 10
1.404279287694395
 20
2.070232207659779
 30
0.0
 10
1.410455005286672
 20
2.079765740565714
 30
0.0
 10
1.417751227328356
 20
2.083142046051813
 30
0.0
 10
1.425047449370014
 20
2.086503559399944
 30
0.0
 10
1.444691541159626
 20
2.097172388893215
 30
0.0
 10
1.45142552936151
 20
2.098854994584523
 30
0.0
 10
1.45816334819574
 20
2.100552392413773
 30
0.0
 10
1.476128399730694
 20
2.122995763711742
 30
0.0
 10
1.483424621772353
 20
2.121875259262374
 30
0.0
  0
POLYLINE
  5
A6
330
1F
100
AcDbEntity
  8
Layer 1
 62
     7
420
 16777215
370
    40
100
AcDb2dPolyline
 66
     1
 10
0.0
 20
0.0
 30
0.0
  0
VERTEX
  5
A7
330
A6
100
AcDbEntity
  8
Layer 1
 62
     7
420
 16777215
370
    40
100
AcDbVertex
100
AcDb2dVertex
 10
1.397005253859637
 20
2.124493467678753
 30
0.0
  0
VERTEX
  5
A8
330
A6
100
AcDbEntity
  8
Layer 1
 62
     7
420
 16777215
370
    40
100
AcDbVertex
100
AcDb2dVertex
 10
1.393066978425319
 20
1.898277302076571
 30
0.0
  0
SEQEND
  5
A9
330
A6
100
AcDbEntity
  8
Layer 1
 62
     7
420
 16777215
370
    40
  0
POLYLINE
  5
AA
330
1F
100
AcDbEntity
  8
Layer 1
 62
     7
420
 16777215
370
    40
100
AcDb2dPolyline
 66
     1
 10
0.0
 20
0.0
 30
0.0
  0
VERTEX
  5
AB
330
AA
100
AcDbEntity
  8
Layer 1
 62
     7
420
 16777215
370
    40
100
AcDbVertex
100
AcDb2dVertex
 10
1.299894868246724
 20
2.226640576262146
 30
0.0
  0
VERTEX
  5
AC
330
AA
100
AcDbEntity
  8
Layer 1
 62
     7
420
 16777215
370
    40
100
AcDbVertex
100
AcDb2dVertex
 10
1.30325268356037
 20
1.893222088933675
 30
0.0
  0
SEQEND
  5
AD
330
AA
100
AcDbEntity
  8
Layer 1
 62
     7
420
 16777215
370
    40
  0
SPLINE
  5
AE
330
1F
100
AcDbEntity
  8
Layer 1
 62
     7
420
 16777215
370
    15
100
AcDbSpline
210
0.0
220
0.0
230
1.0
 70
     8
 71
     3
 72
    26
 73
    22
 74
     0
 42
0.0000000001
 43
0.0000000001
 12
1.0
 22
0.0
 32
0.0
 13
1.0
 23
0.0
 33
0.0
 40
0.0
 40
0.0
 40
0.0
 40
0.0
 40
1.0
 40
1.0
 40
1.0
 40
2.0
 40
2.0
 40
2.0
 40
3.0
 40
3.0
 40
3.0
 40
4.0
 40
4.0
 40
4.0
 40
5.0
 40
5.0
 40
5.0
 40
6.0
 40
6.0
 40
6.0
 40
7.0
 40
7.0
 40
7.0
 40
7.0
 10
0.9254505058068186
 20
2.105027014142327
 30
0.0
 10
0.9462148499672542
 20
2.106147518591696
 30
0.0
 10
0.987765965456472
 20
2.102231300070596
 30
0.0
 10
1.005731016991414
 20
2.099413397791977
 30
0.0
 10
1.023696068526343
 20
2.096613985685761
 30
0.0
 10
1.086551560691722
 20
2.090438268093471
 30
0.0
 10
1.103958209019184
 20
2.088182467056766
 30
0.0
 10
1.12136485734671
 20
2.085941458158004
 30
0.0
 10
1.159539667349867
 20
2.083704147293727
 30
0.0
 10
1.177486228712344
 20
2.080327841807654
 30
0.0
 10
1.195454978281759
 20
2.076970026494008
 30
0.0
 10
1.231385081351643
 20
2.069673804452325
 30
0.0
 10
1.252153243027275
 20
2.068553430946293
 30
0.0
 10
1.272917834926918
 20
2.06741800341562
 30
0.0
 10
1.296500072588211
 20
2.062939683652581
 30
0.0
 10
1.30773100332341
 20
2.065735397724312
 30
0.0
 10
1.31894344388618
 20
2.068553430946293
 30
0.0
 10
1.333550680107464
 20
2.077528429701437
 30
0.0
 10
1.347022619741425
 20
2.078649065349257
 30
0.0
 10
1.360494559375386
 20
2.079765740565714
 30
0.0
 10
1.387993143816276
 20
2.092679276992233
 30
0.0
 10
1.399224074551461
 20
2.090996671300925
 30
0.0
  0
SPLINE
  5
AF
330
1F
100
AcDbEntity
  8
Layer 1
 62
     7
420
 16777215
370
    15
100
AcDbSpline
210
0.0
220
0.0
230
1.0
 70
     8
 71
     3
 72
    32
 73
    28
 74
     0
 42
0.0000000001
 43
0.0000000001
 12
1.0
 22
0.0
 32
0.0
 13
1.0
 23
0.0
 33
0.0
 40
0.0
 40
0.0
 40
0.0
 40
0.0
 40
1.0
 40
1.0
 40
1.0
 40
2.0
 40
2.0
 40
2.0
 40
3.0
 40
3.0
 40
3.0
 40
4.0
 40
4.0
 40
4.0
 40
5.0
 40
5.0
 40
5.0
 40
6.0
 40
6.0
 40
6.0
 40
7.0
 40
7.0
 40
7.0
 40
8.0
 40
8.0
 40
8.0
 40
9.0
 40
9.0
 40
9.0
 40
9.0
 10
0.9254505058068186
 20
2.146016028389593
 30
0.0
 10
0.9456564467598128
 20
2.147698634080926
 30
0.0
 10
0.954646368596261
 20
2.146578129631532
 30
0.0
 10
0.9714761235438674
 20
2.14096094801923
 30
0.0
 10
0.9883243686639136
 20
2.135347198896347
 30
0.0
 10
1.012465259470029
 20
2.13028828771894
 30
0.0
 10
1.034350105881673
 20
2.13085038896088
 30
0.0
 10
1.056253564144628
 20
2.131408792168309
 30
0.0
 10
1.073083319092247
 20
2.126353711428919
 30
0.0
 10
1.096665685012024
 20
2.124116268161136
 30
0.0
 10
1.120248050931852
 20
2.121875259262374
 30
0.0
 10
1.145490834335988
 20
2.106147518591696
 30
0.0
 10
1.166273788149573
 20
2.110085925319734
 30
0.0
 10
1.18703825179072
 20
2.114020634013261
 30
0.0
 10
1.213978433024156
 20
2.109523824077794
 30
0.0
 10
1.232505585801025
 20
2.106147518591696
 30
0.0
 10
1.251032738577869
 20
2.10278970327805
 30
0.0
 10
1.294821164931376
 20
2.097734490135154
 30
0.0
 10
1.306610498874028
 20
2.099971800999406
 30
0.0
 10
1.318385040678726
 20
2.102231300070596
 30
0.0
 10
1.336912193455608
 20
2.110644328527163
 30
0.0
 10
1.345343712084564
 20
2.112323236184011
 30
0.0
 10
1.35375687084181
 20
2.114020634013261
 30
0.0
 10
1.376203940741321
 20
2.120736264640553
 30
0.0
 10
1.380138518567151
 20
2.123554166919196
 30
0.0
 10
1.384058435122736
 20
2.126353711428919
 30
0.0
 10
1.400902982208309
 20
2.129729884511486
 30
0.0
 10
1.400902982208309
 20
2.129729884511486
 30
0.0
  0
SPLINE
  5
B0
330
1F
100
AcDbEntity
  8
Layer 1
 62
     7
420
 16777215
370
    15
100
AcDbSpline
210
0.0
220
0.0
230
1.0
 70
     8
 71
     3
 72
    35
 73
    31
 74
     0
 42
0.0000000001
 43
0.0000000001
 12
1.0
 22
0.0
 32
0.0
 13
1.0
 23
0.0
 33
0.0
 40
0.0
 40
0.0
 40
0.0
 40
0.0
 40
1.0
 40
1.0
 40
1.0
 40
2.0
 40
2.0
 40
2.0
 40
3.0
 40
3.0
 40
3.0
 40
4.0
 40
4.0
 40
4.0
 40
5.0
 40
5.0
 40
5.0
 40
6.0
 40
6.0
 40
6.0
 40
7.0
 40
7.0
 40
7.0
 40
8.0
 40
8.0
 40
8.0
 40
9.0
 40
9.0
 40
9.0
 40
10.0
 40
10.0
 40
10.0
 40
10.0
 10
0.9254505058068186
 20
2.189227561363219
 30
0.0
 10
0.9439776590517365
 20
2.189227561363219
 30
0.0
 10
0.9568873774950108
 20
2.187548653706396
 30
0.0
 10
0.9714761235438674
 20
2.185307644807633
 30
0.0
 10
0.986083359765189
 20
2.183051843770929
 30
0.0
 10
1.011348331376249
 20
2.184172348220298
 30
0.0
 10
1.030433887360573
 20
2.178573524007889
 30
0.0
 10
1.049519565959864
 20
2.172959907657539
 30
0.0
 10
1.081514837721241
 20
2.169021500929501
 30
0.0
 10
1.098902995876301
 20
2.16622208882331
 30
0.0
 10
1.116309644203789
 20
2.163408017918755
 30
0.0
 10
1.134836796980671
 20
2.156670065744922
 30
0.0
 10
1.148867139822073
 20
2.158348973401745
 30
0.0
 10
1.162897482663488
 20
2.16004637123102
 30
0.0
 10
1.188717159447543
 20
2.154432754880645
 30
0.0
 10
1.202189099081503
 20
2.151056582422168
 30
0.0
 10
1.215675830853406
 20
2.147698634080926
 30
0.0
 10
1.241480715499519
 20
2.149935944945178
 30
0.0
 10
1.252711646234729
 20
2.146578129631532
 30
0.0
 10
1.26394257696989
 20
2.143201824145459
 30
0.0
 10
1.292561665860186
 20
2.139281907589874
 30
0.0
 10
1.304354697837324
 20
2.14096094801923
 30
0.0
 10
1.316144031779976
 20
2.14263972290352
 30
0.0
 10
1.338591101112431
 20
2.151056582422168
 30
0.0
 10
1.35375687084181
 20
2.157232300170461
 30
0.0
 10
1.368907587831952
 20
2.163408017918755
 30
0.0
 10
1.400902982208309
 20
2.175755621729246
 30
0.0
 10
1.403720884486928
 20
2.178573524007889
 30
0.0
 10
1.406520296593145
 20
2.181372936114081
 30
0.0
 10
1.417751227328356
 20
2.186428149257002
 30
0.0
 10
1.417751227328356
 20
2.186428149257002
 30
0.0
  0
SPLINE
  5
B1
330
1F
100
AcDbEntity
  8
Layer 1
 62
     7
420
 16777215
370
    15
100
AcDbSpline
210
0.0
220
0.0
230
1.0
 70
     8
 71
     3
 72
    29
 73
    25
 74
     0
 42
0.0000000001
 43
0.0000000001
 12
1.0
 22
0.0
 32
0.0
 13
1.0
 23
0.0
 33
0.0
 40
0.0
 40
0.0
 40
0.0
 40
0.0
 40
1.0
 40
1.0
 40
1.0
 40
2.0
 40
2.0
 40
2.0
 40
3.0
 40
3.0
 40
3.0
 40
4.0
 40
4.0
 40
4.0
 40
5.0
 40
5.0
 40
5.0
 40
6.0
 40
6.0
 40
6.0
 40
7.0
 40
7.0
 40
7.0
 40
8.0
 40
8.0
 40
8.0
 40
8.0
 10
0.9248919831186665
 20
2.234694895373524
 30
0.0
 10
0.9445359423104693
 20
2.236392293202774
 30
0.0
 10
0.9883243686639136
 20
2.223464099495054
 30
0.0
 10
1.006289541721748
 20
2.222901863396373
 30
0.0
 10
1.024258169768283
 20
2.222343460188944
 30
0.0
 10
1.085993157484268
 20
2.209992025004365
 30
0.0
 10
1.101162494947491
 20
2.211131019626161
 30
0.0
 10
1.116309644203789
 20
2.212251524075555
 30
0.0
 10
1.155042857414363
 20
2.206634209690694
 30
0.0
 10
1.176369422297449
 20
2.204955302033871
 30
0.0
 10
1.197710779318464
 20
2.203257904204621
 30
0.0
 10
1.225771465001281
 20
2.198779584441581
 30
0.0
 10
1.239801807842696
 20
2.198221181234127
 30
0.0
 10
1.253832150684098
 20
2.197659079992213
 30
0.0
 10
1.294821164931376
 20
2.187548653706396
 30
0.0
 10
1.304913101044766
 20
2.191483362399923
 30
0.0
 10
1.315027225365081
 20
2.195403278955508
 30
0.0
 10
1.333968558004434
 20
2.197263390302169
 30
0.0
 10
1.344204717462794
 20
2.200458492098404
 30
0.0
 10
1.353198337333715
 20
2.203257904204621
 30
0.0
 10
1.365549772518294
 20
2.204955302033871
 30
0.0
 10
1.373962800974861
 20
2.210554126246279
 30
0.0
 10
1.38237965848964
 20
2.216167742596654
 30
0.0
 10
1.416630722878962
 20
2.234694895373524
 30
0.0
 10
1.430661065720364
 20
2.234694895373524
 30
0.0
  0
SPLINE
  5
B2
330
1F
100
AcDbEntity
  8
Layer 1
 62
     7
420
 16777215
370
    15
100
AcDbSpline
210
0.0
220
0.0
230
1.0
 70
     8
 71
     3
 72
    23
 73
    19
 74
     0
 42
0.0000000001
 43
0.0000000001
 12
1.0
 22
0.0
 32
0.0
 13
1.0
 23
0.0
 33
0.0
 40
0.0
 40
0.0
 40
0.0
 40
0.0
 40
1.0
 40
1.0
 40
1.0
 40
2.0
 40
2.0
 40
2.0
 40
3.0
 40
3.0
 40
3.0
 40
4.0
 40
4.0
 40
4.0
 40
5.0
 40
5.0
 40
5.0
 40
6.0
 40
6.0
 40
6.0
 40
6.0
 10
0.9243298818767268
 20
2.280720632591283
 30
0.0
 10
0.9467769512091939
 20
2.282980131662473
 30
0.0
 10
0.9535295621813651
 20
2.276242312828243
 30
0.0
 10
0.9832691555210051
 20
2.273986511791539
 30
0.0
 10
1.01302723903311
 20
2.271745502892776
 30
0.0
 10
1.046143137858811
 20
2.270628696477893
 30
0.0
 10
1.061290287115109
 20
2.268387687579131
 30
0.0
 10
1.076459624578332
 20
2.266131886542426
 30
0.0
 10
1.096665685012024
 20
2.262774207078564
 30
0.0
 10
1.109017120196616
 20
2.259397765742682
 30
0.0
 10
1.12136485734671
 20
2.256021460256609
 30
0.0
 10
1.142133019022342
 20
2.249860534802262
 30
0.0
 10
1.161776978214107
 20
2.25154314049357
 30
0.0
 10
1.181424635440357
 20
2.253222048150393
 30
0.0
 10
1.234184493457848
 20
2.244247053833634
 30
0.0
 10
1.243736516536223
 20
2.243126414002518
 30
0.0
 10
1.253270049442171
 20
2.242005909553124
 30
0.0
 10
1.268997918272273
 20
2.243126414002518
 30
0.0
 10
1.279093552675199
 20
2.238629604067051
 30
0.0
  0
SPLINE
  5
B3
330
1F
100
AcDbEntity
  8
Layer 1
 62
     7
420
 16777215
370
    15
100
AcDbSpline
210
0.0
220
0.0
230
1.0
 70
     8
 71
     3
 72
    17
 73
    13
 74
     0
 42
0.0000000001
 43
0.0000000001
 12
1.0
 22
0.0
 32
0.0
 13
1.0
 23
0.0
 33
0.0
 40
0.0
 40
0.0
 40
0.0
 40
0.0
 40
1.0
 40
1.0
 40
1.0
 40
2.0
 40
2.0
 40
2.0
 40
3.0
 40
3.0
 40
3.0
 40
4.0
 40
4.0
 40
4.0
 40
4.0
 10
0.9243298818767268
 20
2.327326961223384
 30
0.0
 10
0.9450943455178731
 20
2.325629563394134
 30
0.0
 10
0.9759729334793342
 20
2.319453845801844
 30
0.0
 10
0.9917006741499992
 20
2.314975526038805
 30
0.0
 10
1.007409924648237
 20
2.310478853158302
 30
0.0
 10
1.047259944273694
 20
2.307102410617265
 30
0.0
 10
1.063549786186299
 20
2.301503586404856
 30
0.0
 10
1.079817439891978
 20
2.295889970054506
 30
0.0
 10
1.122485361796079
 20
2.29139316011904
 30
0.0
 10
1.135957301430052
 20
2.29139316011904
 30
0.0
 10
1.149425543029527
 20
2.29139316011904
 30
0.0
 10
1.169631729112464
 20
2.294192572225231
 30
0.0
 10
1.183103543097155
 20
2.288035344805369
 30
0.0
  0
SPLINE
  5
B4
330
1F
100
AcDbEntity
  8
Layer 1
 62
     7
420
 16777215
370
    15
100
AcDbSpline
210
0.0
220
0.0
230
1.0
 70
     8
 71
     3
 72
    11
 73
     7
 74
     0
 42
0.0000000001
 43
0.0000000001
 12
1.0
 22
0.0
 32
0.0
 13
1.0
 23
0.0
 33
0.0
 40
0.0
 40
0.0
 40
0.0
 40
0.0
 40
1.0
 40
1.0
 40
1.0
 40
2.0
 40
2.0
 40
2.0
 40
2.0
 10
0.9243298818767268
 20
2.375031606097991
 30
0.0
 10
0.9439776590517365
 20
2.370534934734602
 30
0.0
 10
0.9636214982947547
 20
2.368297485298247
 30
0.0
 10
0.9759729334793342
 20
2.370534934734602
 30
0.0
 10
0.9883243686639136
 20
2.372794295233714
 30
0.0
 10
1.000675803848493
 20
2.378970012826004
 30
0.0
 10
1.009650933546999
 20
2.375593707339906
 30
0.0
  0
POLYLINE
  5
B5
330
1F
100
AcDbEntity
  8
Layer 1
 62
     7
420
 16777215
370
    40
100
AcDb2dPolyline
 66
     1
 10
0.0
 20
0.0
 30
0.0
  0
VERTEX
  5
B6
330
B5
100
AcDbEntity
  8
Layer 1
 62
     7
420
 16777215
370
    40
100
AcDbVertex
100
AcDb2dVertex
 10
1.865705238769654
 20
1.947102451400547
 30
0.0
  0
VERTEX
  5
B7
330
B5
100
AcDbEntity
  8
Layer 1
 62
     7
420
 16777215
370
    40
100
AcDbVertex
100
AcDb2dVertex
 10
1.870202048705121
 20
1.59122210260168
 30
0.0
  0
SEQEND
  5
B8
330
B5
100
AcDbEntity
  8
Layer 1
 62
     7
420
 16777215
370
    40
  0
POLYLINE
  5
B9
330
1F
100
AcDbEntity
  8
Layer 1
 62
     7
420
 16777215
370
    40
100
AcDb2dPolyline
 66
     1
 10
0.0
 20
0.0
 30
0.0
  0
VERTEX
  5
BA
330
B9
100
AcDbEntity
  8
Layer 1
 62
     7
420
 16777215
370
    40
100
AcDbVertex
100
AcDb2dVertex
 10
3.309473372778181
 20
3.528951495096837
 30
0.0
  0
VERTEX
  5
BB
330
B9
100
AcDbEntity
  8
Layer 1
 62
     7
420
 16777215
370
    40
100
AcDbVertex
100
AcDb2dVertex
 10
3.313970182713648
 20
3.058554268310445
 30
0.0
  0
VERTEX
  5
BC
330
B9
100
AcDbEntity
  8
Layer 1
 62
     7
420
 16777215
370
    40
100
AcDbVertex
100
AcDb2dVertex
 10
3.363372225417505
 20
2.958629522500511
 30
0.0
  0
VERTEX
  5
BD
330
B9
100
AcDbEntity
  8
Layer 1
 62
     7
420
 16777215
370
    40
100
AcDbVertex
100
AcDb2dVertex
 10
3.266805450874092
 20
2.913720591697635
 30
0.0
  0
VERTEX
  5
BE
330
B9
100
AcDbEntity
  8
Layer 1
 62
     7
420
 16777215
370
    40
100
AcDbVertex
100
AcDb2dVertex
 10
3.312849678264279
 20
2.835137358861617
 30
0.0
  0
VERTEX
  5
BF
330
B9
100
AcDbEntity
  8
Layer 1
 62
     7
420
 16777215
370
    40
100
AcDbVertex
100
AcDb2dVertex
 10
3.315086989128556
 20
2.271549507064997
 30
0.0
  0
SEQEND
  5
C0
330
B9
100
AcDbEntity
  8
Layer 1
 62
     7
420
 16777215
370
    40
  0
POLYLINE
  5
C1
330
1F
100
AcDbEntity
  8
Layer 1
 62
     7
420
 16777215
370
    40
100
AcDb2dPolyline
 66
     1
 10
0.0
 20
0.0
 30
0.0
  0
VERTEX
  5
C2
330
C1
100
AcDbEntity
  8
Layer 1
 62
     7
420
 16777215
370
    40
100
AcDbVertex
100
AcDb2dVertex
 10
1.18873564961997
 20
4.092524736828687
 30
0.0
  0
VERTEX
  5
C3
330
C1
100
AcDbEntity
  8
Layer 1
 62
     7
420
 16777215
370
    40
100
AcDbVertex
100
AcDb2dVertex
 10
3.309473372778181
 20
3.530071999546205
 30
0.0
  0
VERTEX
  5
C4
330
C1
100
AcDbEntity
  8
Layer 1
 62
     7
420
 16777215
370
    40
100
AcDbVertex
100
AcDb2dVertex
 10
3.584533177876766
 20
3.635595584145878
 30
0.0
  0
SEQEND
  5
C5
330
C1
100
AcDbEntity
  8
Layer 1
 62
     7
420
 16777215
370
    40
  0
POLYLINE
  5
C6
330
1F
100
AcDbEntity
  8
Layer 1
370
     0
100
AcDb2dPolyline
 66
     1
 10
0.0
 20
0.0
 30
0.0
  0
VERTEX
  5
C7
330
C6
100
AcDbEntity
  8
Layer 1
370
     0
100
AcDbVertex
100
AcDb2dVertex
 10
0.8002978052028185
 20
4.552844793519322
 30
0.0
  0
VERTEX
  5
C8
330
C6
100
AcDbEntity
  8
Layer 1
370
     0
100
AcDbVertex
100
AcDb2dVertex
 10
3.919086961792547
 20
4.552844793519322
 30
0.0
  0
VERTEX
  5
C9
330
C6
100
AcDbEntity
  8
Layer 1
370
     0
100
AcDbVertex
100
AcDb2dVertex
 10
3.919086961792547
 20
1.456499008227562
 30
0.0
  0
VERTEX
  5
CA
330
C6
100
AcDbEntity
  8
Layer 1
370
     0
100
AcDbVertex
100
AcDb2dVertex
 10
0.8002978052028185
 20
1.456499008227562
 30
0.0
  0
VERTEX
  5
CB
330
C6
100
AcDbEntity
  8
Layer 1
370
     0
100
AcDbVertex
100
AcDb2dVertex
 10
0.8002978052028185
 20
4.552844793519322
 30
0.0
  0
SEQEND
  5
CC
330
C6
100
AcDbEntity
  8
Layer 1
370
     0
  0
SPLINE
  5
CD
330
1F
100
AcDbEntity
  8
Layer 1
 62
     7
420
 16777215
370
    15
100
AcDbSpline
210
0.0
220
0.0
230
1.0
 70
     8
 71
     3
 72
    26
 73
    22
 74
     0
 42
0.0000000001
 43
0.0000000001
 12
1.0
 22
0.0
 32
0.0
 13
1.0
 23
0.0
 33
0.0
 40
0.0
 40
0.0
 40
0.0
 40
0.0
 40
1.0
 40
1.0
 40
1.0
 40
2.0
 40
2.0
 40
2.0
 40
3.0
 40
3.0
 40
3.0
 40
4.0
 40
4.0
 40
4.0
 40
5.0
 40
5.0
 40
5.0
 40
6.0
 40
6.0
 40
6.0
 40
7.0
 40
7.0
 40
7.0
 40
7.0
 10
3.610622811178321
 20
3.062995451775742
 30
0.0
 10
3.60500938200001
 20
3.073667979303486
 30
0.0
 10
3.6055675980354
 20
3.079843696895776
 30
0.0
 10
3.597712972786288
 20
3.093874039737178
 30
0.0
 10
3.589839857364748
 20
3.10790438257858
 30
0.0
 10
3.571331194760306
 20
3.141020439440505
 30
0.0
 10
3.569633796931031
 20
3.144396586890404
 30
0.0
 10
3.567955075510175
 20
3.14775440220405
 30
0.0
 10
3.564597073960562
 20
3.163482142874727
 30
0.0
 10
3.564597073960562
 20
3.163482142874727
 30
0.0
 10
3.564597073960562
 20
3.163482142874727
 30
0.0
 10
3.564597073960562
 20
3.170201471536504
 30
0.0
 10
3.567955075510175
 20
3.183111309928538
 30
0.0
 10
3.571331194760306
 20
3.196039638492998
 30
0.0
 10
3.571331194760306
 20
3.239247473432114
 30
0.0
 10
3.572451699209675
 20
3.247120588853679
 30
0.0
 10
3.573572203659069
 20
3.254975214102791
 30
0.0
 10
3.580864727666242
 20
3.297066242627023
 30
0.0
 10
3.581426828908181
 20
3.303800363426742
 30
0.0
 10
3.58198523211561
 20
3.310538344579527
 30
0.0
 10
3.598833664251717
 20
3.369492248043191
 30
0.0
 10
3.598275074028227
 20
3.394176628239911
 30
0.0
  0
SPLINE
  5
CE
330
1F
100
AcDbEntity
  8
Layer 1
 62
     7
420
 16777215
370
    15
100
AcDbSpline
210
0.0
220
0.0
230
1.0
 70
     8
 71
     3
 72
    35
 73
    31
 74
     0
 42
0.0000000001
 43
0.0000000001
 12
1.0
 22
0.0
 32
0.0
 13
1.0
 23
0.0
 33
0.0
 40
0.0
 40
0.0
 40
0.0
 40
0.0
 40
1.0
 40
1.0
 40
1.0
 40
2.0
 40
2.0
 40
2.0
 40
3.0
 40
3.0
 40
3.0
 40
4.0
 40
4.0
 40
4.0
 40
5.0
 40
5.0
 40
5.0
 40
6.0
 40
6.0
 40
6.0
 40
7.0
 40
7.0
 40
7.0
 40
8.0
 40
8.0
 40
8.0
 40
9.0
 40
9.0
 40
9.0
 40
10.0
 40
10.0
 40
10.0
 40
10.0
 10
3.593216162850821
 20
3.595131520265492
 30
0.0
 10
3.58198523211561
 20
3.575483863039242
 30
0.0
 10
3.578069013594535
 20
3.546306370941516
 30
0.0
 10
3.576930018972714
 20
3.537331241243047
 30
0.0
 10
3.57580951452332
 20
3.528337621372101
 30
0.0
 10
3.572451699209675
 20
3.485688189640415
 30
0.0
 10
3.57189329600222
 20
3.473898855697775
 30
0.0
 10
3.571331194760306
 20
3.46210582372065
 30
0.0
 10
3.565155477168016
 20
3.421135299645786
 30
0.0
 10
3.563458079338741
 20
3.408783864461207
 30
0.0
 10
3.561779357761881
 20
3.396432429276627
 30
0.0
 10
3.562899676131312
 20
3.373970567806231
 30
0.0
 10
3.561220768474489
 20
3.359940224964829
 30
0.0
 10
3.559541860817641
 20
3.345909882123401
 30
0.0
 10
3.551687235568529
 20
3.278539089850129
 30
0.0
 10
3.548869333289884
 20
3.263950343801298
 30
0.0
 10
3.546069921183693
 20
3.249361597752441
 30
0.0
 10
3.541014708040772
 20
3.198276949357275
 30
0.0
 10
3.538758907004067
 20
3.187046018622065
 30
0.0
 10
3.536517898105305
 20
3.175815087886879
 30
0.0
 10
3.532039578342291
 20
3.149995411102799
 30
0.0
 10
3.532039578342291
 20
3.149995411102799
 30
0.0
 10
3.532039578342291
 20
3.149995411102799
 30
0.0
 10
3.534280587241028
 20
3.135965068261422
 30
0.0
 10
3.541014708040772
 20
3.127548341770357
 30
0.0
 10
3.547748828840516
 20
3.119135313313791
 30
0.0
 10
3.555603640013613
 20
3.098352359500217
 30
0.0
 10
3.558983457610212
 20
3.087140075612473
 30
0.0
 10
3.562341272923858
 20
3.075908988202248
 30
0.0
 10
3.579185820009418
 20
3.047829968028964
 30
0.0
 10
3.579185820009418
 20
3.047829968028964
 30
0.0
  0
SPLINE
  5
CF
330
1F
100
AcDbEntity
  8
Layer 1
 62
     7
420
 16777215
370
    15
100
AcDbSpline
210
0.0
220
0.0
230
1.0
 70
     8
 71
     3
 72
    74
 73
    70
 74
     0
 42
0.0000000001
 43
0.0000000001
 12
1.0
 22
0.0
 32
0.0
 13
1.0
 23
0.0
 33
0.0
 40
0.0
 40
0.0
 40
0.0
 40
0.0
 40
1.0
 40
1.0
 40
1.0
 40
2.0
 40
2.0
 40
2.0
 40
3.0
 40
3.0
 40
3.0
 40
4.0
 40
4.0
 40
4.0
 40
5.0
 40
5.0
 40
5.0
 40
6.0
 40
6.0
 40
6.0
 40
7.0
 40
7.0
 40
7.0
 40
8.0
 40
8.0
 40
8.0
 40
9.0
 40
9.0
 40
9.0
 40
10.0
 40
10.0
 40
10.0
 40
11.0
 40
11.0
 40
11.0
 40
12.0
 40
12.0
 40
12.0
 40
13.0
 40
13.0
 40
13.0
 40
14.0
 40
14.0
 40
14.0
 40
15.0
 40
15.0
 40
15.0
 40
16.0
 40
16.0
 40
16.0
 40
17.0
 40
17.0
 40
17.0
 40
18.0
 40
18.0
 40
18.0
 40
19.0
 40
19.0
 40
19.0
 40
20.0
 40
20.0
 40
20.0
 40
21.0
 40
21.0
 40
21.0
 40
22.0
 40
22.0
 40
22.0
 40
23.0
 40
23.0
 40
23.0
 40
23.0
 10
3.514074711682219
 20
2.371999217819141
 30
0.0
 10
3.513516123599882
 20
2.391643177010893
 30
0.0
 10
3.517994628336838
 20
2.411290834237156
 30
0.0
 10
3.517994628336838
 20
2.42194487159246
 30
0.0
 10
3.517994628336838
 20
2.432613701085731
 30
0.0
 10
3.523049656505842
 20
2.492673479179403
 30
0.0
 10
3.524166462920725
 20
2.49660818787293
 30
0.0
 10
3.525286967370119
 20
2.500546594600943
 30
0.0
 10
3.535959494897876
 20
2.565657887803026
 30
0.0
 10
3.537079999347245
 20
2.569015703116671
 30
0.0
 10
3.538215295934581
 20
2.572392008602745
 30
0.0
 10
3.551687235568529
 20
2.698121483105928
 30
0.0
 10
3.552245638775982
 20
2.702059889833941
 30
0.0
 10
3.552807740017922
 20
2.705994598527468
 30
0.0
 10
3.561220768474489
 20
2.78401942815607
 30
0.0
 10
3.562341272923858
 20
2.788497747919109
 30
0.0
 10
3.563458079338741
 20
2.792994557854563
 30
0.0
 10
3.57019589817297
 20
2.852488536671798
 30
0.0
 10
3.57189329600222
 20
2.861482156542732
 30
0.0
 10
3.573572203659069
 20
2.870457286241213
 30
0.0
 10
3.576930018972714
 20
2.936130680685235
 30
0.0
 10
3.576930018972714
 20
2.936130680685235
 30
0.0
 10
3.576930018972714
 20
2.936130680685235
 30
0.0
 10
3.578627416801965
 20
2.959151098804846
 30
0.0
 10
3.578627416801965
 20
2.959151098804846
 30
0.0
 10
3.578627416801965
 20
2.959151098804846
 30
0.0
 10
3.565717578409931
 20
2.970381876098284
 30
0.0
 10
3.556165555331568
 20
2.975980700310704
 30
0.0
 10
3.546632022425633
 20
2.981598168704345
 30
0.0
 10
3.521929152056448
 20
3.009115089308857
 30
0.0
 10
3.517432342120982
 20
3.011352400173135
 30
0.0
 10
3.512954022357967
 20
3.013593409071897
 30
0.0
 10
3.509577716871869
 20
3.01696971455797
 30
0.0
 10
3.509577716871869
 20
3.01696971455797
 30
0.0
 10
3.509577716871869
 20
3.01696971455797
 30
0.0
 10
3.541573111248226
 20
3.029879552950004
 30
0.0
 10
3.541573111248226
 20
3.029879552950004
 30
0.0
 10
3.541573111248226
 20
3.029879552950004
 30
0.0
 10
3.535959494897876
 20
3.033799469505589
 30
0.0
 10
3.532039578342291
 20
3.04447199703332
 30
0.0
 10
3.528104869648738
 20
3.055140826526617
 30
0.0
 10
3.518552846570376
 20
3.07422638251094
 30
0.0
 10
3.515753434464159
 20
3.082081007760053
 30
0.0
 10
3.512954022357967
 20
3.089935633009165
 30
0.0
 10
3.494988970823012
 20
3.133724059362647
 30
0.0
 10
3.494988970823012
 20
3.133724059362647
 30
0.0
 10
3.494988970823012
 20
3.133724059362647
 30
0.0
 10
3.489933757680117
 20
3.145517091339773
 30
0.0
 10
3.494426869581098
 20
3.160664240596083
 30
0.0
 10
3.498905189344113
 20
3.175815087886879
 30
0.0
 10
3.503964100521519
 20
3.199397453806669
 30
0.0
 10
3.504522503728973
 20
3.203335860534682
 30
0.0
 10
3.505080906936402
 20
3.207252238765098
 30
0.0
 10
3.511256624528692
 20
3.253839917515456
 30
0.0
 10
3.512377128978086
 20
3.261150931695081
 30
0.0
 10
3.513516123599882
 20
3.268447153736739
 30
0.0
 10
3.523608059713297
 20
3.344789377674033
 30
0.0
 10
3.525286967370119
 20
3.351527196508262
 30
0.0
 10
3.52698436519937
 20
3.358261317307981
 30
0.0
 10
3.529783777305586
 20
3.414959582053497
 30
0.0
 10
3.530904281754955
 20
3.422814207302609
 30
0.0
 10
3.532039578342291
 20
3.430668832551747
 30
0.0
 10
3.532601864927149
 20
3.466025740276235
 30
0.0
 10
3.534280587241028
 20
3.468839944520369
 30
0.0
 10
3.535959494897876
 20
3.471639356626585
 30
0.0
 10
3.544934624596357
 20
3.531713926858174
 30
0.0
 10
3.545511517976239
 20
3.539568552107287
 30
0.0
 10
3.546069921183693
 20
3.547423177356424
 30
0.0
 10
3.560100264025095
 20
3.607501445622499
 30
0.0
 10
3.555603640013613
 20
3.615356070871611
 30
0.0
  0
SPLINE
  5
D0
330
1F
100
AcDbEntity
  8
Layer 1
 62
     7
420
 16777215
370
    15
100
AcDbSpline
210
0.0
220
0.0
230
1.0
 70
     8
 71
     3
 72
    74
 73
    70
 74
     0
 42
0.0000000001
 43
0.0000000001
 12
1.0
 22
0.0
 32
0.0
 13
1.0
 23
0.0
 33
0.0
 40
0.0
 40
0.0
 40
0.0
 40
0.0
 40
1.0
 40
1.0
 40
1.0
 40
2.0
 40
2.0
 40
2.0
 40
3.0
 40
3.0
 40
3.0
 40
4.0
 40
4.0
 40
4.0
 40
5.0
 40
5.0
 40
5.0
 40
6.0
 40
6.0
 40
6.0
 40
7.0
 40
7.0
 40
7.0
 40
8.0
 40
8.0
 40
8.0
 40
9.0
 40
9.0
 40
9.0
 40
10.0
 40
10.0
 40
10.0
 40
11.0
 40
11.0
 40
11.0
 40
12.0
 40
12.0
 40
12.0
 40
13.0
 40
13.0
 40
13.0
 40
14.0
 40
14.0
 40
14.0
 40
15.0
 40
15.0
 40
15.0
 40
16.0
 40
16.0
 40
16.0
 40
17.0
 40
17.0
 40
17.0
 40
18.0
 40
18.0
 40
18.0
 40
19.0
 40
19.0
 40
19.0
 40
20.0
 40
20.0
 40
20.0
 40
21.0
 40
21.0
 40
21.0
 40
22.0
 40
22.0
 40
22.0
 40
23.0
 40
23.0
 40
23.0
 40
23.0
 10
3.511818910588469
 20
3.603563038894511
 30
0.0
 10
3.505643192840201
 20
3.581101177424064
 30
0.0
 10
3.505080906936402
 20
3.567071003381771
 30
0.0
 10
3.501164688415302
 20
3.542930065455443
 30
0.0
 10
3.49722628168729
 20
3.51880408846614
 30
0.0
 10
3.488813253230723
 20
3.478935578668243
 30
0.0
 10
3.488813253230723
 20
3.467723138105485
 30
0.0
 10
3.488813253230723
 20
3.456492207370275
 30
0.0
 10
3.483196122940676
 20
3.439643962250228
 30
0.0
 10
3.482637535638433
 20
3.419437901816536
 30
0.0
 10
3.482079132431004
 20
3.399231841382844
 30
0.0
 10
3.483196122940676
 20
3.376788470084875
 30
0.0
 10
3.477582322495537
 20
3.357140812858612
 30
0.0
 10
3.471965008110677
 20
3.337478363494407
 30
0.0
 10
3.473085512560071
 20
3.321210709788728
 30
0.0
 10
3.470286100453854
 20
3.302121455769919
 30
0.0
 10
3.46746819817521
 20
3.283035899785596
 30
0.0
 10
3.466351391760327
 20
3.257216223001554
 30
0.0
 10
3.461873071997287
 20
3.235331254911014
 30
0.0
 10
3.45737626206182
 20
3.213427956513391
 30
0.0
 10
3.453437855333807
 20
3.171336768123827
 30
0.0
 10
3.448944743432826
 20
3.153371874937092
 30
0.0
 10
3.444466423669812
 20
3.13540296701947
 30
0.0
 10
3.445024826877241
 20
3.110141850698988
 30
0.0
 10
3.445024826877241
 20
3.110141850698988
 30
0.0
 10
3.445024826877241
 20
3.110141850698988
 30
0.0
 10
3.451758947676985
 20
3.090497734251105
 30
0.0
 10
3.457934665269274
 20
3.077025794617119
 30
0.0
 10
3.464110382861564
 20
3.063557553017669
 30
0.0
 10
3.469165596004485
 20
3.046150904690168
 30
0.0
 10
3.473085512560071
 20
3.036055270542293
 30
0.0
 10
3.477020405192383
 20
3.025944844256476
 30
0.0
 10
3.48543694774465
 20
3.004618279373365
 30
0.0
 10
3.48543694774465
 20
3.004618279373365
 30
0.0
 10
3.48543694774465
 20
3.004618279373365
 30
0.0
 10
3.498346786136683
 20
2.98385396979807
 30
0.0
 10
3.507898993933875
 20
2.974860195861311
 30
0.0
 10
3.517432342120982
 20
2.965888764197315
 30
0.0
 10
3.537079999347245
 20
2.939506986171308
 30
0.0
 10
3.537079999347245
 20
2.939506986171308
 30
0.0
 10
3.537079999347245
 20
2.939506986171308
 30
0.0
 10
3.538215295934581
 20
2.924914542087966
 30
0.0
 10
3.535401091690422
 20
2.90862839820986
 30
0.0
 10
3.532601864927149
 20
2.892342254331753
 30
0.0
 10
3.529783777305586
 20
2.858105851056633
 30
0.0
 10
3.528104869648738
 20
2.846874920321448
 30
0.0
 10
3.52642614717878
 20
2.835662479758664
 30
0.0
 10
3.52698436519937
 20
2.803104984140393
 30
0.0
 10
3.524166462920725
 20
2.791311952163242
 30
0.0
 10
3.521370748849019
 20
2.779522618220603
 30
0.0
 10
3.520250429430512
 20
2.769412191934786
 30
0.0
 10
3.516311837671613
 20
2.753140840194621
 30
0.0
 10
3.512377128978086
 20
2.736854696316489
 30
0.0
 10
3.501164688415302
 20
2.68690904254317
 30
0.0
 10
3.500587795035446
 20
2.668943991008228
 30
0.0
 10
3.500025693793507
 20
2.6509752414388
 30
0.0
 10
3.498905189344113
 20
2.62347665699791
 30
0.0
 10
3.494988970823012
 20
2.609446314156508
 30
0.0
 10
3.491050564095
 20
2.595397481142653
 30
0.0
 10
3.488813253230723
 20
2.567336795459849
 30
0.0
 10
3.486557452194019
 20
2.549930147132348
 30
0.0
 10
3.484316443295256
 20
2.5325419889773
 30
0.0
 10
3.477020405192383
 20
2.504462813122043
 30
0.0
 10
3.474782910389321
 20
2.488195159416364
 30
0.0
 10
3.472527109352616
 20
2.471905317503746
 30
0.0
 10
3.470848201695794
 20
2.443286228613488
 30
0.0
 10
3.468030299417149
 20
2.428120589184775
 30
0.0
 10
3.465230887310958
 20
2.412969741893966
 30
0.0
 10
3.456255757612452
 20
2.348975393134222
 30
0.0
 10
3.460734077375491
 20
2.345040546413252
 30
0.0
  0
SPLINE
  5
D1
330
1F
100
AcDbEntity
  8
Layer 1
 62
     7
420
 16777215
370
    15
100
AcDbSpline
210
0.0
220
0.0
230
1.0
 70
     8
 71
     3
 72
    23
 73
    19
 74
     0
 42
0.0000000001
 43
0.0000000001
 12
1.0
 22
0.0
 32
0.0
 13
1.0
 23
0.0
 33
0.0
 40
0.0
 40
0.0
 40
0.0
 40
0.0
 40
1.0
 40
1.0
 40
1.0
 40
2.0
 40
2.0
 40
2.0
 40
3.0
 40
3.0
 40
3.0
 40
4.0
 40
4.0
 40
4.0
 40
5.0
 40
5.0
 40
5.0
 40
6.0
 40
6.0
 40
6.0
 40
6.0
 10
3.321536361272845
 20
2.589221763550363
 30
0.0
 10
3.332186700593663
 20
2.62909027334826
 30
0.0
 10
3.33724561177107
 20
2.665005584280202
 30
0.0
 10
3.340059816015228
 20
2.675678111807959
 30
0.0
 10
3.34285922812142
 20
2.686332149163289
 30
0.0
 10
3.344538135778243
 20
2.731255872104081
 30
0.0
 10
3.350155450163104
 20
2.7480856270517
 30
0.0
 10
3.355769066513453
 20
2.764933872171746
 30
0.0
 10
3.36474419621196
 20
2.837341387415487
 30
0.0
 10
3.368120501698033
 20
2.850809629014975
 30
0.0
 10
3.360828158694403
 20
2.861482156542732
 30
0.0
 10
3.355210663305999
 20
2.868216428487055
 30
0.0
 10
3.346797634849433
 20
2.877753508282896
 30
0.0
 10
3.338362418185953
 20
2.887305531361259
 30
0.0
 10
3.33106989417878
 20
2.903573185066938
 30
0.0
 10
3.323215268929668
 20
2.906391087345582
 30
0.0
 10
3.315360643680555
 20
2.909186801417313
 30
0.0
 10
3.300768199597213
 20
2.924337648708085
 30
0.0
 10
3.300768199597213
 20
2.924337648708085
 30
0.0
  0
SPLINE
  5
D2
330
1F
100
AcDbEntity
  8
Layer 1
 62
     7
420
 16777215
370
    15
100
AcDbSpline
210
0.0
220
0.0
230
1.0
 70
     8
 71
     3
 72
    35
 73
    31
 74
     0
 42
0.0000000001
 43
0.0000000001
 12
1.0
 22
0.0
 32
0.0
 13
1.0
 23
0.0
 33
0.0
 40
0.0
 40
0.0
 40
0.0
 40
0.0
 40
1.0
 40
1.0
 40
1.0
 40
2.0
 40
2.0
 40
2.0
 40
3.0
 40
3.0
 40
3.0
 40
4.0
 40
4.0
 40
4.0
 40
5.0
 40
5.0
 40
5.0
 40
6.0
 40
6.0
 40
6.0
 40
7.0
 40
7.0
 40
7.0
 40
8.0
 40
8.0
 40
8.0
 40
9.0
 40
9.0
 40
9.0
 40
10.0
 40
10.0
 40
10.0
 40
10.0
 10
3.350713853370532
 20
2.947920014627875
 30
0.0
 10
3.359130579861585
 20
2.941744297035585
 30
0.0
 10
3.374854622497777
 20
2.918161931115795
 30
0.0
 10
3.382712945781375
 20
2.90862839820986
 30
0.0
 10
3.390582363168429
 20
2.899095017228547
 30
0.0
 10
3.406853714908619
 20
2.879432415939719
 30
0.0
 10
3.409091025772871
 20
2.876633003833502
 30
0.0
 10
3.411350524844061
 20
2.873833591727311
 30
0.0
 10
3.411350524844061
 20
2.863161064199554
 30
0.0
 10
3.409091025772871
 20
2.846316517113994
 30
0.0
 10
3.406853714908619
 20
2.829486762166375
 30
0.0
 10
3.397301691830231
 20
2.78793564667717
 30
0.0
 10
3.395622784173408
 20
2.775025957075513
 30
0.0
 10
3.393943876516586
 20
2.762115969893102
 30
0.0
 10
3.388884965339179
 20
2.733497028744144
 30
0.0
 10
3.386647654474902
 20
2.714969875499214
 30
0.0
 10
3.384391853438198
 20
2.696442722254308
 30
0.0
 10
3.382712945781375
 20
2.681853829400249
 30
0.0
 10
3.377672524776421
 20
2.662206172173986
 30
0.0
 10
3.3726173116335
 20
2.642562358426277
 30
0.0
 10
3.366999997248664
 20
2.603270596564218
 30
0.0
 10
3.363623691762566
 20
2.588101259100995
 30
0.0
 10
3.360265876448921
 20
2.572954109844684
 30
0.0
 10
3.356889570962822
 20
2.540396614226413
 30
0.0
 10
3.352411251199808
 20
2.518493298273269
 30
0.0
 10
3.347914441264341
 20
2.49660818787293
 30
0.0
 10
3.342301005449472
 20
2.452261498948625
 30
0.0
 10
3.337804014978524
 20
2.441030427576783
 30
0.0
 10
3.333325695215485
 20
2.429817987014025
 30
0.0
 10
3.323215268929668
 20
2.402297214366222
 30
0.0
 10
3.323773852204567
 20
2.38996426935407
 30
0.0
  0
SPLINE
  5
D3
330
1F
100
AcDbEntity
  8
Layer 1
 62
     7
420
 16777215
370
    15
100
AcDbSpline
210
0.0
220
0.0
230
1.0
 70
     8
 71
     3
 72
    35
 73
    31
 74
     0
 42
0.0000000001
 43
0.0000000001
 12
1.0
 22
0.0
 32
0.0
 13
1.0
 23
0.0
 33
0.0
 40
0.0
 40
0.0
 40
0.0
 40
0.0
 40
1.0
 40
1.0
 40
1.0
 40
2.0
 40
2.0
 40
2.0
 40
3.0
 40
3.0
 40
3.0
 40
4.0
 40
4.0
 40
4.0
 40
5.0
 40
5.0
 40
5.0
 40
6.0
 40
6.0
 40
6.0
 40
7.0
 40
7.0
 40
7.0
 40
8.0
 40
8.0
 40
8.0
 40
9.0
 40
9.0
 40
9.0
 40
10.0
 40
10.0
 40
10.0
 40
10.0
 10
3.353531755649176
 20
2.283863961904722
 30
0.0
 10
3.361386380898289
 20
2.313059944174862
 30
0.0
 10
3.363065288555137
 20
2.358527278185167
 30
0.0
 10
3.36644159404121
 20
2.375357033132786
 30
0.0
 10
3.369799409354856
 20
2.392205417372325
 30
0.0
 10
3.380471936882612
 20
2.43373434570372
 30
0.0
 10
3.382150844539435
 20
2.447764548376527
 30
0.0
 10
3.383829933780867
 20
2.461813381390357
 30
0.0
 10
3.396181369277504
 20
2.503904409914589
 30
0.0
 10
3.396181369277504
 20
2.512894331751037
 30
0.0
 10
3.396181369277504
 20
2.521869461449544
 30
0.0
 10
3.411908928051515
 20
2.598773786628751
 30
0.0
 10
3.413029432500909
 20
2.608884212914568
 30
0.0
 10
3.414146238915792
 20
2.618979847062443
 30
0.0
 10
3.42200456219939
 20
2.673422310771255
 30
0.0
 10
3.42200456219939
 20
2.677915569009403
 30
0.0
 10
3.42200456219939
 20
2.682412232607703
 30
0.0
 10
3.435472803798878
 20
2.766050678586629
 30
0.0
 10
3.437728604835582
 20
2.779522618220603
 30
0.0
 10
3.439969613734345
 20
2.792994557854563
 30
0.0
 10
3.455697354404997
 20
2.895718559817826
 30
0.0
 10
3.455697354404997
 20
2.895718559817826
 30
0.0
 10
3.455697354404997
 20
2.895718559817826
 30
0.0
 10
3.454558359783201
 20
2.899634778338926
 30
0.0
 10
3.445024826877241
 20
2.909186801417313
 30
0.0
 10
3.435472803798878
 20
2.918742522530162
 30
0.0
 10
3.425939270892917
 20
2.942864801484991
 30
0.0
 10
3.420884240270702
 20
2.947920014627875
 30
0.0
 10
3.415828844607101
 20
2.952975381056553
 30
0.0
 10
3.401236400523759
 20
2.970381876098284
 30
0.0
 10
3.401236400523759
 20
2.970381876098284
 30
0.0
  0
SPLINE
  5
D4
330
1F
100
AcDbEntity
  8
Layer 1
 62
     7
420
 16777215
370
    15
100
AcDbSpline
210
0.0
220
0.0
230
1.0
 70
     8
 71
     3
 72
    71
 73
    67
 74
     0
 42
0.0000000001
 43
0.0000000001
 12
1.0
 22
0.0
 32
0.0
 13
1.0
 23
0.0
 33
0.0
 40
0.0
 40
0.0
 40
0.0
 40
0.0
 40
1.0
 40
1.0
 40
1.0
 40
2.0
 40
2.0
 40
2.0
 40
3.0
 40
3.0
 40
3.0
 40
4.0
 40
4.0
 40
4.0
 40
5.0
 40
5.0
 40
5.0
 40
6.0
 40
6.0
 40
6.0
 40
7.0
 40
7.0
 40
7.0
 40
8.0
 40
8.0
 40
8.0
 40
9.0
 40
9.0
 40
9.0
 40
10.0
 40
10.0
 40
10.0
 40
11.0
 40
11.0
 40
11.0
 40
12.0
 40
12.0
 40
12.0
 40
13.0
 40
13.0
 40
13.0
 40
14.0
 40
14.0
 40
14.0
 40
15.0
 40
15.0
 40
15.0
 40
16.0
 40
16.0
 40
16.0
 40
17.0
 40
17.0
 40
17.0
 40
18.0
 40
18.0
 40
18.0
 40
19.0
 40
19.0
 40
19.0
 40
20.0
 40
20.0
 40
20.0
 40
21.0
 40
21.0
 40
21.0
 40
22.0
 40
22.0
 40
22.0
 40
22.0
 10
3.453437855333807
 20
3.578860168525327
 30
0.0
 10
3.453999956575747
 20
3.551919987291866
 30
0.0
 10
3.453437855333807
 20
3.540130653349226
 30
0.0
 10
3.450642141262101
 20
3.51880408846614
 30
0.0
 10
3.447824238983458
 20
3.497462731445138
 30
0.0
 10
3.443904322427872
 20
3.446940184291912
 30
0.0
 10
3.443345919220418
 20
3.430668832551747
 30
0.0
 10
3.442787516012964
 20
3.414382688673615
 30
0.0
 10
3.438290706077522
 20
3.396432429276627
 30
0.0
 10
3.437170201628128
 20
3.375649475463079
 30
0.0
 10
3.43604969717876
 20
3.354885011821908
 30
0.0
 10
3.431556585277778
 20
3.30773877015478
 30
0.0
 10
3.430994484035839
 20
3.290890525034734
 30
0.0
 10
3.430436080828384
 20
3.274060770087114
 30
0.0
 10
3.425380867685488
 20
3.240367977881508
 30
0.0
 10
3.42369826199418
 20
3.221300912069612
 30
0.0
 10
3.42200456219939
 20
3.202215356085288
 30
0.0
 10
3.409653127014811
 20
3.134286160604587
 30
0.0
 10
3.407974219357988
 20
3.122493286195574
 30
0.0
 10
3.40629161366668
 20
3.110703794684797
 30
0.0
 10
3.40629161366668
 20
3.097231855050849
 30
0.0
 10
3.405733210459225
 20
3.092753535287809
 30
0.0
 10
3.409653127014811
 20
3.085442521108184
 30
0.0
 10
3.410230020394692
 20
3.064674359432552
 30
0.0
 10
3.415266743365161
 20
3.052885025489912
 30
0.0
 10
3.420321956508082
 20
3.041110483685214
 30
0.0
 10
3.433235675767264
 20
3.010235593758226
 30
0.0
 10
3.438849109284951
 20
3.001800377094746
 30
0.0
 10
3.444466423669812
 20
2.99338734863818
 30
0.0
 10
3.440528016941774
 20
2.986653227838461
 30
0.0
 10
3.440528016941774
 20
2.986653227838461
 30
0.0
 10
3.440528016941774
 20
2.986653227838461
 30
0.0
 10
3.454558359783201
 20
2.96307101545944
 30
0.0
 10
3.466351391760327
 20
2.954654135427619
 30
0.0
 10
3.478140725702966
 20
2.946241106971052
 30
0.0
 10
3.500025693793507
 20
2.922658741051262
 30
0.0
 10
3.500025693793507
 20
2.922658741051262
 30
0.0
 10
3.500025693793507
 20
2.922658741051262
 30
0.0
 10
3.499467475091908
 20
2.915924620251543
 30
0.0
 10
3.495547558437313
 20
2.900773772960747
 30
0.0
 10
3.49161266533694
 20
2.885622925669951
 30
0.0
 10
3.49161266533694
 20
2.859226355506027
 30
0.0
 10
3.488813253230723
 20
2.8451960126646
 30
0.0
 10
3.485995350952104
 20
2.831165669823197
 30
0.0
 10
3.483758040087827
 20
2.814879525945091
 30
0.0
 10
3.480940321847002
 20
2.799170275446866
 30
0.0
 10
3.478140725702966
 20
2.78345747591748
 30
0.0
 10
3.474206017009439
 20
2.754819747851444
 30
0.0
 10
3.471406604903247
 20
2.739110497353193
 30
0.0
 10
3.468607192797031
 20
2.723382756682541
 30
0.0
 10
3.46355197965411
 20
2.704859301940158
 30
0.0
 10
3.46355197965411
 20
2.68465324150644
 30
0.0
 10
3.46355197965411
 20
2.664447181072748
 30
0.0
 10
3.459613572926097
 20
2.636386640678009
 30
0.0
 10
3.453999956575747
 20
2.613924633919522
 30
0.0
 10
3.448382642190912
 20
2.591477564587068
 30
0.0
 10
3.447824238983458
 20
2.558923767003282
 30
0.0
 10
3.446145331326635
 20
2.544316530781998
 30
0.0
 10
3.444466423669812
 20
2.529724086698656
 30
0.0
 10
3.441648521391168
 20
2.495487683423537
 30
0.0
 10
3.438849109284951
 20
2.484256752688351
 30
0.0
 10
3.43604969717876
 20
2.47302582195314
 30
0.0
 10
3.428176581757195
 20
2.412969741893966
 30
0.0
 10
3.42369826199418
 20
2.391643177010893
 30
0.0
 10
3.419205150093199
 20
2.370301819989865
 30
0.0
 10
3.420884240270702
 20
2.329889699122481
 30
0.0
 10
3.41078860586774
 20
2.315859356281054
 30
0.0
  0
SPLINE
  5
D5
330
1F
100
AcDbEntity
  8
Layer 1
 62
     7
420
 16777215
370
    15
100
AcDbSpline
210
0.0
220
0.0
230
1.0
 70
     8
 71
     3
 72
    38
 73
    34
 74
     0
 42
0.0000000001
 43
0.0000000001
 12
1.0
 22
0.0
 32
0.0
 13
1.0
 23
0.0
 33
0.0
 40
0.0
 40
0.0
 40
0.0
 40
0.0
 40
1.0
 40
1.0
 40
1.0
 40
2.0
 40
2.0
 40
2.0
 40
3.0
 40
3.0
 40
3.0
 40
4.0
 40
4.0
 40
4.0
 40
5.0
 40
5.0
 40
5.0
 40
6.0
 40
6.0
 40
6.0
 40
7.0
 40
7.0
 40
7.0
 40
8.0
 40
8.0
 40
8.0
 40
9.0
 40
9.0
 40
9.0
 40
10.0
 40
10.0
 40
10.0
 40
11.0
 40
11.0
 40
11.0
 40
11.0
 10
3.407974219357988
 20
3.563713019269017
 30
0.0
 10
3.405174807251771
 20
3.54686477414897
 30
0.0
 10
3.404612888119471
 20
3.51880408846614
 30
0.0
 10
3.401798501765698
 20
3.502517944588034
 30
0.0
 10
3.398999089659481
 20
3.486231967466892
 30
0.0
 10
3.395622784173408
 20
3.460985319271256
 30
0.0
 10
3.392823372067192
 20
3.444140772185695
 30
0.0
 10
3.390005651529135
 20
3.427292527065649
 30
0.0
 10
3.387206057682356
 20
3.405965962182563
 30
0.0
 10
3.383829933780867
 20
3.390256711684338
 30
0.0
 10
3.380471936882612
 20
3.37452897101366
 30
0.0
 10
3.377095631396539
 20
3.361060729414198
 30
0.0
 10
3.377672524776421
 20
3.347030386572795
 30
0.0
 10
3.378216135845908
 20
3.333000043731393
 30
0.0
 10
3.380471936882612
 20
3.318969863421519
 30
0.0
 10
3.375975126947146
 20
3.300442710176614
 30
0.0
 10
3.371496807184131
 20
3.281919093370713
 30
0.0
 10
3.369241006147427
 20
3.221300912069612
 30
0.0
 10
3.365883190833756
 20
3.200517958256038
 30
0.0
 10
3.362506885347683
 20
3.179753494614892
 30
0.0
 10
3.361944784105743
 20
3.132607252947764
 30
0.0
 10
3.357447974170277
 20
3.116317568447281
 30
0.0
 10
3.352973352441722
 20
3.100049757329467
 30
0.0
 10
3.350713853370532
 20
3.073091085923617
 30
0.0
 10
3.349593348921164
 20
3.069171169368019
 30
0.0
 10
3.348476723197766
 20
3.065236460674492
 30
0.0
 10
3.354652440946034
 20
3.052326622282458
 30
0.0
 10
3.358586968792098
 20
3.040533590305333
 30
0.0
 10
3.362506885347683
 20
3.028744256362668
 30
0.0
 10
3.373737816082869
 20
3.006859288272153
 30
0.0
 10
3.378216135845908
 20
2.995066256295028
 30
0.0
 10
3.382712945781375
 20
2.983276922352363
 30
0.0
 10
3.391125974237942
 20
2.96307101545944
 30
0.0
 10
3.391125974237942
 20
2.96307101545944
 30
0.0
  0
SPLINE
  5
D6
330
1F
100
AcDbEntity
  8
Layer 1
 62
     7
420
 16777215
370
    15
100
AcDbSpline
210
0.0
220
0.0
230
1.0
 70
     8
 71
     3
 72
    17
 73
    13
 74
     0
 42
0.0000000001
 43
0.0000000001
 12
1.0
 22
0.0
 32
0.0
 13
1.0
 23
0.0
 33
0.0
 40
0.0
 40
0.0
 40
0.0
 40
0.0
 40
1.0
 40
1.0
 40
1.0
 40
2.0
 40
2.0
 40
2.0
 40
3.0
 40
3.0
 40
3.0
 40
4.0
 40
4.0
 40
4.0
 40
4.0
 10
3.355769066513453
 20
3.542368132388573
 30
0.0
 10
3.348476723197766
 20
3.515427782980067
 30
0.0
 10
3.345100237020183
 20
3.507573157730955
 30
0.0
 10
3.344538135778243
 20
3.489608106196
 30
0.0
 10
3.343979732570814
 20
3.471639356626585
 30
0.0
 10
3.33668351052913
 20
3.459850022683945
 30
0.0
 10
3.341180320464597
 20
3.439085559042799
 30
0.0
 10
3.345658640227636
 20
3.418317397367168
 30
0.0
 10
3.338362418185953
 20
3.3924977205831
 30
0.0
 10
3.33724561177107
 20
3.376226368842936
 30
0.0
 10
3.336125287701204
 20
3.359940224964829
 30
0.0
 10
3.326573084243313
 20
3.280236487679404
 30
0.0
 10
3.320974260030905
 20
3.269005556944194
 30
0.0
  0
SPLINE
  5
D7
330
1F
100
AcDbEntity
  8
Layer 1
 62
     7
420
 16777215
370
    18
100
AcDbSpline
210
0.0
220
0.0
230
1.0
 70
    11
 71
     3
 72
    17
 73
    13
 74
     0
 42
0.0000000001
 43
0.0000000001
 12
1.0
 22
0.0
 32
0.0
 13
1.0
 23
0.0
 33
0.0
 40
0.0
 40
0.0
 40
0.0
 40
0.0
 40
1.0
 40
1.0
 40
1.0
 40
2.0
 40
2.0
 40
2.0
 40
3.0
 40
3.0
 40
3.0
 40
4.0
 40
4.0
 40
4.0
 40
4.0
 10
2.720550451544012
 20
2.955811620221867
 30
0.0
 10
2.728856072171715
 20
2.955811620221867
 30
0.0
 10
2.735590192971459
 20
2.965726050679905
 30
0.0
 10
2.735590192971459
 20
2.977966544829883
 30
0.0
 10
2.735590192971459
 20
2.990192246841944
 30
0.0
 10
2.728856072171715
 20
3.000102979265496
 30
0.0
 10
2.720550451544012
 20
3.000102979265496
 30
0.0
 10
2.712244501258788
 20
3.000102979265496
 30
0.0
 10
2.705510380459044
 20
2.990192246841944
 30
0.0
 10
2.705510380459044
 20
2.977966544829883
 30
0.0
 10
2.705510380459044
 20
2.965726050679905
 30
0.0
 10
2.712244501258788
 20
2.955811620221867
 30
0.0
 10
2.720550451544012
 20
2.955811620221867
 30
0.0
  0
SPLINE
  5
D8
330
1F
100
AcDbEntity
  8
Layer 1
 62
     7
420
 16777215
370
    18
100
AcDbSpline
210
0.0
220
0.0
230
1.0
 70
    11
 71
     3
 72
    17
 73
    13
 74
     0
 42
0.0000000001
 43
0.0000000001
 12
1.0
 22
0.0
 32
0.0
 13
1.0
 23
0.0
 33
0.0
 40
0.0
 40
0.0
 40
0.0
 40
0.0
 40
1.0
 40
1.0
 40
1.0
 40
2.0
 40
2.0
 40
2.0
 40
3.0
 40
3.0
 40
3.0
 40
4.0
 40
4.0
 40
4.0
 40
4.0
 10
2.705510380459044
 20
2.977966544829883
 30
0.0
 10
2.705510380459044
 20
2.972097764099974
 30
0.0
 10
2.707078347081278
 20
2.966791084611991
 30
0.0
 10
2.709607802669982
 20
2.962834187711526
 30
0.0
 10
2.714592753157654
 20
2.966447167404744
 30
0.0
 10
2.718039321298976
 20
2.973920895101779
 30
0.0
 10
2.718039321298976
 20
2.982644558455199
 30
0.0
 10
2.718039321298976
 20
2.988513493368626
 30
0.0
 10
2.716467656642256
 20
2.993801682817775
 30
0.0
 10
2.713941899088063
 20
2.997776915573543
 30
0.0
 10
2.708956948600391
 20
2.994163935880313
 30
0.0
 10
2.705510380459044
 20
2.986690208183316
 30
0.0
 10
2.705510380459044
 20
2.977966544829883
 30
0.0
  0
SPLINE
  5
D9
330
1F
100
AcDbEntity
  8
Layer 1
 62
     7
420
 16777215
370
    18
100
AcDbSpline
210
0.0
220
0.0
230
1.0
 70
    11
 71
     3
 72
    17
 73
    13
 74
     0
 42
0.0000000001
 43
0.0000000001
 12
1.0
 22
0.0
 32
0.0
 13
1.0
 23
0.0
 33
0.0
 40
0.0
 40
0.0
 40
0.0
 40
0.0
 40
1.0
 40
1.0
 40
1.0
 40
2.0
 40
2.0
 40
2.0
 40
3.0
 40
3.0
 40
3.0
 40
4.0
 40
4.0
 40
4.0
 40
4.0
 10
2.634582079009861
 20
2.743551836771378
 30
0.0
 10
2.642887864466325
 20
2.743551836771378
 30
0.0
 10
2.649622148303024
 20
2.753466415475132
 30
0.0
 10
2.649622148303024
 20
2.765710459413893
 30
0.0
 10
2.649622148303024
 20
2.777932463391456
 30
0.0
 10
2.642887864466325
 20
2.787865384021921
 30
0.0
 10
2.634582079009861
 20
2.787865384021921
 30
0.0
 10
2.626276293553423
 20
2.787865384021921
 30
0.0
 10
2.619557127169072
 20
2.777932463391456
 30
0.0
 10
2.619557127169072
 20
2.765710459413893
 30
0.0
 10
2.619557127169072
 20
2.753466415475132
 30
0.0
 10
2.626276293553423
 20
2.743551836771378
 30
0.0
 10
2.634582079009861
 20
2.743551836771378
 30
0.0
  0
SPLINE
  5
DA
330
1F
100
AcDbEntity
  8
Layer 1
 62
     7
420
 16777215
370
    18
100
AcDbSpline
210
0.0
220
0.0
230
1.0
 70
    11
 71
     3
 72
    17
 73
    13
 74
     0
 42
0.0000000001
 43
0.0000000001
 12
1.0
 22
0.0
 32
0.0
 13
1.0
 23
0.0
 33
0.0
 40
0.0
 40
0.0
 40
0.0
 40
0.0
 40
1.0
 40
1.0
 40
1.0
 40
2.0
 40
2.0
 40
2.0
 40
3.0
 40
3.0
 40
3.0
 40
4.0
 40
4.0
 40
4.0
 40
4.0
 10
2.619557127169072
 20
2.765710459413893
 30
0.0
 10
2.619557127169072
 20
2.759841678683971
 30
0.0
 10
2.621128629548341
 20
2.754531301161503
 30
0.0
 10
2.623658085137044
 20
2.750578102295524
 30
0.0
 10
2.628620847417804
 20
2.754187383954255
 30
0.0
 10
2.632089603766038
 20
2.761664809685776
 30
0.0
 10
2.632089603766038
 20
2.770384775004711
 30
0.0
 10
2.632089603766038
 20
2.776253555734633
 30
0.0
 10
2.630499448936891
 20
2.781545443084686
 30
0.0
 10
2.627973691382673
 20
2.785517132123055
 30
0.0
 10
2.623007231067428
 20
2.781907850464323
 30
0.0
 10
2.619557127169072
 20
2.774430424732827
 30
0.0
 10
2.619557127169072
 20
2.765710459413893
 30
0.0
  0
SPLINE
  5
DB
330
1F
100
AcDbEntity
  8
Layer 1
 62
     7
420
 16777215
370
    18
100
AcDbSpline
210
0.0
220
0.0
230
1.0
 70
    11
 71
     3
 72
    17
 73
    13
 74
     0
 42
0.0000000001
 43
0.0000000001
 12
1.0
 22
0.0
 32
0.0
 13
1.0
 23
0.0
 33
0.0
 40
0.0
 40
0.0
 40
0.0
 40
0.0
 40
1.0
 40
1.0
 40
1.0
 40
2.0
 40
2.0
 40
2.0
 40
3.0
 40
3.0
 40
3.0
 40
4.0
 40
4.0
 40
4.0
 40
4.0
 10
2.718797418368695
 20
2.497961668494958
 30
0.0
 10
2.727103203825158
 20
2.497961668494958
 30
0.0
 10
2.73382253248696
 20
2.507894589125423
 30
0.0
 10
2.73382253248696
 20
2.520120433488399
 30
0.0
 10
2.73382253248696
 20
2.532360927947631
 30
0.0
 10
2.727103203825158
 20
2.5422752157455
 30
0.0
 10
2.718797418368695
 20
2.5422752157455
 30
0.0
 10
2.710491797486864
 20
2.5422752157455
 30
0.0
 10
2.703757512112512
 20
2.532360927947631
 30
0.0
 10
2.703757512112512
 20
2.520120433488399
 30
0.0
 10
2.703757512112512
 20
2.507894589125423
 30
0.0
 10
2.710491797486864
 20
2.497961668494958
 30
0.0
 10
2.718797418368695
 20
2.497961668494958
 30
0.0
  0
SPLINE
  5
DC
330
1F
100
AcDbEntity
  8
Layer 1
 62
     7
420
 16777215
370
    18
100
AcDbSpline
210
0.0
220
0.0
230
1.0
 70
    11
 71
     3
 72
    17
 73
    13
 74
     0
 42
0.0000000001
 43
0.0000000001
 12
1.0
 22
0.0
 32
0.0
 13
1.0
 23
0.0
 33
0.0
 40
0.0
 40
0.0
 40
0.0
 40
0.0
 40
1.0
 40
1.0
 40
1.0
 40
2.0
 40
2.0
 40
2.0
 40
3.0
 40
3.0
 40
3.0
 40
4.0
 40
4.0
 40
4.0
 40
4.0
 10
2.703757512112512
 20
2.520120433488399
 30
0.0
 10
2.703757512112512
 20
2.51425151040755
 30
0.0
 10
2.705329176769232
 20
2.50895962305751
 30
0.0
 10
2.707854934323425
 20
2.504987934019103
 30
0.0
 10
2.712839884811097
 20
2.508597215677835
 30
0.0
 10
2.716290150986929
 20
2.516074641409331
 30
0.0
 10
2.716290150986929
 20
2.524794606728265
 30
0.0
 10
2.716290150986929
 20
2.5306633874582
 30
0.0
 10
2.714699996157757
 20
2.53597376498068
 30
0.0
 10
2.712189030741506
 20
2.539926963846634
 30
0.0
 10
2.707204080253834
 20
2.536313984153417
 30
0.0
 10
2.703757512112512
 20
2.528840256456407
 30
0.0
 10
2.703757512112512
 20
2.520120433488399
 30
0.0
  0
SPLINE
  5
DD
330
1F
100
AcDbEntity
  8
Layer 1
 62
     7
420
 16777215
370
    18
100
AcDbSpline
210
0.0
220
0.0
230
1.0
 70
    11
 71
     3
 72
    32
 73
    28
 74
     0
 42
0.0000000001
 43
0.0000000001
 12
1.0
 22
0.0
 32
0.0
 13
1.0
 23
0.0
 33
0.0
 40
0.0
 40
0.0
 40
0.0
 40
0.0
 40
1.0
 40
1.0
 40
1.0
 40
2.0
 40
2.0
 40
2.0
 40
3.0
 40
3.0
 40
3.0
 40
4.0
 40
4.0
 40
4.0
 40
5.0
 40
5.0
 40
5.0
 40
6.0
 40
6.0
 40
6.0
 40
7.0
 40
7.0
 40
7.0
 40
8.0
 40
8.0
 40
8.0
 40
9.0
 40
9.0
 40
9.0
 40
9.0
 10
2.775514173286638
 20
2.396735370498668
 30
0.0
 10
2.775514173286638
 20
2.408979562683145
 30
0.0
 10
2.768780052486894
 20
2.418890295106697
 30
0.0
 10
2.760474267030455
 20
2.418890295106697
 30
0.0
 10
2.757782097924342
 20
2.418890295106697
 30
0.0
 10
2.755274996248545
 20
2.417773488691814
 30
0.0
 10
2.753089292161096
 20
2.41593186751758
 30
0.0
 10
2.753089292161096
 20
2.41593186751758
 30
0.0
 10
2.725568519513293
 20
2.404231286402617
 30
0.0
 10
2.725568519513293
 20
2.404231286402617
 30
0.0
 10
2.725442786340762
 20
2.404231286402617
 30
0.0
 10
2.725335543340659
 20
2.404283058885413
 30
0.0
 10
2.725228300340556
 20
2.404283058885413
 30
0.0
 10
2.716918816849607
 20
2.404283058885413
 30
0.0
 10
2.710184696049863
 20
2.394353836289433
 30
0.0
 10
2.710184696049863
 20
2.382128134277385
 30
0.0
 10
2.710184696049863
 20
2.369887640127394
 30
0.0
 10
2.716918816849607
 20
2.359973209669356
 30
0.0
 10
2.725228300340556
 20
2.359973209669356
 30
0.0
 10
2.727861300894877
 20
2.359973209669356
 30
0.0
 10
2.730283513483452
 20
2.361056733773871
 30
0.0
 10
2.732450561692505
 20
2.362806042462732
 30
0.0
 10
2.732450561692505
 20
2.362806042462732
 30
0.0
 10
2.762352868549543
 20
2.374868892580581
 30
0.0
 10
2.762352868549543
 20
2.374868892580581
 30
0.0
 10
2.769756333591304
 20
2.376259353547463
 30
0.0
 10
2.775514173286638
 20
2.385467459418603
 30
0.0
 10
2.775514173286638
 20
2.396735370498668
 30
0.0
  0
SPLINE
  5
DE
330
1F
100
AcDbEntity
  8
Layer 1
 62
     7
420
 16777215
370
    18
100
AcDbSpline
210
0.0
220
0.0
230
1.0
 70
    11
 71
     3
 72
    32
 73
    28
 74
     0
 42
0.0000000001
 43
0.0000000001
 12
1.0
 22
0.0
 32
0.0
 13
1.0
 23
0.0
 33
0.0
 40
0.0
 40
0.0
 40
0.0
 40
0.0
 40
1.0
 40
1.0
 40
1.0
 40
2.0
 40
2.0
 40
2.0
 40
3.0
 40
3.0
 40
3.0
 40
4.0
 40
4.0
 40
4.0
 40
5.0
 40
5.0
 40
5.0
 40
6.0
 40
6.0
 40
6.0
 40
7.0
 40
7.0
 40
7.0
 40
8.0
 40
8.0
 40
8.0
 40
9.0
 40
9.0
 40
9.0
 40
9.0
 10
2.747327754431277
 20
2.387834201489896
 30
0.0
 10
2.754731219473064
 20
2.389224662456778
 30
0.0
 10
2.760474267030455
 20
2.398432768327919
 30
0.0
 10
2.760474267030455
 20
2.409719169580436
 30
0.0
 10
2.760474267030455
 20
2.412895781204245
 30
0.0
 10
2.75998612647825
 20
2.415894887172726
 30
0.0
 10
2.759172558891224
 20
2.418638828761636
 30
0.0
 10
2.756987020509769
 20
2.418331891899268
 30
0.0
 10
2.754912423162902
 20
2.417466551829446
 30
0.0
 10
2.753089292161096
 20
2.41593186751758
 30
0.0
 10
2.753089292161096
 20
2.41593186751758
 30
0.0
 10
2.725568519513293
 20
2.404231286402617
 30
0.0
 10
2.725568519513293
 20
2.404231286402617
 30
0.0
 10
2.725442786340762
 20
2.404231286402617
 30
0.0
 10
2.725335543340659
 20
2.404283058885413
 30
0.0
 10
2.725228300340556
 20
2.404283058885413
 30
0.0
 10
2.716918816849607
 20
2.404283058885413
 30
0.0
 10
2.710184696049863
 20
2.394353836289433
 30
0.0
 10
2.710184696049863
 20
2.382128134277385
 30
0.0
 10
2.710184696049863
 20
2.378951522653589
 30
0.0
 10
2.710654346429641
 20
2.375934065221094
 30
0.0
 10
2.711467914016642
 20
2.373208475096185
 30
0.0
 10
2.713598146533943
 20
2.373496921786126
 30
0.0
 10
2.715620806744886
 20
2.374328979545554
 30
0.0
 10
2.717407122151119
 20
2.375771212995258
 30
0.0
 10
2.717407122151119
 20
2.375771212995258
 30
0.0
 10
2.747327754431277
 20
2.387834201489896
 30
0.0
 10
2.747327754431277
 20
2.387834201489896
 30
0.0
  0
HATCH
  5
DF
330
1F
100
AcDbEntity
  8
Layer 1
 62
    43
420
 15510365
100
AcDbHatch
 10
0.0
 20
0.0
 30
0.0
210
0.0
220
0.0
230
1.0
  2
SOLID
 70
     1
 71
     0
 91
        1
 92
        1
 93
        1
 72
     4
 94
        3
 73
     0
 74
     1
 95
       32
 96
       28
 40
0.0
 40
0.0
 40
0.0
 40
0.0
 40
1.0
 40
1.0
 40
1.0
 40
2.0
 40
2.0
 40
2.0
 40
3.0
 40
3.0
 40
3.0
 40
4.0
 40
4.0
 40
4.0
 40
5.0
 40
5.0
 40
5.0
 40
6.0
 40
6.0
 40
6.0
 40
7.0
 40
7.0
 40
7.0
 40
8.0
 40
8.0
 40
8.0
 40
9.0
 40
9.0
 40
9.0
 40
9.0
 10
2.747327754431277
 20
2.387834201489896
 10
2.754731219473064
 20
2.389224662456778
 10
2.760474267030455
 20
2.398432768327919
 10
2.760474267030455
 20
2.409719169580436
 10
2.760474267030455
 20
2.412895781204245
 10
2.75998612647825
 20
2.415894887172726
 10
2.759172558891224
 20
2.418638828761636
 10
2.756987020509769
 20
2.418331891899268
 10
2.754912423162902
 20
2.417466551829446
 10
2.753089292161096
 20
2.41593186751758
 10
2.753089292161096
 20
2.41593186751758
 10
2.725568519513293
 20
2.404231286402617
 10
2.725568519513293
 20
2.404231286402617
 10
2.725442786340762
 20
2.404231286402617
 10
2.725335543340659
 20
2.404283058885413
 10
2.725228300340556
 20
2.404283058885413
 10
2.716918816849607
 20
2.404283058885413
 10
2.710184696049863
 20
2.394353836289433
 10
2.710184696049863
 20
2.382128134277385
 10
2.710184696049863
 20
2.378951522653589
 10
2.710654346429641
 20
2.375934065221094
 10
2.711467914016642
 20
2.373208475096185
 10
2.713598146533943
 20
2.373496921786126
 10
2.715620806744886
 20
2.374328979545554
 10
2.717407122151119
 20
2.375771212995258
 10
2.717407122151119
 20
2.375771212995258
 10
2.747327754431277
 20
2.387834201489896
 10
2.747327754431277
 20
2.387834201489896
 97
        0
 97
        0
 75
     2
 76
     1
 98
        0
  0
SPLINE
  5
E0
330
1F
100
AcDbEntity
  8
Layer 1
 62
     7
420
 16777215
370
    40
100
AcDbSpline
210
0.0
220
0.0
230
1.0
 70
    11
 71
     3
 72
    17
 73
    13
 74
     0
 42
0.0000000001
 43
0.0000000001
 12
1.0
 22
0.0
 32
0.0
 13
1.0
 23
0.0
 33
0.0
 40
0.0
 40
0.0
 40
0.0
 40
0.0
 40
1.0
 40
1.0
 40
1.0
 40
2.0
 40
2.0
 40
2.0
 40
3.0
 40
3.0
 40
3.0
 40
4.0
 40
4.0
 40
4.0
 40
4.0
 10
2.628913154655973
 20
2.21262885817618
 30
0.0
 10
2.637218777598668
 20
2.21262885817618
 30
0.0
 10
2.643952898398412
 20
2.222543154051209
 30
0.0
 10
2.643952898398412
 20
2.234765158028772
 30
0.0
 10
2.643952898398412
 20
2.247009350213248
 30
0.0
 10
2.637218777598668
 20
2.256923780671286
 30
0.0
 10
2.628913154655973
 20
2.256923780671286
 30
0.0
 10
2.620607206685766
 20
2.256923780671286
 30
0.0
 10
2.613869387851537
 20
2.247009350213248
 30
0.0
 10
2.613869387851537
 20
2.234765158028772
 30
0.0
 10
2.613869387851537
 20
2.222543154051209
 30
0.0
 10
2.620607206685766
 20
2.21262885817618
 30
0.0
 10
2.628913154655973
 20
2.21262885817618
 30
0.0
  0
HATCH
  5
E1
330
1F
100
AcDbEntity
  8
Layer 1
 62
     7
420
 16777215
100
AcDbHatch
 10
0.0
 20
0.0
 30
0.0
210
0.0
220
0.0
230
1.0
  2
SOLID
 70
     1
 71
     0
 91
        1
 92
        1
 93
        1
 72
     4
 94
        3
 73
     0
 74
     1
 95
       17
 96
       13
 40
0.0
 40
0.0
 40
0.0
 40
0.0
 40
1.0
 40
1.0
 40
1.0
 40
2.0
 40
2.0
 40
2.0
 40
3.0
 40
3.0
 40
3.0
 40
4.0
 40
4.0
 40
4.0
 40
4.0
 10
2.628913154655973
 20
2.21262885817618
 10
2.637218777598668
 20
2.21262885817618
 10
2.643952898398412
 20
2.222543154051209
 10
2.643952898398412
 20
2.234765158028772
 10
2.643952898398412
 20
2.247009350213248
 10
2.637218777598668
 20
2.256923780671286
 10
2.628913154655973
 20
2.256923780671286
 10
2.620607206685766
 20
2.256923780671286
 10
2.613869387851537
 20
2.247009350213248
 10
2.613869387851537
 20
2.234765158028772
 10
2.613869387851537
 20
2.222543154051209
 10
2.620607206685766
 20
2.21262885817618
 10
2.628913154655973
 20
2.21262885817618
 97
        0
 97
        0
 75
     2
 76
     1
 98
        0
  0
SPLINE
  5
E2
330
1F
100
AcDbEntity
  8
Layer 1
 62
     7
420
 16777215
370
    18
100
AcDbSpline
210
0.0
220
0.0
230
1.0
 70
    11
 71
     3
 72
    17
 73
    13
 74
     0
 42
0.0000000001
 43
0.0000000001
 12
1.0
 22
0.0
 32
0.0
 13
1.0
 23
0.0
 33
0.0
 40
0.0
 40
0.0
 40
0.0
 40
0.0
 40
1.0
 40
1.0
 40
1.0
 40
2.0
 40
2.0
 40
2.0
 40
3.0
 40
3.0
 40
3.0
 40
4.0
 40
4.0
 40
4.0
 40
4.0
 10
2.636930330908727
 20
2.213205616973028
 30
0.0
 10
2.645236116365191
 20
2.213205616973028
 30
0.0
 10
2.651970237164935
 20
2.22312004743109
 30
0.0
 10
2.651970237164935
 20
2.235364239615567
 30
0.0
 10
2.651970237164935
 20
2.247586243593105
 30
0.0
 10
2.645236116365191
 20
2.257519164223595
 30
0.0
 10
2.636930330908727
 20
2.257519164223595
 30
0.0
 10
2.628620847417804
 20
2.257519164223595
 30
0.0
 10
2.621886888954375
 20
2.247586243593105
 30
0.0
 10
2.621886888954375
 20
2.235364239615567
 30
0.0
 10
2.621886888954375
 20
2.22312004743109
 30
0.0
 10
2.628620847417804
 20
2.213205616973028
 30
0.0
 10
2.636930330908727
 20
2.213205616973028
 30
0.0
  0
HATCH
  5
E3
330
1F
100
AcDbEntity
  8
Layer 1
 62
   254
420
 13358815
100
AcDbHatch
 10
0.0
 20
0.0
 30
0.0
210
0.0
220
0.0
230
1.0
  2
SOLID
 70
     1
 71
     0
 91
        1
 92
        1
 93
        1
 72
     4
 94
        3
 73
     0
 74
     1
 95
       17
 96
       13
 40
0.0
 40
0.0
 40
0.0
 40
0.0
 40
1.0
 40
1.0
 40
1.0
 40
2.0
 40
2.0
 40
2.0
 40
3.0
 40
3.0
 40
3.0
 40
4.0
 40
4.0
 40
4.0
 40
4.0
 10
2.636930330908727
 20
2.213205616973028
 10
2.645236116365191
 20
2.213205616973028
 10
2.651970237164935
 20
2.22312004743109
 10
2.651970237164935
 20
2.235364239615567
 10
2.651970237164935
 20
2.247586243593105
 10
2.645236116365191
 20
2.257519164223595
 10
2.636930330908727
 20
2.257519164223595
 10
2.628620847417804
 20
2.257519164223595
 10
2.621886888954375
 20
2.247586243593105
 10
2.621886888954375
 20
2.235364239615567
 10
2.621886888954375
 20
2.22312004743109
 10
2.628620847417804
 20
2.213205616973028
 10
2.636930330908727
 20
2.213205616973028
 97
        0
 97
        0
 75
     2
 76
     1
 98
        0
  0
SPLINE
  5
E4
330
1F
100
AcDbEntity
  8
Layer 1
 62
     7
420
 16777215
370
    40
100
AcDbSpline
210
0.0
220
0.0
230
1.0
 70
    11
 71
     3
 72
    17
 73
    13
 74
     0
 42
0.0000000001
 43
0.0000000001
 12
1.0
 22
0.0
 32
0.0
 13
1.0
 23
0.0
 33
0.0
 40
0.0
 40
0.0
 40
0.0
 40
0.0
 40
1.0
 40
1.0
 40
1.0
 40
2.0
 40
2.0
 40
2.0
 40
3.0
 40
3.0
 40
3.0
 40
4.0
 40
4.0
 40
4.0
 40
4.0
 10
2.746443924189028
 20
2.206183049483368
 30
0.0
 10
2.754749709645492
 20
2.206183049483368
 30
0.0
 10
2.761483830445235
 20
2.216115970113833
 30
0.0
 10
2.761483830445235
 20
2.228337974091396
 30
0.0
 10
2.761483830445235
 20
2.240582166275872
 30
0.0
 10
2.754749709645492
 20
2.250492898699425
 30
0.0
 10
2.746443924189028
 20
2.250492898699425
 30
0.0
 10
2.73813813873259
 20
2.250492898699425
 30
0.0
 10
2.73140031989836
 20
2.240582166275872
 30
0.0
 10
2.73140031989836
 20
2.228337974091396
 30
0.0
 10
2.73140031989836
 20
2.216115970113833
 30
0.0
 10
2.73813813873259
 20
2.206183049483368
 30
0.0
 10
2.746443924189028
 20
2.206183049483368
 30
0.0
  0
HATCH
  5
E5
330
1F
100
AcDbEntity
  8
Layer 1
 62
     7
420
 16777215
100
AcDbHatch
 10
0.0
 20
0.0
 30
0.0
210
0.0
220
0.0
230
1.0
  2
SOLID
 70
     1
 71
     0
 91
        1
 92
        1
 93
        1
 72
     4
 94
        3
 73
     0
 74
     1
 95
       17
 96
       13
 40
0.0
 40
0.0
 40
0.0
 40
0.0
 40
1.0
 40
1.0
 40
1.0
 40
2.0
 40
2.0
 40
2.0
 40
3.0
 40
3.0
 40
3.0
 40
4.0
 40
4.0
 40
4.0
 40
4.0
 10
2.746443924189028
 20
2.206183049483368
 10
2.754749709645492
 20
2.206183049483368
 10
2.761483830445235
 20
2.216115970113833
 10
2.761483830445235
 20
2.228337974091396
 10
2.761483830445235
 20
2.240582166275872
 10
2.754749709645492
 20
2.250492898699425
 10
2.746443924189028
 20
2.250492898699425
 10
2.73813813873259
 20
2.250492898699425
 10
2.73140031989836
 20
2.240582166275872
 10
2.73140031989836
 20
2.228337974091396
 10
2.73140031989836
 20
2.216115970113833
 10
2.73813813873259
 20
2.206183049483368
 10
2.746443924189028
 20
2.206183049483368
 97
        0
 97
        0
 75
     2
 76
     1
 98
        0
  0
SPLINE
  5
E6
330
1F
100
AcDbEntity
  8
Layer 1
 62
     7
420
 16777215
370
    18
100
AcDbSpline
210
0.0
220
0.0
230
1.0
 70
    11
 71
     3
 72
    17
 73
    13
 74
     0
 42
0.0000000001
 43
0.0000000001
 12
1.0
 22
0.0
 32
0.0
 13
1.0
 23
0.0
 33
0.0
 40
0.0
 40
0.0
 40
0.0
 40
0.0
 40
1.0
 40
1.0
 40
1.0
 40
2.0
 40
2.0
 40
2.0
 40
3.0
 40
3.0
 40
3.0
 40
4.0
 40
4.0
 40
4.0
 40
4.0
 10
2.754461428640954
 20
2.206778433035677
 30
0.0
 10
2.762767048412014
 20
2.206778433035677
 30
0.0
 10
2.769501169211758
 20
2.216692863493714
 30
0.0
 10
2.769501169211758
 20
2.228933357643705
 30
0.0
 10
2.769501169211758
 20
2.241159059655754
 30
0.0
 10
2.762767048412014
 20
2.251073490113792
 30
0.0
 10
2.754461428640954
 20
2.251073490113792
 30
0.0
 10
2.746155477499087
 20
2.251073490113792
 30
0.0
 10
2.739417658664883
 20
2.241159059655754
 30
0.0
 10
2.739417658664883
 20
2.228933357643705
 30
0.0
 10
2.739417658664883
 20
2.216692863493714
 30
0.0
 10
2.746155477499087
 20
2.206778433035677
 30
0.0
 10
2.754461428640954
 20
2.206778433035677
 30
0.0
  0
HATCH
  5
E7
330
1F
100
AcDbEntity
  8
Layer 1
 62
   254
420
 13358815
100
AcDbHatch
 10
0.0
 20
0.0
 30
0.0
210
0.0
220
0.0
230
1.0
  2
SOLID
 70
     1
 71
     0
 91
        1
 92
        1
 93
        1
 72
     4
 94
        3
 73
     0
 74
     1
 95
       17
 96
       13
 40
0.0
 40
0.0
 40
0.0
 40
0.0
 40
1.0
 40
1.0
 40
1.0
 40
2.0
 40
2.0
 40
2.0
 40
3.0
 40
3.0
 40
3.0
 40
4.0
 40
4.0
 40
4.0
 40
4.0
 10
2.754461428640954
 20
2.206778433035677
 10
2.762767048412014
 20
2.206778433035677
 10
2.769501169211758
 20
2.216692863493714
 10
2.769501169211758
 20
2.228933357643705
 10
2.769501169211758
 20
2.241159059655754
 10
2.762767048412014
 20
2.251073490113792
 10
2.754461428640954
 20
2.251073490113792
 10
2.746155477499087
 20
2.251073490113792
 10
2.739417658664883
 20
2.241159059655754
 10
2.739417658664883
 20
2.228933357643705
 10
2.739417658664883
 20
2.216692863493714
 10
2.746155477499087
 20
2.206778433035677
 10
2.754461428640954
 20
2.206778433035677
 97
        0
 97
        0
 75
     2
 76
     1
 98
        0
  0
SPLINE
  5
E8
330
1F
100
AcDbEntity
  8
Layer 1
 62
     7
420
 16777215
370
    40
100
AcDbSpline
210
0.0
220
0.0
230
1.0
 70
    11
 71
     3
 72
    17
 73
    13
 74
     0
 42
0.0000000001
 43
0.0000000001
 12
1.0
 22
0.0
 32
0.0
 13
1.0
 23
0.0
 33
0.0
 40
0.0
 40
0.0
 40
0.0
 40
0.0
 40
1.0
 40
1.0
 40
1.0
 40
2.0
 40
2.0
 40
2.0
 40
3.0
 40
3.0
 40
3.0
 40
4.0
 40
4.0
 40
4.0
 40
4.0
 10
2.716034986607358
 20
2.089247500988853
 30
0.0
 10
2.724340772063821
 20
2.089247500988853
 30
0.0
 10
2.731078590898051
 20
2.099161931446891
 30
0.0
 10
2.731078590898051
 20
2.111402425596882
 30
0.0
 10
2.731078590898051
 20
2.123628127608931
 30
0.0
 10
2.724340772063821
 20
2.133538860032483
 30
0.0
 10
2.716034986607358
 20
2.133538860032483
 30
0.0
 10
2.707729201150894
 20
2.133538860032483
 30
0.0
 10
2.70099508035115
 20
2.123628127608931
 30
0.0
 10
2.70099508035115
 20
2.111402425596882
 30
0.0
 10
2.70099508035115
 20
2.099161931446891
 30
0.0
 10
2.707729201150894
 20
2.089247500988853
 30
0.0
 10
2.716034986607358
 20
2.089247500988853
 30
0.0
  0
HATCH
  5
E9
330
1F
100
AcDbEntity
  8
Layer 1
 62
     7
420
 16777215
100
AcDbHatch
 10
0.0
 20
0.0
 30
0.0
210
0.0
220
0.0
230
1.0
  2
SOLID
 70
     1
 71
     0
 91
        1
 92
        1
 93
        1
 72
     4
 94
        3
 73
     0
 74
     1
 95
       17
 96
       13
 40
0.0
 40
0.0
 40
0.0
 40
0.0
 40
1.0
 40
1.0
 40
1.0
 40
2.0
 40
2.0
 40
2.0
 40
3.0
 40
3.0
 40
3.0
 40
4.0
 40
4.0
 40
4.0
 40
4.0
 10
2.716034986607358
 20
2.089247500988853
 10
2.724340772063821
 20
2.089247500988853
 10
2.731078590898051
 20
2.099161931446891
 10
2.731078590898051
 20
2.111402425596882
 10
2.731078590898051
 20
2.123628127608931
 10
2.724340772063821
 20
2.133538860032483
 10
2.716034986607358
 20
2.133538860032483
 10
2.707729201150894
 20
2.133538860032483
 10
2.70099508035115
 20
2.123628127608931
 10
2.70099508035115
 20
2.111402425596882
 10
2.70099508035115
 20
2.099161931446891
 10
2.707729201150894
 20
2.089247500988853
 10
2.716034986607358
 20
2.089247500988853
 97
        0
 97
        0
 75
     2
 76
     1
 98
        0
  0
SPLINE
  5
EA
330
1F
100
AcDbEntity
  8
Layer 1
 62
     7
420
 16777215
370
    18
100
AcDbSpline
210
0.0
220
0.0
230
1.0
 70
    11
 71
     3
 72
    17
 73
    13
 74
     0
 42
0.0000000001
 43
0.0000000001
 12
1.0
 22
0.0
 32
0.0
 13
1.0
 23
0.0
 33
0.0
 40
0.0
 40
0.0
 40
0.0
 40
0.0
 40
1.0
 40
1.0
 40
1.0
 40
2.0
 40
2.0
 40
2.0
 40
3.0
 40
3.0
 40
3.0
 40
4.0
 40
4.0
 40
4.0
 40
4.0
 10
2.72405232537388
 20
2.089824394368735
 30
0.0
 10
2.732358110830344
 20
2.089824394368735
 30
0.0
 10
2.739095929664548
 20
2.099738824826773
 30
0.0
 10
2.739095929664548
 20
2.111979318976763
 30
0.0
 10
2.739095929664548
 20
2.124205020988812
 30
0.0
 10
2.732358110830344
 20
2.134137941619277
 30
0.0
 10
2.72405232537388
 20
2.134137941619277
 30
0.0
 10
2.715746539917417
 20
2.134137941619277
 30
0.0
 10
2.709012583654966
 20
2.124205020988812
 30
0.0
 10
2.709012583654966
 20
2.111979318976763
 30
0.0
 10
2.709012583654966
 20
2.099738824826773
 30
0.0
 10
2.715746539917417
 20
2.089824394368735
 30
0.0
 10
2.72405232537388
 20
2.089824394368735
 30
0.0
  0
HATCH
  5
EB
330
1F
100
AcDbEntity
  8
Layer 1
 62
   254
420
 13358815
100
AcDbHatch
 10
0.0
 20
0.0
 30
0.0
210
0.0
220
0.0
230
1.0
  2
SOLID
 70
     1
 71
     0
 91
        1
 92
        1
 93
        1
 72
     4
 94
        3
 73
     0
 74
     1
 95
       17
 96
       13
 40
0.0
 40
0.0
 40
0.0
 40
0.0
 40
1.0
 40
1.0
 40
1.0
 40
2.0
 40
2.0
 40
2.0
 40
3.0
 40
3.0
 40
3.0
 40
4.0
 40
4.0
 40
4.0
 40
4.0
 10
2.72405232537388
 20
2.089824394368735
 10
2.732358110830344
 20
2.089824394368735
 10
2.739095929664548
 20
2.099738824826773
 10
2.739095929664548
 20
2.111979318976763
 10
2.739095929664548
 20
2.124205020988812
 10
2.732358110830344
 20
2.134137941619277
 10
2.72405232537388
 20
2.134137941619277
 10
2.715746539917417
 20
2.134137941619277
 10
2.709012583654966
 20
2.124205020988812
 10
2.709012583654966
 20
2.111979318976763
 10
2.709012583654966
 20
2.099738824826773
 10
2.715746539917417
 20
2.089824394368735
 10
2.72405232537388
 20
2.089824394368735
 97
        0
 97
        0
 75
     2
 76
     1
 98
        0
  0
POLYLINE
  5
EC
330
1F
100
AcDbEntity
  8
Layer 1
 62
     7
420
 16777215
370
    18
100
AcDb2dPolyline
 66
     1
 10
0.0
 20
0.0
 30
0.0
  0
VERTEX
  5
ED
330
EC
100
AcDbEntity
  8
Layer 1
 62
     7
420
 16777215
370
    18
100
AcDbVertex
100
AcDb2dVertex
 10
2.55773322434796
 20
2.295583033192113
 30
0.0
  0
VERTEX
  5
EE
330
EC
100
AcDbEntity
  8
Layer 1
 62
     7
420
 16777215
370
    18
100
AcDbVertex
100
AcDb2dVertex
 10
2.576693047159728
 20
2.287403117380209
 30
0.0
  0
SEQEND
  5
EF
330
EC
100
AcDbEntity
  8
Layer 1
 62
     7
420
 16777215
370
    18
  0
POLYLINE
  5
F0
330
1F
100
AcDbEntity
  8
Layer 1
 62
     7
420
 16777215
370
    18
100
AcDb2dPolyline
 66
     1
 10
0.0
 20
0.0
 30
0.0
  0
VERTEX
  5
F1
330
F0
100
AcDbEntity
  8
Layer 1
 62
     7
420
 16777215
370
    18
100
AcDbVertex
100
AcDb2dVertex
 10
2.652709844062201
 20
2.35015123007348
 30
0.0
  0
VERTEX
  5
F2
330
F0
100
AcDbEntity
  8
Layer 1
 62
     7
420
 16777215
370
    18
100
AcDbVertex
100
AcDb2dVertex
 10
2.667535264318202
 20
2.34139058637518
 30
0.0
  0
SEQEND
  5
F3
330
F0
100
AcDbEntity
  8
Layer 1
 62
     7
420
 16777215
370
    18
  0
POLYLINE
  5
F4
330
1F
100
AcDbEntity
  8
Layer 1
 62
     7
420
 16777215
370
    18
100
AcDb2dPolyline
 66
     1
 10
0.0
 20
0.0
 30
0.0
  0
VERTEX
  5
F5
330
F4
100
AcDbEntity
  8
Layer 1
 62
     7
420
 16777215
370
    18
100
AcDbVertex
100
AcDb2dVertex
 10
2.830100860340407
 20
3.104579849575329
 30
0.0
  0
VERTEX
  5
F6
330
F4
100
AcDbEntity
  8
Layer 1
 62
     7
420
 16777215
370
    18
100
AcDbVertex
100
AcDb2dVertex
 10
2.671795400046524
 20
3.037212755336542
 30
0.0
  0
VERTEX
  5
F7
330
F4
100
AcDbEntity
  8
Layer 1
 62
     7
420
 16777215
370
    18
100
AcDbVertex
100
AcDb2dVertex
 10
2.670171962907009
 20
2.915976392734339
 30
0.0
  0
VERTEX
  5
F8
330
F4
100
AcDbEntity
  8
Layer 1
 62
     7
420
 16777215
370
    18
100
AcDbVertex
100
AcDb2dVertex
 10
2.573494247329007
 20
2.79514326518976
 30
0.0
  0
VERTEX
  5
F9
330
F4
100
AcDbEntity
  8
Layer 1
 62
     7
420
 16777215
370
    18
100
AcDbVertex
100
AcDb2dVertex
 10
2.574270834571153
 20
2.667279875489334
 30
0.0
  0
VERTEX
  5
FA
330
F4
100
AcDbEntity
  8
Layer 1
 62
     7
420
 16777215
370
    18
100
AcDbVertex
100
AcDb2dVertex
 10
2.674232404773066
 20
2.604461363668836
 30
0.0
  0
VERTEX
  5
FB
330
F4
100
AcDbEntity
  8
Layer 1
 62
     7
420
 16777215
370
    18
100
AcDbVertex
100
AcDb2dVertex
 10
2.673311594185962
 20
2.336283600749463
 30
0.0
  0
VERTEX
  5
FC
330
F4
100
AcDbEntity
  8
Layer 1
 62
     7
420
 16777215
370
    18
100
AcDbVertex
100
AcDb2dVertex
 10
2.579344537886477
 20
2.284766282319399
 30
0.0
  0
VERTEX
  5
FD
330
F4
100
AcDbEntity
  8
Layer 1
 62
     7
420
 16777215
370
    18
100
AcDbVertex
100
AcDb2dVertex
 10
2.581260119750444
 20
2.149177847875484
 30
0.0
  0
SEQEND
  5
FE
330
F4
100
AcDbEntity
  8
Layer 1
 62
     7
420
 16777215
370
    18
  0
POLYLINE
  5
FF
330
1F
100
AcDbEntity
  8
Layer 1
 62
     7
420
 16777215
370
    18
100
AcDb2dPolyline
 66
     1
 10
0.0
 20
0.0
 30
0.0
  0
VERTEX
  5
100
330
FF
100
AcDbEntity
  8
Layer 1
 62
     7
420
 16777215
370
    18
100
AcDbVertex
100
AcDb2dVertex
 10
2.508834114334276
 20
2.315012506383684
 30
0.0
  0
VERTEX
  5
101
330
FF
100
AcDbEntity
  8
Layer 1
 62
     7
420
 16777215
370
    18
100
AcDbVertex
100
AcDb2dVertex
 10
2.509015318024088
 20
2.288394054150558
 30
0.0
  0
SEQEND
  5
102
330
FF
100
AcDbEntity
  8
Layer 1
 62
     7
420
 16777215
370
    18
  0
POLYLINE
  5
103
330
1F
100
AcDbEntity
  8
Layer 1
 62
     7
420
 16777215
370
    18
100
AcDb2dPolyline
 66
     1
 10
0.0
 20
0.0
 30
0.0
  0
VERTEX
  5
104
330
103
100
AcDbEntity
  8
Layer 1
 62
     7
420
 16777215
370
    18
100
AcDbVertex
100
AcDb2dVertex
 10
2.645975723262482
 20
2.384221221796679
 30
0.0
  0
VERTEX
  5
105
330
103
100
AcDbEntity
  8
Layer 1
 62
     7
420
 16777215
370
    18
100
AcDbVertex
100
AcDb2dVertex
 10
2.509015318024088
 20
2.316454739833388
 30
0.0
  0
VERTEX
  5
106
330
103
100
AcDbEntity
  8
Layer 1
 62
     7
420
 16777215
370
    18
100
AcDbVertex
100
AcDb2dVertex
 10
2.245186443660739
 20
2.428734462909511
 30
0.0
  0
SEQEND
  5
107
330
103
100
AcDbEntity
  8
Layer 1
 62
     7
420
 16777215
370
    18
  0
SPLINE
  5
108
330
1F
100
AcDbEntity
  8
Layer 1
 62
     7
420
 16777215
370
    40
100
AcDbSpline
210
0.0
220
0.0
230
1.0
 70
    11
 71
     3
 72
    17
 73
    13
 74
     0
 42
0.0000000001
 43
0.0000000001
 12
1.0
 22
0.0
 32
0.0
 13
1.0
 23
0.0
 33
0.0
 40
0.0
 40
0.0
 40
0.0
 40
0.0
 40
1.0
 40
1.0
 40
1.0
 40
2.0
 40
2.0
 40
2.0
 40
3.0
 40
3.0
 40
3.0
 40
4.0
 40
4.0
 40
4.0
 40
4.0
 10
2.539927188295931
 20
2.367502546379127
 30
0.0
 10
2.553813307792375
 20
2.367502546379127
 30
0.0
 10
2.565062728700013
 20
2.374073815166007
 30
0.0
 10
2.565062728700013
 20
2.382202094967119
 30
0.0
 10
2.565062728700013
 20
2.390326676733745
 30
0.0
 10
2.553813307792375
 20
2.396916574188506
 30
0.0
 10
2.539927188295931
 20
2.396916574188506
 30
0.0
 10
2.526041068799486
 20
2.396916574188506
 30
0.0
 10
2.514791807522695
 20
2.390326676733745
 30
0.0
 10
2.514791807522695
 20
2.382202094967119
 30
0.0
 10
2.514791807522695
 20
2.374073815166007
 30
0.0
 10
2.526041068799486
 20
2.367502546379127
 30
0.0
 10
2.539927188295931
 20
2.367502546379127
 30
0.0
  0
HATCH
  5
109
330
1F
100
AcDbEntity
  8
Layer 1
 62
     7
420
 16777215
100
AcDbHatch
 10
0.0
 20
0.0
 30
0.0
210
0.0
220
0.0
230
1.0
  2
SOLID
 70
     1
 71
     0
 91
        1
 92
        1
 93
        1
 72
     4
 94
        3
 73
     0
 74
     1
 95
       17
 96
       13
 40
0.0
 40
0.0
 40
0.0
 40
0.0
 40
1.0
 40
1.0
 40
1.0
 40
2.0
 40
2.0
 40
2.0
 40
3.0
 40
3.0
 40
3.0
 40
4.0
 40
4.0
 40
4.0
 40
4.0
 10
2.539927188295931
 20
2.367502546379127
 10
2.553813307792375
 20
2.367502546379127
 10
2.565062728700013
 20
2.374073815166007
 10
2.565062728700013
 20
2.382202094967119
 10
2.565062728700013
 20
2.390326676733745
 10
2.553813307792375
 20
2.396916574188506
 10
2.539927188295931
 20
2.396916574188506
 10
2.526041068799486
 20
2.396916574188506
 10
2.514791807522695
 20
2.390326676733745
 10
2.514791807522695
 20
2.382202094967119
 10
2.514791807522695
 20
2.374073815166007
 10
2.526041068799486
 20
2.367502546379127
 10
2.539927188295931
 20
2.367502546379127
 97
        0
 97
        0
 75
     2
 76
     1
 98
        0
  0
SPLINE
  5
10A
330
1F
100
AcDbEntity
  8
Layer 1
 62
     7
420
 16777215
370
    18
100
AcDbSpline
210
0.0
220
0.0
230
1.0
 70
    11
 71
     3
 72
    17
 73
    13
 74
     0
 42
0.0000000001
 43
0.0000000001
 12
1.0
 22
0.0
 32
0.0
 13
1.0
 23
0.0
 33
0.0
 40
0.0
 40
0.0
 40
0.0
 40
0.0
 40
1.0
 40
1.0
 40
1.0
 40
2.0
 40
2.0
 40
2.0
 40
3.0
 40
3.0
 40
3.0
 40
4.0
 40
4.0
 40
4.0
 40
4.0
 10
2.539856925640682
 20
2.373840838993349
 30
0.0
 10
2.553739347102641
 20
2.373840838993349
 30
0.0
 10
2.564988768010279
 20
2.380430736448135
 30
0.0
 10
2.564988768010279
 20
2.388555318214761
 30
0.0
 10
2.564988768010279
 20
2.396683598015872
 30
0.0
 10
2.553739347102641
 20
2.403273495470633
 30
0.0
 10
2.539856925640682
 20
2.403273495470633
 30
0.0
 10
2.52598929631669
 20
2.403273495470633
 30
0.0
 10
2.514721385236625
 20
2.396683598015872
 30
0.0
 10
2.514721385236625
 20
2.388555318214761
 30
0.0
 10
2.514721385236625
 20
2.380430736448135
 30
0.0
 10
2.52598929631669
 20
2.373840838993349
 30
0.0
 10
2.539856925640682
 20
2.373840838993349
 30
0.0
  0
HATCH
  5
10B
330
1F
100
AcDbEntity
  8
Layer 1
 62
   254
420
 13358815
100
AcDbHatch
 10
0.0
 20
0.0
 30
0.0
210
0.0
220
0.0
230
1.0
  2
SOLID
 70
     1
 71
     0
 91
        1
 92
        1
 93
        1
 72
     4
 94
        3
 73
     0
 74
     1
 95
       17
 96
       13
 40
0.0
 40
0.0
 40
0.0
 40
0.0
 40
1.0
 40
1.0
 40
1.0
 40
2.0
 40
2.0
 40
2.0
 40
3.0
 40
3.0
 40
3.0
 40
4.0
 40
4.0
 40
4.0
 40
4.0
 10
2.539856925640682
 20
2.373840838993349
 10
2.553739347102641
 20
2.373840838993349
 10
2.564988768010279
 20
2.380430736448135
 10
2.564988768010279
 20
2.388555318214761
 10
2.564988768010279
 20
2.396683598015872
 10
2.553739347102641
 20
2.403273495470633
 10
2.539856925640682
 20
2.403273495470633
 10
2.52598929631669
 20
2.403273495470633
 10
2.514721385236625
 20
2.396683598015872
 10
2.514721385236625
 20
2.388555318214761
 10
2.514721385236625
 20
2.380430736448135
 10
2.52598929631669
 20
2.373840838993349
 10
2.539856925640682
 20
2.373840838993349
 97
        0
 97
        0
 75
     2
 76
     1
 98
        0
  0
SPLINE
  5
10C
330
1F
100
AcDbEntity
  8
Layer 1
 62
     7
420
 16777215
370
    40
100
AcDbSpline
210
0.0
220
0.0
230
1.0
 70
    11
 71
     3
 72
    17
 73
    13
 74
     0
 42
0.0000000001
 43
0.0000000001
 12
1.0
 22
0.0
 32
0.0
 13
1.0
 23
0.0
 33
0.0
 40
0.0
 40
0.0
 40
0.0
 40
0.0
 40
1.0
 40
1.0
 40
1.0
 40
2.0
 40
2.0
 40
2.0
 40
3.0
 40
3.0
 40
3.0
 40
4.0
 40
4.0
 40
4.0
 40
4.0
 10
2.570894529085055
 20
2.441751544301648
 30
0.0
 10
2.5847806485815
 20
2.441751544301648
 30
0.0
 10
2.596030069489138
 20
2.448341582294031
 30
0.0
 10
2.596030069489138
 20
2.45646972155752
 30
0.0
 10
2.596030069489138
 20
2.464594303324146
 30
0.0
 10
2.5847806485815
 20
2.471184200778907
 30
0.0
 10
2.570894529085055
 20
2.471184200778907
 30
0.0
 10
2.557008409588611
 20
2.471184200778907
 30
0.0
 10
2.545758988680998
 20
2.464594303324146
 30
0.0
 10
2.545758988680998
 20
2.45646972155752
 30
0.0
 10
2.545758988680998
 20
2.448341582294031
 30
0.0
 10
2.557008409588611
 20
2.441751544301648
 30
0.0
 10
2.570894529085055
 20
2.441751544301648
 30
0.0
  0
HATCH
  5
10D
330
1F
100
AcDbEntity
  8
Layer 1
 62
     7
420
 16777215
100
AcDbHatch
 10
0.0
 20
0.0
 30
0.0
210
0.0
220
0.0
230
1.0
  2
SOLID
 70
     1
 71
     0
 91
        1
 92
        1
 93
        1
 72
     4
 94
        3
 73
     0
 74
     1
 95
       17
 96
       13
 40
0.0
 40
0.0
 40
0.0
 40
0.0
 40
1.0
 40
1.0
 40
1.0
 40
2.0
 40
2.0
 40
2.0
 40
3.0
 40
3.0
 40
3.0
 40
4.0
 40
4.0
 40
4.0
 40
4.0
 10
2.570894529085055
 20
2.441751544301648
 10
2.5847806485815
 20
2.441751544301648
 10
2.596030069489138
 20
2.448341582294031
 10
2.596030069489138
 20
2.45646972155752
 10
2.596030069489138
 20
2.464594303324146
 10
2.5847806485815
 20
2.471184200778907
 10
2.570894529085055
 20
2.471184200778907
 10
2.557008409588611
 20
2.471184200778907
 10
2.545758988680998
 20
2.464594303324146
 10
2.545758988680998
 20
2.45646972155752
 10
2.545758988680998
 20
2.448341582294031
 10
2.557008409588611
 20
2.441751544301648
 10
2.570894529085055
 20
2.441751544301648
 97
        0
 97
        0
 75
     2
 76
     1
 98
        0
  0
SPLINE
  5
10E
330
1F
100
AcDbEntity
  8
Layer 1
 62
     7
420
 16777215
370
    18
100
AcDbSpline
210
0.0
220
0.0
230
1.0
 70
    11
 71
     3
 72
    17
 73
    13
 74
     0
 42
0.0000000001
 43
0.0000000001
 12
1.0
 22
0.0
 32
0.0
 13
1.0
 23
0.0
 33
0.0
 40
0.0
 40
0.0
 40
0.0
 40
0.0
 40
1.0
 40
1.0
 40
1.0
 40
2.0
 40
2.0
 40
2.0
 40
3.0
 40
3.0
 40
3.0
 40
4.0
 40
4.0
 40
4.0
 40
4.0
 10
2.570839058567774
 20
2.448108465583775
 30
0.0
 10
2.584706687891765
 20
2.448108465583775
 30
0.0
 10
2.595974598971831
 20
2.454698363038536
 30
0.0
 10
2.595974598971831
 20
2.462804454632735
 30
0.0
 10
2.595974598971831
 20
2.470951224606273
 30
0.0
 10
2.584706687891765
 20
2.477522631888607
 30
0.0
 10
2.570839058567774
 20
2.477522631888607
 30
0.0
 10
2.556956637105814
 20
2.477522631888607
 30
0.0
 10
2.545688726025749
 20
2.470951224606273
 30
0.0
 10
2.545688726025749
 20
2.462804454632735
 30
0.0
 10
2.545688726025749
 20
2.454698363038536
 30
0.0
 10
2.556956637105814
 20
2.448108465583775
 30
0.0
 10
2.570839058567774
 20
2.448108465583775
 30
0.0
  0
HATCH
  5
10F
330
1F
100
AcDbEntity
  8
Layer 1
 62
   254
420
 13358815
100
AcDbHatch
 10
0.0
 20
0.0
 30
0.0
210
0.0
220
0.0
230
1.0
  2
SOLID
 70
     1
 71
     0
 91
        1
 92
        1
 93
        1
 72
     4
 94
        3
 73
     0
 74
     1
 95
       17
 96
       13
 40
0.0
 40
0.0
 40
0.0
 40
0.0
 40
1.0
 40
1.0
 40
1.0
 40
2.0
 40
2.0
 40
2.0
 40
3.0
 40
3.0
 40
3.0
 40
4.0
 40
4.0
 40
4.0
 40
4.0
 10
2.570839058567774
 20
2.448108465583775
 10
2.584706687891765
 20
2.448108465583775
 10
2.595974598971831
 20
2.454698363038536
 10
2.595974598971831
 20
2.462804454632735
 10
2.595974598971831
 20
2.470951224606273
 10
2.584706687891765
 20
2.477522631888607
 10
2.570839058567774
 20
2.477522631888607
 10
2.556956637105814
 20
2.477522631888607
 10
2.545688726025749
 20
2.470951224606273
 10
2.545688726025749
 20
2.462804454632735
 10
2.545688726025749
 20
2.454698363038536
 10
2.556956637105814
 20
2.448108465583775
 10
2.570839058567774
 20
2.448108465583775
 97
        0
 97
        0
 75
     2
 76
     1
 98
        0
  0
SPLINE
  5
110
330
1F
100
AcDbEntity
  8
Layer 1
 62
     7
420
 16777215
370
    40
100
AcDbSpline
210
0.0
220
0.0
230
1.0
 70
    11
 71
     3
 72
    17
 73
    13
 74
     0
 42
0.0000000001
 43
0.0000000001
 12
1.0
 22
0.0
 32
0.0
 13
1.0
 23
0.0
 33
0.0
 40
0.0
 40
0.0
 40
0.0
 40
0.0
 40
1.0
 40
1.0
 40
1.0
 40
2.0
 40
2.0
 40
2.0
 40
3.0
 40
3.0
 40
3.0
 40
4.0
 40
4.0
 40
4.0
 40
4.0
 10
2.370915918163948
 20
2.418368872244122
 30
0.0
 10
2.384802037660342
 20
2.418368872244122
 30
0.0
 10
2.39605145856798
 20
2.424958769698883
 30
0.0
 10
2.39605145856798
 20
2.433083351465509
 30
0.0
 10
2.39605145856798
 20
2.441211631266621
 30
0.0
 10
2.384802037660342
 20
2.447801528721394
 30
0.0
 10
2.370915918163948
 20
2.447801528721394
 30
0.0
 10
2.357048288839906
 20
2.447801528721394
 30
0.0
 10
2.34578037775984
 20
2.441211631266621
 30
0.0
 10
2.34578037775984
 20
2.433083351465509
 30
0.0
 10
2.34578037775984
 20
2.424958769698883
 30
0.0
 10
2.357048288839906
 20
2.418368872244122
 30
0.0
 10
2.370915918163948
 20
2.418368872244122
 30
0.0
  0
HATCH
  5
111
330
1F
100
AcDbEntity
  8
Layer 1
 62
     7
420
 16777215
100
AcDbHatch
 10
0.0
 20
0.0
 30
0.0
210
0.0
220
0.0
230
1.0
  2
SOLID
 70
     1
 71
     0
 91
        1
 92
        1
 93
        1
 72
     4
 94
        3
 73
     0
 74
     1
 95
       17
 96
       13
 40
0.0
 40
0.0
 40
0.0
 40
0.0
 40
1.0
 40
1.0
 40
1.0
 40
2.0
 40
2.0
 40
2.0
 40
3.0
 40
3.0
 40
3.0
 40
4.0
 40
4.0
 40
4.0
 40
4.0
 10
2.370915918163948
 20
2.418368872244122
 10
2.384802037660342
 20
2.418368872244122
 10
2.39605145856798
 20
2.424958769698883
 10
2.39605145856798
 20
2.433083351465509
 10
2.39605145856798
 20
2.441211631266621
 10
2.384802037660342
 20
2.447801528721394
 10
2.370915918163948
 20
2.447801528721394
 10
2.357048288839906
 20
2.447801528721394
 10
2.34578037775984
 20
2.441211631266621
 10
2.34578037775984
 20
2.433083351465509
 10
2.34578037775984
 20
2.424958769698883
 10
2.357048288839906
 20
2.418368872244122
 10
2.370915918163948
 20
2.418368872244122
 97
        0
 97
        0
 75
     2
 76
     1
 98
        0
  0
SPLINE
  5
112
330
1F
100
AcDbEntity
  8
Layer 1
 62
     7
420
 16777215
370
    18
100
AcDbSpline
210
0.0
220
0.0
230
1.0
 70
    11
 71
     3
 72
    17
 73
    13
 74
     0
 42
0.0000000001
 43
0.0000000001
 12
1.0
 22
0.0
 32
0.0
 13
1.0
 23
0.0
 33
0.0
 40
0.0
 40
0.0
 40
0.0
 40
0.0
 40
1.0
 40
1.0
 40
1.0
 40
2.0
 40
2.0
 40
2.0
 40
3.0
 40
3.0
 40
3.0
 40
4.0
 40
4.0
 40
4.0
 40
4.0
 10
2.370860447646616
 20
2.424707303353822
 30
0.0
 10
2.38474656714306
 20
2.424707303353822
 30
0.0
 10
2.395995988050698
 20
2.431297200808583
 30
0.0
 10
2.395995988050698
 20
2.439421782575209
 30
0.0
 10
2.395995988050698
 20
2.447550062376321
 30
0.0
 10
2.38474656714306
 20
2.454139959831082
 30
0.0
 10
2.370860447646616
 20
2.454139959831082
 30
0.0
 10
2.356974328150171
 20
2.454139959831082
 30
0.0
 10
2.345724907242533
 20
2.447550062376321
 30
0.0
 10
2.345724907242533
 20
2.439421782575209
 30
0.0
 10
2.345724907242533
 20
2.431297200808583
 30
0.0
 10
2.356974328150171
 20
2.424707303353822
 30
0.0
 10
2.370860447646616
 20
2.424707303353822
 30
0.0
  0
HATCH
  5
113
330
1F
100
AcDbEntity
  8
Layer 1
 62
   254
420
 13358815
100
AcDbHatch
 10
0.0
 20
0.0
 30
0.0
210
0.0
220
0.0
230
1.0
  2
SOLID
 70
     1
 71
     0
 91
        1
 92
        1
 93
        1
 72
     4
 94
        3
 73
     0
 74
     1
 95
       17
 96
       13
 40
0.0
 40
0.0
 40
0.0
 40
0.0
 40
1.0
 40
1.0
 40
1.0
 40
2.0
 40
2.0
 40
2.0
 40
3.0
 40
3.0
 40
3.0
 40
4.0
 40
4.0
 40
4.0
 40
4.0
 10
2.370860447646616
 20
2.424707303353822
 10
2.38474656714306
 20
2.424707303353822
 10
2.395995988050698
 20
2.431297200808583
 10
2.395995988050698
 20
2.439421782575209
 10
2.395995988050698
 20
2.447550062376321
 10
2.38474656714306
 20
2.454139959831082
 10
2.370860447646616
 20
2.454139959831082
 10
2.356974328150171
 20
2.454139959831082
 10
2.345724907242533
 20
2.447550062376321
 10
2.345724907242533
 20
2.439421782575209
 10
2.345724907242533
 20
2.431297200808583
 10
2.356974328150171
 20
2.424707303353822
 10
2.370860447646616
 20
2.424707303353822
 97
        0
 97
        0
 75
     2
 76
     1
 98
        0
  0
POLYLINE
  5
114
330
1F
100
AcDbEntity
  8
Layer 1
 62
     7
420
 16777215
370
    18
100
AcDb2dPolyline
 66
     1
 10
0.0
 20
0.0
 30
0.0
  0
VERTEX
  5
115
330
114
100
AcDbEntity
  8
Layer 1
 62
     7
420
 16777215
370
    18
100
AcDbVertex
100
AcDb2dVertex
 10
2.648213034126759
 20
2.609483294501362
 30
0.0
  0
VERTEX
  5
116
330
114
100
AcDbEntity
  8
Layer 1
 62
     7
420
 16777215
370
    18
100
AcDbVertex
100
AcDb2dVertex
 10
2.662062173278324
 20
2.605689111118307
 30
0.0
  0
SEQEND
  5
117
330
114
100
AcDbEntity
  8
Layer 1
 62
     7
420
 16777215
370
    18
  0
POLYLINE
  5
118
330
1F
100
AcDbEntity
  8
Layer 1
 62
     7
420
 16777215
370
    18
100
AcDb2dPolyline
 66
     1
 10
0.0
 20
0.0
 30
0.0
  0
VERTEX
  5
119
330
118
100
AcDbEntity
  8
Layer 1
 62
     7
420
 16777215
370
    18
100
AcDbVertex
100
AcDb2dVertex
 10
2.553920550792478
 20
2.670097777767978
 30
0.0
  0
VERTEX
  5
11A
330
118
100
AcDbEntity
  8
Layer 1
 62
     7
420
 16777215
370
    18
100
AcDbVertex
100
AcDb2dVertex
 10
2.571634135982347
 20
2.667279875489334
 30
0.0
  0
SEQEND
  5
11B
330
118
100
AcDbEntity
  8
Layer 1
 62
     7
420
 16777215
370
    18
  0
POLYLINE
  5
11C
330
1F
100
AcDbEntity
  8
Layer 1
 62
     7
420
 16777215
370
    18
100
AcDb2dPolyline
 66
     1
 10
0.0
 20
0.0
 30
0.0
  0
VERTEX
  5
11D
330
11C
100
AcDbEntity
  8
Layer 1
 62
     7
420
 16777215
370
    18
100
AcDbVertex
100
AcDb2dVertex
 10
2.647258941229261
 20
2.922226071016363
 30
0.0
  0
VERTEX
  5
11E
330
11C
100
AcDbEntity
  8
Layer 1
 62
     7
420
 16777215
370
    18
100
AcDbVertex
100
AcDb2dVertex
 10
2.66441042517719
 20
2.915199805492193
 30
0.0
  0
SEQEND
  5
11F
330
11C
100
AcDbEntity
  8
Layer 1
 62
     7
420
 16777215
370
    18
  0
POLYLINE
  5
120
330
1F
100
AcDbEntity
  8
Layer 1
 62
     7
420
 16777215
370
    18
100
AcDb2dPolyline
 66
     1
 10
0.0
 20
0.0
 30
0.0
  0
VERTEX
  5
121
330
120
100
AcDbEntity
  8
Layer 1
 62
     7
420
 16777215
370
    18
100
AcDbVertex
100
AcDb2dVertex
 10
2.654950852960964
 20
3.048443686071727
 30
0.0
  0
VERTEX
  5
122
330
120
100
AcDbEntity
  8
Layer 1
 62
     7
420
 16777215
370
    18
100
AcDbVertex
100
AcDb2dVertex
 10
2.670678593631641
 20
3.039468556373246
 30
0.0
  0
SEQEND
  5
123
330
120
100
AcDbEntity
  8
Layer 1
 62
     7
420
 16777215
370
    18
  0
POLYLINE
  5
124
330
1F
100
AcDbEntity
  8
Layer 1
 62
     7
420
 16777215
370
    18
100
AcDb2dPolyline
 66
     1
 10
0.0
 20
0.0
 30
0.0
  0
VERTEX
  5
125
330
124
100
AcDbEntity
  8
Layer 1
 62
     7
420
 16777215
370
    18
100
AcDbVertex
100
AcDb2dVertex
 10
2.552785254205143
 20
2.800342552379056
 30
0.0
  0
VERTEX
  5
126
330
124
100
AcDbEntity
  8
Layer 1
 62
     7
420
 16777215
370
    18
100
AcDbVertex
100
AcDb2dVertex
 10
2.570857548740201
 20
2.79514326518976
 30
0.0
  0
SEQEND
  5
127
330
124
100
AcDbEntity
  8
Layer 1
 62
     7
420
 16777215
370
    18
  0
POLYLINE
  5
128
330
1F
100
AcDbEntity
  8
Layer 1
 62
     7
420
 16777215
370
    18
100
AcDb2dPolyline
 66
     1
 10
0.0
 20
0.0
 30
0.0
  0
VERTEX
  5
129
330
128
100
AcDbEntity
  8
Layer 1
 62
     7
420
 16777215
370
    18
100
AcDbVertex
100
AcDb2dVertex
 10
2.528100874008411
 20
3.193258716559234
 30
0.0
  0
VERTEX
  5
12A
330
128
100
AcDbEntity
  8
Layer 1
 62
     7
420
 16777215
370
    18
100
AcDbVertex
100
AcDb2dVertex
 10
2.781815624051483
 20
3.109058169338343
 30
0.0
  0
VERTEX
  5
12B
330
128
100
AcDbEntity
  8
Layer 1
 62
     7
420
 16777215
370
    18
100
AcDbVertex
100
AcDb2dVertex
 10
2.648956502078666
 20
3.050680996936004
 30
0.0
  0
VERTEX
  5
12C
330
128
100
AcDbEntity
  8
Layer 1
 62
     7
420
 16777215
370
    18
100
AcDbVertex
100
AcDb2dVertex
 10
2.647258941229261
 20
2.922226071016363
 30
0.0
  0
VERTEX
  5
12D
330
128
100
AcDbEntity
  8
Layer 1
 62
     7
420
 16777215
370
    18
100
AcDbVertex
100
AcDb2dVertex
 10
2.619974842788578
 20
2.88791940508602
 30
0.0
  0
SEQEND
  5
12E
330
128
100
AcDbEntity
  8
Layer 1
 62
     7
420
 16777215
370
    18
  0
POLYLINE
  5
12F
330
1F
100
AcDbEntity
  8
Layer 1
 62
     7
420
 16777215
370
    18
100
AcDb2dPolyline
 66
     1
 10
0.0
 20
0.0
 30
0.0
  0
VERTEX
  5
130
330
12F
100
AcDbEntity
  8
Layer 1
 62
     7
420
 16777215
370
    18
100
AcDbVertex
100
AcDb2dVertex
 10
2.568512994875821
 20
2.822785923677025
 30
0.0
  0
VERTEX
  5
131
330
12F
100
AcDbEntity
  8
Layer 1
 62
     7
420
 16777215
370
    18
100
AcDbVertex
100
AcDb2dVertex
 10
2.55054424530638
 20
2.800342552379056
 30
0.0
  0
VERTEX
  5
132
330
12F
100
AcDbEntity
  8
Layer 1
 62
     7
420
 16777215
370
    18
100
AcDbVertex
100
AcDb2dVertex
 10
2.551664749755774
 20
2.670097777767978
 30
0.0
  0
VERTEX
  5
133
330
12F
100
AcDbEntity
  8
Layer 1
 62
     7
420
 16777215
370
    18
100
AcDbVertex
100
AcDb2dVertex
 10
2.647096227711851
 20
2.609483294501362
 30
0.0
  0
VERTEX
  5
134
330
12F
100
AcDbEntity
  8
Layer 1
 62
     7
420
 16777215
370
    18
100
AcDbVertex
100
AcDb2dVertex
 10
2.646696839987321
 20
2.356885350873199
 30
0.0
  0
SEQEND
  5
135
330
12F
100
AcDbEntity
  8
Layer 1
 62
     7
420
 16777215
370
    18
  0
SPLINE
  5
136
330
1F
100
AcDbEntity
  8
Layer 1
 62
     7
420
 16777215
370
    18
100
AcDbSpline
210
0.0
220
0.0
230
1.0
 70
    11
 71
     3
 72
    17
 73
    13
 74
     0
 42
0.0000000001
 43
0.0000000001
 12
1.0
 22
0.0
 32
0.0
 13
1.0
 23
0.0
 33
0.0
 40
0.0
 40
0.0
 40
0.0
 40
0.0
 40
1.0
 40
1.0
 40
1.0
 40
2.0
 40
2.0
 40
2.0
 40
3.0
 40
3.0
 40
3.0
 40
4.0
 40
4.0
 40
4.0
 40
4.0
 10
2.575535562365505
 20
3.094162486427118
 30
0.0
 10
2.582902047062412
 20
3.094162486427118
 30
0.0
 10
2.588863440156552
 20
3.103659038988199
 30
0.0
 10
2.588863440156552
 20
3.115378110275616
 30
0.0
 10
2.588863440156552
 20
3.127097181562994
 30
0.0
 10
2.582902047062412
 20
3.136597432158548
 30
0.0
 10
2.575535562365505
 20
3.136597432158548
 30
0.0
 10
2.568169077668573
 20
3.136597432158548
 30
0.0
 10
2.562193053938548
 20
3.127097181562994
 30
0.0
 10
2.562193053938548
 20
3.115378110275616
 30
0.0
 10
2.562193053938548
 20
3.103659038988199
 30
0.0
 10
2.568169077668573
 20
3.094162486427118
 30
0.0
 10
2.575535562365505
 20
3.094162486427118
 30
0.0
  0
SPLINE
  5
137
330
1F
100
AcDbEntity
  8
Layer 1
 62
     7
420
 16777215
370
    18
100
AcDbSpline
210
0.0
220
0.0
230
1.0
 70
    11
 71
     3
 72
    17
 73
    13
 74
     0
 42
0.0000000001
 43
0.0000000001
 12
1.0
 22
0.0
 32
0.0
 13
1.0
 23
0.0
 33
0.0
 40
0.0
 40
0.0
 40
0.0
 40
0.0
 40
1.0
 40
1.0
 40
1.0
 40
2.0
 40
2.0
 40
2.0
 40
3.0
 40
3.0
 40
3.0
 40
4.0
 40
4.0
 40
4.0
 40
4.0
 10
2.574470528433418
 20
3.11303355641126
 30
0.0
 10
2.574470528433418
 20
3.105792804886859
 30
0.0
 10
2.576763309814977
 20
3.099417550417519
 30
0.0
 10
2.580247019585562
 20
3.09558992773888
 30
0.0
 10
2.585268789133705
 20
3.098622316017731
 30
0.0
 10
2.588863440156552
 20
3.106295894735972
 30
0.0
 10
2.588863440156552
 20
3.115378110275616
 30
0.0
 10
2.588863440156552
 20
3.122618861799992
 30
0.0
 10
2.586585289410853
 20
3.128994273254547
 30
0.0
 10
2.583101740924677
 20
3.132821738947971
 30
0.0
 10
2.578065179183441
 20
3.12978935066912
 30
0.0
 10
2.574470528433418
 20
3.122097438937392
 30
0.0
 10
2.574470528433418
 20
3.11303355641126
 30
0.0
  0
HATCH
  5
138
330
1F
100
AcDbEntity
  8
Layer 1
 62
    43
420
 15510365
100
AcDbHatch
 10
0.0
 20
0.0
 30
0.0
210
0.0
220
0.0
230
1.0
  2
SOLID
 70
     1
 71
     0
 91
        1
 92
        1
 93
        1
 72
     4
 94
        3
 73
     0
 74
     1
 95
       17
 96
       13
 40
0.0
 40
0.0
 40
0.0
 40
0.0
 40
1.0
 40
1.0
 40
1.0
 40
2.0
 40
2.0
 40
2.0
 40
3.0
 40
3.0
 40
3.0
 40
4.0
 40
4.0
 40
4.0
 40
4.0
 10
2.574470528433418
 20
3.11303355641126
 10
2.574470528433418
 20
3.105792804886859
 10
2.576763309814977
 20
3.099417550417519
 10
2.580247019585562
 20
3.09558992773888
 10
2.585268789133705
 20
3.098622316017731
 10
2.588863440156552
 20
3.106295894735972
 10
2.588863440156552
 20
3.115378110275616
 10
2.588863440156552
 20
3.122618861799992
 10
2.586585289410853
 20
3.128994273254547
 10
2.583101740924677
 20
3.132821738947971
 10
2.578065179183441
 20
3.12978935066912
 10
2.574470528433418
 20
3.122097438937392
 10
2.574470528433418
 20
3.11303355641126
 97
        0
 97
        0
 75
     2
 76
     1
 98
        0
  0
POLYLINE
  5
13A
330
1F
100
AcDbEntity
  8
CALLOUT
370
     0
100
AcDb2dPolyline
 66
     1
 10
0.0
 20
0.0
 30
0.0
  0
VERTEX
  5
13B
330
13A
100
AcDbEntity
  8
CALLOUT
370
     0
100
AcDbVertex
100
AcDb2dVertex
 10
2.876126766317131
 20
4.143047101908729
 30
0.0
  0
VERTEX
  5
13C
330
13A
100
AcDbEntity
  8
CALLOUT
370
     0
100
AcDbVertex
100
AcDb2dVertex
 10
2.931127464474432
 20
4.272152881897973
 30
0.0
  0
VERTEX
  5
13D
330
13A
100
AcDbEntity
  8
CALLOUT
370
     0
100
AcDbVertex
100
AcDb2dVertex
 10
2.977157071037861
 20
4.12172053702563
 30
0.0
  0
VERTEX
  5
13E
330
13A
100
AcDbEntity
  8
CALLOUT
370
     0
100
AcDbVertex
100
AcDb2dVertex
 10
2.945664438040467
 20
4.128240171825192
 30
0.0
  0
VERTEX
  5
13F
330
13A
100
AcDbEntity
  8
CALLOUT
370
     0
100
AcDbVertex
100
AcDb2dVertex
 10
2.946189558937552
 20
3.861253176010425
 30
0.0
  0
VERTEX
  5
140
330
13A
100
AcDbEntity
  8
CALLOUT
370
     0
100
AcDbVertex
100
AcDb2dVertex
 10
2.907763282589333
 20
3.867987296810143
 30
0.0
  0
VERTEX
  5
141
330
13A
100
AcDbEntity
  8
CALLOUT
370
     0
100
AcDbVertex
100
AcDb2dVertex
 10
2.90765603958923
 20
4.136564447454045
 30
0.0
  0
VERTEX
  5
142
330
13A
100
AcDbEntity
  8
CALLOUT
370
     0
100
AcDbVertex
100
AcDb2dVertex
 10
2.876126766317131
 20
4.143047101908729
 30
0.0
  0
SEQEND
  5
144
330
13A
100
AcDbEntity
  8
CALLOUT
370
     0
  0
HATCH
  5
143
330
1F
100
AcDbEntity
  8
CALLOUT
 62
     7
420
 16777215
100
AcDbHatch
 10
0.0
 20
0.0
 30
0.0
210
0.0
220
0.0
230
1.0
  2
SOLID
 70
     1
 71
     0
 91
        1
 92
        1
 93
        7
 72
     1
 10
2.876126766317131
 20
4.143047101908729
 11
2.931127464474432
 21
4.272152881897973
 72
     1
 10
2.931127464474432
 20
4.272152881897973
 11
2.977157071037861
 21
4.12172053702563
 72
     1
 10
2.977157071037861
 20
4.12172053702563
 11
2.945664438040467
 21
4.128240171825192
 72
     1
 10
2.945664438040467
 20
4.128240171825192
 11
2.946189558937552
 21
3.861253176010425
 72
     1
 10
2.946189558937552
 20
3.861253176010425
 11
2.907763282589333
 21
3.867987296810143
 72
     1
 10
2.907763282589333
 20
3.867987296810143
 11
2.90765603958923
 21
4.136564447454045
 72
     1
 10
2.90765603958923
 20
4.136564447454045
 11
2.876126766317131
 21
4.143047101908729
 97
        0
 75
     2
 76
     1
 98
        0
  0
POLYLINE
  5
145
330
1F
100
AcDbEntity
  8
CALLOUT
370
     0
100
AcDb2dPolyline
 66
     1
 10
0.0
 20
0.0
 30
0.0
  0
VERTEX
  5
146
330
145
100
AcDbEntity
  8
CALLOUT
370
     0
100
AcDbVertex
100
AcDb2dVertex
 10
1.815201181788855
 20
3.305534741600897
 30
0.0
  0
VERTEX
  5
147
330
145
100
AcDbEntity
  8
CALLOUT
370
     0
100
AcDbVertex
100
AcDb2dVertex
 10
1.815201181788855
 20
3.343705853569519
 30
0.0
  0
VERTEX
  5
148
330
145
100
AcDbEntity
  8
CALLOUT
370
     0
100
AcDbVertex
100
AcDb2dVertex
 10
2.237313328239225
 20
3.202252336430168
 30
0.0
  0
VERTEX
  5
149
330
145
100
AcDbEntity
  8
CALLOUT
370
     0
100
AcDbVertex
100
AcDb2dVertex
 10
2.237313328239225
 20
3.249398578097296
 30
0.0
  0
VERTEX
  5
14A
330
145
100
AcDbEntity
  8
CALLOUT
370
     0
100
AcDbVertex
100
AcDb2dVertex
 10
2.360805647618918
 20
3.140495160507246
 30
0.0
  0
VERTEX
  5
14B
330
145
100
AcDbEntity
  8
CALLOUT
370
     0
100
AcDbVertex
100
AcDb2dVertex
 10
2.237313328239225
 20
3.115958701689983
 30
0.0
  0
VERTEX
  5
14C
330
145
100
AcDbEntity
  8
CALLOUT
370
     0
100
AcDbVertex
100
AcDb2dVertex
 10
2.237313328239225
 20
3.162960720012153
 30
0.0
  0
VERTEX
  5
14D
330
145
100
AcDbEntity
  8
CALLOUT
370
     0
100
AcDbVertex
100
AcDb2dVertex
 10
1.815201181788855
 20
3.305534741600897
 30
0.0
  0
SEQEND
  5
14F
330
145
100
AcDbEntity
  8
CALLOUT
370
     0
  0
HATCH
  5
14E
330
1F
100
AcDbEntity
  8
CALLOUT
 62
     7
420
 16777215
100
AcDbHatch
 10
0.0
 20
0.0
 30
0.0
210
0.0
220
0.0
230
1.0
  2
SOLID
 70
     1
 71
     0
 91
        1
 92
        1
 93
        7
 72
     1
 10
1.815201181788855
 20
3.305534741600897
 11
1.815201181788855
 21
3.343705853569519
 72
     1
 10
1.815201181788855
 20
3.343705853569519
 11
2.237313328239225
 21
3.202252336430168
 72
     1
 10
2.237313328239225
 20
3.202252336430168
 11
2.237313328239225
 21
3.249398578097296
 72
     1
 10
2.237313328239225
 20
3.249398578097296
 11
2.360805647618918
 21
3.140495160507246
 72
     1
 10
2.360805647618918
 20
3.140495160507246
 11
2.237313328239225
 21
3.115958701689983
 72
     1
 10
2.237313328239225
 20
3.115958701689983
 11
2.237313328239225
 21
3.162960720012153
 72
     1
 10
2.237313328239225
 20
3.162960720012153
 11
1.815201181788855
 21
3.305534741600897
 97
        0
 75
     2
 76
     1
 98
        0
  0
POLYLINE
  5
150
330
1F
100
AcDbEntity
  8
CALLOUT
370
     0
100
AcDb2dPolyline
 66
     1
 10
0.0
 20
0.0
 30
0.0
  0
VERTEX
  5
151
330
150
100
AcDbEntity
  8
CALLOUT
370
     0
100
AcDbVertex
100
AcDb2dVertex
 10
2.872750292072093
 20
2.963122634401467
 30
0.0
  0
VERTEX
  5
152
330
150
100
AcDbEntity
  8
CALLOUT
370
     0
100
AcDbVertex
100
AcDb2dVertex
 10
2.991852888775636
 20
2.990824610739108
 30
0.0
  0
VERTEX
  5
153
330
150
100
AcDbEntity
  8
CALLOUT
370
     0
100
AcDbVertex
100
AcDb2dVertex
 10
2.991852888775636
 20
2.948138198662567
 30
0.0
  0
VERTEX
  5
154
330
150
100
AcDbEntity
  8
CALLOUT
370
     0
100
AcDbVertex
100
AcDb2dVertex
 10
3.227514012091837
 20
2.869932165344153
 30
0.0
  0
VERTEX
  5
155
330
150
100
AcDbEntity
  8
CALLOUT
370
     0
100
AcDbVertex
100
AcDb2dVertex
 10
3.227514012091837
 20
2.827282733612492
 30
0.0
  0
VERTEX
  5
156
330
150
100
AcDbEntity
  8
CALLOUT
370
     0
100
AcDbVertex
100
AcDb2dVertex
 10
2.991764307628172
 20
2.906986470897891
 30
0.0
  0
VERTEX
  5
157
330
150
100
AcDbEntity
  8
CALLOUT
370
     0
100
AcDbVertex
100
AcDb2dVertex
 10
2.991764307628172
 20
2.864318548993803
 30
0.0
  0
VERTEX
  5
158
330
150
100
AcDbEntity
  8
CALLOUT
370
     0
100
AcDbVertex
100
AcDb2dVertex
 10
2.872750292072093
 20
2.963122634401467
 30
0.0
  0
SEQEND
  5
15A
330
150
100
AcDbEntity
  8
CALLOUT
370
     0
  0
HATCH
  5
159
330
1F
100
AcDbEntity
  8
CALLOUT
 62
     7
420
 16777215
100
AcDbHatch
 10
0.0
 20
0.0
 30
0.0
210
0.0
220
0.0
230
1.0
  2
SOLID
 70
     1
 71
     0
 91
        1
 92
        1
 93
        7
 72
     1
 10
2.872750292072093
 20
2.963122634401467
 11
2.991852888775636
 21
2.990824610739108
 72
     1
 10
2.991852888775636
 20
2.990824610739108
 11
2.991852888775636
 21
2.948138198662567
 72
     1
 10
2.991852888775636
 20
2.948138198662567
 11
3.227514012091837
 21
2.869932165344153
 72
     1
 10
3.227514012091837
 20
2.869932165344153
 11
3.227514012091837
 21
2.827282733612492
 72
     1
 10
3.227514012091837
 20
2.827282733612492
 11
2.991764307628172
 21
2.906986470897891
 72
     1
 10
2.991764307628172
 20
2.906986470897891
 11
2.991764307628172
 21
2.864318548993803
 72
     1
 10
2.991764307628172
 20
2.864318548993803
 11
2.872750292072093
 21
2.963122634401467
 97
        0
 75
     2
 76
     1
 98
        0
  0
POLYLINE
  5
15B
330
1F
100
AcDbEntity
  8
CALLOUT
370
     0
100
AcDb2dPolyline
 66
     1
 10
0.0
 20
0.0
 30
0.0
  0
VERTEX
  5
15C
330
15B
100
AcDbEntity
  8
CALLOUT
370
     0
100
AcDbVertex
100
AcDb2dVertex
 10
3.014044793728519
 20
3.929108588746355
 30
0.0
  0
VERTEX
  5
15D
330
15B
100
AcDbEntity
  8
CALLOUT
370
     0
100
AcDbVertex
100
AcDb2dVertex
 10
2.999348804679559
 20
3.885808125000115
 30
0.0
  0
VERTEX
  5
15E
330
15B
100
AcDbEntity
  8
CALLOUT
370
     0
100
AcDbVertex
100
AcDb2dVertex
 10
2.979738127798176
 20
3.890686009462014
 30
0.0
  0
VERTEX
  5
15F
330
15B
100
AcDbEntity
  8
CALLOUT
370
     0
100
AcDbVertex
100
AcDb2dVertex
 10
3.032679189505517
 20
4.038784717599103
 30
0.0
  0
VERTEX
  5
160
330
15B
100
AcDbEntity
  8
CALLOUT
370
     0
100
AcDbVertex
100
AcDb2dVertex
 10
3.054238730561236
 20
4.033441057766254
 30
0.0
  0
VERTEX
  5
161
330
15B
100
AcDbEntity
  8
CALLOUT
370
     0
100
AcDbVertex
100
AcDb2dVertex
 10
3.105230928094215
 20
3.859537288008722
 30
0.0
  0
VERTEX
  5
162
330
15B
100
AcDbEntity
  8
CALLOUT
370
     0
100
AcDbVertex
100
AcDb2dVertex
 10
3.084447974280642
 20
3.864699744151746
 30
0.0
  0
VERTEX
  5
163
330
15B
100
AcDbEntity
  8
CALLOUT
370
     0
100
AcDbVertex
100
AcDb2dVertex
 10
3.070528572473828
 20
3.915078067959989
 30
0.0
  0
VERTEX
  5
164
330
15B
100
AcDbEntity
  8
CALLOUT
370
     0
100
AcDbVertex
100
AcDb2dVertex
 10
3.014044793728519
 20
3.929108588746355
 30
0.0
  0
SEQEND
  5
165
330
15B
100
AcDbEntity
  8
CALLOUT
370
     0
  0
POLYLINE
  5
166
330
1F
100
AcDbEntity
  8
CALLOUT
370
     0
100
AcDb2dPolyline
 66
     1
 10
0.0
 20
0.0
 30
0.0
  0
VERTEX
  5
167
330
166
100
AcDbEntity
  8
CALLOUT
370
     0
100
AcDbVertex
100
AcDb2dVertex
 10
3.063665020467068
 20
3.936097874102213
 30
0.0
  0
VERTEX
  5
168
330
166
100
AcDbEntity
  8
CALLOUT
370
     0
100
AcDbVertex
100
AcDb2dVertex
 10
3.042863576481068
 20
4.012225433917769
 30
0.0
  0
VERTEX
  5
169
330
166
100
AcDbEntity
  8
CALLOUT
370
     0
100
AcDbVertex
100
AcDb2dVertex
 10
3.042486376963451
 20
4.012332676917873
 30
0.0
  0
VERTEX
  5
16A
330
166
100
AcDbEntity
  8
CALLOUT
370
     0
100
AcDbVertex
100
AcDb2dVertex
 10
3.019932064630868
 20
3.946947729163791
 30
0.0
  0
VERTEX
  5
16B
330
166
100
AcDbEntity
  8
CALLOUT
370
     0
100
AcDbVertex
100
AcDb2dVertex
 10
3.063665020467068
 20
3.936097874102213
 30
0.0
  0
SEQEND
  5
16C
330
166
100
AcDbEntity
  8
CALLOUT
370
     0
  0
HATCH
  5
16D
330
1F
100
AcDbEntity
  8
CALLOUT
 62
     7
420
 16777215
100
AcDbHatch
 10
0.0
 20
0.0
 30
0.0
210
0.0
220
0.0
230
1.0
  2
SOLID
 70
     1
 71
     0
 91
        2
 92
        1
 93
        8
 72
     1
 10
3.014044793728519
 20
3.929108588746355
 11
2.999348804679559
 21
3.885808125000115
 72
     1
 10
2.999348804679559
 20
3.885808125000115
 11
2.979738127798176
 21
3.890686009462014
 72
     1
 10
2.979738127798176
 20
3.890686009462014
 11
3.032679189505517
 21
4.038784717599103
 72
     1
 10
3.032679189505517
 20
4.038784717599103
 11
3.054238730561236
 21
4.033441057766254
 72
     1
 10
3.054238730561236
 20
4.033441057766254
 11
3.105230928094215
 21
3.859537288008722
 72
     1
 10
3.105230928094215
 20
3.859537288008722
 11
3.084447974280642
 21
3.864699744151746
 72
     1
 10
3.084447974280642
 20
3.864699744151746
 11
3.070528572473828
 21
3.915078067959989
 72
     1
 10
3.070528572473828
 20
3.915078067959989
 11
3.014044793728519
 21
3.929108588746355
 97
        0
 92
        1
 93
        4
 72
     1
 10
3.063665020467068
 20
3.936097874102213
 11
3.042863576481068
 21
4.012225433917769
 72
     1
 10
3.042863576481068
 20
4.012225433917769
 11
3.042486376963451
 21
4.012332676917873
 72
     1
 10
3.042486376963451
 20
4.012332676917873
 11
3.019932064630868
 21
3.946947729163791
 72
     1
 10
3.019932064630868
 20
3.946947729163791
 11
3.063665020467068
 21
3.936097874102213
 97
        0
 75
     2
 76
     1
 98
        0
  0
SPLINE
  5
16E
330
1F
100
AcDbEntity
  8
CALLOUT
370
     0
100
AcDbSpline
210
0.0
220
0.0
230
1.0
 70
    11
 71
     3
 72
    26
 73
    22
 74
     0
 42
0.0000000001
 43
0.0000000001
 12
1.0
 22
0.0
 32
0.0
 13
1.0
 23
0.0
 33
0.0
 40
0.0
 40
0.0
 40
0.0
 40
0.0
 40
1.0
 40
1.0
 40
1.0
 40
2.0
 40
2.0
 40
2.0
 40
3.0
 40
3.0
 40
3.0
 40
4.0
 40
4.0
 40
4.0
 40
5.0
 40
5.0
 40
5.0
 40
6.0
 40
6.0
 40
6.0
 40
7.0
 40
7.0
 40
7.0
 40
7.0
 10
3.178200544579896
 20
3.804048280540251
 30
0.0
 10
3.178200544579896
 20
3.804048280540251
 30
0.0
 10
3.159762144630703
 20
3.808633843303394
 30
0.0
 10
3.159762144630703
 20
3.808633843303394
 30
0.0
 10
3.159762144630703
 20
3.808633843303394
 30
0.0
 10
3.159762144630703
 20
3.920695382344825
 30
0.0
 10
3.159762144630703
 20
3.920695382344825
 30
0.0
 10
3.159762144630703
 20
3.920695382344825
 30
0.0
 10
3.127604036736961
 20
3.928675740766494
 30
0.0
 10
3.127604036736961
 20
3.928675740766494
 30
0.0
 10
3.127604036736961
 20
3.928675740766494
 30
0.0
 10
3.127604036736961
 20
3.944403481437158
 30
0.0
 10
3.127604036736961
 20
3.944403481437158
 30
0.0
 10
3.149958655207254
 20
3.940646456635401
 30
0.0
 10
3.159185251250821
 20
3.940827482088808
 30
0.0
 10
3.164676832463126
 20
3.965293678250835
 30
0.0
 10
3.164676832463126
 20
3.965293678250835
 30
0.0
 10
3.178200544579896
 20
3.961935862937189
 30
0.0
 10
3.178200544579896
 20
3.961935862937189
 30
0.0
 10
3.178200544579896
 20
3.961935862937189
 30
0.0
 10
3.178200544579896
 20
3.804048280540251
 30
0.0
 10
3.178200544579896
 20
3.804048280540251
 30
0.0
  0
HATCH
  5
16F
330
1F
100
AcDbEntity
  8
CALLOUT
 62
     7
420
 16777215
100
AcDbHatch
 10
0.0
 20
0.0
 30
0.0
210
0.0
220
0.0
230
1.0
  2
SOLID
 70
     1
 71
     0
 91
        1
 92
        1
 93
        1
 72
     4
 94
        3
 73
     0
 74
     1
 95
       26
 96
       22
 40
0.0
 40
0.0
 40
0.0
 40
0.0
 40
1.0
 40
1.0
 40
1.0
 40
2.0
 40
2.0
 40
2.0
 40
3.0
 40
3.0
 40
3.0
 40
4.0
 40
4.0
 40
4.0
 40
5.0
 40
5.0
 40
5.0
 40
6.0
 40
6.0
 40
6.0
 40
7.0
 40
7.0
 40
7.0
 40
7.0
 10
3.178200544579896
 20
3.804048280540251
 10
3.178200544579896
 20
3.804048280540251
 10
3.159762144630703
 20
3.808633843303394
 10
3.159762144630703
 20
3.808633843303394
 10
3.159762144630703
 20
3.808633843303394
 10
3.159762144630703
 20
3.920695382344825
 10
3.159762144630703
 20
3.920695382344825
 10
3.159762144630703
 20
3.920695382344825
 10
3.127604036736961
 20
3.928675740766494
 10
3.127604036736961
 20
3.928675740766494
 10
3.127604036736961
 20
3.928675740766494
 10
3.127604036736961
 20
3.944403481437158
 10
3.127604036736961
 20
3.944403481437158
 10
3.149958655207254
 20
3.940646456635401
 10
3.159185251250821
 20
3.940827482088808
 10
3.164676832463126
 20
3.965293678250835
 10
3.164676832463126
 20
3.965293678250835
 10
3.178200544579896
 20
3.961935862937189
 10
3.178200544579896
 20
3.961935862937189
 10
3.178200544579896
 20
3.961935862937189
 10
3.178200544579896
 20
3.804048280540251
 10
3.178200544579896
 20
3.804048280540251
 97
        0
 97
        0
 75
     2
 76
     1
 98
        0
  0
SPLINE
  5
170
330
1F
100
AcDbEntity
  8
CALLOUT
370
     0
100
AcDbSpline
210
0.0
220
0.0
230
1.0
 70
    11
 71
     3
 72
    35
 73
    31
 74
     0
 42
0.0000000001
 43
0.0000000001
 12
1.0
 22
0.0
 32
0.0
 13
1.0
 23
0.0
 33
0.0
 40
0.0
 40
0.0
 40
0.0
 40
0.0
 40
1.0
 40
1.0
 40
1.0
 40
2.0
 40
2.0
 40
2.0
 40
3.0
 40
3.0
 40
3.0
 40
4.0
 40
4.0
 40
4.0
 40
5.0
 40
5.0
 40
5.0
 40
6.0
 40
6.0
 40
6.0
 40
7.0
 40
7.0
 40
7.0
 40
8.0
 40
8.0
 40
8.0
 40
9.0
 40
9.0
 40
9.0
 40
10.0
 40
10.0
 40
10.0
 40
10.0
 10
2.036214212868673
 20
3.454162445643886
 30
0.0
 10
2.031033266553221
 20
3.484208975845856
 30
0.0
 10
2.010952939292085
 20
3.496216660832387
 30
0.0
 10
1.997754654210085
 20
3.500694813586228
 30
0.0
 10
1.972889070323516
 20
3.509144822387674
 30
0.0
 10
1.952808743062355
 20
3.494426645131802
 30
0.0
 10
1.952808743062355
 20
3.451976907262406
 30
0.0
 10
1.952808743062355
 20
3.414020281293978
 30
0.0
 10
1.964276348004685
 20
3.380922872640667
 30
0.0
 10
1.998331547589967
 20
3.369348024698234
 30
0.0
 10
2.010376045912178
 20
3.365250602487297
 30
0.0
 10
2.031232960415486
 20
3.364888195107621
 30
0.0
 10
2.037552901352734
 20
3.400259894970052
 30
0.0
 10
2.037552901352734
 20
3.400259894970052
 30
0.0
 10
2.055517952887688
 20
3.394139647895069
 30
0.0
 10
2.055517952887688
 20
3.394139647895069
 30
0.0
 10
2.047877961474367
 20
3.33588820866526
 30
0.0
 10
2.005790483149036
 20
3.347500036952574
 30
0.0
 10
1.995461872828526
 20
3.351002075611177
 30
0.0
 10
1.964276348004685
 20
3.361600642449225
 30
0.0
 10
1.933671414595235
 20
3.395818555551891
 30
0.0
 10
1.933671414595235
 20
3.457808707647448
 30
0.0
 10
1.933671414595235
 20
3.507428934385972
 30
0.0
 10
1.9577752033776
 20
3.533592528377262
 30
0.0
 10
1.997754654210085
 20
3.52001334574321
 30
0.0
 10
2.033144844244942
 20
3.507968847420999
 30
0.0
 10
2.051509283504452
 20
3.475903190389393
 30
0.0
 10
2.054182962438088
 20
3.448038500534381
 30
0.0
 10
2.054182962438088
 20
3.448038500534381
 30
0.0
 10
2.036214212868673
 20
3.454162445643886
 30
0.0
 10
2.036214212868673
 20
3.454162445643886
 30
0.0
  0
HATCH
  5
171
330
1F
100
AcDbEntity
  8
CALLOUT
 62
     7
420
 16777215
100
AcDbHatch
 10
0.0
 20
0.0
 30
0.0
210
0.0
220
0.0
230
1.0
  2
SOLID
 70
     1
 71
     0
 91
        1
 92
        1
 93
        1
 72
     4
 94
        3
 73
     0
 74
     1
 95
       35
 96
       31
 40
0.0
 40
0.0
 40
0.0
 40
0.0
 40
1.0
 40
1.0
 40
1.0
 40
2.0
 40
2.0
 40
2.0
 40
3.0
 40
3.0
 40
3.0
 40
4.0
 40
4.0
 40
4.0
 40
5.0
 40
5.0
 40
5.0
 40
6.0
 40
6.0
 40
6.0
 40
7.0
 40
7.0
 40
7.0
 40
8.0
 40
8.0
 40
8.0
 40
9.0
 40
9.0
 40
9.0
 40
10.0
 40
10.0
 40
10.0
 40
10.0
 10
2.036214212868673
 20
3.454162445643886
 10
2.031033266553221
 20
3.484208975845856
 10
2.010952939292085
 20
3.496216660832387
 10
1.997754654210085
 20
3.500694813586228
 10
1.972889070323516
 20
3.509144822387674
 10
1.952808743062355
 20
3.494426645131802
 10
1.952808743062355
 20
3.451976907262406
 10
1.952808743062355
 20
3.414020281293978
 10
1.964276348004685
 20
3.380922872640667
 10
1.998331547589967
 20
3.369348024698234
 10
2.010376045912178
 20
3.365250602487297
 10
2.031232960415486
 20
3.364888195107621
 10
2.037552901352734
 20
3.400259894970052
 10
2.037552901352734
 20
3.400259894970052
 10
2.055517952887688
 20
3.394139647895069
 10
2.055517952887688
 20
3.394139647895069
 10
2.047877961474367
 20
3.33588820866526
 10
2.005790483149036
 20
3.347500036952574
 10
1.995461872828526
 20
3.351002075611177
 10
1.964276348004685
 20
3.361600642449225
 10
1.933671414595235
 20
3.395818555551891
 10
1.933671414595235
 20
3.457808707647448
 10
1.933671414595235
 20
3.507428934385972
 10
1.9577752033776
 20
3.533592528377262
 10
1.997754654210085
 20
3.52001334574321
 10
2.033144844244942
 20
3.507968847420999
 10
2.051509283504452
 20
3.475903190389393
 10
2.054182962438088
 20
3.448038500534381
 10
2.054182962438088
 20
3.448038500534381
 10
2.036214212868673
 20
3.454162445643886
 10
2.036214212868673
 20
3.454162445643886
 97
        0
 97
        0
 75
     2
 76
     1
 98
        0
  0
SPLINE
  5
172
330
1F
100
AcDbEntity
  8
CALLOUT
370
     0
100
AcDbSpline
210
0.0
220
0.0
230
1.0
 70
    11
 71
     3
 72
    26
 73
    22
 74
     0
 42
0.0000000001
 43
0.0000000001
 12
1.0
 22
0.0
 32
0.0
 13
1.0
 23
0.0
 33
0.0
 40
0.0
 40
0.0
 40
0.0
 40
0.0
 40
1.0
 40
1.0
 40
1.0
 40
2.0
 40
2.0
 40
2.0
 40
3.0
 40
3.0
 40
3.0
 40
4.0
 40
4.0
 40
4.0
 40
5.0
 40
5.0
 40
5.0
 40
6.0
 40
6.0
 40
6.0
 40
7.0
 40
7.0
 40
7.0
 40
7.0
 10
2.132078360859648
 20
3.271442561670735
 30
0.0
 10
2.132078360859648
 20
3.271442561670735
 30
0.0
 10
2.114094819152291
 20
3.277548016607776
 30
0.0
 10
2.114094819152291
 20
3.277548016607776
 30
0.0
 10
2.114094819152291
 20
3.277548016607776
 30
0.0
 10
2.114094819152291
 20
3.389609555649208
 30
0.0
 10
2.114094819152291
 20
3.389609555649208
 30
0.0
 10
2.114094819152291
 20
3.389609555649208
 30
0.0
 10
2.082728090638612
 20
3.400278385142466
 30
0.0
 10
2.082728090638612
 20
3.400278385142466
 30
0.0
 10
2.082728090638612
 20
3.400278385142466
 30
0.0
 10
2.082728090638612
 20
3.416006290796051
 30
0.0
 10
2.082728090638612
 20
3.416006290796051
 30
0.0
 10
2.104524305901476
 20
3.410392509462806
 30
0.0
 10
2.11351422773795
 20
3.409797125910447
 30
0.0
 10
2.118880225406959
 20
3.433812161865186
 30
0.0
 10
2.118880225406959
 20
3.433812161865186
 30
0.0
 10
2.132078360859648
 20
3.429315351929719
 30
0.0
 10
2.132078360859648
 20
3.429315351929719
 30
0.0
 10
2.132078360859648
 20
3.429315351929719
 30
0.0
 10
2.132078360859648
 20
3.271442561670735
 30
0.0
 10
2.132078360859648
 20
3.271442561670735
 30
0.0
  0
HATCH
  5
173
330
1F
100
AcDbEntity
  8
CALLOUT
 62
     7
420
 16777215
100
AcDbHatch
 10
0.0
 20
0.0
 30
0.0
210
0.0
220
0.0
230
1.0
  2
SOLID
 70
     1
 71
     0
 91
        1
 92
        1
 93
        1
 72
     4
 94
        3
 73
     0
 74
     1
 95
       26
 96
       22
 40
0.0
 40
0.0
 40
0.0
 40
0.0
 40
1.0
 40
1.0
 40
1.0
 40
2.0
 40
2.0
 40
2.0
 40
3.0
 40
3.0
 40
3.0
 40
4.0
 40
4.0
 40
4.0
 40
5.0
 40
5.0
 40
5.0
 40
6.0
 40
6.0
 40
6.0
 40
7.0
 40
7.0
 40
7.0
 40
7.0
 10
2.132078360859648
 20
3.271442561670735
 10
2.132078360859648
 20
3.271442561670735
 10
2.114094819152291
 20
3.277548016607776
 10
2.114094819152291
 20
3.277548016607776
 10
2.114094819152291
 20
3.277548016607776
 10
2.114094819152291
 20
3.389609555649208
 10
2.114094819152291
 20
3.389609555649208
 10
2.114094819152291
 20
3.389609555649208
 10
2.082728090638612
 20
3.400278385142466
 10
2.082728090638612
 20
3.400278385142466
 10
2.082728090638612
 20
3.400278385142466
 10
2.082728090638612
 20
3.416006290796051
 10
2.082728090638612
 20
3.416006290796051
 10
2.104524305901476
 20
3.410392509462806
 10
2.11351422773795
 20
3.409797125910447
 10
2.118880225406959
 20
3.433812161865186
 10
2.118880225406959
 20
3.433812161865186
 10
2.132078360859648
 20
3.429315351929719
 10
2.132078360859648
 20
3.429315351929719
 10
2.132078360859648
 20
3.429315351929719
 10
2.132078360859648
 20
3.271442561670735
 10
2.132078360859648
 20
3.271442561670735
 97
        0
 97
        0
 75
     2
 76
     1
 98
        0
  0
POLYLINE
  5
174
330
1F
100
AcDbEntity
  8
CALLOUT
370
     0
100
AcDb2dPolyline
 66
     1
 10
0.0
 20
0.0
 30
0.0
  0
VERTEX
  5
175
330
174
100
AcDbEntity
  8
CALLOUT
370
     0
100
AcDbVertex
100
AcDb2dVertex
 10
3.176592075927677
 20
2.967549181681711
 30
0.0
  0
VERTEX
  5
176
330
174
100
AcDbEntity
  8
CALLOUT
370
     0
100
AcDbVertex
100
AcDb2dVertex
 10
3.075295338926809
 20
3.00238112304295
 30
0.0
  0
VERTEX
  5
177
330
174
100
AcDbEntity
  8
CALLOUT
370
     0
100
AcDbVertex
100
AcDb2dVertex
 10
3.075583785616749
 20
3.163626366219685
 30
0.0
  0
VERTEX
  5
178
330
174
100
AcDbEntity
  8
CALLOUT
370
     0
100
AcDbVertex
100
AcDb2dVertex
 10
3.175563845991089
 20
3.129245739599607
 30
0.0
  0
VERTEX
  5
179
330
174
100
AcDbEntity
  8
CALLOUT
370
     0
100
AcDbVertex
100
AcDb2dVertex
 10
3.175526865646235
 20
3.109927207442676
 30
0.0
  0
VERTEX
  5
17A
330
174
100
AcDbEntity
  8
CALLOUT
370
     0
100
AcDbVertex
100
AcDb2dVertex
 10
3.094092448221191
 20
3.137932422608198
 30
0.0
  0
VERTEX
  5
17B
330
174
100
AcDbEntity
  8
CALLOUT
370
     0
100
AcDbVertex
100
AcDb2dVertex
 10
3.09399999735903
 20
3.088530379904341
 30
0.0
  0
VERTEX
  5
17C
330
174
100
AcDbEntity
  8
CALLOUT
370
     0
100
AcDbVertex
100
AcDb2dVertex
 10
3.169118171881312
 20
3.062688514913361
 30
0.0
  0
VERTEX
  5
17D
330
174
100
AcDbEntity
  8
CALLOUT
370
     0
100
AcDbVertex
100
AcDb2dVertex
 10
3.169081191536431
 20
3.043388472928831
 30
0.0
  0
VERTEX
  5
17E
330
174
100
AcDbEntity
  8
CALLOUT
370
     0
100
AcDbVertex
100
AcDb2dVertex
 10
3.09396301701415
 20
3.069226639885313
 30
0.0
  0
VERTEX
  5
17F
330
174
100
AcDbEntity
  8
CALLOUT
370
     0
100
AcDbVertex
100
AcDb2dVertex
 10
3.093874264186474
 20
3.015309297073574
 30
0.0
  0
VERTEX
  5
180
330
174
100
AcDbEntity
  8
CALLOUT
370
     0
100
AcDbVertex
100
AcDb2dVertex
 10
3.176629056273466
 20
2.986849377807705
 30
0.0
  0
VERTEX
  5
181
330
174
100
AcDbEntity
  8
CALLOUT
370
     0
100
AcDbVertex
100
AcDb2dVertex
 10
3.176592075927677
 20
2.967549181681711
 30
0.0
  0
SEQEND
  5
182
330
174
100
AcDbEntity
  8
CALLOUT
370
     0
  0
HATCH
  5
183
330
1F
100
AcDbEntity
  8
CALLOUT
 62
     7
420
 16777215
100
AcDbHatch
 10
0.0
 20
0.0
 30
0.0
210
0.0
220
0.0
230
1.0
  2
SOLID
 70
     1
 71
     0
 91
        1
 92
        1
 93
       12
 72
     1
 10
3.176592075927677
 20
2.967549181681711
 11
3.075295338926809
 21
3.00238112304295
 72
     1
 10
3.075295338926809
 20
3.00238112304295
 11
3.075583785616749
 21
3.163626366219685
 72
     1
 10
3.075583785616749
 20
3.163626366219685
 11
3.175563845991089
 21
3.129245739599607
 72
     1
 10
3.175563845991089
 20
3.129245739599607
 11
3.175526865646235
 21
3.109927207442676
 72
     1
 10
3.175526865646235
 20
3.109927207442676
 11
3.094092448221191
 21
3.137932422608198
 72
     1
 10
3.094092448221191
 20
3.137932422608198
 11
3.09399999735903
 21
3.088530379904341
 72
     1
 10
3.09399999735903
 20
3.088530379904341
 11
3.169118171881312
 21
3.062688514913361
 72
     1
 10
3.169118171881312
 20
3.062688514913361
 11
3.169081191536431
 21
3.043388472928831
 72
     1
 10
3.169081191536431
 20
3.043388472928831
 11
3.09396301701415
 21
3.069226639885313
 72
     1
 10
3.09396301701415
 20
3.069226639885313
 11
3.093874264186474
 21
3.015309297073574
 72
     1
 10
3.093874264186474
 20
3.015309297073574
 11
3.176629056273466
 21
2.986849377807705
 72
     1
 10
3.176629056273466
 20
2.986849377807705
 11
3.176592075927677
 21
2.967549181681711
 97
        0
 75
     2
 76
     1
 98
        0
  0
MTEXT
  5
184
330
1F
100
AcDbEntity
  8
CALLOUT
 62
   250
420
  2236191
100
AcDbMText
 10
1.869304445054796
 20
0.8378520011901855
 30
0.0
 40
0.118
 41
0.0
 46
0.0
 71
     7
 72
     1
  1
\fHelvetica Neue LT Std 55 Roman|b0|i0|c0|p34;\W1;SIMPSON Strong-Tie\H0.068794;®\H0.118; ^C
 73
     1
 44
1.0
  0
MTEXT
  5
185
330
1F
100
AcDbEntity
  8
CALLOUT
 62
   250
420
  2236191
100
AcDbMText
 10
1.048598607381185
 20
0.6378601392110188
 30
0.0
 40
0.118
 41
0.0
 46
0.0
 71
     7
 72
     1
  1
\fHelvetica Neue LT Std 55 Roman|b0|i0|c0|p34;\W1;A35/A35SS Joist-to-Bearer/Plate Installation 
 73
     1
 44
1.0
  0
MTEXT
  5
186
330
1F
100
AcDbEntity
  8
CALLOUT
 62
   250
420
  2236191
100
AcDbMText
 10
2.643951839870877
 20
1.58785072962443
 30
0.0
 40
0.118
 41
0.0
 46
0.0
 71
     7
 72
     1
  1
\fHelvetica Neue LT Std 57 Condensed|b0|i0|c0|p34;\W1;A35 / A35SS
 73
     1
 44
1.0
  0
MTEXT
  5
187
330
1F
100
AcDbEntity
  8
CALLOUT
 62
   250
420
  2236191
100
AcDbMText
 10
3.378721237182617
 20
1.980508089065552
 30
0.0
 40
0.118
 41
0.0
 46
0.0
 71
     7
 72
     1
  1
\fHelvetica Neue LT Std 57 Condensed|b0|i0|c0|p34;\W1;Bearer / Plate
 73
     1
 44
1.0
  0
MTEXT
  5
188
330
1F
100
AcDbEntity
  8
CALLOUT
 62
   250
420
  2236191
100
AcDbMText
 10
3.843755086263021
 20
3.811297416687012
 30
0.0
 40
0.118
 41
0.0
 46
0.0
 71
     7
 72
     1
  1
\fHelvetica Neue LT Std 57 Condensed|b0|i0|c0|p34;\W1;Joist
 73
     1
 44
1.0
  0
POLYLINE
  5
189
330
1F
100
AcDbEntity
  8
CALLOUT
 62
   250
420
  2236191
370
    18
100
AcDb2dPolyline
 66
     1
 10
0.0
 20
0.0
 30
0.0
  0
VERTEX
  5
18A
330
189
100
AcDbEntity
  8
CALLOUT
 62
   250
420
  2236191
370
    18
100
AcDbVertex
100
AcDb2dVertex
 10
2.926641918677483
 20
1.769162277001113
 30
0.0
  0
VERTEX
  5
18B
330
189
100
AcDbEntity
  8
CALLOUT
 62
   250
420
  2236191
370
    18
100
AcDbVertex
100
AcDb2dVertex
 10
2.761483830445235
 20
2.059931332597898
 30
0.0
  0
SEQEND
  5
18C
330
189
100
AcDbEntity
  8
CALLOUT
 62
   250
420
  2236191
370
    18
  0
POLYLINE
  5
18D
330
1F
100
AcDbEntity
  8
CALLOUT
 62
   250
420
  2236191
370
    18
100
AcDb2dPolyline
 66
     1
 10
0.0
 20
0.0
 30
0.0
  0
VERTEX
  5
18E
330
18D
100
AcDbEntity
  8
CALLOUT
 62
   250
420
  2236191
370
    18
100
AcDbVertex
100
AcDb2dVertex
 10
3.315088838145786
 20
2.03655698309899
 30
0.0
  0
VERTEX
  5
18F
330
18D
100
AcDbEntity
  8
CALLOUT
 62
   250
420
  2236191
370
    18
100
AcDbVertex
100
AcDb2dVertex
 10
3.043383153484026
 20
2.219061503513179
 30
0.0
  0
SEQEND
  5
190
330
18D
100
AcDbEntity
  8
CALLOUT
 62
   250
420
  2236191
370
    18
  0
POLYLINE
  5
191
330
1F
100
AcDbEntity
  8
CALLOUT
 62
   250
420
  2236191
370
    18
100
AcDb2dPolyline
 66
     1
 10
0.0
 20
0.0
 30
0.0
  0
VERTEX
  5
192
330
191
100
AcDbEntity
  8
CALLOUT
 62
   250
420
  2236191
370
    18
100
AcDbVertex
100
AcDb2dVertex
 10
3.919086961792547
 20
3.725582437275989
 30
0.0
  0
VERTEX
  5
193
330
191
100
AcDbEntity
  8
CALLOUT
 62
   250
420
  2236191
370
    18
100
AcDbVertex
100
AcDb2dVertex
 10
3.610622811178321
 20
3.435630540083732
 30
0.0
  0
SEQEND
  5
194
330
191
100
AcDbEntity
  8
CALLOUT
 62
   250
420
  2236191
370
    18
  0
ENDSEC
  0
SECTION
  2
OBJECTS
  0
DICTIONARY
  5
C
330
0
100
AcDbDictionary
281
     1
  3
ACAD_GROUP
350
D
  3
ACAD_LAYOUT
350
1A
  3
ACAD_MATERIAL
350
3B
  3
ACAD_MLEADERSTYLE
350
197
  3
ACAD_MLINESTYLE
350
17
  3
ACAD_PLOTSETTINGS
350
19
  3
ACAD_PLOTSTYLENAME
350
E
  3
ACAD_TABLESTYLE
350
196
  3
ACAD_VISUALSTYLE
350
2A
  0
SUN
  5
3F
330
29
100
AcDbSun
 90
        1
290
     0
 63
     7
421
 16777215
 40
1.0
291
     1
 91
  2455826
 92
 54000000
292
     0
 70
     2
 71
   256
280
     1
  0
DICTIONARY
  5
D
102
{ACAD_REACTORS
330
C
102
}
330
C
100
AcDbDictionary
281
     1
  0
DICTIONARY
  5
1A
102
{ACAD_REACTORS
330
C
102
}
330
C
100
AcDbDictionary
281
     1
  3
Layout1
350
1E
  3
Layout2
350
26
  3
Model
350
22
  0
DICTIONARY
  5
3B
102
{ACAD_REACTORS
330
C
102
}
330
C
100
AcDbDictionary
281
     1
  3
ByBlock
350
3D
  3
ByLayer
350
3C
  3
Global
350
3E
  0
DICTIONARY
  5
197
102
{ACAD_REACTORS
330
C
102
}
330
C
100
AcDbDictionary
281
     1
  0
DICTIONARY
  5
17
102
{ACAD_REACTORS
330
C
102
}
330
C
100
AcDbDictionary
281
     1
  3
Standard
350
18
  0
DICTIONARY
  5
19
102
{ACAD_REACTORS
330
C
102
}
330
C
100
AcDbDictionary
281
     1
  0
ACDBDICTIONARYWDFLT
  5
E
102
{ACAD_REACTORS
330
C
102
}
330
C
100
AcDbDictionary
281
     1
  3
Normal
350
F
100
AcDbDictionaryWithDefault
340
F
  0
DICTIONARY
  5
196
102
{ACAD_REACTORS
330
C
102
}
330
C
100
AcDbDictionary
281
     1
  0
DICTIONARY
  5
2A
102
{ACAD_REACTORS
330
C
102
}
330
C
100
AcDbDictionary
281
     1
  3
2dWireframe
350
2F
  3
3D Hidden
350
31
  3
3dWireframe
350
30
  3
Basic
350
32
  3
Brighten
350
36
  3
ColorChange
350
3A
  3
Conceptual
350
34
  3
Dim
350
35
  3
Facepattern
350
39
  3
Flat
350
2B
  3
FlatWithEdges
350
2C
  3
Gouraud
350
2D
  3
GouraudWithEdges
350
2E
  3
Linepattern
350
38
  3
Realistic
350
33
  3
Thicken
350
37
  0
LAYOUT
  5
1E
102
{ACAD_REACTORS
330
1A
102
}
330
1A
100
AcDbPlotSettings
  1

  2
none_device
  4

  6

 40
0.0
 41
0.0
 42
0.0
 43
0.0
 44
0.0
 45
0.0
 46
0.0
 47
0.0
 48
0.0
 49
0.0
140
0.0
141
0.0
142
1.0
143
1.0
 70
   688
 72
     0
 73
     0
 74
     5
  7

 75
    16
 76
     0
 77
     2
 78
   300
147
1.0
148
0.0
149
0.0
100
AcDbLayout
  1
Layout1
 70
     1
 71
     1
 10
0.0
 20
0.0
 11
12.0
 21
9.0
 12
0.0
 22
0.0
 32
0.0
 14
1.000000000000000E+20
 24
1.000000000000000E+20
 34
1.000000000000000E+20
 15
-1.000000000000000E+20
 25
-1.000000000000000E+20
 35
-1.000000000000000E+20
146
0.0
 13
0.0
 23
0.0
 33
0.0
 16
1.0
 26
0.0
 36
0.0
 17
0.0
 27
1.0
 37
0.0
 76
     0
330
1B
  0
LAYOUT
  5
26
102
{ACAD_REACTORS
330
1A
102
}
330
1A
100
AcDbPlotSettings
  1

  2
none_device
  4

  6

 40
0.0
 41
0.0
 42
0.0
 43
0.0
 44
0.0
 45
0.0
 46
0.0
 47
0.0
 48
0.0
 49
0.0
140
0.0
141
0.0
142
1.0
143
1.0
 70
   688
 72
     0
 73
     0
 74
     5
  7

 75
    16
 76
     0
 77
     2
 78
   300
147
1.0
148
0.0
149
0.0
100
AcDbLayout
  1
Layout2
 70
     1
 71
     2
 10
0.0
 20
0.0
 11
0.0
 21
0.0
 12
0.0
 22
0.0
 32
0.0
 14
0.0
 24
0.0
 34
0.0
 15
0.0
 25
0.0
 35
0.0
146
0.0
 13
0.0
 23
0.0
 33
0.0
 16
1.0
 26
0.0
 36
0.0
 17
0.0
 27
1.0
 37
0.0
 76
     0
330
23
  0
LAYOUT
  5
22
102
{ACAD_REACTORS
330
1A
102
}
330
1A
100
AcDbPlotSettings
  1

  2
none_device
  4

  6

 40
0.0
 41
0.0
 42
0.0
 43
0.0
 44
0.0
 45
0.0
 46
0.0
 47
0.0
 48
0.0
 49
0.0
140
0.0
141
0.0
142
1.0
143
1.0
 70
  1712
 72
     0
 73
     0
 74
     0
  7

 75
     0
 76
     0
 77
     2
 78
   300
147
1.0
148
0.0
149
0.0
100
AcDbLayout
  1
Model
 70
     1
 71
     0
 10
0.0
 20
0.0
 11
12.0
 21
9.0
 12
0.0
 22
0.0
 32
0.0
 14
1.000000000000000E+20
 24
1.000000000000000E+20
 34
1.000000000000000E+20
 15
-1.000000000000000E+20
 25
-1.000000000000000E+20
 35
-1.000000000000000E+20
146
0.0
 13
0.0
 23
0.0
 33
0.0
 16
1.0
 26
0.0
 36
0.0
 17
0.0
 27
1.0
 37
0.0
 76
     0
330
1F
331
29
  0
MATERIAL
  5
3D
102
{ACAD_REACTORS
330
3B
102
}
330
3B
100
AcDbMaterial
  1
ByBlock
 72
     1
 94
      127
  0
MATERIAL
  5
3C
102
{ACAD_REACTORS
330
3B
102
}
330
3B
100
AcDbMaterial
  1
ByLayer
 72
     1
 94
      127
  0
MATERIAL
  5
3E
102
{ACAD_REACTORS
330
3B
102
}
330
3B
100
AcDbMaterial
  1
Global
 72
     1
 94
      127
  0
MLINESTYLE
  5
18
102
{ACAD_REACTORS
330
17
102
}
330
17
100
AcDbMlineStyle
  2
Standard
 70
     0
  3

 62
   256
 51
90.0
 52
90.0
 71
     2
 49
0.5
 62
   256
  6
BYLAYER
 49
-0.5
 62
   256
  6
BYLAYER
  0
ACDBPLACEHOLDER
  5
F
102
{ACAD_REACTORS
330
E
102
}
330
E
  0
VISUALSTYLE
  5
2F
102
{ACAD_REACTORS
330
2A
102
}
330
2A
100
AcDbVisualStyle
  2
2dWireframe
 70
     4
177
     2
291
     0
 71
     0
176
     1
 72
     2
176
     1
 73
     0
176
     1
 90
        0
176
     1
 40
-0.6
176
     1
 41
-30.0
176
     1
 62
     5
 63
     7
421
 16777215
176
     1
 74
     1
176
     1
 91
        4
176
     1
 64
     7
176
     1
 65
   257
176
     1
 75
     1
176
     1
175
     1
176
     1
 42
1.0
176
     1
 92
        0
176
     1
 66
   257
176
     1
 43
1.0
176
     1
 76
     1
176
     1
 77
     6
176
     1
 78
     2
176
     1
 67
     7
176
     1
 79
     5
176
     1
170
     0
176
     1
171
     0
176
     1
290
     0
176
     1
 93
        1
176
     1
 44
0.0
176
     1
173
     0
176
     1
  0
VISUALSTYLE
  5
31
102
{ACAD_REACTORS
330
2A
102
}
330
2A
100
AcDbVisualStyle
  2
3D Hidden
 70
     6
177
     2
291
     0
 71
     1
176
     1
 72
     2
176
     1
 73
     2
176
     1
 90
        0
176
     1
 40
-0.6
176
     1
 41
-30.0
176
     1
 62
     5
 63
     7
421
 16777215
176
     1
 74
     2
176
     1
 91
        2
176
     1
 64
     7
176
     1
 65
   257
176
     1
 75
     2
176
     1
175
     1
176
     1
 42
40.0
176
     1
 92
        0
176
     1
 66
   257
176
     1
 43
1.0
176
     1
 76
     1
176
     1
 77
     6
176
     1
 78
     2
176
     1
 67
     7
176
     1
 79
     3
176
     1
170
     0
176
     1
171
     0
176
     1
290
     0
176
     1
 93
        1
176
     1
 44
0.0
176
     1
173
     0
176
     1
  0
VISUALSTYLE
  5
30
102
{ACAD_REACTORS
330
2A
102
}
330
2A
100
AcDbVisualStyle
  2
3dWireframe
 70
     5
177
     2
291
     0
 71
     0
176
     1
 72
     2
176
     1
 73
     0
176
     1
 90
        0
176
     1
 40
-0.6
176
     1
 41
-30.0
176
     1
 62
     5
 63
     7
421
 16777215
176
     1
 74
     1
176
     1
 91
        4
176
     1
 64
     7
176
     1
 65
   257
176
     1
 75
     1
176
     1
175
     1
176
     1
 42
1.0
176
     1
 92
        0
176
     1
 66
   257
176
     1
 43
1.0
176
     1
 76
     1
176
     1
 77
     6
176
     1
 78
     2
176
     1
 67
     7
176
     1
 79
     5
176
     1
170
     0
176
     1
171
     0
176
     1
290
     0
176
     1
 93
        1
176
     1
 44
0.0
176
     1
173
     0
176
     1
  0
VISUALSTYLE
  5
32
102
{ACAD_REACTORS
330
2A
102
}
330
2A
100
AcDbVisualStyle
  2
Basic
 70
     7
177
     2
291
     1
 71
     1
176
     1
 72
     0
176
     1
 73
     1
176
     1
 90
        0
176
     1
 40
-0.6
176
     1
 41
-30.0
176
     1
 62
     5
 63
     7
421
 16777215
176
     1
 74
     0
176
     1
 91
        4
176
     1
 64
     7
176
     1
 65
   257
176
     1
 75
     1
176
     1
175
     1
176
     1
 42
1.0
176
     1
 92
        8
176
     1
 66
     7
176
     1
 43
1.0
176
     1
 76
     1
176
     1
 77
     6
176
     1
 78
     2
176
     1
 67
     7
176
     1
 79
     5
176
     1
170
     0
176
     1
171
     0
176
     1
290
     0
176
     1
 93
        1
176
     1
 44
0.0
176
     1
173
     0
176
     1
  0
VISUALSTYLE
  5
36
102
{ACAD_REACTORS
330
2A
102
}
330
2A
100
AcDbVisualStyle
  2
Brighten
 70
    12
177
     2
291
     1
 71
     2
176
     1
 72
     2
176
     1
 73
     0
176
     1
 90
        0
176
     1
 40
-0.6
176
     1
 41
-30.0
176
     1
 62
     5
 63
     7
421
 16777215
176
     1
 74
     1
176
     1
 91
        4
176
     1
 64
     7
176
     1
 65
   257
176
     1
 75
     1
176
     1
175
     1
176
     1
 42
1.0
176
     1
 92
        8
176
     1
 66
     7
176
     1
 43
1.0
176
     1
 76
     1
176
     1
 77
     6
176
     1
 78
     2
176
     1
 67
     7
176
     1
 79
     5
176
     1
170
     0
176
     1
171
     0
176
     1
290
     0
176
     1
 93
        1
176
     1
 44
50.0
176
     1
173
     0
176
     1
  0
VISUALSTYLE
  5
3A
102
{ACAD_REACTORS
330
2A
102
}
330
2A
100
AcDbVisualStyle
  2
ColorChange
 70
    16
177
     2
291
     1
 71
     2
176
     1
 72
     2
176
     1
 73
     3
176
     1
 90
        0
176
     1
 40
-0.6
176
     1
 41
-30.0
176
     1
 62
     5
 63
     8
421
  8421504
176
     1
 74
     1
176
     1
 91
        4
176
     1
 64
     7
176
     1
 65
   257
176
     1
 75
     1
176
     1
175
     1
176
     1
 42
1.0
176
     1
 92
        8
176
     1
 66
     8
424
  8421504
176
     1
 43
1.0
176
     1
 76
     1
176
     1
 77
     6
176
     1
 78
     2
176
     1
 67
     7
176
     1
 79
     5
176
     1
170
     0
176
     1
171
     0
176
     1
290
     0
176
     1
 93
        1
176
     1
 44
0.0
176
     1
173
     0
176
     1
  0
VISUALSTYLE
  5
34
102
{ACAD_REACTORS
330
2A
102
}
330
2A
100
AcDbVisualStyle
  2
Conceptual
 70
     9
177
     2
291
     0
 71
     3
176
     1
 72
     2
176
     1
 73
     0
176
     1
 90
        0
176
     1
 40
-0.6
176
     1
 41
-30.0
176
     1
 62
     5
 63
     7
421
 16777215
176
     1
 74
     2
176
     1
 91
        2
176
     1
 64
     7
176
     1
 65
   257
176
     1
 75
     1
176
     1
175
     1
176
     1
 42
40.0
176
     1
 92
        8
176
     1
 66
     7
176
     1
 43
1.0
176
     1
 76
     1
176
     1
 77
     6
176
     1
 78
     2
176
     1
 67
     7
176
     1
 79
     3
176
     1
170
     0
176
     1
171
     0
176
     1
290
     0
176
     1
 93
        1
176
     1
 44
0.0
176
     1
173
     0
176
     1
  0
VISUALSTYLE
  5
35
102
{ACAD_REACTORS
330
2A
102
}
330
2A
100
AcDbVisualStyle
  2
Dim
 70
    11
177
     2
291
     1
 71
     2
176
     1
 72
     2
176
     1
 73
     0
176
     1
 90
        0
176
     1
 40
-0.6
176
     1
 41
-30.0
176
     1
 62
     5
 63
     7
421
 16777215
176
     1
 74
     1
176
     1
 91
        4
176
     1
 64
     7
176
     1
 65
   257
176
     1
 75
     1
176
     1
175
     1
176
     1
 42
1.0
176
     1
 92
        8
176
     1
 66
     7
176
     1
 43
1.0
176
     1
 76
     1
176
     1
 77
     6
176
     1
 78
     2
176
     1
 67
     7
176
     1
 79
     5
176
     1
170
     0
176
     1
171
     0
176
     1
290
     0
176
     1
 93
        1
176
     1
 44
-50.0
176
     1
173
     0
176
     1
  0
VISUALSTYLE
  5
39
102
{ACAD_REACTORS
330
2A
102
}
330
2A
100
AcDbVisualStyle
  2
Facepattern
 70
    15
177
     2
291
     1
 71
     2
176
     1
 72
     2
176
     1
 73
     0
176
     1
 90
        0
176
     1
 40
-0.6
176
     1
 41
-30.0
176
     1
 62
     5
 63
     7
421
 16777215
176
     1
 74
     1
176
     1
 91
        4
176
     1
 64
     7
176
     1
 65
   257
176
     1
 75
     1
176
     1
175
     1
176
     1
 42
1.0
176
     1
 92
        8
176
     1
 66
     7
176
     1
 43
1.0
176
     1
 76
     1
176
     1
 77
     6
176
     1
 78
     2
176
     1
 67
     7
176
     1
 79
     5
176
     1
170
     0
176
     1
171
     0
176
     1
290
     0
176
     1
 93
        1
176
     1
 44
0.0
176
     1
173
     0
176
     1
  0
VISUALSTYLE
  5
2B
102
{ACAD_REACTORS
330
2A
102
}
330
2A
100
AcDbVisualStyle
  2
Flat
 70
     0
177
     2
291
     1
 71
     2
176
     1
 72
     1
176
     1
 73
     1
176
     1
 90
        2
176
     1
 40
-0.6
176
     1
 41
30.0
176
     1
 62
     5
 63
     7
421
 16777215
176
     1
 74
     0
176
     1
 91
        4
176
     1
 64
     7
176
     1
 65
   257
176
     1
 75
     1
176
     1
175
     1
176
     1
 42
1.0
176
     1
 92
        8
176
     1
 66
     7
176
     1
 43
1.0
176
     1
 76
     1
176
     1
 77
     6
176
     1
 78
     2
176
     1
 67
     7
176
     1
 79
     5
176
     1
170
     0
176
     1
171
     0
176
     1
290
     0
176
     1
 93
       13
176
     1
 44
0.0
176
     1
173
     0
176
     1
  0
VISUALSTYLE
  5
2C
102
{ACAD_REACTORS
330
2A
102
}
330
2A
100
AcDbVisualStyle
  2
FlatWithEdges
 70
     1
177
     2
291
     1
 71
     2
176
     1
 72
     1
176
     1
 73
     1
176
     1
 90
        2
176
     1
 40
-0.6
176
     1
 41
30.0
176
     1
 62
     5
 63
     7
421
 16777215
176
     1
 74
     1
176
     1
 91
        4
176
     1
 64
     7
176
     1
 65
   257
176
     1
 75
     1
176
     1
175
     1
176
     1
 42
1.0
176
     1
 92
        0
176
     1
 66
   257
176
     1
 43
1.0
176
     1
 76
     1
176
     1
 77
     6
176
     1
 78
     2
176
     1
 67
     7
176
     1
 79
     5
176
     1
170
     0
176
     1
171
     0
176
     1
290
     0
176
     1
 93
       13
176
     1
 44
0.0
176
     1
173
     0
176
     1
  0
VISUALSTYLE
  5
2D
102
{ACAD_REACTORS
330
2A
102
}
330
2A
100
AcDbVisualStyle
  2
Gouraud
 70
     2
177
     2
291
     1
 71
     2
176
     1
 72
     2
176
     1
 73
     1
176
     1
 90
        2
176
     1
 40
-0.6
176
     1
 41
30.0
176
     1
 62
     5
 63
     7
421
 16777215
176
     1
 74
     0
176
     1
 91
        4
176
     1
 64
     7
176
     1
 65
   257
176
     1
 75
     1
176
     1
175
     1
176
     1
 42
1.0
176
     1
 92
        0
176
     1
 66
     7
176
     1
 43
1.0
176
     1
 76
     1
176
     1
 77
     6
176
     1
 78
     2
176
     1
 67
     7
176
     1
 79
     5
176
     1
170
     0
176
     1
171
     0
176
     1
290
     0
176
     1
 93
       13
176
     1
 44
0.0
176
     1
173
     0
176
     1
  0
VISUALSTYLE
  5
2E
102
{ACAD_REACTORS
330
2A
102
}
330
2A
100
AcDbVisualStyle
  2
GouraudWithEdges
 70
     3
177
     2
291
     1
 71
     2
176
     1
 72
     2
176
     1
 73
     1
176
     1
 90
        2
176
     1
 40
-0.6
176
     1
 41
30.0
176
     1
 62
     5
 63
     7
421
 16777215
176
     1
 74
     1
176
     1
 91
        4
176
     1
 64
     7
176
     1
 65
   257
176
     1
 75
     1
176
     1
175
     1
176
     1
 42
1.0
176
     1
 92
        0
176
     1
 66
   257
176
     1
 43
1.0
176
     1
 76
     1
176
     1
 77
     6
176
     1
 78
     2
176
     1
 67
     7
176
     1
 79
     5
176
     1
170
     0
176
     1
171
     0
176
     1
290
     0
176
     1
 93
       13
176
     1
 44
0.0
176
     1
173
     0
176
     1
  0
VISUALSTYLE
  5
38
102
{ACAD_REACTORS
330
2A
102
}
330
2A
100
AcDbVisualStyle
  2
Linepattern
 70
    14
177
     2
291
     1
 71
     2
176
     1
 72
     2
176
     1
 73
     0
176
     1
 90
        0
176
     1
 40
-0.6
176
     1
 41
-30.0
176
     1
 62
     5
 63
     7
421
 16777215
176
     1
 74
     1
176
     1
 91
        4
176
     1
 64
     7
176
     1
 65
   257
176
     1
 75
     7
176
     1
175
     7
176
     1
 42
1.0
176
     1
 92
        8
176
     1
 66
     7
176
     1
 43
1.0
176
     1
 76
     1
176
     1
 77
     6
176
     1
 78
     2
176
     1
 67
     7
176
     1
 79
     5
176
     1
170
     0
176
     1
171
     0
176
     1
290
     0
176
     1
 93
        1
176
     1
 44
0.0
176
     1
173
     0
176
     1
  0
VISUALSTYLE
  5
33
102
{ACAD_REACTORS
330
2A
102
}
330
2A
100
AcDbVisualStyle
  2
Realistic
 70
     8
177
     2
291
     0
 71
     2
176
     1
 72
     2
176
     1
 73
     0
176
     1
 90
        0
176
     1
 40
-0.6
176
     1
 41
-30.0
176
     1
 62
     5
 63
     7
421
 16777215
176
     1
 74
     1
176
     1
 91
        0
176
     1
 64
     7
176
     1
 65
   257
176
     1
 75
     1
176
     1
175
     1
176
     1
 42
1.0
176
     1
 92
        8
176
     1
 66
     8
424
  7895160
176
     1
 43
1.0
176
     1
 76
     1
176
     1
 77
     6
176
     1
 78
     2
176
     1
 67
     7
176
     1
 79
     5
176
     1
170
     0
176
     1
171
     0
176
     1
290
     0
176
     1
 93
       13
176
     1
 44
0.0
176
     1
173
     0
176
     1
  0
VISUALSTYLE
  5
37
102
{ACAD_REACTORS
330
2A
102
}
330
2A
100
AcDbVisualStyle
  2
Thicken
 70
    13
177
     2
291
     1
 71
     2
176
     1
 72
     2
176
     1
 73
     0
176
     1
 90
        0
176
     1
 40
-0.6
176
     1
 41
-30.0
176
     1
 62
     5
 63
     7
421
 16777215
176
     1
 74
     1
176
     1
 91
        4
176
     1
 64
     7
176
     1
 65
   257
176
     1
 75
     1
176
     1
175
     1
176
     1
 42
1.0
176
     1
 92
       12
176
     1
 66
     7
176
     1
 43
1.0
176
     1
 76
     1
176
     1
 77
     6
176
     1
 78
     2
176
     1
 67
     7
176
     1
 79
     5
176
     1
170
     0
176
     1
171
     0
176
     1
290
     0
176
     1
 93
        1
176
     1
 44
0.0
176
     1
173
     0
176
     1
  0
ENDSEC
  0
EOF
