  0
SECTION
  2
HEADER
  9
$ACADVER
  1
AC1024
  9
$ACADMAINTVER
 70
     6
  9
$DWGCODEPAGE
  3
ANSI_1252
  9
$INSBASE
 10
0.0
 20
0.0
 30
0.0
  9
$EXTMIN
 10
1.000000000000000E+20
 20
1.000000000000000E+20
 30
1.000000000000000E+20
  9
$EXTMAX
 10
-1.000000000000000E+20
 20
-1.000000000000000E+20
 30
-1.000000000000000E+20
  9
$LIMMIN
 10
0.0
 20
0.0
  9
$LIMMAX
 10
12.0
 20
9.0
  9
$ORTHOMODE
 70
     0
  9
$REGENMODE
 70
     1
  9
$FILLMODE
 70
     1
  9
$QTEXTMODE
 70
     0
  9
$MIRRTEXT
 70
     1
  9
$LTSCALE
 40
1.0
  9
$ATTMODE
 70
     1
  9
$TEXTSIZE
 40
0.2
  9
$TRACEWID
 40
0.05
  9
$TEXTSTYLE
  7
Standard
  9
$CLAYER
  8
0
  9
$CELTYPE
  6
ByLayer
  9
$CECOLOR
 62
   256
  9
$CELTSCALE
 40
1.0
  9
$DISPSILH
 70
     0
  9
$DIMSCALE
 40
1.0
  9
$DIMASZ
 40
0.18
  9
$DIMEXO
 40
0.0625
  9
$DIMDLI
 40
0.38
  9
$DIMRND
 40
0.0
  9
$DIMDLE
 40
0.0
  9
$DIMEXE
 40
0.18
  9
$DIMTP
 40
0.0
  9
$DIMTM
 40
0.0
  9
$DIMTXT
 40
0.18
  9
$DIMCEN
 40
0.09
  9
$DIMTSZ
 40
0.0
  9
$DIMTOL
 70
     0
  9
$DIMLIM
 70
     0
  9
$DIMTIH
 70
     1
  9
$DIMTOH
 70
     1
  9
$DIMSE1
 70
     0
  9
$DIMSE2
 70
     0
  9
$DIMTAD
 70
     0
  9
$DIMZIN
 70
     0
  9
$DIMBLK
  1

  9
$DIMASO
 70
     1
  9
$DIMSHO
 70
     1
  9
$DIMPOST
  1

  9
$DIMAPOST
  1

  9
$DIMALT
 70
     0
  9
$DIMALTD
 70
     2
  9
$DIMALTF
 40
25.4
  9
$DIMLFAC
 40
1.0
  9
$DIMTOFL
 70
     0
  9
$DIMTVP
 40
0.0
  9
$DIMTIX
 70
     0
  9
$DIMSOXD
 70
     0
  9
$DIMSAH
 70
     0
  9
$DIMBLK1
  1

  9
$DIMBLK2
  1

  9
$DIMSTYLE
  2
Standard
  9
$DIMCLRD
 70
     0
  9
$DIMCLRE
 70
     0
  9
$DIMCLRT
 70
     0
  9
$DIMTFAC
 40
1.0
  9
$DIMGAP
 40
0.09
  9
$DIMJUST
 70
     0
  9
$DIMSD1
 70
     0
  9
$DIMSD2
 70
     0
  9
$DIMTOLJ
 70
     1
  9
$DIMTZIN
 70
     0
  9
$DIMALTZ
 70
     0
  9
$DIMALTTZ
 70
     0
  9
$DIMUPT
 70
     0
  9
$DIMDEC
 70
     4
  9
$DIMTDEC
 70
     4
  9
$DIMALTU
 70
     2
  9
$DIMALTTD
 70
     2
  9
$DIMTXSTY
  7
Standard
  9
$DIMAUNIT
 70
     0
  9
$DIMADEC
 70
     0
  9
$DIMALTRND
 40
0.0
  9
$DIMAZIN
 70
     0
  9
$DIMDSEP
 70
    46
  9
$DIMATFIT
 70
     3
  9
$DIMFRAC
 70
     0
  9
$DIMLDRBLK
  1

  9
$DIMLUNIT
 70
     2
  9
$DIMLWD
 70
    -2
  9
$DIMLWE
 70
    -2
  9
$DIMTMOVE
 70
     0
  9
$DIMFXL
 40
1.0
  9
$DIMFXLON
 70
     0
  9
$DIMJOGANG
 40
0.7853981633974483
  9
$DIMTFILL
 70
     0
  9
$DIMTFILLCLR
 70
     0
  9
$DIMARCSYM
 70
     0
  9
$DIMLTYPE
  6

  9
$DIMLTEX1
  6

  9
$DIMLTEX2
  6

  9
$DIMTXTDIRECTION
 70
     0
  9
$LUNITS
 70
     2
  9
$LUPREC
 70
     4
  9
$SKETCHINC
 40
0.1
  9
$FILLETRAD
 40
0.5
  9
$AUNITS
 70
     0
  9
$AUPREC
 70
     0
  9
$MENU
  1
.
  9
$ELEVATION
 40
0.0
  9
$PELEVATION
 40
0.0
  9
$THICKNESS
 40
0.0
  9
$LIMCHECK
 70
     0
  9
$CHAMFERA
 40
0.5
  9
$CHAMFERB
 40
0.5
  9
$CHAMFERC
 40
1.0
  9
$CHAMFERD
 40
0.0
  9
$SKPOLY
 70
     0
  9
$TDCREATE
 40
2458857.904311736
  9
$TDUCREATE
 40
2458857.36264507
  9
$TDUPDATE
 40
2458857.904311921
  9
$TDUUPDATE
 40
2458857.362645254
  9
$TDINDWG
 40
0.0000000116
  9
$TDUSRTIMER
 40
0.0000000116
  9
$USRTIMER
 70
     1
  9
$ANGBASE
 50
0.0
  9
$ANGDIR
 70
     0
  9
$PDMODE
 70
     0
  9
$PDSIZE
 40
0.0
  9
$PLINEWID
 40
0.0
  9
$SPLFRAME
 70
     0
  9
$SPLINETYPE
 70
     6
  9
$SPLINESEGS
 70
     8
  9
$HANDSEED
  5
208
  9
$SURFTAB1
 70
     6
  9
$SURFTAB2
 70
     6
  9
$SURFTYPE
 70
     6
  9
$SURFU
 70
     6
  9
$SURFV
 70
     6
  9
$UCSBASE
  2

  9
$UCSNAME
  2

  9
$UCSORG
 10
0.0
 20
0.0
 30
0.0
  9
$UCSXDIR
 10
1.0
 20
0.0
 30
0.0
  9
$UCSYDIR
 10
0.0
 20
1.0
 30
0.0
  9
$UCSORTHOREF
  2

  9
$UCSORTHOVIEW
 70
     0
  9
$UCSORGTOP
 10
0.0
 20
0.0
 30
0.0
  9
$UCSORGBOTTOM
 10
0.0
 20
0.0
 30
0.0
  9
$UCSORGLEFT
 10
0.0
 20
0.0
 30
0.0
  9
$UCSORGRIGHT
 10
0.0
 20
0.0
 30
0.0
  9
$UCSORGFRONT
 10
0.0
 20
0.0
 30
0.0
  9
$UCSORGBACK
 10
0.0
 20
0.0
 30
0.0
  9
$PUCSBASE
  2

  9
$PUCSNAME
  2

  9
$PUCSORG
 10
0.0
 20
0.0
 30
0.0
  9
$PUCSXDIR
 10
1.0
 20
0.0
 30
0.0
  9
$PUCSYDIR
 10
0.0
 20
1.0
 30
0.0
  9
$PUCSORTHOREF
  2

  9
$PUCSORTHOVIEW
 70
     0
  9
$PUCSORGTOP
 10
0.0
 20
0.0
 30
0.0
  9
$PUCSORGBOTTOM
 10
0.0
 20
0.0
 30
0.0
  9
$PUCSORGLEFT
 10
0.0
 20
0.0
 30
0.0
  9
$PUCSORGRIGHT
 10
0.0
 20
0.0
 30
0.0
  9
$PUCSORGFRONT
 10
0.0
 20
0.0
 30
0.0
  9
$PUCSORGBACK
 10
0.0
 20
0.0
 30
0.0
  9
$USERI1
 70
     0
  9
$USERI2
 70
     0
  9
$USERI3
 70
     0
  9
$USERI4
 70
     0
  9
$USERI5
 70
     0
  9
$USERR1
 40
0.0
  9
$USERR2
 40
0.0
  9
$USERR3
 40
0.0
  9
$USERR4
 40
0.0
  9
$USERR5
 40
0.0
  9
$WORLDVIEW
 70
     1
  9
$SHADEDGE
 70
     3
  9
$SHADEDIF
 70
    70
  9
$TILEMODE
 70
     1
  9
$MAXACTVP
 70
    64
  9
$PINSBASE
 10
0.0
 20
0.0
 30
0.0
  9
$PLIMCHECK
 70
     0
  9
$PEXTMIN
 10
1.000000000000000E+20
 20
1.000000000000000E+20
 30
1.000000000000000E+20
  9
$PEXTMAX
 10
-1.000000000000000E+20
 20
-1.000000000000000E+20
 30
-1.000000000000000E+20
  9
$PLIMMIN
 10
0.0
 20
0.0
  9
$PLIMMAX
 10
12.0
 20
9.0
  9
$UNITMODE
 70
     0
  9
$VISRETAIN
 70
     1
  9
$PLINEGEN
 70
     0
  9
$PSLTSCALE
 70
     1
  9
$TREEDEPTH
 70
  3020
  9
$CMLSTYLE
  2
Standard
  9
$CMLJUST
 70
     0
  9
$CMLSCALE
 40
1.0
  9
$PROXYGRAPHICS
 70
     1
  9
$MEASUREMENT
 70
     0
  9
$CELWEIGHT
370
    -1
  9
$ENDCAPS
280
     0
  9
$JOINSTYLE
280
     0
  9
$LWDISPLAY
290
     1
  9
$INSUNITS
 70
     0
  9
$HYPERLINKBASE
  1

  9
$STYLESHEET
  1

  9
$XEDIT
290
     1
  9
$CEPSNTYPE
380
     0
  9
$PSTYLEMODE
290
     1
  9
$FINGERPRINTGUID
  2
{ADB51C5B-82CA-4444-B9F4-CAD075F4C278}
  9
$VERSIONGUID
  2
{FAEB1C32-E019-11D5-929B-00C0DF256EC4}
  9
$EXTNAMES
290
     1
  9
$PSVPSCALE
 40
0.0
  9
$OLESTARTUP
290
     0
  9
$SORTENTS
280
   127
  9
$INDEXCTL
280
     0
  9
$HIDETEXT
280
     1
  9
$XCLIPFRAME
280
     2
  9
$HALOGAP
280
     0
  9
$OBSCOLOR
 70
   257
  9
$OBSLTYPE
280
     0
  9
$INTERSECTIONDISPLAY
280
     0
  9
$INTERSECTIONCOLOR
 70
   257
  9
$DIMASSOC
280
     2
  9
$PROJECTNAME
  1

  9
$CAMERADISPLAY
290
     0
  9
$LENSLENGTH
 40
50.0
  9
$CAMERAHEIGHT
 40
0.0
  9
$STEPSPERSEC
 40
2.0
  9
$STEPSIZE
 40
6.0
  9
$3DDWFPREC
 40
2.0
  9
$PSOLWIDTH
 40
0.25
  9
$PSOLHEIGHT
 40
4.0
  9
$LOFTANG1
 40
1.570796326794897
  9
$LOFTANG2
 40
1.570796326794897
  9
$LOFTMAG1
 40
0.0
  9
$LOFTMAG2
 40
0.0
  9
$LOFTPARAM
 70
     7
  9
$LOFTNORMALS
280
     1
  9
$LATITUDE
 40
37.795
  9
$LONGITUDE
 40
-122.394
  9
$NORTHDIRECTION
 40
0.0
  9
$TIMEZONE
 70
 -8000
  9
$LIGHTGLYPHDISPLAY
280
     1
  9
$TILEMODELIGHTSYNCH
280
     1
  9
$CMATERIAL
347
3C
  9
$SOLIDHIST
280
     1
  9
$SHOWHIST
280
     1
  9
$DWFFRAME
280
     2
  9
$DGNFRAME
280
     2
  9
$REALWORLDSCALE
290
     1
  9
$INTERFERECOLOR
 62
   256
  9
$CSHADOW
280
     0
  9
$SHADOWPLANELOCATION
 40
0.0
  0
ENDSEC
  0
SECTION
  2
CLASSES
  0
CLASS
  1
ACDBDICTIONARYWDFLT
  2
AcDbDictionaryWithDefault
  3
ObjectDBX Classes
 90
        0
 91
        4
280
     0
281
     0
  0
CLASS
  1
VISUALSTYLE
  2
AcDbVisualStyle
  3
ObjectDBX Classes
 90
     4095
 91
        4
280
     0
281
     0
  0
CLASS
  1
MATERIAL
  2
AcDbMaterial
  3
ObjectDBX Classes
 90
     1153
 91
        4
280
     0
281
     0
  0
CLASS
  1
SUN
  2
AcDbSun
  3
SCENEOE
 90
     1024
 91
        4
280
     0
281
     0
  0
ENDSEC
  0
SECTION
  2
TABLES
  0
TABLE
  2
VPORT
  5
8
330
0
100
AcDbSymbolTable
 70
     1
  0
VPORT
  5
29
330
8
100
AcDbSymbolTableRecord
100
AcDbViewportTableRecord
  2
*Active
 70
     0
 10
0.0
 20
0.0
 11
1.0
 21
1.0
 12
0.0
 22
0.0
 13
0.0
 23
0.0
 14
0.5
 24
0.5
 15
0.5
 25
0.5
 16
0.0
 26
0.0
 36
1.0
 17
305.9999922697898
 27
395.9999899961986
 37
0.0
 40
841.8897637795271
 41
0.7070707070707065
 42
50.0
 43
0.0
 44
0.0
 50
0.0
 51
0.0
 71
     0
 72
   100
 73
     1
 74
     3
 75
     0
 76
     0
 77
     0
 78
     0
281
     0
 65
     1
110
0.0
120
0.0
130
0.0
111
1.0
121
0.0
131
0.0
112
0.0
122
1.0
132
0.0
 79
     0
146
0.0
 60
     3
 61
     5
292
     1
282
     1
141
0.0
142
0.0
 63
   250
361
3F
  0
ENDTAB
  0
TABLE
  2
LTYPE
  5
5
330
0
100
AcDbSymbolTable
 70
     1
  0
LTYPE
  5
14
330
5
100
AcDbSymbolTableRecord
100
AcDbLinetypeTableRecord
  2
ByBlock
 70
     0
  3

 72
    65
 73
     0
 40
0.0
  0
LTYPE
  5
15
330
5
100
AcDbSymbolTableRecord
100
AcDbLinetypeTableRecord
  2
ByLayer
 70
     0
  3

 72
    65
 73
     0
 40
0.0
  0
LTYPE
  5
16
330
5
100
AcDbSymbolTableRecord
100
AcDbLinetypeTableRecord
  2
Continuous
 70
     0
  3
Solid line
 72
    65
 73
     0
 40
0.0
  0
ENDTAB
  0
TABLE
  2
LAYER
  5
2
330
0
100
AcDbSymbolTable
 70
     4
  0
LAYER
  5
10
330
2
100
AcDbSymbolTableRecord
100
AcDbLayerTableRecord
  2
0
 70
     0
 62
     7
  6
Continuous
370
    -3
390
F
347
3E
  0
LAYER
  5
40
330
2
100
AcDbSymbolTableRecord
100
AcDbLayerTableRecord
  2
Woods
 70
     0
 62
     7
  6
Continuous
370
    -3
390
F
347
3E
  0
LAYER
  5
154
330
2
100
AcDbSymbolTableRecord
100
AcDbLayerTableRecord
  2
APVA21
 70
     0
 62
     7
  6
Continuous
370
    -3
390
F
347
3E
  0
LAYER
  5
1F4
330
2
100
AcDbSymbolTableRecord
100
AcDbLayerTableRecord
  2
Layer 3
 70
     0
 62
     7
  6
Continuous
370
    -3
390
F
347
3E
  0
ENDTAB
  0
TABLE
  2
STYLE
  5
3
330
0
100
AcDbSymbolTable
 70
     1
  0
STYLE
  5
11
330
3
100
AcDbSymbolTableRecord
100
AcDbTextStyleTableRecord
  2
Standard
 70
     0
 40
0.0
 41
1.0
 50
0.0
 71
     0
 42
0.2
  3
txt
  4

  0
ENDTAB
  0
TABLE
  2
VIEW
  5
6
330
0
100
AcDbSymbolTable
 70
     0
  0
ENDTAB
  0
TABLE
  2
UCS
  5
7
330
0
100
AcDbSymbolTable
 70
     0
  0
ENDTAB
  0
TABLE
  2
APPID
  5
9
330
0
100
AcDbSymbolTable
 70
     1
  0
APPID
  5
12
330
9
100
AcDbSymbolTableRecord
100
AcDbRegAppTableRecord
  2
ACAD
 70
     0
  0
ENDTAB
  0
TABLE
  2
DIMSTYLE
  5
A
330
0
100
AcDbSymbolTable
 70
     1
100
AcDbDimStyleTable
  0
DIMSTYLE
105
27
330
A
100
AcDbSymbolTableRecord
100
AcDbDimStyleTableRecord
  2
Standard
 70
     0
178
     0
340
11
  0
ENDTAB
  0
TABLE
  2
BLOCK_RECORD
  5
1
330
0
100
AcDbSymbolTable
 70
    22
  0
BLOCK_RECORD
  5
1F
330
1
100
AcDbSymbolTableRecord
100
AcDbBlockTableRecord
  2
*Model_Space
340
22
 70
     0
280
     1
281
     0
  0
BLOCK_RECORD
  5
1B
330
1
100
AcDbSymbolTableRecord
100
AcDbBlockTableRecord
  2
*Paper_Space
340
1E
 70
     0
280
     1
281
     0
  0
BLOCK_RECORD
  5
23
330
1
100
AcDbSymbolTableRecord
100
AcDbBlockTableRecord
  2
*Paper_Space0
340
26
 70
     0
280
     1
281
     0
  0
BLOCK_RECORD
  5
41
330
1
100
AcDbSymbolTableRecord
100
AcDbBlockTableRecord
  2
block 2
340
0
102
{BLKREFS
331
42
102
}
 70
     0
280
     1
281
     0
  0
BLOCK_RECORD
  5
68
330
1
100
AcDbSymbolTableRecord
100
AcDbBlockTableRecord
  2
block 3
340
0
102
{BLKREFS
331
69
102
}
 70
     0
280
     1
281
     0
  0
BLOCK_RECORD
  5
97
330
1
100
AcDbSymbolTableRecord
100
AcDbBlockTableRecord
  2
block 4
340
0
102
{BLKREFS
331
98
102
}
 70
     0
280
     1
281
     0
  0
BLOCK_RECORD
  5
CF
330
1
100
AcDbSymbolTableRecord
100
AcDbBlockTableRecord
  2
block 5
340
0
102
{BLKREFS
331
D0
102
}
 70
     0
280
     1
281
     0
  0
BLOCK_RECORD
  5
FE
330
1
100
AcDbSymbolTableRecord
100
AcDbBlockTableRecord
  2
block 6
340
0
102
{BLKREFS
331
FF
102
}
 70
     0
280
     1
281
     0
  0
BLOCK_RECORD
  5
11C
330
1
100
AcDbSymbolTableRecord
100
AcDbBlockTableRecord
  2
block 7
340
0
102
{BLKREFS
331
11D
102
}
 70
     0
280
     1
281
     0
  0
BLOCK_RECORD
  5
155
330
1
100
AcDbSymbolTableRecord
100
AcDbBlockTableRecord
  2
block 8
340
0
102
{BLKREFS
331
156
102
}
 70
     0
280
     1
281
     0
  0
BLOCK_RECORD
  5
159
330
1
100
AcDbSymbolTableRecord
100
AcDbBlockTableRecord
  2
block 9
340
0
102
{BLKREFS
331
15A
102
}
 70
     0
280
     1
281
     0
  0
BLOCK_RECORD
  5
16C
330
1
100
AcDbSymbolTableRecord
100
AcDbBlockTableRecord
  2
block 10
340
0
102
{BLKREFS
331
16D
102
}
 70
     0
280
     1
281
     0
  0
BLOCK_RECORD
  5
170
330
1
100
AcDbSymbolTableRecord
100
AcDbBlockTableRecord
  2
block 11
340
0
102
{BLKREFS
331
171
102
}
 70
     0
280
     1
281
     0
  0
BLOCK_RECORD
  5
174
330
1
100
AcDbSymbolTableRecord
100
AcDbBlockTableRecord
  2
block 12
340
0
102
{BLKREFS
331
175
102
}
 70
     0
280
     1
281
     0
  0
BLOCK_RECORD
  5
17B
330
1
100
AcDbSymbolTableRecord
100
AcDbBlockTableRecord
  2
block 13
340
0
102
{BLKREFS
331
17C
102
}
 70
     0
280
     1
281
     0
  0
BLOCK_RECORD
  5
18E
330
1
100
AcDbSymbolTableRecord
100
AcDbBlockTableRecord
  2
block 14
340
0
102
{BLKREFS
331
18F
102
}
 70
     0
280
     1
281
     0
  0
BLOCK_RECORD
  5
192
330
1
100
AcDbSymbolTableRecord
100
AcDbBlockTableRecord
  2
block 15
340
0
102
{BLKREFS
331
193
102
}
 70
     0
280
     1
281
     0
  0
BLOCK_RECORD
  5
1A4
330
1
100
AcDbSymbolTableRecord
100
AcDbBlockTableRecord
  2
block 16
340
0
102
{BLKREFS
331
1A5
102
}
 70
     0
280
     1
281
     0
  0
BLOCK_RECORD
  5
1AF
330
1
100
AcDbSymbolTableRecord
100
AcDbBlockTableRecord
  2
block 17
340
0
102
{BLKREFS
331
1B0
102
}
 70
     0
280
     1
281
     0
  0
BLOCK_RECORD
  5
1B3
330
1
100
AcDbSymbolTableRecord
100
AcDbBlockTableRecord
  2
block 18
340
0
102
{BLKREFS
331
1B4
102
}
 70
     0
280
     1
281
     0
  0
BLOCK_RECORD
  5
1BA
330
1
100
AcDbSymbolTableRecord
100
AcDbBlockTableRecord
  2
block 19
340
0
102
{BLKREFS
331
1BB
102
}
 70
     0
280
     1
281
     0
  0
BLOCK_RECORD
  5
1CD
330
1
100
AcDbSymbolTableRecord
100
AcDbBlockTableRecord
  2
block 20
340
0
102
{BLKREFS
331
1CE
102
}
 70
     0
280
     1
281
     0
  0
BLOCK_RECORD
  5
1D1
330
1
100
AcDbSymbolTableRecord
100
AcDbBlockTableRecord
  2
block 21
340
0
102
{BLKREFS
331
1D2
102
}
 70
     0
280
     1
281
     0
  0
BLOCK_RECORD
  5
1E3
330
1
100
AcDbSymbolTableRecord
100
AcDbBlockTableRecord
  2
block 22
340
0
102
{BLKREFS
331
1E4
102
}
 70
     0
280
     1
281
     0
  0
ENDTAB
  0
ENDSEC
  0
SECTION
  2
BLOCKS
  0
BLOCK
  5
20
330
1F
100
AcDbEntity
  8
0
100
AcDbBlockBegin
  2
*Model_Space
 70
     0
 10
0.0
 20
0.0
 30
0.0
  3
*Model_Space
  1

  0
ENDBLK
  5
21
330
1F
100
AcDbEntity
  8
0
100
AcDbBlockEnd
  0
BLOCK
  5
1C
330
1B
100
AcDbEntity
 67
     1
  8
0
100
AcDbBlockBegin
  2
*Paper_Space
 70
     0
 10
0.0
 20
0.0
 30
0.0
  3
*Paper_Space
  1

  0
ENDBLK
  5
1D
330
1B
100
AcDbEntity
 67
     1
  8
0
100
AcDbBlockEnd
  0
BLOCK
  5
24
330
23
100
AcDbEntity
  8
0
100
AcDbBlockBegin
  2
*Paper_Space0
 70
     0
 10
0.0
 20
0.0
 30
0.0
  3
*Paper_Space0
  1

  0
ENDBLK
  5
25
330
23
100
AcDbEntity
  8
0
100
AcDbBlockEnd
  0
BLOCK
  5
43
330
41
100
AcDbEntity
  8
0
100
AcDbBlockBegin
  2
block 2
 70
     0
 10
0.0
 20
0.0
 30
0.0
  3
block 2
  1

  0
POLYLINE
  5
45
330
41
100
AcDbEntity
  8
Woods
 62
   250
420
  2301728
370
    25
100
AcDb2dPolyline
 66
     1
 10
0.0
 20
0.0
 30
0.0
  0
VERTEX
  5
46
330
45
100
AcDbEntity
  8
Woods
 62
   250
420
  2301728
370
    25
100
AcDbVertex
100
AcDb2dVertex
 10
284.8283029443428
 20
443.7878887889756
 30
0.0
  0
VERTEX
  5
47
330
45
100
AcDbEntity
  8
Woods
 62
   250
420
  2301728
370
    25
100
AcDbVertex
100
AcDb2dVertex
 10
383.4297004534619
 20
504.6196872522351
 30
0.0
  0
VERTEX
  5
48
330
45
100
AcDbEntity
  8
Woods
 62
   250
420
  2301728
370
    25
100
AcDbVertex
100
AcDb2dVertex
 10
383.4297004534619
 20
544.2626862507686
 30
0.0
  0
VERTEX
  5
49
330
45
100
AcDbEntity
  8
Woods
 62
   250
420
  2301728
370
    25
100
AcDbVertex
100
AcDb2dVertex
 10
379.4799005532423
 20
545.7902862121782
 30
0.0
  0
VERTEX
  5
4A
330
45
100
AcDbEntity
  8
Woods
 62
   250
420
  2301728
370
    25
100
AcDbVertex
100
AcDb2dVertex
 10
387.7202104847856
 20
558.941285879956
 30
0.0
  0
VERTEX
  5
4B
330
45
100
AcDbEntity
  8
Woods
 62
   250
420
  2301728
370
    25
100
AcDbVertex
100
AcDb2dVertex
 10
383.4297004534619
 20
560.6532858367073
 30
0.0
  0
VERTEX
  5
4C
330
45
100
AcDbEntity
  8
Woods
 62
   250
420
  2301728
370
    25
100
AcDbVertex
100
AcDb2dVertex
 10
383.4297004534619
 20
599.5680848536367
 30
0.0
  0
VERTEX
  5
4D
330
45
100
AcDbEntity
  8
Woods
 62
   250
420
  2301728
370
    25
100
AcDbVertex
100
AcDb2dVertex
 10
350.9446012741046
 20
613.4750845023163
 30
0.0
  0
VERTEX
  5
4E
330
45
100
AcDbEntity
  8
Woods
 62
   250
420
  2301728
370
    25
100
AcDbVertex
100
AcDb2dVertex
 10
225.6683044388501
 20
514.4145870047951
 30
0.0
  0
VERTEX
  5
4F
330
45
100
AcDbEntity
  8
Woods
 62
   250
420
  2301728
370
    25
100
AcDbVertex
100
AcDb2dVertex
 10
225.6683044388501
 20
499.3083873864098
 30
0.0
  0
VERTEX
  5
50
330
45
100
AcDbEntity
  8
Woods
 62
   250
420
  2301728
370
    25
100
AcDbVertex
100
AcDb2dVertex
 10
284.8283029443428
 20
443.7878887889756
 30
0.0
  0
SEQEND
  5
52
330
45
100
AcDbEntity
  8
Woods
 62
   250
420
  2301728
370
    25
  0
HATCH
  5
51
330
41
100
AcDbEntity
  8
Woods
 62
    43
420
 15510365
100
AcDbHatch
 10
0.0
 20
0.0
 30
0.0
210
0.0
220
0.0
230
1.0
  2
SOLID
 70
     1
 71
     0
 91
        1
 92
        1
 93
       10
 72
     1
 10
284.8283029443428
 20
443.7878887889756
 11
383.4297004534619
 21
504.6196872522351
 72
     1
 10
383.4297004534619
 20
504.6196872522351
 11
383.4297004534619
 21
544.2626862507686
 72
     1
 10
383.4297004534619
 20
544.2626862507686
 11
379.4799005532423
 21
545.7902862121782
 72
     1
 10
379.4799005532423
 20
545.7902862121782
 11
387.7202104847856
 21
558.941285879956
 72
     1
 10
387.7202104847856
 20
558.941285879956
 11
383.4297004534619
 21
560.6532858367073
 72
     1
 10
383.4297004534619
 20
560.6532858367073
 11
383.4297004534619
 21
599.5680848536367
 72
     1
 10
383.4297004534619
 20
599.5680848536367
 11
350.9446012741046
 21
613.4750845023163
 72
     1
 10
350.9446012741046
 20
613.4750845023163
 11
225.6683044388501
 21
514.4145870047951
 72
     1
 10
225.6683044388501
 20
514.4145870047951
 11
225.6683044388501
 21
499.3083873864098
 72
     1
 10
225.6683044388501
 20
499.3083873864098
 11
284.8283029443428
 21
443.7878887889756
 97
        0
 75
     2
 76
     1
 98
        0
  0
POLYLINE
  5
53
330
41
100
AcDbEntity
  8
Woods
 62
   250
420
  2301728
370
    18
100
AcDb2dPolyline
 66
     1
 10
0.0
 20
0.0
 30
0.0
  0
VERTEX
  5
54
330
53
100
AcDbEntity
  8
Woods
 62
   250
420
  2301728
370
    18
100
AcDbVertex
100
AcDb2dVertex
 10
379.4799005532423
 20
545.7902862121782
 30
0.0
  0
VERTEX
  5
55
330
53
100
AcDbEntity
  8
Woods
 62
   250
420
  2301728
370
    18
100
AcDbVertex
100
AcDb2dVertex
 10
350.9446012741046
 20
556.8263859333829
 30
0.0
  0
SEQEND
  5
56
330
53
100
AcDbEntity
  8
Woods
 62
   250
420
  2301728
370
    18
  0
POLYLINE
  5
57
330
41
100
AcDbEntity
  8
Woods
 62
   250
420
  2301728
370
    18
100
AcDb2dPolyline
 66
     1
 10
0.0
 20
0.0
 30
0.0
  0
VERTEX
  5
58
330
57
100
AcDbEntity
  8
Woods
 62
   250
420
  2301728
370
    18
100
AcDbVertex
100
AcDb2dVertex
 10
383.4297004534619
 20
504.6196872522351
 30
0.0
  0
VERTEX
  5
59
330
57
100
AcDbEntity
  8
Woods
 62
   250
420
  2301728
370
    18
100
AcDbVertex
100
AcDb2dVertex
 10
350.9446012741046
 20
516.2204983835909
 30
0.0
  0
SEQEND
  5
5A
330
57
100
AcDbEntity
  8
Woods
 62
   250
420
  2301728
370
    18
  0
POLYLINE
  5
5B
330
41
100
AcDbEntity
  8
Woods
 62
   250
420
  2301728
370
    18
100
AcDb2dPolyline
 66
     1
 10
0.0
 20
0.0
 30
0.0
  0
VERTEX
  5
5C
330
5B
100
AcDbEntity
  8
Woods
 62
   250
420
  2301728
370
    18
100
AcDbVertex
100
AcDb2dVertex
 10
383.4297004534619
 20
560.6532858367073
 30
0.0
  0
VERTEX
  5
5D
330
5B
100
AcDbEntity
  8
Woods
 62
   250
420
  2301728
370
    18
100
AcDbVertex
100
AcDb2dVertex
 10
355.1555011677283
 20
571.9348855517101
 30
0.0
  0
SEQEND
  5
5E
330
5B
100
AcDbEntity
  8
Woods
 62
   250
420
  2301728
370
    18
  0
POLYLINE
  5
5F
330
41
100
AcDbEntity
  8
Woods
 62
   250
420
  2301728
370
    18
100
AcDb2dPolyline
 66
     1
 10
0.0
 20
0.0
 30
0.0
  0
VERTEX
  5
60
330
5F
100
AcDbEntity
  8
Woods
 62
   250
420
  2301728
370
    18
100
AcDbVertex
100
AcDb2dVertex
 10
293.0409027368751
 20
478.0266879240307
 30
0.0
  0
VERTEX
  5
61
330
5F
100
AcDbEntity
  8
Woods
 62
   250
420
  2301728
370
    18
100
AcDbVertex
100
AcDb2dVertex
 10
350.9446012741046
 20
516.2204983835909
 30
0.0
  0
VERTEX
  5
62
330
5F
100
AcDbEntity
  8
Woods
 62
   250
420
  2301728
370
    18
100
AcDbVertex
100
AcDb2dVertex
 10
350.9446012741046
 20
556.8263859333829
 30
0.0
  0
VERTEX
  5
63
330
5F
100
AcDbEntity
  8
Woods
 62
   250
420
  2301728
370
    18
100
AcDbVertex
100
AcDb2dVertex
 10
346.781001379286
 20
557.8401859077721
 30
0.0
  0
VERTEX
  5
64
330
5F
100
AcDbEntity
  8
Woods
 62
   250
420
  2301728
370
    18
100
AcDbVertex
100
AcDb2dVertex
 10
355.1555011677283
 20
571.9348855517101
 30
0.0
  0
VERTEX
  5
65
330
5F
100
AcDbEntity
  8
Woods
 62
   250
420
  2301728
370
    18
100
AcDbVertex
100
AcDb2dVertex
 10
350.9446012741046
 20
572.8691855281077
 30
0.0
  0
VERTEX
  5
66
330
5F
100
AcDbEntity
  8
Woods
 62
   250
420
  2301728
370
    18
100
AcDbVertex
100
AcDb2dVertex
 10
350.9446012741046
 20
613.4750845023163
 30
0.0
  0
SEQEND
  5
67
330
5F
100
AcDbEntity
  8
Woods
 62
   250
420
  2301728
370
    18
  0
INSERT
  5
69
330
41
100
AcDbEntity
  8
Woods
100
AcDbBlockReference
  2
block 3
 10
0.0
 20
0.0
 30
0.0
  0
INSERT
  5
98
330
41
100
AcDbEntity
  8
Woods
100
AcDbBlockReference
  2
block 4
 10
0.0
 20
0.0
 30
0.0
  0
SPLINE
  5
C6
330
41
100
AcDbEntity
  8
Woods
 62
   250
420
  2301728
370
    13
100
AcDbSpline
210
0.0
220
0.0
230
1.0
 70
     8
 71
     3
 72
    11
 73
     7
 74
     0
 42
0.0000000001
 43
0.0000000001
 12
1.0
 22
0.0
 32
0.0
 13
1.0
 23
0.0
 33
0.0
 40
0.0
 40
0.0
 40
0.0
 40
0.0
 40
1.0
 40
1.0
 40
1.0
 40
2.0
 40
2.0
 40
2.0
 40
2.0
 10
350.2696012911565
 20
563.7116857594465
 30
0.0
 10
352.1086012446995
 20
564.9328857285964
 30
0.0
 10
354.7613011776866
 20
566.2940856942087
 30
0.0
 10
354.7613011776866
 20
566.2940856942087
 30
0.0
 10
354.7613011776866
 20
566.2940856942087
 30
0.0
 10
358.6797010786995
 20
570.5286855872337
 30
0.0
 10
358.6797010786995
 20
570.5286855872337
 30
0.0
  0
SPLINE
  5
C7
330
41
100
AcDbEntity
  8
Woods
 62
   250
420
  2301728
370
    13
100
AcDbSpline
210
0.0
220
0.0
230
1.0
 70
     8
 71
     3
 72
    11
 73
     7
 74
     0
 42
0.0000000001
 43
0.0000000001
 12
1.0
 22
0.0
 32
0.0
 13
1.0
 23
0.0
 33
0.0
 40
0.0
 40
0.0
 40
0.0
 40
0.0
 40
1.0
 40
1.0
 40
1.0
 40
2.0
 40
2.0
 40
2.0
 40
2.0
 10
351.4303012618348
 20
556.6384983835906
 30
0.0
 10
351.6076012573558
 20
556.5699859398601
 30
0.0
 10
360.7613010261139
 20
562.5959857876314
 30
0.0
 10
360.7613010261139
 20
562.5959857876314
 30
0.0
 10
360.7613010261139
 20
562.5959857876314
 30
0.0
 10
365.5095009061642
 20
567.8035856560764
 30
0.0
 10
365.5095009061642
 20
567.8035856560764
 30
0.0
  0
POLYLINE
  5
C8
330
41
100
AcDbEntity
  8
Woods
 62
   250
420
  2301728
370
    13
100
AcDb2dPolyline
 66
     1
 10
0.0
 20
0.0
 30
0.0
  0
VERTEX
  5
C9
330
C8
100
AcDbEntity
  8
Woods
 62
   250
420
  2301728
370
    13
100
AcDbVertex
100
AcDb2dVertex
 10
358.4699010839995
 20
553.9158860069083
 30
0.0
  0
VERTEX
  5
CA
330
C8
100
AcDbEntity
  8
Woods
 62
   250
420
  2301728
370
    13
100
AcDbVertex
100
AcDb2dVertex
 10
367.6455008522043
 20
559.0591858769776
 30
0.0
  0
VERTEX
  5
CB
330
C8
100
AcDbEntity
  8
Woods
 62
   250
420
  2301728
370
    13
100
AcDbVertex
100
AcDb2dVertex
 10
371.8492104847865
 20
565.2739857199795
 30
0.0
  0
SEQEND
  5
CC
330
C8
100
AcDbEntity
  8
Woods
 62
   250
420
  2301728
370
    13
  0
SPLINE
  5
CD
330
41
100
AcDbEntity
  8
Woods
 62
   250
420
  2301728
370
    13
100
AcDbSpline
210
0.0
220
0.0
230
1.0
 70
     8
 71
     3
 72
    11
 73
     7
 74
     0
 42
0.0000000001
 43
0.0000000001
 12
1.0
 22
0.0
 32
0.0
 13
1.0
 23
0.0
 33
0.0
 40
0.0
 40
0.0
 40
0.0
 40
0.0
 40
1.0
 40
1.0
 40
1.0
 40
2.0
 40
2.0
 40
2.0
 40
2.0
 10
365.5095009061642
 20
551.3082860727818
 30
0.0
 10
365.4793009069272
 20
551.2050860753889
 30
0.0
 10
374.4665006798914
 20
556.6378859381448
 30
0.0
 10
374.4665006798914
 20
556.6378859381448
 30
0.0
 10
374.4665006798914
 20
556.6378859381448
 30
0.0
 10
378.6137005751243
 20
562.5748857881645
 30
0.0
 10
378.6137005751243
 20
562.5748857881645
 30
0.0
  0
SPLINE
  5
CE
330
41
100
AcDbEntity
  8
Woods
 62
   250
420
  2301728
370
    13
100
AcDbSpline
210
0.0
220
0.0
230
1.0
 70
     8
 71
     3
 72
    11
 73
     7
 74
     0
 42
0.0000000001
 43
0.0000000001
 12
1.0
 22
0.0
 32
0.0
 13
1.0
 23
0.0
 33
0.0
 40
0.0
 40
0.0
 40
0.0
 40
0.0
 40
1.0
 40
1.0
 40
1.0
 40
2.0
 40
2.0
 40
2.0
 40
2.0
 10
372.4664007304182
 20
548.5027861436556
 30
0.0
 10
373.5191007038247
 20
549.2065861258752
 30
0.0
 10
380.3821005304508
 20
553.1222860269563
 30
0.0
 10
380.3821005304508
 20
553.1222860269563
 30
0.0
 10
380.3821005304508
 20
553.1222860269563
 30
0.0
 10
385.1714004094629
 20
559.9583858542619
 30
0.0
 10
385.1714004094629
 20
559.9583858542619
 30
0.0
  0
ENDBLK
  5
44
330
41
100
AcDbEntity
  8
0
100
AcDbBlockEnd
  0
BLOCK
  5
6A
330
68
100
AcDbEntity
  8
0
100
AcDbBlockBegin
  2
block 3
 70
     0
 10
0.0
 20
0.0
 30
0.0
  3
block 3
  1

  0
POLYLINE
  5
6C
330
68
100
AcDbEntity
  8
Woods
 62
   250
420
  2301728
370
    13
100
AcDb2dPolyline
 66
     1
 10
0.0
 20
0.0
 30
0.0
  0
VERTEX
  5
6D
330
6C
100
AcDbEntity
  8
Woods
 62
   250
420
  2301728
370
    13
100
AcDbVertex
100
AcDb2dVertex
 10
350.9446012741046
 20
603.2380847609247
 30
0.0
  0
VERTEX
  5
6E
330
6C
100
AcDbEntity
  8
Woods
 62
   250
420
  2301728
370
    13
100
AcDbVertex
100
AcDb2dVertex
 10
354.6665011800815
 20
606.9328846675862
 30
0.0
  0
VERTEX
  5
6F
330
6C
100
AcDbEntity
  8
Woods
 62
   250
420
  2301728
370
    13
100
AcDbVertex
100
AcDb2dVertex
 10
356.5844011316312
 20
611.0606845633092
 30
0.0
  0
SEQEND
  5
70
330
6C
100
AcDbEntity
  8
Woods
 62
   250
420
  2301728
370
    13
  0
POLYLINE
  5
71
330
68
100
AcDbEntity
  8
Woods
 62
   250
420
  2301728
370
    13
100
AcDb2dPolyline
 66
     1
 10
0.0
 20
0.0
 30
0.0
  0
VERTEX
  5
72
330
71
100
AcDbEntity
  8
Woods
 62
   250
420
  2301728
370
    13
100
AcDbVertex
100
AcDb2dVertex
 10
350.9446012741046
 20
594.4275849834967
 30
0.0
  0
VERTEX
  5
73
330
71
100
AcDbEntity
  8
Woods
 62
   250
420
  2301728
370
    13
100
AcDbVertex
100
AcDb2dVertex
 10
358.361301086743
 20
600.6801848255427
 30
0.0
  0
VERTEX
  5
74
330
71
100
AcDbEntity
  8
Woods
 62
   250
420
  2301728
370
    13
100
AcDbVertex
100
AcDb2dVertex
 10
362.0277009941219
 20
608.7303846221785
 30
0.0
  0
SEQEND
  5
75
330
71
100
AcDbEntity
  8
Woods
 62
   250
420
  2301728
370
    13
  0
POLYLINE
  5
76
330
68
100
AcDbEntity
  8
Woods
 62
   250
420
  2301728
370
    13
100
AcDb2dPolyline
 66
     1
 10
0.0
 20
0.0
 30
0.0
  0
VERTEX
  5
77
330
76
100
AcDbEntity
  8
Woods
 62
   250
420
  2301728
370
    13
100
AcDbVertex
100
AcDb2dVertex
 10
350.9446012741046
 20
584.669685230002
 30
0.0
  0
VERTEX
  5
78
330
76
100
AcDbEntity
  8
Woods
 62
   250
420
  2301728
370
    13
100
AcDbVertex
100
AcDb2dVertex
 10
360.066501043666
 20
592.7222850265762
 30
0.0
  0
VERTEX
  5
79
330
76
100
AcDbEntity
  8
Woods
 62
   250
420
  2301728
370
    13
100
AcDbVertex
100
AcDb2dVertex
 10
366.4139008833172
 20
601.5789848028371
 30
0.0
  0
VERTEX
  5
7A
330
76
100
AcDbEntity
  8
Woods
 62
   250
420
  2301728
370
    13
100
AcDbVertex
100
AcDb2dVertex
 10
368.1345008398512
 20
606.1160846882203
 30
0.0
  0
SEQEND
  5
7B
330
76
100
AcDbEntity
  8
Woods
 62
   250
420
  2301728
370
    13
  0
POLYLINE
  5
7C
330
68
100
AcDbEntity
  8
Woods
 62
   250
420
  2301728
370
    13
100
AcDb2dPolyline
 66
     1
 10
0.0
 20
0.0
 30
0.0
  0
VERTEX
  5
7D
330
7C
100
AcDbEntity
  8
Woods
 62
   250
420
  2301728
370
    13
100
AcDbVertex
100
AcDb2dVertex
 10
350.9446012741046
 20
574.9117854765072
 30
0.0
  0
VERTEX
  5
7E
330
7C
100
AcDbEntity
  8
Woods
 62
   250
420
  2301728
370
    13
100
AcDbVertex
100
AcDb2dVertex
 10
362.0277009941219
 20
584.669685230002
 30
0.0
  0
VERTEX
  5
7F
330
7C
100
AcDbEntity
  8
Woods
 62
   250
420
  2301728
370
    13
100
AcDbVertex
100
AcDb2dVertex
 10
370.2034007875864
 20
595.3928849591111
 30
0.0
  0
VERTEX
  5
80
330
7C
100
AcDbEntity
  8
Woods
 62
   250
420
  2301728
370
    13
100
AcDbVertex
100
AcDb2dVertex
 10
373.9438006930959
 20
603.6290847510472
 30
0.0
  0
SEQEND
  5
81
330
7C
100
AcDbEntity
  8
Woods
 62
   250
420
  2301728
370
    13
  0
POLYLINE
  5
82
330
68
100
AcDbEntity
  8
Woods
 62
   250
420
  2301728
370
    13
100
AcDb2dPolyline
 66
     1
 10
0.0
 20
0.0
 30
0.0
  0
VERTEX
  5
83
330
82
100
AcDbEntity
  8
Woods
 62
   250
420
  2301728
370
    13
100
AcDbVertex
100
AcDb2dVertex
 10
357.0074011209454
 20
571.1959855703763
 30
0.0
  0
VERTEX
  5
84
330
82
100
AcDbEntity
  8
Woods
 62
   250
420
  2301728
370
    13
100
AcDbVertex
100
AcDb2dVertex
 10
369.2926008105951
 20
580.2170853424841
 30
0.0
  0
VERTEX
  5
85
330
82
100
AcDbEntity
  8
Woods
 62
   250
420
  2301728
370
    13
100
AcDbVertex
100
AcDb2dVertex
 10
377.4981006033067
 20
593.9538849954633
 30
0.0
  0
VERTEX
  5
86
330
82
100
AcDbEntity
  8
Woods
 62
   250
420
  2301728
370
    13
100
AcDbVertex
100
AcDb2dVertex
 10
380.3821005304508
 20
600.8727848206772
 30
0.0
  0
SEQEND
  5
87
330
82
100
AcDbEntity
  8
Woods
 62
   250
420
  2301728
370
    13
  0
POLYLINE
  5
88
330
68
100
AcDbEntity
  8
Woods
 62
   250
420
  2301728
370
    13
100
AcDb2dPolyline
 66
     1
 10
0.0
 20
0.0
 30
0.0
  0
VERTEX
  5
89
330
88
100
AcDbEntity
  8
Woods
 62
   250
420
  2301728
370
    13
100
AcDbVertex
100
AcDb2dVertex
 10
364.8015009240498
 20
568.0860856489389
 30
0.0
  0
VERTEX
  5
8A
330
88
100
AcDbEntity
  8
Woods
 62
   250
420
  2301728
370
    13
100
AcDbVertex
100
AcDb2dVertex
 10
378.5402104847872
 20
578.9854983835912
 30
0.0
  0
VERTEX
  5
8B
330
88
100
AcDbEntity
  8
Woods
 62
   250
420
  2301728
370
    13
100
AcDbVertex
100
AcDb2dVertex
 10
383.4297004534619
 20
591.8696850481147
 30
0.0
  0
SEQEND
  5
8C
330
88
100
AcDbEntity
  8
Woods
 62
   250
420
  2301728
370
    13
  0
POLYLINE
  5
8D
330
68
100
AcDbEntity
  8
Woods
 62
   250
420
  2301728
370
    13
100
AcDb2dPolyline
 66
     1
 10
0.0
 20
0.0
 30
0.0
  0
VERTEX
  5
8E
330
8D
100
AcDbEntity
  8
Woods
 62
   250
420
  2301728
370
    13
100
AcDbVertex
100
AcDb2dVertex
 10
372.8569007205533
 20
564.8718857301374
 30
0.0
  0
VERTEX
  5
8F
330
8D
100
AcDbEntity
  8
Woods
 62
   250
420
  2301728
370
    13
100
AcDbVertex
100
AcDb2dVertex
 10
380.3821005304508
 20
571.9348855517101
 30
0.0
  0
VERTEX
  5
90
330
8D
100
AcDbEntity
  8
Woods
 62
   250
420
  2301728
370
    13
100
AcDbVertex
100
AcDb2dVertex
 10
383.4297004534619
 20
577.3749854142825
 30
0.0
  0
SEQEND
  5
91
330
8D
100
AcDbEntity
  8
Woods
 62
   250
420
  2301728
370
    13
  0
POLYLINE
  5
92
330
68
100
AcDbEntity
  8
Woods
 62
   250
420
  2301728
370
    13
100
AcDb2dPolyline
 66
     1
 10
0.0
 20
0.0
 30
0.0
  0
VERTEX
  5
93
330
92
100
AcDbEntity
  8
Woods
 62
   250
420
  2301728
370
    13
100
AcDbVertex
100
AcDb2dVertex
 10
379.4799005532423
 20
562.2292857968941
 30
0.0
  0
VERTEX
  5
94
330
92
100
AcDbEntity
  8
Woods
 62
   250
420
  2301728
370
    13
100
AcDbVertex
100
AcDb2dVertex
 10
382.1402104847857
 20
564.4907857397639
 30
0.0
  0
VERTEX
  5
95
330
92
100
AcDbEntity
  8
Woods
 62
   250
420
  2301728
370
    13
100
AcDbVertex
100
AcDb2dVertex
 10
383.4297004534619
 20
567.0486856751459
 30
0.0
  0
SEQEND
  5
96
330
92
100
AcDbEntity
  8
Woods
 62
   250
420
  2301728
370
    13
  0
ENDBLK
  5
6B
330
68
100
AcDbEntity
  8
0
100
AcDbBlockEnd
  0
BLOCK
  5
99
330
97
100
AcDbEntity
  8
0
100
AcDbBlockBegin
  2
block 4
 70
     0
 10
0.0
 20
0.0
 30
0.0
  3
block 4
  1

  0
POLYLINE
  5
9B
330
97
100
AcDbEntity
  8
Woods
 62
   250
420
  2301728
370
    13
100
AcDb2dPolyline
 66
     1
 10
0.0
 20
0.0
 30
0.0
  0
VERTEX
  5
9C
330
9B
100
AcDbEntity
  8
Woods
 62
   250
420
  2301728
370
    13
100
AcDbVertex
100
AcDb2dVertex
 10
350.9446012741046
 20
546.7912861868908
 30
0.0
  0
VERTEX
  5
9D
330
9B
100
AcDbEntity
  8
Woods
 62
   250
420
  2301728
370
    13
100
AcDbVertex
100
AcDb2dVertex
 10
354.6665011800815
 20
550.4860860935523
 30
0.0
  0
VERTEX
  5
9E
330
9B
100
AcDbEntity
  8
Woods
 62
   250
420
  2301728
370
    13
100
AcDbVertex
100
AcDb2dVertex
 10
356.5844011316312
 20
554.6138859892753
 30
0.0
  0
SEQEND
  5
9F
330
9B
100
AcDbEntity
  8
Woods
 62
   250
420
  2301728
370
    13
  0
POLYLINE
  5
A0
330
97
100
AcDbEntity
  8
Woods
 62
   250
420
  2301728
370
    13
100
AcDb2dPolyline
 66
     1
 10
0.0
 20
0.0
 30
0.0
  0
VERTEX
  5
A1
330
A0
100
AcDbEntity
  8
Woods
 62
   250
420
  2301728
370
    13
100
AcDbVertex
100
AcDb2dVertex
 10
350.9446012741046
 20
537.9807864094628
 30
0.0
  0
VERTEX
  5
A2
330
A0
100
AcDbEntity
  8
Woods
 62
   250
420
  2301728
370
    13
100
AcDbVertex
100
AcDb2dVertex
 10
358.361301086743
 20
544.2333862515088
 30
0.0
  0
VERTEX
  5
A3
330
A0
100
AcDbEntity
  8
Woods
 62
   250
420
  2301728
370
    13
100
AcDbVertex
100
AcDb2dVertex
 10
362.0277009941219
 20
552.2835860481437
 30
0.0
  0
SEQEND
  5
A4
330
A0
100
AcDbEntity
  8
Woods
 62
   250
420
  2301728
370
    13
  0
POLYLINE
  5
A5
330
97
100
AcDbEntity
  8
Woods
 62
   250
420
  2301728
370
    13
100
AcDb2dPolyline
 66
     1
 10
0.0
 20
0.0
 30
0.0
  0
VERTEX
  5
A6
330
A5
100
AcDbEntity
  8
Woods
 62
   250
420
  2301728
370
    13
100
AcDbVertex
100
AcDb2dVertex
 10
350.9446012741046
 20
528.2228866559681
 30
0.0
  0
VERTEX
  5
A7
330
A5
100
AcDbEntity
  8
Woods
 62
   250
420
  2301728
370
    13
100
AcDbVertex
100
AcDb2dVertex
 10
360.066501043666
 20
536.2754983835912
 30
0.0
  0
VERTEX
  5
A8
330
A5
100
AcDbEntity
  8
Woods
 62
   250
420
  2301728
370
    13
100
AcDbVertex
100
AcDb2dVertex
 10
366.4139008833172
 20
545.1321862288032
 30
0.0
  0
VERTEX
  5
A9
330
A5
100
AcDbEntity
  8
Woods
 62
   250
420
  2301728
370
    13
100
AcDbVertex
100
AcDb2dVertex
 10
368.3028008355996
 20
550.1129861029776
 30
0.0
  0
SEQEND
  5
AA
330
A5
100
AcDbEntity
  8
Woods
 62
   250
420
  2301728
370
    13
  0
POLYLINE
  5
AB
330
97
100
AcDbEntity
  8
Woods
 62
   250
420
  2301728
370
    13
100
AcDb2dPolyline
 66
     1
 10
0.0
 20
0.0
 30
0.0
  0
VERTEX
  5
AC
330
AB
100
AcDbEntity
  8
Woods
 62
   250
420
  2301728
370
    13
100
AcDbVertex
100
AcDb2dVertex
 10
350.9446012741046
 20
518.4649869024734
 30
0.0
  0
VERTEX
  5
AD
330
AB
100
AcDbEntity
  8
Woods
 62
   250
420
  2301728
370
    13
100
AcDbVertex
100
AcDb2dVertex
 10
362.0277009941219
 20
528.2228866559681
 30
0.0
  0
VERTEX
  5
AE
330
AB
100
AcDbEntity
  8
Woods
 62
   250
420
  2301728
370
    13
100
AcDbVertex
100
AcDb2dVertex
 10
370.2034007875864
 20
538.9460863850773
 30
0.0
  0
VERTEX
  5
AF
330
AB
100
AcDbEntity
  8
Woods
 62
   250
420
  2301728
370
    13
100
AcDbVertex
100
AcDb2dVertex
 10
374.1922104847872
 20
547.729286163195
 30
0.0
  0
SEQEND
  5
B0
330
AB
100
AcDbEntity
  8
Woods
 62
   250
420
  2301728
370
    13
  0
POLYLINE
  5
B1
330
97
100
AcDbEntity
  8
Woods
 62
   250
420
  2301728
370
    13
100
AcDb2dPolyline
 66
     1
 10
0.0
 20
0.0
 30
0.0
  0
VERTEX
  5
B2
330
B1
100
AcDbEntity
  8
Woods
 62
   250
420
  2301728
370
    13
100
AcDbVertex
100
AcDb2dVertex
 10
356.3717011370045
 20
514.2823870081356
 30
0.0
  0
VERTEX
  5
B3
330
B1
100
AcDbEntity
  8
Woods
 62
   250
420
  2301728
370
    13
100
AcDbVertex
100
AcDb2dVertex
 10
369.2926008105951
 20
523.7702867684502
 30
0.0
  0
VERTEX
  5
B4
330
B1
100
AcDbEntity
  8
Woods
 62
   250
420
  2301728
370
    13
100
AcDbVertex
100
AcDb2dVertex
 10
377.4981006033067
 20
537.5070864214285
 30
0.0
  0
VERTEX
  5
B5
330
B1
100
AcDbEntity
  8
Woods
 62
   250
420
  2301728
370
    13
100
AcDbVertex
100
AcDb2dVertex
 10
380.7466005212427
 20
545.3003862245541
 30
0.0
  0
SEQEND
  5
B6
330
B1
100
AcDbEntity
  8
Woods
 62
   250
420
  2301728
370
    13
  0
POLYLINE
  5
B7
330
97
100
AcDbEntity
  8
Woods
 62
   250
420
  2301728
370
    13
100
AcDb2dPolyline
 66
     1
 10
0.0
 20
0.0
 30
0.0
  0
VERTEX
  5
B8
330
B7
100
AcDbEntity
  8
Woods
 62
   250
420
  2301728
370
    13
100
AcDbVertex
100
AcDb2dVertex
 10
364.564500930037
 20
511.3566870820441
 30
0.0
  0
VERTEX
  5
B9
330
B7
100
AcDbEntity
  8
Woods
 62
   250
420
  2301728
370
    13
100
AcDbVertex
100
AcDb2dVertex
 10
378.5402104847872
 20
522.538686799563
 30
0.0
  0
VERTEX
  5
BA
330
B7
100
AcDbEntity
  8
Woods
 62
   250
420
  2301728
370
    13
100
AcDbVertex
100
AcDb2dVertex
 10
383.4297004534619
 20
535.4228864740808
 30
0.0
  0
SEQEND
  5
BB
330
B7
100
AcDbEntity
  8
Woods
 62
   250
420
  2301728
370
    13
  0
POLYLINE
  5
BC
330
97
100
AcDbEntity
  8
Woods
 62
   250
420
  2301728
370
    13
100
AcDb2dPolyline
 66
     1
 10
0.0
 20
0.0
 30
0.0
  0
VERTEX
  5
BD
330
BC
100
AcDbEntity
  8
Woods
 62
   250
420
  2301728
370
    13
100
AcDbVertex
100
AcDb2dVertex
 10
372.8569007205533
 20
508.4250871561035
 30
0.0
  0
VERTEX
  5
BE
330
BC
100
AcDbEntity
  8
Woods
 62
   250
420
  2301728
370
    13
100
AcDbVertex
100
AcDb2dVertex
 10
380.3821005304508
 20
515.4880869776762
 30
0.0
  0
VERTEX
  5
BF
330
BC
100
AcDbEntity
  8
Woods
 62
   250
420
  2301728
370
    13
100
AcDbVertex
100
AcDb2dVertex
 10
383.4297004534619
 20
520.9281868402486
 30
0.0
  0
SEQEND
  5
C0
330
BC
100
AcDbEntity
  8
Woods
 62
   250
420
  2301728
370
    13
  0
POLYLINE
  5
C1
330
97
100
AcDbEntity
  8
Woods
 62
   250
420
  2301728
370
    13
100
AcDb2dPolyline
 66
     1
 10
0.0
 20
0.0
 30
0.0
  0
VERTEX
  5
C2
330
C1
100
AcDbEntity
  8
Woods
 62
   250
420
  2301728
370
    13
100
AcDbVertex
100
AcDb2dVertex
 10
379.4799005532423
 20
506.0301872166028
 30
0.0
  0
VERTEX
  5
C3
330
C1
100
AcDbEntity
  8
Woods
 62
   250
420
  2301728
370
    13
100
AcDbVertex
100
AcDb2dVertex
 10
382.1402104847857
 20
508.04398716573
 30
0.0
  0
VERTEX
  5
C4
330
C1
100
AcDbEntity
  8
Woods
 62
   250
420
  2301728
370
    13
100
AcDbVertex
100
AcDb2dVertex
 10
383.4297004534619
 20
510.6017871011154
 30
0.0
  0
SEQEND
  5
C5
330
C1
100
AcDbEntity
  8
Woods
 62
   250
420
  2301728
370
    13
  0
ENDBLK
  5
9A
330
97
100
AcDbEntity
  8
0
100
AcDbBlockEnd
  0
BLOCK
  5
D1
330
CF
100
AcDbEntity
  8
0
100
AcDbBlockBegin
  2
block 5
 70
     0
 10
0.0
 20
0.0
 30
0.0
  3
block 5
  1

  0
POLYLINE
  5
D3
330
CF
100
AcDbEntity
  8
Woods
 62
   250
420
  2301728
370
    25
100
AcDb2dPolyline
 66
     1
 10
0.0
 20
0.0
 30
0.0
  0
VERTEX
  5
D4
330
D3
100
AcDbEntity
  8
Woods
 62
   250
420
  2301728
370
    25
100
AcDbVertex
100
AcDb2dVertex
 10
208.3684048758823
 20
504.7730872483598
 30
0.0
  0
VERTEX
  5
D5
330
D3
100
AcDbEntity
  8
Woods
 62
   250
420
  2301728
370
    25
100
AcDbVertex
100
AcDb2dVertex
 10
189.1844053605118
 20
489.4743876348384
 30
0.0
  0
VERTEX
  5
D6
330
D3
100
AcDbEntity
  8
Woods
 62
   250
420
  2301728
370
    25
100
AcDbVertex
100
AcDb2dVertex
 10
189.1844053605118
 20
424.8204983835903
 30
0.0
  0
VERTEX
  5
D7
330
D3
100
AcDbEntity
  8
Woods
 62
   250
420
  2301728
370
    25
100
AcDbVertex
100
AcDb2dVertex
 10
192.9215052661038
 20
421.432589353718
 30
0.0
  0
VERTEX
  5
D8
330
D3
100
AcDbEntity
  8
Woods
 62
   250
420
  2301728
370
    25
100
AcDbVertex
100
AcDb2dVertex
 10
183.3004055091533
 20
414.9306895179698
 30
0.0
  0
VERTEX
  5
D9
330
D3
100
AcDbEntity
  8
Woods
 62
   250
420
  2301728
370
    25
100
AcDbVertex
100
AcDb2dVertex
 10
189.1844053605118
 20
409.6546896512527
 30
0.0
  0
VERTEX
  5
DA
330
D3
100
AcDbEntity
  8
Woods
 62
   250
420
  2301728
370
    25
100
AcDbVertex
100
AcDb2dVertex
 10
189.1844053605118
 20
345.0008912845442
 30
0.0
  0
VERTEX
  5
DB
330
D3
100
AcDbEntity
  8
Woods
 62
   250
420
  2301728
370
    25
100
AcDbVertex
100
AcDb2dVertex
 10
374.6488006752861
 20
306.4958922572623
 30
0.0
  0
VERTEX
  5
DC
330
D3
100
AcDbEntity
  8
Woods
 62
   250
420
  2301728
370
    25
100
AcDbVertex
100
AcDb2dVertex
 10
396.8134001153612
 20
314.5897920527932
 30
0.0
  0
VERTEX
  5
DD
330
D3
100
AcDbEntity
  8
Woods
 62
   250
420
  2301728
370
    25
100
AcDbVertex
100
AcDb2dVertex
 10
396.8134001153612
 20
373.0605905756966
 30
0.0
  0
VERTEX
  5
DE
330
D3
100
AcDbEntity
  8
Woods
 62
   250
420
  2301728
370
    25
100
AcDbVertex
100
AcDb2dVertex
 10
392.215100231524
 20
377.7031904584146
 30
0.0
  0
VERTEX
  5
DF
330
D3
100
AcDbEntity
  8
Woods
 62
   250
420
  2301728
370
    25
100
AcDbVertex
100
AcDb2dVertex
 10
401.3799999999992
 20
382.1181903468823
 30
0.0
  0
VERTEX
  5
E0
330
D3
100
AcDbEntity
  8
Woods
 62
   250
420
  2301728
370
    25
100
AcDbVertex
100
AcDb2dVertex
 10
396.8134001153612
 20
386.7760902292139
 30
0.0
  0
VERTEX
  5
E1
330
D3
100
AcDbEntity
  8
Woods
 62
   250
420
  2301728
370
    25
100
AcDbVertex
100
AcDb2dVertex
 10
396.8134001153612
 20
445.2469887521156
 30
0.0
  0
VERTEX
  5
E2
330
D3
100
AcDbEntity
  8
Woods
 62
   250
420
  2301728
370
    25
100
AcDbVertex
100
AcDb2dVertex
 10
208.3684048758823
 20
504.7730872483598
 30
0.0
  0
SEQEND
  5
E4
330
D3
100
AcDbEntity
  8
Woods
 62
   250
420
  2301728
370
    25
  0
HATCH
  5
E3
330
CF
100
AcDbEntity
  8
Woods
 62
    43
420
 15510365
100
AcDbHatch
 10
0.0
 20
0.0
 30
0.0
210
0.0
220
0.0
230
1.0
  2
SOLID
 70
     1
 71
     0
 91
        1
 92
        1
 93
       14
 72
     1
 10
208.3684048758823
 20
504.7730872483598
 11
189.1844053605118
 21
489.4743876348384
 72
     1
 10
189.1844053605118
 20
489.4743876348384
 11
189.1844053605118
 21
424.8204983835903
 72
     1
 10
189.1844053605118
 20
424.8204983835903
 11
192.9215052661038
 21
421.432589353718
 72
     1
 10
192.9215052661038
 20
421.432589353718
 11
183.3004055091533
 21
414.9306895179698
 72
     1
 10
183.3004055091533
 20
414.9306895179698
 11
189.1844053605118
 21
409.6546896512527
 72
     1
 10
189.1844053605118
 20
409.6546896512527
 11
189.1844053605118
 21
345.0008912845442
 72
     1
 10
189.1844053605118
 20
345.0008912845442
 11
374.6488006752861
 21
306.4958922572623
 72
     1
 10
374.6488006752861
 20
306.4958922572623
 11
396.8134001153612
 21
314.5897920527932
 72
     1
 10
396.8134001153612
 20
314.5897920527932
 11
396.8134001153612
 21
373.0605905756966
 72
     1
 10
396.8134001153612
 20
373.0605905756966
 11
392.215100231524
 21
377.7031904584146
 72
     1
 10
392.215100231524
 20
377.7031904584146
 11
401.3799999999992
 21
382.1181903468823
 72
     1
 10
401.3799999999992
 20
382.1181903468823
 11
396.8134001153612
 21
386.7760902292139
 72
     1
 10
396.8134001153612
 20
386.7760902292139
 11
396.8134001153612
 21
445.2469887521156
 72
     1
 10
396.8134001153612
 20
445.2469887521156
 11
208.3684048758823
 21
504.7730872483598
 97
        0
 75
     2
 76
     1
 98
        0
  0
POLYLINE
  5
E5
330
CF
100
AcDbEntity
  8
Woods
 62
   250
420
  2301728
370
    18
100
AcDb2dPolyline
 66
     1
 10
0.0
 20
0.0
 30
0.0
  0
VERTEX
  5
E6
330
E5
100
AcDbEntity
  8
Woods
 62
   250
420
  2301728
370
    18
100
AcDbVertex
100
AcDb2dVertex
 10
208.3684048758823
 20
437.980498383592
 30
0.0
  0
VERTEX
  5
E7
330
E5
100
AcDbEntity
  8
Woods
 62
   250
420
  2301728
370
    18
100
AcDbVertex
100
AcDb2dVertex
 10
189.1844053605118
 20
424.8204983835903
 30
0.0
  0
SEQEND
  5
E8
330
E5
100
AcDbEntity
  8
Woods
 62
   250
420
  2301728
370
    18
  0
POLYLINE
  5
E9
330
CF
100
AcDbEntity
  8
Woods
 62
   250
420
  2301728
370
    18
100
AcDb2dPolyline
 66
     1
 10
0.0
 20
0.0
 30
0.0
  0
VERTEX
  5
EA
330
E9
100
AcDbEntity
  8
Woods
 62
   250
420
  2301728
370
    18
100
AcDbVertex
100
AcDb2dVertex
 10
202.3651050275384
 20
427.8144983835909
 30
0.0
  0
VERTEX
  5
EB
330
E9
100
AcDbEntity
  8
Woods
 62
   250
420
  2301728
370
    18
100
AcDbVertex
100
AcDb2dVertex
 10
192.9215052661038
 20
421.432589353718
 30
0.0
  0
SEQEND
  5
EC
330
E9
100
AcDbEntity
  8
Woods
 62
   250
420
  2301728
370
    18
  0
POLYLINE
  5
ED
330
CF
100
AcDbEntity
  8
Woods
 62
   250
420
  2301728
370
    18
100
AcDb2dPolyline
 66
     1
 10
0.0
 20
0.0
 30
0.0
  0
VERTEX
  5
EE
330
ED
100
AcDbEntity
  8
Woods
 62
   250
420
  2301728
370
    18
100
AcDbVertex
100
AcDb2dVertex
 10
208.3684048758823
 20
422.3129893314772
 30
0.0
  0
VERTEX
  5
EF
330
ED
100
AcDbEntity
  8
Woods
 62
   250
420
  2301728
370
    18
100
AcDbVertex
100
AcDb2dVertex
 10
189.1844053605118
 20
409.6546896512527
 30
0.0
  0
SEQEND
  5
F0
330
ED
100
AcDbEntity
  8
Woods
 62
   250
420
  2301728
370
    18
  0
POLYLINE
  5
F1
330
CF
100
AcDbEntity
  8
Woods
 62
   250
420
  2301728
370
    18
100
AcDb2dPolyline
 66
     1
 10
0.0
 20
0.0
 30
0.0
  0
VERTEX
  5
F2
330
F1
100
AcDbEntity
  8
Woods
 62
   250
420
  2301728
370
    18
100
AcDbVertex
100
AcDb2dVertex
 10
208.3684048758823
 20
355.5204983835902
 30
0.0
  0
VERTEX
  5
F3
330
F1
100
AcDbEntity
  8
Woods
 62
   250
420
  2301728
370
    18
100
AcDbVertex
100
AcDb2dVertex
 10
189.1844053605118
 20
345.0008912845442
 30
0.0
  0
SEQEND
  5
F4
330
F1
100
AcDbEntity
  8
Woods
 62
   250
420
  2301728
370
    18
  0
POLYLINE
  5
F5
330
CF
100
AcDbEntity
  8
Woods
 62
   250
420
  2301728
370
    18
100
AcDb2dPolyline
 66
     1
 10
0.0
 20
0.0
 30
0.0
  0
VERTEX
  5
F6
330
F5
100
AcDbEntity
  8
Woods
 62
   250
420
  2301728
370
    18
100
AcDbVertex
100
AcDb2dVertex
 10
396.8134001153612
 20
314.5897920527932
 30
0.0
  0
VERTEX
  5
F7
330
F5
100
AcDbEntity
  8
Woods
 62
   250
420
  2301728
370
    18
100
AcDbVertex
100
AcDb2dVertex
 10
208.3684048758823
 20
355.5204983835902
 30
0.0
  0
VERTEX
  5
F8
330
F5
100
AcDbEntity
  8
Woods
 62
   250
420
  2301728
370
    18
100
AcDbVertex
100
AcDb2dVertex
 10
208.3684048758823
 20
422.3129893314772
 30
0.0
  0
VERTEX
  5
F9
330
F5
100
AcDbEntity
  8
Woods
 62
   250
420
  2301728
370
    18
100
AcDbVertex
100
AcDb2dVertex
 10
202.3651050275384
 20
427.8144983835909
 30
0.0
  0
VERTEX
  5
FA
330
F5
100
AcDbEntity
  8
Woods
 62
   250
420
  2301728
370
    18
100
AcDbVertex
100
AcDb2dVertex
 10
214.3244047254211
 20
432.4606890751247
 30
0.0
  0
VERTEX
  5
FB
330
F5
100
AcDbEntity
  8
Woods
 62
   250
420
  2301728
370
    18
100
AcDbVertex
100
AcDb2dVertex
 10
208.3684048758823
 20
437.980498383592
 30
0.0
  0
VERTEX
  5
FC
330
F5
100
AcDbEntity
  8
Woods
 62
   250
420
  2301728
370
    18
100
AcDbVertex
100
AcDb2dVertex
 10
208.3684048758823
 20
504.7730872483598
 30
0.0
  0
SEQEND
  5
FD
330
F5
100
AcDbEntity
  8
Woods
 62
   250
420
  2301728
370
    18
  0
INSERT
  5
FF
330
CF
100
AcDbEntity
  8
Woods
100
AcDbBlockReference
  2
block 6
 10
0.0
 20
0.0
 30
0.0
  0
INSERT
  5
11D
330
CF
100
AcDbEntity
  8
Woods
100
AcDbBlockReference
  2
block 7
 10
0.0
 20
0.0
 30
0.0
  0
POLYLINE
  5
13A
330
CF
100
AcDbEntity
  8
Woods
 62
   250
420
  2301728
370
    13
100
AcDb2dPolyline
 66
     1
 10
0.0
 20
0.0
 30
0.0
  0
VERTEX
  5
13B
330
13A
100
AcDbEntity
  8
Woods
 62
   250
420
  2301728
370
    13
100
AcDbVertex
100
AcDb2dVertex
 10
191.6151052991063
 20
422.6169893237984
 30
0.0
  0
VERTEX
  5
13C
330
13A
100
AcDbEntity
  8
Woods
 62
   250
420
  2301728
370
    13
100
AcDbVertex
100
AcDb2dVertex
 10
193.8981052414329
 20
425.0854983835916
 30
0.0
  0
VERTEX
  5
13D
330
13A
100
AcDbEntity
  8
Woods
 62
   250
420
  2301728
370
    13
100
AcDbVertex
100
AcDb2dVertex
 10
195.0092104847863
 20
428.81628916719
 30
0.0
  0
SEQEND
  5
13E
330
13A
100
AcDbEntity
  8
Woods
 62
   250
420
  2301728
370
    13
  0
POLYLINE
  5
13F
330
CF
100
AcDbEntity
  8
Woods
 62
   250
420
  2301728
370
    13
100
AcDb2dPolyline
 66
     1
 10
0.0
 20
0.0
 30
0.0
  0
VERTEX
  5
140
330
13F
100
AcDbEntity
  8
Woods
 62
   250
420
  2301728
370
    13
100
AcDbVertex
100
AcDb2dVertex
 10
203.0180050110448
 20
428.0680891860911
 30
0.0
  0
VERTEX
  5
141
330
13F
100
AcDbEntity
  8
Woods
 62
   250
420
  2301728
370
    13
100
AcDbVertex
100
AcDb2dVertex
 10
206.4665049239284
 20
433.501289048837
 30
0.0
  0
VERTEX
  5
142
330
13F
100
AcDbEntity
  8
Woods
 62
   250
420
  2301728
370
    13
100
AcDbVertex
100
AcDb2dVertex
 10
207.976804885775
 20
437.7118889424682
 30
0.0
  0
SEQEND
  5
143
330
13F
100
AcDbEntity
  8
Woods
 62
   250
420
  2301728
370
    13
  0
POLYLINE
  5
144
330
CF
100
AcDbEntity
  8
Woods
 62
   250
420
  2301728
370
    13
100
AcDb2dPolyline
 66
     1
 10
0.0
 20
0.0
 30
0.0
  0
VERTEX
  5
145
330
144
100
AcDbEntity
  8
Woods
 62
   250
420
  2301728
370
    13
100
AcDbVertex
100
AcDb2dVertex
 10
187.818405395019
 20
410.8795896203092
 30
0.0
  0
VERTEX
  5
146
330
144
100
AcDbEntity
  8
Woods
 62
   250
420
  2301728
370
    13
100
AcDbVertex
100
AcDb2dVertex
 10
187.456005404174
 20
413.9222895434441
 30
0.0
  0
VERTEX
  5
147
330
144
100
AcDbEntity
  8
Woods
 62
   250
420
  2301728
370
    13
100
AcDbVertex
100
AcDb2dVertex
 10
186.3687054316424
 20
417.0042894655862
 30
0.0
  0
SEQEND
  5
148
330
144
100
AcDbEntity
  8
Woods
 62
   250
420
  2301728
370
    13
  0
SPLINE
  5
149
330
CF
100
AcDbEntity
  8
Woods
 62
   250
420
  2301728
370
    13
100
AcDbSpline
210
0.0
220
0.0
230
1.0
 70
     8
 71
     3
 72
    11
 73
     7
 74
     0
 42
0.0000000001
 43
0.0000000001
 12
1.0
 22
0.0
 32
0.0
 13
1.0
 23
0.0
 33
0.0
 40
0.0
 40
0.0
 40
0.0
 40
0.0
 40
1.0
 40
1.0
 40
1.0
 40
2.0
 40
2.0
 40
2.0
 40
2.0
 10
193.3122104847862
 20
412.5328895785433
 30
0.0
 10
193.4560052526012
 20
412.8007895717765
 30
0.0
 10
193.5823052494106
 20
418.0275894397364
 30
0.0
 10
193.5823052494106
 20
418.0275894397364
 30
0.0
 10
193.5823052494106
 20
418.0275894397364
 30
0.0
 10
192.3488052805715
 20
421.0455893634944
 30
0.0
 10
192.3488052805715
 20
421.0455893634944
 30
0.0
  0
POLYLINE
  5
14A
330
CF
100
AcDbEntity
  8
Woods
 62
   250
420
  2301728
370
    13
100
AcDb2dPolyline
 66
     1
 10
0.0
 20
0.0
 30
0.0
  0
VERTEX
  5
14B
330
14A
100
AcDbEntity
  8
Woods
 62
   250
420
  2301728
370
    13
100
AcDbVertex
100
AcDb2dVertex
 10
199.6455050962413
 20
416.5572894768784
 30
0.0
  0
VERTEX
  5
14C
330
14A
100
AcDbEntity
  8
Woods
 62
   250
420
  2301728
370
    13
100
AcDbVertex
100
AcDb2dVertex
 10
199.6455050962413
 20
422.3129893314772
 30
0.0
  0
VERTEX
  5
14D
330
14A
100
AcDbEntity
  8
Woods
 62
   250
420
  2301728
370
    13
100
AcDbVertex
100
AcDb2dVertex
 10
198.7764051181966
 20
425.3892892537633
 30
0.0
  0
SEQEND
  5
14E
330
14A
100
AcDbEntity
  8
Woods
 62
   250
420
  2301728
370
    13
  0
POLYLINE
  5
14F
330
CF
100
AcDbEntity
  8
Woods
 62
   250
420
  2301728
370
    13
100
AcDb2dPolyline
 66
     1
 10
0.0
 20
0.0
 30
0.0
  0
VERTEX
  5
150
330
14F
100
AcDbEntity
  8
Woods
 62
   250
420
  2301728
370
    13
100
AcDbVertex
100
AcDb2dVertex
 10
205.9839049361199
 20
420.7396893712221
 30
0.0
  0
VERTEX
  5
151
330
14F
100
AcDbEntity
  8
Woods
 62
   250
420
  2301728
370
    13
100
AcDbVertex
100
AcDb2dVertex
 10
205.9839049361199
 20
423.2065893089029
 30
0.0
  0
VERTEX
  5
152
330
14F
100
AcDbEntity
  8
Woods
 62
   250
420
  2301728
370
    13
100
AcDbVertex
100
AcDb2dVertex
 10
205.2621049543541
 20
425.159589259566
 30
0.0
  0
SEQEND
  5
153
330
14F
100
AcDbEntity
  8
Woods
 62
   250
420
  2301728
370
    13
  0
ENDBLK
  5
D2
330
CF
100
AcDbEntity
  8
0
100
AcDbBlockEnd
  0
BLOCK
  5
100
330
FE
100
AcDbEntity
  8
0
100
AcDbBlockBegin
  2
block 6
 70
     0
 10
0.0
 20
0.0
 30
0.0
  3
block 6
  1

  0
POLYLINE
  5
102
330
FE
100
AcDbEntity
  8
Woods
 62
   250
420
  2301728
370
    13
100
AcDb2dPolyline
 66
     1
 10
0.0
 20
0.0
 30
0.0
  0
VERTEX
  5
103
330
102
100
AcDbEntity
  8
Woods
 62
   250
420
  2301728
370
    13
100
AcDbVertex
100
AcDb2dVertex
 10
189.1844053605118
 20
477.5854983835916
 30
0.0
  0
VERTEX
  5
104
330
102
100
AcDbEntity
  8
Woods
 62
   250
420
  2301728
370
    13
100
AcDbVertex
100
AcDb2dVertex
 10
192.6981052717474
 20
484.9117877500994
 30
0.0
  0
VERTEX
  5
105
330
102
100
AcDbEntity
  8
Woods
 62
   250
420
  2301728
370
    13
100
AcDbVertex
100
AcDb2dVertex
 10
194.4377052278014
 20
493.6636875290069
 30
0.0
  0
SEQEND
  5
106
330
102
100
AcDbEntity
  8
Woods
 62
   250
420
  2301728
370
    13
  0
POLYLINE
  5
107
330
FE
100
AcDbEntity
  8
Woods
 62
   250
420
  2301728
370
    13
100
AcDb2dPolyline
 66
     1
 10
0.0
 20
0.0
 30
0.0
  0
VERTEX
  5
108
330
107
100
AcDbEntity
  8
Woods
 62
   250
420
  2301728
370
    13
100
AcDbVertex
100
AcDb2dVertex
 10
189.1844053605118
 20
464.1328882750176
 30
0.0
  0
VERTEX
  5
109
330
107
100
AcDbEntity
  8
Woods
 62
   250
420
  2301728
370
    13
100
AcDbVertex
100
AcDb2dVertex
 10
198.1297051345337
 20
483.0170877979626
 30
0.0
  0
VERTEX
  5
10A
330
107
100
AcDbEntity
  8
Woods
 62
   250
420
  2301728
370
    13
100
AcDbVertex
100
AcDb2dVertex
 10
200.9851050624002
 20
498.8850873971032
 30
0.0
  0
SEQEND
  5
10B
330
107
100
AcDbEntity
  8
Woods
 62
   250
420
  2301728
370
    13
  0
POLYLINE
  5
10C
330
FE
100
AcDbEntity
  8
Woods
 62
   250
420
  2301728
370
    13
100
AcDb2dPolyline
 66
     1
 10
0.0
 20
0.0
 30
0.0
  0
VERTEX
  5
10D
330
10C
100
AcDbEntity
  8
Woods
 62
   250
420
  2301728
370
    13
100
AcDbVertex
100
AcDb2dVertex
 10
189.1844053605118
 20
451.1854983835919
 30
0.0
  0
VERTEX
  5
10E
330
10C
100
AcDbEntity
  8
Woods
 62
   250
420
  2301728
370
    13
100
AcDbVertex
100
AcDb2dVertex
 10
199.6770050954456
 20
467.3854983835909
 30
0.0
  0
VERTEX
  5
10F
330
10C
100
AcDbEntity
  8
Woods
 62
   250
420
  2301728
370
    13
100
AcDbVertex
100
AcDb2dVertex
 10
205.8349049398848
 20
488.60658765676
 30
0.0
  0
VERTEX
  5
110
330
10C
100
AcDbEntity
  8
Woods
 62
   250
420
  2301728
370
    13
100
AcDbVertex
100
AcDb2dVertex
 10
207.4628048987597
 20
504.0508872666041
 30
0.0
  0
SEQEND
  5
111
330
10C
100
AcDbEntity
  8
Woods
 62
   250
420
  2301728
370
    13
  0
POLYLINE
  5
112
330
FE
100
AcDbEntity
  8
Woods
 62
   250
420
  2301728
370
    13
100
AcDb2dPolyline
 66
     1
 10
0.0
 20
0.0
 30
0.0
  0
VERTEX
  5
113
330
112
100
AcDbEntity
  8
Woods
 62
   250
420
  2301728
370
    13
100
AcDbVertex
100
AcDb2dVertex
 10
189.1844053605118
 20
437.5433889467249
 30
0.0
  0
VERTEX
  5
114
330
112
100
AcDbEntity
  8
Woods
 62
   250
420
  2301728
370
    13
100
AcDbVertex
100
AcDb2dVertex
 10
199.9613050882635
 20
452.890788559017
 30
0.0
  0
VERTEX
  5
115
330
112
100
AcDbEntity
  8
Woods
 62
   250
420
  2301728
370
    13
100
AcDbVertex
100
AcDb2dVertex
 10
208.3684048758823
 20
475.4380879894243
 30
0.0
  0
SEQEND
  5
116
330
112
100
AcDbEntity
  8
Woods
 62
   250
420
  2301728
370
    13
  0
POLYLINE
  5
117
330
FE
100
AcDbEntity
  8
Woods
 62
   250
420
  2301728
370
    13
100
AcDb2dPolyline
 66
     1
 10
0.0
 20
0.0
 30
0.0
  0
VERTEX
  5
118
330
117
100
AcDbEntity
  8
Woods
 62
   250
420
  2301728
370
    13
100
AcDbVertex
100
AcDb2dVertex
 10
190.3765053303969
 20
425.638289247473
 30
0.0
  0
VERTEX
  5
119
330
117
100
AcDbEntity
  8
Woods
 62
   250
420
  2301728
370
    13
100
AcDbVertex
100
AcDb2dVertex
 10
203.8455049901404
 20
443.0380888079171
 30
0.0
  0
VERTEX
  5
11A
330
117
100
AcDbEntity
  8
Woods
 62
   250
420
  2301728
370
    13
100
AcDbVertex
100
AcDb2dVertex
 10
208.3684048758823
 20
456.8696884585024
 30
0.0
  0
SEQEND
  5
11B
330
117
100
AcDbEntity
  8
Woods
 62
   250
420
  2301728
370
    13
  0
ENDBLK
  5
101
330
FE
100
AcDbEntity
  8
0
100
AcDbBlockEnd
  0
BLOCK
  5
11E
330
11C
100
AcDbEntity
  8
0
100
AcDbBlockBegin
  2
block 7
 70
     0
 10
0.0
 20
0.0
 30
0.0
  3
block 7
  1

  0
POLYLINE
  5
120
330
11C
100
AcDbEntity
  8
Woods
 62
   250
420
  2301728
370
    13
100
AcDb2dPolyline
 66
     1
 10
0.0
 20
0.0
 30
0.0
  0
VERTEX
  5
121
330
120
100
AcDbEntity
  8
Woods
 62
   250
420
  2301728
370
    13
100
AcDbVertex
100
AcDb2dVertex
 10
189.1844053605118
 20
396.8813899739325
 30
0.0
  0
VERTEX
  5
122
330
120
100
AcDbEntity
  8
Woods
 62
   250
420
  2301728
370
    13
100
AcDbVertex
100
AcDb2dVertex
 10
192.6981052717474
 20
404.207789788853
 30
0.0
  0
VERTEX
  5
123
330
120
100
AcDbEntity
  8
Woods
 62
   250
420
  2301728
370
    13
100
AcDbVertex
100
AcDb2dVertex
 10
194.4377052278014
 20
412.9596895677614
 30
0.0
  0
SEQEND
  5
124
330
120
100
AcDbEntity
  8
Woods
 62
   250
420
  2301728
370
    13
  0
POLYLINE
  5
125
330
11C
100
AcDbEntity
  8
Woods
 62
   250
420
  2301728
370
    13
100
AcDb2dPolyline
 66
     1
 10
0.0
 20
0.0
 30
0.0
  0
VERTEX
  5
126
330
125
100
AcDbEntity
  8
Woods
 62
   250
420
  2301728
370
    13
100
AcDbVertex
100
AcDb2dVertex
 10
189.1844053605118
 20
383.4287903137738
 30
0.0
  0
VERTEX
  5
127
330
125
100
AcDbEntity
  8
Woods
 62
   250
420
  2301728
370
    13
100
AcDbVertex
100
AcDb2dVertex
 10
198.1297051345337
 20
402.3129898367197
 30
0.0
  0
VERTEX
  5
128
330
125
100
AcDbEntity
  8
Woods
 62
   250
420
  2301728
370
    13
100
AcDbVertex
100
AcDb2dVertex
 10
200.8340050662173
 20
417.3415894570653
 30
0.0
  0
SEQEND
  5
129
330
125
100
AcDbEntity
  8
Woods
 62
   250
420
  2301728
370
    13
  0
POLYLINE
  5
12A
330
11C
100
AcDbEntity
  8
Woods
 62
   250
420
  2301728
370
    13
100
AcDb2dPolyline
 66
     1
 10
0.0
 20
0.0
 30
0.0
  0
VERTEX
  5
12B
330
12A
100
AcDbEntity
  8
Woods
 62
   250
420
  2301728
370
    13
100
AcDbVertex
100
AcDb2dVertex
 10
189.1844053605118
 20
370.4813906408526
 30
0.0
  0
VERTEX
  5
12C
330
12A
100
AcDbEntity
  8
Woods
 62
   250
420
  2301728
370
    13
100
AcDbVertex
100
AcDb2dVertex
 10
199.6770050954456
 20
386.6813902316062
 30
0.0
  0
VERTEX
  5
12D
330
12A
100
AcDbEntity
  8
Woods
 62
   250
420
  2301728
370
    13
100
AcDbVertex
100
AcDb2dVertex
 10
205.8349049398848
 20
407.9024983835907
 30
0.0
  0
VERTEX
  5
12E
330
12A
100
AcDbEntity
  8
Woods
 62
   250
420
  2301728
370
    13
100
AcDbVertex
100
AcDb2dVertex
 10
207.0341049095896
 20
421.432589353718
 30
0.0
  0
SEQEND
  5
12F
330
12A
100
AcDbEntity
  8
Woods
 62
   250
420
  2301728
370
    13
  0
POLYLINE
  5
130
330
11C
100
AcDbEntity
  8
Woods
 62
   250
420
  2301728
370
    13
100
AcDb2dPolyline
 66
     1
 10
0.0
 20
0.0
 30
0.0
  0
VERTEX
  5
131
330
130
100
AcDbEntity
  8
Woods
 62
   250
420
  2301728
370
    13
100
AcDbVertex
100
AcDb2dVertex
 10
189.1844053605118
 20
356.8392909854811
 30
0.0
  0
VERTEX
  5
132
330
130
100
AcDbEntity
  8
Woods
 62
   250
420
  2301728
370
    13
100
AcDbVertex
100
AcDb2dVertex
 10
199.9613050882635
 20
372.1866905977731
 30
0.0
  0
VERTEX
  5
133
330
130
100
AcDbEntity
  8
Woods
 62
   250
420
  2301728
370
    13
100
AcDbVertex
100
AcDb2dVertex
 10
208.3684048758823
 20
394.7340900281779
 30
0.0
  0
SEQEND
  5
134
330
130
100
AcDbEntity
  8
Woods
 62
   250
420
  2301728
370
    13
  0
POLYLINE
  5
135
330
11C
100
AcDbEntity
  8
Woods
 62
   250
420
  2301728
370
    13
100
AcDb2dPolyline
 66
     1
 10
0.0
 20
0.0
 30
0.0
  0
VERTEX
  5
136
330
135
100
AcDbEntity
  8
Woods
 62
   250
420
  2301728
370
    13
100
AcDbVertex
100
AcDb2dVertex
 10
191.3454053059204
 20
346.1858912546086
 30
0.0
  0
VERTEX
  5
137
330
135
100
AcDbEntity
  8
Woods
 62
   250
420
  2301728
370
    13
100
AcDbVertex
100
AcDb2dVertex
 10
203.8455049901404
 20
362.3340908466707
 30
0.0
  0
VERTEX
  5
138
330
135
100
AcDbEntity
  8
Woods
 62
   250
420
  2301728
370
    13
100
AcDbVertex
100
AcDb2dVertex
 10
208.3684048758823
 20
376.1655904972577
 30
0.0
  0
SEQEND
  5
139
330
135
100
AcDbEntity
  8
Woods
 62
   250
420
  2301728
370
    13
  0
ENDBLK
  5
11F
330
11C
100
AcDbEntity
  8
0
100
AcDbBlockEnd
  0
BLOCK
  5
157
330
155
100
AcDbEntity
  8
0
100
AcDbBlockBegin
  2
block 8
 70
     0
 10
0.0
 20
0.0
 30
0.0
  3
block 8
  1

  0
INSERT
  5
15A
330
155
100
AcDbEntity
  8
APVA21
100
AcDbBlockReference
  2
block 9
 10
0.0
 20
0.0
 30
0.0
  0
INSERT
  5
16D
330
155
100
AcDbEntity
  8
APVA21
100
AcDbBlockReference
  2
block 10
 10
0.0
 20
0.0
 30
0.0
  0
INSERT
  5
1B0
330
155
100
AcDbEntity
  8
APVA21
100
AcDbBlockReference
  2
block 17
 10
0.0
 20
0.0
 30
0.0
  0
MTEXT
  5
1EE
330
155
100
AcDbEntity
  8
APVA21
 62
    18
420
        0
100
AcDbMText
 10
307.2480456496705
 20
460.3862914565834
 30
0.0
 40
1.66024190574101
 41
0.0
 46
0.0
 71
     7
 72
     1
  1
\fHelvetica LT Std Condensed|b0|i0|c0|p34;\W0.970428;APVA21
 11
0.9571324071417922
 21
-0.2896507469331964
 31
0.0
 73
     1
 44
1.0
  0
MTEXT
  5
1EF
330
155
100
AcDbEntity
  8
APVA21
 62
    18
420
        0
100
AcDbMText
 10
307.5247160446015
 20
457.3025644968147
 30
0.0
 40
1.66024190574101
 41
0.0
 46
0.0
 71
     7
 72
     1
  1
\fHelvetica LT Std Condensed|b0|i0|c0|p34;\W0.970428;ER-102
 11
0.9571324071417922
 21
-0.2896507469331964
 31
0.0
 73
     1
 44
1.0
  0
MTEXT
  5
1F0
330
155
100
AcDbEntity
  8
APVA21
 62
    18
420
        0
100
AcDbMText
 10
303.3008190355031
 20
448.6492353501962
 30
0.0
 40
1.66024190574101
 41
0.0
 46
0.0
 71
     7
 72
     1
  1
\fHelvetica LT Std Condensed|b0|i0|c0|p34;\W0.967868;Use & Warnings:
 11
0.9571324071417922
 21
-0.2896507469331964
 31
0.0
 73
     1
 44
1.0
  0
MTEXT
  5
1F1
330
155
100
AcDbEntity
  8
APVA21
 62
    18
420
        0
100
AcDbMText
 10
302.6484003339428
 20
445.846672572894
 30
0.0
 40
1.66024190574101
 41
0.0
 46
0.0
 71
     7
 72
     1
  1
\fHelvetica LT Std Condensed|b0|i0|c0|p34;\W0.967868;strongtie.com/info
 11
0.9571324071417922
 21
-0.2896507469331964
 31
0.0
 73
     1
 44
1.0
  0
MTEXT
  5
1F2
330
155
100
AcDbEntity
  8
APVA21
 62
    18
420
        0
100
AcDbMText
 10
311.2422022810788
 20
475.5872915463988
 30
0.0
 40
1.389522413247005
 41
0.0
 46
0.0
 71
     7
 72
     1
  1
\fHelvetica LT Std Condensed|b0|i0|c0|p34;\W0.886348;SIMPSON
 11
0.950892650430762
 21
-0.3095208674011505
 31
0.0
 73
     1
 44
1.0
  0
MTEXT
  5
1F3
330
155
100
AcDbEntity
  8
APVA21
 62
    18
420
        0
100
AcDbMText
 10
308.3412876913208
 20
474.1726752808318
 30
0.0
 40
1.389522413247005
 41
0.0
 46
0.0
 71
     7
 72
     1
  1
\fHelvetica LT Std Condensed|b0|i0|c0|p34;\W0.886348;Strong-Tie\H0.694761;®
 11
0.950892650430762
 21
-0.3095208674011505
 31
0.0
 73
     1
 44
1.0
  0
ENDBLK
  5
158
330
155
100
AcDbEntity
  8
0
100
AcDbBlockEnd
  0
BLOCK
  5
15B
330
159
100
AcDbEntity
  8
0
100
AcDbBlockBegin
  2
block 9
 70
     0
 10
0.0
 20
0.0
 30
0.0
  3
block 9
  1

  0
SPLINE
  5
15D
330
159
100
AcDbEntity
  8
APVA21
 62
    18
420
        0
370
    18
100
AcDbSpline
210
0.0
220
0.0
230
1.0
 70
    11
 71
     3
 72
    92
 73
    88
 74
     0
 42
0.0000000001
 43
0.0000000001
 12
1.0
 22
0.0
 32
0.0
 13
1.0
 23
0.0
 33
0.0
 40
0.0
 40
0.0
 40
0.0
 40
0.0
 40
1.0
 40
1.0
 40
1.0
 40
2.0
 40
2.0
 40
2.0
 40
3.0
 40
3.0
 40
3.0
 40
4.0
 40
4.0
 40
4.0
 40
5.0
 40
5.0
 40
5.0
 40
6.0
 40
6.0
 40
6.0
 40
7.0
 40
7.0
 40
7.0
 40
8.0
 40
8.0
 40
8.0
 40
9.0
 40
9.0
 40
9.0
 40
10.0
 40
10.0
 40
10.0
 40
11.0
 40
11.0
 40
11.0
 40
12.0
 40
12.0
 40
12.0
 40
13.0
 40
13.0
 40
13.0
 40
14.0
 40
14.0
 40
14.0
 40
15.0
 40
15.0
 40
15.0
 40
16.0
 40
16.0
 40
16.0
 40
17.0
 40
17.0
 40
17.0
 40
18.0
 40
18.0
 40
18.0
 40
19.0
 40
19.0
 40
19.0
 40
20.0
 40
20.0
 40
20.0
 40
21.0
 40
21.0
 40
21.0
 40
22.0
 40
22.0
 40
22.0
 40
23.0
 40
23.0
 40
23.0
 40
24.0
 40
24.0
 40
24.0
 40
25.0
 40
25.0
 40
25.0
 40
26.0
 40
26.0
 40
26.0
 40
27.0
 40
27.0
 40
27.0
 40
28.0
 40
28.0
 40
28.0
 40
29.0
 40
29.0
 40
29.0
 40
29.0
 10
294.3719027032512
 20
473.920688027757
 30
0.0
 10
294.3719027032512
 20
473.920688027757
 30
0.0
 10
294.3719027032512
 20
431.6421890958018
 30
0.0
 10
294.3719027032512
 20
431.6421890958018
 30
0.0
 10
294.380102703044
 20
431.1951891070939
 30
0.0
 10
294.5157026996194
 20
430.7632891180046
 30
0.0
 10
294.7644026933358
 20
430.3909891274097
 30
0.0
 10
294.7644026933358
 20
430.3909891274097
 30
0.0
 10
299.2813025792293
 20
423.6781892969893
 30
0.0
 10
299.2813025792293
 20
423.6781892969893
 30
0.0
 10
299.5124025733912
 20
423.3370893056062
 30
0.0
 10
299.8208025656004
 20
423.0825893120345
 30
0.0
 10
300.2109025557456
 20
422.9485893154206
 30
0.0
 10
300.2109025557456
 20
422.9485893154206
 30
0.0
 10
300.2219025554678
 20
422.9453893155014
 30
0.0
 10
300.2219025554678
 20
422.9453893155014
 30
0.0
 10
300.2219025554678
 20
422.9453893155014
 30
0.0
 10
317.374802122149
 20
418.1647894362704
 30
0.0
 10
317.374802122149
 20
418.1647894362704
 30
0.0
 10
317.6205021159421
 20
418.0972894379747
 30
0.0
 10
317.8690021096645
 20
418.1169894374771
 30
0.0
 10
318.0966021039148
 20
418.2319894345719
 30
0.0
 10
318.0966021039148
 20
418.2319894345719
 30
0.0
 10
319.148802077334
 20
418.8126894199022
 30
0.0
 10
319.148802077334
 20
418.8126894199022
 30
0.0
 10
319.148802077334
 20
418.8126894199022
 30
0.0
 10
319.1479020773568
 20
418.8143894198593
 30
0.0
 10
319.1479020773568
 20
418.8143894198593
 30
0.0
 10
319.2152104847864
 20
418.8506894189422
 30
0.0
 10
319.2787020740525
 20
418.8961894177928
 30
0.0
 10
319.3372104847858
 20
418.9507894164144
 30
0.0
 10
319.3372104847858
 20
418.9507894164144
 30
0.0
 10
323.7096019621185
 20
423.0815893120607
 30
0.0
 10
323.7096019621185
 20
423.0815893120607
 30
0.0
 10
323.7096019621185
 20
423.0815893120607
 30
0.0
 10
323.7171019619291
 20
423.0887893118788
 30
0.0
 10
323.7171019619291
 20
423.0887893118788
 30
0.0
 10
323.9672104847868
 20
423.3654983835904
 30
0.0
 10
324.0964019523472
 20
423.7183892959738
 30
0.0
 10
324.0870019525846
 20
424.0934983835914
 30
0.0
 10
324.0870019525846
 20
424.0934983835914
 30
0.0
 10
324.0870019525846
 20
465.5832882383766
 30
0.0
 10
324.0870019525846
 20
465.5832882383766
 30
0.0
 10
324.0769019528398
 20
466.5345882143456
 30
0.0
 10
324.4469019434928
 20
467.4100881922286
 30
0.0
 10
325.1391019260063
 20
468.0398881763194
 30
0.0
 10
325.1391019260063
 20
468.0398881763194
 30
0.0
 10
342.4100014897067
 20
478.6802879075194
 30
0.0
 10
342.4100014897067
 20
478.6802879075194
 30
0.0
 10
342.5695014856774
 20
478.7646879053873
 30
0.0
 10
342.7169014819538
 20
478.9316879011694
 30
0.0
 10
342.719701481883
 20
479.114987896538
 30
0.0
 10
342.719701481883
 20
479.114987896538
 30
0.0
 10
342.72180148183
 20
480.9713878496414
 30
0.0
 10
342.72180148183
 20
480.9713878496414
 30
0.0
 10
342.72180148183
 20
480.9713878496414
 30
0.0
 10
342.7043014822721
 20
481.0792878469156
 30
0.0
 10
342.7043014822721
 20
481.0792878469156
 30
0.0
 10
342.7043014822721
 20
481.0792878469156
 30
0.0
 10
341.5575015112427
 20
484.5885877582632
 30
0.0
 10
341.5575015112427
 20
484.5885877582632
 30
0.0
 10
341.5575015112427
 20
484.5885877582632
 30
0.0
 10
341.5532104847862
 20
484.600787757955
 30
0.0
 10
341.5532104847862
 20
484.600787757955
 30
0.0
 10
341.4046015151052
 20
484.8537877515637
 30
0.0
 10
341.1884015205669
 20
484.9834983835908
 30
0.0
 10
340.911501527562
 20
485.0761877459454
 30
0.0
 10
340.911501527562
 20
485.0761877459454
 30
0.0
 10
323.4787019679516
 20
490.8629875997594
 30
0.0
 10
323.4787019679516
 20
490.8629875997594
 30
0.0
 10
323.4787019679516
 20
490.8629875997594
 30
0.0
 10
323.4675019682345
 20
490.8665875996676
 30
0.0
 10
323.4675019682345
 20
490.8665875996676
 30
0.0
 10
323.070801978256
 20
490.9866875966336
 30
0.0
 10
322.6539019887878
 20
491.030887595517
 30
0.0
 10
322.2404019992337
 20
490.9969875963734
 30
0.0
 10
322.2404019992337
 20
490.9969875963734
 30
0.0
 10
314.4192104847862
 20
490.3985876114903
 30
0.0
 10
314.4192104847862
 20
490.3985876114903
 30
0.0
 10
314.0548022060193
 20
490.3802876119535
 30
0.0
 10
313.6571022160661
 20
490.2885876142691
 30
0.0
 10
313.350002223824
 20
490.0883876193275
 30
0.0
 10
313.350002223824
 20
490.0883876193275
 30
0.0
 10
296.4301026512567
 20
478.9598879004561
 30
0.0
 10
296.4301026512567
 20
478.9598879004561
 30
0.0
 10
294.8857026902724
 20
477.7697879305206
 30
0.0
 10
294.345702703913
 20
475.8474983835913
 30
0.0
 10
294.3719027032512
 20
473.920688027757
 30
0.0
  0
HATCH
  5
15E
330
159
100
AcDbEntity
  8
APVA21
 62
   250
420
  2301728
100
AcDbHatch
 10
0.0
 20
0.0
 30
0.0
210
0.0
220
0.0
230
1.0
  2
SOLID
 70
     1
 71
     0
 91
        1
 92
        1
 93
        1
 72
     4
 94
        3
 73
     0
 74
     1
 95
       92
 96
       88
 40
0.0
 40
0.0
 40
0.0
 40
0.0
 40
1.0
 40
1.0
 40
1.0
 40
2.0
 40
2.0
 40
2.0
 40
3.0
 40
3.0
 40
3.0
 40
4.0
 40
4.0
 40
4.0
 40
5.0
 40
5.0
 40
5.0
 40
6.0
 40
6.0
 40
6.0
 40
7.0
 40
7.0
 40
7.0
 40
8.0
 40
8.0
 40
8.0
 40
9.0
 40
9.0
 40
9.0
 40
10.0
 40
10.0
 40
10.0
 40
11.0
 40
11.0
 40
11.0
 40
12.0
 40
12.0
 40
12.0
 40
13.0
 40
13.0
 40
13.0
 40
14.0
 40
14.0
 40
14.0
 40
15.0
 40
15.0
 40
15.0
 40
16.0
 40
16.0
 40
16.0
 40
17.0
 40
17.0
 40
17.0
 40
18.0
 40
18.0
 40
18.0
 40
19.0
 40
19.0
 40
19.0
 40
20.0
 40
20.0
 40
20.0
 40
21.0
 40
21.0
 40
21.0
 40
22.0
 40
22.0
 40
22.0
 40
23.0
 40
23.0
 40
23.0
 40
24.0
 40
24.0
 40
24.0
 40
25.0
 40
25.0
 40
25.0
 40
26.0
 40
26.0
 40
26.0
 40
27.0
 40
27.0
 40
27.0
 40
28.0
 40
28.0
 40
28.0
 40
29.0
 40
29.0
 40
29.0
 40
29.0
 10
294.3719027032512
 20
473.920688027757
 10
294.3719027032512
 20
473.920688027757
 10
294.3719027032512
 20
431.6421890958018
 10
294.3719027032512
 20
431.6421890958018
 10
294.380102703044
 20
431.1951891070939
 10
294.5157026996194
 20
430.7632891180046
 10
294.7644026933358
 20
430.3909891274097
 10
294.7644026933358
 20
430.3909891274097
 10
299.2813025792293
 20
423.6781892969893
 10
299.2813025792293
 20
423.6781892969893
 10
299.5124025733912
 20
423.3370893056062
 10
299.8208025656004
 20
423.0825893120345
 10
300.2109025557456
 20
422.9485893154206
 10
300.2109025557456
 20
422.9485893154206
 10
300.2219025554678
 20
422.9453893155014
 10
300.2219025554678
 20
422.9453893155014
 10
300.2219025554678
 20
422.9453893155014
 10
317.374802122149
 20
418.1647894362704
 10
317.374802122149
 20
418.1647894362704
 10
317.6205021159421
 20
418.0972894379747
 10
317.8690021096645
 20
418.1169894374771
 10
318.0966021039148
 20
418.2319894345719
 10
318.0966021039148
 20
418.2319894345719
 10
319.148802077334
 20
418.8126894199022
 10
319.148802077334
 20
418.8126894199022
 10
319.148802077334
 20
418.8126894199022
 10
319.1479020773568
 20
418.8143894198593
 10
319.1479020773568
 20
418.8143894198593
 10
319.2152104847864
 20
418.8506894189422
 10
319.2787020740525
 20
418.8961894177928
 10
319.3372104847858
 20
418.9507894164144
 10
319.3372104847858
 20
418.9507894164144
 10
323.7096019621185
 20
423.0815893120607
 10
323.7096019621185
 20
423.0815893120607
 10
323.7096019621185
 20
423.0815893120607
 10
323.7171019619291
 20
423.0887893118788
 10
323.7171019619291
 20
423.0887893118788
 10
323.9672104847868
 20
423.3654983835904
 10
324.0964019523472
 20
423.7183892959738
 10
324.0870019525846
 20
424.0934983835914
 10
324.0870019525846
 20
424.0934983835914
 10
324.0870019525846
 20
465.5832882383766
 10
324.0870019525846
 20
465.5832882383766
 10
324.0769019528398
 20
466.5345882143456
 10
324.4469019434928
 20
467.4100881922286
 10
325.1391019260063
 20
468.0398881763194
 10
325.1391019260063
 20
468.0398881763194
 10
342.4100014897067
 20
478.6802879075194
 10
342.4100014897067
 20
478.6802879075194
 10
342.5695014856774
 20
478.7646879053873
 10
342.7169014819538
 20
478.9316879011694
 10
342.719701481883
 20
479.114987896538
 10
342.719701481883
 20
479.114987896538
 10
342.72180148183
 20
480.9713878496414
 10
342.72180148183
 20
480.9713878496414
 10
342.72180148183
 20
480.9713878496414
 10
342.7043014822721
 20
481.0792878469156
 10
342.7043014822721
 20
481.0792878469156
 10
342.7043014822721
 20
481.0792878469156
 10
341.5575015112427
 20
484.5885877582632
 10
341.5575015112427
 20
484.5885877582632
 10
341.5575015112427
 20
484.5885877582632
 10
341.5532104847862
 20
484.600787757955
 10
341.5532104847862
 20
484.600787757955
 10
341.4046015151052
 20
484.8537877515637
 10
341.1884015205669
 20
484.9834983835908
 10
340.911501527562
 20
485.0761877459454
 10
340.911501527562
 20
485.0761877459454
 10
323.4787019679516
 20
490.8629875997594
 10
323.4787019679516
 20
490.8629875997594
 10
323.4787019679516
 20
490.8629875997594
 10
323.4675019682345
 20
490.8665875996676
 10
323.4675019682345
 20
490.8665875996676
 10
323.070801978256
 20
490.9866875966336
 10
322.6539019887878
 20
491.030887595517
 10
322.2404019992337
 20
490.9969875963734
 10
322.2404019992337
 20
490.9969875963734
 10
314.4192104847862
 20
490.3985876114903
 10
314.4192104847862
 20
490.3985876114903
 10
314.0548022060193
 20
490.3802876119535
 10
313.6571022160661
 20
490.2885876142691
 10
313.350002223824
 20
490.0883876193275
 10
313.350002223824
 20
490.0883876193275
 10
296.4301026512567
 20
478.9598879004561
 10
296.4301026512567
 20
478.9598879004561
 10
294.8857026902724
 20
477.7697879305206
 10
294.345702703913
 20
475.8474983835913
 10
294.3719027032512
 20
473.920688027757
 97
        0
 97
        0
 75
     2
 76
     1
 98
        0
  0
POLYLINE
  5
15F
330
159
100
AcDbEntity
  8
APVA21
 62
    18
420
        0
370
     9
100
AcDb2dPolyline
 66
     1
 10
0.0
 20
0.0
 30
0.0
  0
VERTEX
  5
160
330
15F
100
AcDbEntity
  8
APVA21
 62
    18
420
        0
370
     9
100
AcDbVertex
100
AcDb2dVertex
 10
301.098302533328
 20
474.2529880193624
 30
0.0
  0
VERTEX
  5
161
330
15F
100
AcDbEntity
  8
APVA21
 62
    18
420
        0
370
     9
100
AcDbVertex
100
AcDb2dVertex
 10
297.8945026142628
 20
475.2652879937905
 30
0.0
  0
SEQEND
  5
162
330
15F
100
AcDbEntity
  8
APVA21
 62
    18
420
        0
370
     9
  0
POLYLINE
  5
163
330
159
100
AcDbEntity
  8
APVA21
 62
    18
420
        0
370
     9
100
AcDb2dPolyline
 66
     1
 10
0.0
 20
0.0
 30
0.0
  0
VERTEX
  5
164
330
163
100
AcDbEntity
  8
APVA21
 62
    18
420
        0
370
     9
100
AcDbVertex
100
AcDb2dVertex
 10
319.3594020720138
 20
468.482588165135
 30
0.0
  0
VERTEX
  5
165
330
163
100
AcDbEntity
  8
APVA21
 62
    18
420
        0
370
     9
100
AcDbVertex
100
AcDb2dVertex
 10
302.4260024997884
 20
473.8333880299624
 30
0.0
  0
SEQEND
  5
166
330
163
100
AcDbEntity
  8
APVA21
 62
    18
420
        0
370
     9
  0
POLYLINE
  5
167
330
159
100
AcDbEntity
  8
APVA21
 62
    18
420
        0
370
     9
100
AcDb2dPolyline
 66
     1
 10
0.0
 20
0.0
 30
0.0
  0
VERTEX
  5
168
330
167
100
AcDbEntity
  8
APVA21
 62
    18
420
        0
370
     9
100
AcDbVertex
100
AcDb2dVertex
 10
322.9941019801936
 20
467.3340881941494
 30
0.0
  0
VERTEX
  5
169
330
167
100
AcDbEntity
  8
APVA21
 62
    18
420
        0
370
     9
100
AcDbVertex
100
AcDb2dVertex
 10
320.8352104847872
 20
468.0162881769156
 30
0.0
  0
SEQEND
  5
16A
330
167
100
AcDbEntity
  8
APVA21
 62
    18
420
        0
370
     9
  0
SPLINE
  5
16B
330
159
100
AcDbEntity
  8
APVA21
 62
    18
420
        0
370
    13
100
AcDbSpline
210
0.0
220
0.0
230
1.0
 70
     8
 71
     3
 72
    59
 73
    55
 74
     0
 42
0.0000000001
 43
0.0000000001
 12
1.0
 22
0.0
 32
0.0
 13
1.0
 23
0.0
 33
0.0
 40
0.0
 40
0.0
 40
0.0
 40
0.0
 40
1.0
 40
1.0
 40
1.0
 40
2.0
 40
2.0
 40
2.0
 40
3.0
 40
3.0
 40
3.0
 40
4.0
 40
4.0
 40
4.0
 40
5.0
 40
5.0
 40
5.0
 40
6.0
 40
6.0
 40
6.0
 40
7.0
 40
7.0
 40
7.0
 40
8.0
 40
8.0
 40
8.0
 40
9.0
 40
9.0
 40
9.0
 40
10.0
 40
10.0
 40
10.0
 40
11.0
 40
11.0
 40
11.0
 40
12.0
 40
12.0
 40
12.0
 40
13.0
 40
13.0
 40
13.0
 40
14.0
 40
14.0
 40
14.0
 40
15.0
 40
15.0
 40
15.0
 40
16.0
 40
16.0
 40
16.0
 40
17.0
 40
17.0
 40
17.0
 40
18.0
 40
18.0
 40
18.0
 40
18.0
 10
319.6948020635409
 20
419.2886894078765
 30
0.0
 10
319.4783020690102
 20
419.1715894108356
 30
0.0
 10
319.0455020799436
 20
419.0459894140095
 30
0.0
 10
318.5464020925519
 20
419.2619894085519
 30
0.0
 10
318.5464020925519
 20
419.2619894085519
 30
0.0
 10
301.2540025293947
 20
424.3367892803517
 30
0.0
 10
301.2540025293947
 20
424.3367892803517
 30
0.0
 10
300.8703025390878
 20
424.4458892775956
 30
0.0
 10
300.5366025475178
 20
424.7290892704414
 30
0.0
 10
300.3204025529794
 20
425.0595892620922
 30
0.0
 10
300.3204025529794
 20
425.0595892620922
 30
0.0
 10
300.3126025531774
 20
425.0710892618017
 30
0.0
 10
300.3126025531774
 20
425.0710892618017
 30
0.0
 10
300.3126025531774
 20
425.0710892618017
 30
0.0
 10
296.3922104847861
 20
430.9958891121287
 30
0.0
 10
296.3922104847861
 20
430.9958891121287
 30
0.0
 10
296.1433026585019
 20
431.368689102711
 30
0.0
 10
296.0076026619299
 20
431.80138909178
 30
0.0
 10
295.9994026621371
 20
432.2490890804702
 30
0.0
 10
295.9994026621371
 20
432.2490890804702
 30
0.0
 10
295.9994026621371
 20
474.5909880108238
 30
0.0
 10
295.9994026621371
 20
474.5909880108238
 30
0.0
 10
295.9862104847871
 20
475.5551879864661
 30
0.0
 10
296.3482104847863
 20
476.452187963806
 30
0.0
 10
297.0301026360994
 20
477.1115879471481
 30
0.0
 10
297.0301026360994
 20
477.1115879471481
 30
0.0
 10
313.350002223824
 20
488.194587667168
 30
0.0
 10
313.350002223824
 20
488.194587667168
 30
0.0
 10
313.6574022160585
 20
488.3941876621257
 30
0.0
 10
314.0550022060143
 20
488.4852876598243
 30
0.0
 10
314.4192104847862
 20
488.5034983835912
 30
0.0
 10
314.4192104847862
 20
488.5034983835912
 30
0.0
 10
322.2404019992337
 20
489.0994983835908
 30
0.0
 10
322.2404019992337
 20
489.0994983835908
 30
0.0
 10
322.6538019887903
 20
489.1332876434544
 30
0.0
 10
323.0707019782585
 20
489.0891876445694
 30
0.0
 10
323.4675019682345
 20
488.9696876475873
 30
0.0
 10
323.4675019682345
 20
488.9696876475873
 30
0.0
 10
323.4787019679516
 20
488.9659876476808
 30
0.0
 10
323.4787019679516
 20
488.9659876476808
 30
0.0
 10
323.4787019679516
 20
488.9659876476808
 30
0.0
 10
340.911501527562
 20
483.2028877932689
 30
0.0
 10
340.911501527562
 20
483.2028877932689
 30
0.0
 10
341.1881015205745
 20
483.1106877955981
 30
0.0
 10
341.4043015151128
 20
482.9816877988569
 30
0.0
 10
341.5532104847862
 20
482.7293878052315
 30
0.0
 10
341.5532104847862
 20
482.7293878052315
 30
0.0
 10
341.5575015112427
 20
482.7172878055362
 30
0.0
 10
341.5575015112427
 20
482.7172878055362
 30
0.0
 10
341.5575015112427
 20
482.7172878055362
 30
0.0
 10
342.7043014822721
 20
479.2222878938273
 30
0.0
 10
342.7043014822721
 20
479.2222878938273
 30
0.0
 10
342.7154014819916
 20
479.1861878947393
 30
0.0
 10
342.7203014818679
 20
479.1502878956462
 30
0.0
 10
342.719701481883
 20
479.114987896538
 30
0.0
  0
ENDBLK
  5
15C
330
159
100
AcDbEntity
  8
0
100
AcDbBlockEnd
  0
BLOCK
  5
16E
330
16C
100
AcDbEntity
  8
0
100
AcDbBlockBegin
  2
block 10
 70
     0
 10
0.0
 20
0.0
 30
0.0
  3
block 10
  1

  0
INSERT
  5
171
330
16C
100
AcDbEntity
  8
APVA21
100
AcDbBlockReference
  2
block 11
 10
0.0
 20
0.0
 30
0.0
  0
MTEXT
  5
18D
330
16C
100
AcDbEntity
  8
APVA21
 62
    18
420
        0
100
AcDbMText
 10
310.4317138046026
 20
434.537394633051
 30
0.0
 40
1.235466011173141
 41
0.0
 46
0.0
 71
     7
 72
     1
  1
\fHelvetica Neue LT Std 57 Condensed|b0|i0|c0|p34;\W0.843428;101.5
 11
0.9624128211771441
 21
-0.2715907981391315
 31
0.0
 73
     1
 44
1.0
  0
INSERT
  5
18F
330
16C
100
AcDbEntity
  8
APVA21
100
AcDbBlockReference
  2
block 14
 10
0.0
 20
0.0
 30
0.0
  0
ENDBLK
  5
16F
330
16C
100
AcDbEntity
  8
0
100
AcDbBlockEnd
  0
BLOCK
  5
172
330
170
100
AcDbEntity
  8
0
100
AcDbBlockBegin
  2
block 11
 70
     0
 10
0.0
 20
0.0
 30
0.0
  3
block 11
  1

  0
INSERT
  5
175
330
170
100
AcDbEntity
  8
APVA21
100
AcDbBlockReference
  2
block 12
 10
0.0
 20
0.0
 30
0.0
  0
INSERT
  5
17C
330
170
100
AcDbEntity
  8
APVA21
100
AcDbBlockReference
  2
block 13
 10
0.0
 20
0.0
 30
0.0
  0
ENDBLK
  5
173
330
170
100
AcDbEntity
  8
0
100
AcDbBlockEnd
  0
BLOCK
  5
176
330
174
100
AcDbEntity
  8
0
100
AcDbBlockBegin
  2
block 12
 70
     0
 10
0.0
 20
0.0
 30
0.0
  3
block 12
  1

  0
SPLINE
  5
178
330
174
100
AcDbEntity
  8
APVA21
 62
    18
420
        0
370
     5
100
AcDbSpline
210
0.0
220
0.0
230
1.0
 70
    11
 71
     3
 72
    23
 73
    19
 74
     0
 42
0.0000000001
 43
0.0000000001
 12
1.0
 22
0.0
 32
0.0
 13
1.0
 23
0.0
 33
0.0
 40
0.0
 40
0.0
 40
0.0
 40
0.0
 40
1.0
 40
1.0
 40
1.0
 40
2.0
 40
2.0
 40
2.0
 40
3.0
 40
3.0
 40
3.0
 40
4.0
 40
4.0
 40
4.0
 40
5.0
 40
5.0
 40
5.0
 40
6.0
 40
6.0
 40
6.0
 40
6.0
 10
311.2885022759019
 20
429.0145891621814
 30
0.0
 10
309.5550023196938
 20
428.7041891700219
 30
0.0
 10
307.539210484787
 20
430.1790891327628
 30
0.0
 10
306.5913023945632
 20
432.5554983835909
 30
0.0
 10
305.5989024196333
 20
435.0431890098853
 30
0.0
 10
306.1355024060776
 20
437.6196889447974
 30
0.0
 10
307.7753023646528
 20
438.483288922981
 30
0.0
 10
307.7753023646528
 20
438.483288922981
 30
0.0
 10
308.5322104847855
 20
438.8322889141655
 30
0.0
 10
308.5322104847855
 20
438.8322889141655
 30
0.0
 10
310.3599022993603
 20
439.5612888957494
 30
0.0
 10
312.684302240641
 20
438.0391889342
 30
0.0
 10
313.7241022143735
 20
435.4325890000482
 30
0.0
 10
314.6650021906044
 20
433.0739890596305
 30
0.0
 10
314.2315022015555
 20
430.6355891212306
 30
0.0
 10
312.7865022380593
 20
429.6528891460557
 30
0.0
 10
312.7865022380593
 20
429.6528891460557
 30
0.0
 10
311.2885022759019
 20
429.0145891621814
 30
0.0
 10
311.2885022759019
 20
429.0145891621814
 30
0.0
  0
HATCH
  5
179
330
174
100
AcDbEntity
  8
APVA21
 62
   250
420
  2301728
100
AcDbHatch
 10
0.0
 20
0.0
 30
0.0
210
0.0
220
0.0
230
1.0
  2
SOLID
 70
     1
 71
     0
 91
        1
 92
        1
 93
        1
 72
     4
 94
        3
 73
     0
 74
     1
 95
       23
 96
       19
 40
0.0
 40
0.0
 40
0.0
 40
0.0
 40
1.0
 40
1.0
 40
1.0
 40
2.0
 40
2.0
 40
2.0
 40
3.0
 40
3.0
 40
3.0
 40
4.0
 40
4.0
 40
4.0
 40
5.0
 40
5.0
 40
5.0
 40
6.0
 40
6.0
 40
6.0
 40
6.0
 10
311.2885022759019
 20
429.0145891621814
 10
309.5550023196938
 20
428.7041891700219
 10
307.539210484787
 20
430.1790891327628
 10
306.5913023945632
 20
432.5554983835909
 10
305.5989024196333
 20
435.0431890098853
 10
306.1355024060776
 20
437.6196889447974
 10
307.7753023646528
 20
438.483288922981
 10
307.7753023646528
 20
438.483288922981
 10
308.5322104847855
 20
438.8322889141655
 10
308.5322104847855
 20
438.8322889141655
 10
310.3599022993603
 20
439.5612888957494
 10
312.684302240641
 20
438.0391889342
 10
313.7241022143735
 20
435.4325890000482
 10
314.6650021906044
 20
433.0739890596305
 10
314.2315022015555
 20
430.6355891212306
 10
312.7865022380593
 20
429.6528891460557
 10
312.7865022380593
 20
429.6528891460557
 10
311.2885022759019
 20
429.0145891621814
 10
311.2885022759019
 20
429.0145891621814
 97
        0
 97
        0
 75
     2
 76
     1
 98
        0
  0
SPLINE
  5
17A
330
174
100
AcDbEntity
  8
APVA21
 62
    18
420
        0
370
     5
100
AcDbSpline
210
0.0
220
0.0
230
1.0
 70
     8
 71
     3
 72
    14
 73
    10
 74
     0
 42
0.0000000001
 43
0.0000000001
 12
1.0
 22
0.0
 32
0.0
 13
1.0
 23
0.0
 33
0.0
 40
0.0
 40
0.0
 40
0.0
 40
0.0
 40
1.0
 40
1.0
 40
1.0
 40
2.0
 40
2.0
 40
2.0
 40
3.0
 40
3.0
 40
3.0
 40
3.0
 10
312.7865022380593
 20
429.6528891460557
 30
0.0
 10
312.6303022420052
 20
429.5477891487108
 30
0.0
 10
312.4628022462366
 20
429.4588891509575
 30
0.0
 10
312.2844022507434
 20
429.3876891527552
 30
0.0
 10
310.4099022980972
 20
428.6398891716462
 30
0.0
 10
308.047402357779
 20
430.1467891335787
 30
0.0
 10
307.0076023840465
 20
432.7533890677314
 30
0.0
 10
305.9678024103141
 20
435.3599890018822
 30
0.0
 10
306.6445023932192
 20
438.0792889331869
 30
0.0
 10
308.5191023458628
 20
438.8269889142975
 30
0.0
  0
ENDBLK
  5
177
330
174
100
AcDbEntity
  8
0
100
AcDbBlockEnd
  0
BLOCK
  5
17D
330
17B
100
AcDbEntity
  8
0
100
AcDbBlockBegin
  2
block 13
 70
     0
 10
0.0
 20
0.0
 30
0.0
  3
block 13
  1

  0
SPLINE
  5
17F
330
17B
100
AcDbEntity
  8
APVA21
 62
    18
420
        0
370
     5
100
AcDbSpline
210
0.0
220
0.0
230
1.0
 70
    11
 71
     3
 72
    44
 73
    40
 74
     0
 42
0.0000000001
 43
0.0000000001
 12
1.0
 22
0.0
 32
0.0
 13
1.0
 23
0.0
 33
0.0
 40
0.0
 40
0.0
 40
0.0
 40
0.0
 40
1.0
 40
1.0
 40
1.0
 40
2.0
 40
2.0
 40
2.0
 40
3.0
 40
3.0
 40
3.0
 40
4.0
 40
4.0
 40
4.0
 40
5.0
 40
5.0
 40
5.0
 40
6.0
 40
6.0
 40
6.0
 40
7.0
 40
7.0
 40
7.0
 40
8.0
 40
8.0
 40
8.0
 40
9.0
 40
9.0
 40
9.0
 40
10.0
 40
10.0
 40
10.0
 40
11.0
 40
11.0
 40
11.0
 40
12.0
 40
12.0
 40
12.0
 40
13.0
 40
13.0
 40
13.0
 40
13.0
 10
307.9039023614041
 20
436.5277889723811
 30
0.0
 10
307.9039023614041
 20
436.5277889723811
 30
0.0
 10
307.9039023614041
 20
433.0687890597628
 30
0.0
 10
307.9039023614041
 20
433.0687890597628
 30
0.0
 10
307.9039023614041
 20
433.0687890597628
 30
0.0
 10
310.3661022992037
 20
430.6347891212508
 30
0.0
 10
310.3661022992037
 20
430.6347891212508
 30
0.0
 10
310.3661022992037
 20
430.6347891212508
 30
0.0
 10
312.8197022372206
 20
431.6560890954506
 30
0.0
 10
312.8197022372206
 20
431.6560890954506
 30
0.0
 10
312.8197022372206
 20
431.6560890954506
 30
0.0
 10
314.475602195389
 20
432.6084983835908
 30
0.0
 10
314.475602195389
 20
432.6084983835908
 30
0.0
 10
314.6336021913976
 20
433.2507890551651
 30
0.0
 10
314.7210021891897
 20
433.815989040887
 30
0.0
 10
314.7377021887678
 20
434.304189028554
 30
0.0
 10
314.7377021887678
 20
434.304189028554
 30
0.0
 10
314.7377021887678
 20
434.6706890192954
 30
0.0
 10
314.7377021887678
 20
434.6706890192954
 30
0.0
 10
314.7210021891897
 20
435.1394983835917
 30
0.0
 10
314.6336021913976
 20
435.6036889957259
 30
0.0
 10
314.475602195389
 20
436.0634983835907
 30
0.0
 10
314.2421022012877
 20
436.5448889719491
 30
0.0
 10
313.9638022083182
 20
436.9596889614704
 30
0.0
 10
313.6406022164829
 20
437.3078889526741
 30
0.0
 10
313.6406022164829
 20
437.3078889526741
 30
0.0
 10
313.3800022230662
 20
437.5672889461212
 30
0.0
 10
313.3800022230662
 20
437.5672889461212
 30
0.0
 10
313.0230022320848
 20
437.8963889378074
 30
0.0
 10
312.5693022435462
 20
438.2100889298827
 30
0.0
 10
312.0190022574479
 20
438.5084983835895
 30
0.0
 10
311.7839022633871
 20
438.4393889240901
 30
0.0
 10
310.918302285254
 20
438.1015889326236
 30
0.0
 10
310.918302285254
 20
438.1015889326236
 30
0.0
 10
310.5601022943029
 20
437.951388936418
 30
0.0
 10
310.1053023057921
 20
437.749188941526
 30
0.0
 10
309.5539023197216
 20
437.4949889479476
 30
0.0
 10
309.5539023197216
 20
437.4949889479476
 30
0.0
 10
307.9039023614041
 20
436.5277889723811
 30
0.0
 10
307.9039023614041
 20
436.5277889723811
 30
0.0
  0
HATCH
  5
180
330
17B
100
AcDbEntity
  8
APVA21
 62
   250
420
  2301728
100
AcDbHatch
 10
0.0
 20
0.0
 30
0.0
210
0.0
220
0.0
230
1.0
  2
SOLID
 70
     1
 71
     0
 91
        1
 92
        1
 93
        1
 72
     4
 94
        3
 73
     0
 74
     1
 95
       44
 96
       40
 40
0.0
 40
0.0
 40
0.0
 40
0.0
 40
1.0
 40
1.0
 40
1.0
 40
2.0
 40
2.0
 40
2.0
 40
3.0
 40
3.0
 40
3.0
 40
4.0
 40
4.0
 40
4.0
 40
5.0
 40
5.0
 40
5.0
 40
6.0
 40
6.0
 40
6.0
 40
7.0
 40
7.0
 40
7.0
 40
8.0
 40
8.0
 40
8.0
 40
9.0
 40
9.0
 40
9.0
 40
10.0
 40
10.0
 40
10.0
 40
11.0
 40
11.0
 40
11.0
 40
12.0
 40
12.0
 40
12.0
 40
13.0
 40
13.0
 40
13.0
 40
13.0
 10
307.9039023614041
 20
436.5277889723811
 10
307.9039023614041
 20
436.5277889723811
 10
307.9039023614041
 20
433.0687890597628
 10
307.9039023614041
 20
433.0687890597628
 10
307.9039023614041
 20
433.0687890597628
 10
310.3661022992037
 20
430.6347891212508
 10
310.3661022992037
 20
430.6347891212508
 10
310.3661022992037
 20
430.6347891212508
 10
312.8197022372206
 20
431.6560890954506
 10
312.8197022372206
 20
431.6560890954506
 10
312.8197022372206
 20
431.6560890954506
 10
314.475602195389
 20
432.6084983835908
 10
314.475602195389
 20
432.6084983835908
 10
314.6336021913976
 20
433.2507890551651
 10
314.7210021891897
 20
433.815989040887
 10
314.7377021887678
 20
434.304189028554
 10
314.7377021887678
 20
434.304189028554
 10
314.7377021887678
 20
434.6706890192954
 10
314.7377021887678
 20
434.6706890192954
 10
314.7210021891897
 20
435.1394983835917
 10
314.6336021913976
 20
435.6036889957259
 10
314.475602195389
 20
436.0634983835907
 10
314.2421022012877
 20
436.5448889719491
 10
313.9638022083182
 20
436.9596889614704
 10
313.6406022164829
 20
437.3078889526741
 10
313.6406022164829
 20
437.3078889526741
 10
313.3800022230662
 20
437.5672889461212
 10
313.3800022230662
 20
437.5672889461212
 10
313.0230022320848
 20
437.8963889378074
 10
312.5693022435462
 20
438.2100889298827
 10
312.0190022574479
 20
438.5084983835895
 10
311.7839022633871
 20
438.4393889240901
 10
310.918302285254
 20
438.1015889326236
 10
310.918302285254
 20
438.1015889326236
 10
310.5601022943029
 20
437.951388936418
 10
310.1053023057921
 20
437.749188941526
 10
309.5539023197216
 20
437.4949889479476
 10
309.5539023197216
 20
437.4949889479476
 10
307.9039023614041
 20
436.5277889723811
 10
307.9039023614041
 20
436.5277889723811
 97
        0
 97
        0
 75
     2
 76
     1
 98
        0
  0
POLYLINE
  5
181
330
17B
100
AcDbEntity
  8
APVA21
 62
    18
420
        0
370
     5
100
AcDb2dPolyline
 66
     1
 10
0.0
 20
0.0
 30
0.0
  0
VERTEX
  5
182
330
181
100
AcDbEntity
  8
APVA21
 62
    18
420
        0
370
     5
100
AcDbVertex
100
AcDb2dVertex
 10
307.9039023614041
 20
433.0687890597628
 30
0.0
  0
VERTEX
  5
183
330
181
100
AcDbEntity
  8
APVA21
 62
    18
420
        0
370
     5
100
AcDbVertex
100
AcDb2dVertex
 10
309.5539023197216
 20
434.0278890355339
 30
0.0
  0
SEQEND
  5
184
330
181
100
AcDbEntity
  8
APVA21
 62
    18
420
        0
370
     5
  0
POLYLINE
  5
185
330
17B
100
AcDbEntity
  8
APVA21
 62
    18
420
        0
370
     5
100
AcDb2dPolyline
 66
     1
 10
0.0
 20
0.0
 30
0.0
  0
VERTEX
  5
186
330
185
100
AcDbEntity
  8
APVA21
 62
    18
420
        0
370
     5
100
AcDbVertex
100
AcDb2dVertex
 10
312.0190022574479
 20
431.5863890972114
 30
0.0
  0
VERTEX
  5
187
330
185
100
AcDbEntity
  8
APVA21
 62
    18
420
        0
370
     5
100
AcDbVertex
100
AcDb2dVertex
 10
310.3661022992037
 20
430.6347891212508
 30
0.0
  0
SEQEND
  5
188
330
185
100
AcDbEntity
  8
APVA21
 62
    18
420
        0
370
     5
  0
SPLINE
  5
189
330
17B
100
AcDbEntity
  8
APVA21
 62
    18
420
        0
370
     5
100
AcDbSpline
210
0.0
220
0.0
230
1.0
 70
     8
 71
     3
 72
    32
 73
    28
 74
     0
 42
0.0000000001
 43
0.0000000001
 12
1.0
 22
0.0
 32
0.0
 13
1.0
 23
0.0
 33
0.0
 40
0.0
 40
0.0
 40
0.0
 40
0.0
 40
1.0
 40
1.0
 40
1.0
 40
2.0
 40
2.0
 40
2.0
 40
3.0
 40
3.0
 40
3.0
 40
4.0
 40
4.0
 40
4.0
 40
5.0
 40
5.0
 40
5.0
 40
6.0
 40
6.0
 40
6.0
 40
7.0
 40
7.0
 40
7.0
 40
8.0
 40
8.0
 40
8.0
 40
9.0
 40
9.0
 40
9.0
 40
9.0
 10
314.475602195389
 20
432.6084983835908
 30
0.0
 10
314.2421022012877
 20
432.5364983835907
 30
0.0
 10
313.9638022083182
 20
432.4345890757841
 30
0.0
 10
313.6406022164829
 20
432.3027890791136
 30
0.0
 10
313.6406022164829
 20
432.3027890791136
 30
0.0
 10
313.3800022230662
 20
432.194389081852
 30
0.0
 10
313.3800022230662
 20
432.194389081852
 30
0.0
 10
313.0230022320848
 20
432.0431890856717
 30
0.0
 10
312.5693022435462
 20
431.8405890907898
 30
0.0
 10
312.0190022574479
 20
431.5863890972114
 30
0.0
 10
311.7839022633871
 20
432.0663890850856
 30
0.0
 10
311.5042104847871
 20
432.4801890746321
 30
0.0
 10
311.1798022786479
 20
432.8278890658476
 30
0.0
 10
311.1798022786479
 20
432.8278890658476
 30
0.0
 10
310.918302285254
 20
433.0868890593056
 30
0.0
 10
310.918302285254
 20
433.0868890593056
 30
0.0
 10
310.5601022943029
 20
433.4154983835924
 30
0.0
 10
310.1053023057921
 20
433.7291890430797
 30
0.0
 10
309.5539023197216
 20
434.0278890355339
 30
0.0
 10
309.7114023157428
 20
434.6727890192424
 30
0.0
 10
309.7985023135425
 20
435.2401890049086
 30
0.0
 10
309.8152104847868
 20
435.7299889925353
 30
0.0
 10
309.8152104847868
 20
435.7299889925353
 30
0.0
 10
309.8152104847868
 20
436.0977889832438
 30
0.0
 10
309.8152104847868
 20
436.0977889832438
 30
0.0
 10
309.7985023135425
 20
436.5681889713615
 30
0.0
 10
309.7114023157428
 20
437.033888959596
 30
0.0
 10
309.5539023197216
 20
437.4949889479476
 30
0.0
  0
SPLINE
  5
18A
330
17B
100
AcDbEntity
  8
APVA21
 62
    18
420
        0
370
     5
100
AcDbSpline
210
0.0
220
0.0
230
1.0
 70
    11
 71
     3
 72
    17
 73
    13
 74
     0
 42
0.0000000001
 43
0.0000000001
 12
1.0
 22
0.0
 32
0.0
 13
1.0
 23
0.0
 33
0.0
 40
0.0
 40
0.0
 40
0.0
 40
0.0
 40
1.0
 40
1.0
 40
1.0
 40
2.0
 40
2.0
 40
2.0
 40
3.0
 40
3.0
 40
3.0
 40
4.0
 40
4.0
 40
4.0
 40
4.0
 10
314.4280021965915
 20
436.10308898311
 30
0.0
 10
315.1103021793551
 20
434.4694983835916
 30
0.0
 10
314.7040021896191
 20
432.7446890679503
 30
0.0
 10
313.5207022195118
 20
432.2503890804373
 30
0.0
 10
312.337302249407
 20
431.7561890929219
 30
0.0
 10
310.8250022876109
 20
432.6797890695898
 30
0.0
 10
310.1427023048473
 20
434.3132890283241
 30
0.0
 10
309.4605023220811
 20
435.9467889870584
 30
0.0
 10
309.8667023118196
 20
437.6716889434838
 30
0.0
 10
311.0501022819244
 20
438.1658889309992
 30
0.0
 10
312.2334022520317
 20
438.6600889185147
 30
0.0
 10
313.7458022138253
 20
437.7365889418443
 30
0.0
 10
314.4280021965915
 20
436.10308898311
 30
0.0
  0
SPLINE
  5
18B
330
17B
100
AcDbEntity
  8
APVA21
 62
    18
420
        0
370
     5
100
AcDbSpline
210
0.0
220
0.0
230
1.0
 70
    11
 71
     3
 72
    17
 73
    13
 74
     0
 42
0.0000000001
 43
0.0000000001
 12
1.0
 22
0.0
 32
0.0
 13
1.0
 23
0.0
 33
0.0
 40
0.0
 40
0.0
 40
0.0
 40
0.0
 40
1.0
 40
1.0
 40
1.0
 40
2.0
 40
2.0
 40
2.0
 40
3.0
 40
3.0
 40
3.0
 40
4.0
 40
4.0
 40
4.0
 40
4.0
 10
314.21430220199
 20
436.0137889853659
 30
0.0
 10
314.8284021864765
 20
434.5431890225163
 30
0.0
 10
314.4627021957149
 20
432.9903890617434
 30
0.0
 10
313.3975022226241
 20
432.5454983835907
 30
0.0
 10
312.3322104847866
 20
432.1005890842216
 30
0.0
 10
310.9707022839302
 20
432.9319890632187
 30
0.0
 10
310.3565022994462
 20
434.4025890260682
 30
0.0
 10
309.7423023149622
 20
435.8730889889202
 30
0.0
 10
310.1080023057239
 20
437.4258889496932
 30
0.0
 10
311.1733022788121
 20
437.8707889384541
 30
0.0
 10
312.2386022519004
 20
438.3157889272115
 30
0.0
 10
313.600102217506
 20
437.4842889482179
 30
0.0
 10
314.21430220199
 20
436.0137889853659
 30
0.0
  0
SPLINE
  5
18C
330
17B
100
AcDbEntity
  8
APVA21
 62
    18
420
        0
370
     5
100
AcDbSpline
210
0.0
220
0.0
230
1.0
 70
     8
 71
     3
 72
    14
 73
    10
 74
     0
 42
0.0000000001
 43
0.0000000001
 12
1.0
 22
0.0
 32
0.0
 13
1.0
 23
0.0
 33
0.0
 40
0.0
 40
0.0
 40
0.0
 40
0.0
 40
1.0
 40
1.0
 40
1.0
 40
2.0
 40
2.0
 40
2.0
 40
3.0
 40
3.0
 40
3.0
 40
3.0
 10
310.6710022915013
 20
437.527988947114
 30
0.0
 10
310.7774022888134
 20
437.6101889450374
 30
0.0
 10
310.8942104847865
 20
437.6787889433044
 30
0.0
 10
311.0209022826621
 20
437.7316889419681
 30
0.0
 10
312.0862104847856
 20
438.1765889307289
 30
0.0
 10
313.4477022213559
 20
437.3451889517319
 30
0.0
 10
314.0619022058399
 20
435.8745889888824
 30
0.0
 10
314.5604021932468
 20
434.6807890190403
 30
0.0
 10
314.4133021969628
 20
433.4327890505674
 30
0.0
 10
313.7703022132064
 20
432.7672890673794
 30
0.0
  0
ENDBLK
  5
17E
330
17B
100
AcDbEntity
  8
0
100
AcDbBlockEnd
  0
BLOCK
  5
190
330
18E
100
AcDbEntity
  8
0
100
AcDbBlockBegin
  2
block 14
 70
     0
 10
0.0
 20
0.0
 30
0.0
  3
block 14
  1

  0
INSERT
  5
193
330
18E
100
AcDbEntity
  8
APVA21
100
AcDbBlockReference
  2
block 15
 10
0.0
 20
0.0
 30
0.0
  0
INSERT
  5
1A5
330
18E
100
AcDbEntity
  8
APVA21
100
AcDbBlockReference
  2
block 16
 10
0.0
 20
0.0
 30
0.0
  0
ENDBLK
  5
191
330
18E
100
AcDbEntity
  8
0
100
AcDbBlockEnd
  0
BLOCK
  5
194
330
192
100
AcDbEntity
  8
0
100
AcDbBlockBegin
  2
block 15
 70
     0
 10
0.0
 20
0.0
 30
0.0
  3
block 15
  1

  0
POLYLINE
  5
196
330
192
100
AcDbEntity
  8
APVA21
370
     0
100
AcDb2dPolyline
 66
     1
 10
0.0
 20
0.0
 30
0.0
  0
VERTEX
  5
197
330
196
100
AcDbEntity
  8
APVA21
370
     0
100
AcDbVertex
100
AcDb2dVertex
 10
312.730102239484
 20
436.392688975794
 30
0.0
  0
VERTEX
  5
198
330
196
100
AcDbEntity
  8
APVA21
370
     0
100
AcDbVertex
100
AcDb2dVertex
 10
311.4727022712486
 20
436.7751889661313
 30
0.0
  0
VERTEX
  5
199
330
196
100
AcDbEntity
  8
APVA21
370
     0
100
AcDbVertex
100
AcDb2dVertex
 10
311.4727022712486
 20
436.9637889613668
 30
0.0
  0
VERTEX
  5
19A
330
196
100
AcDbEntity
  8
APVA21
370
     0
100
AcDbVertex
100
AcDb2dVertex
 10
312.730102239484
 20
436.5813889710271
 30
0.0
  0
VERTEX
  5
19B
330
196
100
AcDbEntity
  8
APVA21
370
     0
100
AcDbVertex
100
AcDb2dVertex
 10
312.730102239484
 20
436.392688975794
 30
0.0
  0
SEQEND
  5
19C
330
196
100
AcDbEntity
  8
APVA21
370
     0
  0
POLYLINE
  5
19D
330
192
100
AcDbEntity
  8
APVA21
370
     0
100
AcDb2dPolyline
 66
     1
 10
0.0
 20
0.0
 30
0.0
  0
VERTEX
  5
19E
330
19D
100
AcDbEntity
  8
APVA21
370
     0
100
AcDbVertex
100
AcDb2dVertex
 10
312.730102239484
 20
436.0071889855326
 30
0.0
  0
VERTEX
  5
19F
330
19D
100
AcDbEntity
  8
APVA21
370
     0
100
AcDbVertex
100
AcDb2dVertex
 10
311.4727022712486
 20
436.3896889758698
 30
0.0
  0
VERTEX
  5
1A0
330
19D
100
AcDbEntity
  8
APVA21
370
     0
100
AcDbVertex
100
AcDb2dVertex
 10
311.4727022712486
 20
436.5782889711054
 30
0.0
  0
VERTEX
  5
1A1
330
19D
100
AcDbEntity
  8
APVA21
370
     0
100
AcDbVertex
100
AcDb2dVertex
 10
312.730102239484
 20
436.1957889807682
 30
0.0
  0
VERTEX
  5
1A2
330
19D
100
AcDbEntity
  8
APVA21
370
     0
100
AcDbVertex
100
AcDb2dVertex
 10
312.730102239484
 20
436.0071889855326
 30
0.0
  0
SEQEND
  5
1A3
330
19D
100
AcDbEntity
  8
APVA21
370
     0
  0
ENDBLK
  5
195
330
192
100
AcDbEntity
  8
0
100
AcDbBlockEnd
  0
BLOCK
  5
1A6
330
1A4
100
AcDbEntity
  8
0
100
AcDbBlockBegin
  2
block 16
 70
     0
 10
0.0
 20
0.0
 30
0.0
  3
block 16
  1

  0
POLYLINE
  5
1A8
330
1A4
100
AcDbEntity
  8
APVA21
370
     0
100
AcDb2dPolyline
 66
     1
 10
0.0
 20
0.0
 30
0.0
  0
VERTEX
  5
1A9
330
1A8
100
AcDbEntity
  8
APVA21
370
     0
100
AcDbVertex
100
AcDb2dVertex
 10
311.7242104847865
 20
435.881688988703
 30
0.0
  0
VERTEX
  5
1AA
330
1A8
100
AcDbEntity
  8
APVA21
370
     0
100
AcDbVertex
100
AcDb2dVertex
 10
311.6677022663225
 20
435.9487889870079
 30
0.0
  0
VERTEX
  5
1AB
330
1A8
100
AcDbEntity
  8
APVA21
370
     0
100
AcDbVertex
100
AcDb2dVertex
 10
312.5332104847857
 20
437.0726889586158
 30
0.0
  0
VERTEX
  5
1AC
330
1A8
100
AcDbEntity
  8
APVA21
370
     0
100
AcDbVertex
100
AcDb2dVertex
 10
312.5897022430308
 20
437.0055889603109
 30
0.0
  0
VERTEX
  5
1AD
330
1A8
100
AcDbEntity
  8
APVA21
370
     0
100
AcDbVertex
100
AcDb2dVertex
 10
311.7242104847865
 20
435.881688988703
 30
0.0
  0
SEQEND
  5
1AE
330
1A8
100
AcDbEntity
  8
APVA21
370
     0
  0
ENDBLK
  5
1A7
330
1A4
100
AcDbEntity
  8
0
100
AcDbBlockEnd
  0
BLOCK
  5
1B1
330
1AF
100
AcDbEntity
  8
0
100
AcDbBlockBegin
  2
block 17
 70
     0
 10
0.0
 20
0.0
 30
0.0
  3
block 17
  1

  0
INSERT
  5
1B4
330
1AF
100
AcDbEntity
  8
APVA21
100
AcDbBlockReference
  2
block 18
 10
0.0
 20
0.0
 30
0.0
  0
INSERT
  5
1BB
330
1AF
100
AcDbEntity
  8
APVA21
100
AcDbBlockReference
  2
block 19
 10
0.0
 20
0.0
 30
0.0
  0
ENDBLK
  5
1B2
330
1AF
100
AcDbEntity
  8
0
100
AcDbBlockEnd
  0
BLOCK
  5
1B5
330
1B3
100
AcDbEntity
  8
0
100
AcDbBlockBegin
  2
block 18
 70
     0
 10
0.0
 20
0.0
 30
0.0
  3
block 18
  1

  0
SPLINE
  5
1B7
330
1B3
100
AcDbEntity
  8
APVA21
 62
    18
420
        0
370
     5
100
AcDbSpline
210
0.0
220
0.0
230
1.0
 70
    11
 71
     3
 72
    23
 73
    19
 74
     0
 42
0.0000000001
 43
0.0000000001
 12
1.0
 22
0.0
 32
0.0
 13
1.0
 23
0.0
 33
0.0
 40
0.0
 40
0.0
 40
0.0
 40
0.0
 40
1.0
 40
1.0
 40
1.0
 40
2.0
 40
2.0
 40
2.0
 40
3.0
 40
3.0
 40
3.0
 40
4.0
 40
4.0
 40
4.0
 40
5.0
 40
5.0
 40
5.0
 40
6.0
 40
6.0
 40
6.0
 40
6.0
 10
319.8120020605802
 20
481.1686878446571
 30
0.0
 10
319.9571020569147
 20
482.3369878151434
 30
0.0
 10
322.0860020031341
 20
483.2640877917229
 30
0.0
 10
324.6910019373263
 20
483.2640877917229
 30
0.0
 10
327.3900018691438
 20
483.2640877917229
 30
0.0
 10
329.5780018138703
 20
482.2688878168638
 30
0.0
 10
329.5780018138703
 20
481.0412878478764
 30
0.0
 10
329.5780018138703
 20
481.0412878478764
 30
0.0
 10
329.5352104847861
 20
480.3847878644601
 30
0.0
 10
329.5352104847861
 20
480.3847878644601
 30
0.0
 10
329.5352104847861
 20
479.1571878954719
 30
0.0
 10
327.347210484786
 20
478.1620879206102
 30
0.0
 10
324.6482104847873
 20
478.1620879206102
 30
0.0
 10
321.9492104847868
 20
478.1620879206102
 30
0.0
 10
319.7612104847867
 20
479.1571878954719
 30
0.0
 10
319.7612104847867
 20
480.3847878644601
 30
0.0
 10
319.7612104847867
 20
480.3847878644601
 30
0.0
 10
319.8120020605802
 20
481.1686878446571
 30
0.0
 10
319.8120020605802
 20
481.1686878446571
 30
0.0
  0
HATCH
  5
1B8
330
1B3
100
AcDbEntity
  8
APVA21
 62
   250
420
  2301728
100
AcDbHatch
 10
0.0
 20
0.0
 30
0.0
210
0.0
220
0.0
230
1.0
  2
SOLID
 70
     1
 71
     0
 91
        1
 92
        1
 93
        1
 72
     4
 94
        3
 73
     0
 74
     1
 95
       23
 96
       19
 40
0.0
 40
0.0
 40
0.0
 40
0.0
 40
1.0
 40
1.0
 40
1.0
 40
2.0
 40
2.0
 40
2.0
 40
3.0
 40
3.0
 40
3.0
 40
4.0
 40
4.0
 40
4.0
 40
5.0
 40
5.0
 40
5.0
 40
6.0
 40
6.0
 40
6.0
 40
6.0
 10
319.8120020605802
 20
481.1686878446571
 10
319.9571020569147
 20
482.3369878151434
 10
322.0860020031341
 20
483.2640877917229
 10
324.6910019373263
 20
483.2640877917229
 10
327.3900018691438
 20
483.2640877917229
 10
329.5780018138703
 20
482.2688878168638
 10
329.5780018138703
 20
481.0412878478764
 10
329.5780018138703
 20
481.0412878478764
 10
329.5352104847861
 20
480.3847878644601
 10
329.5352104847861
 20
480.3847878644601
 10
329.5352104847861
 20
479.1571878954719
 10
327.347210484786
 20
478.1620879206102
 10
324.6482104847873
 20
478.1620879206102
 10
321.9492104847868
 20
478.1620879206102
 10
319.7612104847867
 20
479.1571878954719
 10
319.7612104847867
 20
480.3847878644601
 10
319.7612104847867
 20
480.3847878644601
 10
319.8120020605802
 20
481.1686878446571
 10
319.8120020605802
 20
481.1686878446571
 97
        0
 97
        0
 75
     2
 76
     1
 98
        0
  0
SPLINE
  5
1B9
330
1B3
100
AcDbEntity
  8
APVA21
 62
    18
420
        0
370
     5
100
AcDbSpline
210
0.0
220
0.0
230
1.0
 70
     8
 71
     3
 72
    11
 73
     7
 74
     0
 42
0.0000000001
 43
0.0000000001
 12
1.0
 22
0.0
 32
0.0
 13
1.0
 23
0.0
 33
0.0
 40
0.0
 40
0.0
 40
0.0
 40
0.0
 40
1.0
 40
1.0
 40
1.0
 40
2.0
 40
2.0
 40
2.0
 40
2.0
 10
319.7612104847867
 20
480.3847878644601
 30
0.0
 10
319.7612104847867
 20
481.6123878334483
 30
0.0
 10
321.9492104847868
 20
482.6074983835915
 30
0.0
 10
324.6482104847873
 20
482.6074983835915
 30
0.0
 10
327.347210484786
 20
482.6074983835915
 30
0.0
 10
329.5352104847861
 20
481.6123878334483
 30
0.0
 10
329.5352104847861
 20
480.3847878644601
 30
0.0
  0
ENDBLK
  5
1B6
330
1B3
100
AcDbEntity
  8
0
100
AcDbBlockEnd
  0
BLOCK
  5
1BC
330
1BA
100
AcDbEntity
  8
0
100
AcDbBlockBegin
  2
block 19
 70
     0
 10
0.0
 20
0.0
 30
0.0
  3
block 19
  1

  0
SPLINE
  5
1BE
330
1BA
100
AcDbEntity
  8
APVA21
 62
    18
420
        0
370
     5
100
AcDbSpline
210
0.0
220
0.0
230
1.0
 70
    11
 71
     3
 72
    32
 73
    28
 74
     0
 42
0.0000000001
 43
0.0000000001
 12
1.0
 22
0.0
 32
0.0
 13
1.0
 23
0.0
 33
0.0
 40
0.0
 40
0.0
 40
0.0
 40
0.0
 40
1.0
 40
1.0
 40
1.0
 40
2.0
 40
2.0
 40
2.0
 40
3.0
 40
3.0
 40
3.0
 40
4.0
 40
4.0
 40
4.0
 40
5.0
 40
5.0
 40
5.0
 40
6.0
 40
6.0
 40
6.0
 40
7.0
 40
7.0
 40
7.0
 40
8.0
 40
8.0
 40
8.0
 40
9.0
 40
9.0
 40
9.0
 40
9.0
 10
328.144801850076
 20
477.2697879431516
 30
0.0
 10
327.8798018567704
 20
476.8769879530746
 30
0.0
 10
327.3978018689468
 20
476.3706879658648
 30
0.0
 10
327.3978018689468
 20
476.3706879658648
 30
0.0
 10
326.9055018813833
 20
475.9079879775536
 30
0.0
 10
325.8552104847859
 20
475.5883879856274
 30
0.0
 10
324.6390019386399
 20
475.5883879856274
 30
0.0
 10
323.3384019714958
 20
475.5883879856274
 30
0.0
 10
322.2275019995595
 20
475.9538879763941
 30
0.0
 10
321.7859020107153
 20
476.4688879633841
 30
0.0
 10
321.7859020107153
 20
476.4688879633841
 30
0.0
 10
321.3658020213279
 20
477.0702879481905
 30
0.0
 10
321.1314020272494
 20
477.5818879352673
 30
0.0
 10
321.1314020272494
 20
477.5818879352673
 30
0.0
 10
321.1314020272494
 20
480.5361878606345
 30
0.0
 10
321.1314020272494
 20
480.5361878606345
 30
0.0
 10
321.1314020272494
 20
480.5361878606345
 30
0.0
 10
323.1762104847858
 20
481.8389878277239
 30
0.0
 10
323.1762104847858
 20
481.8389878277239
 30
0.0
 10
323.1762104847858
 20
481.8389878277239
 30
0.0
 10
326.6935018867389
 20
481.6808878317179
 30
0.0
 10
326.6935018867389
 20
481.6808878317179
 30
0.0
 10
326.6935018867389
 20
481.6808878317179
 30
0.0
 10
328.144801850076
 20
480.2220878685703
 30
0.0
 10
328.144801850076
 20
480.2220878685703
 30
0.0
 10
328.144801850076
 20
480.2220878685703
 30
0.0
 10
328.144801850076
 20
477.2697879431516
 30
0.0
 10
328.144801850076
 20
477.2697879431516
 30
0.0
  0
HATCH
  5
1BF
330
1BA
100
AcDbEntity
  8
APVA21
 62
   250
420
  2301728
100
AcDbHatch
 10
0.0
 20
0.0
 30
0.0
210
0.0
220
0.0
230
1.0
  2
SOLID
 70
     1
 71
     0
 91
        1
 92
        1
 93
        1
 72
     4
 94
        3
 73
     0
 74
     1
 95
       32
 96
       28
 40
0.0
 40
0.0
 40
0.0
 40
0.0
 40
1.0
 40
1.0
 40
1.0
 40
2.0
 40
2.0
 40
2.0
 40
3.0
 40
3.0
 40
3.0
 40
4.0
 40
4.0
 40
4.0
 40
5.0
 40
5.0
 40
5.0
 40
6.0
 40
6.0
 40
6.0
 40
7.0
 40
7.0
 40
7.0
 40
8.0
 40
8.0
 40
8.0
 40
9.0
 40
9.0
 40
9.0
 40
9.0
 10
328.144801850076
 20
477.2697879431516
 10
327.8798018567704
 20
476.8769879530746
 10
327.3978018689468
 20
476.3706879658648
 10
327.3978018689468
 20
476.3706879658648
 10
326.9055018813833
 20
475.9079879775536
 10
325.8552104847859
 20
475.5883879856274
 10
324.6390019386399
 20
475.5883879856274
 10
323.3384019714958
 20
475.5883879856274
 10
322.2275019995595
 20
475.9538879763941
 10
321.7859020107153
 20
476.4688879633841
 10
321.7859020107153
 20
476.4688879633841
 10
321.3658020213279
 20
477.0702879481905
 10
321.1314020272494
 20
477.5818879352673
 10
321.1314020272494
 20
477.5818879352673
 10
321.1314020272494
 20
480.5361878606345
 10
321.1314020272494
 20
480.5361878606345
 10
321.1314020272494
 20
480.5361878606345
 10
323.1762104847858
 20
481.8389878277239
 10
323.1762104847858
 20
481.8389878277239
 10
323.1762104847858
 20
481.8389878277239
 10
326.6935018867389
 20
481.6808878317179
 10
326.6935018867389
 20
481.6808878317179
 10
326.6935018867389
 20
481.6808878317179
 10
328.144801850076
 20
480.2220878685703
 10
328.144801850076
 20
480.2220878685703
 10
328.144801850076
 20
480.2220878685703
 10
328.144801850076
 20
477.2697879431516
 10
328.144801850076
 20
477.2697879431516
 97
        0
 97
        0
 75
     2
 76
     1
 98
        0
  0
POLYLINE
  5
1C0
330
1BA
100
AcDbEntity
  8
APVA21
 62
    18
420
        0
370
     5
100
AcDb2dPolyline
 66
     1
 10
0.0
 20
0.0
 30
0.0
  0
VERTEX
  5
1C1
330
1C0
100
AcDbEntity
  8
APVA21
 62
    18
420
        0
370
     5
100
AcDbVertex
100
AcDb2dVertex
 10
326.6935018867389
 20
478.7191879065376
 30
0.0
  0
VERTEX
  5
1C2
330
1C0
100
AcDbEntity
  8
APVA21
 62
    18
420
        0
370
     5
100
AcDbVertex
100
AcDb2dVertex
 10
326.6935018867389
 20
481.6808878317179
 30
0.0
  0
SEQEND
  5
1C3
330
1C0
100
AcDbEntity
  8
APVA21
 62
    18
420
        0
370
     5
  0
POLYLINE
  5
1C4
330
1BA
100
AcDbEntity
  8
APVA21
 62
    18
420
        0
370
     5
100
AcDb2dPolyline
 66
     1
 10
0.0
 20
0.0
 30
0.0
  0
VERTEX
  5
1C5
330
1C4
100
AcDbEntity
  8
APVA21
 62
    18
420
        0
370
     5
100
AcDbVertex
100
AcDb2dVertex
 10
323.1762104847858
 20
478.8761879025715
 30
0.0
  0
VERTEX
  5
1C6
330
1C4
100
AcDbEntity
  8
APVA21
 62
    18
420
        0
370
     5
100
AcDbVertex
100
AcDb2dVertex
 10
323.1762104847858
 20
481.8389878277239
 30
0.0
  0
SEQEND
  5
1C7
330
1C4
100
AcDbEntity
  8
APVA21
 62
    18
420
        0
370
     5
  0
SPLINE
  5
1C8
330
1BA
100
AcDbEntity
  8
APVA21
 62
    18
420
        0
370
     5
100
AcDbSpline
210
0.0
220
0.0
230
1.0
 70
     8
 71
     3
 72
    32
 73
    28
 74
     0
 42
0.0000000001
 43
0.0000000001
 12
1.0
 22
0.0
 32
0.0
 13
1.0
 23
0.0
 33
0.0
 40
0.0
 40
0.0
 40
0.0
 40
0.0
 40
1.0
 40
1.0
 40
1.0
 40
2.0
 40
2.0
 40
2.0
 40
3.0
 40
3.0
 40
3.0
 40
4.0
 40
4.0
 40
4.0
 40
5.0
 40
5.0
 40
5.0
 40
6.0
 40
6.0
 40
6.0
 40
7.0
 40
7.0
 40
7.0
 40
8.0
 40
8.0
 40
8.0
 40
9.0
 40
9.0
 40
9.0
 40
9.0
 10
328.144801850076
 20
477.2697879431516
 30
0.0
 10
327.9138018559115
 20
477.2192879444274
 30
0.0
 10
327.6979018613656
 20
477.2792879429117
 30
0.0
 10
327.4972104847857
 20
477.449687938607
 30
0.0
 10
327.4972104847857
 20
477.449687938607
 30
0.0
 10
327.3433018703236
 20
477.6032879347276
 30
0.0
 10
327.3433018703236
 20
477.6032879347276
 30
0.0
 10
327.1422104847861
 20
477.8337879289038
 30
0.0
 10
326.9256018808755
 20
478.2056879195088
 30
0.0
 10
326.6935018867389
 20
478.7191879065376
 30
0.0
 10
326.1324019009135
 20
478.4622879130275
 30
0.0
 10
325.6085019141483
 20
478.3297879163738
 30
0.0
 10
325.1216019264484
 20
478.3215879165809
 30
0.0
 10
325.1216019264484
 20
478.3215879165809
 30
0.0
 10
324.7486019358712
 20
478.3382879161591
 30
0.0
 10
324.7486019358712
 20
478.3382879161591
 30
0.0
 10
324.2617019481713
 20
478.3898879148564
 30
0.0
 10
323.7375019614137
 20
478.569187910326
 30
0.0
 10
323.1762104847858
 20
478.8761879025715
 30
0.0
 10
322.8492104847865
 20
478.3874983835913
 30
0.0
 10
322.5441019915615
 20
478.0385879237301
 30
0.0
 10
322.2608019987183
 20
477.8295879290099
 30
0.0
 10
322.2608019987183
 20
477.8295879290099
 30
0.0
 10
322.0439020041977
 20
477.6924983835925
 30
0.0
 10
322.0439020041977
 20
477.6924983835925
 30
0.0
 10
321.7611020113418
 20
477.5434983835912
 30
0.0
 10
321.4569020190265
 20
477.5065879371705
 30
0.0
 10
321.1314020272494
 20
477.5818879352673
 30
0.0
  0
SPLINE
  5
1C9
330
1BA
100
AcDbEntity
  8
APVA21
 62
    18
420
        0
370
     5
100
AcDbSpline
210
0.0
220
0.0
230
1.0
 70
     8
 71
     3
 72
    17
 73
    13
 74
     0
 42
0.0000000001
 43
0.0000000001
 12
1.0
 22
0.0
 32
0.0
 13
1.0
 23
0.0
 33
0.0
 40
0.0
 40
0.0
 40
0.0
 40
0.0
 40
1.0
 40
1.0
 40
1.0
 40
2.0
 40
2.0
 40
2.0
 40
3.0
 40
3.0
 40
3.0
 40
4.0
 40
4.0
 40
4.0
 40
4.0
 10
321.7859020107153
 20
476.4688879633841
 30
0.0
 10
321.6542104847867
 20
476.6224983835909
 30
0.0
 10
321.5820020158662
 20
476.7893879552885
 30
0.0
 10
321.5820020158662
 20
476.9637879508819
 30
0.0
 10
321.5820020158662
 20
477.7234983835924
 30
0.0
 10
322.9506019812925
 20
478.3391879161363
 30
0.0
 10
324.6390019386399
 20
478.3391879161363
 30
0.0
 10
326.3273018959899
 20
478.3391879161363
 30
0.0
 10
327.6960018614136
 20
477.7234983835924
 30
0.0
 10
327.6960018614136
 20
476.9637879508819
 30
0.0
 10
327.6960018614136
 20
476.7513879562484
 30
0.0
 10
327.5890018641167
 20
476.5502879613277
 30
0.0
 10
327.3978018689468
 20
476.3706879658648
 30
0.0
  0
SPLINE
  5
1CA
330
1BA
100
AcDbEntity
  8
APVA21
 62
    18
420
        0
370
     5
100
AcDbSpline
210
0.0
220
0.0
230
1.0
 70
    11
 71
     3
 72
    17
 73
    13
 74
     0
 42
0.0000000001
 43
0.0000000001
 12
1.0
 22
0.0
 32
0.0
 13
1.0
 23
0.0
 33
0.0
 40
0.0
 40
0.0
 40
0.0
 40
0.0
 40
1.0
 40
1.0
 40
1.0
 40
2.0
 40
2.0
 40
2.0
 40
3.0
 40
3.0
 40
3.0
 40
4.0
 40
4.0
 40
4.0
 40
4.0
 10
327.3823018693383
 20
476.9637879508819
 30
0.0
 10
327.3823018693383
 20
476.2821879681014
 30
0.0
 10
326.1540019003678
 20
475.7295879820604
 30
0.0
 10
324.6390019386399
 20
475.7295879820604
 30
0.0
 10
323.1239019769146
 20
475.7295879820604
 30
0.0
 10
321.8957020079415
 20
476.2821879681014
 30
0.0
 10
321.8957020079415
 20
476.9637879508819
 30
0.0
 10
321.8957020079415
 20
477.6454983835911
 30
0.0
 10
323.1239019769146
 20
478.1980879197008
 30
0.0
 10
324.6390019386399
 20
478.1980879197008
 30
0.0
 10
326.1540019003678
 20
478.1980879197008
 30
0.0
 10
327.3823018693383
 20
477.6454983835911
 30
0.0
 10
327.3823018693383
 20
476.9637879508819
 30
0.0
  0
SPLINE
  5
1CB
330
1BA
100
AcDbEntity
  8
APVA21
 62
    18
420
        0
370
     5
100
AcDbSpline
210
0.0
220
0.0
230
1.0
 70
     8
 71
     3
 72
    11
 73
     7
 74
     0
 42
0.0000000001
 43
0.0000000001
 12
1.0
 22
0.0
 32
0.0
 13
1.0
 23
0.0
 33
0.0
 40
0.0
 40
0.0
 40
0.0
 40
0.0
 40
1.0
 40
1.0
 40
1.0
 40
2.0
 40
2.0
 40
2.0
 40
2.0
 10
327.3681018696971
 20
477.0980879474891
 30
0.0
 10
327.2276018732464
 20
476.4756879632123
 30
0.0
 10
326.0594019027576
 20
475.9899879754821
 30
0.0
 10
324.6390019386399
 20
475.9899879754821
 30
0.0
 10
323.229101974257
 20
475.9899879754821
 30
0.0
 10
322.0677020035964
 20
476.4684983835914
 30
0.0
 10
321.9131020075019
 20
477.0842879478378
 30
0.0
  0
MTEXT
  5
1CC
330
1BA
100
AcDbEntity
  8
APVA21
 62
    18
420
        0
100
AcDbMText
 10
321.8375473080669
 20
477.1898559195688
 30
0.0
 40
0.8149289456461832
 41
0.0
 46
0.0
 71
     7
 72
     1
  1
\fHelvetica Neue LT Std 57 Condensed|b0|i0|c0|p34;\W0.814055;101.5
 11
0.9526555007737244
 21
-0.3040517996091527
 31
0.0
 73
     1
 44
1.0
  0
INSERT
  5
1CE
330
1BA
100
AcDbEntity
  8
APVA21
100
AcDbBlockReference
  2
block 20
 10
0.0
 20
0.0
 30
0.0
  0
ENDBLK
  5
1BD
330
1BA
100
AcDbEntity
  8
0
100
AcDbBlockEnd
  0
BLOCK
  5
1CF
330
1CD
100
AcDbEntity
  8
0
100
AcDbBlockBegin
  2
block 20
 70
     0
 10
0.0
 20
0.0
 30
0.0
  3
block 20
  1

  0
INSERT
  5
1D2
330
1CD
100
AcDbEntity
  8
APVA21
100
AcDbBlockReference
  2
block 21
 10
0.0
 20
0.0
 30
0.0
  0
INSERT
  5
1E4
330
1CD
100
AcDbEntity
  8
APVA21
100
AcDbBlockReference
  2
block 22
 10
0.0
 20
0.0
 30
0.0
  0
ENDBLK
  5
1D0
330
1CD
100
AcDbEntity
  8
0
100
AcDbBlockEnd
  0
BLOCK
  5
1D3
330
1D1
100
AcDbEntity
  8
0
100
AcDbBlockBegin
  2
block 21
 70
     0
 10
0.0
 20
0.0
 30
0.0
  3
block 21
  1

  0
POLYLINE
  5
1D5
330
1D1
100
AcDbEntity
  8
APVA21
370
     0
100
AcDb2dPolyline
 66
     1
 10
0.0
 20
0.0
 30
0.0
  0
VERTEX
  5
1D6
330
1D5
100
AcDbEntity
  8
APVA21
370
     0
100
AcDbVertex
100
AcDb2dVertex
 10
326.2461018980412
 20
477.3239879417815
 30
0.0
  0
VERTEX
  5
1D7
330
1D5
100
AcDbEntity
  8
APVA21
370
     0
100
AcDbVertex
100
AcDb2dVertex
 10
325.2979019219947
 20
477.6331879339714
 30
0.0
  0
VERTEX
  5
1D8
330
1D5
100
AcDbEntity
  8
APVA21
370
     0
100
AcDbVertex
100
AcDb2dVertex
 10
325.4247019187915
 20
477.6988879323117
 30
0.0
  0
VERTEX
  5
1D9
330
1D5
100
AcDbEntity
  8
APVA21
370
     0
100
AcDbVertex
100
AcDb2dVertex
 10
326.3729018948379
 20
477.3896879401236
 30
0.0
  0
VERTEX
  5
1DA
330
1D5
100
AcDbEntity
  8
APVA21
370
     0
100
AcDbVertex
100
AcDb2dVertex
 10
326.2461018980412
 20
477.3239879417815
 30
0.0
  0
SEQEND
  5
1DB
330
1D5
100
AcDbEntity
  8
APVA21
370
     0
  0
POLYLINE
  5
1DC
330
1D1
100
AcDbEntity
  8
APVA21
370
     0
100
AcDb2dPolyline
 66
     1
 10
0.0
 20
0.0
 30
0.0
  0
VERTEX
  5
1DD
330
1DC
100
AcDbEntity
  8
APVA21
370
     0
100
AcDbVertex
100
AcDb2dVertex
 10
325.9869019045891
 20
477.1897879451726
 30
0.0
  0
VERTEX
  5
1DE
330
1DC
100
AcDbEntity
  8
APVA21
370
     0
100
AcDbVertex
100
AcDb2dVertex
 10
325.0387019285427
 20
477.4989879373625
 30
0.0
  0
VERTEX
  5
1DF
330
1DC
100
AcDbEntity
  8
APVA21
370
     0
100
AcDbVertex
100
AcDb2dVertex
 10
325.1655019253394
 20
477.5646879357018
 30
0.0
  0
VERTEX
  5
1E0
330
1DC
100
AcDbEntity
  8
APVA21
370
     0
100
AcDbVertex
100
AcDb2dVertex
 10
326.1137019013859
 20
477.2554983835917
 30
0.0
  0
VERTEX
  5
1E1
330
1DC
100
AcDbEntity
  8
APVA21
370
     0
100
AcDbVertex
100
AcDb2dVertex
 10
325.9869019045891
 20
477.1897879451726
 30
0.0
  0
SEQEND
  5
1E2
330
1DC
100
AcDbEntity
  8
APVA21
370
     0
  0
ENDBLK
  5
1D4
330
1D1
100
AcDbEntity
  8
0
100
AcDbBlockEnd
  0
BLOCK
  5
1E5
330
1E3
100
AcDbEntity
  8
0
100
AcDbBlockBegin
  2
block 22
 70
     0
 10
0.0
 20
0.0
 30
0.0
  3
block 22
  1

  0
POLYLINE
  5
1E7
330
1E3
100
AcDbEntity
  8
APVA21
370
     0
100
AcDb2dPolyline
 66
     1
 10
0.0
 20
0.0
 30
0.0
  0
VERTEX
  5
1E8
330
1E7
100
AcDbEntity
  8
APVA21
370
     0
100
AcDbVertex
100
AcDb2dVertex
 10
324.9384019310764
 20
477.2869879427171
 30
0.0
  0
VERTEX
  5
1E9
330
1E7
100
AcDbEntity
  8
APVA21
370
     0
100
AcDbVertex
100
AcDb2dVertex
 10
324.9293019313063
 20
477.3182879419255
 30
0.0
  0
VERTEX
  5
1EA
330
1E7
100
AcDbEntity
  8
APVA21
370
     0
100
AcDbVertex
100
AcDb2dVertex
 10
326.5144018912633
 20
477.5882879351057
 30
0.0
  0
VERTEX
  5
1EB
330
1E7
100
AcDbEntity
  8
APVA21
370
     0
100
AcDbVertex
100
AcDb2dVertex
 10
326.5235018910334
 20
477.5569879358964
 30
0.0
  0
VERTEX
  5
1EC
330
1E7
100
AcDbEntity
  8
APVA21
370
     0
100
AcDbVertex
100
AcDb2dVertex
 10
324.9384019310764
 20
477.2869879427171
 30
0.0
  0
SEQEND
  5
1ED
330
1E7
100
AcDbEntity
  8
APVA21
370
     0
  0
ENDBLK
  5
1E6
330
1E3
100
AcDbEntity
  8
0
100
AcDbBlockEnd
  0
ENDSEC
  0
SECTION
  2
ENTITIES
  0
INSERT
  5
42
330
1F
100
AcDbEntity
  8
Woods
100
AcDbBlockReference
  2
block 2
 10
0.0
 20
0.0
 30
0.0
  0
INSERT
  5
D0
330
1F
100
AcDbEntity
  8
Woods
100
AcDbBlockReference
  2
block 5
 10
0.0
 20
0.0
 30
0.0
  0
INSERT
  5
156
330
1F
100
AcDbEntity
  8
APVA21
100
AcDbBlockReference
  2
block 8
 10
0.0
 20
0.0
 30
0.0
  0
MTEXT
  5
1F5
330
1F
100
AcDbEntity
  8
Layer 3
 62
   250
420
  2236191
100
AcDbMText
 10
246.3730697631836
 20
269.5482139587402
 30
0.0
 40
8.495999999999999
 41
0.0
 46
0.0
 71
     7
 72
     1
  1
\fHelvetica Neue LT Std 55 Roman|b0|i0|c0|p34;\W1;SIMPSON Strong-Tie\H4.248;®\H8.496; ^C
 73
     1
 44
1.0
  0
MTEXT
  5
1F6
330
1F
100
AcDbEntity
  8
Layer 3
 62
   250
420
  2236191
100
AcDbMText
 10
216.8838119506836
 20
255.1487998962402
 30
0.0
 40
8.495999999999999
 41
0.0
 46
0.0
 71
     7
 72
     1
  1
\fHelvetica Neue LT Std 55 Roman|b0|i0|c0|p34;\W1;APA21 Joist-to-Rafter Installation 
 73
     1
 44
1.0
  0
POLYLINE
  5
1F7
330
1F
100
AcDbEntity
  8
Layer 3
 62
   250
420
  2236191
370
    18
100
AcDb2dPolyline
 66
     1
 10
0.0
 20
0.0
 30
0.0
  0
VERTEX
  5
1F8
330
1F7
100
AcDbEntity
  8
Layer 3
 62
   250
420
  2236191
370
    18
100
AcDbVertex
100
AcDb2dVertex
 10
369.2926008105951
 20
471.1579880975487
 30
0.0
  0
VERTEX
  5
1F9
330
1F7
100
AcDbEntity
  8
Layer 3
 62
   250
420
  2236191
370
    18
100
AcDbVertex
100
AcDb2dVertex
 10
333.1397131562244
 20
473.5934498025836
 30
0.0
  0
SEQEND
  5
1FA
330
1F7
100
AcDbEntity
  8
Layer 3
 62
   250
420
  2236191
370
    18
  0
POLYLINE
  5
1FB
330
1F
100
AcDbEntity
  8
Layer 3
 62
   250
420
  2236191
370
    18
100
AcDb2dPolyline
 66
     1
 10
0.0
 20
0.0
 30
0.0
  0
VERTEX
  5
1FC
330
1FB
100
AcDbEntity
  8
Layer 3
 62
   250
420
  2236191
370
    18
100
AcDbVertex
100
AcDb2dVertex
 10
214.645161290322
 20
562.2207521118744
 30
0.0
  0
VERTEX
  5
1FD
330
1FB
100
AcDbEntity
  8
Layer 3
 62
   250
420
  2236191
370
    18
100
AcDbVertex
100
AcDb2dVertex
 10
273.5591194948438
 20
552.2835860481437
 30
0.0
  0
SEQEND
  5
1FE
330
1FB
100
AcDbEntity
  8
Layer 3
 62
   250
420
  2236191
370
    18
  0
MTEXT
  5
1FF
330
1F
100
AcDbEntity
  8
Layer 3
 62
   250
420
  2236191
100
AcDbMText
 10
376.2239990234375
 20
468.0163955688477
 30
0.0
 40
8.495999999999999
 41
0.0
 46
0.0
 71
     7
 72
     1
  1
\fHelvetica Neue LT Std 57 Condensed|b0|i0|c0|p34;\W1;APA21
 73
     1
 44
1.0
  0
MTEXT
  5
200
330
1F
100
AcDbEntity
  8
Layer 3
 62
   250
420
  2236191
100
AcDbMText
 10
184.8892478942871
 20
559.9582061767578
 30
0.0
 40
8.495999999999999
 41
0.0
 46
0.0
 71
     7
 72
     1
  1
\fHelvetica Neue LT Std 57 Condensed|b0|i0|c0|p34;\W1;Rafter
 73
     1
 44
1.0
  0
MTEXT
  5
201
330
1F
100
AcDbEntity
  8
Layer 3
 62
   250
420
  2236191
100
AcDbMText
 10
183.3005447387695
 20
536.4319458007812
 30
0.0
 40
8.495999999999999
 41
0.0
 46
0.0
 71
     7
 72
     1
  1
\fHelvetica Neue LT Std 57 Condensed|b0|i0|c0|p34;\W1;Joist
 73
     1
 44
1.0
  0
POLYLINE
  5
202
330
1F
100
AcDbEntity
  8
Layer 3
 62
   250
420
  2236191
370
    18
100
AcDb2dPolyline
 66
     1
 10
0.0
 20
0.0
 30
0.0
  0
VERTEX
  5
203
330
202
100
AcDbEntity
  8
Layer 3
 62
   250
420
  2236191
370
    18
100
AcDbVertex
100
AcDb2dVertex
 10
193.5823052494106
 20
533.0971365328342
 30
0.0
  0
VERTEX
  5
204
330
202
100
AcDbEntity
  8
Layer 3
 62
   250
420
  2236191
370
    18
100
AcDbVertex
100
AcDb2dVertex
 10
204.1656794688424
 20
501.4215320364801
 30
0.0
  0
SEQEND
  5
205
330
202
100
AcDbEntity
  8
Layer 3
 62
   250
420
  2236191
370
    18
  0
ENDSEC
  0
SECTION
  2
OBJECTS
  0
DICTIONARY
  5
C
330
0
100
AcDbDictionary
281
     1
  3
ACAD_GROUP
350
D
  3
ACAD_LAYOUT
350
1A
  3
ACAD_MATERIAL
350
3B
  3
ACAD_MLEADERSTYLE
350
207
  3
ACAD_MLINESTYLE
350
17
  3
ACAD_PLOTSETTINGS
350
19
  3
ACAD_PLOTSTYLENAME
350
E
  3
ACAD_TABLESTYLE
350
206
  3
ACAD_VISUALSTYLE
350
2A
  0
SUN
  5
3F
330
29
100
AcDbSun
 90
        1
290
     0
 63
     7
421
 16777215
 40
1.0
291
     1
 91
  2455826
 92
 54000000
292
     0
 70
     2
 71
   256
280
     1
  0
DICTIONARY
  5
D
102
{ACAD_REACTORS
330
C
102
}
330
C
100
AcDbDictionary
281
     1
  0
DICTIONARY
  5
1A
102
{ACAD_REACTORS
330
C
102
}
330
C
100
AcDbDictionary
281
     1
  3
Layout1
350
1E
  3
Layout2
350
26
  3
Model
350
22
  0
DICTIONARY
  5
3B
102
{ACAD_REACTORS
330
C
102
}
330
C
100
AcDbDictionary
281
     1
  3
ByBlock
350
3D
  3
ByLayer
350
3C
  3
Global
350
3E
  0
DICTIONARY
  5
207
102
{ACAD_REACTORS
330
C
102
}
330
C
100
AcDbDictionary
281
     1
  0
DICTIONARY
  5
17
102
{ACAD_REACTORS
330
C
102
}
330
C
100
AcDbDictionary
281
     1
  3
Standard
350
18
  0
DICTIONARY
  5
19
102
{ACAD_REACTORS
330
C
102
}
330
C
100
AcDbDictionary
281
     1
  0
ACDBDICTIONARYWDFLT
  5
E
102
{ACAD_REACTORS
330
C
102
}
330
C
100
AcDbDictionary
281
     1
  3
Normal
350
F
100
AcDbDictionaryWithDefault
340
F
  0
DICTIONARY
  5
206
102
{ACAD_REACTORS
330
C
102
}
330
C
100
AcDbDictionary
281
     1
  0
DICTIONARY
  5
2A
102
{ACAD_REACTORS
330
C
102
}
330
C
100
AcDbDictionary
281
     1
  3
2dWireframe
350
2F
  3
3D Hidden
350
31
  3
3dWireframe
350
30
  3
Basic
350
32
  3
Brighten
350
36
  3
ColorChange
350
3A
  3
Conceptual
350
34
  3
Dim
350
35
  3
Facepattern
350
39
  3
Flat
350
2B
  3
FlatWithEdges
350
2C
  3
Gouraud
350
2D
  3
GouraudWithEdges
350
2E
  3
Linepattern
350
38
  3
Realistic
350
33
  3
Thicken
350
37
  0
LAYOUT
  5
1E
102
{ACAD_REACTORS
330
1A
102
}
330
1A
100
AcDbPlotSettings
  1

  2
none_device
  4

  6

 40
0.0
 41
0.0
 42
0.0
 43
0.0
 44
0.0
 45
0.0
 46
0.0
 47
0.0
 48
0.0
 49
0.0
140
0.0
141
0.0
142
1.0
143
1.0
 70
   688
 72
     0
 73
     0
 74
     5
  7

 75
    16
 76
     0
 77
     2
 78
   300
147
1.0
148
0.0
149
0.0
100
AcDbLayout
  1
Layout1
 70
     1
 71
     1
 10
0.0
 20
0.0
 11
12.0
 21
9.0
 12
0.0
 22
0.0
 32
0.0
 14
1.000000000000000E+20
 24
1.000000000000000E+20
 34
1.000000000000000E+20
 15
-1.000000000000000E+20
 25
-1.000000000000000E+20
 35
-1.000000000000000E+20
146
0.0
 13
0.0
 23
0.0
 33
0.0
 16
1.0
 26
0.0
 36
0.0
 17
0.0
 27
1.0
 37
0.0
 76
     0
330
1B
  0
LAYOUT
  5
26
102
{ACAD_REACTORS
330
1A
102
}
330
1A
100
AcDbPlotSettings
  1

  2
none_device
  4

  6

 40
0.0
 41
0.0
 42
0.0
 43
0.0
 44
0.0
 45
0.0
 46
0.0
 47
0.0
 48
0.0
 49
0.0
140
0.0
141
0.0
142
1.0
143
1.0
 70
   688
 72
     0
 73
     0
 74
     5
  7

 75
    16
 76
     0
 77
     2
 78
   300
147
1.0
148
0.0
149
0.0
100
AcDbLayout
  1
Layout2
 70
     1
 71
     2
 10
0.0
 20
0.0
 11
0.0
 21
0.0
 12
0.0
 22
0.0
 32
0.0
 14
0.0
 24
0.0
 34
0.0
 15
0.0
 25
0.0
 35
0.0
146
0.0
 13
0.0
 23
0.0
 33
0.0
 16
1.0
 26
0.0
 36
0.0
 17
0.0
 27
1.0
 37
0.0
 76
     0
330
23
  0
LAYOUT
  5
22
102
{ACAD_REACTORS
330
1A
102
}
330
1A
100
AcDbPlotSettings
  1

  2
none_device
  4

  6

 40
0.0
 41
0.0
 42
0.0
 43
0.0
 44
0.0
 45
0.0
 46
0.0
 47
0.0
 48
0.0
 49
0.0
140
0.0
141
0.0
142
1.0
143
1.0
 70
  1712
 72
     0
 73
     0
 74
     0
  7

 75
     0
 76
     0
 77
     2
 78
   300
147
1.0
148
0.0
149
0.0
100
AcDbLayout
  1
Model
 70
     1
 71
     0
 10
0.0
 20
0.0
 11
12.0
 21
9.0
 12
0.0
 22
0.0
 32
0.0
 14
1.000000000000000E+20
 24
1.000000000000000E+20
 34
1.000000000000000E+20
 15
-1.000000000000000E+20
 25
-1.000000000000000E+20
 35
-1.000000000000000E+20
146
0.0
 13
0.0
 23
0.0
 33
0.0
 16
1.0
 26
0.0
 36
0.0
 17
0.0
 27
1.0
 37
0.0
 76
     0
330
1F
331
29
  0
MATERIAL
  5
3D
102
{ACAD_REACTORS
330
3B
102
}
330
3B
100
AcDbMaterial
  1
ByBlock
 72
     1
 94
      127
  0
MATERIAL
  5
3C
102
{ACAD_REACTORS
330
3B
102
}
330
3B
100
AcDbMaterial
  1
ByLayer
 72
     1
 94
      127
  0
MATERIAL
  5
3E
102
{ACAD_REACTORS
330
3B
102
}
330
3B
100
AcDbMaterial
  1
Global
 72
     1
 94
      127
  0
MLINESTYLE
  5
18
102
{ACAD_REACTORS
330
17
102
}
330
17
100
AcDbMlineStyle
  2
Standard
 70
     0
  3

 62
   256
 51
90.0
 52
90.0
 71
     2
 49
0.5
 62
   256
  6
BYLAYER
 49
-0.5
 62
   256
  6
BYLAYER
  0
ACDBPLACEHOLDER
  5
F
102
{ACAD_REACTORS
330
E
102
}
330
E
  0
VISUALSTYLE
  5
2F
102
{ACAD_REACTORS
330
2A
102
}
330
2A
100
AcDbVisualStyle
  2
2dWireframe
 70
     4
177
     2
291
     0
 71
     0
176
     1
 72
     2
176
     1
 73
     0
176
     1
 90
        0
176
     1
 40
-0.6
176
     1
 41
-30.0
176
     1
 62
     5
 63
     7
421
 16777215
176
     1
 74
     1
176
     1
 91
        4
176
     1
 64
     7
176
     1
 65
   257
176
     1
 75
     1
176
     1
175
     1
176
     1
 42
1.0
176
     1
 92
        0
176
     1
 66
   257
176
     1
 43
1.0
176
     1
 76
     1
176
     1
 77
     6
176
     1
 78
     2
176
     1
 67
     7
176
     1
 79
     5
176
     1
170
     0
176
     1
171
     0
176
     1
290
     0
176
     1
 93
        1
176
     1
 44
0.0
176
     1
173
     0
176
     1
  0
VISUALSTYLE
  5
31
102
{ACAD_REACTORS
330
2A
102
}
330
2A
100
AcDbVisualStyle
  2
3D Hidden
 70
     6
177
     2
291
     0
 71
     1
176
     1
 72
     2
176
     1
 73
     2
176
     1
 90
        0
176
     1
 40
-0.6
176
     1
 41
-30.0
176
     1
 62
     5
 63
     7
421
 16777215
176
     1
 74
     2
176
     1
 91
        2
176
     1
 64
     7
176
     1
 65
   257
176
     1
 75
     2
176
     1
175
     1
176
     1
 42
40.0
176
     1
 92
        0
176
     1
 66
   257
176
     1
 43
1.0
176
     1
 76
     1
176
     1
 77
     6
176
     1
 78
     2
176
     1
 67
     7
176
     1
 79
     3
176
     1
170
     0
176
     1
171
     0
176
     1
290
     0
176
     1
 93
        1
176
     1
 44
0.0
176
     1
173
     0
176
     1
  0
VISUALSTYLE
  5
30
102
{ACAD_REACTORS
330
2A
102
}
330
2A
100
AcDbVisualStyle
  2
3dWireframe
 70
     5
177
     2
291
     0
 71
     0
176
     1
 72
     2
176
     1
 73
     0
176
     1
 90
        0
176
     1
 40
-0.6
176
     1
 41
-30.0
176
     1
 62
     5
 63
     7
421
 16777215
176
     1
 74
     1
176
     1
 91
        4
176
     1
 64
     7
176
     1
 65
   257
176
     1
 75
     1
176
     1
175
     1
176
     1
 42
1.0
176
     1
 92
        0
176
     1
 66
   257
176
     1
 43
1.0
176
     1
 76
     1
176
     1
 77
     6
176
     1
 78
     2
176
     1
 67
     7
176
     1
 79
     5
176
     1
170
     0
176
     1
171
     0
176
     1
290
     0
176
     1
 93
        1
176
     1
 44
0.0
176
     1
173
     0
176
     1
  0
VISUALSTYLE
  5
32
102
{ACAD_REACTORS
330
2A
102
}
330
2A
100
AcDbVisualStyle
  2
Basic
 70
     7
177
     2
291
     1
 71
     1
176
     1
 72
     0
176
     1
 73
     1
176
     1
 90
        0
176
     1
 40
-0.6
176
     1
 41
-30.0
176
     1
 62
     5
 63
     7
421
 16777215
176
     1
 74
     0
176
     1
 91
        4
176
     1
 64
     7
176
     1
 65
   257
176
     1
 75
     1
176
     1
175
     1
176
     1
 42
1.0
176
     1
 92
        8
176
     1
 66
     7
176
     1
 43
1.0
176
     1
 76
     1
176
     1
 77
     6
176
     1
 78
     2
176
     1
 67
     7
176
     1
 79
     5
176
     1
170
     0
176
     1
171
     0
176
     1
290
     0
176
     1
 93
        1
176
     1
 44
0.0
176
     1
173
     0
176
     1
  0
VISUALSTYLE
  5
36
102
{ACAD_REACTORS
330
2A
102
}
330
2A
100
AcDbVisualStyle
  2
Brighten
 70
    12
177
     2
291
     1
 71
     2
176
     1
 72
     2
176
     1
 73
     0
176
     1
 90
        0
176
     1
 40
-0.6
176
     1
 41
-30.0
176
     1
 62
     5
 63
     7
421
 16777215
176
     1
 74
     1
176
     1
 91
        4
176
     1
 64
     7
176
     1
 65
   257
176
     1
 75
     1
176
     1
175
     1
176
     1
 42
1.0
176
     1
 92
        8
176
     1
 66
     7
176
     1
 43
1.0
176
     1
 76
     1
176
     1
 77
     6
176
     1
 78
     2
176
     1
 67
     7
176
     1
 79
     5
176
     1
170
     0
176
     1
171
     0
176
     1
290
     0
176
     1
 93
        1
176
     1
 44
50.0
176
     1
173
     0
176
     1
  0
VISUALSTYLE
  5
3A
102
{ACAD_REACTORS
330
2A
102
}
330
2A
100
AcDbVisualStyle
  2
ColorChange
 70
    16
177
     2
291
     1
 71
     2
176
     1
 72
     2
176
     1
 73
     3
176
     1
 90
        0
176
     1
 40
-0.6
176
     1
 41
-30.0
176
     1
 62
     5
 63
     8
421
  8421504
176
     1
 74
     1
176
     1
 91
        4
176
     1
 64
     7
176
     1
 65
   257
176
     1
 75
     1
176
     1
175
     1
176
     1
 42
1.0
176
     1
 92
        8
176
     1
 66
     8
424
  8421504
176
     1
 43
1.0
176
     1
 76
     1
176
     1
 77
     6
176
     1
 78
     2
176
     1
 67
     7
176
     1
 79
     5
176
     1
170
     0
176
     1
171
     0
176
     1
290
     0
176
     1
 93
        1
176
     1
 44
0.0
176
     1
173
     0
176
     1
  0
VISUALSTYLE
  5
34
102
{ACAD_REACTORS
330
2A
102
}
330
2A
100
AcDbVisualStyle
  2
Conceptual
 70
     9
177
     2
291
     0
 71
     3
176
     1
 72
     2
176
     1
 73
     0
176
     1
 90
        0
176
     1
 40
-0.6
176
     1
 41
-30.0
176
     1
 62
     5
 63
     7
421
 16777215
176
     1
 74
     2
176
     1
 91
        2
176
     1
 64
     7
176
     1
 65
   257
176
     1
 75
     1
176
     1
175
     1
176
     1
 42
40.0
176
     1
 92
        8
176
     1
 66
     7
176
     1
 43
1.0
176
     1
 76
     1
176
     1
 77
     6
176
     1
 78
     2
176
     1
 67
     7
176
     1
 79
     3
176
     1
170
     0
176
     1
171
     0
176
     1
290
     0
176
     1
 93
        1
176
     1
 44
0.0
176
     1
173
     0
176
     1
  0
VISUALSTYLE
  5
35
102
{ACAD_REACTORS
330
2A
102
}
330
2A
100
AcDbVisualStyle
  2
Dim
 70
    11
177
     2
291
     1
 71
     2
176
     1
 72
     2
176
     1
 73
     0
176
     1
 90
        0
176
     1
 40
-0.6
176
     1
 41
-30.0
176
     1
 62
     5
 63
     7
421
 16777215
176
     1
 74
     1
176
     1
 91
        4
176
     1
 64
     7
176
     1
 65
   257
176
     1
 75
     1
176
     1
175
     1
176
     1
 42
1.0
176
     1
 92
        8
176
     1
 66
     7
176
     1
 43
1.0
176
     1
 76
     1
176
     1
 77
     6
176
     1
 78
     2
176
     1
 67
     7
176
     1
 79
     5
176
     1
170
     0
176
     1
171
     0
176
     1
290
     0
176
     1
 93
        1
176
     1
 44
-50.0
176
     1
173
     0
176
     1
  0
VISUALSTYLE
  5
39
102
{ACAD_REACTORS
330
2A
102
}
330
2A
100
AcDbVisualStyle
  2
Facepattern
 70
    15
177
     2
291
     1
 71
     2
176
     1
 72
     2
176
     1
 73
     0
176
     1
 90
        0
176
     1
 40
-0.6
176
     1
 41
-30.0
176
     1
 62
     5
 63
     7
421
 16777215
176
     1
 74
     1
176
     1
 91
        4
176
     1
 64
     7
176
     1
 65
   257
176
     1
 75
     1
176
     1
175
     1
176
     1
 42
1.0
176
     1
 92
        8
176
     1
 66
     7
176
     1
 43
1.0
176
     1
 76
     1
176
     1
 77
     6
176
     1
 78
     2
176
     1
 67
     7
176
     1
 79
     5
176
     1
170
     0
176
     1
171
     0
176
     1
290
     0
176
     1
 93
        1
176
     1
 44
0.0
176
     1
173
     0
176
     1
  0
VISUALSTYLE
  5
2B
102
{ACAD_REACTORS
330
2A
102
}
330
2A
100
AcDbVisualStyle
  2
Flat
 70
     0
177
     2
291
     1
 71
     2
176
     1
 72
     1
176
     1
 73
     1
176
     1
 90
        2
176
     1
 40
-0.6
176
     1
 41
30.0
176
     1
 62
     5
 63
     7
421
 16777215
176
     1
 74
     0
176
     1
 91
        4
176
     1
 64
     7
176
     1
 65
   257
176
     1
 75
     1
176
     1
175
     1
176
     1
 42
1.0
176
     1
 92
        8
176
     1
 66
     7
176
     1
 43
1.0
176
     1
 76
     1
176
     1
 77
     6
176
     1
 78
     2
176
     1
 67
     7
176
     1
 79
     5
176
     1
170
     0
176
     1
171
     0
176
     1
290
     0
176
     1
 93
       13
176
     1
 44
0.0
176
     1
173
     0
176
     1
  0
VISUALSTYLE
  5
2C
102
{ACAD_REACTORS
330
2A
102
}
330
2A
100
AcDbVisualStyle
  2
FlatWithEdges
 70
     1
177
     2
291
     1
 71
     2
176
     1
 72
     1
176
     1
 73
     1
176
     1
 90
        2
176
     1
 40
-0.6
176
     1
 41
30.0
176
     1
 62
     5
 63
     7
421
 16777215
176
     1
 74
     1
176
     1
 91
        4
176
     1
 64
     7
176
     1
 65
   257
176
     1
 75
     1
176
     1
175
     1
176
     1
 42
1.0
176
     1
 92
        0
176
     1
 66
   257
176
     1
 43
1.0
176
     1
 76
     1
176
     1
 77
     6
176
     1
 78
     2
176
     1
 67
     7
176
     1
 79
     5
176
     1
170
     0
176
     1
171
     0
176
     1
290
     0
176
     1
 93
       13
176
     1
 44
0.0
176
     1
173
     0
176
     1
  0
VISUALSTYLE
  5
2D
102
{ACAD_REACTORS
330
2A
102
}
330
2A
100
AcDbVisualStyle
  2
Gouraud
 70
     2
177
     2
291
     1
 71
     2
176
     1
 72
     2
176
     1
 73
     1
176
     1
 90
        2
176
     1
 40
-0.6
176
     1
 41
30.0
176
     1
 62
     5
 63
     7
421
 16777215
176
     1
 74
     0
176
     1
 91
        4
176
     1
 64
     7
176
     1
 65
   257
176
     1
 75
     1
176
     1
175
     1
176
     1
 42
1.0
176
     1
 92
        0
176
     1
 66
     7
176
     1
 43
1.0
176
     1
 76
     1
176
     1
 77
     6
176
     1
 78
     2
176
     1
 67
     7
176
     1
 79
     5
176
     1
170
     0
176
     1
171
     0
176
     1
290
     0
176
     1
 93
       13
176
     1
 44
0.0
176
     1
173
     0
176
     1
  0
VISUALSTYLE
  5
2E
102
{ACAD_REACTORS
330
2A
102
}
330
2A
100
AcDbVisualStyle
  2
GouraudWithEdges
 70
     3
177
     2
291
     1
 71
     2
176
     1
 72
     2
176
     1
 73
     1
176
     1
 90
        2
176
     1
 40
-0.6
176
     1
 41
30.0
176
     1
 62
     5
 63
     7
421
 16777215
176
     1
 74
     1
176
     1
 91
        4
176
     1
 64
     7
176
     1
 65
   257
176
     1
 75
     1
176
     1
175
     1
176
     1
 42
1.0
176
     1
 92
        0
176
     1
 66
   257
176
     1
 43
1.0
176
     1
 76
     1
176
     1
 77
     6
176
     1
 78
     2
176
     1
 67
     7
176
     1
 79
     5
176
     1
170
     0
176
     1
171
     0
176
     1
290
     0
176
     1
 93
       13
176
     1
 44
0.0
176
     1
173
     0
176
     1
  0
VISUALSTYLE
  5
38
102
{ACAD_REACTORS
330
2A
102
}
330
2A
100
AcDbVisualStyle
  2
Linepattern
 70
    14
177
     2
291
     1
 71
     2
176
     1
 72
     2
176
     1
 73
     0
176
     1
 90
        0
176
     1
 40
-0.6
176
     1
 41
-30.0
176
     1
 62
     5
 63
     7
421
 16777215
176
     1
 74
     1
176
     1
 91
        4
176
     1
 64
     7
176
     1
 65
   257
176
     1
 75
     7
176
     1
175
     7
176
     1
 42
1.0
176
     1
 92
        8
176
     1
 66
     7
176
     1
 43
1.0
176
     1
 76
     1
176
     1
 77
     6
176
     1
 78
     2
176
     1
 67
     7
176
     1
 79
     5
176
     1
170
     0
176
     1
171
     0
176
     1
290
     0
176
     1
 93
        1
176
     1
 44
0.0
176
     1
173
     0
176
     1
  0
VISUALSTYLE
  5
33
102
{ACAD_REACTORS
330
2A
102
}
330
2A
100
AcDbVisualStyle
  2
Realistic
 70
     8
177
     2
291
     0
 71
     2
176
     1
 72
     2
176
     1
 73
     0
176
     1
 90
        0
176
     1
 40
-0.6
176
     1
 41
-30.0
176
     1
 62
     5
 63
     7
421
 16777215
176
     1
 74
     1
176
     1
 91
        0
176
     1
 64
     7
176
     1
 65
   257
176
     1
 75
     1
176
     1
175
     1
176
     1
 42
1.0
176
     1
 92
        8
176
     1
 66
     8
424
  7895160
176
     1
 43
1.0
176
     1
 76
     1
176
     1
 77
     6
176
     1
 78
     2
176
     1
 67
     7
176
     1
 79
     5
176
     1
170
     0
176
     1
171
     0
176
     1
290
     0
176
     1
 93
       13
176
     1
 44
0.0
176
     1
173
     0
176
     1
  0
VISUALSTYLE
  5
37
102
{ACAD_REACTORS
330
2A
102
}
330
2A
100
AcDbVisualStyle
  2
Thicken
 70
    13
177
     2
291
     1
 71
     2
176
     1
 72
     2
176
     1
 73
     0
176
     1
 90
        0
176
     1
 40
-0.6
176
     1
 41
-30.0
176
     1
 62
     5
 63
     7
421
 16777215
176
     1
 74
     1
176
     1
 91
        4
176
     1
 64
     7
176
     1
 65
   257
176
     1
 75
     1
176
     1
175
     1
176
     1
 42
1.0
176
     1
 92
       12
176
     1
 66
     7
176
     1
 43
1.0
176
     1
 76
     1
176
     1
 77
     6
176
     1
 78
     2
176
     1
 67
     7
176
     1
 79
     5
176
     1
170
     0
176
     1
171
     0
176
     1
290
     0
176
     1
 93
        1
176
     1
 44
0.0
176
     1
173
     0
176
     1
  0
ENDSEC
  0
EOF
