  0
SECTION
  2
HEADER
  9
$ACADVER
  1
AC1024
  9
$ACADMAINTVER
 70
     6
  9
$DWGCODEPAGE
  3
ANSI_1252
  9
$INSBASE
 10
0.0
 20
0.0
 30
0.0
  9
$EXTMIN
 10
1.000000000000000E+20
 20
1.000000000000000E+20
 30
1.000000000000000E+20
  9
$EXTMAX
 10
-1.000000000000000E+20
 20
-1.000000000000000E+20
 30
-1.000000000000000E+20
  9
$LIMMIN
 10
0.0
 20
0.0
  9
$LIMMAX
 10
12.0
 20
9.0
  9
$ORTHOMODE
 70
     0
  9
$REGENMODE
 70
     1
  9
$FILLMODE
 70
     1
  9
$QTEXTMODE
 70
     0
  9
$MIRRTEXT
 70
     1
  9
$LTSCALE
 40
1.0
  9
$ATTMODE
 70
     1
  9
$TEXTSIZE
 40
0.2
  9
$TRACEWID
 40
0.05
  9
$TEXTSTYLE
  7
Standard
  9
$CLAYER
  8
0
  9
$CELTYPE
  6
ByLayer
  9
$CECOLOR
 62
   256
  9
$CELTSCALE
 40
1.0
  9
$DISPSILH
 70
     0
  9
$DIMSCALE
 40
1.0
  9
$DIMASZ
 40
0.18
  9
$DIMEXO
 40
0.0625
  9
$DIMDLI
 40
0.38
  9
$DIMRND
 40
0.0
  9
$DIMDLE
 40
0.0
  9
$DIMEXE
 40
0.18
  9
$DIMTP
 40
0.0
  9
$DIMTM
 40
0.0
  9
$DIMTXT
 40
0.18
  9
$DIMCEN
 40
0.09
  9
$DIMTSZ
 40
0.0
  9
$DIMTOL
 70
     0
  9
$DIMLIM
 70
     0
  9
$DIMTIH
 70
     1
  9
$DIMTOH
 70
     1
  9
$DIMSE1
 70
     0
  9
$DIMSE2
 70
     0
  9
$DIMTAD
 70
     0
  9
$DIMZIN
 70
     0
  9
$DIMBLK
  1

  9
$DIMASO
 70
     1
  9
$DIMSHO
 70
     1
  9
$DIMPOST
  1

  9
$DIMAPOST
  1

  9
$DIMALT
 70
     0
  9
$DIMALTD
 70
     2
  9
$DIMALTF
 40
25.4
  9
$DIMLFAC
 40
1.0
  9
$DIMTOFL
 70
     0
  9
$DIMTVP
 40
0.0
  9
$DIMTIX
 70
     0
  9
$DIMSOXD
 70
     0
  9
$DIMSAH
 70
     0
  9
$DIMBLK1
  1

  9
$DIMBLK2
  1

  9
$DIMSTYLE
  2
Standard
  9
$DIMCLRD
 70
     0
  9
$DIMCLRE
 70
     0
  9
$DIMCLRT
 70
     0
  9
$DIMTFAC
 40
1.0
  9
$DIMGAP
 40
0.09
  9
$DIMJUST
 70
     0
  9
$DIMSD1
 70
     0
  9
$DIMSD2
 70
     0
  9
$DIMTOLJ
 70
     1
  9
$DIMTZIN
 70
     0
  9
$DIMALTZ
 70
     0
  9
$DIMALTTZ
 70
     0
  9
$DIMUPT
 70
     0
  9
$DIMDEC
 70
     4
  9
$DIMTDEC
 70
     4
  9
$DIMALTU
 70
     2
  9
$DIMALTTD
 70
     2
  9
$DIMTXSTY
  7
Standard
  9
$DIMAUNIT
 70
     0
  9
$DIMADEC
 70
     0
  9
$DIMALTRND
 40
0.0
  9
$DIMAZIN
 70
     0
  9
$DIMDSEP
 70
    46
  9
$DIMATFIT
 70
     3
  9
$DIMFRAC
 70
     0
  9
$DIMLDRBLK
  1

  9
$DIMLUNIT
 70
     2
  9
$DIMLWD
 70
    -2
  9
$DIMLWE
 70
    -2
  9
$DIMTMOVE
 70
     0
  9
$DIMFXL
 40
1.0
  9
$DIMFXLON
 70
     0
  9
$DIMJOGANG
 40
0.7853981633974483
  9
$DIMTFILL
 70
     0
  9
$DIMTFILLCLR
 70
     0
  9
$DIMARCSYM
 70
     0
  9
$DIMLTYPE
  6

  9
$DIMLTEX1
  6

  9
$DIMLTEX2
  6

  9
$DIMTXTDIRECTION
 70
     0
  9
$LUNITS
 70
     2
  9
$LUPREC
 70
     4
  9
$SKETCHINC
 40
0.1
  9
$FILLETRAD
 40
0.5
  9
$AUNITS
 70
     0
  9
$AUPREC
 70
     0
  9
$MENU
  1
.
  9
$ELEVATION
 40
0.0
  9
$PELEVATION
 40
0.0
  9
$THICKNESS
 40
0.0
  9
$LIMCHECK
 70
     0
  9
$CHAMFERA
 40
0.5
  9
$CHAMFERB
 40
0.5
  9
$CHAMFERC
 40
1.0
  9
$CHAMFERD
 40
0.0
  9
$SKPOLY
 70
     0
  9
$TDCREATE
 40
2458857.900776991
  9
$TDUCREATE
 40
2458857.359110324
  9
$TDUPDATE
 40
2458857.900777257
  9
$TDUUPDATE
 40
2458857.35911059
  9
$TDINDWG
 40
0.0000000116
  9
$TDUSRTIMER
 40
0.0000000116
  9
$USRTIMER
 70
     1
  9
$ANGBASE
 50
0.0
  9
$ANGDIR
 70
     0
  9
$PDMODE
 70
     0
  9
$PDSIZE
 40
0.0
  9
$PLINEWID
 40
0.0
  9
$SPLFRAME
 70
     0
  9
$SPLINETYPE
 70
     6
  9
$SPLINESEGS
 70
     8
  9
$HANDSEED
  5
2A1
  9
$SURFTAB1
 70
     6
  9
$SURFTAB2
 70
     6
  9
$SURFTYPE
 70
     6
  9
$SURFU
 70
     6
  9
$SURFV
 70
     6
  9
$UCSBASE
  2

  9
$UCSNAME
  2

  9
$UCSORG
 10
0.0
 20
0.0
 30
0.0
  9
$UCSXDIR
 10
1.0
 20
0.0
 30
0.0
  9
$UCSYDIR
 10
0.0
 20
1.0
 30
0.0
  9
$UCSORTHOREF
  2

  9
$UCSORTHOVIEW
 70
     0
  9
$UCSORGTOP
 10
0.0
 20
0.0
 30
0.0
  9
$UCSORGBOTTOM
 10
0.0
 20
0.0
 30
0.0
  9
$UCSORGLEFT
 10
0.0
 20
0.0
 30
0.0
  9
$UCSORGRIGHT
 10
0.0
 20
0.0
 30
0.0
  9
$UCSORGFRONT
 10
0.0
 20
0.0
 30
0.0
  9
$UCSORGBACK
 10
0.0
 20
0.0
 30
0.0
  9
$PUCSBASE
  2

  9
$PUCSNAME
  2

  9
$PUCSORG
 10
0.0
 20
0.0
 30
0.0
  9
$PUCSXDIR
 10
1.0
 20
0.0
 30
0.0
  9
$PUCSYDIR
 10
0.0
 20
1.0
 30
0.0
  9
$PUCSORTHOREF
  2

  9
$PUCSORTHOVIEW
 70
     0
  9
$PUCSORGTOP
 10
0.0
 20
0.0
 30
0.0
  9
$PUCSORGBOTTOM
 10
0.0
 20
0.0
 30
0.0
  9
$PUCSORGLEFT
 10
0.0
 20
0.0
 30
0.0
  9
$PUCSORGRIGHT
 10
0.0
 20
0.0
 30
0.0
  9
$PUCSORGFRONT
 10
0.0
 20
0.0
 30
0.0
  9
$PUCSORGBACK
 10
0.0
 20
0.0
 30
0.0
  9
$USERI1
 70
     0
  9
$USERI2
 70
     0
  9
$USERI3
 70
     0
  9
$USERI4
 70
     0
  9
$USERI5
 70
     0
  9
$USERR1
 40
0.0
  9
$USERR2
 40
0.0
  9
$USERR3
 40
0.0
  9
$USERR4
 40
0.0
  9
$USERR5
 40
0.0
  9
$WORLDVIEW
 70
     1
  9
$SHADEDGE
 70
     3
  9
$SHADEDIF
 70
    70
  9
$TILEMODE
 70
     1
  9
$MAXACTVP
 70
    64
  9
$PINSBASE
 10
0.0
 20
0.0
 30
0.0
  9
$PLIMCHECK
 70
     0
  9
$PEXTMIN
 10
1.000000000000000E+20
 20
1.000000000000000E+20
 30
1.000000000000000E+20
  9
$PEXTMAX
 10
-1.000000000000000E+20
 20
-1.000000000000000E+20
 30
-1.000000000000000E+20
  9
$PLIMMIN
 10
0.0
 20
0.0
  9
$PLIMMAX
 10
12.0
 20
9.0
  9
$UNITMODE
 70
     0
  9
$VISRETAIN
 70
     1
  9
$PLINEGEN
 70
     0
  9
$PSLTSCALE
 70
     1
  9
$TREEDEPTH
 70
  3020
  9
$CMLSTYLE
  2
Standard
  9
$CMLJUST
 70
     0
  9
$CMLSCALE
 40
1.0
  9
$PROXYGRAPHICS
 70
     1
  9
$MEASUREMENT
 70
     0
  9
$CELWEIGHT
370
    -1
  9
$ENDCAPS
280
     0
  9
$JOINSTYLE
280
     0
  9
$LWDISPLAY
290
     1
  9
$INSUNITS
 70
     0
  9
$HYPERLINKBASE
  1

  9
$STYLESHEET
  1

  9
$XEDIT
290
     1
  9
$CEPSNTYPE
380
     0
  9
$PSTYLEMODE
290
     1
  9
$FINGERPRINTGUID
  2
{790AAD2B-0CF2-486D-ADC5-C5F802A40C37}
  9
$VERSIONGUID
  2
{FAEB1C32-E019-11D5-929B-00C0DF256EC4}
  9
$EXTNAMES
290
     1
  9
$PSVPSCALE
 40
0.0
  9
$OLESTARTUP
290
     0
  9
$SORTENTS
280
   127
  9
$INDEXCTL
280
     0
  9
$HIDETEXT
280
     1
  9
$XCLIPFRAME
280
     2
  9
$HALOGAP
280
     0
  9
$OBSCOLOR
 70
   257
  9
$OBSLTYPE
280
     0
  9
$INTERSECTIONDISPLAY
280
     0
  9
$INTERSECTIONCOLOR
 70
   257
  9
$DIMASSOC
280
     2
  9
$PROJECTNAME
  1

  9
$CAMERADISPLAY
290
     0
  9
$LENSLENGTH
 40
50.0
  9
$CAMERAHEIGHT
 40
0.0
  9
$STEPSPERSEC
 40
2.0
  9
$STEPSIZE
 40
6.0
  9
$3DDWFPREC
 40
2.0
  9
$PSOLWIDTH
 40
0.25
  9
$PSOLHEIGHT
 40
4.0
  9
$LOFTANG1
 40
1.570796326794897
  9
$LOFTANG2
 40
1.570796326794897
  9
$LOFTMAG1
 40
0.0
  9
$LOFTMAG2
 40
0.0
  9
$LOFTPARAM
 70
     7
  9
$LOFTNORMALS
280
     1
  9
$LATITUDE
 40
37.795
  9
$LONGITUDE
 40
-122.394
  9
$NORTHDIRECTION
 40
0.0
  9
$TIMEZONE
 70
 -8000
  9
$LIGHTGLYPHDISPLAY
280
     1
  9
$TILEMODELIGHTSYNCH
280
     1
  9
$CMATERIAL
347
3C
  9
$SOLIDHIST
280
     1
  9
$SHOWHIST
280
     1
  9
$DWFFRAME
280
     2
  9
$DGNFRAME
280
     2
  9
$REALWORLDSCALE
290
     1
  9
$INTERFERECOLOR
 62
   256
  9
$CSHADOW
280
     0
  9
$SHADOWPLANELOCATION
 40
0.0
  0
ENDSEC
  0
SECTION
  2
CLASSES
  0
CLASS
  1
ACDBDICTIONARYWDFLT
  2
AcDbDictionaryWithDefault
  3
ObjectDBX Classes
 90
        0
 91
        4
280
     0
281
     0
  0
CLASS
  1
VISUALSTYLE
  2
AcDbVisualStyle
  3
ObjectDBX Classes
 90
     4095
 91
        4
280
     0
281
     0
  0
CLASS
  1
MATERIAL
  2
AcDbMaterial
  3
ObjectDBX Classes
 90
     1153
 91
        4
280
     0
281
     0
  0
CLASS
  1
SUN
  2
AcDbSun
  3
SCENEOE
 90
     1024
 91
        4
280
     0
281
     0
  0
ENDSEC
  0
SECTION
  2
TABLES
  0
TABLE
  2
VPORT
  5
8
330
0
100
AcDbSymbolTable
 70
     1
  0
VPORT
  5
29
330
8
100
AcDbSymbolTableRecord
100
AcDbViewportTableRecord
  2
*Active
 70
     0
 10
0.0
 20
0.0
 11
1.0
 21
1.0
 12
0.0
 22
0.0
 13
0.0
 23
0.0
 14
0.5
 24
0.5
 15
0.5
 25
0.5
 16
0.0
 26
0.0
 36
1.0
 17
421.0074890537599
 27
317.6891549402535
 37
0.0
 40
841.8897637795271
 41
0.7070707070707065
 42
50.0
 43
0.0
 44
0.0
 50
0.0
 51
0.0
 71
     0
 72
   100
 73
     1
 74
     3
 75
     0
 76
     0
 77
     0
 78
     0
281
     0
 65
     1
110
0.0
120
0.0
130
0.0
111
1.0
121
0.0
131
0.0
112
0.0
122
1.0
132
0.0
 79
     0
146
0.0
 60
     3
 61
     5
292
     1
282
     1
141
0.0
142
0.0
 63
   250
361
3F
  0
ENDTAB
  0
TABLE
  2
LTYPE
  5
5
330
0
100
AcDbSymbolTable
 70
     1
  0
LTYPE
  5
14
330
5
100
AcDbSymbolTableRecord
100
AcDbLinetypeTableRecord
  2
ByBlock
 70
     0
  3

 72
    65
 73
     0
 40
0.0
  0
LTYPE
  5
15
330
5
100
AcDbSymbolTableRecord
100
AcDbLinetypeTableRecord
  2
ByLayer
 70
     0
  3

 72
    65
 73
     0
 40
0.0
  0
LTYPE
  5
16
330
5
100
AcDbSymbolTableRecord
100
AcDbLinetypeTableRecord
  2
Continuous
 70
     0
  3
Solid line
 72
    65
 73
     0
 40
0.0
  0
ENDTAB
  0
TABLE
  2
LAYER
  5
2
330
0
100
AcDbSymbolTable
 70
     4
  0
LAYER
  5
10
330
2
100
AcDbSymbolTableRecord
100
AcDbLayerTableRecord
  2
0
 70
     0
 62
     7
  6
Continuous
370
    -3
390
F
347
3E
  0
LAYER
  5
40
330
2
100
AcDbSymbolTableRecord
100
AcDbLayerTableRecord
  2
Layer 2
 70
     0
 62
     7
  6
Continuous
370
    -3
390
F
347
3E
  0
LAYER
  5
134
330
2
100
AcDbSymbolTableRecord
100
AcDbLayerTableRecord
  2
Layer 3
 70
     0
 62
     7
  6
Continuous
370
    -3
390
F
347
3E
  0
LAYER
  5
28D
330
2
100
AcDbSymbolTableRecord
100
AcDbLayerTableRecord
  2
Layer 4
 70
     0
 62
     7
  6
Continuous
370
    -3
390
F
347
3E
  0
ENDTAB
  0
TABLE
  2
STYLE
  5
3
330
0
100
AcDbSymbolTable
 70
     1
  0
STYLE
  5
11
330
3
100
AcDbSymbolTableRecord
100
AcDbTextStyleTableRecord
  2
Standard
 70
     0
 40
0.0
 41
1.0
 50
0.0
 71
     0
 42
0.2
  3
txt
  4

  0
ENDTAB
  0
TABLE
  2
VIEW
  5
6
330
0
100
AcDbSymbolTable
 70
     0
  0
ENDTAB
  0
TABLE
  2
UCS
  5
7
330
0
100
AcDbSymbolTable
 70
     0
  0
ENDTAB
  0
TABLE
  2
APPID
  5
9
330
0
100
AcDbSymbolTable
 70
     1
  0
APPID
  5
12
330
9
100
AcDbSymbolTableRecord
100
AcDbRegAppTableRecord
  2
ACAD
 70
     0
  0
ENDTAB
  0
TABLE
  2
DIMSTYLE
  5
A
330
0
100
AcDbSymbolTable
 70
     1
100
AcDbDimStyleTable
  0
DIMSTYLE
105
27
330
A
100
AcDbSymbolTableRecord
100
AcDbDimStyleTableRecord
  2
Standard
 70
     0
178
     0
340
11
  0
ENDTAB
  0
TABLE
  2
BLOCK_RECORD
  5
1
330
0
100
AcDbSymbolTable
 70
    36
  0
BLOCK_RECORD
  5
1F
330
1
100
AcDbSymbolTableRecord
100
AcDbBlockTableRecord
  2
*Model_Space
340
22
 70
     0
280
     1
281
     0
  0
BLOCK_RECORD
  5
1B
330
1
100
AcDbSymbolTableRecord
100
AcDbBlockTableRecord
  2
*Paper_Space
340
1E
 70
     0
280
     1
281
     0
  0
BLOCK_RECORD
  5
23
330
1
100
AcDbSymbolTableRecord
100
AcDbBlockTableRecord
  2
*Paper_Space0
340
26
 70
     0
280
     1
281
     0
  0
BLOCK_RECORD
  5
41
330
1
100
AcDbSymbolTableRecord
100
AcDbBlockTableRecord
  2
block 2
340
0
102
{BLKREFS
331
42
102
}
 70
     0
280
     1
281
     0
  0
BLOCK_RECORD
  5
45
330
1
100
AcDbSymbolTableRecord
100
AcDbBlockTableRecord
  2
block 3
340
0
102
{BLKREFS
331
46
102
}
 70
     0
280
     1
281
     0
  0
BLOCK_RECORD
  5
5B
330
1
100
AcDbSymbolTableRecord
100
AcDbBlockTableRecord
  2
block 4
340
0
102
{BLKREFS
331
5C
102
}
 70
     0
280
     1
281
     0
  0
BLOCK_RECORD
  5
63
330
1
100
AcDbSymbolTableRecord
100
AcDbBlockTableRecord
  2
block 5
340
0
102
{BLKREFS
331
64
102
}
 70
     0
280
     1
281
     0
  0
BLOCK_RECORD
  5
6B
330
1
100
AcDbSymbolTableRecord
100
AcDbBlockTableRecord
  2
block 6
340
0
102
{BLKREFS
331
6C
102
}
 70
     0
280
     1
281
     0
  0
BLOCK_RECORD
  5
73
330
1
100
AcDbSymbolTableRecord
100
AcDbBlockTableRecord
  2
block 7
340
0
102
{BLKREFS
331
74
102
}
 70
     0
280
     1
281
     0
  0
BLOCK_RECORD
  5
7B
330
1
100
AcDbSymbolTableRecord
100
AcDbBlockTableRecord
  2
block 8
340
0
102
{BLKREFS
331
7C
102
}
 70
     0
280
     1
281
     0
  0
BLOCK_RECORD
  5
88
330
1
100
AcDbSymbolTableRecord
100
AcDbBlockTableRecord
  2
block 9
340
0
102
{BLKREFS
331
89
102
}
 70
     0
280
     1
281
     0
  0
BLOCK_RECORD
  5
C9
330
1
100
AcDbSymbolTableRecord
100
AcDbBlockTableRecord
  2
block 10
340
0
102
{BLKREFS
331
CA
102
}
 70
     0
280
     1
281
     0
  0
BLOCK_RECORD
  5
CD
330
1
100
AcDbSymbolTableRecord
100
AcDbBlockTableRecord
  2
block 11
340
0
102
{BLKREFS
331
CE
102
}
 70
     0
280
     1
281
     0
  0
BLOCK_RECORD
  5
DF
330
1
100
AcDbSymbolTableRecord
100
AcDbBlockTableRecord
  2
block 12
340
0
102
{BLKREFS
331
E0
102
}
 70
     0
280
     1
281
     0
  0
BLOCK_RECORD
  5
E7
330
1
100
AcDbSymbolTableRecord
100
AcDbBlockTableRecord
  2
block 13
340
0
102
{BLKREFS
331
E8
102
}
 70
     0
280
     1
281
     0
  0
BLOCK_RECORD
  5
F2
330
1
100
AcDbSymbolTableRecord
100
AcDbBlockTableRecord
  2
block 14
340
0
102
{BLKREFS
331
F3
102
}
 70
     0
280
     1
281
     0
  0
BLOCK_RECORD
  5
FB
330
1
100
AcDbSymbolTableRecord
100
AcDbBlockTableRecord
  2
block 15
340
0
102
{BLKREFS
331
FC
102
}
 70
     0
280
     1
281
     0
  0
BLOCK_RECORD
  5
103
330
1
100
AcDbSymbolTableRecord
100
AcDbBlockTableRecord
  2
block 16
340
0
102
{BLKREFS
331
104
102
}
 70
     0
280
     1
281
     0
  0
BLOCK_RECORD
  5
135
330
1
100
AcDbSymbolTableRecord
100
AcDbBlockTableRecord
  2
block 17
340
0
102
{BLKREFS
331
136
102
}
 70
     0
280
     1
281
     0
  0
BLOCK_RECORD
  5
160
330
1
100
AcDbSymbolTableRecord
100
AcDbBlockTableRecord
  2
block 18
340
0
102
{BLKREFS
331
161
102
}
 70
     0
280
     1
281
     0
  0
BLOCK_RECORD
  5
164
330
1
100
AcDbSymbolTableRecord
100
AcDbBlockTableRecord
  2
block 19
340
0
102
{BLKREFS
331
165
102
}
 70
     0
280
     1
281
     0
  0
BLOCK_RECORD
  5
168
330
1
100
AcDbSymbolTableRecord
100
AcDbBlockTableRecord
  2
block 20
340
0
102
{BLKREFS
331
169
102
}
 70
     0
280
     1
281
     0
  0
BLOCK_RECORD
  5
16F
330
1
100
AcDbSymbolTableRecord
100
AcDbBlockTableRecord
  2
block 21
340
0
102
{BLKREFS
331
170
102
}
 70
     0
280
     1
281
     0
  0
BLOCK_RECORD
  5
1A4
330
1
100
AcDbSymbolTableRecord
100
AcDbBlockTableRecord
  2
block 22
340
0
102
{BLKREFS
331
1A5
102
}
 70
     0
280
     1
281
     0
  0
BLOCK_RECORD
  5
1A8
330
1
100
AcDbSymbolTableRecord
100
AcDbBlockTableRecord
  2
block 23
340
0
102
{BLKREFS
331
1A9
102
}
 70
     0
280
     1
281
     0
  0
BLOCK_RECORD
  5
1BA
330
1
100
AcDbSymbolTableRecord
100
AcDbBlockTableRecord
  2
block 24
340
0
102
{BLKREFS
331
1BB
102
}
 70
     0
280
     1
281
     0
  0
BLOCK_RECORD
  5
1C5
330
1
100
AcDbSymbolTableRecord
100
AcDbBlockTableRecord
  2
block 25
340
0
102
{BLKREFS
331
1C6
102
}
 70
     0
280
     1
281
     0
  0
BLOCK_RECORD
  5
1C9
330
1
100
AcDbSymbolTableRecord
100
AcDbBlockTableRecord
  2
block 26
340
0
102
{BLKREFS
331
1CA
102
}
 70
     0
280
     1
281
     0
  0
BLOCK_RECORD
  5
1D0
330
1
100
AcDbSymbolTableRecord
100
AcDbBlockTableRecord
  2
block 27
340
0
102
{BLKREFS
331
1D1
102
}
 70
     0
280
     1
281
     0
  0
BLOCK_RECORD
  5
205
330
1
100
AcDbSymbolTableRecord
100
AcDbBlockTableRecord
  2
block 28
340
0
102
{BLKREFS
331
206
102
}
 70
     0
280
     1
281
     0
  0
BLOCK_RECORD
  5
209
330
1
100
AcDbSymbolTableRecord
100
AcDbBlockTableRecord
  2
block 29
340
0
102
{BLKREFS
331
20A
102
}
 70
     0
280
     1
281
     0
  0
BLOCK_RECORD
  5
21B
330
1
100
AcDbSymbolTableRecord
100
AcDbBlockTableRecord
  2
block 30
340
0
102
{BLKREFS
331
21C
102
}
 70
     0
280
     1
281
     0
  0
BLOCK_RECORD
  5
226
330
1
100
AcDbSymbolTableRecord
100
AcDbBlockTableRecord
  2
block 31
340
0
102
{BLKREFS
331
227
102
}
 70
     0
280
     1
281
     0
  0
BLOCK_RECORD
  5
22A
330
1
100
AcDbSymbolTableRecord
100
AcDbBlockTableRecord
  2
block 32
340
0
102
{BLKREFS
331
22B
102
}
 70
     0
280
     1
281
     0
  0
BLOCK_RECORD
  5
231
330
1
100
AcDbSymbolTableRecord
100
AcDbBlockTableRecord
  2
block 33
340
0
102
{BLKREFS
331
232
102
}
 70
     0
280
     1
281
     0
  0
BLOCK_RECORD
  5
266
330
1
100
AcDbSymbolTableRecord
100
AcDbBlockTableRecord
  2
block 34
340
0
102
{BLKREFS
331
267
102
}
 70
     0
280
     1
281
     0
  0
BLOCK_RECORD
  5
26A
330
1
100
AcDbSymbolTableRecord
100
AcDbBlockTableRecord
  2
block 35
340
0
102
{BLKREFS
331
26B
102
}
 70
     0
280
     1
281
     0
  0
BLOCK_RECORD
  5
27C
330
1
100
AcDbSymbolTableRecord
100
AcDbBlockTableRecord
  2
block 36
340
0
102
{BLKREFS
331
27D
102
}
 70
     0
280
     1
281
     0
  0
ENDTAB
  0
ENDSEC
  0
SECTION
  2
BLOCKS
  0
BLOCK
  5
20
330
1F
100
AcDbEntity
  8
0
100
AcDbBlockBegin
  2
*Model_Space
 70
     0
 10
0.0
 20
0.0
 30
0.0
  3
*Model_Space
  1

  0
ENDBLK
  5
21
330
1F
100
AcDbEntity
  8
0
100
AcDbBlockEnd
  0
BLOCK
  5
1C
330
1B
100
AcDbEntity
 67
     1
  8
0
100
AcDbBlockBegin
  2
*Paper_Space
 70
     0
 10
0.0
 20
0.0
 30
0.0
  3
*Paper_Space
  1

  0
ENDBLK
  5
1D
330
1B
100
AcDbEntity
 67
     1
  8
0
100
AcDbBlockEnd
  0
BLOCK
  5
24
330
23
100
AcDbEntity
  8
0
100
AcDbBlockBegin
  2
*Paper_Space0
 70
     0
 10
0.0
 20
0.0
 30
0.0
  3
*Paper_Space0
  1

  0
ENDBLK
  5
25
330
23
100
AcDbEntity
  8
0
100
AcDbBlockEnd
  0
BLOCK
  5
43
330
41
100
AcDbEntity
  8
0
100
AcDbBlockBegin
  2
block 2
 70
     0
 10
0.0
 20
0.0
 30
0.0
  3
block 2
  1

  0
INSERT
  5
46
330
41
100
AcDbEntity
  8
Layer 2
100
AcDbBlockReference
  2
block 3
 10
0.0
 20
0.0
 30
0.0
  0
INSERT
  5
5C
330
41
100
AcDbEntity
  8
Layer 2
100
AcDbBlockReference
  2
block 4
 10
0.0
 20
0.0
 30
0.0
  0
INSERT
  5
64
330
41
100
AcDbEntity
  8
Layer 2
100
AcDbBlockReference
  2
block 5
 10
0.0
 20
0.0
 30
0.0
  0
INSERT
  5
6C
330
41
100
AcDbEntity
  8
Layer 2
100
AcDbBlockReference
  2
block 6
 10
0.0
 20
0.0
 30
0.0
  0
INSERT
  5
74
330
41
100
AcDbEntity
  8
Layer 2
100
AcDbBlockReference
  2
block 7
 10
0.0
 20
0.0
 30
0.0
  0
INSERT
  5
7C
330
41
100
AcDbEntity
  8
Layer 2
100
AcDbBlockReference
  2
block 8
 10
0.0
 20
0.0
 30
0.0
  0
INSERT
  5
89
330
41
100
AcDbEntity
  8
Layer 2
100
AcDbBlockReference
  2
block 9
 10
0.0
 20
0.0
 30
0.0
  0
ENDBLK
  5
44
330
41
100
AcDbEntity
  8
0
100
AcDbBlockEnd
  0
BLOCK
  5
47
330
45
100
AcDbEntity
  8
0
100
AcDbBlockBegin
  2
block 3
 70
     0
 10
0.0
 20
0.0
 30
0.0
  3
block 3
  1

  0
POLYLINE
  5
49
330
45
100
AcDbEntity
  8
Layer 2
 62
   250
420
  2301728
370
    20
100
AcDb2dPolyline
 66
     1
 10
0.0
 20
0.0
 30
0.0
  0
VERTEX
  5
4A
330
49
100
AcDbEntity
  8
Layer 2
 62
   250
420
  2301728
370
    20
100
AcDbVertex
100
AcDb2dVertex
 10
534.6285700430544
 20
381.7010852428366
 30
0.0
  0
VERTEX
  5
4B
330
49
100
AcDbEntity
  8
Layer 2
 62
   250
420
  2301728
370
    20
100
AcDbVertex
100
AcDb2dVertex
 10
534.6285700430544
 20
409.5946170629477
 30
0.0
  0
VERTEX
  5
4C
330
49
100
AcDbEntity
  8
Layer 2
 62
   250
420
  2301728
370
    20
100
AcDbVertex
100
AcDb2dVertex
 10
543.370449473412
 20
413.9975373131638
 30
0.0
  0
VERTEX
  5
4D
330
49
100
AcDbEntity
  8
Layer 2
 62
   250
420
  2301728
370
    20
100
AcDbVertex
100
AcDb2dVertex
 10
526.3936697320623
 20
430.9206708621932
 30
0.0
  0
VERTEX
  5
4E
330
49
100
AcDbEntity
  8
Layer 2
 62
   250
420
  2301728
370
    20
100
AcDbVertex
100
AcDb2dVertex
 10
534.6285700430544
 20
435.2388133339709
 30
0.0
  0
VERTEX
  5
4F
330
49
100
AcDbEntity
  8
Layer 2
 62
   250
420
  2301728
370
    20
100
AcDbVertex
100
AcDb2dVertex
 10
534.6285700430544
 20
463.1658832740413
 30
0.0
  0
VERTEX
  5
50
330
49
100
AcDbEntity
  8
Layer 2
 62
   250
420
  2301728
370
    20
100
AcDbVertex
100
AcDb2dVertex
 10
303.7325478909715
 20
524.632371978958
 30
0.0
  0
VERTEX
  5
51
330
49
100
AcDbEntity
  8
Layer 2
 62
   250
420
  2301728
370
    20
100
AcDbVertex
100
AcDb2dVertex
 10
274.8902892705219
 20
506.010199425381
 30
0.0
  0
VERTEX
  5
52
330
49
100
AcDbEntity
  8
Layer 2
 62
   250
420
  2301728
370
    20
100
AcDbVertex
100
AcDb2dVertex
 10
274.8902892705219
 20
476.7353768582207
 30
0.0
  0
VERTEX
  5
53
330
49
100
AcDbEntity
  8
Layer 2
 62
   250
420
  2301728
370
    20
100
AcDbVertex
100
AcDb2dVertex
 10
281.5447914652705
 20
469.8354038836842
 30
0.0
  0
VERTEX
  5
54
330
49
100
AcDbEntity
  8
Layer 2
 62
   250
420
  2301728
370
    20
100
AcDbVertex
100
AcDb2dVertex
 10
264.050842823156
 20
459.1220930488889
 30
0.0
  0
VERTEX
  5
55
330
49
100
AcDbEntity
  8
Layer 2
 62
   250
420
  2301728
370
    20
100
AcDbVertex
100
AcDb2dVertex
 10
274.8902892705219
 20
448.9712565200743
 30
0.0
  0
VERTEX
  5
56
330
49
100
AcDbEntity
  8
Layer 2
 62
   250
420
  2301728
370
    20
100
AcDbVertex
100
AcDb2dVertex
 10
274.8902892705219
 20
416.6077578784098
 30
0.0
  0
VERTEX
  5
57
330
49
100
AcDbEntity
  8
Layer 2
 62
   250
420
  2301728
370
    20
100
AcDbVertex
100
AcDb2dVertex
 10
502.2546011867198
 20
369.8464019821813
 30
0.0
  0
VERTEX
  5
58
330
49
100
AcDbEntity
  8
Layer 2
 62
   250
420
  2301728
370
    20
100
AcDbVertex
100
AcDb2dVertex
 10
534.6285700430544
 20
381.7010852428366
 30
0.0
  0
SEQEND
  5
5A
330
49
100
AcDbEntity
  8
Layer 2
 62
   250
420
  2301728
370
    20
  0
HATCH
  5
59
330
45
100
AcDbEntity
  8
Layer 2
 62
    43
420
 15510365
100
AcDbHatch
 10
0.0
 20
0.0
 30
0.0
210
0.0
220
0.0
230
1.0
  2
SOLID
 70
     1
 71
     0
 91
        1
 92
        1
 93
       14
 72
     1
 10
534.6285700430544
 20
381.7010852428366
 11
534.6285700430544
 21
409.5946170629477
 72
     1
 10
534.6285700430544
 20
409.5946170629477
 11
543.370449473412
 21
413.9975373131638
 72
     1
 10
543.370449473412
 20
413.9975373131638
 11
526.3936697320623
 21
430.9206708621932
 72
     1
 10
526.3936697320623
 20
430.9206708621932
 11
534.6285700430544
 21
435.2388133339709
 72
     1
 10
534.6285700430544
 20
435.2388133339709
 11
534.6285700430544
 21
463.1658832740413
 72
     1
 10
534.6285700430544
 20
463.1658832740413
 11
303.7325478909715
 21
524.632371978958
 72
     1
 10
303.7325478909715
 20
524.632371978958
 11
274.8902892705219
 21
506.010199425381
 72
     1
 10
274.8902892705219
 20
506.010199425381
 11
274.8902892705219
 21
476.7353768582207
 72
     1
 10
274.8902892705219
 20
476.7353768582207
 11
281.5447914652705
 21
469.8354038836842
 72
     1
 10
281.5447914652705
 20
469.8354038836842
 11
264.050842823156
 21
459.1220930488889
 72
     1
 10
264.050842823156
 20
459.1220930488889
 11
274.8902892705219
 21
448.9712565200743
 72
     1
 10
274.8902892705219
 20
448.9712565200743
 11
274.8902892705219
 21
416.6077578784098
 72
     1
 10
274.8902892705219
 20
416.6077578784098
 11
502.2546011867198
 21
369.8464019821813
 72
     1
 10
502.2546011867198
 20
369.8464019821813
 11
534.6285700430544
 21
381.7010852428366
 97
        0
 75
     2
 76
     1
 98
        0
  0
ENDBLK
  5
48
330
45
100
AcDbEntity
  8
0
100
AcDbBlockEnd
  0
BLOCK
  5
5D
330
5B
100
AcDbEntity
  8
0
100
AcDbBlockBegin
  2
block 4
 70
     0
 10
0.0
 20
0.0
 30
0.0
  3
block 4
  1

  0
POLYLINE
  5
5F
330
5B
100
AcDbEntity
  8
Layer 2
 62
   250
420
  2301728
370
    15
100
AcDb2dPolyline
 66
     1
 10
0.0
 20
0.0
 30
0.0
  0
VERTEX
  5
60
330
5F
100
AcDbEntity
  8
Layer 2
 62
   250
420
  2301728
370
    15
100
AcDbVertex
100
AcDb2dVertex
 10
303.7325478909715
 20
495.8380140556528
 30
0.0
  0
VERTEX
  5
61
330
5F
100
AcDbEntity
  8
Layer 2
 62
   250
420
  2301728
370
    15
100
AcDbVertex
100
AcDb2dVertex
 10
274.8902892705219
 20
476.7353768582207
 30
0.0
  0
SEQEND
  5
62
330
5F
100
AcDbEntity
  8
Layer 2
 62
   250
420
  2301728
370
    15
  0
ENDBLK
  5
5E
330
5B
100
AcDbEntity
  8
0
100
AcDbBlockEnd
  0
BLOCK
  5
65
330
63
100
AcDbEntity
  8
0
100
AcDbBlockBegin
  2
block 5
 70
     0
 10
0.0
 20
0.0
 30
0.0
  3
block 5
  1

  0
POLYLINE
  5
67
330
63
100
AcDbEntity
  8
Layer 2
 62
   250
420
  2301728
370
    15
100
AcDb2dPolyline
 66
     1
 10
0.0
 20
0.0
 30
0.0
  0
VERTEX
  5
68
330
67
100
AcDbEntity
  8
Layer 2
 62
   250
420
  2301728
370
    15
100
AcDbVertex
100
AcDb2dVertex
 10
292.4900599700468
 20
476.5382967560054
 30
0.0
  0
VERTEX
  5
69
330
67
100
AcDbEntity
  8
Layer 2
 62
   250
420
  2301728
370
    15
100
AcDbVertex
100
AcDb2dVertex
 10
264.050842823156
 20
459.1220930488889
 30
0.0
  0
SEQEND
  5
6A
330
67
100
AcDbEntity
  8
Layer 2
 62
   250
420
  2301728
370
    15
  0
ENDBLK
  5
66
330
63
100
AcDbEntity
  8
0
100
AcDbBlockEnd
  0
BLOCK
  5
6D
330
6B
100
AcDbEntity
  8
0
100
AcDbBlockBegin
  2
block 6
 70
     0
 10
0.0
 20
0.0
 30
0.0
  3
block 6
  1

  0
POLYLINE
  5
6F
330
6B
100
AcDbEntity
  8
Layer 2
 62
   250
420
  2301728
370
    15
100
AcDb2dPolyline
 66
     1
 10
0.0
 20
0.0
 30
0.0
  0
VERTEX
  5
70
330
6F
100
AcDbEntity
  8
Layer 2
 62
   250
420
  2301728
370
    15
100
AcDbVertex
100
AcDb2dVertex
 10
303.7325478909715
 20
466.4099853896514
 30
0.0
  0
VERTEX
  5
71
330
6F
100
AcDbEntity
  8
Layer 2
 62
   250
420
  2301728
370
    15
100
AcDbVertex
100
AcDb2dVertex
 10
274.8902892705219
 20
448.9712565200743
 30
0.0
  0
SEQEND
  5
72
330
6F
100
AcDbEntity
  8
Layer 2
 62
   250
420
  2301728
370
    15
  0
ENDBLK
  5
6E
330
6B
100
AcDbEntity
  8
0
100
AcDbBlockEnd
  0
BLOCK
  5
75
330
73
100
AcDbEntity
  8
0
100
AcDbBlockBegin
  2
block 7
 70
     0
 10
0.0
 20
0.0
 30
0.0
  3
block 7
  1

  0
POLYLINE
  5
77
330
73
100
AcDbEntity
  8
Layer 2
 62
   250
420
  2301728
370
    15
100
AcDb2dPolyline
 66
     1
 10
0.0
 20
0.0
 30
0.0
  0
VERTEX
  5
78
330
77
100
AcDbEntity
  8
Layer 2
 62
   250
420
  2301728
370
    15
100
AcDbVertex
100
AcDb2dVertex
 10
303.7325478909715
 20
432.5567248465031
 30
0.0
  0
VERTEX
  5
79
330
77
100
AcDbEntity
  8
Layer 2
 62
   250
420
  2301728
370
    15
100
AcDbVertex
100
AcDb2dVertex
 10
274.8902892705219
 20
416.6077578784098
 30
0.0
  0
SEQEND
  5
7A
330
77
100
AcDbEntity
  8
Layer 2
 62
   250
420
  2301728
370
    15
  0
ENDBLK
  5
76
330
73
100
AcDbEntity
  8
0
100
AcDbBlockEnd
  0
BLOCK
  5
7D
330
7B
100
AcDbEntity
  8
0
100
AcDbBlockBegin
  2
block 8
 70
     0
 10
0.0
 20
0.0
 30
0.0
  3
block 8
  1

  0
POLYLINE
  5
7F
330
7B
100
AcDbEntity
  8
Layer 2
 62
   250
420
  2301728
370
    15
100
AcDb2dPolyline
 66
     1
 10
0.0
 20
0.0
 30
0.0
  0
VERTEX
  5
80
330
7F
100
AcDbEntity
  8
Layer 2
 62
   250
420
  2301728
370
    15
100
AcDbVertex
100
AcDb2dVertex
 10
534.6285700430544
 20
381.7010852428366
 30
0.0
  0
VERTEX
  5
81
330
7F
100
AcDbEntity
  8
Layer 2
 62
   250
420
  2301728
370
    15
100
AcDbVertex
100
AcDb2dVertex
 10
303.7325478909715
 20
432.5567248465031
 30
0.0
  0
VERTEX
  5
82
330
7F
100
AcDbEntity
  8
Layer 2
 62
   250
420
  2301728
370
    15
100
AcDbVertex
100
AcDb2dVertex
 10
303.7325478909715
 20
466.4099853896514
 30
0.0
  0
VERTEX
  5
83
330
7F
100
AcDbEntity
  8
Layer 2
 62
   250
420
  2301728
370
    15
100
AcDbVertex
100
AcDb2dVertex
 10
292.4900599700468
 20
476.5382967560054
 30
0.0
  0
VERTEX
  5
84
330
7F
100
AcDbEntity
  8
Layer 2
 62
   250
420
  2301728
370
    15
100
AcDbVertex
100
AcDb2dVertex
 10
314.846514173646
 20
485.6572799460473
 30
0.0
  0
VERTEX
  5
85
330
7F
100
AcDbEntity
  8
Layer 2
 62
   250
420
  2301728
370
    15
100
AcDbVertex
100
AcDb2dVertex
 10
303.7325478909715
 20
495.8380140556528
 30
0.0
  0
VERTEX
  5
86
330
7F
100
AcDbEntity
  8
Layer 2
 62
   250
420
  2301728
370
    15
100
AcDbVertex
100
AcDb2dVertex
 10
303.7325478909715
 20
524.632371978958
 30
0.0
  0
SEQEND
  5
87
330
7F
100
AcDbEntity
  8
Layer 2
 62
   250
420
  2301728
370
    15
  0
ENDBLK
  5
7E
330
7B
100
AcDbEntity
  8
0
100
AcDbBlockEnd
  0
BLOCK
  5
8A
330
88
100
AcDbEntity
  8
0
100
AcDbBlockBegin
  2
block 9
 70
     0
 10
0.0
 20
0.0
 30
0.0
  3
block 9
  1

  0
SPLINE
  5
8C
330
88
100
AcDbEntity
  8
Layer 2
 62
   250
420
  2301728
370
     9
100
AcDbSpline
210
0.0
220
0.0
230
1.0
 70
     8
 71
     3
 72
    20
 73
    16
 74
     0
 42
0.0000000001
 43
0.0000000001
 12
1.0
 22
0.0
 32
0.0
 13
1.0
 23
0.0
 33
0.0
 40
0.0
 40
0.0
 40
0.0
 40
0.0
 40
1.0
 40
1.0
 40
1.0
 40
2.0
 40
2.0
 40
2.0
 40
3.0
 40
3.0
 40
3.0
 40
4.0
 40
4.0
 40
4.0
 40
5.0
 40
5.0
 40
5.0
 40
5.0
 10
280.4291914231544
 20
509.6436676491194
 30
0.0
 10
280.4291914231544
 20
509.6436676491194
 30
0.0
 10
279.8566792535676
 20
509.4122363591123
 30
0.0
 10
279.6658418637053
 20
508.8259212997391
 30
0.0
 10
279.4657540494263
 20
508.2111859022698
 30
0.0
 10
279.497474865615
 20
506.1190928043407
 30
0.0
 10
279.3434341696902
 20
505.4912343757733
 30
0.0
 10
279.0549615451773
 20
504.3154413970142
 30
0.0
 10
278.0055715749659
 20
501.5533399576398
 30
0.0
 10
277.659739561067
 20
500.3931219599544
 30
0.0
 10
277.1390180602202
 20
498.6461742142737
 30
0.0
 10
275.1371781258185
 20
494.9123808228105
 30
0.0
 10
275.1371781258185
 20
494.9123808228105
 30
0.0
 10
275.1371781258185
 20
494.9123808228105
 30
0.0
 10
274.8902876989814
 20
494.6161123106049
 30
0.0
 10
274.8902876989814
 20
494.6161123106049
 30
0.0
  0
SPLINE
  5
8D
330
88
100
AcDbEntity
  8
Layer 2
 62
   250
420
  2301728
370
     9
100
AcDbSpline
210
0.0
220
0.0
230
1.0
 70
     8
 71
     3
 72
    14
 73
    10
 74
     0
 42
0.0000000001
 43
0.0000000001
 12
1.0
 22
0.0
 32
0.0
 13
1.0
 23
0.0
 33
0.0
 40
0.0
 40
0.0
 40
0.0
 40
0.0
 40
1.0
 40
1.0
 40
1.0
 40
2.0
 40
2.0
 40
2.0
 40
3.0
 40
3.0
 40
3.0
 40
3.0
 10
295.4609727034449
 20
519.2917812000233
 30
0.0
 10
295.006580743182
 20
516.649280122564
 30
0.0
 10
292.7041105436883
 20
512.2525069626809
 30
0.0
 10
291.5201185221622
 20
508.9796282964035
 30
0.0
 10
289.3470232661693
 20
502.9725970210047
 30
0.0
 10
289.0426018984745
 20
501.8169493188443
 30
0.0
 10
287.8999967401633
 20
498.9525459715833
 30
0.0
 10
285.1756309869834
 20
492.122818024176
 30
0.0
 10
274.8902892705219
 20
480.4036257507814
 30
0.0
 10
274.8902892705219
 20
480.4036257507814
 30
0.0
  0
POLYLINE
  5
8E
330
88
100
AcDbEntity
  8
Layer 2
 62
   250
420
  2301728
370
     9
100
AcDb2dPolyline
 66
     1
 10
0.0
 20
0.0
 30
0.0
  0
VERTEX
  5
8F
330
8E
100
AcDbEntity
  8
Layer 2
 62
   250
420
  2301728
370
     9
100
AcDbVertex
100
AcDb2dVertex
 10
281.0267339925631
 20
480.9644390513213
 30
0.0
  0
VERTEX
  5
90
330
8E
100
AcDbEntity
  8
Layer 2
 62
   250
420
  2301728
370
     9
100
AcDbVertex
100
AcDb2dVertex
 10
292.6198991669698
 20
496.9302549890899
 30
0.0
  0
VERTEX
  5
91
330
8E
100
AcDbEntity
  8
Layer 2
 62
   250
420
  2301728
370
     9
100
AcDbVertex
100
AcDb2dVertex
 10
297.1785728651794
 20
508.8822788970529
 30
0.0
  0
VERTEX
  5
92
330
8E
100
AcDbEntity
  8
Layer 2
 62
   250
420
  2301728
370
     9
100
AcDbVertex
100
AcDb2dVertex
 10
302.0135030517604
 20
523.6222622911737
 30
0.0
  0
SEQEND
  5
93
330
8E
100
AcDbEntity
  8
Layer 2
 62
   250
420
  2301728
370
     9
  0
SPLINE
  5
94
330
88
100
AcDbEntity
  8
Layer 2
 62
   250
420
  2301728
370
     9
100
AcDbSpline
210
0.0
220
0.0
230
1.0
 70
     8
 71
     3
 72
    11
 73
     7
 74
     0
 42
0.0000000001
 43
0.0000000001
 12
1.0
 22
0.0
 32
0.0
 13
1.0
 23
0.0
 33
0.0
 40
0.0
 40
0.0
 40
0.0
 40
0.0
 40
1.0
 40
1.0
 40
1.0
 40
2.0
 40
2.0
 40
2.0
 40
2.0
 10
294.889029887062
 20
490.0413119462883
 30
0.0
 10
294.889029887062
 20
490.0413119462883
 30
0.0
 10
297.6682765006262
 20
492.9677629644248
 30
0.0
 10
299.3757084874778
 20
497.2406971685186
 30
0.0
 10
301.0831404743294
 20
501.5136313726107
 30
0.0
 10
303.8623870878937
 20
508.7150097110434
 30
0.0
 10
303.8623870878937
 20
508.7150097110434
 30
0.0
  0
POLYLINE
  5
95
330
88
100
AcDbEntity
  8
Layer 2
 62
   250
420
  2301728
370
     9
100
AcDb2dPolyline
 66
     1
 10
0.0
 20
0.0
 30
0.0
  0
VERTEX
  5
96
330
95
100
AcDbEntity
  8
Layer 2
 62
   250
420
  2301728
370
     9
100
AcDbVertex
100
AcDb2dVertex
 10
280.2895271593625
 20
452.0238116856945
 30
0.0
  0
VERTEX
  5
97
330
95
100
AcDbEntity
  8
Layer 2
 62
   250
420
  2301728
370
     9
100
AcDbVertex
100
AcDb2dVertex
 10
277.8778822074328
 20
444.6401084017471
 30
0.0
  0
VERTEX
  5
98
330
95
100
AcDbEntity
  8
Layer 2
 62
   250
420
  2301728
370
     9
100
AcDbVertex
100
AcDb2dVertex
 10
274.8902898883916
 20
441.0406251453769
 30
0.0
  0
SEQEND
  5
99
330
95
100
AcDbEntity
  8
Layer 2
 62
   250
420
  2301728
370
     9
  0
SPLINE
  5
9A
330
88
100
AcDbEntity
  8
Layer 2
 62
   250
420
  2301728
370
     9
100
AcDbSpline
210
0.0
220
0.0
230
1.0
 70
     8
 71
     3
 72
    17
 73
    13
 74
     0
 42
0.0000000001
 43
0.0000000001
 12
1.0
 22
0.0
 32
0.0
 13
1.0
 23
0.0
 33
0.0
 40
0.0
 40
0.0
 40
0.0
 40
0.0
 40
1.0
 40
1.0
 40
1.0
 40
2.0
 40
2.0
 40
2.0
 40
3.0
 40
3.0
 40
3.0
 40
4.0
 40
4.0
 40
4.0
 40
4.0
 10
287.9163611912027
 20
456.8471354326684
 30
0.0
 10
287.9163611912027
 20
456.8471354326684
 30
0.0
 10
285.482514006927
 20
448.9200096695877
 30
0.0
 10
284.2407452892157
 20
445.9089555697092
 30
0.0
 10
282.9989765715063
 20
442.8979014698316
 30
0.0
 10
282.843755481792
 20
441.5125826242074
 30
0.0
 10
280.9811024052269
 20
438.7034334612408
 30
0.0
 10
279.118449328661
 20
435.894284298276
 30
0.0
 10
278.2866260227875
 20
435.1807230442173
 30
0.0
 10
277.2279373234423
 20
433.0872298280656
 30
0.0
 10
276.9033576563043
 20
432.4453930618147
 30
0.0
 10
275.9946407679554
 20
431.1909248805514
 30
0.0
 10
274.8904727935205
 20
429.7598039611876
 30
0.0
  0
SPLINE
  5
9B
330
88
100
AcDbEntity
  8
Layer 2
 62
   250
420
  2301728
370
     9
100
AcDbSpline
210
0.0
220
0.0
230
1.0
 70
     8
 71
     3
 72
    20
 73
    16
 74
     0
 42
0.0000000001
 43
0.0000000001
 12
1.0
 22
0.0
 32
0.0
 13
1.0
 23
0.0
 33
0.0
 40
0.0
 40
0.0
 40
0.0
 40
0.0
 40
1.0
 40
1.0
 40
1.0
 40
2.0
 40
2.0
 40
2.0
 40
3.0
 40
3.0
 40
3.0
 40
4.0
 40
4.0
 40
4.0
 40
5.0
 40
5.0
 40
5.0
 40
5.0
 10
293.8496802235086
 20
460.4345639784924
 30
0.0
 10
293.8496802235086
 20
460.4345639784924
 30
0.0
 10
290.54998018268
 20
448.3221214486784
 30
0.0
 10
289.3599379395791
 20
444.7553997430532
 30
0.0
 10
288.8494913916957
 20
443.2255206211576
 30
0.0
 10
287.6196786866112
 20
439.1266950387644
 30
0.0
 10
287.1092321387277
 20
437.5968159168679
 30
0.0
 10
286.5163354737797
 20
435.8198223552299
 30
0.0
 10
284.7529280991157
 20
431.4575339031007
 30
0.0
 10
284.1600314341658
 20
429.6805403414637
 30
0.0
 10
283.3350415769191
 20
427.2079312825708
 30
0.0
 10
279.7893255212302
 20
420.8972757458323
 30
0.0
 10
279.7893255212302
 20
420.8972757458323
 30
0.0
 10
279.7893255212302
 20
420.8972757458323
 30
0.0
 10
277.2053889068065
 20
417.9908361391872
 30
0.0
 10
277.2053889068065
 20
417.9908361391872
 30
0.0
  0
SPLINE
  5
9C
330
88
100
AcDbEntity
  8
Layer 2
 62
   250
420
  2301728
370
     9
100
AcDbSpline
210
0.0
220
0.0
230
1.0
 70
     8
 71
     3
 72
    14
 73
    10
 74
     0
 42
0.0000000001
 43
0.0000000001
 12
1.0
 22
0.0
 32
0.0
 13
1.0
 23
0.0
 33
0.0
 40
0.0
 40
0.0
 40
0.0
 40
0.0
 40
1.0
 40
1.0
 40
1.0
 40
2.0
 40
2.0
 40
2.0
 40
3.0
 40
3.0
 40
3.0
 40
3.0
 10
301.0157909797799
 20
464.7673682908198
 30
0.0
 10
301.0157909797799
 20
464.7673682908198
 30
0.0
 10
297.9778337930438
 20
457.1809712525192
 30
0.0
 10
296.4256228959057
 20
451.0888372819654
 30
0.0
 10
294.8734119987666
 20
444.996703311409
 30
0.0
 10
295.0286330884819
 20
441.4149472861927
 30
0.0
 10
292.8555378324872
 20
435.52471825255
 30
0.0
 10
291.2305762274291
 20
431.1202191868624
 30
0.0
 10
289.7791985072954
 20
426.5290845891232
 30
0.0
 10
289.15040325482
 20
424.4932106296783
 30
0.0
  0
SPLINE
  5
9D
330
88
100
AcDbEntity
  8
Layer 2
 62
   250
420
  2301728
370
     9
100
AcDbSpline
210
0.0
220
0.0
230
1.0
 70
     8
 71
     3
 72
    14
 73
    10
 74
     0
 42
0.0000000001
 43
0.0000000001
 12
1.0
 22
0.0
 32
0.0
 13
1.0
 23
0.0
 33
0.0
 40
0.0
 40
0.0
 40
0.0
 40
0.0
 40
1.0
 40
1.0
 40
1.0
 40
2.0
 40
2.0
 40
2.0
 40
3.0
 40
3.0
 40
3.0
 40
3.0
 10
297.1514312121308
 20
428.9175497773731
 30
0.0
 10
297.1514312121308
 20
428.9175497773731
 30
0.0
 10
298.1963365247129
 20
431.5785382129561
 30
0.0
 10
298.1963365247129
 20
431.5785382129561
 30
0.0
 10
298.1963365247129
 20
431.5785382129561
 30
0.0
 10
301.1738316845294
 20
440.3931011167424
 30
0.0
 10
302.0135030517604
 20
443.7714485783254
 30
0.0
 10
302.5578845260934
 20
445.9617218729945
 30
0.0
 10
303.7325478909715
 20
453.8530212379628
 30
0.0
 10
303.7325478909715
 20
453.8530212379628
 30
0.0
  0
POLYLINE
  5
9E
330
88
100
AcDbEntity
  8
Layer 2
 62
   250
420
  2301728
370
     9
100
AcDb2dPolyline
 66
     1
 10
0.0
 20
0.0
 30
0.0
  0
VERTEX
  5
9F
330
9E
100
AcDbEntity
  8
Layer 2
 62
   250
420
  2301728
370
     9
100
AcDbVertex
100
AcDb2dVertex
 10
279.7165655005019
 20
480.1065556989579
 30
0.0
  0
VERTEX
  5
A0
330
9E
100
AcDbEntity
  8
Layer 2
 62
   250
420
  2301728
370
     9
100
AcDbVertex
100
AcDb2dVertex
 10
279.7165655005019
 20
474.8112497048724
 30
0.0
  0
VERTEX
  5
A1
330
9E
100
AcDbEntity
  8
Layer 2
 62
   250
420
  2301728
370
     9
100
AcDbVertex
100
AcDb2dVertex
 10
279.0645583303822
 20
472.4329096112488
 30
0.0
  0
SEQEND
  5
A2
330
9E
100
AcDbEntity
  8
Layer 2
 62
   250
420
  2301728
370
     9
  0
SPLINE
  5
A3
330
88
100
AcDbEntity
  8
Layer 2
 62
   250
420
  2301728
370
     9
100
AcDbSpline
210
0.0
220
0.0
230
1.0
 70
     8
 71
     3
 72
    14
 73
    10
 74
     0
 42
0.0000000001
 43
0.0000000001
 12
1.0
 22
0.0
 32
0.0
 13
1.0
 23
0.0
 33
0.0
 40
0.0
 40
0.0
 40
0.0
 40
0.0
 40
1.0
 40
1.0
 40
1.0
 40
2.0
 40
2.0
 40
2.0
 40
3.0
 40
3.0
 40
3.0
 40
3.0
 10
288.3070949034027
 20
485.7315361555893
 30
0.0
 10
288.3070949034027
 20
485.7315361555893
 30
0.0
 10
288.2056085104568
 20
482.8535841291314
 30
0.0
 10
288.3070949034027
 20
481.7428123491363
 30
0.0
 10
288.4085812963494
 20
480.6320405691404
 30
0.0
 10
287.6106793785357
 20
477.7216451370068
 30
0.0
 10
287.6106793785357
 20
477.7216451370068
 30
0.0
 10
287.6106793785357
 20
477.7216451370068
 30
0.0
 10
283.0463845400245
 20
470.7549809149377
 30
0.0
 10
283.0463845400245
 20
470.7549809149377
 30
0.0
  0
SPLINE
  5
A4
330
88
100
AcDbEntity
  8
Layer 2
 62
   250
420
  2301728
370
     9
100
AcDbSpline
210
0.0
220
0.0
230
1.0
 70
     8
 71
     3
 72
    11
 73
     7
 74
     0
 42
0.0000000001
 43
0.0000000001
 12
1.0
 22
0.0
 32
0.0
 13
1.0
 23
0.0
 33
0.0
 40
0.0
 40
0.0
 40
0.0
 40
0.0
 40
1.0
 40
1.0
 40
1.0
 40
2.0
 40
2.0
 40
2.0
 40
2.0
 10
295.4558448290936
 20
490.4124558911972
 30
0.0
 10
295.4558448290936
 20
490.4124558911972
 30
0.0
 10
295.2853276901451
 20
488.0826528754033
 30
0.0
 10
295.4558448290936
 20
486.8020788852646
 30
0.0
 10
295.6263619680412
 20
485.5215048951259
 30
0.0
 10
291.487579415455
 20
475.8937337981461
 30
0.0
 10
291.487579415455
 20
475.8937337981461
 30
0.0
  0
POLYLINE
  5
A5
330
88
100
AcDbEntity
  8
Layer 2
 62
   250
420
  2301728
370
     9
100
AcDb2dPolyline
 66
     1
 10
0.0
 20
0.0
 30
0.0
  0
VERTEX
  5
A6
330
A5
100
AcDbEntity
  8
Layer 2
 62
   250
420
  2301728
370
     9
100
AcDbVertex
100
AcDb2dVertex
 10
299.3757084874778
 20
479.3728761784232
 30
0.0
  0
VERTEX
  5
A7
330
A5
100
AcDbEntity
  8
Layer 2
 62
   250
420
  2301728
370
     9
100
AcDbVertex
100
AcDb2dVertex
 10
302.6113110051629
 20
484.5901783568424
 30
0.0
  0
VERTEX
  5
A8
330
A5
100
AcDbEntity
  8
Layer 2
 62
   250
420
  2301728
370
     9
100
AcDbVertex
100
AcDb2dVertex
 10
304.2790936643141
 20
489.4114693144602
 30
0.0
  0
VERTEX
  5
A9
330
A5
100
AcDbEntity
  8
Layer 2
 62
   250
420
  2301728
370
     9
100
AcDbVertex
100
AcDb2dVertex
 10
304.8600661697119
 20
495.0030590196147
 30
0.0
  0
SEQEND
  5
AA
330
A5
100
AcDbEntity
  8
Layer 2
 62
   250
420
  2301728
370
     9
  0
POLYLINE
  5
AB
330
88
100
AcDbEntity
  8
Layer 2
 62
   250
420
  2301728
370
     9
100
AcDb2dPolyline
 66
     1
 10
0.0
 20
0.0
 30
0.0
  0
VERTEX
  5
AC
330
AB
100
AcDbEntity
  8
Layer 2
 62
   250
420
  2301728
370
     9
100
AcDbVertex
100
AcDb2dVertex
 10
307.6554643027048
 20
482.7501091425202
 30
0.0
  0
VERTEX
  5
AD
330
AB
100
AcDbEntity
  8
Layer 2
 62
   250
420
  2301728
370
     9
100
AcDbVertex
100
AcDb2dVertex
 10
309.1305967731423
 20
485.7315361555893
 30
0.0
  0
VERTEX
  5
AE
330
AB
100
AcDbEntity
  8
Layer 2
 62
   250
420
  2301728
370
     9
100
AcDbVertex
100
AcDb2dVertex
 10
309.8714737791342
 20
490.4124558911972
 30
0.0
  0
SEQEND
  5
AF
330
AB
100
AcDbEntity
  8
Layer 2
 62
   250
420
  2301728
370
     9
  0
POLYLINE
  5
B0
330
88
100
AcDbEntity
  8
Layer 2
 62
   250
420
  2301728
370
     9
100
AcDb2dPolyline
 66
     1
 10
0.0
 20
0.0
 30
0.0
  0
VERTEX
  5
B1
330
B0
100
AcDbEntity
  8
Layer 2
 62
   250
420
  2301728
370
     9
100
AcDbVertex
100
AcDb2dVertex
 10
270.6227519859385
 20
462.9870062500731
 30
0.0
  0
VERTEX
  5
B2
330
B0
100
AcDbEntity
  8
Layer 2
 62
   250
420
  2301728
370
     9
100
AcDbVertex
100
AcDb2dVertex
 10
270.2326906483722
 20
457.7433124249401
 30
0.0
  0
VERTEX
  5
B3
330
B0
100
AcDbEntity
  8
Layer 2
 62
   250
420
  2301728
370
     9
100
AcDbVertex
100
AcDb2dVertex
 10
269.457944604168
 20
454.058494892015
 30
0.0
  0
SEQEND
  5
B4
330
B0
100
AcDbEntity
  8
Layer 2
 62
   250
420
  2301728
370
     9
  0
SPLINE
  5
B5
330
88
100
AcDbEntity
  8
Layer 2
 62
   250
420
  2301728
370
     9
100
AcDbSpline
210
0.0
220
0.0
230
1.0
 70
     8
 71
     3
 72
    14
 73
    10
 74
     0
 42
0.0000000001
 43
0.0000000001
 12
1.0
 22
0.0
 32
0.0
 13
1.0
 23
0.0
 33
0.0
 40
0.0
 40
0.0
 40
0.0
 40
0.0
 40
1.0
 40
1.0
 40
1.0
 40
2.0
 40
2.0
 40
2.0
 40
3.0
 40
3.0
 40
3.0
 40
3.0
 10
277.5541966219716
 20
467.090538768598
 30
0.0
 10
277.5541966219716
 20
467.090538768598
 30
0.0
 10
277.4343073384171
 20
464.2422308888545
 30
0.0
 10
277.5300619108584
 20
463.1406921653179
 30
0.0
 10
277.625816483298
 20
462.0391534417822
 30
0.0
 10
276.5341679332432
 20
455.796666214932
 30
0.0
 10
276.5341679332432
 20
455.796666214932
 30
0.0
 10
276.5341679332432
 20
455.796666214932
 30
0.0
 10
273.3545464808312
 20
450.1874292964567
 30
0.0
 10
273.3545464808312
 20
450.1874292964567
 30
0.0
  0
SPLINE
  5
B6
330
88
100
AcDbEntity
  8
Layer 2
 62
   250
420
  2301728
370
     9
100
AcDbSpline
210
0.0
220
0.0
230
1.0
 70
     8
 71
     3
 72
    14
 73
    10
 74
     0
 42
0.0000000001
 43
0.0000000001
 12
1.0
 22
0.0
 32
0.0
 13
1.0
 23
0.0
 33
0.0
 40
0.0
 40
0.0
 40
0.0
 40
0.0
 40
1.0
 40
1.0
 40
1.0
 40
2.0
 40
2.0
 40
2.0
 40
3.0
 40
3.0
 40
3.0
 40
3.0
 10
284.8009468274067
 20
471.6135955503514
 30
0.0
 10
284.8009468274067
 20
471.6135955503514
 30
0.0
 10
284.6146706749896
 20
469.3091778132784
 30
0.0
 10
284.779101392558
 20
468.0384080855347
 30
0.0
 10
284.85695381185
 20
467.4367413219743
 30
0.0
 10
284.7306679597641
 20
463.6194141486194
 30
0.0
 10
283.751948604935
 20
459.9100250923484
 30
0.0
 10
282.6635321241229
 20
455.784879142524
 30
0.0
 10
280.7061546727191
 20
452.2164604255195
 30
0.0
 10
280.7061546727191
 20
452.2164604255195
 30
0.0
  0
POLYLINE
  5
B7
330
88
100
AcDbEntity
  8
Layer 2
 62
   250
420
  2301728
370
     9
100
AcDb2dPolyline
 66
     1
 10
0.0
 20
0.0
 30
0.0
  0
VERTEX
  5
B8
330
B7
100
AcDbEntity
  8
Layer 2
 62
   250
420
  2301728
370
     9
100
AcDbVertex
100
AcDb2dVertex
 10
288.6922189520465
 20
457.1387162293604
 30
0.0
  0
VERTEX
  5
B9
330
B7
100
AcDbEntity
  8
Layer 2
 62
   250
420
  2301728
370
     9
100
AcDbVertex
100
AcDb2dVertex
 10
292.4445605402279
 20
464.1592024232623
 30
0.0
  0
VERTEX
  5
BA
330
B7
100
AcDbEntity
  8
Layer 2
 62
   250
420
  2301728
370
     9
100
AcDbVertex
100
AcDb2dVertex
 10
293.1234218964064
 20
470.0382011961738
 30
0.0
  0
VERTEX
  5
BB
330
B7
100
AcDbEntity
  8
Layer 2
 62
   250
420
  2301728
370
     9
100
AcDbVertex
100
AcDb2dVertex
 10
293.4742760594499
 20
475.8475417228119
 30
0.0
  0
SEQEND
  5
BC
330
B7
100
AcDbEntity
  8
Layer 2
 62
   250
420
  2301728
370
     9
  0
POLYLINE
  5
BD
330
88
100
AcDbEntity
  8
Layer 2
 62
   250
420
  2301728
370
     9
100
AcDb2dPolyline
 66
     1
 10
0.0
 20
0.0
 30
0.0
  0
VERTEX
  5
BE
330
BD
100
AcDbEntity
  8
Layer 2
 62
   250
420
  2301728
370
     9
100
AcDbVertex
100
AcDb2dVertex
 10
297.0731104463975
 20
462.3043260161794
 30
0.0
  0
VERTEX
  5
BF
330
BD
100
AcDbEntity
  8
Layer 2
 62
   250
420
  2301728
370
     9
100
AcDbVertex
100
AcDb2dVertex
 10
298.9442127606744
 20
466.4889350029844
 30
0.0
  0
VERTEX
  5
C0
330
BD
100
AcDbEntity
  8
Layer 2
 62
   250
420
  2301728
370
     9
100
AcDbVertex
100
AcDb2dVertex
 10
298.7393875132266
 20
471.1042243576976
 30
0.0
  0
SEQEND
  5
C1
330
BD
100
AcDbEntity
  8
Layer 2
 62
   250
420
  2301728
370
     9
  0
POLYLINE
  5
C2
330
88
100
AcDbEntity
  8
Layer 2
 62
   250
420
  2301728
370
     9
100
AcDb2dPolyline
 66
     1
 10
0.0
 20
0.0
 30
0.0
  0
VERTEX
  5
C3
330
C2
100
AcDbEntity
  8
Layer 2
 62
   250
420
  2301728
370
     9
100
AcDbVertex
100
AcDb2dVertex
 10
274.8902876989814
 20
488.1452776002552
 30
0.0
  0
VERTEX
  5
C4
330
C2
100
AcDbEntity
  8
Layer 2
 62
   250
420
  2301728
370
     9
100
AcDbVertex
100
AcDb2dVertex
 10
278.9359788091906
 20
493.5586131040254
 30
0.0
  0
VERTEX
  5
C5
330
C2
100
AcDbEntity
  8
Layer 2
 62
   250
420
  2301728
370
     9
100
AcDbVertex
100
AcDb2dVertex
 10
281.0267339925631
 20
497.9242062522253
 30
0.0
  0
VERTEX
  5
C6
330
C2
100
AcDbEntity
  8
Layer 2
 62
   250
420
  2301728
370
     9
100
AcDbVertex
100
AcDb2dVertex
 10
285.537589121237
 20
507.4189590954784
 30
0.0
  0
VERTEX
  5
C7
330
C2
100
AcDbEntity
  8
Layer 2
 62
   250
420
  2301728
370
     9
100
AcDbVertex
100
AcDb2dVertex
 10
286.5511553080623
 20
513.5391056158714
 30
0.0
  0
SEQEND
  5
C8
330
C2
100
AcDbEntity
  8
Layer 2
 62
   250
420
  2301728
370
     9
  0
ENDBLK
  5
8B
330
88
100
AcDbEntity
  8
0
100
AcDbBlockEnd
  0
BLOCK
  5
CB
330
C9
100
AcDbEntity
  8
0
100
AcDbBlockBegin
  2
block 10
 70
     0
 10
0.0
 20
0.0
 30
0.0
  3
block 10
  1

  0
INSERT
  5
CE
330
C9
100
AcDbEntity
  8
Layer 2
100
AcDbBlockReference
  2
block 11
 10
0.0
 20
0.0
 30
0.0
  0
INSERT
  5
E0
330
C9
100
AcDbEntity
  8
Layer 2
100
AcDbBlockReference
  2
block 12
 10
0.0
 20
0.0
 30
0.0
  0
INSERT
  5
E8
330
C9
100
AcDbEntity
  8
Layer 2
100
AcDbBlockReference
  2
block 13
 10
0.0
 20
0.0
 30
0.0
  0
INSERT
  5
F3
330
C9
100
AcDbEntity
  8
Layer 2
100
AcDbBlockReference
  2
block 14
 10
0.0
 20
0.0
 30
0.0
  0
INSERT
  5
FC
330
C9
100
AcDbEntity
  8
Layer 2
100
AcDbBlockReference
  2
block 15
 10
0.0
 20
0.0
 30
0.0
  0
INSERT
  5
104
330
C9
100
AcDbEntity
  8
Layer 2
100
AcDbBlockReference
  2
block 16
 10
0.0
 20
0.0
 30
0.0
  0
POLYLINE
  5
130
330
C9
100
AcDbEntity
  8
Layer 2
 62
   250
420
  2301728
370
    15
100
AcDb2dPolyline
 66
     1
 10
0.0
 20
0.0
 30
0.0
  0
VERTEX
  5
131
330
130
100
AcDbEntity
  8
Layer 2
 62
   250
420
  2301728
370
    15
100
AcDbVertex
100
AcDb2dVertex
 10
411.4753419911394
 20
270.7658341835122
 30
0.0
  0
VERTEX
  5
132
330
130
100
AcDbEntity
  8
Layer 2
 62
   250
420
  2301728
370
    15
100
AcDbVertex
100
AcDb2dVertex
 10
429.8567628560577
 20
275.9908904961649
 30
0.0
  0
SEQEND
  5
133
330
130
100
AcDbEntity
  8
Layer 2
 62
   250
420
  2301728
370
    15
  0
ENDBLK
  5
CC
330
C9
100
AcDbEntity
  8
0
100
AcDbBlockEnd
  0
BLOCK
  5
CF
330
CD
100
AcDbEntity
  8
0
100
AcDbBlockBegin
  2
block 11
 70
     0
 10
0.0
 20
0.0
 30
0.0
  3
block 11
  1

  0
POLYLINE
  5
D1
330
CD
100
AcDbEntity
  8
Layer 2
 62
   250
420
  2301728
370
    20
100
AcDb2dPolyline
 66
     1
 10
0.0
 20
0.0
 30
0.0
  0
VERTEX
  5
D2
330
D1
100
AcDbEntity
  8
Layer 2
 62
   250
420
  2301728
370
    20
100
AcDbVertex
100
AcDb2dVertex
 10
403.752787259622
 20
410.2124830411221
 30
0.0
  0
VERTEX
  5
D3
330
D1
100
AcDbEntity
  8
Layer 2
 62
   250
420
  2301728
370
    20
100
AcDbVertex
100
AcDb2dVertex
 10
373.2699256327351
 20
396.4868854403794
 30
0.0
  0
VERTEX
  5
D4
330
D1
100
AcDbEntity
  8
Layer 2
 62
   250
420
  2301728
370
    20
100
AcDbVertex
100
AcDb2dVertex
 10
373.2699256327342
 20
276.3225192979789
 30
0.0
  0
VERTEX
  5
D5
330
D1
100
AcDbEntity
  8
Layer 2
 62
   250
420
  2301728
370
    20
100
AcDbVertex
100
AcDb2dVertex
 10
390.4264776376131
 20
273.8252721266472
 30
0.0
  0
VERTEX
  5
D6
330
D1
100
AcDbEntity
  8
Layer 2
 62
   250
420
  2301728
370
    20
100
AcDbVertex
100
AcDb2dVertex
 10
394.8328249267997
 20
275.1222865354393
 30
0.0
  0
VERTEX
  5
D7
330
D1
100
AcDbEntity
  8
Layer 2
 62
   250
420
  2301728
370
    20
100
AcDbVertex
100
AcDb2dVertex
 10
398.3936125899227
 20
267.0472547934514
 30
0.0
  0
VERTEX
  5
D8
330
D1
100
AcDbEntity
  8
Layer 2
 62
   250
420
  2301728
370
    20
100
AcDbVertex
100
AcDb2dVertex
 10
411.4753419911394
 20
270.7658341835122
 30
0.0
  0
VERTEX
  5
D9
330
D1
100
AcDbEntity
  8
Layer 2
 62
   250
420
  2301728
370
    20
100
AcDbVertex
100
AcDb2dVertex
 10
417.0977610090522
 20
269.9731512990602
 30
0.0
  0
VERTEX
  5
DA
330
D1
100
AcDbEntity
  8
Layer 2
 62
   250
420
  2301728
370
    20
100
AcDbVertex
100
AcDb2dVertex
 10
448.6965329413779
 20
278.9226214145474
 30
0.0
  0
VERTEX
  5
DB
330
D1
100
AcDbEntity
  8
Layer 2
 62
   250
420
  2301728
370
    20
100
AcDbVertex
100
AcDb2dVertex
 10
448.6965329413779
 20
400.6959160926071
 30
0.0
  0
VERTEX
  5
DC
330
D1
100
AcDbEntity
  8
Layer 2
 62
   250
420
  2301728
370
    20
100
AcDbVertex
100
AcDb2dVertex
 10
403.752787259622
 20
410.2124830411221
 30
0.0
  0
SEQEND
  5
DE
330
D1
100
AcDbEntity
  8
Layer 2
 62
   250
420
  2301728
370
    20
  0
HATCH
  5
DD
330
CD
100
AcDbEntity
  8
Layer 2
 62
    43
420
 15510365
100
AcDbHatch
 10
0.0
 20
0.0
 30
0.0
210
0.0
220
0.0
230
1.0
  2
SOLID
 70
     1
 71
     0
 91
        1
 92
        1
 93
       10
 72
     1
 10
403.752787259622
 20
410.2124830411221
 11
373.2699256327351
 21
396.4868854403794
 72
     1
 10
373.2699256327351
 20
396.4868854403794
 11
373.2699256327342
 21
276.3225192979789
 72
     1
 10
373.2699256327342
 20
276.3225192979789
 11
390.4264776376131
 21
273.8252721266472
 72
     1
 10
390.4264776376131
 20
273.8252721266472
 11
394.8328249267997
 21
275.1222865354393
 72
     1
 10
394.8328249267997
 20
275.1222865354393
 11
398.3936125899227
 21
267.0472547934514
 72
     1
 10
398.3936125899227
 20
267.0472547934514
 11
411.4753419911394
 21
270.7658341835122
 72
     1
 10
411.4753419911394
 20
270.7658341835122
 11
417.0977610090522
 21
269.9731512990602
 72
     1
 10
417.0977610090522
 20
269.9731512990602
 11
448.6965329413779
 21
278.9226214145474
 72
     1
 10
448.6965329413779
 20
278.9226214145474
 11
448.6965329413779
 21
400.6959160926071
 72
     1
 10
448.6965329413779
 20
400.6959160926071
 11
403.752787259622
 21
410.2124830411221
 97
        0
 75
     2
 76
     1
 98
        0
  0
ENDBLK
  5
D0
330
CD
100
AcDbEntity
  8
0
100
AcDbBlockEnd
  0
BLOCK
  5
E1
330
DF
100
AcDbEntity
  8
0
100
AcDbBlockBegin
  2
block 12
 70
     0
 10
0.0
 20
0.0
 30
0.0
  3
block 12
  1

  0
POLYLINE
  5
E3
330
DF
100
AcDbEntity
  8
Layer 2
 62
   250
420
  2301728
370
    15
100
AcDb2dPolyline
 66
     1
 10
0.0
 20
0.0
 30
0.0
  0
VERTEX
  5
E4
330
E3
100
AcDbEntity
  8
Layer 2
 62
   250
420
  2301728
370
    15
100
AcDbVertex
100
AcDb2dVertex
 10
421.7546494899398
 20
283.0467627688377
 30
0.0
  0
VERTEX
  5
E5
330
E3
100
AcDbEntity
  8
Layer 2
 62
   250
420
  2301728
370
    15
100
AcDbVertex
100
AcDb2dVertex
 10
394.8328249267997
 20
275.1222865354393
 30
0.0
  0
SEQEND
  5
E6
330
E3
100
AcDbEntity
  8
Layer 2
 62
   250
420
  2301728
370
    15
  0
ENDBLK
  5
E2
330
DF
100
AcDbEntity
  8
0
100
AcDbBlockEnd
  0
BLOCK
  5
E9
330
E7
100
AcDbEntity
  8
0
100
AcDbBlockBegin
  2
block 13
 70
     0
 10
0.0
 20
0.0
 30
0.0
  3
block 13
  1

  0
POLYLINE
  5
EB
330
E7
100
AcDbEntity
  8
Layer 2
 62
   250
420
  2301728
370
    15
100
AcDb2dPolyline
 66
     1
 10
0.0
 20
0.0
 30
0.0
  0
VERTEX
  5
EC
330
EB
100
AcDbEntity
  8
Layer 2
 62
   250
420
  2301728
370
    15
100
AcDbVertex
100
AcDb2dVertex
 10
429.8567628560577
 20
275.9908904961649
 30
0.0
  0
VERTEX
  5
ED
330
EB
100
AcDbEntity
  8
Layer 2
 62
   250
420
  2301728
370
    15
100
AcDbVertex
100
AcDb2dVertex
 10
424.4635607291275
 20
288.4654047236472
 30
0.0
  0
VERTEX
  5
EE
330
EB
100
AcDbEntity
  8
Layer 2
 62
   250
420
  2301728
370
    15
100
AcDbVertex
100
AcDb2dVertex
 10
421.7546494899398
 20
283.0467627688377
 30
0.0
  0
VERTEX
  5
EF
330
EB
100
AcDbEntity
  8
Layer 2
 62
   250
420
  2301728
370
    15
100
AcDbVertex
100
AcDb2dVertex
 10
403.5917163863705
 20
285.0857088667635
 30
0.0
  0
VERTEX
  5
F0
330
EB
100
AcDbEntity
  8
Layer 2
 62
   250
420
  2301728
370
    15
100
AcDbVertex
100
AcDb2dVertex
 10
373.269925632736
 20
276.3225192979789
 30
0.0
  0
SEQEND
  5
F1
330
EB
100
AcDbEntity
  8
Layer 2
 62
   250
420
  2301728
370
    15
  0
ENDBLK
  5
EA
330
E7
100
AcDbEntity
  8
0
100
AcDbBlockEnd
  0
BLOCK
  5
F4
330
F2
100
AcDbEntity
  8
0
100
AcDbBlockBegin
  2
block 14
 70
     0
 10
0.0
 20
0.0
 30
0.0
  3
block 14
  1

  0
POLYLINE
  5
F6
330
F2
100
AcDbEntity
  8
Layer 2
 62
   250
420
  2301728
370
    15
100
AcDb2dPolyline
 66
     1
 10
0.0
 20
0.0
 30
0.0
  0
VERTEX
  5
F7
330
F6
100
AcDbEntity
  8
Layer 2
 62
   250
420
  2301728
370
    15
100
AcDbVertex
100
AcDb2dVertex
 10
448.6965329413779
 20
278.9226214145474
 30
0.0
  0
VERTEX
  5
F8
330
F6
100
AcDbEntity
  8
Layer 2
 62
   250
420
  2301728
370
    15
100
AcDbVertex
100
AcDb2dVertex
 10
432.5411282195892
 20
281.3956175147869
 30
0.0
  0
VERTEX
  5
F9
330
F6
100
AcDbEntity
  8
Layer 2
 62
   250
420
  2301728
370
    15
100
AcDbVertex
100
AcDb2dVertex
 10
429.8567628560577
 20
275.9908904961649
 30
0.0
  0
SEQEND
  5
FA
330
F6
100
AcDbEntity
  8
Layer 2
 62
   250
420
  2301728
370
    15
  0
ENDBLK
  5
F5
330
F2
100
AcDbEntity
  8
0
100
AcDbBlockEnd
  0
BLOCK
  5
FD
330
FB
100
AcDbEntity
  8
0
100
AcDbBlockBegin
  2
block 15
 70
     0
 10
0.0
 20
0.0
 30
0.0
  3
block 15
  1

  0
POLYLINE
  5
FF
330
FB
100
AcDbEntity
  8
Layer 2
 62
   250
420
  2301728
370
    15
100
AcDb2dPolyline
 66
     1
 10
0.0
 20
0.0
 30
0.0
  0
VERTEX
  5
100
330
FF
100
AcDbEntity
  8
Layer 2
 62
   250
420
  2301728
370
    15
100
AcDbVertex
100
AcDb2dVertex
 10
403.752787259622
 20
410.2124830411221
 30
0.0
  0
VERTEX
  5
101
330
FF
100
AcDbEntity
  8
Layer 2
 62
   250
420
  2301728
370
    15
100
AcDbVertex
100
AcDb2dVertex
 10
403.5917163863705
 20
285.0857088667635
 30
0.0
  0
SEQEND
  5
102
330
FF
100
AcDbEntity
  8
Layer 2
 62
   250
420
  2301728
370
    15
  0
ENDBLK
  5
FE
330
FB
100
AcDbEntity
  8
0
100
AcDbBlockEnd
  0
BLOCK
  5
105
330
103
100
AcDbEntity
  8
0
100
AcDbBlockBegin
  2
block 16
 70
     0
 10
0.0
 20
0.0
 30
0.0
  3
block 16
  1

  0
POLYLINE
  5
107
330
103
100
AcDbEntity
  8
Layer 2
 62
   250
420
  2301728
370
     9
100
AcDb2dPolyline
 66
     1
 10
0.0
 20
0.0
 30
0.0
  0
VERTEX
  5
108
330
107
100
AcDbEntity
  8
Layer 2
 62
   250
420
  2301728
370
     9
100
AcDbVertex
100
AcDb2dVertex
 10
399.9263936921952
 20
284.0373469921506
 30
0.0
  0
VERTEX
  5
109
330
107
100
AcDbEntity
  8
Layer 2
 62
   250
420
  2301728
370
     9
100
AcDbVertex
100
AcDb2dVertex
 10
401.6346976951809
 20
283.9772121787046
 30
0.0
  0
VERTEX
  5
10A
330
107
100
AcDbEntity
  8
Layer 2
 62
   250
420
  2301728
370
     9
100
AcDbVertex
100
AcDb2dVertex
 10
411.8536847563864
 20
283.8025884527779
 30
0.0
  0
VERTEX
  5
10B
330
107
100
AcDbEntity
  8
Layer 2
 62
   250
420
  2301728
370
     9
100
AcDbVertex
100
AcDb2dVertex
 10
414.4226128785886
 20
283.8698471987209
 30
0.0
  0
SEQEND
  5
10C
330
107
100
AcDbEntity
  8
Layer 2
 62
   250
420
  2301728
370
     9
  0
SPLINE
  5
10D
330
103
100
AcDbEntity
  8
Layer 2
 62
   250
420
  2301728
370
     9
100
AcDbSpline
210
0.0
220
0.0
230
1.0
 70
     8
 71
     3
 72
    14
 73
    10
 74
     0
 42
0.0000000001
 43
0.0000000001
 12
1.0
 22
0.0
 32
0.0
 13
1.0
 23
0.0
 33
0.0
 40
0.0
 40
0.0
 40
0.0
 40
0.0
 40
1.0
 40
1.0
 40
1.0
 40
2.0
 40
2.0
 40
2.0
 40
3.0
 40
3.0
 40
3.0
 40
3.0
 10
390.665247766532
 20
281.3916077154008
 30
0.0
 10
390.665247766532
 20
281.3916077154008
 30
0.0
 10
391.5134346805844
 20
281.3916077154008
 30
0.0
 10
391.5134346805844
 20
281.3916077154008
 30
0.0
 10
391.5134346805844
 20
281.3916077154008
 30
0.0
 10
398.9793600770081
 20
281.3300665928637
 30
0.0
 10
401.4669870584821
 20
281.3916077154008
 30
0.0
 10
405.6951271790549
 20
281.4962071956234
 30
0.0
 10
418.364027032756
 20
282.2281476099051
 30
0.0
 10
418.364027032756
 20
282.2281476099051
 30
0.0
  0
SPLINE
  5
10E
330
103
100
AcDbEntity
  8
Layer 2
 62
   250
420
  2301728
370
     9
100
AcDbSpline
210
0.0
220
0.0
230
1.0
 70
     8
 71
     3
 72
    14
 73
    10
 74
     0
 42
0.0000000001
 43
0.0000000001
 12
1.0
 22
0.0
 32
0.0
 13
1.0
 23
0.0
 33
0.0
 40
0.0
 40
0.0
 40
0.0
 40
0.0
 40
1.0
 40
1.0
 40
1.0
 40
2.0
 40
2.0
 40
2.0
 40
3.0
 40
3.0
 40
3.0
 40
3.0
 10
406.979805311058
 20
278.8574531413378
 30
0.0
 10
404.264294040966
 20
278.6783561963821
 30
0.0
 10
399.5382201929569
 20
278.3834204066879
 30
0.0
 10
399.5382201929569
 20
278.3834204066879
 30
0.0
 10
399.5382201929569
 20
278.3834204066879
 30
0.0
 10
391.854776252123
 20
277.8013413202643
 30
0.0
 10
391.854776252123
 20
277.8013413202643
 30
0.0
 10
391.854776252123
 20
277.8013413202643
 30
0.0
 10
382.2404188770643
 20
278.9055678318982
 30
0.0
 10
382.2404188770643
 20
278.9055678318982
 30
0.0
  0
SPLINE
  5
10F
330
103
100
AcDbEntity
  8
Layer 2
 62
   250
420
  2301728
370
     9
100
AcDbSpline
210
0.0
220
0.0
230
1.0
 70
     8
 71
     3
 72
    14
 73
    10
 74
     0
 42
0.0000000001
 43
0.0000000001
 12
1.0
 22
0.0
 32
0.0
 13
1.0
 23
0.0
 33
0.0
 40
0.0
 40
0.0
 40
0.0
 40
0.0
 40
1.0
 40
1.0
 40
1.0
 40
2.0
 40
2.0
 40
2.0
 40
3.0
 40
3.0
 40
3.0
 40
3.0
 10
375.826435950401
 20
276.1938209070395
 30
0.0
 10
375.826435950401
 20
276.1938209070395
 30
0.0
 10
380.7452864842107
 20
275.8806163081153
 30
0.0
 10
382.3864377131858
 20
275.8054390680572
 30
0.0
 10
384.6290637797401
 20
275.7027096941929
 30
0.0
 10
389.1185842311497
 20
275.4213090592293
 30
0.0
 10
391.3616310794914
 20
275.5143995248418
 30
0.0
 10
393.1298695665964
 20
275.5877845922132
 30
0.0
 10
398.3936125899227
 20
276.3293102458392
 30
0.0
 10
398.3936125899227
 20
276.3293102458392
 30
0.0
  0
SPLINE
  5
110
330
103
100
AcDbEntity
  8
Layer 2
 62
   250
420
  2301728
370
     9
100
AcDbSpline
210
0.0
220
0.0
230
1.0
 70
     8
 71
     3
 72
    14
 73
    10
 74
     0
 42
0.0000000001
 43
0.0000000001
 12
1.0
 22
0.0
 32
0.0
 13
1.0
 23
0.0
 33
0.0
 40
0.0
 40
0.0
 40
0.0
 40
0.0
 40
1.0
 40
1.0
 40
1.0
 40
2.0
 40
2.0
 40
2.0
 40
3.0
 40
3.0
 40
3.0
 40
3.0
 10
424.6613639128627
 20
274.51454874312
 30
0.0
 10
424.7919570319937
 20
274.6634986821155
 30
0.0
 10
424.923989082954
 20
274.8122761926534
 30
0.0
 10
425.0573731764271
 20
274.9606404643582
 30
0.0
 10
425.6088185976769
 20
275.5740179382392
 30
0.0
 10
426.4734966088872
 20
276.4547760936312
 30
0.0
 10
426.8560287620567
 20
277.1288063022948
 30
0.0
 10
427.4229935541753
 20
278.1278109453615
 30
0.0
 10
427.4537862833185
 20
278.9222085666643
 30
0.0
 10
428.0783948435528
 20
279.7430638614715
 30
0.0
  0
SPLINE
  5
111
330
103
100
AcDbEntity
  8
Layer 2
 62
   250
420
  2301728
370
     9
100
AcDbSpline
210
0.0
220
0.0
230
1.0
 70
     8
 71
     3
 72
    11
 73
     7
 74
     0
 42
0.0000000001
 43
0.0000000001
 12
1.0
 22
0.0
 32
0.0
 13
1.0
 23
0.0
 33
0.0
 40
0.0
 40
0.0
 40
0.0
 40
0.0
 40
1.0
 40
1.0
 40
1.0
 40
2.0
 40
2.0
 40
2.0
 40
2.0
 10
414.2658928051269
 20
271.4848350451539
 30
0.0
 10
415.4910520159474
 20
273.9607661561786
 30
0.0
 10
415.5780834631687
 20
274.0260304957774
 30
0.0
 10
417.4431543963337
 20
277.1414459196149
 30
0.0
 10
419.446035940342
 20
280.48706025705
 30
0.0
 10
419.5920720700833
 20
282.4115626586026
 30
0.0
 10
419.5920720700833
 20
282.4115626586026
 30
0.0
  0
SPLINE
  5
112
330
103
100
AcDbEntity
  8
Layer 2
 62
   250
420
  2301728
370
     9
100
AcDbSpline
210
0.0
220
0.0
230
1.0
 70
     8
 71
     3
 72
    11
 73
     7
 74
     0
 42
0.0000000001
 43
0.0000000001
 12
1.0
 22
0.0
 32
0.0
 13
1.0
 23
0.0
 33
0.0
 40
0.0
 40
0.0
 40
0.0
 40
0.0
 40
1.0
 40
1.0
 40
1.0
 40
2.0
 40
2.0
 40
2.0
 40
2.0
 10
401.2445489592792
 20
267.851156847777
 30
0.0
 10
402.874370401275
 20
270.0630573761973
 30
0.0
 10
404.3365663061732
 20
271.3443731790503
 30
0.0
 10
405.5263293389316
 20
273.5559028011157
 30
0.0
 10
406.1608860376236
 20
274.735415777559
 30
0.0
 10
407.0722907587842
 20
277.0252804837783
 30
0.0
 10
407.784725840007
 20
278.9055678318982
 30
0.0
  0
SPLINE
  5
113
330
103
100
AcDbEntity
  8
Layer 2
 62
   250
420
  2301728
370
     9
100
AcDbSpline
210
0.0
220
0.0
230
1.0
 70
     8
 71
     3
 72
    14
 73
    10
 74
     0
 42
0.0000000001
 43
0.0000000001
 12
1.0
 22
0.0
 32
0.0
 13
1.0
 23
0.0
 33
0.0
 40
0.0
 40
0.0
 40
0.0
 40
0.0
 40
1.0
 40
1.0
 40
1.0
 40
2.0
 40
2.0
 40
2.0
 40
3.0
 40
3.0
 40
3.0
 40
3.0
 10
396.6567310313249
 20
270.7319731982734
 30
0.0
 10
397.4123637531811
 20
271.7028926940384
 30
0.0
 10
398.5654076777664
 20
273.1632720730249
 30
0.0
 10
399.2293623969808
 20
273.9007644953235
 30
0.0
 10
400.2771047525503
 20
275.0645517618195
 30
0.0
 10
401.3703975095514
 20
276.4619124756009
 30
0.0
 10
401.3703975095514
 20
276.4619124756009
 30
0.0
 10
401.3703975095514
 20
276.4619124756009
 30
0.0
 10
401.6634091680344
 20
277.1328785247242
 30
0.0
 10
401.6634091680344
 20
277.1328785247242
 30
0.0
  0
POLYLINE
  5
114
330
103
100
AcDbEntity
  8
Layer 2
 62
   250
420
  2301728
370
     9
100
AcDb2dPolyline
 66
     1
 10
0.0
 20
0.0
 30
0.0
  0
VERTEX
  5
115
330
114
100
AcDbEntity
  8
Layer 2
 62
   250
420
  2301728
370
     9
100
AcDbVertex
100
AcDb2dVertex
 10
419.1823458810104
 20
272.9566076619249
 30
0.0
  0
VERTEX
  5
116
330
114
100
AcDbEntity
  8
Layer 2
 62
   250
420
  2301728
370
     9
100
AcDbVertex
100
AcDb2dVertex
 10
422.3158118879292
 20
276.4619124756009
 30
0.0
  0
VERTEX
  5
117
330
114
100
AcDbEntity
  8
Layer 2
 62
   250
420
  2301728
370
     9
100
AcDbVertex
100
AcDb2dVertex
 10
425.7038583674257
 20
285.5965876144182
 30
0.0
  0
SEQEND
  5
118
330
114
100
AcDbEntity
  8
Layer 2
 62
   250
420
  2301728
370
     9
  0
POLYLINE
  5
119
330
103
100
AcDbEntity
  8
Layer 2
 62
   250
420
  2301728
370
     9
100
AcDb2dPolyline
 66
     1
 10
0.0
 20
0.0
 30
0.0
  0
VERTEX
  5
11A
330
119
100
AcDbEntity
  8
Layer 2
 62
   250
420
  2301728
370
     9
100
AcDbVertex
100
AcDb2dVertex
 10
408.1113814633181
 20
269.732591158514
 30
0.0
  0
VERTEX
  5
11B
330
119
100
AcDbEntity
  8
Layer 2
 62
   250
420
  2301728
370
     9
100
AcDbVertex
100
AcDb2dVertex
 10
410.7889452608806
 20
273.1378021992932
 30
0.0
  0
VERTEX
  5
11C
330
119
100
AcDbEntity
  8
Layer 2
 62
   250
420
  2301728
370
     9
100
AcDbVertex
100
AcDb2dVertex
 10
413.9149446374722
 20
280.5119819123611
 30
0.0
  0
SEQEND
  5
11D
330
119
100
AcDbEntity
  8
Layer 2
 62
   250
420
  2301728
370
     9
  0
POLYLINE
  5
11E
330
103
100
AcDbEntity
  8
Layer 2
 62
   250
420
  2301728
370
     9
100
AcDb2dPolyline
 66
     1
 10
0.0
 20
0.0
 30
0.0
  0
VERTEX
  5
11F
330
11E
100
AcDbEntity
  8
Layer 2
 62
   250
420
  2301728
370
     9
100
AcDbVertex
100
AcDb2dVertex
 10
431.3932779005954
 20
279.0845246521385
 30
0.0
  0
VERTEX
  5
120
330
11E
100
AcDbEntity
  8
Layer 2
 62
   250
420
  2301728
370
     9
100
AcDbVertex
100
AcDb2dVertex
 10
435.1797596979613
 20
279.2765976381706
 30
0.0
  0
VERTEX
  5
121
330
11E
100
AcDbEntity
  8
Layer 2
 62
   250
420
  2301728
370
     9
100
AcDbVertex
100
AcDb2dVertex
 10
438.7488456731044
 20
280.4453682750864
 30
0.0
  0
SEQEND
  5
122
330
11E
100
AcDbEntity
  8
Layer 2
 62
   250
420
  2301728
370
     9
  0
POLYLINE
  5
123
330
103
100
AcDbEntity
  8
Layer 2
 62
   250
420
  2301728
370
     9
100
AcDb2dPolyline
 66
     1
 10
0.0
 20
0.0
 30
0.0
  0
VERTEX
  5
124
330
123
100
AcDbEntity
  8
Layer 2
 62
   250
420
  2301728
370
     9
100
AcDbVertex
100
AcDb2dVertex
 10
425.7038583674257
 20
274.8329078822026
 30
0.0
  0
VERTEX
  5
125
330
123
100
AcDbEntity
  8
Layer 2
 62
   250
420
  2301728
370
     9
100
AcDbVertex
100
AcDb2dVertex
 10
431.2336096884828
 20
275.3384222860259
 30
0.0
  0
VERTEX
  5
126
330
123
100
AcDbEntity
  8
Layer 2
 62
   250
420
  2301728
370
     9
100
AcDbVertex
100
AcDb2dVertex
 10
433.0551710325017
 20
275.2610548959838
 30
0.0
  0
VERTEX
  5
127
330
123
100
AcDbEntity
  8
Layer 2
 62
   250
420
  2301728
370
     9
100
AcDbVertex
100
AcDb2dVertex
 10
439.3906417755243
 20
276.2884692674197
 30
0.0
  0
SEQEND
  5
128
330
123
100
AcDbEntity
  8
Layer 2
 62
   250
420
  2301728
370
     9
  0
SPLINE
  5
129
330
103
100
AcDbEntity
  8
Layer 2
 62
   250
420
  2301728
370
     9
100
AcDbSpline
210
0.0
220
0.0
230
1.0
 70
     8
 71
     3
 72
    14
 73
    10
 74
     0
 42
0.0000000001
 43
0.0000000001
 12
1.0
 22
0.0
 32
0.0
 13
1.0
 23
0.0
 33
0.0
 40
0.0
 40
0.0
 40
0.0
 40
0.0
 40
1.0
 40
1.0
 40
1.0
 40
2.0
 40
2.0
 40
2.0
 40
3.0
 40
3.0
 40
3.0
 40
3.0
 10
416.9289824376065
 20
272.3160722554858
 30
0.0
 10
416.9289824376065
 20
272.3160722554858
 30
0.0
 10
418.0849664209854
 20
272.2814850471186
 30
0.0
 10
420.6660524235976
 20
272.3160722554858
 30
0.0
 10
423.2471384262099
 20
272.3506594638493
 30
0.0
 10
423.2471384262099
 20
272.3506594638493
 30
0.0
 10
423.2471384262099
 20
272.3506594638493
 30
0.0
 10
423.2471384262099
 20
272.3506594638493
 30
0.0
 10
427.9342112921586
 20
273.073515198259
 30
0.0
 10
427.9342112921586
 20
273.073515198259
 30
0.0
  0
POLYLINE
  5
12A
330
103
100
AcDbEntity
  8
Layer 2
 62
   250
420
  2301728
370
     9
100
AcDb2dPolyline
 66
     1
 10
0.0
 20
0.0
 30
0.0
  0
VERTEX
  5
12B
330
12A
100
AcDbEntity
  8
Layer 2
 62
   250
420
  2301728
370
     9
100
AcDbVertex
100
AcDb2dVertex
 10
430.4318979942018
 20
277.1488731101272
 30
0.0
  0
VERTEX
  5
12C
330
12A
100
AcDbEntity
  8
Layer 2
 62
   250
420
  2301728
370
     9
100
AcDbVertex
100
AcDb2dVertex
 10
435.2961755152428
 20
277.1488731101272
 30
0.0
  0
VERTEX
  5
12D
330
12A
100
AcDbEntity
  8
Layer 2
 62
   250
420
  2301728
370
     9
100
AcDbVertex
100
AcDb2dVertex
 10
440.6188305804844
 20
277.8513068305838
 30
0.0
  0
VERTEX
  5
12E
330
12A
100
AcDbEntity
  8
Layer 2
 62
   250
420
  2301728
370
     9
100
AcDbVertex
100
AcDb2dVertex
 10
445.0132544041626
 20
279.4864409916772
 30
0.0
  0
SEQEND
  5
12F
330
12A
100
AcDbEntity
  8
Layer 2
 62
   250
420
  2301728
370
     9
  0
ENDBLK
  5
106
330
103
100
AcDbEntity
  8
0
100
AcDbBlockEnd
  0
BLOCK
  5
137
330
135
100
AcDbEntity
  8
0
100
AcDbBlockBegin
  2
block 17
 70
     0
 10
0.0
 20
0.0
 30
0.0
  3
block 17
  1

  0
SPLINE
  5
139
330
135
100
AcDbEntity
  8
Layer 3
 62
    18
420
        0
370
    15
100
AcDbSpline
210
0.0
220
0.0
230
1.0
 70
     8
 71
     3
 72
   104
 73
   100
 74
     0
 42
0.0000000001
 43
0.0000000001
 12
1.0
 22
0.0
 32
0.0
 13
1.0
 23
0.0
 33
0.0
 40
0.0
 40
0.0
 40
0.0
 40
0.0
 40
1.0
 40
1.0
 40
1.0
 40
2.0
 40
2.0
 40
2.0
 40
3.0
 40
3.0
 40
3.0
 40
4.0
 40
4.0
 40
4.0
 40
5.0
 40
5.0
 40
5.0
 40
6.0
 40
6.0
 40
6.0
 40
7.0
 40
7.0
 40
7.0
 40
8.0
 40
8.0
 40
8.0
 40
9.0
 40
9.0
 40
9.0
 40
10.0
 40
10.0
 40
10.0
 40
11.0
 40
11.0
 40
11.0
 40
12.0
 40
12.0
 40
12.0
 40
13.0
 40
13.0
 40
13.0
 40
14.0
 40
14.0
 40
14.0
 40
15.0
 40
15.0
 40
15.0
 40
16.0
 40
16.0
 40
16.0
 40
17.0
 40
17.0
 40
17.0
 40
18.0
 40
18.0
 40
18.0
 40
19.0
 40
19.0
 40
19.0
 40
20.0
 40
20.0
 40
20.0
 40
21.0
 40
21.0
 40
21.0
 40
22.0
 40
22.0
 40
22.0
 40
23.0
 40
23.0
 40
23.0
 40
24.0
 40
24.0
 40
24.0
 40
25.0
 40
25.0
 40
25.0
 40
26.0
 40
26.0
 40
26.0
 40
27.0
 40
27.0
 40
27.0
 40
28.0
 40
28.0
 40
28.0
 40
29.0
 40
29.0
 40
29.0
 40
30.0
 40
30.0
 40
30.0
 40
31.0
 40
31.0
 40
31.0
 40
32.0
 40
32.0
 40
32.0
 40
33.0
 40
33.0
 40
33.0
 40
33.0
 10
446.7043891911708
 20
420.0239651635584
 30
0.0
 10
446.5052895779809
 20
419.5794978732001
 30
0.0
 10
446.5201950054579
 20
419.0828301058391
 30
0.0
 10
446.5201950054579
 20
419.0828301058391
 30
0.0
 10
446.5201950054579
 20
419.0828301058391
 30
0.0
 10
446.5201950054579
 20
347.7942269065425
 30
0.0
 10
446.5201950054579
 20
347.7942269065425
 30
0.0
 10
446.5291511686937
 20
347.3232647912482
 30
0.0
 10
446.3737535044474
 20
346.8771279132561
 30
0.0
 10
446.0733143593006
 20
346.517836783948
 30
0.0
 10
446.0733143593006
 20
346.517836783948
 30
0.0
 10
440.693053537263
 20
340.7731991609626
 30
0.0
 10
440.693053537263
 20
340.7731991609626
 30
0.0
 10
440.5560761458346
 20
340.6304038980534
 30
0.0
 10
440.3981372751205
 20
340.5259041109512
 30
0.0
 10
440.2260360456694
 20
340.4620614399573
 30
0.0
 10
440.2260360456694
 20
340.4620614399573
 30
0.0
 10
438.9711986990496
 20
339.9875339157543
 30
0.0
 10
438.9711986990496
 20
339.9875339157543
 30
0.0
 10
438.9711986990496
 20
339.9875339157543
 30
0.0
 10
438.9653092665958
 20
339.9855563653973
 30
0.0
 10
438.9653092665958
 20
339.9855563653973
 30
0.0
 10
438.7761906156793
 20
339.9242903029453
 30
0.0
 10
437.9986662043284
 20
340.0494807719924
 30
0.0
 10
437.8030313270974
 20
340.0842630323514
 30
0.0
 10
437.8030313270974
 20
340.0842630323514
 30
0.0
 10
413.3635136998055
 20
344.6669030391349
 30
0.0
 10
413.3635136998055
 20
344.6669030391349
 30
0.0
 10
412.8936699738288
 20
344.7773573301656
 30
0.0
 10
412.4937949313953
 20
345.0531085203556
 30
0.0
 10
412.2190721134612
 20
345.4533124392728
 30
0.0
 10
412.2190721134612
 20
345.4533124392728
 30
0.0
 10
406.6761512740259
 20
353.2442932233535
 30
0.0
 10
406.6761512740259
 20
353.2442932233535
 30
0.0
 10
406.3690558062663
 20
353.6854828136093
 30
0.0
 10
406.2032256396014
 20
354.2035555162365
 30
0.0
 10
406.1970606724872
 20
354.7410523688659
 30
0.0
 10
406.1970606724872
 20
354.7410523688659
 30
0.0
 10
406.1970606724872
 20
427.4528611588667
 30
0.0
 10
406.1970606724872
 20
427.4528611588667
 30
0.0
 10
406.1592708183643
 20
428.5620921612581
 30
0.0
 10
405.5775992101844
 20
429.4145264388262
 30
0.0
 10
404.5594424427609
 20
429.8172590116628
 30
0.0
 10
404.5594424427609
 20
429.8172590116628
 30
0.0
 10
342.6266717161188
 20
443.9412657390249
 30
0.0
 10
342.6266717161188
 20
443.9412657390249
 30
0.0
 10
342.1193133029574
 20
444.0826670538436
 30
0.0
 10
341.6872127409051
 20
444.3926012828488
 30
0.0
 10
341.3866977754287
 20
444.8282291206242
 30
0.0
 10
341.3866977754287
 20
444.8282291206242
 30
0.0
 10
335.5818371182231
 20
453.254387169588
 30
0.0
 10
335.5818371182231
 20
453.254387169588
 30
0.0
 10
335.252555811303
 20
453.7213566352084
 30
0.0
 10
335.0726986634518
 20
454.2706766506399
 30
0.0
 10
335.0625288591427
 20
454.841497593352
 30
0.0
 10
335.0625288591427
 20
454.841497593352
 30
0.0
 10
335.0625288591427
 20
485.6500666589964
 30
0.0
 10
335.0625288591427
 20
485.6500666589964
 30
0.0
 10
335.0512416058
 20
486.1534721904682
 30
0.0
 10
335.2324683547313
 20
486.619853732228
 30
0.0
 10
335.5818371182231
 20
486.9772254474556
 30
0.0
 10
335.5818371182231
 20
486.9772254474556
 30
0.0
 10
341.3111462977658
 20
492.3457308201114
 30
0.0
 10
341.3111462977658
 20
492.3457308201114
 30
0.0
 10
341.604933138191
 20
492.5723161578944
 30
0.0
 10
342.0598720973621
 20
492.7111962583294
 30
0.0
 10
342.1272064518153
 20
492.7403201608786
 30
0.0
 10
342.3876520369104
 20
492.8529698164875
 30
0.0
 10
343.5418679309314
 20
493.1603583834194
 30
0.0
 10
343.5418506146916
 20
493.1604193076
 30
0.0
 10
343.7784903315578
 20
493.229482495618
 30
0.0
 10
344.032105256787
 20
493.2303175468014
 30
0.0
 10
344.2885684281318
 20
493.1603583834194
 30
0.0
 10
344.2885684281318
 20
493.1603583834194
 30
0.0
 10
503.5725770039753
 20
453.2843487915779
 30
0.0
 10
503.5725770039753
 20
453.2843487915779
 30
0.0
 10
503.5725770039753
 20
453.2843487915779
 30
0.0
 10
504.1221165357056
 20
453.2200660071439
 30
0.0
 10
504.7259198408519
 20
452.2902470517965
 30
0.0
 10
504.7259198408519
 20
452.2902470517965
 30
0.0
 10
509.6173552972705
 20
444.7576544588001
 30
0.0
 10
509.6173552972705
 20
444.7576544588001
 30
0.0
 10
509.6173552972705
 20
444.7576544588001
 30
0.0
 10
510.036237050861
 20
444.304987936076
 30
0.0
 10
510.036237050861
 20
442.7266932484235
 30
0.0
 10
510.036237050861
 20
442.7266932484235
 30
0.0
 10
510.036237050861
 20
414.9548396715663
 30
0.0
 10
510.036237050861
 20
414.9548396715663
 30
0.0
 10
510.036237050861
 20
414.9548396715663
 30
0.0
 10
510.1936160116038
 20
414.1864227317201
 30
0.0
 10
509.5330286874268
 20
413.4887778371594
 30
0.0
 10
509.5330286874268
 20
413.4887778371594
 30
0.0
 10
504.5494691660315
 20
408.2301180078857
 30
0.0
 10
504.5494691660315
 20
408.2301180078857
 30
0.0
 10
504.5494691660315
 20
408.2301180078857
 30
0.0
 10
503.9260086958675
 20
407.2713957307324
 30
0.0
 10
502.9305665254142
 20
407.4460194566609
 30
0.0
 10
502.9305665254142
 20
407.4460194566609
 30
0.0
 10
446.7170074317219
 20
420.0183126707034
 30
0.0
 10
446.7170074317219
 20
420.0183126707034
 30
0.0
  0
HATCH
  5
13A
330
135
100
AcDbEntity
  8
Layer 3
 62
   250
420
  2301728
100
AcDbHatch
 10
0.0
 20
0.0
 30
0.0
210
0.0
220
0.0
230
1.0
  2
SOLID
 70
     1
 71
     0
 91
        1
 92
        1
 93
        2
 72
     4
 94
        3
 73
     0
 74
     0
 95
      104
 96
      100
 40
0.0
 40
0.0
 40
0.0
 40
0.0
 40
1.0
 40
1.0
 40
1.0
 40
2.0
 40
2.0
 40
2.0
 40
3.0
 40
3.0
 40
3.0
 40
4.0
 40
4.0
 40
4.0
 40
5.0
 40
5.0
 40
5.0
 40
6.0
 40
6.0
 40
6.0
 40
7.0
 40
7.0
 40
7.0
 40
8.0
 40
8.0
 40
8.0
 40
9.0
 40
9.0
 40
9.0
 40
10.0
 40
10.0
 40
10.0
 40
11.0
 40
11.0
 40
11.0
 40
12.0
 40
12.0
 40
12.0
 40
13.0
 40
13.0
 40
13.0
 40
14.0
 40
14.0
 40
14.0
 40
15.0
 40
15.0
 40
15.0
 40
16.0
 40
16.0
 40
16.0
 40
17.0
 40
17.0
 40
17.0
 40
18.0
 40
18.0
 40
18.0
 40
19.0
 40
19.0
 40
19.0
 40
20.0
 40
20.0
 40
20.0
 40
21.0
 40
21.0
 40
21.0
 40
22.0
 40
22.0
 40
22.0
 40
23.0
 40
23.0
 40
23.0
 40
24.0
 40
24.0
 40
24.0
 40
25.0
 40
25.0
 40
25.0
 40
26.0
 40
26.0
 40
26.0
 40
27.0
 40
27.0
 40
27.0
 40
28.0
 40
28.0
 40
28.0
 40
29.0
 40
29.0
 40
29.0
 40
30.0
 40
30.0
 40
30.0
 40
31.0
 40
31.0
 40
31.0
 40
32.0
 40
32.0
 40
32.0
 40
33.0
 40
33.0
 40
33.0
 40
33.0
 10
446.7043891911708
 20
420.0239651635584
 10
446.5052895779809
 20
419.5794978732001
 10
446.5201950054579
 20
419.0828301058391
 10
446.5201950054579
 20
419.0828301058391
 10
446.5201950054579
 20
419.0828301058391
 10
446.5201950054579
 20
347.7942269065425
 10
446.5201950054579
 20
347.7942269065425
 10
446.5291511686937
 20
347.3232647912482
 10
446.3737535044474
 20
346.8771279132561
 10
446.0733143593006
 20
346.517836783948
 10
446.0733143593006
 20
346.517836783948
 10
440.693053537263
 20
340.7731991609626
 10
440.693053537263
 20
340.7731991609626
 10
440.5560761458346
 20
340.6304038980534
 10
440.3981372751205
 20
340.5259041109512
 10
440.2260360456694
 20
340.4620614399573
 10
440.2260360456694
 20
340.4620614399573
 10
438.9711986990496
 20
339.9875339157543
 10
438.9711986990496
 20
339.9875339157543
 10
438.9711986990496
 20
339.9875339157543
 10
438.9653092665958
 20
339.9855563653973
 10
438.9653092665958
 20
339.9855563653973
 10
438.7761906156793
 20
339.9242903029453
 10
437.9986662043284
 20
340.0494807719924
 10
437.8030313270974
 20
340.0842630323514
 10
437.8030313270974
 20
340.0842630323514
 10
413.3635136998055
 20
344.6669030391349
 10
413.3635136998055
 20
344.6669030391349
 10
412.8936699738288
 20
344.7773573301656
 10
412.4937949313953
 20
345.0531085203556
 10
412.2190721134612
 20
345.4533124392728
 10
412.2190721134612
 20
345.4533124392728
 10
406.6761512740259
 20
353.2442932233535
 10
406.6761512740259
 20
353.2442932233535
 10
406.3690558062663
 20
353.6854828136093
 10
406.2032256396014
 20
354.2035555162365
 10
406.1970606724872
 20
354.7410523688659
 10
406.1970606724872
 20
354.7410523688659
 10
406.1970606724872
 20
427.4528611588667
 10
406.1970606724872
 20
427.4528611588667
 10
406.1592708183643
 20
428.5620921612581
 10
405.5775992101844
 20
429.4145264388262
 10
404.5594424427609
 20
429.8172590116628
 10
404.5594424427609
 20
429.8172590116628
 10
342.6266717161188
 20
443.9412657390249
 10
342.6266717161188
 20
443.9412657390249
 10
342.1193133029574
 20
444.0826670538436
 10
341.6872127409051
 20
444.3926012828488
 10
341.3866977754287
 20
444.8282291206242
 10
341.3866977754287
 20
444.8282291206242
 10
335.5818371182231
 20
453.254387169588
 10
335.5818371182231
 20
453.254387169588
 10
335.252555811303
 20
453.7213566352084
 10
335.0726986634518
 20
454.2706766506399
 10
335.0625288591427
 20
454.841497593352
 10
335.0625288591427
 20
454.841497593352
 10
335.0625288591427
 20
485.6500666589964
 10
335.0625288591427
 20
485.6500666589964
 10
335.0512416058
 20
486.1534721904682
 10
335.2324683547313
 20
486.619853732228
 10
335.5818371182231
 20
486.9772254474556
 10
335.5818371182231
 20
486.9772254474556
 10
341.3111462977658
 20
492.3457308201114
 10
341.3111462977658
 20
492.3457308201114
 10
341.604933138191
 20
492.5723161578944
 10
342.0598720973621
 20
492.7111962583294
 10
342.1272064518153
 20
492.7403201608786
 10
342.3876520369104
 20
492.8529698164875
 10
343.5418679309314
 20
493.1603583834194
 10
343.5418506146916
 20
493.1604193076
 10
343.7784903315578
 20
493.229482495618
 10
344.032105256787
 20
493.2303175468014
 10
344.2885684281318
 20
493.1603583834194
 10
344.2885684281318
 20
493.1603583834194
 10
503.5725770039753
 20
453.2843487915779
 10
503.5725770039753
 20
453.2843487915779
 10
503.5725770039753
 20
453.2843487915779
 10
504.1221165357056
 20
453.2200660071439
 10
504.7259198408519
 20
452.2902470517965
 10
504.7259198408519
 20
452.2902470517965
 10
509.6173552972705
 20
444.7576544588001
 10
509.6173552972705
 20
444.7576544588001
 10
509.6173552972705
 20
444.7576544588001
 10
510.036237050861
 20
444.304987936076
 10
510.036237050861
 20
442.7266932484235
 10
510.036237050861
 20
442.7266932484235
 10
510.036237050861
 20
414.9548396715663
 10
510.036237050861
 20
414.9548396715663
 10
510.036237050861
 20
414.9548396715663
 10
510.1936160116038
 20
414.1864227317201
 10
509.5330286874268
 20
413.4887778371594
 10
509.5330286874268
 20
413.4887778371594
 10
504.5494691660315
 20
408.2301180078857
 10
504.5494691660315
 20
408.2301180078857
 10
504.5494691660315
 20
408.2301180078857
 10
503.9260086958675
 20
407.2713957307324
 10
502.9305665254142
 20
407.4460194566609
 10
502.9305665254142
 20
407.4460194566609
 10
446.7170074317219
 20
420.0183126707034
 10
446.7170074317219
 20
420.0183126707034
 97
        0
 72
     1
 10
446.7170074317219
 20
420.0183126707034
 11
446.7043891911708
 21
420.0239651635584
 97
        0
 75
     2
 76
     1
 98
        0
  0
SPLINE
  5
13B
330
135
100
AcDbEntity
  8
Layer 3
 62
    18
420
        0
370
     9
100
AcDbSpline
210
0.0
220
0.0
230
1.0
 70
     8
 71
     3
 72
     8
 73
     4
 74
     0
 42
0.0000000001
 43
0.0000000001
 12
1.0
 22
0.0
 32
0.0
 13
1.0
 23
0.0
 33
0.0
 40
0.0
 40
0.0
 40
0.0
 40
0.0
 40
1.0
 40
1.0
 40
1.0
 40
1.0
 10
343.0478484017558
 20
492.8941685844111
 30
0.0
 10
343.1992522238925
 20
493.0199534750336
 30
0.0
 10
343.3658567511893
 20
493.1090555828368
 30
0.0
 10
343.5418506146916
 20
493.1604193076
 30
0.0
  0
POLYLINE
  5
13C
330
135
100
AcDbEntity
  8
Layer 3
 62
    18
420
        0
370
     9
100
AcDb2dPolyline
 66
     1
 10
0.0
 20
0.0
 30
0.0
  0
VERTEX
  5
13D
330
13C
100
AcDbEntity
  8
Layer 3
 62
    18
420
        0
370
     9
100
AcDbVertex
100
AcDb2dVertex
 10
337.3127354662247
 20
487.5191771562741
 30
0.0
  0
VERTEX
  5
13E
330
13C
100
AcDbEntity
  8
Layer 3
 62
    18
420
        0
370
     9
100
AcDbVertex
100
AcDb2dVertex
 10
343.0478484017558
 20
492.8941685844111
 30
0.0
  0
SEQEND
  5
13F
330
13C
100
AcDbEntity
  8
Layer 3
 62
    18
420
        0
370
     9
  0
SPLINE
  5
140
330
135
100
AcDbEntity
  8
Layer 3
 62
    18
420
        0
370
     9
100
AcDbSpline
210
0.0
220
0.0
230
1.0
 70
     8
 71
     3
 72
     8
 73
     4
 74
     0
 42
0.0000000001
 43
0.0000000001
 12
1.0
 22
0.0
 32
0.0
 13
1.0
 23
0.0
 33
0.0
 40
0.0
 40
0.0
 40
0.0
 40
0.0
 40
1.0
 40
1.0
 40
1.0
 40
1.0
 10
336.7931086014887
 20
486.1907403007463
 30
0.0
 10
336.7817762755694
 20
486.6946025767184
 30
0.0
 10
336.963109768335
 20
487.1614374275232
 30
0.0
 10
337.3127354662247
 20
487.5191771562741
 30
0.0
  0
POLYLINE
  5
141
330
135
100
AcDbEntity
  8
Layer 3
 62
    18
420
        0
370
     9
100
AcDb2dPolyline
 66
     1
 10
0.0
 20
0.0
 30
0.0
  0
VERTEX
  5
142
330
141
100
AcDbEntity
  8
Layer 3
 62
    18
420
        0
370
     9
100
AcDbVertex
100
AcDb2dVertex
 10
336.7931086014887
 20
486.1907403007463
 30
0.0
  0
VERTEX
  5
143
330
141
100
AcDbEntity
  8
Layer 3
 62
    18
420
        0
370
     9
100
AcDbVertex
100
AcDb2dVertex
 10
336.7931086014887
 20
455.3216477997485
 30
0.0
  0
SEQEND
  5
144
330
141
100
AcDbEntity
  8
Layer 3
 62
    18
420
        0
370
     9
  0
SPLINE
  5
145
330
135
100
AcDbEntity
  8
Layer 3
 62
    18
420
        0
370
     9
100
AcDbSpline
210
0.0
220
0.0
230
1.0
 70
     8
 71
     3
 72
     8
 73
     4
 74
     0
 42
0.0000000001
 43
0.0000000001
 12
1.0
 22
0.0
 32
0.0
 13
1.0
 23
0.0
 33
0.0
 40
0.0
 40
0.0
 40
0.0
 40
0.0
 40
1.0
 40
1.0
 40
1.0
 40
1.0
 10
337.3127354662247
 20
453.7327002200218
 30
0.0
 10
336.9832436015095
 20
454.2002719067887
 30
0.0
 10
336.8032782928976
 20
454.7502155136317
 30
0.0
 10
336.7931086014887
 20
455.3216477997485
 30
0.0
  0
POLYLINE
  5
146
330
135
100
AcDbEntity
  8
Layer 3
 62
    18
420
        0
370
     9
100
AcDb2dPolyline
 66
     1
 10
0.0
 20
0.0
 30
0.0
  0
VERTEX
  5
147
330
146
100
AcDbEntity
  8
Layer 3
 62
    18
420
        0
370
     9
100
AcDbVertex
100
AcDb2dVertex
 10
343.1233998794187
 20
445.2898033717584
 30
0.0
  0
VERTEX
  5
148
330
146
100
AcDbEntity
  8
Layer 3
 62
    18
420
        0
370
     9
100
AcDbVertex
100
AcDb2dVertex
 10
337.3127354662247
 20
453.7327002200218
 30
0.0
  0
SEQEND
  5
149
330
146
100
AcDbEntity
  8
Layer 3
 62
    18
420
        0
370
     9
  0
SPLINE
  5
14A
330
135
100
AcDbEntity
  8
Layer 3
 62
    18
420
        0
370
     9
100
AcDbSpline
210
0.0
220
0.0
230
1.0
 70
     8
 71
     3
 72
     8
 73
     4
 74
     0
 42
0.0000000001
 43
0.0000000001
 12
1.0
 22
0.0
 32
0.0
 13
1.0
 23
0.0
 33
0.0
 40
0.0
 40
0.0
 40
0.0
 40
0.0
 40
1.0
 40
1.0
 40
1.0
 40
1.0
 10
344.3641199057938
 20
444.4015886265306
 30
0.0
 10
343.8563816809765
 20
444.5433237903171
 30
0.0
 10
343.4240224002997
 20
444.853692360899
 30
0.0
 10
343.1233998794187
 20
445.2898033717584
 30
0.0
  0
POLYLINE
  5
14B
330
135
100
AcDbEntity
  8
Layer 3
 62
    18
420
        0
370
     9
100
AcDb2dPolyline
 66
     1
 10
0.0
 20
0.0
 30
0.0
  0
VERTEX
  5
14C
330
14B
100
AcDbEntity
  8
Layer 3
 62
    18
420
        0
370
     9
100
AcDbVertex
100
AcDb2dVertex
 10
344.3641199057938
 20
444.4015886265306
 30
0.0
  0
VERTEX
  5
14D
330
14B
100
AcDbEntity
  8
Layer 3
 62
    18
420
        0
370
     9
100
AcDbVertex
100
AcDb2dVertex
 10
406.3319761099247
 20
430.2477935656743
 30
0.0
  0
SEQEND
  5
14E
330
14B
100
AcDbEntity
  8
Layer 3
 62
    18
420
        0
370
     9
  0
SPLINE
  5
14F
330
135
100
AcDbEntity
  8
Layer 3
 62
    18
420
        0
370
     9
100
AcDbSpline
210
0.0
220
0.0
230
1.0
 70
     8
 71
     3
 72
     8
 73
     4
 74
     0
 42
0.0000000001
 43
0.0000000001
 12
1.0
 22
0.0
 32
0.0
 13
1.0
 23
0.0
 33
0.0
 40
0.0
 40
0.0
 40
0.0
 40
0.0
 40
1.0
 40
1.0
 40
1.0
 40
1.0
 10
407.9704618816604
 20
427.8805676639422
 30
0.0
 10
407.9327703044619
 20
428.9907977565881
 30
0.0
 10
407.3508116602025
 20
429.844273811681
 30
0.0
 10
406.3319761099247
 20
430.2477935656743
 30
0.0
  0
POLYLINE
  5
150
330
135
100
AcDbEntity
  8
Layer 3
 62
    18
420
        0
370
     9
100
AcDb2dPolyline
 66
     1
 10
0.0
 20
0.0
 30
0.0
  0
VERTEX
  5
151
330
150
100
AcDbEntity
  8
Layer 3
 62
    18
420
        0
370
     9
100
AcDbVertex
100
AcDb2dVertex
 10
407.9704618816604
 20
427.8805676639449
 30
0.0
  0
VERTEX
  5
152
330
150
100
AcDbEntity
  8
Layer 3
 62
    18
420
        0
370
     9
100
AcDbVertex
100
AcDb2dVertex
 10
407.9704618816604
 20
355.0935809257971
 30
0.0
  0
SEQEND
  5
153
330
150
100
AcDbEntity
  8
Layer 3
 62
    18
420
        0
370
     9
  0
SPLINE
  5
154
330
135
100
AcDbEntity
  8
Layer 3
 62
    18
420
        0
370
     9
100
AcDbSpline
210
0.0
220
0.0
230
1.0
 70
     8
 71
     3
 72
     8
 73
     4
 74
     0
 42
0.0000000001
 43
0.0000000001
 12
1.0
 22
0.0
 32
0.0
 13
1.0
 23
0.0
 33
0.0
 40
0.0
 40
0.0
 40
0.0
 40
0.0
 40
1.0
 40
1.0
 40
1.0
 40
1.0
 10
408.4498057105902
 20
353.5951841077213
 30
0.0
 10
408.1425375562803
 20
354.0369150164579
 30
0.0
 10
407.9766218239529
 20
354.5555426908304
 30
0.0
 10
407.9704618816604
 20
355.0935809257971
 30
0.0
  0
POLYLINE
  5
155
330
135
100
AcDbEntity
  8
Layer 3
 62
    18
420
        0
370
     9
100
AcDb2dPolyline
 66
     1
 10
0.0
 20
0.0
 30
0.0
  0
VERTEX
  5
156
330
155
100
AcDbEntity
  8
Layer 3
 62
    18
420
        0
370
     9
100
AcDbVertex
100
AcDb2dVertex
 10
413.9973372625318
 20
345.7898033854417
 30
0.0
  0
VERTEX
  5
157
330
155
100
AcDbEntity
  8
Layer 3
 62
    18
420
        0
370
     9
100
AcDbVertex
100
AcDb2dVertex
 10
408.4498057105902
 20
353.5951841077213
 30
0.0
  0
SEQEND
  5
158
330
155
100
AcDbEntity
  8
Layer 3
 62
    18
420
        0
370
     9
  0
SPLINE
  5
159
330
135
100
AcDbEntity
  8
Layer 3
 62
    18
420
        0
370
     9
100
AcDbSpline
210
0.0
220
0.0
230
1.0
 70
     8
 71
     3
 72
     8
 73
     4
 74
     0
 42
0.0000000001
 43
0.0000000001
 12
1.0
 22
0.0
 32
0.0
 13
1.0
 23
0.0
 33
0.0
 40
0.0
 40
0.0
 40
0.0
 40
0.0
 40
1.0
 40
1.0
 40
1.0
 40
1.0
 10
415.1423712673959
 20
345.0023740906781
 30
0.0
 10
414.6722093991493
 20
345.1130863111721
 30
0.0
 10
414.2721272474646
 20
345.3891935252159
 30
0.0
 10
413.9973372625318
 20
345.7898033854417
 30
0.0
  0
POLYLINE
  5
15A
330
135
100
AcDbEntity
  8
Layer 3
 62
    18
420
        0
370
     9
100
AcDb2dPolyline
 66
     1
 10
0.0
 20
0.0
 30
0.0
  0
VERTEX
  5
15B
330
15A
100
AcDbEntity
  8
Layer 3
 62
    18
420
        0
370
     9
100
AcDbVertex
100
AcDb2dVertex
 10
415.1423712673959
 20
345.0023740906781
 30
0.0
  0
VERTEX
  5
15C
330
15A
100
AcDbEntity
  8
Layer 3
 62
    18
420
        0
370
     9
100
AcDbVertex
100
AcDb2dVertex
 10
439.6030287467202
 20
340.4040243911313
 30
0.0
  0
SEQEND
  5
15D
330
15A
100
AcDbEntity
  8
Layer 3
 62
    18
420
        0
370
     9
  0
SPLINE
  5
15E
330
135
100
AcDbEntity
  8
Layer 3
 62
    18
420
        0
370
     9
100
AcDbSpline
210
0.0
220
0.0
230
1.0
 70
     8
 71
     3
 72
     8
 73
     4
 74
     0
 42
0.0000000001
 43
0.0000000001
 12
1.0
 22
0.0
 32
0.0
 13
1.0
 23
0.0
 33
0.0
 40
0.0
 40
0.0
 40
0.0
 40
0.0
 40
1.0
 40
1.0
 40
1.0
 40
1.0
 10
440.2260360456694
 20
340.4620614399573
 30
0.0
 10
440.0329878680368
 20
340.3904482891994
 30
0.0
 10
439.8221200449952
 20
340.3699915457828
 30
0.0
 10
439.6030287467202
 20
340.4040243911313
 30
0.0
  0
SPLINE
  5
15F
330
135
100
AcDbEntity
  8
Layer 3
 62
    18
420
        0
370
     9
100
AcDbSpline
210
0.0
220
0.0
230
1.0
 70
     8
 71
     3
 72
    14
 73
    10
 74
     0
 42
0.0000000001
 43
0.0000000001
 12
1.0
 22
0.0
 32
0.0
 13
1.0
 23
0.0
 33
0.0
 40
0.0
 40
0.0
 40
0.0
 40
0.0
 40
1.0
 40
1.0
 40
1.0
 40
2.0
 40
2.0
 40
2.0
 40
3.0
 40
3.0
 40
3.0
 40
3.0
 10
446.7043891911708
 20
420.0239651635584
 30
0.0
 10
446.8953438269473
 20
420.4502497162284
 30
0.0
 10
447.2831521629378
 20
420.8285173763124
 30
0.0
 10
448.0697647411616
 20
420.6745428467129
 30
0.0
 10
448.0697647411616
 20
420.6745428467129
 30
0.0
 10
503.1608592818411
 20
408.0701284553634
 30
0.0
 10
503.1608592818411
 20
408.0701284553634
 30
0.0
 10
503.1608592818411
 20
408.0701284553634
 30
0.0
 10
504.0112697086297
 20
407.6622090956698
 30
0.0
 10
504.7627882952911
 20
408.4552126879116
 30
0.0
  0
ENDBLK
  5
138
330
135
100
AcDbEntity
  8
0
100
AcDbBlockEnd
  0
BLOCK
  5
162
330
160
100
AcDbEntity
  8
0
100
AcDbBlockBegin
  2
block 18
 70
     0
 10
0.0
 20
0.0
 30
0.0
  3
block 18
  1

  0
INSERT
  5
165
330
160
100
AcDbEntity
  8
Layer 3
100
AcDbBlockReference
  2
block 19
 10
0.0
 20
0.0
 30
0.0
  0
INSERT
  5
1C6
330
160
100
AcDbEntity
  8
Layer 3
100
AcDbBlockReference
  2
block 25
 10
0.0
 20
0.0
 30
0.0
  0
INSERT
  5
227
330
160
100
AcDbEntity
  8
Layer 3
100
AcDbBlockReference
  2
block 31
 10
0.0
 20
0.0
 30
0.0
  0
MTEXT
  5
287
330
160
100
AcDbEntity
  8
Layer 3
 62
    18
420
        0
100
AcDbMText
 10
453.8373935983982
 20
446.2404243419878
 30
0.0
 40
3.38698628055034
 41
0.0
 46
0.0
 71
     7
 72
     1
  1
\fHelvetica LT Std Condensed|b0|i0|c0|p34;\W0.979943;APVT4
 11
0.9732569313509269
 21
-0.2297192755895269
 31
0.0
 73
     1
 44
1.0
  0
MTEXT
  5
288
330
160
100
AcDbEntity
  8
Layer 3
 62
    18
420
        0
100
AcDbMText
 10
454.9161534455488
 20
442.2992796193575
 30
0.0
 40
2.540241517560015
 41
0.0
 46
0.0
 71
     7
 72
     1
  1
\fHelvetica LT Std Condensed|b0|i0|c0|p34;\W0.979943;ER-102
 11
0.9732569313509269
 21
-0.2297192755895269
 31
0.0
 73
     1
 44
1.0
  0
MTEXT
  5
289
330
160
100
AcDbEntity
  8
Layer 3
 62
    18
420
        0
100
AcDbMText
 10
453.1540206203354
 20
439.0286750035593
 30
0.0
 40
2.540241517560015
 41
0.0
 46
0.0
 71
     7
 72
     1
  1
\fHelvetica LT Std Condensed|b0|i0|c0|p34;\W0.979943;SIMPSON
 11
0.9732569313509269
 21
-0.2297192755895269
 31
0.0
 73
     1
 44
1.0
  0
MTEXT
  5
28A
330
160
100
AcDbEntity
  8
Layer 3
 62
    18
420
        0
100
AcDbMText
 10
452.0961706556845
 20
435.5918374606408
 30
0.0
 40
2.540241517560015
 41
0.0
 46
0.0
 71
     7
 72
     1
  1
\fHelvetica LT Std Condensed|b0|i0|c0|p34;\W0.979943;Strong-Tie\H1.27012;®
 11
0.9732569313509269
 21
-0.2297192755895269
 31
0.0
 73
     1
 44
1.0
  0
MTEXT
  5
28B
330
160
100
AcDbEntity
  8
Layer 3
 62
    18
420
        0
100
AcDbMText
 10
388.482605395955
 20
459.1227548068855
 30
0.0
 40
2.540241517560015
 41
0.0
 46
0.0
 71
     7
 72
     1
  1
\fHelvetica LT Std Condensed|b0|i0|c0|p34;\W1.01935;Use & Warnings:
 11
0.9732569313509269
 21
-0.2297192755895269
 31
0.0
 73
     1
 44
1.0
  0
MTEXT
  5
28C
330
160
100
AcDbEntity
  8
Layer 3
 62
    18
420
        0
100
AcDbMText
 10
387.431408575736
 20
455.6843469124287
 30
0.0
 40
2.540241517560015
 41
0.0
 46
0.0
 71
     7
 72
     1
  1
\fHelvetica LT Std Condensed|b0|i0|c0|p34;\W1.01935;strongtie.com/info
 11
0.9732569313509269
 21
-0.2297192755895269
 31
0.0
 73
     1
 44
1.0
  0
ENDBLK
  5
163
330
160
100
AcDbEntity
  8
0
100
AcDbBlockEnd
  0
BLOCK
  5
166
330
164
100
AcDbEntity
  8
0
100
AcDbBlockBegin
  2
block 19
 70
     0
 10
0.0
 20
0.0
 30
0.0
  3
block 19
  1

  0
INSERT
  5
169
330
164
100
AcDbEntity
  8
Layer 3
100
AcDbBlockReference
  2
block 20
 10
0.0
 20
0.0
 30
0.0
  0
INSERT
  5
170
330
164
100
AcDbEntity
  8
Layer 3
100
AcDbBlockReference
  2
block 21
 10
0.0
 20
0.0
 30
0.0
  0
ENDBLK
  5
167
330
164
100
AcDbEntity
  8
0
100
AcDbBlockEnd
  0
BLOCK
  5
16A
330
168
100
AcDbEntity
  8
0
100
AcDbBlockBegin
  2
block 20
 70
     0
 10
0.0
 20
0.0
 30
0.0
  3
block 20
  1

  0
SPLINE
  5
16C
330
168
100
AcDbEntity
  8
Layer 3
 62
    18
420
        0
370
     9
100
AcDbSpline
210
0.0
220
0.0
230
1.0
 70
    11
 71
     3
 72
    23
 73
    19
 74
     0
 42
0.0000000001
 43
0.0000000001
 12
1.0
 22
0.0
 32
0.0
 13
1.0
 23
0.0
 33
0.0
 40
0.0
 40
0.0
 40
0.0
 40
0.0
 40
1.0
 40
1.0
 40
1.0
 40
2.0
 40
2.0
 40
2.0
 40
3.0
 40
3.0
 40
3.0
 40
4.0
 40
4.0
 40
4.0
 40
5.0
 40
5.0
 40
5.0
 40
6.0
 40
6.0
 40
6.0
 40
6.0
 10
495.1761968466508
 20
421.6969916752887
 30
0.0
 10
490.8101985531812
 20
421.2100553909377
 30
0.0
 10
486.1715159404775
 20
424.9675855708738
 30
0.0
 10
484.3916050010175
 20
430.6976277433168
 30
0.0
 10
482.5282991093391
 20
436.6962471685747
 30
0.0
 10
484.4713771258102
 20
442.6885815376381
 30
0.0
 10
488.737312346404
 20
444.4915214694611
 30
0.0
 10
488.737312346404
 20
444.4915214694611
 30
0.0
 10
490.6946406387979
 20
445.2066488534574
 30
0.0
 10
490.6946406387979
 20
445.2066488534574
 30
0.0
 10
495.393497997442
 20
446.6662131409284
 30
0.0
 10
500.7853294727047
 20
442.7542946004214
 30
0.0
 10
502.7376795027685
 20
436.4691139496763
 30
0.0
 10
504.504278119568
 20
430.7818226050076
 30
0.0
 10
502.849317035565
 20
425.1000695771854
 30
0.0
 10
499.0371504265349
 20
422.9891618918464
 30
0.0
 10
499.0371504265349
 20
422.9891618918464
 30
0.0
 10
495.1761968466508
 20
421.6969916752887
 30
0.0
 10
495.1761968466508
 20
421.6969916752887
 30
0.0
  0
HATCH
  5
16D
330
168
100
AcDbEntity
  8
Layer 3
 62
   250
420
  2301728
100
AcDbHatch
 10
0.0
 20
0.0
 30
0.0
210
0.0
220
0.0
230
1.0
  2
SOLID
 70
     1
 71
     0
 91
        1
 92
        1
 93
        1
 72
     4
 94
        3
 73
     0
 74
     1
 95
       23
 96
       19
 40
0.0
 40
0.0
 40
0.0
 40
0.0
 40
1.0
 40
1.0
 40
1.0
 40
2.0
 40
2.0
 40
2.0
 40
3.0
 40
3.0
 40
3.0
 40
4.0
 40
4.0
 40
4.0
 40
5.0
 40
5.0
 40
5.0
 40
6.0
 40
6.0
 40
6.0
 40
6.0
 10
495.1761968466508
 20
421.6969916752887
 10
490.8101985531812
 20
421.2100553909377
 10
486.1715159404775
 20
424.9675855708738
 10
484.3916050010175
 20
430.6976277433168
 10
482.5282991093391
 20
436.6962471685747
 10
484.4713771258102
 20
442.6885815376381
 10
488.737312346404
 20
444.4915214694611
 10
488.737312346404
 20
444.4915214694611
 10
490.6946406387979
 20
445.2066488534574
 10
490.6946406387979
 20
445.2066488534574
 10
495.393497997442
 20
446.6662131409284
 10
500.7853294727047
 20
442.7542946004214
 10
502.7376795027685
 20
436.4691139496763
 10
504.504278119568
 20
430.7818226050076
 10
502.849317035565
 20
425.1000695771854
 10
499.0371504265349
 20
422.9891618918464
 10
499.0371504265349
 20
422.9891618918464
 10
495.1761968466508
 20
421.6969916752887
 10
495.1761968466508
 20
421.6969916752887
 97
        0
 97
        0
 75
     2
 76
     1
 98
        0
  0
SPLINE
  5
16E
330
168
100
AcDbEntity
  8
Layer 3
 62
    18
420
        0
370
     5
100
AcDbSpline
210
0.0
220
0.0
230
1.0
 70
     8
 71
     3
 72
    14
 73
    10
 74
     0
 42
0.0000000001
 43
0.0000000001
 12
1.0
 22
0.0
 32
0.0
 13
1.0
 23
0.0
 33
0.0
 40
0.0
 40
0.0
 40
0.0
 40
0.0
 40
1.0
 40
1.0
 40
1.0
 40
2.0
 40
2.0
 40
2.0
 40
3.0
 40
3.0
 40
3.0
 40
3.0
 10
499.0371504265349
 20
422.9891618918464
 30
0.0
 10
498.6363380805269
 20
422.7671936201177
 30
0.0
 10
498.2116923036047
 20
422.5847403056487
 30
0.0
 10
497.7647065744677
 20
422.445909014863
 30
0.0
 10
493.0658492158236
 20
420.986344727391
 30
0.0
 10
487.6740177405627
 20
424.8982632678999
 30
0.0
 10
485.7216677104989
 20
431.1835061469237
 30
0.0
 10
483.7693221937934
 20
437.4686867976679
 30
0.0
 10
485.9957832801556
 20
443.7470845659846
 30
0.0
 10
490.6946406387979
 20
445.2066488534574
 30
0.0
  0
ENDBLK
  5
16B
330
168
100
AcDbEntity
  8
0
100
AcDbBlockEnd
  0
BLOCK
  5
171
330
16F
100
AcDbEntity
  8
0
100
AcDbBlockBegin
  2
block 21
 70
     0
 10
0.0
 20
0.0
 30
0.0
  3
block 21
  1

  0
SPLINE
  5
173
330
16F
100
AcDbEntity
  8
Layer 3
 62
    18
420
        0
370
     9
100
AcDbSpline
210
0.0
220
0.0
230
1.0
 70
    11
 71
     3
 72
    65
 73
    61
 74
     0
 42
0.0000000001
 43
0.0000000001
 12
1.0
 22
0.0
 32
0.0
 13
1.0
 23
0.0
 33
0.0
 40
0.0
 40
0.0
 40
0.0
 40
0.0
 40
1.0
 40
1.0
 40
1.0
 40
2.0
 40
2.0
 40
2.0
 40
3.0
 40
3.0
 40
3.0
 40
4.0
 40
4.0
 40
4.0
 40
5.0
 40
5.0
 40
5.0
 40
6.0
 40
6.0
 40
6.0
 40
7.0
 40
7.0
 40
7.0
 40
8.0
 40
8.0
 40
8.0
 40
9.0
 40
9.0
 40
9.0
 40
10.0
 40
10.0
 40
10.0
 40
11.0
 40
11.0
 40
11.0
 40
12.0
 40
12.0
 40
12.0
 40
13.0
 40
13.0
 40
13.0
 40
14.0
 40
14.0
 40
14.0
 40
15.0
 40
15.0
 40
15.0
 40
16.0
 40
16.0
 40
16.0
 40
17.0
 40
17.0
 40
17.0
 40
18.0
 40
18.0
 40
18.0
 40
19.0
 40
19.0
 40
19.0
 40
20.0
 40
20.0
 40
20.0
 40
20.0
 10
486.1196175556652
 20
434.6111642190845
 30
0.0
 10
486.1196175556652
 20
434.6111642190845
 30
0.0
 10
489.5386258970229
 20
426.5412142940277
 30
0.0
 10
489.5386258970229
 20
426.5412142940277
 30
0.0
 10
489.7886637880711
 20
425.9194293287574
 30
0.0
 10
490.2697459487626
 20
425.4706389795256
 30
0.0
 10
490.9039765698599
 20
425.2769845748098
 30
0.0
 10
490.9039765698599
 20
425.2769845748098
 30
0.0
 10
497.7112524826789
 20
423.8586776364155
 30
0.0
 10
497.7112524826789
 20
423.8586776364155
 30
0.0
 10
498.3021148736989
 20
423.77479391612
 30
0.0
 10
498.7846902980218
 20
424.023582576162
 30
0.0
 10
499.0688246206228
 20
424.5522740358247
 30
0.0
 10
499.0688246206228
 20
424.5522740358247
 30
0.0
 10
499.5227176887456
 20
425.437346850179
 30
0.0
 10
499.5227176887456
 20
425.437346850179
 30
0.0
 10
499.5227176887456
 20
425.437346850179
 30
0.0
 10
501.0465637885773
 20
426.0339293623947
 30
0.0
 10
501.0465637885773
 20
426.0339293623947
 30
0.0
 10
501.0465637885773
 20
426.0339293623947
 30
0.0
 10
501.0535333558437
 20
426.0367296349559
 30
0.0
 10
501.0535333558437
 20
426.0367296349559
 30
0.0
 10
501.2768706497154
 20
426.1303831950763
 30
0.0
 10
501.4577682572053
 20
426.295910417618
 30
0.0
 10
501.5692191051621
 20
426.5114069483152
 30
0.0
 10
501.5692191051621
 20
426.5114069483152
 30
0.0
 10
504.96271385207
 20
433.1323713933543
 30
0.0
 10
504.96271385207
 20
433.1323713933543
 30
0.0
 10
505.1006117186662
 20
433.4157589766064
 30
0.0
 10
505.1125595482627
 20
433.7282762210061
 30
0.0
 10
504.9965660359285
 20
434.0213023610177
 30
0.0
 10
504.9965660359285
 20
434.0213023610177
 30
0.0
 10
501.6027601476253
 20
442.083909349134
 30
0.0
 10
501.6027601476253
 20
442.083909349134
 30
0.0
 10
501.4704005978729
 20
442.382363221067
 30
0.0
 10
501.224354936423
 20
442.5906342262551
 30
0.0
 10
500.9086036937024
 20
442.6692907711003
 30
0.0
 10
500.9086036937024
 20
442.6692907711003
 30
0.0
 10
494.0946693550177
 20
444.1353338890158
 30
0.0
 10
494.0946693550177
 20
444.1353338890158
 30
0.0
 10
494.0946693550177
 20
444.1353338890158
 30
0.0
 10
494.0888821250555
 20
444.1365784546306
 30
0.0
 10
494.0888821250555
 20
444.1365784546306
 30
0.0
 10
493.9047486470499
 20
444.1736594195618
 30
0.0
 10
493.7147657108035
 20
444.1567333276325
 30
0.0
 10
493.5404068328226
 20
444.0867265135876
 30
0.0
 10
493.5404068328226
 20
444.0867265135876
 30
0.0
 10
492.2976411097115
 20
443.5830508221461
 30
0.0
 10
492.2976411097115
 20
443.5830508221461
 30
0.0
 10
492.2976411097115
 20
443.5830508221461
 30
0.0
 10
490.9039765698599
 20
443.8824310731379
 30
0.0
 10
490.9039765698599
 20
443.8824310731379
 30
0.0
 10
490.3115633523485
 20
443.9713552840431
 30
0.0
 10
489.826120546697
 20
443.7252495190551
 30
0.0
 10
489.5386258970229
 20
443.196053154109
 30
0.0
 10
489.5386258970229
 20
443.196053154109
 30
0.0
 10
486.1196175556652
 20
436.5729107192992
 30
0.0
 10
486.1196175556652
 20
436.5729107192992
 30
0.0
 10
485.8439462790284
 20
435.9399246637813
 30
0.0
 10
485.8453153011687
 20
435.2495019066082
 30
0.0
 10
486.1196175556652
 20
434.6111642190845
 30
0.0
  0
HATCH
  5
174
330
16F
100
AcDbEntity
  8
Layer 3
 62
   250
420
  2301728
100
AcDbHatch
 10
0.0
 20
0.0
 30
0.0
210
0.0
220
0.0
230
1.0
  2
SOLID
 70
     1
 71
     0
 91
        1
 92
        1
 93
        1
 72
     4
 94
        3
 73
     0
 74
     1
 95
       65
 96
       61
 40
0.0
 40
0.0
 40
0.0
 40
0.0
 40
1.0
 40
1.0
 40
1.0
 40
2.0
 40
2.0
 40
2.0
 40
3.0
 40
3.0
 40
3.0
 40
4.0
 40
4.0
 40
4.0
 40
5.0
 40
5.0
 40
5.0
 40
6.0
 40
6.0
 40
6.0
 40
7.0
 40
7.0
 40
7.0
 40
8.0
 40
8.0
 40
8.0
 40
9.0
 40
9.0
 40
9.0
 40
10.0
 40
10.0
 40
10.0
 40
11.0
 40
11.0
 40
11.0
 40
12.0
 40
12.0
 40
12.0
 40
13.0
 40
13.0
 40
13.0
 40
14.0
 40
14.0
 40
14.0
 40
15.0
 40
15.0
 40
15.0
 40
16.0
 40
16.0
 40
16.0
 40
17.0
 40
17.0
 40
17.0
 40
18.0
 40
18.0
 40
18.0
 40
19.0
 40
19.0
 40
19.0
 40
20.0
 40
20.0
 40
20.0
 40
20.0
 10
486.1196175556652
 20
434.6111642190845
 10
486.1196175556652
 20
434.6111642190845
 10
489.5386258970229
 20
426.5412142940277
 10
489.5386258970229
 20
426.5412142940277
 10
489.7886637880711
 20
425.9194293287574
 10
490.2697459487626
 20
425.4706389795256
 10
490.9039765698599
 20
425.2769845748098
 10
490.9039765698599
 20
425.2769845748098
 10
497.7112524826789
 20
423.8586776364155
 10
497.7112524826789
 20
423.8586776364155
 10
498.3021148736989
 20
423.77479391612
 10
498.7846902980218
 20
424.023582576162
 10
499.0688246206228
 20
424.5522740358247
 10
499.0688246206228
 20
424.5522740358247
 10
499.5227176887456
 20
425.437346850179
 10
499.5227176887456
 20
425.437346850179
 10
499.5227176887456
 20
425.437346850179
 10
501.0465637885773
 20
426.0339293623947
 10
501.0465637885773
 20
426.0339293623947
 10
501.0465637885773
 20
426.0339293623947
 10
501.0535333558437
 20
426.0367296349559
 10
501.0535333558437
 20
426.0367296349559
 10
501.2768706497154
 20
426.1303831950763
 10
501.4577682572053
 20
426.295910417618
 10
501.5692191051621
 20
426.5114069483152
 10
501.5692191051621
 20
426.5114069483152
 10
504.96271385207
 20
433.1323713933543
 10
504.96271385207
 20
433.1323713933543
 10
505.1006117186662
 20
433.4157589766064
 10
505.1125595482627
 20
433.7282762210061
 10
504.9965660359285
 20
434.0213023610177
 10
504.9965660359285
 20
434.0213023610177
 10
501.6027601476253
 20
442.083909349134
 10
501.6027601476253
 20
442.083909349134
 10
501.4704005978729
 20
442.382363221067
 10
501.224354936423
 20
442.5906342262551
 10
500.9086036937024
 20
442.6692907711003
 10
500.9086036937024
 20
442.6692907711003
 10
494.0946693550177
 20
444.1353338890158
 10
494.0946693550177
 20
444.1353338890158
 10
494.0946693550177
 20
444.1353338890158
 10
494.0888821250555
 20
444.1365784546306
 10
494.0888821250555
 20
444.1365784546306
 10
493.9047486470499
 20
444.1736594195618
 10
493.7147657108035
 20
444.1567333276325
 10
493.5404068328226
 20
444.0867265135876
 10
493.5404068328226
 20
444.0867265135876
 10
492.2976411097115
 20
443.5830508221461
 10
492.2976411097115
 20
443.5830508221461
 10
492.2976411097115
 20
443.5830508221461
 10
490.9039765698599
 20
443.8824310731379
 10
490.9039765698599
 20
443.8824310731379
 10
490.3115633523485
 20
443.9713552840431
 10
489.826120546697
 20
443.7252495190551
 10
489.5386258970229
 20
443.196053154109
 10
489.5386258970229
 20
443.196053154109
 10
486.1196175556652
 20
436.5729107192992
 10
486.1196175556652
 20
436.5729107192992
 10
485.8439462790284
 20
435.9399246637813
 10
485.8453153011687
 20
435.2495019066082
 10
486.1196175556652
 20
434.6111642190845
 97
        0
 97
        0
 75
     2
 76
     1
 98
        0
  0
SPLINE
  5
175
330
16F
100
AcDbEntity
  8
Layer 3
 62
    18
420
        0
370
     5
100
AcDbSpline
210
0.0
220
0.0
230
1.0
 70
     8
 71
     3
 72
     8
 73
     4
 74
     0
 42
0.0000000001
 43
0.0000000001
 12
1.0
 22
0.0
 32
0.0
 13
1.0
 23
0.0
 33
0.0
 40
0.0
 40
0.0
 40
0.0
 40
0.0
 40
1.0
 40
1.0
 40
1.0
 40
1.0
 10
496.5703592127338
 20
435.0074339007142
 30
0.0
 10
496.7974924316331
 20
435.3203176882816
 30
0.0
 10
496.7038388715118
 20
435.8983561733094
 30
0.0
 10
496.5703592127338
 20
436.2246812691737
 30
0.0
  0
SPLINE
  5
176
330
16F
100
AcDbEntity
  8
Layer 3
 62
    18
420
        0
370
     5
100
AcDbSpline
210
0.0
220
0.0
230
1.0
 70
     8
 71
     3
 72
    11
 73
     7
 74
     0
 42
0.0000000001
 43
0.0000000001
 12
1.0
 22
0.0
 32
0.0
 13
1.0
 23
0.0
 33
0.0
 40
0.0
 40
0.0
 40
0.0
 40
0.0
 40
1.0
 40
1.0
 40
1.0
 40
2.0
 40
2.0
 40
2.0
 40
2.0
 10
496.8495152730011
 20
434.3461339781834
 30
0.0
 10
497.2256229921877
 20
434.3551570786585
 30
0.0
 10
497.5651404832333
 20
433.8585754110391
 30
0.0
 10
497.6956331846122
 20
433.5583930146331
 30
0.0
 10
497.7223913446451
 20
433.4976513919673
 30
0.0
 10
497.7577370072013
 20
433.4430149628715
 30
0.0
 10
497.801607944004
 20
433.3944146768563
 30
0.0
  0
SPLINE
  5
177
330
16F
100
AcDbEntity
  8
Layer 3
 62
    18
420
        0
370
     5
100
AcDbSpline
210
0.0
220
0.0
230
1.0
 70
     8
 71
     3
 72
    41
 73
    37
 74
     0
 42
0.0000000001
 43
0.0000000001
 12
1.0
 22
0.0
 32
0.0
 13
1.0
 23
0.0
 33
0.0
 40
0.0
 40
0.0
 40
0.0
 40
0.0
 40
1.0
 40
1.0
 40
1.0
 40
2.0
 40
2.0
 40
2.0
 40
3.0
 40
3.0
 40
3.0
 40
4.0
 40
4.0
 40
4.0
 40
5.0
 40
5.0
 40
5.0
 40
6.0
 40
6.0
 40
6.0
 40
7.0
 40
7.0
 40
7.0
 40
8.0
 40
8.0
 40
8.0
 40
9.0
 40
9.0
 40
9.0
 40
10.0
 40
10.0
 40
10.0
 40
11.0
 40
11.0
 40
11.0
 40
12.0
 40
12.0
 40
12.0
 40
12.0
 10
498.178586859096
 20
433.2786078493591
 30
0.0
 10
498.2294273631633
 20
433.3185584045732
 30
0.0
 10
498.2543809031031
 20
433.3724480943174
 30
0.0
 10
498.2533852506349
 20
433.4403391468695
 30
0.0
 10
498.261288242089
 20
433.8939833018758
 30
0.0
 10
498.7426911012135
 20
433.9951664837754
 30
0.0
 10
499.0986941946139
 20
433.8694031316127
 30
0.0
 10
499.2295602656668
 20
433.8232297484828
 30
0.0
 10
499.4041777252914
 20
433.8542816597783
 30
0.0
 10
499.473251116895
 20
433.9887569710218
 30
0.0
 10
499.5438130753755
 20
434.1261570113857
 30
0.0
 10
499.4798424044093
 20
434.3107329285658
 30
0.0
 10
499.3773524286498
 20
434.4119092692436
 30
0.0
 10
499.0365281437425
 20
434.7485020311688
 30
0.0
 10
499.0054140041666
 20
435.3022092590491
 30
0.0
 10
499.3773524286498
 20
435.6279743003997
 30
0.0
 10
499.4972040942957
 20
435.7329534073278
 30
0.0
 10
499.534354376945
 20
435.9272923231138
 30
0.0
 10
499.473251116895
 20
436.0721597569773
 30
0.0
 10
499.4136937436742
 20
436.2134179506465
 30
0.0
 10
499.2536426096976
 20
436.3157834698504
 30
0.0
 10
499.0986941946139
 20
436.288838624977
 30
0.0
 10
498.6065307348144
 20
436.2032125128671
 30
0.0
 10
498.2596080785515
 20
436.6157860036337
 30
0.0
 10
498.2533852506349
 20
437.0769597804174
 30
0.0
 10
498.2515806305419
 20
437.2118706896144
 30
0.0
 10
498.173924615412
 20
437.3907769921716
 30
0.0
 10
498.0251319227136
 20
437.4224511862594
 30
0.0
 10
497.8767797052187
 20
437.4540631520676
 30
0.0
 10
497.7452913513735
 20
437.3182810469634
 30
0.0
 10
497.6956331846122
 20
437.1958157935942
 30
0.0
 10
497.5711143980297
 20
436.8889681491037
 30
0.0
 10
497.1915841234932
 20
436.4735321574963
 30
0.0
 10
496.8495152730011
 20
436.7674363199239
 30
0.0
 10
496.8086361363621
 20
436.8037776349465
 30
0.0
 10
496.7633291063794
 20
436.8175923129184
 30
0.0
 10
496.713546483059
 20
436.8090048103959
 30
0.0
  0
POLYLINE
  5
178
330
16F
100
AcDbEntity
  8
Layer 3
 62
    18
420
        0
370
     5
100
AcDb2dPolyline
 66
     1
 10
0.0
 20
0.0
 30
0.0
  0
VERTEX
  5
179
330
178
100
AcDbEntity
  8
Layer 3
 62
    18
420
        0
370
     5
100
AcDbVertex
100
AcDb2dVertex
 10
499.3773524286498
 20
434.4119092692436
 30
0.0
  0
VERTEX
  5
17A
330
178
100
AcDbEntity
  8
Layer 3
 62
    18
420
        0
370
     5
100
AcDbVertex
100
AcDb2dVertex
 10
498.3273124462648
 20
433.9946132624973
 30
0.0
  0
SEQEND
  5
17B
330
178
100
AcDbEntity
  8
Layer 3
 62
    18
420
        0
370
     5
  0
POLYLINE
  5
17C
330
16F
100
AcDbEntity
  8
Layer 3
 62
    18
420
        0
370
     5
100
AcDb2dPolyline
 66
     1
 10
0.0
 20
0.0
 30
0.0
  0
VERTEX
  5
17D
330
17C
100
AcDbEntity
  8
Layer 3
 62
    18
420
        0
370
     5
100
AcDbVertex
100
AcDb2dVertex
 10
499.3773524286498
 20
435.6279743003997
 30
0.0
  0
VERTEX
  5
17E
330
17C
100
AcDbEntity
  8
Layer 3
 62
    18
420
        0
370
     5
100
AcDbVertex
100
AcDb2dVertex
 10
498.3273124462648
 20
435.2098624927903
 30
0.0
  0
SEQEND
  5
17F
330
17C
100
AcDbEntity
  8
Layer 3
 62
    18
420
        0
370
     5
  0
POLYLINE
  5
180
330
16F
100
AcDbEntity
  8
Layer 3
 62
    18
420
        0
370
     5
100
AcDb2dPolyline
 66
     1
 10
0.0
 20
0.0
 30
0.0
  0
VERTEX
  5
181
330
180
100
AcDbEntity
  8
Layer 3
 62
    18
420
        0
370
     5
100
AcDbVertex
100
AcDb2dVertex
 10
499.0986941946139
 20
436.288838624977
 30
0.0
  0
VERTEX
  5
182
330
180
100
AcDbEntity
  8
Layer 3
 62
    18
420
        0
370
     5
100
AcDbVertex
100
AcDb2dVertex
 10
498.04877866879
 20
435.8702289911325
 30
0.0
  0
SEQEND
  5
183
330
180
100
AcDbEntity
  8
Layer 3
 62
    18
420
        0
370
     5
  0
SPLINE
  5
184
330
16F
100
AcDbEntity
  8
Layer 3
 62
    18
420
        0
370
     5
100
AcDbSpline
210
0.0
220
0.0
230
1.0
 70
     8
 71
     3
 72
    20
 73
    16
 74
     0
 42
0.0000000001
 43
0.0000000001
 12
1.0
 22
0.0
 32
0.0
 13
1.0
 23
0.0
 33
0.0
 40
0.0
 40
0.0
 40
0.0
 40
0.0
 40
1.0
 40
1.0
 40
1.0
 40
2.0
 40
2.0
 40
2.0
 40
3.0
 40
3.0
 40
3.0
 40
4.0
 40
4.0
 40
4.0
 40
5.0
 40
5.0
 40
5.0
 40
5.0
 10
497.2037186379275
 20
436.6577278637824
 30
0.0
 10
497.2100659223997
 20
436.1944383255059
 30
0.0
 10
497.5608467319726
 20
435.785287390092
 30
0.0
 10
498.04877866879
 20
435.8702289911325
 30
0.0
 10
498.2036026273145
 20
435.8971738360051
 30
0.0
 10
498.3635915330124
 20
435.7948774237948
 30
0.0
 10
498.4231439961586
 20
435.6537368079689
 30
0.0
 10
498.4841899380044
 20
435.5089316023859
 30
0.0
 10
498.4471067677805
 20
435.314779371437
 30
0.0
 10
498.3273124462648
 20
435.2098624927903
 30
0.0
 10
497.9535694016886
 20
434.88247951618
 30
0.0
 10
497.9879816400589
 20
434.3296434842077
 30
0.0
 10
498.3273124462648
 20
433.9946132624973
 30
0.0
 10
498.3734236011151
 20
433.9490553289243
 30
0.0
 10
498.4076491546475
 20
433.8968458027166
 30
0.0
 10
498.429989106864
 20
433.8380400789192
 30
0.0
  0
POLYLINE
  5
185
330
16F
100
AcDbEntity
  8
Layer 3
 62
    18
420
        0
370
     5
100
AcDb2dPolyline
 66
     1
 10
0.0
 20
0.0
 30
0.0
  0
VERTEX
  5
186
330
185
100
AcDbEntity
  8
Layer 3
 62
    18
420
        0
370
     5
100
AcDbVertex
100
AcDb2dVertex
 10
498.5413777265421
 20
433.8822843853959
 30
0.0
  0
VERTEX
  5
187
330
185
100
AcDbEntity
  8
Layer 3
 62
    18
420
        0
370
     5
100
AcDbVertex
100
AcDb2dVertex
 10
497.7002380772665
 20
433.5481185263588
 30
0.0
  0
SEQEND
  5
188
330
185
100
AcDbEntity
  8
Layer 3
 62
    18
420
        0
370
     5
  0
POLYLINE
  5
189
330
16F
100
AcDbEntity
  8
Layer 3
 62
    18
420
        0
370
     5
100
AcDb2dPolyline
 66
     1
 10
0.0
 20
0.0
 30
0.0
  0
VERTEX
  5
18A
330
189
100
AcDbEntity
  8
Layer 3
 62
    18
420
        0
370
     5
100
AcDbVertex
100
AcDb2dVertex
 10
497.2564259903684
 20
436.6939447222467
 30
0.0
  0
VERTEX
  5
18B
330
189
100
AcDbEntity
  8
Layer 3
 62
    18
420
        0
370
     5
100
AcDbVertex
100
AcDb2dVertex
 10
496.5398099636423
 20
436.4076946381547
 30
0.0
  0
SEQEND
  5
18C
330
189
100
AcDbEntity
  8
Layer 3
 62
    18
420
        0
370
     5
  0
SPLINE
  5
18D
330
16F
100
AcDbEntity
  8
Layer 3
 62
    18
420
        0
370
     5
100
AcDbSpline
210
0.0
220
0.0
230
1.0
 70
     8
 71
     3
 72
     8
 73
     4
 74
     0
 42
0.0000000001
 43
0.0000000001
 12
1.0
 22
0.0
 32
0.0
 13
1.0
 23
0.0
 33
0.0
 40
0.0
 40
0.0
 40
0.0
 40
0.0
 40
1.0
 40
1.0
 40
1.0
 40
1.0
 10
490.9039765698599
 20
443.8824310731379
 30
0.0
 10
490.8848724881627
 20
443.5913271832724
 30
0.0
 10
490.9900382799278
 20
443.3305906936321
 30
0.0
 10
491.2063437782544
 20
443.1460838459507
 30
0.0
  0
SPLINE
  5
18E
330
16F
100
AcDbEntity
  8
Layer 3
 62
    18
420
        0
370
     5
100
AcDbSpline
210
0.0
220
0.0
230
1.0
 70
     8
 71
     3
 72
     8
 73
     4
 74
     0
 42
0.0000000001
 43
0.0000000001
 12
1.0
 22
0.0
 32
0.0
 13
1.0
 23
0.0
 33
0.0
 40
0.0
 40
0.0
 40
0.0
 40
0.0
 40
1.0
 40
1.0
 40
1.0
 40
1.0
 10
498.758305507663
 20
425.1380910557455
 30
0.0
 10
498.7431218075508
 20
424.9219722422558
 30
0.0
 10
498.9032400654778
 20
424.6905452720957
 30
0.0
 10
499.0623528795913
 20
424.5583167737559
 30
0.0
  0
SPLINE
  5
18F
330
16F
100
AcDbEntity
  8
Layer 3
 62
    18
420
        0
370
     5
100
AcDbSpline
210
0.0
220
0.0
230
1.0
 70
     8
 71
     3
 72
    23
 73
    19
 74
     0
 42
0.0000000001
 43
0.0000000001
 12
1.0
 22
0.0
 32
0.0
 13
1.0
 23
0.0
 33
0.0
 40
0.0
 40
0.0
 40
0.0
 40
0.0
 40
1.0
 40
1.0
 40
1.0
 40
2.0
 40
2.0
 40
2.0
 40
3.0
 40
3.0
 40
3.0
 40
4.0
 40
4.0
 40
4.0
 40
5.0
 40
5.0
 40
5.0
 40
6.0
 40
6.0
 40
6.0
 40
6.0
 10
490.9039765698599
 20
425.2769845748098
 30
0.0
 10
490.8904108050065
 20
425.7702059153553
 30
0.0
 10
491.0952040716911
 20
426.2061772390825
 30
0.0
 10
491.485810979917
 20
426.4856444407469
 30
0.0
 10
491.485810979917
 20
426.4856444407469
 30
0.0
 10
493.8924274477777
 20
427.4344390129518
 30
0.0
 10
493.8924274477777
 20
427.4344390129518
 30
0.0
 10
494.284341149867
 20
427.7145351719937
 30
0.0
 10
494.4899433841802
 20
428.1516199301605
 30
0.0
 10
494.476564304161
 20
428.6463347494064
 30
0.0
 10
494.0619995084635
 20
428.4369365900648
 30
0.0
 10
493.6390338950787
 20
428.2439666964201
 30
0.0
 10
493.2092853992654
 20
428.0681718078195
 30
0.0
 10
493.2092853992654
 20
428.0681718078195
 30
0.0
 10
490.8031667576379
 20
427.1181326700307
 30
0.0
 10
490.8031667576379
 20
427.1181326700307
 30
0.0
 10
490.3742894577354
 20
426.9426489228263
 30
0.0
 10
489.9522572685364
 20
426.7501146271361
 30
0.0
 10
489.5386258970229
 20
426.5412142940277
 30
0.0
  0
SPLINE
  5
190
330
16F
100
AcDbEntity
  8
Layer 3
 62
    18
420
        0
370
     5
100
AcDbSpline
210
0.0
220
0.0
230
1.0
 70
     8
 71
     3
 72
    17
 73
    13
 74
     0
 42
0.0000000001
 43
0.0000000001
 12
1.0
 22
0.0
 32
0.0
 13
1.0
 23
0.0
 33
0.0
 40
0.0
 40
0.0
 40
0.0
 40
0.0
 40
1.0
 40
1.0
 40
1.0
 40
2.0
 40
2.0
 40
2.0
 40
3.0
 40
3.0
 40
3.0
 40
4.0
 40
4.0
 40
4.0
 40
4.0
 10
497.7112524826789
 20
423.8586776364155
 30
0.0
 10
497.6979978592171
 20
424.3513389224472
 30
0.0
 10
497.9032315942677
 20
424.7860722811993
 30
0.0
 10
498.2943314583172
 20
425.0639149469989
 30
0.0
 10
498.2943314583172
 20
425.0639149469989
 30
0.0
 10
500.7059261885097
 20
426.0082357145857
 30
0.0
 10
500.7059261885097
 20
426.0082357145857
 30
0.0
 10
501.0983999451091
 20
426.2867006323022
 30
0.0
 10
501.3043755490999
 20
426.7226163772802
 30
0.0
 10
501.2913076104742
 20
427.2166400359256
 30
0.0
 10
501.5158894699307
 20
427.0375470485324
 30
0.0
 10
501.6183794456902
 20
426.7902518671881
 30
0.0
 10
501.5720816060038
 20
426.5171319499968
 30
0.0
  0
SPLINE
  5
191
330
16F
100
AcDbEntity
  8
Layer 3
 62
    18
420
        0
370
     5
100
AcDbSpline
210
0.0
220
0.0
230
1.0
 70
     8
 71
     3
 72
    23
 73
    19
 74
     0
 42
0.0000000001
 43
0.0000000001
 12
1.0
 22
0.0
 32
0.0
 13
1.0
 23
0.0
 33
0.0
 40
0.0
 40
0.0
 40
0.0
 40
0.0
 40
1.0
 40
1.0
 40
1.0
 40
2.0
 40
2.0
 40
2.0
 40
3.0
 40
3.0
 40
3.0
 40
4.0
 40
4.0
 40
4.0
 40
5.0
 40
5.0
 40
5.0
 40
6.0
 40
6.0
 40
6.0
 40
6.0
 10
486.1196175556652
 20
436.5729107192992
 30
0.0
 10
486.4677847775129
 20
436.2386826319835
 30
0.0
 10
486.9194998558633
 20
436.0916372083502
 30
0.0
 10
487.3851540687447
 20
436.1709782642665
 30
0.0
 10
487.3851540687447
 20
436.1709782642665
 30
0.0
 10
489.7887213509293
 20
437.1365191561699
 30
0.0
 10
489.7887213509293
 20
437.1365191561699
 30
0.0
 10
490.2554334445558
 20
437.2162888974344
 30
0.0
 10
490.7080819470957
 20
437.0690567889651
 30
0.0
 10
491.0569959082932
 20
436.7339575057404
 30
0.0
 10
490.6414354601275
 20
436.5253683140281
 30
0.0
 10
490.2182209336243
 20
436.3318383658707
 30
0.0
 10
489.7887213509293
 20
436.1539346035643
 30
0.0
 10
489.7887213509293
 20
436.1539346035643
 30
0.0
 10
487.3851540687447
 20
435.189949443462
 30
0.0
 10
487.3851540687447
 20
435.189949443462
 30
0.0
 10
486.9565256819587
 20
435.0124743913248
 30
0.0
 10
486.534244579645
 20
434.8193178128422
 30
0.0
 10
486.1196175556652
 20
434.6111642190845
 30
0.0
  0
SPLINE
  5
192
330
16F
100
AcDbEntity
  8
Layer 3
 62
    18
420
        0
370
     5
100
AcDbSpline
210
0.0
220
0.0
230
1.0
 70
     8
 71
     3
 72
    11
 73
     7
 74
     0
 42
0.0000000001
 43
0.0000000001
 12
1.0
 22
0.0
 32
0.0
 13
1.0
 23
0.0
 33
0.0
 40
0.0
 40
0.0
 40
0.0
 40
0.0
 40
1.0
 40
1.0
 40
1.0
 40
2.0
 40
2.0
 40
2.0
 40
2.0
 10
504.96271385207
 20
433.1323713933543
 30
0.0
 10
505.0815698652459
 20
433.370767930779
 30
0.0
 10
504.8706782272075
 20
433.6923014491495
 30
0.0
 10
504.6865447492
 20
433.8397202424558
 30
0.0
 10
504.7928928782676
 20
433.8938588453184
 30
0.0
 10
504.8970007892858
 20
433.9488686440864
 30
0.0
 10
504.9948858723892
 20
434.0163931607494
 30
0.0
  0
SPLINE
  5
193
330
16F
100
AcDbEntity
  8
Layer 3
 62
    18
420
        0
370
     5
100
AcDbSpline
210
0.0
220
0.0
230
1.0
 70
     8
 71
     3
 72
    14
 73
    10
 74
     0
 42
0.0000000001
 43
0.0000000001
 12
1.0
 22
0.0
 32
0.0
 13
1.0
 23
0.0
 33
0.0
 40
0.0
 40
0.0
 40
0.0
 40
0.0
 40
1.0
 40
1.0
 40
1.0
 40
2.0
 40
2.0
 40
2.0
 40
3.0
 40
3.0
 40
3.0
 40
3.0
 10
501.6027601476253
 20
442.083909349134
 30
0.0
 10
501.5587025259847
 20
442.0100443817819
 30
0.0
 10
501.3733867106748
 20
441.9423400140677
 30
0.0
 10
501.2975304383926
 20
441.9078655474177
 30
0.0
 10
501.2975304383926
 20
441.9078655474177
 30
0.0
 10
501.2913076104742
 20
441.9046919051798
 30
0.0
 10
501.2913076104742
 20
441.9046919051798
 30
0.0
 10
501.3161989221371
 20
442.2323237949076
 30
0.0
 10
501.1863285035506
 20
442.5055059403767
 30
0.0
 10
500.9156354892439
 20
442.6677350641221
 30
0.0
  0
SPLINE
  5
194
330
16F
100
AcDbEntity
  8
Layer 3
 62
    18
420
        0
370
     5
100
AcDbSpline
210
0.0
220
0.0
230
1.0
 70
     8
 71
     3
 72
    17
 73
    13
 74
     0
 42
0.0000000001
 43
0.0000000001
 12
1.0
 22
0.0
 32
0.0
 13
1.0
 23
0.0
 33
0.0
 40
0.0
 40
0.0
 40
0.0
 40
0.0
 40
1.0
 40
1.0
 40
1.0
 40
2.0
 40
2.0
 40
2.0
 40
3.0
 40
3.0
 40
3.0
 40
4.0
 40
4.0
 40
4.0
 40
4.0
 10
489.5386258970229
 20
443.196053154109
 30
0.0
 10
489.8863621888049
 20
442.8613272405601
 30
0.0
 10
490.3377614578731
 20
442.7147796431609
 30
0.0
 10
490.8031667576379
 20
442.7955590050624
 30
0.0
 10
490.8031667576379
 20
442.7955590050624
 30
0.0
 10
493.2092853992654
 20
443.7704201706674
 30
0.0
 10
493.2092853992654
 20
443.7704201706674
 30
0.0
 10
493.6757485797771
 20
443.8517525315165
 30
0.0
 10
494.1280859409217
 20
443.7048937927211
 30
0.0
 10
494.476564304161
 20
443.3693037533239
 30
0.0
 10
494.4967262666087
 20
443.631526651604
 30
0.0
 10
494.3912493334501
 20
444.0679335732848
 30
0.0
 10
494.0946693550177
 20
444.1353338890158
 30
0.0
  0
POLYLINE
  5
195
330
16F
100
AcDbEntity
  8
Layer 3
 62
    18
420
        0
370
     5
100
AcDb2dPolyline
 66
     1
 10
0.0
 20
0.0
 30
0.0
  0
VERTEX
  5
196
330
195
100
AcDbEntity
  8
Layer 3
 62
    18
420
        0
370
     5
100
AcDbVertex
100
AcDb2dVertex
 10
501.2913076104742
 20
441.9046919051798
 30
0.0
  0
VERTEX
  5
197
330
195
100
AcDbEntity
  8
Layer 3
 62
    18
420
        0
370
     5
100
AcDbVertex
100
AcDb2dVertex
 10
494.476564304161
 20
443.3693037533239
 30
0.0
  0
VERTEX
  5
198
330
195
100
AcDbEntity
  8
Layer 3
 62
    18
420
        0
370
     5
100
AcDbVertex
100
AcDb2dVertex
 10
491.0569959082932
 20
436.7339575057404
 30
0.0
  0
VERTEX
  5
199
330
195
100
AcDbEntity
  8
Layer 3
 62
    18
420
        0
370
     5
100
AcDbVertex
100
AcDb2dVertex
 10
494.476564304161
 20
428.6463347494064
 30
0.0
  0
VERTEX
  5
19A
330
195
100
AcDbEntity
  8
Layer 3
 62
    18
420
        0
370
     5
100
AcDbVertex
100
AcDb2dVertex
 10
501.2913076104742
 20
427.2166400359256
 30
0.0
  0
VERTEX
  5
19B
330
195
100
AcDbEntity
  8
Layer 3
 62
    18
420
        0
370
     5
100
AcDbVertex
100
AcDb2dVertex
 10
504.6865447492
 20
433.8397202424558
 30
0.0
  0
VERTEX
  5
19C
330
195
100
AcDbEntity
  8
Layer 3
 62
    18
420
        0
370
     5
100
AcDbVertex
100
AcDb2dVertex
 10
501.2913076104742
 20
441.9046919051798
 30
0.0
  0
SEQEND
  5
19D
330
195
100
AcDbEntity
  8
Layer 3
 62
    18
420
        0
370
     5
  0
SPLINE
  5
19E
330
16F
100
AcDbEntity
  8
Layer 3
 62
    18
420
        0
370
     5
100
AcDbSpline
210
0.0
220
0.0
230
1.0
 70
     8
 71
     3
 72
    29
 73
    25
 74
     0
 42
0.0000000001
 43
0.0000000001
 12
1.0
 22
0.0
 32
0.0
 13
1.0
 23
0.0
 33
0.0
 40
0.0
 40
0.0
 40
0.0
 40
0.0
 40
1.0
 40
1.0
 40
1.0
 40
2.0
 40
2.0
 40
2.0
 40
3.0
 40
3.0
 40
3.0
 40
4.0
 40
4.0
 40
4.0
 40
5.0
 40
5.0
 40
5.0
 40
6.0
 40
6.0
 40
6.0
 40
7.0
 40
7.0
 40
7.0
 40
8.0
 40
8.0
 40
8.0
 40
8.0
 10
493.5360508531721
 20
444.0849289816306
 30
0.0
 10
493.392174311688
 20
444.0200177983397
 30
0.0
 10
493.2819680293123
 20
443.9103093421973
 30
0.0
 10
493.2092853992654
 20
443.7704201706674
 30
0.0
 10
493.2092853992654
 20
443.7704201706674
 30
0.0
 10
489.7887213509293
 20
437.1365191561699
 30
0.0
 10
489.7887213509293
 20
437.1365191561699
 30
0.0
 10
489.6507612560508
 20
436.8194591612937
 30
0.0
 10
489.6514457671237
 20
436.4736566140546
 30
0.0
 10
489.7887213509293
 20
436.1539346035643
 30
0.0
 10
489.7887213509293
 20
436.1539346035643
 30
0.0
 10
493.2092853992654
 20
428.0681718078195
 30
0.0
 10
493.2092853992654
 20
428.0681718078195
 30
0.0
 10
493.3339286424052
 20
427.7577149231383
 30
0.0
 10
493.5756855069012
 20
427.5315151284267
 30
0.0
 10
493.8924274477777
 20
427.4344390129518
 30
0.0
 10
493.8924274477777
 20
427.4344390129518
 30
0.0
 10
500.7059261885097
 20
426.0082357145857
 30
0.0
 10
500.7059261885097
 20
426.0082357145857
 30
0.0
 10
500.7059261885097
 20
426.0082357145857
 30
0.0
 10
500.7133313537288
 20
426.0067356044055
 30
0.0
 10
500.7133313537288
 20
426.0067356044055
 30
0.0
 10
500.8247822016856
 20
425.9843334239113
 30
0.0
 10
500.9404023443476
 20
425.9931698395503
 30
0.0
 10
501.0465637885773
 20
426.0339293623947
 30
0.0
  0
SPLINE
  5
19F
330
16F
100
AcDbEntity
  8
Layer 3
 62
    18
420
        0
370
     5
100
AcDbSpline
210
0.0
220
0.0
230
1.0
 70
     8
 71
     3
 72
    38
 73
    34
 74
     0
 42
0.0000000001
 43
0.0000000001
 12
1.0
 22
0.0
 32
0.0
 13
1.0
 23
0.0
 33
0.0
 40
0.0
 40
0.0
 40
0.0
 40
0.0
 40
1.0
 40
1.0
 40
1.0
 40
2.0
 40
2.0
 40
2.0
 40
3.0
 40
3.0
 40
3.0
 40
4.0
 40
4.0
 40
4.0
 40
5.0
 40
5.0
 40
5.0
 40
6.0
 40
6.0
 40
6.0
 40
7.0
 40
7.0
 40
7.0
 40
8.0
 40
8.0
 40
8.0
 40
9.0
 40
9.0
 40
9.0
 40
10.0
 40
10.0
 40
10.0
 40
11.0
 40
11.0
 40
11.0
 40
11.0
 10
492.3372182952517
 20
443.5991057181664
 30
0.0
 10
492.3372182952517
 20
443.5991057181664
 30
0.0
 10
491.1340967461601
 20
443.1114849227433
 30
0.0
 10
491.1340967461601
 20
443.1114849227433
 30
0.0
 10
490.9909717041137
 20
443.0528036555052
 30
0.0
 10
490.8754760180109
 20
442.937370197682
 30
0.0
 10
490.8055936605251
 20
442.8002190704337
 30
0.0
 10
490.8055936605251
 20
442.8002190704337
 30
0.0
 10
490.8031667576379
 20
442.7955590050624
 30
0.0
 10
490.8031667576379
 20
442.7955590050624
 30
0.0
 10
490.8031667576379
 20
442.7955590050624
 30
0.0
 10
487.3851540687447
 20
436.1709782642665
 30
0.0
 10
487.3851540687447
 20
436.1709782642665
 30
0.0
 10
487.2473806587077
 20
435.8544230082289
 30
0.0
 10
487.2480651697788
 20
435.5091805155025
 30
0.0
 10
487.3851540687447
 20
435.189949443462
 30
0.0
 10
487.3851540687447
 20
435.189949443462
 30
0.0
 10
490.8031667576379
 20
427.1181326700307
 30
0.0
 10
490.8031667576379
 20
427.1181326700307
 30
0.0
 10
490.9278100007741
 20
426.8082358398624
 30
0.0
 10
491.1695668652756
 20
426.5822849582673
 30
0.0
 10
491.485810979917
 20
426.4856444407469
 30
0.0
 10
491.485810979917
 20
426.4856444407469
 30
0.0
 10
498.2943314583172
 20
425.0639149469989
 30
0.0
 10
498.2943314583172
 20
425.0639149469989
 30
0.0
 10
498.4065912739043
 20
425.0411393968288
 30
0.0
 10
498.5202201116335
 20
425.0479222792565
 30
0.0
 10
498.6279994911201
 20
425.0871260951208
 30
0.0
 10
498.6279994911201
 20
425.0871260951208
 30
0.0
 10
498.6346579169895
 20
425.0896774545663
 30
0.0
 10
498.6346579169895
 20
425.0896774545663
 30
0.0
 10
498.6346579169895
 20
425.0896774545663
 30
0.0
 10
499.5227176887456
 20
425.437346850179
 30
0.0
 10
499.5227176887456
 20
425.437346850179
 30
0.0
  0
SPLINE
  5
1A0
330
16F
100
AcDbEntity
  8
Layer 3
 62
    18
420
        0
370
     9
100
AcDbSpline
210
0.0
220
0.0
230
1.0
 70
    11
 71
     3
 72
    17
 73
    13
 74
     0
 42
0.0000000001
 43
0.0000000001
 12
1.0
 22
0.0
 32
0.0
 13
1.0
 23
0.0
 33
0.0
 40
0.0
 40
0.0
 40
0.0
 40
0.0
 40
1.0
 40
1.0
 40
1.0
 40
2.0
 40
2.0
 40
2.0
 40
3.0
 40
3.0
 40
3.0
 40
4.0
 40
4.0
 40
4.0
 40
4.0
 10
502.6931240548984
 20
437.072977170551
 30
0.0
 10
503.9279820263564
 20
433.7269626006364
 30
0.0
 10
502.8681099758687
 20
430.2538156564178
 30
0.0
 10
500.3258358594576
 20
429.3155376633877
 30
0.0
 10
497.7834995147696
 20
428.3772663616874
 30
0.0
 10
494.7214325826189
 20
430.329111874189
 30
0.0
 10
493.4865123828822
 20
433.6751264441045
 30
0.0
 10
492.2516591390649
 20
437.0211410140191
 30
0.0
 10
493.3115264619082
 20
440.4942879582386
 30
0.0
 10
495.8538005783194
 20
441.4325659512679
 30
0.0
 10
498.3961369230055
 20
442.3708439442962
 30
0.0
 10
501.458203855158
 20
440.4189917404656
 30
0.0
 10
502.6931240548984
 20
437.072977170551
 30
0.0
  0
SPLINE
  5
1A1
330
16F
100
AcDbEntity
  8
Layer 3
 62
    18
420
        0
370
     5
100
AcDbSpline
210
0.0
220
0.0
230
1.0
 70
    11
 71
     3
 72
    17
 73
    13
 74
     0
 42
0.0000000001
 43
0.0000000001
 12
1.0
 22
0.0
 32
0.0
 13
1.0
 23
0.0
 33
0.0
 40
0.0
 40
0.0
 40
0.0
 40
0.0
 40
1.0
 40
1.0
 40
1.0
 40
2.0
 40
2.0
 40
2.0
 40
3.0
 40
3.0
 40
3.0
 40
4.0
 40
4.0
 40
4.0
 40
4.0
 10
499.5802166186804
 20
435.9241186808767
 30
0.0
 10
499.9951547840537
 20
434.7998472150439
 30
0.0
 10
499.6641003389741
 20
433.6420832278745
 30
0.0
 10
498.8406957492571
 20
433.338222540784
 30
0.0
 10
498.0173533878187
 20
433.034299625414
 30
0.0
 10
497.0134867885645
 20
433.6993954729742
 30
0.0
 10
496.5985486231893
 20
434.8236737923826
 30
0.0
 10
496.1836104578142
 20
435.947958994373
 30
0.0
 10
496.5147271311744
 20
437.1057092453848
 30
0.0
 10
497.3380694926127
 20
437.4096321607549
 30
0.0
 10
498.1614789592677
 20
437.7134928478463
 30
0.0
 10
499.1652784533053
 20
437.0483970002861
 30
0.0
 10
499.5802166186804
 20
435.9241186808767
 30
0.0
  0
MTEXT
  5
1A2
330
16F
100
AcDbEntity
  8
Layer 3
 62
    18
420
        0
100
AcDbMText
 10
496.7350807965267
 20
438.6933450067154
 30
0.0
 40
1.116339388458822
 41
0.0
 46
0.0
 71
     7
 72
     1
  1
\fHelvetica Neue LT Std 57 Condensed|b0|i0|c0|p34;\W0.832371;WS22
 11
0.9751990169949105
 21
-0.2213297929610024
 31
0.0
 73
     1
 44
1.0
  0
MTEXT
  5
1A3
330
16F
100
AcDbEntity
  8
Layer 3
 62
    18
420
        0
100
AcDbMText
 10
497.3483901324216
 20
431.2152819976764
 30
0.0
 40
1.287175158508312
 41
0.0
 46
0.0
 71
     7
 72
     1
  1
\fHelvetica Neue LT Std 57 Condensed|b0|i0|c0|p34;\W0.832371;3.5
 11
0.9751990169949105
 21
-0.2213297929610024
 31
0.0
 73
     1
 44
1.0
  0
INSERT
  5
1A5
330
16F
100
AcDbEntity
  8
Layer 3
100
AcDbBlockReference
  2
block 22
 10
0.0
 20
0.0
 30
0.0
  0
ENDBLK
  5
172
330
16F
100
AcDbEntity
  8
0
100
AcDbBlockEnd
  0
BLOCK
  5
1A6
330
1A4
100
AcDbEntity
  8
0
100
AcDbBlockBegin
  2
block 22
 70
     0
 10
0.0
 20
0.0
 30
0.0
  3
block 22
  1

  0
INSERT
  5
1A9
330
1A4
100
AcDbEntity
  8
Layer 3
100
AcDbBlockReference
  2
block 23
 10
0.0
 20
0.0
 30
0.0
  0
INSERT
  5
1BB
330
1A4
100
AcDbEntity
  8
Layer 3
100
AcDbBlockReference
  2
block 24
 10
0.0
 20
0.0
 30
0.0
  0
ENDBLK
  5
1A7
330
1A4
100
AcDbEntity
  8
0
100
AcDbBlockEnd
  0
BLOCK
  5
1AA
330
1A8
100
AcDbEntity
  8
0
100
AcDbBlockBegin
  2
block 23
 70
     0
 10
0.0
 20
0.0
 30
0.0
  3
block 23
  1

  0
POLYLINE
  5
1AC
330
1A8
100
AcDbEntity
  8
Layer 3
370
     0
100
AcDb2dPolyline
 66
     1
 10
0.0
 20
0.0
 30
0.0
  0
VERTEX
  5
1AD
330
1AC
100
AcDbEntity
  8
Layer 3
370
     0
100
AcDbVertex
100
AcDb2dVertex
 10
502.2356839748627
 20
434.5855261680736
 30
0.0
  0
VERTEX
  5
1AE
330
1AC
100
AcDbEntity
  8
Layer 3
370
     0
100
AcDbVertex
100
AcDb2dVertex
 10
500.581407401929
 20
434.9890211884403
 30
0.0
  0
VERTEX
  5
1AF
330
1AC
100
AcDbEntity
  8
Layer 3
370
     0
100
AcDbVertex
100
AcDb2dVertex
 10
500.581407401929
 20
435.2371184790563
 30
0.0
  0
VERTEX
  5
1B0
330
1AC
100
AcDbEntity
  8
Layer 3
370
     0
100
AcDbVertex
100
AcDb2dVertex
 10
502.2356839748627
 20
434.8336303170463
 30
0.0
  0
VERTEX
  5
1B1
330
1AC
100
AcDbEntity
  8
Layer 3
370
     0
100
AcDbVertex
100
AcDb2dVertex
 10
502.2356839748627
 20
434.5855261680736
 30
0.0
  0
SEQEND
  5
1B2
330
1AC
100
AcDbEntity
  8
Layer 3
370
     0
  0
POLYLINE
  5
1B3
330
1A8
100
AcDbEntity
  8
Layer 3
370
     0
100
AcDb2dPolyline
 66
     1
 10
0.0
 20
0.0
 30
0.0
  0
VERTEX
  5
1B4
330
1B3
100
AcDbEntity
  8
Layer 3
370
     0
100
AcDbVertex
100
AcDb2dVertex
 10
502.2356839748627
 20
434.0782412364406
 30
0.0
  0
VERTEX
  5
1B5
330
1B3
100
AcDbEntity
  8
Layer 3
370
     0
100
AcDbVertex
100
AcDb2dVertex
 10
500.581407401929
 20
434.4817293984524
 30
0.0
  0
VERTEX
  5
1B6
330
1B3
100
AcDbEntity
  8
Layer 3
370
     0
100
AcDbVertex
100
AcDb2dVertex
 10
500.581407401929
 20
434.7298335474243
 30
0.0
  0
VERTEX
  5
1B7
330
1B3
100
AcDbEntity
  8
Layer 3
370
     0
100
AcDbVertex
100
AcDb2dVertex
 10
502.2356839748627
 20
434.3263453854124
 30
0.0
  0
VERTEX
  5
1B8
330
1B3
100
AcDbEntity
  8
Layer 3
370
     0
100
AcDbVertex
100
AcDb2dVertex
 10
502.2356839748627
 20
434.0782412364406
 30
0.0
  0
SEQEND
  5
1B9
330
1B3
100
AcDbEntity
  8
Layer 3
370
     0
  0
ENDBLK
  5
1AB
330
1A8
100
AcDbEntity
  8
0
100
AcDbBlockEnd
  0
BLOCK
  5
1BC
330
1BA
100
AcDbEntity
  8
0
100
AcDbBlockBegin
  2
block 24
 70
     0
 10
0.0
 20
0.0
 30
0.0
  3
block 24
  1

  0
POLYLINE
  5
1BE
330
1BA
100
AcDbEntity
  8
Layer 3
370
     0
100
AcDb2dPolyline
 66
     1
 10
0.0
 20
0.0
 30
0.0
  0
VERTEX
  5
1BF
330
1BE
100
AcDbEntity
  8
Layer 3
370
     0
100
AcDbVertex
100
AcDb2dVertex
 10
500.9123373904513
 20
433.8333729579845
 30
0.0
  0
VERTEX
  5
1C0
330
1BE
100
AcDbEntity
  8
Layer 3
370
     0
100
AcDbVertex
100
AcDb2dVertex
 10
500.8379173131343
 20
433.9172566782781
 30
0.0
  0
VERTEX
  5
1C1
330
1BE
100
AcDbEntity
  8
Layer 3
370
     0
100
AcDbVertex
100
AcDb2dVertex
 10
501.9765654204784
 20
435.4644452531593
 30
0.0
  0
VERTEX
  5
1C2
330
1BE
100
AcDbEntity
  8
Layer 3
370
     0
100
AcDbVertex
100
AcDb2dVertex
 10
502.050990442347
 20
435.380554662499
 30
0.0
  0
VERTEX
  5
1C3
330
1BE
100
AcDbEntity
  8
Layer 3
370
     0
100
AcDbVertex
100
AcDb2dVertex
 10
500.9123373904513
 20
433.8333729579845
 30
0.0
  0
SEQEND
  5
1C4
330
1BE
100
AcDbEntity
  8
Layer 3
370
     0
  0
ENDBLK
  5
1BD
330
1BA
100
AcDbEntity
  8
0
100
AcDbBlockEnd
  0
BLOCK
  5
1C7
330
1C5
100
AcDbEntity
  8
0
100
AcDbBlockBegin
  2
block 25
 70
     0
 10
0.0
 20
0.0
 30
0.0
  3
block 25
  1

  0
INSERT
  5
1CA
330
1C5
100
AcDbEntity
  8
Layer 3
100
AcDbBlockReference
  2
block 26
 10
0.0
 20
0.0
 30
0.0
  0
INSERT
  5
1D1
330
1C5
100
AcDbEntity
  8
Layer 3
100
AcDbBlockReference
  2
block 27
 10
0.0
 20
0.0
 30
0.0
  0
ENDBLK
  5
1C8
330
1C5
100
AcDbEntity
  8
0
100
AcDbBlockEnd
  0
BLOCK
  5
1CB
330
1C9
100
AcDbEntity
  8
0
100
AcDbBlockBegin
  2
block 26
 70
     0
 10
0.0
 20
0.0
 30
0.0
  3
block 26
  1

  0
SPLINE
  5
1CD
330
1C9
100
AcDbEntity
  8
Layer 3
 62
    18
420
        0
370
     9
100
AcDbSpline
210
0.0
220
0.0
230
1.0
 70
    11
 71
     3
 72
    23
 73
    19
 74
     0
 42
0.0000000001
 43
0.0000000001
 12
1.0
 22
0.0
 32
0.0
 13
1.0
 23
0.0
 33
0.0
 40
0.0
 40
0.0
 40
0.0
 40
0.0
 40
1.0
 40
1.0
 40
1.0
 40
2.0
 40
2.0
 40
2.0
 40
3.0
 40
3.0
 40
3.0
 40
4.0
 40
4.0
 40
4.0
 40
5.0
 40
5.0
 40
5.0
 40
6.0
 40
6.0
 40
6.0
 40
6.0
 10
429.6283269854575
 20
358.4371349802605
 30
0.0
 10
425.2057086234217
 20
357.9438839051199
 30
0.0
 10
420.506869659308
 20
361.7501432878944
 30
0.0
 10
418.7038760998712
 20
367.5544950131343
 30
0.0
 10
416.8164060880399
 20
373.6309070118978
 30
0.0
 10
418.7846827425128
 20
379.7009524472633
 30
0.0
 10
423.1059403724321
 20
381.5272736485476
 30
0.0
 10
423.1059403724321
 20
381.5272736485476
 30
0.0
 10
425.0886521062912
 20
382.2516750997302
 30
0.0
 10
425.0886521062912
 20
382.2516750997302
 30
0.0
 10
429.8484461872958
 20
383.7301676195284
 30
0.0
 10
435.3102011593892
 20
379.7675177041774
 30
0.0
 10
437.2878700707588
 20
373.4008282356335
 30
0.0
 10
439.0773786678419
 20
367.6397817485549
 30
0.0
 10
437.400955365174
 20
361.8843454015023
 30
0.0
 10
433.5393510055364
 20
359.7460625937156
 30
0.0
 10
433.5393510055364
 20
359.7460625937156
 30
0.0
 10
429.6283269854575
 20
358.4371349802605
 30
0.0
 10
429.6283269854575
 20
358.4371349802605
 30
0.0
  0
HATCH
  5
1CE
330
1C9
100
AcDbEntity
  8
Layer 3
 62
   250
420
  2301728
100
AcDbHatch
 10
0.0
 20
0.0
 30
0.0
210
0.0
220
0.0
230
1.0
  2
SOLID
 70
     1
 71
     0
 91
        1
 92
        1
 93
        1
 72
     4
 94
        3
 73
     0
 74
     1
 95
       23
 96
       19
 40
0.0
 40
0.0
 40
0.0
 40
0.0
 40
1.0
 40
1.0
 40
1.0
 40
2.0
 40
2.0
 40
2.0
 40
3.0
 40
3.0
 40
3.0
 40
4.0
 40
4.0
 40
4.0
 40
5.0
 40
5.0
 40
5.0
 40
6.0
 40
6.0
 40
6.0
 40
6.0
 10
429.6283269854575
 20
358.4371349802605
 10
425.2057086234217
 20
357.9438839051199
 10
420.506869659308
 20
361.7501432878944
 10
418.7038760998712
 20
367.5544950131343
 10
416.8164060880399
 20
373.6309070118978
 10
418.7846827425128
 20
379.7009524472633
 10
423.1059403724321
 20
381.5272736485476
 10
423.1059403724321
 20
381.5272736485476
 10
425.0886521062912
 20
382.2516750997302
 10
425.0886521062912
 20
382.2516750997302
 10
429.8484461872958
 20
383.7301676195284
 10
435.3102011593892
 20
379.7675177041774
 10
437.2878700707588
 20
373.4008282356335
 10
439.0773786678419
 20
367.6397817485549
 10
437.400955365174
 20
361.8843454015023
 10
433.5393510055364
 20
359.7460625937156
 10
433.5393510055364
 20
359.7460625937156
 10
429.6283269854575
 20
358.4371349802605
 10
429.6283269854575
 20
358.4371349802605
 97
        0
 97
        0
 75
     2
 76
     1
 98
        0
  0
SPLINE
  5
1CF
330
1C9
100
AcDbEntity
  8
Layer 3
 62
    18
420
        0
370
     5
100
AcDbSpline
210
0.0
220
0.0
230
1.0
 70
     8
 71
     3
 72
    14
 73
    10
 74
     0
 42
0.0000000001
 43
0.0000000001
 12
1.0
 22
0.0
 32
0.0
 13
1.0
 23
0.0
 33
0.0
 40
0.0
 40
0.0
 40
0.0
 40
0.0
 40
1.0
 40
1.0
 40
1.0
 40
2.0
 40
2.0
 40
2.0
 40
3.0
 40
3.0
 40
3.0
 40
3.0
 10
433.5393510055364
 20
359.7460625937156
 30
0.0
 10
433.1333407595303
 20
359.521215745789
 30
0.0
 10
432.7031880008399
 20
359.3363963014053
 30
0.0
 10
432.2504055762092
 20
359.195764589118
 30
0.0
 10
427.4906114952028
 20
357.7172720693197
 30
0.0
 10
422.0288565231131
 20
361.6799219846725
 30
0.0
 10
420.0511876117444
 20
368.0466744884961
 30
0.0
 10
418.0735232722654
 20
374.4133639570391
 30
0.0
 10
420.3288580252884
 20
380.7731825799337
 30
0.0
 10
425.0886521062912
 20
382.2516750997302
 30
0.0
  0
ENDBLK
  5
1CC
330
1C9
100
AcDbEntity
  8
0
100
AcDbBlockEnd
  0
BLOCK
  5
1D2
330
1D0
100
AcDbEntity
  8
0
100
AcDbBlockBegin
  2
block 27
 70
     0
 10
0.0
 20
0.0
 30
0.0
  3
block 27
  1

  0
SPLINE
  5
1D4
330
1D0
100
AcDbEntity
  8
Layer 3
 62
    18
420
        0
370
     9
100
AcDbSpline
210
0.0
220
0.0
230
1.0
 70
    11
 71
     3
 72
    65
 73
    61
 74
     0
 42
0.0000000001
 43
0.0000000001
 12
1.0
 22
0.0
 32
0.0
 13
1.0
 23
0.0
 33
0.0
 40
0.0
 40
0.0
 40
0.0
 40
0.0
 40
1.0
 40
1.0
 40
1.0
 40
2.0
 40
2.0
 40
2.0
 40
3.0
 40
3.0
 40
3.0
 40
4.0
 40
4.0
 40
4.0
 40
5.0
 40
5.0
 40
5.0
 40
6.0
 40
6.0
 40
6.0
 40
7.0
 40
7.0
 40
7.0
 40
8.0
 40
8.0
 40
8.0
 40
9.0
 40
9.0
 40
9.0
 40
10.0
 40
10.0
 40
10.0
 40
11.0
 40
11.0
 40
11.0
 40
12.0
 40
12.0
 40
12.0
 40
13.0
 40
13.0
 40
13.0
 40
14.0
 40
14.0
 40
14.0
 40
15.0
 40
15.0
 40
15.0
 40
16.0
 40
16.0
 40
16.0
 40
17.0
 40
17.0
 40
17.0
 40
18.0
 40
18.0
 40
18.0
 40
19.0
 40
19.0
 40
19.0
 40
20.0
 40
20.0
 40
20.0
 40
20.0
 10
420.4542982348139
 20
371.5187838457996
 30
0.0
 10
420.4542982348139
 20
371.5187838457996
 30
0.0
 10
423.9176456880341
 20
363.3441794780729
 30
0.0
 10
423.9176456880341
 20
363.3441794780729
 30
0.0
 10
424.1709261736905
 20
362.7143309486419
 30
0.0
 10
424.6582472064783
 20
362.2597205008569
 30
0.0
 10
425.3007027921431
 20
362.0635547058628
 30
0.0
 10
425.3007027921431
 20
362.0635547058628
 30
0.0
 10
432.196258269687
 20
360.6268545774792
 30
0.0
 10
432.196258269687
 20
360.6268545774792
 30
0.0
 10
432.7947832081572
 20
360.5418830184644
 30
0.0
 10
433.2836168698341
 20
360.793898072573
 30
0.0
 10
433.5714359636495
 20
361.3294458213777
 30
0.0
 10
433.5714359636495
 20
361.3294458213777
 30
0.0
 10
434.0312153044888
 20
362.2259966254314
 30
0.0
 10
434.0312153044888
 20
362.2259966254314
 30
0.0
 10
434.0312153044888
 20
362.2259966254314
 30
0.0
 10
435.5748232697333
 20
362.830315865991
 30
0.0
 10
435.5748232697333
 20
362.830315865991
 30
0.0
 10
435.5748232697333
 20
362.830315865991
 30
0.0
 10
435.5818832212262
 20
362.8331524536443
 30
0.0
 10
435.5818832212262
 20
362.8331524536443
 30
0.0
 10
435.8081168453391
 20
362.9280205518016
 30
0.0
 10
435.9913604076937
 20
363.0956943997089
 30
0.0
 10
436.1042565962634
 20
363.3139855783957
 30
0.0
 10
436.1042565962634
 20
363.3139855783957
 30
0.0
 10
439.5417595842082
 20
370.0208134241202
 30
0.0
 10
439.5417595842082
 20
370.0208134241202
 30
0.0
 10
439.6814457672754
 20
370.3078760945591
 30
0.0
 10
439.6935485412596
 20
370.6244461916212
 30
0.0
 10
439.5760507771629
 20
370.9212724156059
 30
0.0
 10
439.5760507771629
 20
370.9212724156059
 30
0.0
 10
436.138232612815
 20
379.0884386201542
 30
0.0
 10
436.138232612815
 20
379.0884386201542
 30
0.0
 10
436.004156569772
 20
379.3907629651294
 30
0.0
 10
435.7549200865924
 20
379.601734914706
 30
0.0
 10
435.4350740513837
 20
379.6814115101006
 30
0.0
 10
435.4350740513837
 20
379.6814115101006
 30
0.0
 10
428.5327737987573
 20
381.1664668804924
 30
0.0
 10
428.5327737987573
 20
381.1664668804924
 30
0.0
 10
428.5327737987573
 20
381.1664668804924
 30
0.0
 10
428.5269115176088
 20
381.1677275861466
 30
0.0
 10
428.5269115176088
 20
381.1677275861466
 30
0.0
 10
428.3403901206311
 20
381.2052894323406
 30
0.0
 10
428.1479434072262
 20
381.1881438358623
 30
0.0
 10
427.9713233713228
 20
381.1172291445482
 30
0.0
 10
427.9713233713228
 20
381.1172291445482
 30
0.0
 10
426.7124409491844
 20
380.6070215787731
 30
0.0
 10
426.7124409491844
 20
380.6070215787731
 30
0.0
 10
426.7124409491844
 20
380.6070215787731
 30
0.0
 10
425.3007027921431
 20
380.9102843164737
 30
0.0
 10
425.3007027921431
 20
380.9102843164737
 30
0.0
 10
424.7006069154231
 20
381.0003617332641
 30
0.0
 10
424.2088686870302
 20
380.7510643670994
 30
0.0
 10
423.9176456880341
 20
380.2150051651897
 30
0.0
 10
423.9176456880341
 20
380.2150051651897
 30
0.0
 10
420.4542982348139
 20
373.5059710846226
 30
0.0
 10
420.4542982348139
 20
373.5059710846226
 30
0.0
 10
420.175051939239
 20
372.8647762045812
 30
0.0
 10
420.1764387154244
 20
372.1653997600224
 30
0.0
 10
420.4542982348139
 20
371.5187838457996
 30
0.0
  0
HATCH
  5
1D5
330
1D0
100
AcDbEntity
  8
Layer 3
 62
   250
420
  2301728
100
AcDbHatch
 10
0.0
 20
0.0
 30
0.0
210
0.0
220
0.0
230
1.0
  2
SOLID
 70
     1
 71
     0
 91
        1
 92
        1
 93
        1
 72
     4
 94
        3
 73
     0
 74
     1
 95
       65
 96
       61
 40
0.0
 40
0.0
 40
0.0
 40
0.0
 40
1.0
 40
1.0
 40
1.0
 40
2.0
 40
2.0
 40
2.0
 40
3.0
 40
3.0
 40
3.0
 40
4.0
 40
4.0
 40
4.0
 40
5.0
 40
5.0
 40
5.0
 40
6.0
 40
6.0
 40
6.0
 40
7.0
 40
7.0
 40
7.0
 40
8.0
 40
8.0
 40
8.0
 40
9.0
 40
9.0
 40
9.0
 40
10.0
 40
10.0
 40
10.0
 40
11.0
 40
11.0
 40
11.0
 40
12.0
 40
12.0
 40
12.0
 40
13.0
 40
13.0
 40
13.0
 40
14.0
 40
14.0
 40
14.0
 40
15.0
 40
15.0
 40
15.0
 40
16.0
 40
16.0
 40
16.0
 40
17.0
 40
17.0
 40
17.0
 40
18.0
 40
18.0
 40
18.0
 40
19.0
 40
19.0
 40
19.0
 40
20.0
 40
20.0
 40
20.0
 40
20.0
 10
420.4542982348139
 20
371.5187838457996
 10
420.4542982348139
 20
371.5187838457996
 10
423.9176456880341
 20
363.3441794780729
 10
423.9176456880341
 20
363.3441794780729
 10
424.1709261736905
 20
362.7143309486419
 10
424.6582472064783
 20
362.2597205008569
 10
425.3007027921431
 20
362.0635547058628
 10
425.3007027921431
 20
362.0635547058628
 10
432.196258269687
 20
360.6268545774792
 10
432.196258269687
 20
360.6268545774792
 10
432.7947832081572
 20
360.5418830184644
 10
433.2836168698341
 20
360.793898072573
 10
433.5714359636495
 20
361.3294458213777
 10
433.5714359636495
 20
361.3294458213777
 10
434.0312153044888
 20
362.2259966254314
 10
434.0312153044888
 20
362.2259966254314
 10
434.0312153044888
 20
362.2259966254314
 10
435.5748232697333
 20
362.830315865991
 10
435.5748232697333
 20
362.830315865991
 10
435.5748232697333
 20
362.830315865991
 10
435.5818832212262
 20
362.8331524536443
 10
435.5818832212262
 20
362.8331524536443
 10
435.8081168453391
 20
362.9280205518016
 10
435.9913604076937
 20
363.0956943997089
 10
436.1042565962634
 20
363.3139855783957
 10
436.1042565962634
 20
363.3139855783957
 10
439.5417595842082
 20
370.0208134241202
 10
439.5417595842082
 20
370.0208134241202
 10
439.6814457672754
 20
370.3078760945591
 10
439.6935485412596
 20
370.6244461916212
 10
439.5760507771629
 20
370.9212724156059
 10
439.5760507771629
 20
370.9212724156059
 10
436.138232612815
 20
379.0884386201542
 10
436.138232612815
 20
379.0884386201542
 10
436.004156569772
 20
379.3907629651294
 10
435.7549200865924
 20
379.601734914706
 10
435.4350740513837
 20
379.6814115101006
 10
435.4350740513837
 20
379.6814115101006
 10
428.5327737987573
 20
381.1664668804924
 10
428.5327737987573
 20
381.1664668804924
 10
428.5327737987573
 20
381.1664668804924
 10
428.5269115176088
 20
381.1677275861466
 10
428.5269115176088
 20
381.1677275861466
 10
428.3403901206311
 20
381.2052894323406
 10
428.1479434072262
 20
381.1881438358623
 10
427.9713233713228
 20
381.1172291445482
 10
427.9713233713228
 20
381.1172291445482
 10
426.7124409491844
 20
380.6070215787731
 10
426.7124409491844
 20
380.6070215787731
 10
426.7124409491844
 20
380.6070215787731
 10
425.3007027921431
 20
380.9102843164737
 10
425.3007027921431
 20
380.9102843164737
 10
424.7006069154231
 20
381.0003617332641
 10
424.2088686870302
 20
380.7510643670994
 10
423.9176456880341
 20
380.2150051651897
 10
423.9176456880341
 20
380.2150051651897
 10
420.4542982348139
 20
373.5059710846226
 10
420.4542982348139
 20
373.5059710846226
 10
420.175051939239
 20
372.8647762045812
 10
420.1764387154244
 20
372.1653997600224
 10
420.4542982348139
 20
371.5187838457996
 97
        0
 97
        0
 75
     2
 76
     1
 98
        0
  0
SPLINE
  5
1D6
330
1D0
100
AcDbEntity
  8
Layer 3
 62
    18
420
        0
370
     5
100
AcDbSpline
210
0.0
220
0.0
230
1.0
 70
     8
 71
     3
 72
     8
 73
     4
 74
     0
 42
0.0000000001
 43
0.0000000001
 12
1.0
 22
0.0
 32
0.0
 13
1.0
 23
0.0
 33
0.0
 40
0.0
 40
0.0
 40
0.0
 40
0.0
 40
1.0
 40
1.0
 40
1.0
 40
1.0
 10
431.0405694247493
 20
371.9201925162779
 30
0.0
 10
431.2706482010126
 20
372.2371339099891
 30
0.0
 10
431.1757801028543
 20
372.8226686367607
 30
0.0
 10
431.0405694247493
 20
373.1532256512064
 30
0.0
  0
SPLINE
  5
1D7
330
1D0
100
AcDbEntity
  8
Layer 3
 62
    18
420
        0
370
     5
100
AcDbSpline
210
0.0
220
0.0
230
1.0
 70
     8
 71
     3
 72
    11
 73
     7
 74
     0
 42
0.0000000001
 43
0.0000000001
 12
1.0
 22
0.0
 32
0.0
 13
1.0
 23
0.0
 33
0.0
 40
0.0
 40
0.0
 40
0.0
 40
0.0
 40
1.0
 40
1.0
 40
1.0
 40
2.0
 40
2.0
 40
2.0
 40
2.0
 10
431.3233456960679
 20
371.250316583305
 30
0.0
 10
431.7043309354485
 20
371.2594566990738
 30
0.0
 10
432.0482514295036
 20
370.7564351553519
 30
0.0
 10
432.1804364141135
 20
370.4523598696851
 30
0.0
 10
432.207541585014
 20
370.3908305245768
 30
0.0
 10
432.2433456247181
 20
370.3354855477101
 30
0.0
 10
432.2877854979415
 20
370.2862549931178
 30
0.0
  0
SPLINE
  5
1D8
330
1D0
100
AcDbEntity
  8
Layer 3
 62
    18
420
        0
370
     5
100
AcDbSpline
210
0.0
220
0.0
230
1.0
 70
     8
 71
     3
 72
    41
 73
    37
 74
     0
 42
0.0000000001
 43
0.0000000001
 12
1.0
 22
0.0
 32
0.0
 13
1.0
 23
0.0
 33
0.0
 40
0.0
 40
0.0
 40
0.0
 40
0.0
 40
1.0
 40
1.0
 40
1.0
 40
2.0
 40
2.0
 40
2.0
 40
3.0
 40
3.0
 40
3.0
 40
4.0
 40
4.0
 40
4.0
 40
5.0
 40
5.0
 40
5.0
 40
6.0
 40
6.0
 40
6.0
 40
7.0
 40
7.0
 40
7.0
 40
8.0
 40
8.0
 40
8.0
 40
9.0
 40
9.0
 40
9.0
 40
10.0
 40
10.0
 40
10.0
 40
11.0
 40
11.0
 40
11.0
 40
12.0
 40
12.0
 40
12.0
 40
12.0
 10
432.6696532312581
 20
370.1689463348648
 30
0.0
 10
432.7211530559725
 20
370.2094149853747
 30
0.0
 10
432.7464302037206
 20
370.2640035388649
 30
0.0
 10
432.7454216392216
 20
370.3327750306198
 30
0.0
 10
432.7534271199293
 20
370.7923022303366
 30
0.0
 10
433.2410730101019
 20
370.8947975975152
 30
0.0
 10
433.6016928986101
 20
370.7674032942759
 30
0.0
 10
433.7342560949073
 20
370.7206311156488
 30
0.0
 10
433.9111380658469
 20
370.7520857209511
 30
0.0
 10
433.9811072297125
 20
370.8883049635542
 30
0.0
 10
434.0525842648058
 20
371.0274868643737
 30
0.0
 10
433.9877839957644
 20
371.2144564382588
 30
0.0
 10
433.8839648876819
 20
371.316944875497
 30
0.0
 10
433.538720652723
 20
371.6579027113366
 30
0.0
 10
433.5072030121391
 20
372.2187906431718
 30
0.0
 10
433.8839648876819
 20
372.5487803400847
 30
0.0
 10
434.0053708392115
 20
372.6551208594155
 30
0.0
 10
434.0430029020681
 20
372.8519800425047
 30
0.0
 10
433.9811072297125
 20
372.9987261770639
 30
0.0
 10
433.9207774918832
 20
373.1418162653163
 30
0.0
 10
433.7586507487194
 20
373.2455093028366
 30
0.0
 10
433.6016928986101
 20
373.2182150260896
 30
0.0
 10
433.1031468598503
 20
373.1314784792039
 30
0.0
 10
432.7517251673416
 20
373.5494023933488
 30
0.0
 10
432.7454216392216
 20
374.0165568620851
 30
0.0
 10
432.7435936160691
 20
374.1532173516571
 30
0.0
 10
432.6649305256724
 20
374.3344437850155
 30
0.0
 10
432.5142082278981
 20
374.3665287431304
 30
0.0
 10
432.3639321175924
 20
374.3985506659646
 30
0.0
 10
432.2307385684835
 20
374.2610076824567
 30
0.0
 10
432.1804364141135
 20
374.1369542491184
 30
0.0
 10
432.0543028164921
 20
373.8261272776781
 30
0.0
 10
431.6698506366502
 20
373.4053037405993
 30
0.0
 10
431.3233456960679
 20
373.7030193735554
 30
0.0
 10
431.2819364219067
 20
373.7398319777576
 30
0.0
 10
431.2360418316512
 20
373.7538258101767
 30
0.0
 10
431.1856136067181
 20
373.7451269413759
 30
0.0
  0
POLYLINE
  5
1D9
330
1D0
100
AcDbEntity
  8
Layer 3
 62
    18
420
        0
370
     5
100
AcDb2dPolyline
 66
     1
 10
0.0
 20
0.0
 30
0.0
  0
VERTEX
  5
1DA
330
1D9
100
AcDbEntity
  8
Layer 3
 62
    18
420
        0
370
     5
100
AcDbVertex
100
AcDb2dVertex
 10
433.8839648876819
 20
371.316944875497
 30
0.0
  0
VERTEX
  5
1DB
330
1D9
100
AcDbEntity
  8
Layer 3
 62
    18
420
        0
370
     5
100
AcDbVertex
100
AcDb2dVertex
 10
432.8203075532492
 20
370.8942372018364
 30
0.0
  0
SEQEND
  5
1DC
330
1D9
100
AcDbEntity
  8
Layer 3
 62
    18
420
        0
370
     5
  0
POLYLINE
  5
1DD
330
1D0
100
AcDbEntity
  8
Layer 3
 62
    18
420
        0
370
     5
100
AcDb2dPolyline
 66
     1
 10
0.0
 20
0.0
 30
0.0
  0
VERTEX
  5
1DE
330
1DD
100
AcDbEntity
  8
Layer 3
 62
    18
420
        0
370
     5
100
AcDbVertex
100
AcDb2dVertex
 10
433.8839648876819
 20
372.5487803400847
 30
0.0
  0
VERTEX
  5
1DF
330
1DD
100
AcDbEntity
  8
Layer 3
 62
    18
420
        0
370
     5
100
AcDbVertex
100
AcDb2dVertex
 10
432.8203075532492
 20
372.1252462859175
 30
0.0
  0
SEQEND
  5
1E0
330
1DD
100
AcDbEntity
  8
Layer 3
 62
    18
420
        0
370
     5
  0
POLYLINE
  5
1E1
330
1D0
100
AcDbEntity
  8
Layer 3
 62
    18
420
        0
370
     5
100
AcDb2dPolyline
 66
     1
 10
0.0
 20
0.0
 30
0.0
  0
VERTEX
  5
1E2
330
1E1
100
AcDbEntity
  8
Layer 3
 62
    18
420
        0
370
     5
100
AcDbVertex
100
AcDb2dVertex
 10
433.6016928986101
 20
373.2182150260896
 30
0.0
  0
VERTEX
  5
1E3
330
1E1
100
AcDbEntity
  8
Layer 3
 62
    18
420
        0
370
     5
100
AcDbVertex
100
AcDb2dVertex
 10
432.5381616347422
 20
372.7941766896738
 30
0.0
  0
SEQEND
  5
1E4
330
1E1
100
AcDbEntity
  8
Layer 3
 62
    18
420
        0
370
     5
  0
SPLINE
  5
1E5
330
1D0
100
AcDbEntity
  8
Layer 3
 62
    18
420
        0
370
     5
100
AcDbSpline
210
0.0
220
0.0
230
1.0
 70
     8
 71
     3
 72
    20
 73
    16
 74
     0
 42
0.0000000001
 43
0.0000000001
 12
1.0
 22
0.0
 32
0.0
 13
1.0
 23
0.0
 33
0.0
 40
0.0
 40
0.0
 40
0.0
 40
0.0
 40
1.0
 40
1.0
 40
1.0
 40
2.0
 40
2.0
 40
2.0
 40
3.0
 40
3.0
 40
3.0
 40
4.0
 40
4.0
 40
4.0
 40
5.0
 40
5.0
 40
5.0
 40
5.0
 10
431.6821425164762
 20
373.5918881728567
 30
0.0
 10
431.6885721151575
 20
373.1225905045594
 30
0.0
 10
432.0439019951027
 20
372.7081335308794
 30
0.0
 10
432.5381616347422
 20
372.7941766896738
 30
0.0
 10
432.6949934142867
 20
372.8214709664198
 30
0.0
 10
432.8570571221717
 20
372.7178479320983
 30
0.0
 10
432.9173818862491
 20
372.5748769464881
 30
0.0
 10
432.9792194970742
 20
372.4281938472113
 30
0.0
 10
432.9416554169893
 20
372.2315237699659
 30
0.0
 10
432.8203075532492
 20
372.1252462859175
 30
0.0
 10
432.4417176545539
 20
371.7936176716921
 30
0.0
 10
432.4765761650415
 20
371.2336122337947
 30
0.0
 10
432.8203075532492
 20
370.8942372018364
 30
0.0
 10
432.8670166965949
 20
370.8480884541696
 30
0.0
 10
432.9016861012369
 20
370.7952018532706
 30
0.0
 10
432.9243157671772
 20
370.7356335125669
 30
0.0
  0
POLYLINE
  5
1E6
330
1D0
100
AcDbEntity
  8
Layer 3
 62
    18
420
        0
370
     5
100
AcDb2dPolyline
 66
     1
 10
0.0
 20
0.0
 30
0.0
  0
VERTEX
  5
1E7
330
1E6
100
AcDbEntity
  8
Layer 3
 62
    18
420
        0
370
     5
100
AcDbVertex
100
AcDb2dVertex
 10
433.0371489204681
 20
370.7804515974749
 30
0.0
  0
VERTEX
  5
1E8
330
1E6
100
AcDbEntity
  8
Layer 3
 62
    18
420
        0
370
     5
100
AcDbVertex
100
AcDb2dVertex
 10
432.1851010249175
 20
370.441952137603
 30
0.0
  0
SEQEND
  5
1E9
330
1E6
100
AcDbEntity
  8
Layer 3
 62
    18
420
        0
370
     5
  0
POLYLINE
  5
1EA
330
1D0
100
AcDbEntity
  8
Layer 3
 62
    18
420
        0
370
     5
100
AcDb2dPolyline
 66
     1
 10
0.0
 20
0.0
 30
0.0
  0
VERTEX
  5
1EB
330
1EA
100
AcDbEntity
  8
Layer 3
 62
    18
420
        0
370
     5
100
AcDbVertex
100
AcDb2dVertex
 10
431.7355333996293
 20
373.6285747064967
 30
0.0
  0
VERTEX
  5
1EC
330
1EA
100
AcDbEntity
  8
Layer 3
 62
    18
420
        0
370
     5
100
AcDbVertex
100
AcDb2dVertex
 10
431.0096240003804
 20
373.338612413123
 30
0.0
  0
SEQEND
  5
1ED
330
1EA
100
AcDbEntity
  8
Layer 3
 62
    18
420
        0
370
     5
  0
SPLINE
  5
1EE
330
1D0
100
AcDbEntity
  8
Layer 3
 62
    18
420
        0
370
     5
100
AcDbSpline
210
0.0
220
0.0
230
1.0
 70
     8
 71
     3
 72
     8
 73
     4
 74
     0
 42
0.0000000001
 43
0.0000000001
 12
1.0
 22
0.0
 32
0.0
 13
1.0
 23
0.0
 33
0.0
 40
0.0
 40
0.0
 40
0.0
 40
0.0
 40
1.0
 40
1.0
 40
1.0
 40
1.0
 10
425.3007027921431
 20
380.9102843164737
 30
0.0
 10
425.2813509608241
 20
380.615405271169
 30
0.0
 10
425.3878805859986
 20
380.3512874430753
 30
0.0
 10
425.6069912233379
 20
380.1643878344112
 30
0.0
  0
SPLINE
  5
1EF
330
1D0
100
AcDbEntity
  8
Layer 3
 62
    18
420
        0
370
     5
100
AcDbSpline
210
0.0
220
0.0
230
1.0
 70
     8
 71
     3
 72
     8
 73
     4
 74
     0
 42
0.0000000001
 43
0.0000000001
 12
1.0
 22
0.0
 32
0.0
 13
1.0
 23
0.0
 33
0.0
 40
0.0
 40
0.0
 40
0.0
 40
0.0
 40
1.0
 40
1.0
 40
1.0
 40
1.0
 10
433.2568899106209
 20
361.9228599582957
 30
0.0
 10
433.2415093020172
 20
361.7039384267973
 30
0.0
 10
433.4037040396233
 20
361.469510216134
 30
0.0
 10
433.5648802944088
 20
361.3355669240309
 30
0.0
  0
SPLINE
  5
1F0
330
1D0
100
AcDbEntity
  8
Layer 3
 62
    18
420
        0
370
     5
100
AcDbSpline
210
0.0
220
0.0
230
1.0
 70
     8
 71
     3
 72
    23
 73
    19
 74
     0
 42
0.0000000001
 43
0.0000000001
 12
1.0
 22
0.0
 32
0.0
 13
1.0
 23
0.0
 33
0.0
 40
0.0
 40
0.0
 40
0.0
 40
0.0
 40
1.0
 40
1.0
 40
1.0
 40
2.0
 40
2.0
 40
2.0
 40
3.0
 40
3.0
 40
3.0
 40
4.0
 40
4.0
 40
4.0
 40
5.0
 40
5.0
 40
5.0
 40
6.0
 40
6.0
 40
6.0
 40
6.0
 10
425.3007027921431
 20
362.0635547058628
 30
0.0
 10
425.2869611008482
 20
362.5631723444021
 30
0.0
 10
425.4944102111731
 20
363.0047975242651
 30
0.0
 10
425.8900826710651
 20
363.2878889719914
 30
0.0
 10
425.8900826710651
 20
363.2878889719914
 30
0.0
 10
428.3279091349596
 20
364.2489879039604
 30
0.0
 10
428.3279091349596
 20
364.2489879039604
 30
0.0
 10
428.7249053357573
 20
364.5327164656428
 30
0.0
 10
428.9331739047375
 20
364.9754695194233
 30
0.0
 10
428.9196213192845
 20
365.4766000047102
 30
0.0
 10
428.4996802761434
 20
365.2644862835778
 30
0.0
 10
428.0712294700425
 20
365.0690138766777
 30
0.0
 10
427.6359078182977
 20
364.8909392073783
 30
0.0
 10
427.6359078182977
 20
364.8909392073783
 30
0.0
 10
425.19858563665
 20
363.9285795697833
 30
0.0
 10
425.19858563665
 20
363.9285795697833
 30
0.0
 10
424.7641464788394
 20
363.750820076888
 30
0.0
 10
424.3366412019568
 20
363.555788916954
 30
0.0
 10
423.9176456880341
 20
363.3441794780729
 30
0.0
  0
SPLINE
  5
1F1
330
1D0
100
AcDbEntity
  8
Layer 3
 62
    18
420
        0
370
     5
100
AcDbSpline
210
0.0
220
0.0
230
1.0
 70
     8
 71
     3
 72
    17
 73
    13
 74
     0
 42
0.0000000001
 43
0.0000000001
 12
1.0
 22
0.0
 32
0.0
 13
1.0
 23
0.0
 33
0.0
 40
0.0
 40
0.0
 40
0.0
 40
0.0
 40
1.0
 40
1.0
 40
1.0
 40
2.0
 40
2.0
 40
2.0
 40
3.0
 40
3.0
 40
3.0
 40
4.0
 40
4.0
 40
4.0
 40
4.0
 10
432.196258269687
 20
360.6268545774792
 30
0.0
 10
432.182831754797
 20
361.1259048984866
 30
0.0
 10
432.3907270456621
 20
361.5662760589339
 30
0.0
 10
432.7868988542305
 20
361.8477219031429
 30
0.0
 10
432.7868988542305
 20
361.8477219031429
 30
0.0
 10
435.2297681406199
 20
362.8042890123506
 30
0.0
 10
435.2297681406199
 20
362.8042890123506
 30
0.0
 10
435.6273316589468
 20
363.0863651780965
 30
0.0
 10
435.8359784396143
 20
363.5279340584411
 30
0.0
 10
435.8227410305681
 20
364.0283644198744
 30
0.0
 10
436.050235360306
 20
363.8469488806722
 30
0.0
 10
436.1540544683867
 20
363.5964466733103
 30
0.0
 10
436.1071562191992
 20
363.3197848242635
 30
0.0
  0
SPLINE
  5
1F2
330
1D0
100
AcDbEntity
  8
Layer 3
 62
    18
420
        0
370
     5
100
AcDbSpline
210
0.0
220
0.0
230
1.0
 70
     8
 71
     3
 72
    23
 73
    19
 74
     0
 42
0.0000000001
 43
0.0000000001
 12
1.0
 22
0.0
 32
0.0
 13
1.0
 23
0.0
 33
0.0
 40
0.0
 40
0.0
 40
0.0
 40
0.0
 40
1.0
 40
1.0
 40
1.0
 40
2.0
 40
2.0
 40
2.0
 40
3.0
 40
3.0
 40
3.0
 40
4.0
 40
4.0
 40
4.0
 40
5.0
 40
5.0
 40
5.0
 40
6.0
 40
6.0
 40
6.0
 40
6.0
 10
420.4542982348139
 20
373.5059710846226
 30
0.0
 10
420.8069806329504
 20
373.1674085894692
 30
0.0
 10
421.2645537389471
 20
373.0184562200702
 30
0.0
 10
421.7362467479288
 20
373.0988262035598
 30
0.0
 10
421.7362467479288
 20
373.0988262035598
 30
0.0
 10
424.1709844830475
 20
374.076888628415
 30
0.0
 10
424.1709844830475
 20
374.076888628415
 30
0.0
 10
424.6437490918088
 20
374.1576928566201
 30
0.0
 10
425.102267727023
 20
374.0085513813756
 30
0.0
 10
425.4557065485351
 20
373.6691063922872
 30
0.0
 10
425.034756940895
 20
373.4578121298127
 30
0.0
 10
424.6060539936698
 20
373.2617724053789
 30
0.0
 10
424.1709844830475
 20
373.0815615136262
 30
0.0
 10
424.1709844830475
 20
373.0815615136262
 30
0.0
 10
421.7362467479288
 20
372.1050749959441
 30
0.0
 10
421.7362467479288
 20
372.1050749959441
 30
0.0
 10
421.3020597312425
 20
371.9252983740535
 30
0.0
 10
420.8743023132356
 20
371.7296368613052
 30
0.0
 10
420.4542982348139
 20
371.5187838457996
 30
0.0
  0
SPLINE
  5
1F3
330
1D0
100
AcDbEntity
  8
Layer 3
 62
    18
420
        0
370
     5
100
AcDbSpline
210
0.0
220
0.0
230
1.0
 70
     8
 71
     3
 72
    11
 73
     7
 74
     0
 42
0.0000000001
 43
0.0000000001
 12
1.0
 22
0.0
 32
0.0
 13
1.0
 23
0.0
 33
0.0
 40
0.0
 40
0.0
 40
0.0
 40
0.0
 40
1.0
 40
1.0
 40
1.0
 40
2.0
 40
2.0
 40
2.0
 40
2.0
 10
439.5417595842082
 20
370.0208134241202
 30
0.0
 10
439.6621569712388
 20
370.2623015862737
 30
0.0
 10
439.4485304033606
 20
370.58800488407
 30
0.0
 10
439.2620090063829
 20
370.7373354651572
 30
0.0
 10
439.3697363018982
 20
370.7921761597736
 30
0.0
 10
439.4751943272913
 20
370.8478993483259
 30
0.0
 10
439.5743488245698
 20
370.9162995508023
 30
0.0
  0
SPLINE
  5
1F4
330
1D0
100
AcDbEntity
  8
Layer 3
 62
    18
420
        0
370
     5
100
AcDbSpline
210
0.0
220
0.0
230
1.0
 70
     8
 71
     3
 72
    14
 73
    10
 74
     0
 42
0.0000000001
 43
0.0000000001
 12
1.0
 22
0.0
 32
0.0
 13
1.0
 23
0.0
 33
0.0
 40
0.0
 40
0.0
 40
0.0
 40
0.0
 40
1.0
 40
1.0
 40
1.0
 40
2.0
 40
2.0
 40
2.0
 40
3.0
 40
3.0
 40
3.0
 40
3.0
 10
436.138232612815
 20
379.0884386201542
 30
0.0
 10
436.093603633748
 20
379.0136157414072
 30
0.0
 10
435.9058845664276
 20
378.9450333554951
 30
0.0
 10
435.8290445586845
 20
378.9101118097296
 30
0.0
 10
435.8290445586845
 20
378.9101118097296
 30
0.0
 10
435.8227410305681
 20
378.906897010389
 30
0.0
 10
435.8227410305681
 20
378.906897010389
 30
0.0
 10
435.8479551430355
 20
379.2387777657405
 30
0.0
 10
435.716400511239
 20
379.5155026500661
 30
0.0
 10
435.4421970381554
 20
379.6798356280724
 30
0.0
  0
SPLINE
  5
1F5
330
1D0
100
AcDbEntity
  8
Layer 3
 62
    18
420
        0
370
     5
100
AcDbSpline
210
0.0
220
0.0
230
1.0
 70
     8
 71
     3
 72
    17
 73
    13
 74
     0
 42
0.0000000001
 43
0.0000000001
 12
1.0
 22
0.0
 32
0.0
 13
1.0
 23
0.0
 33
0.0
 40
0.0
 40
0.0
 40
0.0
 40
0.0
 40
1.0
 40
1.0
 40
1.0
 40
2.0
 40
2.0
 40
2.0
 40
3.0
 40
3.0
 40
3.0
 40
4.0
 40
4.0
 40
4.0
 40
4.0
 10
423.9176456880341
 20
380.2150051651897
 30
0.0
 10
424.2698915676265
 20
379.8759383877859
 30
0.0
 10
424.7271447687945
 20
379.7274903006364
 30
0.0
 10
425.19858563665
 20
379.8093172426561
 30
0.0
 10
425.19858563665
 20
379.8093172426561
 30
0.0
 10
427.6359078182977
 20
380.796820810373
 30
0.0
 10
427.6359078182977
 20
380.796820810373
 30
0.0
 10
428.1084202859329
 20
380.8792079228579
 30
0.0
 10
428.5666237447458
 20
380.7304446593007
 30
0.0
 10
428.9196213192845
 20
380.3905025497106
 30
0.0
 10
428.9400447503831
 20
380.6561260628041
 30
0.0
 10
428.8331999488055
 20
381.0981924896359
 30
0.0
 10
428.5327737987573
 20
381.1664668804924
 30
0.0
  0
POLYLINE
  5
1F6
330
1D0
100
AcDbEntity
  8
Layer 3
 62
    18
420
        0
370
     5
100
AcDb2dPolyline
 66
     1
 10
0.0
 20
0.0
 30
0.0
  0
VERTEX
  5
1F7
330
1F6
100
AcDbEntity
  8
Layer 3
 62
    18
420
        0
370
     5
100
AcDbVertex
100
AcDb2dVertex
 10
435.8227410305681
 20
378.906897010389
 30
0.0
  0
VERTEX
  5
1F8
330
1F6
100
AcDbEntity
  8
Layer 3
 62
    18
420
        0
370
     5
100
AcDbVertex
100
AcDb2dVertex
 10
428.9196213192845
 20
380.3905025497106
 30
0.0
  0
VERTEX
  5
1F9
330
1F6
100
AcDbEntity
  8
Layer 3
 62
    18
420
        0
370
     5
100
AcDbVertex
100
AcDb2dVertex
 10
425.4557065485351
 20
373.6691063922872
 30
0.0
  0
VERTEX
  5
1FA
330
1F6
100
AcDbEntity
  8
Layer 3
 62
    18
420
        0
370
     5
100
AcDbVertex
100
AcDb2dVertex
 10
428.9196213192845
 20
365.4766000047102
 30
0.0
  0
VERTEX
  5
1FB
330
1F6
100
AcDbEntity
  8
Layer 3
 62
    18
420
        0
370
     5
100
AcDbVertex
100
AcDb2dVertex
 10
435.8227410305681
 20
364.0283644198744
 30
0.0
  0
VERTEX
  5
1FC
330
1F6
100
AcDbEntity
  8
Layer 3
 62
    18
420
        0
370
     5
100
AcDbVertex
100
AcDb2dVertex
 10
439.2620090063829
 20
370.7373354651572
 30
0.0
  0
VERTEX
  5
1FD
330
1F6
100
AcDbEntity
  8
Layer 3
 62
    18
420
        0
370
     5
100
AcDbVertex
100
AcDb2dVertex
 10
435.8227410305681
 20
378.906897010389
 30
0.0
  0
SEQEND
  5
1FE
330
1F6
100
AcDbEntity
  8
Layer 3
 62
    18
420
        0
370
     5
  0
SPLINE
  5
1FF
330
1D0
100
AcDbEntity
  8
Layer 3
 62
    18
420
        0
370
     5
100
AcDbSpline
210
0.0
220
0.0
230
1.0
 70
     8
 71
     3
 72
    29
 73
    25
 74
     0
 42
0.0000000001
 43
0.0000000001
 12
1.0
 22
0.0
 32
0.0
 13
1.0
 23
0.0
 33
0.0
 40
0.0
 40
0.0
 40
0.0
 40
0.0
 40
1.0
 40
1.0
 40
1.0
 40
2.0
 40
2.0
 40
2.0
 40
3.0
 40
3.0
 40
3.0
 40
4.0
 40
4.0
 40
4.0
 40
5.0
 40
5.0
 40
5.0
 40
6.0
 40
6.0
 40
6.0
 40
7.0
 40
7.0
 40
7.0
 40
8.0
 40
8.0
 40
8.0
 40
8.0
 10
427.9669109015304
 20
381.1154083014544
 30
0.0
 10
427.8211685096485
 20
381.0496553231378
 30
0.0
 10
427.709533026702
 20
380.938524122439
 30
0.0
 10
427.6359078182977
 20
380.796820810373
 30
0.0
 10
427.6359078182977
 20
380.796820810373
 30
0.0
 10
424.1709844830475
 20
374.076888628415
 30
0.0
 10
424.1709844830475
 20
374.076888628415
 30
0.0
 10
424.0312352646979
 20
373.7557168686144
 30
0.0
 10
424.031928652792
 20
373.4054298111614
 30
0.0
 10
424.1709844830475
 20
373.0815615136262
 30
0.0
 10
424.1709844830475
 20
373.0815615136262
 30
0.0
 10
427.6359078182977
 20
364.8909392073783
 30
0.0
 10
427.6359078182977
 20
364.8909392073783
 30
0.0
 10
427.7621674864786
 20
364.5764561896294
 30
0.0
 10
428.0070595538127
 20
364.3473229425827
 30
0.0
 10
428.3279091349596
 20
364.2489879039604
 30
0.0
 10
428.3279091349596
 20
364.2489879039604
 30
0.0
 10
435.2297681406199
 20
362.8042890123506
 30
0.0
 10
435.2297681406199
 20
362.8042890123506
 30
0.0
 10
435.2297681406199
 20
362.8042890123506
 30
0.0
 10
435.2372693390789
 20
362.8027694481216
 30
0.0
 10
435.2372693390789
 20
362.8027694481216
 30
0.0
 10
435.3501655276505
 20
362.7800767468998
 30
0.0
 10
435.4672850800616
 20
362.7890277568249
 30
0.0
 10
435.5748232697333
 20
362.830315865991
 30
0.0
  0
SPLINE
  5
200
330
1D0
100
AcDbEntity
  8
Layer 3
 62
    18
420
        0
370
     5
100
AcDbSpline
210
0.0
220
0.0
230
1.0
 70
     8
 71
     3
 72
    38
 73
    34
 74
     0
 42
0.0000000001
 43
0.0000000001
 12
1.0
 22
0.0
 32
0.0
 13
1.0
 23
0.0
 33
0.0
 40
0.0
 40
0.0
 40
0.0
 40
0.0
 40
1.0
 40
1.0
 40
1.0
 40
2.0
 40
2.0
 40
2.0
 40
3.0
 40
3.0
 40
3.0
 40
4.0
 40
4.0
 40
4.0
 40
5.0
 40
5.0
 40
5.0
 40
6.0
 40
6.0
 40
6.0
 40
7.0
 40
7.0
 40
7.0
 40
8.0
 40
8.0
 40
8.0
 40
9.0
 40
9.0
 40
9.0
 40
10.0
 40
10.0
 40
10.0
 40
11.0
 40
11.0
 40
11.0
 40
11.0
 10
426.7525313880069
 20
380.6232846813164
 30
0.0
 10
426.7525313880069
 20
380.6232846813164
 30
0.0
 10
425.5338072619033
 20
380.1293402180818
 30
0.0
 10
425.5338072619033
 20
380.1293402180818
 30
0.0
 10
425.3888261152169
 20
380.0698979479421
 30
0.0
 10
425.2718326333688
 20
379.9529675013728
 30
0.0
 10
425.201044012616
 20
379.8140377416794
 30
0.0
 10
425.201044012616
 20
379.8140377416794
 30
0.0
 10
425.19858563665
 20
379.8093172426561
 30
0.0
 10
425.19858563665
 20
379.8093172426561
 30
0.0
 10
425.19858563665
 20
379.8093172426561
 30
0.0
 10
421.7362467479288
 20
373.0988262035598
 30
0.0
 10
421.7362467479288
 20
373.0988262035598
 30
0.0
 10
421.5966866354211
 20
372.7781657282567
 30
0.0
 10
421.597380023517
 20
372.4284459883347
 30
0.0
 10
421.7362467479288
 20
372.1050749959441
 30
0.0
 10
421.7362467479288
 20
372.1050749959441
 30
0.0
 10
425.19858563665
 20
363.9285795697833
 30
0.0
 10
425.19858563665
 20
363.9285795697833
 30
0.0
 10
425.3248453048291
 20
363.6146638695664
 30
0.0
 10
425.5697373721669
 20
363.3857827636457
 30
0.0
 10
425.8900826710651
 20
363.2878889719914
 30
0.0
 10
425.8900826710651
 20
363.2878889719914
 30
0.0
 10
432.7868988542305
 20
361.8477219031429
 30
0.0
 10
432.7868988542305
 20
361.8477219031429
 30
0.0
 10
432.9006145014591
 20
361.8246509902347
 30
0.0
 10
433.0157169248723
 20
361.8315218358821
 30
0.0
 10
433.1248940318528
 20
361.8712340630182
 30
0.0
 10
433.1248940318528
 20
361.8712340630182
 30
0.0
 10
433.131638806939
 20
361.8738185095472
 30
0.0
 10
433.131638806939
 20
361.8738185095472
 30
0.0
 10
433.131638806939
 20
361.8738185095472
 30
0.0
 10
434.0312153044888
 20
362.2259966254314
 30
0.0
 10
434.0312153044888
 20
362.2259966254314
 30
0.0
  0
SPLINE
  5
201
330
1D0
100
AcDbEntity
  8
Layer 3
 62
    18
420
        0
370
     9
100
AcDbSpline
210
0.0
220
0.0
230
1.0
 70
    11
 71
     3
 72
    17
 73
    13
 74
     0
 42
0.0000000001
 43
0.0000000001
 12
1.0
 22
0.0
 32
0.0
 13
1.0
 23
0.0
 33
0.0
 40
0.0
 40
0.0
 40
0.0
 40
0.0
 40
1.0
 40
1.0
 40
1.0
 40
2.0
 40
2.0
 40
2.0
 40
3.0
 40
3.0
 40
3.0
 40
4.0
 40
4.0
 40
4.0
 40
4.0
 10
437.2427368094432
 20
374.0125226040909
 30
0.0
 10
438.4936089289422
 20
370.6231155356818
 30
0.0
 10
437.4199920200863
 20
367.1049273878443
 30
0.0
 10
434.8447486432433
 20
366.1544814183944
 30
0.0
 10
432.2694422311215
 20
365.2040422270438
 30
0.0
 10
429.1676651506805
 20
367.1812000780583
 30
0.0
 10
427.9167299959008
 20
370.5706071464674
 30
0.0
 10
426.6658626653534
 20
373.9600142148784
 30
0.0
 10
427.7394747852559
 20
377.4782023627131
 30
0.0
 10
430.3147181620989
 20
378.4286483321684
 30
0.0
 10
432.8900245742207
 20
379.3790943016184
 30
0.0
 10
435.9918016546617
 20
377.4019296725
 30
0.0
 10
437.2427368094432
 20
374.0125226040909
 30
0.0
  0
SPLINE
  5
202
330
1D0
100
AcDbEntity
  8
Layer 3
 62
    18
420
        0
370
     5
100
AcDbSpline
210
0.0
220
0.0
230
1.0
 70
    11
 71
     3
 72
    17
 73
    13
 74
     0
 42
0.0000000001
 43
0.0000000001
 12
1.0
 22
0.0
 32
0.0
 13
1.0
 23
0.0
 33
0.0
 40
0.0
 40
0.0
 40
0.0
 40
0.0
 40
1.0
 40
1.0
 40
1.0
 40
2.0
 40
2.0
 40
2.0
 40
3.0
 40
3.0
 40
3.0
 40
4.0
 40
4.0
 40
4.0
 40
4.0
 10
434.0894599042895
 20
372.848765243165
 30
0.0
 10
434.5097791591161
 20
371.7099137607565
 30
0.0
 10
434.1744314633033
 20
370.5371354121662
 30
0.0
 10
433.3403486228872
 20
370.229334134222
 30
0.0
 10
432.5063288177516
 20
369.921469820998
 30
0.0
 10
431.489443661947
 20
370.595190906125
 30
0.0
 10
431.0691244071186
 20
371.7340493309875
 30
0.0
 10
430.6488051522883
 20
372.872914727689
 30
0.0
 10
430.9842158833835
 20
374.0456791619863
 30
0.0
 10
431.8182356885191
 20
374.3535434752102
 30
0.0
 10
432.6523234691194
 20
374.6613447531554
 30
0.0
 10
433.669140649461
 20
373.9876236680293
 30
0.0
 10
434.0894599042895
 20
372.848765243165
 30
0.0
  0
MTEXT
  5
203
330
1D0
100
AcDbEntity
  8
Layer 3
 62
    18
420
        0
100
AcDbMText
 10
431.2033591936342
 20
375.6542227061291
 30
0.0
 40
1.130817925182368
 41
0.0
 46
0.0
 71
     7
 72
     1
  1
\fHelvetica Neue LT Std 57 Condensed|b0|i0|c0|p34;\W0.832371;WS22
 11
0.9751990169949105
 21
-0.2213297929610024
 31
0.0
 73
     1
 44
1.0
  0
MTEXT
  5
204
330
1D0
100
AcDbEntity
  8
Layer 3
 62
    18
420
        0
100
AcDbMText
 10
431.8233349353541
 20
368.0804084177798
 30
0.0
 40
1.303863143525049
 41
0.0
 46
0.0
 71
     7
 72
     1
  1
\fHelvetica Neue LT Std 57 Condensed|b0|i0|c0|p34;\W0.832371;3.5
 11
0.9751990169949105
 21
-0.2213297929610024
 31
0.0
 73
     1
 44
1.0
  0
INSERT
  5
206
330
1D0
100
AcDbEntity
  8
Layer 3
100
AcDbBlockReference
  2
block 28
 10
0.0
 20
0.0
 30
0.0
  0
ENDBLK
  5
1D3
330
1D0
100
AcDbEntity
  8
0
100
AcDbBlockEnd
  0
BLOCK
  5
207
330
205
100
AcDbEntity
  8
0
100
AcDbBlockBegin
  2
block 28
 70
     0
 10
0.0
 20
0.0
 30
0.0
  3
block 28
  1

  0
INSERT
  5
20A
330
205
100
AcDbEntity
  8
Layer 3
100
AcDbBlockReference
  2
block 29
 10
0.0
 20
0.0
 30
0.0
  0
INSERT
  5
21C
330
205
100
AcDbEntity
  8
Layer 3
100
AcDbBlockReference
  2
block 30
 10
0.0
 20
0.0
 30
0.0
  0
ENDBLK
  5
208
330
205
100
AcDbEntity
  8
0
100
AcDbBlockEnd
  0
BLOCK
  5
20B
330
209
100
AcDbEntity
  8
0
100
AcDbBlockBegin
  2
block 29
 70
     0
 10
0.0
 20
0.0
 30
0.0
  3
block 29
  1

  0
POLYLINE
  5
20D
330
209
100
AcDbEntity
  8
Layer 3
370
     0
100
AcDb2dPolyline
 66
     1
 10
0.0
 20
0.0
 30
0.0
  0
VERTEX
  5
20E
330
20D
100
AcDbEntity
  8
Layer 3
370
     0
100
AcDbVertex
100
AcDb2dVertex
 10
436.779364457574
 20
371.4928133099565
 30
0.0
  0
VERTEX
  5
20F
330
20D
100
AcDbEntity
  8
Layer 3
370
     0
100
AcDbVertex
100
AcDb2dVertex
 10
435.1036345430039
 20
371.9015410203501
 30
0.0
  0
VERTEX
  5
210
330
20D
100
AcDbEntity
  8
Layer 3
370
     0
100
AcDbVertex
100
AcDb2dVertex
 10
435.1036345430039
 20
372.1528557390684
 30
0.0
  0
VERTEX
  5
211
330
20D
100
AcDbEntity
  8
Layer 3
370
     0
100
AcDbVertex
100
AcDb2dVertex
 10
436.779364457574
 20
371.7441349759747
 30
0.0
  0
VERTEX
  5
212
330
20D
100
AcDbEntity
  8
Layer 3
370
     0
100
AcDbVertex
100
AcDb2dVertex
 10
436.779364457574
 20
371.4928133099565
 30
0.0
  0
SEQEND
  5
213
330
20D
100
AcDbEntity
  8
Layer 3
370
     0
  0
POLYLINE
  5
214
330
209
100
AcDbEntity
  8
Layer 3
370
     0
100
AcDb2dPolyline
 66
     1
 10
0.0
 20
0.0
 30
0.0
  0
VERTEX
  5
215
330
214
100
AcDbEntity
  8
Layer 3
370
     0
100
AcDbVertex
100
AcDb2dVertex
 10
436.779364457574
 20
370.9789496978756
 30
0.0
  0
VERTEX
  5
216
330
214
100
AcDbEntity
  8
Layer 3
370
     0
100
AcDbVertex
100
AcDb2dVertex
 10
435.1036345430039
 20
371.3876704609684
 30
0.0
  0
VERTEX
  5
217
330
214
100
AcDbEntity
  8
Layer 3
370
     0
100
AcDbVertex
100
AcDb2dVertex
 10
435.1036345430039
 20
371.6389921269874
 30
0.0
  0
VERTEX
  5
218
330
214
100
AcDbEntity
  8
Layer 3
370
     0
100
AcDbVertex
100
AcDb2dVertex
 10
436.779364457574
 20
371.2302713638928
 30
0.0
  0
VERTEX
  5
219
330
214
100
AcDbEntity
  8
Layer 3
370
     0
100
AcDbVertex
100
AcDb2dVertex
 10
436.779364457574
 20
370.9789496978756
 30
0.0
  0
SEQEND
  5
21A
330
214
100
AcDbEntity
  8
Layer 3
370
     0
  0
ENDBLK
  5
20C
330
209
100
AcDbEntity
  8
0
100
AcDbBlockEnd
  0
BLOCK
  5
21D
330
21B
100
AcDbEntity
  8
0
100
AcDbBlockBegin
  2
block 30
 70
     0
 10
0.0
 20
0.0
 30
0.0
  3
block 30
  1

  0
POLYLINE
  5
21F
330
21B
100
AcDbEntity
  8
Layer 3
370
     0
100
AcDb2dPolyline
 66
     1
 10
0.0
 20
0.0
 30
0.0
  0
VERTEX
  5
220
330
21F
100
AcDbEntity
  8
Layer 3
370
     0
100
AcDbVertex
100
AcDb2dVertex
 10
435.4388561682536
 20
370.7309058664787
 30
0.0
  0
VERTEX
  5
221
330
21F
100
AcDbEntity
  8
Layer 3
370
     0
100
AcDbVertex
100
AcDb2dVertex
 10
435.3634709806483
 20
370.8158774254916
 30
0.0
  0
VERTEX
  5
222
330
21F
100
AcDbEntity
  8
Layer 3
370
     0
100
AcDbVertex
100
AcDb2dVertex
 10
436.5168855467909
 20
372.383130580638
 30
0.0
  0
VERTEX
  5
223
330
21F
100
AcDbEntity
  8
Layer 3
370
     0
100
AcDbVertex
100
AcDb2dVertex
 10
436.5922757430708
 20
372.2981520621615
 30
0.0
  0
VERTEX
  5
224
330
21F
100
AcDbEntity
  8
Layer 3
370
     0
100
AcDbVertex
100
AcDb2dVertex
 10
435.4388561682536
 20
370.7309058664787
 30
0.0
  0
SEQEND
  5
225
330
21F
100
AcDbEntity
  8
Layer 3
370
     0
  0
ENDBLK
  5
21E
330
21B
100
AcDbEntity
  8
0
100
AcDbBlockEnd
  0
BLOCK
  5
228
330
226
100
AcDbEntity
  8
0
100
AcDbBlockBegin
  2
block 31
 70
     0
 10
0.0
 20
0.0
 30
0.0
  3
block 31
  1

  0
INSERT
  5
22B
330
226
100
AcDbEntity
  8
Layer 3
100
AcDbBlockReference
  2
block 32
 10
0.0
 20
0.0
 30
0.0
  0
INSERT
  5
232
330
226
100
AcDbEntity
  8
Layer 3
100
AcDbBlockReference
  2
block 33
 10
0.0
 20
0.0
 30
0.0
  0
ENDBLK
  5
229
330
226
100
AcDbEntity
  8
0
100
AcDbBlockEnd
  0
BLOCK
  5
22C
330
22A
100
AcDbEntity
  8
0
100
AcDbBlockBegin
  2
block 32
 70
     0
 10
0.0
 20
0.0
 30
0.0
  3
block 32
  1

  0
SPLINE
  5
22E
330
22A
100
AcDbEntity
  8
Layer 3
 62
    18
420
        0
370
     9
100
AcDbSpline
210
0.0
220
0.0
230
1.0
 70
    11
 71
     3
 72
    23
 73
    19
 74
     0
 42
0.0000000001
 43
0.0000000001
 12
1.0
 22
0.0
 32
0.0
 13
1.0
 23
0.0
 33
0.0
 40
0.0
 40
0.0
 40
0.0
 40
0.0
 40
1.0
 40
1.0
 40
1.0
 40
2.0
 40
2.0
 40
2.0
 40
3.0
 40
3.0
 40
3.0
 40
4.0
 40
4.0
 40
4.0
 40
5.0
 40
5.0
 40
5.0
 40
6.0
 40
6.0
 40
6.0
 40
6.0
 10
363.490680046586
 20
452.4488128028452
 30
0.0
 10
358.7343925345122
 20
451.9183478752921
 30
0.0
 10
353.6810446630088
 20
456.0117745488242
 30
0.0
 10
351.7420223352592
 20
462.2540417684968
 30
0.0
 10
349.712150139243
 20
468.788895138624
 30
0.0
 10
351.8289255210721
 20
475.3169016131997
 30
0.0
 10
356.4762050326999
 20
477.2810115615666
 30
0.0
 10
356.4762050326999
 20
477.2810115615666
 30
0.0
 10
358.6085045638438
 20
478.0600662513343
 30
0.0
 10
358.6085045638438
 20
478.0600662513343
 30
0.0
 10
363.7274063759187
 20
479.6501052130898
 30
0.0
 10
369.6012292657169
 20
475.388488956778
 30
0.0
 10
371.7281055132644
 20
468.5414578241744
 30
0.0
 10
373.652625491316
 20
462.3457630524535
 30
0.0
 10
371.8497226480904
 20
456.1561016837441
 30
0.0
 10
367.6967754369998
 20
453.8564938534037
 30
0.0
 10
367.6967754369998
 20
453.8564938534037
 30
0.0
 10
363.490680046586
 20
452.4488128028452
 30
0.0
 10
363.490680046586
 20
452.4488128028452
 30
0.0
  0
HATCH
  5
22F
330
22A
100
AcDbEntity
  8
Layer 3
 62
   250
420
  2301728
100
AcDbHatch
 10
0.0
 20
0.0
 30
0.0
210
0.0
220
0.0
230
1.0
  2
SOLID
 70
     1
 71
     0
 91
        1
 92
        1
 93
        1
 72
     4
 94
        3
 73
     0
 74
     1
 95
       23
 96
       19
 40
0.0
 40
0.0
 40
0.0
 40
0.0
 40
1.0
 40
1.0
 40
1.0
 40
2.0
 40
2.0
 40
2.0
 40
3.0
 40
3.0
 40
3.0
 40
4.0
 40
4.0
 40
4.0
 40
5.0
 40
5.0
 40
5.0
 40
6.0
 40
6.0
 40
6.0
 40
6.0
 10
363.490680046586
 20
452.4488128028452
 10
358.7343925345122
 20
451.9183478752921
 10
353.6810446630088
 20
456.0117745488242
 10
351.7420223352592
 20
462.2540417684968
 10
349.712150139243
 20
468.788895138624
 10
351.8289255210721
 20
475.3169016131997
 10
356.4762050326999
 20
477.2810115615666
 10
356.4762050326999
 20
477.2810115615666
 10
358.6085045638438
 20
478.0600662513343
 10
358.6085045638438
 20
478.0600662513343
 10
363.7274063759187
 20
479.6501052130898
 10
369.6012292657169
 20
475.388488956778
 10
371.7281055132644
 20
468.5414578241744
 10
373.652625491316
 20
462.3457630524535
 10
371.8497226480904
 20
456.1561016837441
 10
367.6967754369998
 20
453.8564938534037
 10
367.6967754369998
 20
453.8564938534037
 10
363.490680046586
 20
452.4488128028452
 10
363.490680046586
 20
452.4488128028452
 97
        0
 97
        0
 75
     2
 76
     1
 98
        0
  0
SPLINE
  5
230
330
22A
100
AcDbEntity
  8
Layer 3
 62
    18
420
        0
370
     5
100
AcDbSpline
210
0.0
220
0.0
230
1.0
 70
     8
 71
     3
 72
    14
 73
    10
 74
     0
 42
0.0000000001
 43
0.0000000001
 12
1.0
 22
0.0
 32
0.0
 13
1.0
 23
0.0
 33
0.0
 40
0.0
 40
0.0
 40
0.0
 40
0.0
 40
1.0
 40
1.0
 40
1.0
 40
2.0
 40
2.0
 40
2.0
 40
3.0
 40
3.0
 40
3.0
 40
3.0
 10
367.6967754369998
 20
453.8564938534037
 30
0.0
 10
367.2601333158027
 20
453.6146831956939
 30
0.0
 10
366.7975272243511
 20
453.4159198515936
 30
0.0
 10
366.3105841477236
 20
453.2646780300765
 30
0.0
 10
361.1916823356496
 20
451.6746390683211
 30
0.0
 10
355.3178594458495
 20
455.9362553246337
 30
0.0
 10
353.1909831983085
 20
462.7833542482831
 30
0.0
 10
351.0641118675876
 20
469.6303853808859
 30
0.0
 10
353.4896027517734
 20
476.470027289578
 30
0.0
 10
358.6085045638438
 20
478.0600662513343
 30
0.0
  0
ENDBLK
  5
22D
330
22A
100
AcDbEntity
  8
0
100
AcDbBlockEnd
  0
BLOCK
  5
233
330
231
100
AcDbEntity
  8
0
100
AcDbBlockBegin
  2
block 33
 70
     0
 10
0.0
 20
0.0
 30
0.0
  3
block 33
  1

  0
SPLINE
  5
235
330
231
100
AcDbEntity
  8
Layer 3
 62
    18
420
        0
370
     9
100
AcDbSpline
210
0.0
220
0.0
230
1.0
 70
    11
 71
     3
 72
    65
 73
    61
 74
     0
 42
0.0000000001
 43
0.0000000001
 12
1.0
 22
0.0
 32
0.0
 13
1.0
 23
0.0
 33
0.0
 40
0.0
 40
0.0
 40
0.0
 40
0.0
 40
1.0
 40
1.0
 40
1.0
 40
2.0
 40
2.0
 40
2.0
 40
3.0
 40
3.0
 40
3.0
 40
4.0
 40
4.0
 40
4.0
 40
5.0
 40
5.0
 40
5.0
 40
6.0
 40
6.0
 40
6.0
 40
7.0
 40
7.0
 40
7.0
 40
8.0
 40
8.0
 40
8.0
 40
9.0
 40
9.0
 40
9.0
 40
10.0
 40
10.0
 40
10.0
 40
11.0
 40
11.0
 40
11.0
 40
12.0
 40
12.0
 40
12.0
 40
13.0
 40
13.0
 40
13.0
 40
14.0
 40
14.0
 40
14.0
 40
15.0
 40
15.0
 40
15.0
 40
16.0
 40
16.0
 40
16.0
 40
17.0
 40
17.0
 40
17.0
 40
18.0
 40
18.0
 40
18.0
 40
19.0
 40
19.0
 40
19.0
 40
20.0
 40
20.0
 40
20.0
 40
20.0
 10
353.6245069314327
 20
466.5174205919784
 30
0.0
 10
353.6245069314327
 20
466.5174205919784
 30
0.0
 10
357.3491503198684
 20
457.726074496165
 30
0.0
 10
357.3491503198684
 20
457.726074496165
 30
0.0
 10
357.6215398213726
 20
457.0487063739783
 30
0.0
 10
358.1456273082131
 20
456.5597973570457
 30
0.0
 10
358.8365536394085
 20
456.3488316248358
 30
0.0
 10
358.8365536394085
 20
456.3488316248358
 30
0.0
 10
366.2523516400224
 20
454.8037381259528
 30
0.0
 10
366.2523516400224
 20
454.8037381259528
 30
0.0
 10
366.8960329295842
 20
454.7123557972182
 30
0.0
 10
367.4217471672137
 20
454.9833843953475
 30
0.0
 10
367.7312810789335
 20
455.5593371141304
 30
0.0
 10
367.7312810789335
 20
455.5593371141304
 30
0.0
 10
368.2257489615604
 20
456.5235291479412
 30
0.0
 10
368.2257489615604
 20
456.5235291479412
 30
0.0
 10
368.2257489615604
 20
456.5235291479412
 30
0.0
 10
369.8858160728569
 20
457.1734418968799
 30
0.0
 10
369.8858160728569
 20
457.1734418968799
 30
0.0
 10
369.8858160728569
 20
457.1734418968799
 30
0.0
 10
369.8934086699037
 20
457.1764924939071
 30
0.0
 10
369.8934086699037
 20
457.1764924939071
 30
0.0
 10
370.136710730605
 20
457.2785180167139
 30
0.0
 10
370.3337792985803
 20
457.45884219656
 30
0.0
 10
370.4551930602702
 20
457.693602585583
 30
0.0
 10
370.4551930602702
 20
457.693602585583
 30
0.0
 10
374.1520421202331
 20
464.9064341973017
 30
0.0
 10
374.1520421202331
 20
464.9064341973017
 30
0.0
 10
374.3022670760738
 20
465.2151546164796
 30
0.0
 10
374.3152829567262
 20
465.5556086814922
 30
0.0
 10
374.1889204487452
 20
465.8748292759074
 30
0.0
 10
374.1889204487452
 20
465.8748292759074
 30
0.0
 10
370.4917324335556
 20
474.6581760284053
 30
0.0
 10
370.4917324335556
 20
474.6581760284053
 30
0.0
 10
370.3475408807253
 20
474.9833095554004
 30
0.0
 10
370.07950048577
 20
475.2101985082845
 30
0.0
 10
369.7355233259714
 20
475.2958863892327
 30
0.0
 10
369.7355233259714
 20
475.2958863892327
 30
0.0
 10
362.3124716835373
 20
476.8929833428283
 30
0.0
 10
362.3124716835373
 20
476.8929833428283
 30
0.0
 10
362.3124716835373
 20
476.8929833428283
 30
0.0
 10
362.3061671163514
 20
476.8943391637649
 30
0.0
 10
362.3061671163514
 20
476.8943391637649
 30
0.0
 10
362.1055734140336
 20
476.9347349034288
 30
0.0
 10
361.8986073534797
 20
476.9162957391736
 30
0.0
 10
361.7086620309628
 20
476.840030813486
 30
0.0
 10
361.7086620309628
 20
476.840030813486
 30
0.0
 10
360.3548018844522
 20
476.2913300948157
 30
0.0
 10
360.3548018844522
 20
476.2913300948157
 30
0.0
 10
360.3548018844522
 20
476.2913300948157
 30
0.0
 10
358.8365536394085
 20
476.6174728125716
 30
0.0
 10
358.8365536394085
 20
476.6174728125716
 30
0.0
 10
358.1911828904904
 20
476.7143462159556
 30
0.0
 10
357.6623449480194
 20
476.4462403446341
 30
0.0
 10
357.3491503198684
 20
475.86973758562
 30
0.0
 10
357.3491503198684
 20
475.86973758562
 30
0.0
 10
353.6245069314327
 20
468.6545332873256
 30
0.0
 10
353.6245069314327
 20
468.6545332873256
 30
0.0
 10
353.32419260184
 20
467.9649627770305
 30
0.0
 10
353.3256840048334
 20
467.2128211321487
 30
0.0
 10
353.6245069314327
 20
466.5174205919784
 30
0.0
  0
HATCH
  5
236
330
231
100
AcDbEntity
  8
Layer 3
 62
   250
420
  2301728
100
AcDbHatch
 10
0.0
 20
0.0
 30
0.0
210
0.0
220
0.0
230
1.0
  2
SOLID
 70
     1
 71
     0
 91
        1
 92
        1
 93
        1
 72
     4
 94
        3
 73
     0
 74
     1
 95
       65
 96
       61
 40
0.0
 40
0.0
 40
0.0
 40
0.0
 40
1.0
 40
1.0
 40
1.0
 40
2.0
 40
2.0
 40
2.0
 40
3.0
 40
3.0
 40
3.0
 40
4.0
 40
4.0
 40
4.0
 40
5.0
 40
5.0
 40
5.0
 40
6.0
 40
6.0
 40
6.0
 40
7.0
 40
7.0
 40
7.0
 40
8.0
 40
8.0
 40
8.0
 40
9.0
 40
9.0
 40
9.0
 40
10.0
 40
10.0
 40
10.0
 40
11.0
 40
11.0
 40
11.0
 40
12.0
 40
12.0
 40
12.0
 40
13.0
 40
13.0
 40
13.0
 40
14.0
 40
14.0
 40
14.0
 40
15.0
 40
15.0
 40
15.0
 40
16.0
 40
16.0
 40
16.0
 40
17.0
 40
17.0
 40
17.0
 40
18.0
 40
18.0
 40
18.0
 40
19.0
 40
19.0
 40
19.0
 40
20.0
 40
20.0
 40
20.0
 40
20.0
 10
353.6245069314327
 20
466.5174205919784
 10
353.6245069314327
 20
466.5174205919784
 10
357.3491503198684
 20
457.726074496165
 10
357.3491503198684
 20
457.726074496165
 10
357.6215398213726
 20
457.0487063739783
 10
358.1456273082131
 20
456.5597973570457
 10
358.8365536394085
 20
456.3488316248358
 10
358.8365536394085
 20
456.3488316248358
 10
366.2523516400224
 20
454.8037381259528
 10
366.2523516400224
 20
454.8037381259528
 10
366.8960329295842
 20
454.7123557972182
 10
367.4217471672137
 20
454.9833843953475
 10
367.7312810789335
 20
455.5593371141304
 10
367.7312810789335
 20
455.5593371141304
 10
368.2257489615604
 20
456.5235291479412
 10
368.2257489615604
 20
456.5235291479412
 10
368.2257489615604
 20
456.5235291479412
 10
369.8858160728569
 20
457.1734418968799
 10
369.8858160728569
 20
457.1734418968799
 10
369.8858160728569
 20
457.1734418968799
 10
369.8934086699037
 20
457.1764924939071
 10
369.8934086699037
 20
457.1764924939071
 10
370.136710730605
 20
457.2785180167139
 10
370.3337792985803
 20
457.45884219656
 10
370.4551930602702
 20
457.693602585583
 10
370.4551930602702
 20
457.693602585583
 10
374.1520421202331
 20
464.9064341973017
 10
374.1520421202331
 20
464.9064341973017
 10
374.3022670760738
 20
465.2151546164796
 10
374.3152829567262
 20
465.5556086814922
 10
374.1889204487452
 20
465.8748292759074
 10
374.1889204487452
 20
465.8748292759074
 10
370.4917324335556
 20
474.6581760284053
 10
370.4917324335556
 20
474.6581760284053
 10
370.3475408807253
 20
474.9833095554004
 10
370.07950048577
 20
475.2101985082845
 10
369.7355233259714
 20
475.2958863892327
 10
369.7355233259714
 20
475.2958863892327
 10
362.3124716835373
 20
476.8929833428283
 10
362.3124716835373
 20
476.8929833428283
 10
362.3124716835373
 20
476.8929833428283
 10
362.3061671163514
 20
476.8943391637649
 10
362.3061671163514
 20
476.8943391637649
 10
362.1055734140336
 20
476.9347349034288
 10
361.8986073534797
 20
476.9162957391736
 10
361.7086620309628
 20
476.840030813486
 10
361.7086620309628
 20
476.840030813486
 10
360.3548018844522
 20
476.2913300948157
 10
360.3548018844522
 20
476.2913300948157
 10
360.3548018844522
 20
476.2913300948157
 10
358.8365536394085
 20
476.6174728125716
 10
358.8365536394085
 20
476.6174728125716
 10
358.1911828904904
 20
476.7143462159556
 10
357.6623449480194
 20
476.4462403446341
 10
357.3491503198684
 20
475.86973758562
 10
357.3491503198684
 20
475.86973758562
 10
353.6245069314327
 20
468.6545332873256
 10
353.6245069314327
 20
468.6545332873256
 10
353.32419260184
 20
467.9649627770305
 10
353.3256840048334
 20
467.2128211321487
 10
353.6245069314327
 20
466.5174205919784
 97
        0
 97
        0
 75
     2
 76
     1
 98
        0
  0
SPLINE
  5
237
330
231
100
AcDbEntity
  8
Layer 3
 62
    18
420
        0
370
     5
100
AcDbSpline
210
0.0
220
0.0
230
1.0
 70
     8
 71
     3
 72
     8
 73
     4
 74
     0
 42
0.0000000001
 43
0.0000000001
 12
1.0
 22
0.0
 32
0.0
 13
1.0
 23
0.0
 33
0.0
 40
0.0
 40
0.0
 40
0.0
 40
0.0
 40
1.0
 40
1.0
 40
1.0
 40
1.0
 10
365.0094706199916
 20
466.9491139668871
 30
0.0
 10
365.2569079344412
 20
467.2899673414213
 30
0.0
 10
365.1548824116308
 20
467.9196783589341
 30
0.0
 10
365.0094706199916
 20
468.2751745991991
 30
0.0
  0
SPLINE
  5
238
330
231
100
AcDbEntity
  8
Layer 3
 62
    18
420
        0
370
     5
100
AcDbSpline
210
0.0
220
0.0
230
1.0
 70
     8
 71
     3
 72
    11
 73
     7
 74
     0
 42
0.0000000001
 43
0.0000000001
 12
1.0
 22
0.0
 32
0.0
 13
1.0
 23
0.0
 33
0.0
 40
0.0
 40
0.0
 40
0.0
 40
0.0
 40
1.0
 40
1.0
 40
1.0
 40
2.0
 40
2.0
 40
2.0
 40
2.0
 10
365.3135812481041
 20
466.228698531092
 30
0.0
 10
365.7233103244143
 20
466.238528232625
 30
0.0
 10
366.0931782662346
 20
465.6975556930902
 30
0.0
 10
366.2353360877141
 20
465.3705391238191
 30
0.0
 10
366.2644862370889
 20
465.3043676317729
 30
0.0
 10
366.3029915506786
 20
465.2448470942136
 30
0.0
 10
366.3507842374393
 20
465.1919022880265
 30
0.0
  0
SPLINE
  5
239
330
231
100
AcDbEntity
  8
Layer 3
 62
    18
420
        0
370
     5
100
AcDbSpline
210
0.0
220
0.0
230
1.0
 70
     8
 71
     3
 72
    41
 73
    37
 74
     0
 42
0.0000000001
 43
0.0000000001
 12
1.0
 22
0.0
 32
0.0
 13
1.0
 23
0.0
 33
0.0
 40
0.0
 40
0.0
 40
0.0
 40
0.0
 40
1.0
 40
1.0
 40
1.0
 40
2.0
 40
2.0
 40
2.0
 40
3.0
 40
3.0
 40
3.0
 40
4.0
 40
4.0
 40
4.0
 40
5.0
 40
5.0
 40
5.0
 40
6.0
 40
6.0
 40
6.0
 40
7.0
 40
7.0
 40
7.0
 40
8.0
 40
8.0
 40
8.0
 40
9.0
 40
9.0
 40
9.0
 40
10.0
 40
10.0
 40
10.0
 40
11.0
 40
11.0
 40
11.0
 40
12.0
 40
12.0
 40
12.0
 40
12.0
 10
366.7614623883828
 20
465.0657431531808
 30
0.0
 10
366.8168476721921
 20
465.1092650041064
 30
0.0
 10
366.8440318812582
 20
465.1679720491229
 30
0.0
 10
366.8429472245389
 20
465.241932079276
 30
0.0
 10
366.8515566872584
 20
465.7361287977255
 30
0.0
 10
367.3759935406961
 20
465.846357036984
 30
0.0
 10
367.7638207805594
 20
465.7093513349282
 30
0.0
 10
367.9063853483094
 20
465.6590503794978
 30
0.0
 10
368.0966123678318
 20
465.69287811098
 30
0.0
 10
368.171860429743
 20
465.8393745593421
 30
0.0
 10
368.2487301258343
 20
465.9890571868236
 30
0.0
 10
368.1790409315181
 20
466.1901328792319
 30
0.0
 10
368.0673890803128
 20
466.3003536657143
 30
0.0
 10
367.6960975265492
 20
466.6670354284151
 30
0.0
 10
367.6622020040222
 20
467.2702401473098
 30
0.0
 10
368.0673890803128
 20
467.6251262681699
 30
0.0
 10
368.1979546330895
 20
467.7394897611775
 30
0.0
 10
368.2384258869861
 20
467.9512011948846
 30
0.0
 10
368.171860429743
 20
468.1090187477712
 30
0.0
 10
368.1069790506253
 20
468.2629044200448
 30
0.0
 10
367.9326204827457
 20
468.3744206891597
 30
0.0
 10
367.7638207805594
 20
468.3450671666506
 30
0.0
 10
367.2276614052216
 20
468.2517866886556
 30
0.0
 10
366.8497263290437
 20
468.7012413173679
 30
0.0
 10
366.8429472245389
 20
469.2036407522683
 30
0.0
 10
366.8409812842301
 20
469.3506117379457
 30
0.0
 10
366.7563833732456
 20
469.5455109924769
 30
0.0
 10
366.5942896712759
 20
469.5800166344106
 30
0.0
 10
366.4326758198677
 20
469.6144544852996
 30
0.0
 10
366.289433341668
 20
469.4665344249897
 30
0.0
 10
366.2353360877141
 20
469.333121648322
 30
0.0
 10
366.0996862065585
 20
468.9988440051584
 30
0.0
 10
365.6862286227715
 20
468.5462709883732
 30
0.0
 10
365.3135812481041
 20
468.8664480941661
 30
0.0
 10
365.2690478071754
 20
468.9060380644778
 30
0.0
 10
365.2196906507061
 20
468.921087676481
 30
0.0
 10
365.1654578146608
 20
468.9117325122634
 30
0.0
  0
POLYLINE
  5
23A
330
231
100
AcDbEntity
  8
Layer 3
 62
    18
420
        0
370
     5
100
AcDb2dPolyline
 66
     1
 10
0.0
 20
0.0
 30
0.0
  0
VERTEX
  5
23B
330
23A
100
AcDbEntity
  8
Layer 3
 62
    18
420
        0
370
     5
100
AcDbVertex
100
AcDb2dVertex
 10
368.0673890803128
 20
466.3003536657143
 30
0.0
  0
VERTEX
  5
23C
330
23A
100
AcDbEntity
  8
Layer 3
 62
    18
420
        0
370
     5
100
AcDbVertex
100
AcDb2dVertex
 10
366.9234829860634
 20
465.8457543616551
 30
0.0
  0
SEQEND
  5
23D
330
23A
100
AcDbEntity
  8
Layer 3
 62
    18
420
        0
370
     5
  0
POLYLINE
  5
23E
330
231
100
AcDbEntity
  8
Layer 3
 62
    18
420
        0
370
     5
100
AcDb2dPolyline
 66
     1
 10
0.0
 20
0.0
 30
0.0
  0
VERTEX
  5
23F
330
23E
100
AcDbEntity
  8
Layer 3
 62
    18
420
        0
370
     5
100
AcDbVertex
100
AcDb2dVertex
 10
368.0673890803128
 20
467.6251262681699
 30
0.0
  0
VERTEX
  5
240
330
23E
100
AcDbEntity
  8
Layer 3
 62
    18
420
        0
370
     5
100
AcDbVertex
100
AcDb2dVertex
 10
366.9234829860634
 20
467.1696382364498
 30
0.0
  0
SEQEND
  5
241
330
23E
100
AcDbEntity
  8
Layer 3
 62
    18
420
        0
370
     5
  0
POLYLINE
  5
242
330
231
100
AcDbEntity
  8
Layer 3
 62
    18
420
        0
370
     5
100
AcDb2dPolyline
 66
     1
 10
0.0
 20
0.0
 30
0.0
  0
VERTEX
  5
243
330
242
100
AcDbEntity
  8
Layer 3
 62
    18
420
        0
370
     5
100
AcDbVertex
100
AcDb2dVertex
 10
367.7638207805594
 20
468.3450671666506
 30
0.0
  0
VERTEX
  5
244
330
242
100
AcDbEntity
  8
Layer 3
 62
    18
420
        0
370
     5
100
AcDbVertex
100
AcDb2dVertex
 10
366.6200502683969
 20
467.8890368065704
 30
0.0
  0
SEQEND
  5
245
330
242
100
AcDbEntity
  8
Layer 3
 62
    18
420
        0
370
     5
  0
SPLINE
  5
246
330
231
100
AcDbEntity
  8
Layer 3
 62
    18
420
        0
370
     5
100
AcDbSpline
210
0.0
220
0.0
230
1.0
 70
     8
 71
     3
 72
    20
 73
    16
 74
     0
 42
0.0000000001
 43
0.0000000001
 12
1.0
 22
0.0
 32
0.0
 13
1.0
 23
0.0
 33
0.0
 40
0.0
 40
0.0
 40
0.0
 40
0.0
 40
1.0
 40
1.0
 40
1.0
 40
2.0
 40
2.0
 40
2.0
 40
3.0
 40
3.0
 40
3.0
 40
4.0
 40
4.0
 40
4.0
 40
5.0
 40
5.0
 40
5.0
 40
5.0
 10
365.6994478765573
 20
468.7469324817348
 30
0.0
 10
365.7063625631499
 20
468.2422281513036
 30
0.0
 10
366.0885006841254
 20
467.7965020300699
 30
0.0
 10
366.6200502683969
 20
467.8890368065704
 30
0.0
 10
366.7887143884946
 20
467.9183903290777
 30
0.0
 10
366.9630051653294
 20
467.8069493446301
 30
0.0
 10
367.0278811954477
 20
467.6531917608254
 30
0.0
 10
367.0943842106453
 20
467.4954419989808
 30
0.0
 10
367.0539860685531
 20
467.2839339384109
 30
0.0
 10
366.9234829860634
 20
467.1696382364498
 30
0.0
 10
366.5163299694641
 20
466.812989548418
 30
0.0
 10
366.5538184173802
 20
466.2107339041522
 30
0.0
 10
366.9234829860634
 20
465.8457543616551
 30
0.0
 10
366.9737161504472
 20
465.7961238725993
 30
0.0
 10
367.011001225228
 20
465.7392471857966
 30
0.0
 10
367.035338210404
 20
465.6751846482211
 30
0.0
  0
POLYLINE
  5
247
330
231
100
AcDbEntity
  8
Layer 3
 62
    18
420
        0
370
     5
100
AcDb2dPolyline
 66
     1
 10
0.0
 20
0.0
 30
0.0
  0
VERTEX
  5
248
330
247
100
AcDbEntity
  8
Layer 3
 62
    18
420
        0
370
     5
100
AcDbVertex
100
AcDb2dVertex
 10
367.15668418105
 20
465.7233840812542
 30
0.0
  0
VERTEX
  5
249
330
247
100
AcDbEntity
  8
Layer 3
 62
    18
420
        0
370
     5
100
AcDbVertex
100
AcDb2dVertex
 10
366.2403526250482
 20
465.3593461693117
 30
0.0
  0
SEQEND
  5
24A
330
247
100
AcDbEntity
  8
Layer 3
 62
    18
420
        0
370
     5
  0
POLYLINE
  5
24B
330
231
100
AcDbEntity
  8
Layer 3
 62
    18
420
        0
370
     5
100
AcDb2dPolyline
 66
     1
 10
0.0
 20
0.0
 30
0.0
  0
VERTEX
  5
24C
330
24B
100
AcDbEntity
  8
Layer 3
 62
    18
420
        0
370
     5
100
AcDbVertex
100
AcDb2dVertex
 10
365.7568668917183
 20
468.7863868699569
 30
0.0
  0
VERTEX
  5
24D
330
24B
100
AcDbEntity
  8
Layer 3
 62
    18
420
        0
370
     5
100
AcDbVertex
100
AcDb2dVertex
 10
364.9761904851384
 20
468.4745480627053
 30
0.0
  0
SEQEND
  5
24E
330
24B
100
AcDbEntity
  8
Layer 3
 62
    18
420
        0
370
     5
  0
SPLINE
  5
24F
330
231
100
AcDbEntity
  8
Layer 3
 62
    18
420
        0
370
     5
100
AcDbSpline
210
0.0
220
0.0
230
1.0
 70
     8
 71
     3
 72
     8
 73
     4
 74
     0
 42
0.0000000001
 43
0.0000000001
 12
1.0
 22
0.0
 32
0.0
 13
1.0
 23
0.0
 33
0.0
 40
0.0
 40
0.0
 40
0.0
 40
0.0
 40
1.0
 40
1.0
 40
1.0
 40
1.0
 10
358.8365536394085
 20
476.6174728125716
 30
0.0
 10
358.8157417885786
 20
476.3003463038076
 30
0.0
 10
358.9303086547206
 20
476.0163018250296
 30
0.0
 10
359.1659503273295
 20
475.8153013764422
 30
0.0
  0
SPLINE
  5
250
330
231
100
AcDbEntity
  8
Layer 3
 62
    18
420
        0
370
     5
100
AcDbSpline
210
0.0
220
0.0
230
1.0
 70
     8
 71
     3
 72
     8
 73
     4
 74
     0
 42
0.0000000001
 43
0.0000000001
 12
1.0
 22
0.0
 32
0.0
 13
1.0
 23
0.0
 33
0.0
 40
0.0
 40
0.0
 40
0.0
 40
0.0
 40
1.0
 40
1.0
 40
1.0
 40
1.0
 10
367.3930037641121
 20
456.1975220122731
 30
0.0
 10
367.3764627491173
 20
455.9620837127986
 30
0.0
 10
367.5508944413568
 20
455.7099688162416
 30
0.0
 10
367.7242308102486
 20
455.5659200298878
 30
0.0
  0
SPLINE
  5
251
330
231
100
AcDbEntity
  8
Layer 3
 62
    18
420
        0
370
     5
100
AcDbSpline
210
0.0
220
0.0
230
1.0
 70
     8
 71
     3
 72
    23
 73
    19
 74
     0
 42
0.0000000001
 43
0.0000000001
 12
1.0
 22
0.0
 32
0.0
 13
1.0
 23
0.0
 33
0.0
 40
0.0
 40
0.0
 40
0.0
 40
0.0
 40
1.0
 40
1.0
 40
1.0
 40
2.0
 40
2.0
 40
2.0
 40
3.0
 40
3.0
 40
3.0
 40
4.0
 40
4.0
 40
4.0
 40
5.0
 40
5.0
 40
5.0
 40
6.0
 40
6.0
 40
6.0
 40
6.0
 10
358.8365536394085
 20
456.3488316248358
 30
0.0
 10
358.8217751915872
 20
456.8861434479404
 30
0.0
 10
359.0448755208618
 20
457.361087509591
 30
0.0
 10
359.4703999106696
 20
457.6655370929311
 30
0.0
 10
359.4703999106696
 20
457.6655370929311
 30
0.0
 10
362.0921507871117
 20
458.699147156879
 30
0.0
 10
362.0921507871117
 20
458.699147156879
 30
0.0
 10
362.5190987888673
 20
459.0042819219161
 30
0.0
 10
362.7430804017267
 20
459.4804389511328
 30
0.0
 10
362.728505327038
 20
460.0193777593158
 30
0.0
 10
362.2768813848843
 20
459.7912608927072
 30
0.0
 10
361.8161056516483
 20
459.5810408619936
 30
0.0
 10
361.3479406945025
 20
459.3895311597144
 30
0.0
 10
361.3479406945025
 20
459.3895311597144
 30
0.0
 10
358.7267321464205
 20
458.3545652748671
 30
0.0
 10
358.7267321464205
 20
458.3545652748671
 30
0.0
 10
358.2595162639054
 20
458.1633945278127
 30
0.0
 10
357.7997573963448
 20
457.9536490344144
 30
0.0
 10
357.3491503198684
 20
457.726074496165
 30
0.0
  0
SPLINE
  5
252
330
231
100
AcDbEntity
  8
Layer 3
 62
    18
420
        0
370
     5
100
AcDbSpline
210
0.0
220
0.0
230
1.0
 70
     8
 71
     3
 72
    17
 73
    13
 74
     0
 42
0.0000000001
 43
0.0000000001
 12
1.0
 22
0.0
 32
0.0
 13
1.0
 23
0.0
 33
0.0
 40
0.0
 40
0.0
 40
0.0
 40
0.0
 40
1.0
 40
1.0
 40
1.0
 40
2.0
 40
2.0
 40
2.0
 40
3.0
 40
3.0
 40
3.0
 40
4.0
 40
4.0
 40
4.0
 40
4.0
 10
366.2523516400224
 20
454.8037381259528
 30
0.0
 10
366.2379121474232
 20
455.3404398296489
 30
0.0
 10
366.4614923198069
 20
455.8140352610544
 30
0.0
 10
366.8875537321837
 20
456.1167150865695
 30
0.0
 10
366.8875537321837
 20
456.1167150865695
 30
0.0
 10
369.5147278922286
 20
457.1454514195611
 30
0.0
 10
369.5147278922286
 20
457.1454514195611
 30
0.0
 10
369.9422860133873
 20
457.4488091218909
 30
0.0
 10
370.1666743725191
 20
457.9236926364474
 30
0.0
 10
370.152438253057
 20
458.4618784991872
 30
0.0
 10
370.3970961346577
 20
458.2667758715215
 30
0.0
 10
370.5087479858621
 20
457.9973742584734
 30
0.0
 10
370.458311448343
 20
457.6998393617287
 30
0.0
  0
SPLINE
  5
253
330
231
100
AcDbEntity
  8
Layer 3
 62
    18
420
        0
370
     5
100
AcDbSpline
210
0.0
220
0.0
230
1.0
 70
     8
 71
     3
 72
    23
 73
    19
 74
     0
 42
0.0000000001
 43
0.0000000001
 12
1.0
 22
0.0
 32
0.0
 13
1.0
 23
0.0
 33
0.0
 40
0.0
 40
0.0
 40
0.0
 40
0.0
 40
1.0
 40
1.0
 40
1.0
 40
2.0
 40
2.0
 40
2.0
 40
3.0
 40
3.0
 40
3.0
 40
4.0
 40
4.0
 40
4.0
 40
5.0
 40
5.0
 40
5.0
 40
6.0
 40
6.0
 40
6.0
 40
6.0
 10
353.6245069314327
 20
468.6545332873256
 30
0.0
 10
354.0037978285127
 20
468.2904275843366
 30
0.0
 10
354.495893024563
 20
468.1302373448734
 30
0.0
 10
355.0031734147078
 20
468.2166709273188
 30
0.0
 10
355.0031734147078
 20
468.2166709273188
 30
0.0
 10
357.6216025299409
 20
469.268524312929
 30
0.0
 10
357.6216025299409
 20
469.268524312929
 30
0.0
 10
358.1300353678498
 20
469.3554249021454
 30
0.0
 10
358.6231474295764
 20
469.1950312895451
 30
0.0
 10
359.0032518191983
 20
468.8299765119264
 30
0.0
 10
358.5505432203254
 20
468.6027409289054
 30
0.0
 10
358.0894963229084
 20
468.3919107787824
 30
0.0
 10
357.6216025299409
 20
468.1981036844763
 30
0.0
 10
357.6216025299409
 20
468.1981036844763
 30
0.0
 10
355.0031734147078
 20
467.1479451020323
 30
0.0
 10
355.0031734147078
 20
467.1479451020323
 30
0.0
 10
354.5362286963718
 20
466.9546050415356
 30
0.0
 10
354.0761986646312
 20
466.7441816376868
 30
0.0
 10
353.6245069314327
 20
466.5174205919784
 30
0.0
  0
SPLINE
  5
254
330
231
100
AcDbEntity
  8
Layer 3
 62
    18
420
        0
370
     5
100
AcDbSpline
210
0.0
220
0.0
230
1.0
 70
     8
 71
     3
 72
    11
 73
     7
 74
     0
 42
0.0000000001
 43
0.0000000001
 12
1.0
 22
0.0
 32
0.0
 13
1.0
 23
0.0
 33
0.0
 40
0.0
 40
0.0
 40
0.0
 40
0.0
 40
1.0
 40
1.0
 40
1.0
 40
2.0
 40
2.0
 40
2.0
 40
2.0
 10
374.1520421202331
 20
464.9064341973017
 30
0.0
 10
374.2815230162869
 20
465.1661416909064
 30
0.0
 10
374.051779164598
 20
465.5164180207021
 30
0.0
 10
373.851185462282
 20
465.6770150064376
 30
0.0
 10
373.9670403582786
 20
465.735993215636
 30
0.0
 10
374.0804547766547
 20
465.7959204994631
 30
0.0
 10
374.1870900905269
 20
465.8694812280246
 30
0.0
  0
SPLINE
  5
255
330
231
100
AcDbEntity
  8
Layer 3
 62
    18
420
        0
370
     5
100
AcDbSpline
210
0.0
220
0.0
230
1.0
 70
     8
 71
     3
 72
    14
 73
    10
 74
     0
 42
0.0000000001
 43
0.0000000001
 12
1.0
 22
0.0
 32
0.0
 13
1.0
 23
0.0
 33
0.0
 40
0.0
 40
0.0
 40
0.0
 40
0.0
 40
1.0
 40
1.0
 40
1.0
 40
2.0
 40
2.0
 40
2.0
 40
3.0
 40
3.0
 40
3.0
 40
3.0
 10
370.4917324335556
 20
474.6581760284053
 30
0.0
 10
370.4437363736542
 20
474.5777080579246
 30
0.0
 10
370.2418546414847
 20
474.5039514009068
 30
0.0
 10
370.1592173575627
 20
474.466395161945
 30
0.0
 10
370.1592173575627
 20
474.466395161945
 30
0.0
 10
370.152438253057
 20
474.4629378186464
 30
0.0
 10
370.152438253057
 20
474.4629378186464
 30
0.0
 10
370.17955467108
 20
474.819857670861
 30
0.0
 10
370.0380747600502
 20
475.1174603586496
 30
0.0
 10
369.743183714063
 20
475.2941916131076
 30
0.0
  0
SPLINE
  5
256
330
231
100
AcDbEntity
  8
Layer 3
 62
    18
420
        0
370
     5
100
AcDbSpline
210
0.0
220
0.0
230
1.0
 70
     8
 71
     3
 72
    17
 73
    13
 74
     0
 42
0.0000000001
 43
0.0000000001
 12
1.0
 22
0.0
 32
0.0
 13
1.0
 23
0.0
 33
0.0
 40
0.0
 40
0.0
 40
0.0
 40
0.0
 40
1.0
 40
1.0
 40
1.0
 40
2.0
 40
2.0
 40
2.0
 40
3.0
 40
3.0
 40
3.0
 40
4.0
 40
4.0
 40
4.0
 40
4.0
 10
357.3491503198684
 20
475.86973758562
 30
0.0
 10
357.7279717647998
 20
475.5050895542727
 30
0.0
 10
358.2197229204567
 20
475.3454416431678
 30
0.0
 10
358.7267321464205
 20
475.4334421059311
 30
0.0
 10
358.7267321464205
 20
475.4334421059311
 30
0.0
 10
361.3479406945025
 20
476.495448931475
 30
0.0
 10
361.3479406945025
 20
476.495448931475
 30
0.0
 10
361.8561023682314
 20
476.5840518273608
 30
0.0
 10
362.3488754747332
 20
476.4240649610319
 30
0.0
 10
362.728505327038
 20
476.0584755571253
 30
0.0
 10
362.7504696256365
 20
476.3441393189123
 30
0.0
 10
362.6355638042696
 20
476.819557917881
 30
0.0
 10
362.3124716835373
 20
476.8929833428283
 30
0.0
  0
POLYLINE
  5
257
330
231
100
AcDbEntity
  8
Layer 3
 62
    18
420
        0
370
     5
100
AcDb2dPolyline
 66
     1
 10
0.0
 20
0.0
 30
0.0
  0
VERTEX
  5
258
330
257
100
AcDbEntity
  8
Layer 3
 62
    18
420
        0
370
     5
100
AcDbVertex
100
AcDb2dVertex
 10
370.152438253057
 20
474.4629378186464
 30
0.0
  0
VERTEX
  5
259
330
257
100
AcDbEntity
  8
Layer 3
 62
    18
420
        0
370
     5
100
AcDbVertex
100
AcDb2dVertex
 10
362.728505327038
 20
476.0584755571253
 30
0.0
  0
VERTEX
  5
25A
330
257
100
AcDbEntity
  8
Layer 3
 62
    18
420
        0
370
     5
100
AcDbVertex
100
AcDb2dVertex
 10
359.0032518191983
 20
468.8299765119264
 30
0.0
  0
VERTEX
  5
25B
330
257
100
AcDbEntity
  8
Layer 3
 62
    18
420
        0
370
     5
100
AcDbVertex
100
AcDb2dVertex
 10
362.728505327038
 20
460.0193777593158
 30
0.0
  0
VERTEX
  5
25C
330
257
100
AcDbEntity
  8
Layer 3
 62
    18
420
        0
370
     5
100
AcDbVertex
100
AcDb2dVertex
 10
370.152438253057
 20
458.4618784991872
 30
0.0
  0
VERTEX
  5
25D
330
257
100
AcDbEntity
  8
Layer 3
 62
    18
420
        0
370
     5
100
AcDbVertex
100
AcDb2dVertex
 10
373.851185462282
 20
465.6770150064376
 30
0.0
  0
VERTEX
  5
25E
330
257
100
AcDbEntity
  8
Layer 3
 62
    18
420
        0
370
     5
100
AcDbVertex
100
AcDb2dVertex
 10
370.152438253057
 20
474.4629378186464
 30
0.0
  0
SEQEND
  5
25F
330
257
100
AcDbEntity
  8
Layer 3
 62
    18
420
        0
370
     5
  0
SPLINE
  5
260
330
231
100
AcDbEntity
  8
Layer 3
 62
    18
420
        0
370
     5
100
AcDbSpline
210
0.0
220
0.0
230
1.0
 70
     8
 71
     3
 72
    29
 73
    25
 74
     0
 42
0.0000000001
 43
0.0000000001
 12
1.0
 22
0.0
 32
0.0
 13
1.0
 23
0.0
 33
0.0
 40
0.0
 40
0.0
 40
0.0
 40
0.0
 40
1.0
 40
1.0
 40
1.0
 40
2.0
 40
2.0
 40
2.0
 40
3.0
 40
3.0
 40
3.0
 40
4.0
 40
4.0
 40
4.0
 40
5.0
 40
5.0
 40
5.0
 40
6.0
 40
6.0
 40
6.0
 40
7.0
 40
7.0
 40
7.0
 40
8.0
 40
8.0
 40
8.0
 40
8.0
 10
361.7039166576906
 20
476.8380725949473
 30
0.0
 10
361.5471785759164
 20
476.7673588131884
 30
0.0
 10
361.4271206351268
 20
476.6478432007571
 30
0.0
 10
361.3479406945025
 20
476.495448931475
 30
0.0
 10
361.3479406945025
 20
476.495448931475
 30
0.0
 10
357.6216025299409
 20
469.268524312929
 30
0.0
 10
357.6216025299409
 20
469.268524312929
 30
0.0
 10
357.4713097830554
 20
468.9231214078318
 30
0.0
 10
357.4720554845508
 20
468.5464065704637
 30
0.0
 10
357.6216025299409
 20
468.1981036844763
 30
0.0
 10
357.6216025299409
 20
468.1981036844763
 30
0.0
 10
361.3479406945025
 20
459.3895311597144
 30
0.0
 10
361.3479406945025
 20
459.3895311597144
 30
0.0
 10
361.4837261577477
 20
459.0513216359368
 30
0.0
 10
361.7470943677827
 20
458.8049011871626
 30
0.0
 10
362.0921507871117
 20
458.699147156879
 30
0.0
 10
362.0921507871117
 20
458.699147156879
 30
0.0
 10
369.5147278922286
 20
457.1454514195611
 30
0.0
 10
369.5147278922286
 20
457.1454514195611
 30
0.0
 10
369.5147278922286
 20
457.1454514195611
 30
0.0
 10
369.5227950265908
 20
457.1438172101907
 30
0.0
 10
369.5227950265908
 20
457.1438172101907
 30
0.0
 10
369.6442087882824
 20
457.1194124339709
 30
0.0
 10
369.7701645499965
 20
457.1290387623694
 30
0.0
 10
369.8858160728569
 20
457.1734418968799
 30
0.0
  0
SPLINE
  5
261
330
231
100
AcDbEntity
  8
Layer 3
 62
    18
420
        0
370
     5
100
AcDbSpline
210
0.0
220
0.0
230
1.0
 70
     8
 71
     3
 72
    38
 73
    34
 74
     0
 42
0.0000000001
 43
0.0000000001
 12
1.0
 22
0.0
 32
0.0
 13
1.0
 23
0.0
 33
0.0
 40
0.0
 40
0.0
 40
0.0
 40
0.0
 40
1.0
 40
1.0
 40
1.0
 40
2.0
 40
2.0
 40
2.0
 40
3.0
 40
3.0
 40
3.0
 40
4.0
 40
4.0
 40
4.0
 40
5.0
 40
5.0
 40
5.0
 40
6.0
 40
6.0
 40
6.0
 40
7.0
 40
7.0
 40
7.0
 40
8.0
 40
8.0
 40
8.0
 40
9.0
 40
9.0
 40
9.0
 40
10.0
 40
10.0
 40
10.0
 40
11.0
 40
11.0
 40
11.0
 40
11.0
 10
360.3979169891072
 20
476.3088201844403
 30
0.0
 10
360.3979169891072
 20
476.3088201844403
 30
0.0
 10
359.0872449240214
 20
475.7776095553909
 30
0.0
 10
359.0872449240214
 20
475.7776095553909
 30
0.0
 10
358.9313255203961
 20
475.713682599905
 30
0.0
 10
358.8055053407752
 20
475.5879302113281
 30
0.0
 10
358.7293759971799
 20
475.4385187480284
 30
0.0
 10
358.7293759971799
 20
475.4385187480284
 30
0.0
 10
358.7267321464205
 20
475.4334421059311
 30
0.0
 10
358.7267321464205
 20
475.4334421059311
 30
0.0
 10
358.7267321464205
 20
475.4334421059311
 30
0.0
 10
355.0031734147078
 20
468.2166709273188
 30
0.0
 10
355.0031734147078
 20
468.2166709273188
 30
0.0
 10
354.8530840409567
 20
467.871817881125
 30
0.0
 10
354.8538297424539
 20
467.4957131631618
 30
0.0
 10
355.0031734147078
 20
467.1479451020323
 30
0.0
 10
355.0031734147078
 20
467.1479451020323
 30
0.0
 10
358.7267321464205
 20
458.3545652748671
 30
0.0
 10
358.7267321464205
 20
458.3545652748671
 30
0.0
 10
358.8625176096648
 20
458.0169658704945
 30
0.0
 10
359.1258858197034
 20
457.7708165859003
 30
0.0
 10
359.4703999106696
 20
457.6655370929311
 30
0.0
 10
359.4703999106696
 20
457.6655370929311
 30
0.0
 10
366.8875537321837
 20
456.1167150865695
 30
0.0
 10
366.8875537321837
 20
456.1167150865695
 30
0.0
 10
367.0098487774612
 20
456.0919035640791
 30
0.0
 10
367.1336352257322
 20
456.0992927879906
 30
0.0
 10
367.2510493157642
 20
456.1420011463733
 30
0.0
 10
367.2510493157642
 20
456.1420011463733
 30
0.0
 10
367.2583029575862
 20
456.1447805792222
 30
0.0
 10
367.2583029575862
 20
456.1447805792222
 30
0.0
 10
367.2583029575862
 20
456.1447805792222
 30
0.0
 10
368.2257489615604
 20
456.5235291479412
 30
0.0
 10
368.2257489615604
 20
456.5235291479412
 30
0.0
  0
SPLINE
  5
262
330
231
100
AcDbEntity
  8
Layer 3
 62
    18
420
        0
370
     9
100
AcDbSpline
210
0.0
220
0.0
230
1.0
 70
    11
 71
     3
 72
    17
 73
    13
 74
     0
 42
0.0000000001
 43
0.0000000001
 12
1.0
 22
0.0
 32
0.0
 13
1.0
 23
0.0
 33
0.0
 40
0.0
 40
0.0
 40
0.0
 40
0.0
 40
1.0
 40
1.0
 40
1.0
 40
2.0
 40
2.0
 40
2.0
 40
3.0
 40
3.0
 40
3.0
 40
4.0
 40
4.0
 40
4.0
 40
4.0
 10
371.679567125002
 20
469.1993021253838
 30
0.0
 10
373.0248126230636
 20
465.5541776327982
 30
0.0
 10
371.8701955436954
 20
461.7705560351678
 30
0.0
 10
369.1006601890349
 20
460.7484026578331
 30
0.0
 10
366.3310570433314
 20
459.7262565699857
 30
0.0
 10
362.9952630893295
 20
461.8525831996831
 30
0.0
 10
361.6499498002204
 20
465.4977076922678
 30
0.0
 10
360.3047094524172
 20
469.1428321848525
 30
0.0
 10
361.4593213815269
 20
472.9264537824856
 30
0.0
 10
364.2288567361884
 20
473.9486071598203
 30
0.0
 10
366.9984598818937
 20
474.9707605371514
 30
0.0
 10
370.3342538358938
 20
472.8444266179704
 30
0.0
 10
371.679567125002
 20
469.1993021253838
 30
0.0
  0
SPLINE
  5
263
330
231
100
AcDbEntity
  8
Layer 3
 62
    18
420
        0
370
     5
100
AcDbSpline
210
0.0
220
0.0
230
1.0
 70
    11
 71
     3
 72
    17
 73
    13
 74
     0
 42
0.0000000001
 43
0.0000000001
 12
1.0
 22
0.0
 32
0.0
 13
1.0
 23
0.0
 33
0.0
 40
0.0
 40
0.0
 40
0.0
 40
0.0
 40
1.0
 40
1.0
 40
1.0
 40
2.0
 40
2.0
 40
2.0
 40
3.0
 40
3.0
 40
3.0
 40
4.0
 40
4.0
 40
4.0
 40
4.0
 10
368.2883878871908
 20
467.9477438515869
 30
0.0
 10
368.740418575615
 20
466.722970506823
 30
0.0
 10
368.3797702159254
 20
465.4617106473443
 30
0.0
 10
367.4827591077628
 20
465.1306869743421
 30
0.0
 10
366.585815790645
 20
464.7995955102961
 30
0.0
 10
365.4922106518252
 20
465.5241461998403
 30
0.0
 10
365.0401799633992
 20
466.7489270108408
 30
0.0
 10
364.5881492749759
 20
467.9737153196766
 30
0.0
 10
364.9488654257102
 20
469.2349602150825
 30
0.0
 10
365.8458087428307
 20
469.5660516791286
 30
0.0
 10
366.7428251638912
 20
469.8970753521317
 30
0.0
 10
367.8363571987693
 20
469.1725246625874
 30
0.0
 10
368.2883878871908
 20
467.9477438515869
 30
0.0
  0
MTEXT
  5
264
330
231
100
AcDbEntity
  8
Layer 3
 62
    18
420
        0
100
AcDbMText
 10
365.1897516839672
 20
470.9647029260377
 30
0.0
 40
1.216135683778539
 41
0.0
 46
0.0
 71
     7
 72
     1
  1
\fHelvetica Neue LT Std 57 Condensed|b0|i0|c0|p34;\W0.832371;WS22
 11
0.9751990169949105
 21
-0.2213297929610024
 31
0.0
 73
     1
 44
1.0
  0
MTEXT
  5
265
330
231
100
AcDbEntity
  8
Layer 3
 62
    18
420
        0
100
AcDbMText
 10
365.8582969538402
 20
462.817853647357
 30
0.0
 40
1.402237174409275
 41
0.0
 46
0.0
 71
     7
 72
     1
  1
\fHelvetica Neue LT Std 57 Condensed|b0|i0|c0|p34;\W0.832371;3.5
 11
0.9751990169949105
 21
-0.2213297929610024
 31
0.0
 73
     1
 44
1.0
  0
INSERT
  5
267
330
231
100
AcDbEntity
  8
Layer 3
100
AcDbBlockReference
  2
block 34
 10
0.0
 20
0.0
 30
0.0
  0
ENDBLK
  5
234
330
231
100
AcDbEntity
  8
0
100
AcDbBlockEnd
  0
BLOCK
  5
268
330
266
100
AcDbEntity
  8
0
100
AcDbBlockBegin
  2
block 34
 70
     0
 10
0.0
 20
0.0
 30
0.0
  3
block 34
  1

  0
INSERT
  5
26B
330
266
100
AcDbEntity
  8
Layer 3
100
AcDbBlockReference
  2
block 35
 10
0.0
 20
0.0
 30
0.0
  0
INSERT
  5
27D
330
266
100
AcDbEntity
  8
Layer 3
100
AcDbBlockReference
  2
block 36
 10
0.0
 20
0.0
 30
0.0
  0
ENDBLK
  5
269
330
266
100
AcDbEntity
  8
0
100
AcDbBlockEnd
  0
BLOCK
  5
26C
330
26A
100
AcDbEntity
  8
0
100
AcDbBlockBegin
  2
block 35
 70
     0
 10
0.0
 20
0.0
 30
0.0
  3
block 35
  1

  0
POLYLINE
  5
26E
330
26A
100
AcDbEntity
  8
Layer 3
370
     0
100
AcDb2dPolyline
 66
     1
 10
0.0
 20
0.0
 30
0.0
  0
VERTEX
  5
26F
330
26E
100
AcDbEntity
  8
Layer 3
370
     0
100
AcDbVertex
100
AcDb2dVertex
 10
371.1812351528051
 20
466.4894906814161
 30
0.0
  0
VERTEX
  5
270
330
26E
100
AcDbEntity
  8
Layer 3
370
     0
100
AcDbVertex
100
AcDb2dVertex
 10
369.3790780110758
 20
466.9290552889943
 30
0.0
  0
VERTEX
  5
271
330
26E
100
AcDbEntity
  8
Layer 3
370
     0
100
AcDbVertex
100
AcDb2dVertex
 10
369.3790780110758
 20
467.199330714182
 30
0.0
  0
VERTEX
  5
272
330
26E
100
AcDbEntity
  8
Layer 3
370
     0
100
AcDbVertex
100
AcDb2dVertex
 10
371.1812351528051
 20
466.75977357805
 30
0.0
  0
VERTEX
  5
273
330
26E
100
AcDbEntity
  8
Layer 3
370
     0
100
AcDbVertex
100
AcDb2dVertex
 10
371.1812351528051
 20
466.4894906814161
 30
0.0
  0
SEQEND
  5
274
330
26E
100
AcDbEntity
  8
Layer 3
370
     0
  0
POLYLINE
  5
275
330
26A
100
AcDbEntity
  8
Layer 3
370
     0
100
AcDb2dPolyline
 66
     1
 10
0.0
 20
0.0
 30
0.0
  0
VERTEX
  5
276
330
275
100
AcDbEntity
  8
Layer 3
370
     0
100
AcDbVertex
100
AcDb2dVertex
 10
371.1812351528051
 20
465.9368580821319
 30
0.0
  0
VERTEX
  5
277
330
275
100
AcDbEntity
  8
Layer 3
370
     0
100
AcDbVertex
100
AcDb2dVertex
 10
369.3790780110758
 20
466.3764152182666
 30
0.0
  0
VERTEX
  5
278
330
275
100
AcDbEntity
  8
Layer 3
370
     0
100
AcDbVertex
100
AcDb2dVertex
 10
369.3790780110758
 20
466.6466981148978
 30
0.0
  0
VERTEX
  5
279
330
275
100
AcDbEntity
  8
Layer 3
370
     0
100
AcDbVertex
100
AcDb2dVertex
 10
371.1812351528051
 20
466.2071409787641
 30
0.0
  0
VERTEX
  5
27A
330
275
100
AcDbEntity
  8
Layer 3
370
     0
100
AcDbVertex
100
AcDb2dVertex
 10
371.1812351528051
 20
465.9368580821319
 30
0.0
  0
SEQEND
  5
27B
330
275
100
AcDbEntity
  8
Layer 3
370
     0
  0
ENDBLK
  5
26D
330
26A
100
AcDbEntity
  8
0
100
AcDbBlockEnd
  0
BLOCK
  5
27E
330
27C
100
AcDbEntity
  8
0
100
AcDbBlockBegin
  2
block 36
 70
     0
 10
0.0
 20
0.0
 30
0.0
  3
block 36
  1

  0
POLYLINE
  5
280
330
27C
100
AcDbEntity
  8
Layer 3
370
     0
100
AcDb2dPolyline
 66
     1
 10
0.0
 20
0.0
 30
0.0
  0
VERTEX
  5
281
330
280
100
AcDbEntity
  8
Layer 3
370
     0
100
AcDbVertex
100
AcDb2dVertex
 10
369.7395907886748
 20
465.6701003198423
 30
0.0
  0
VERTEX
  5
282
330
280
100
AcDbEntity
  8
Layer 3
370
     0
100
AcDbVertex
100
AcDb2dVertex
 10
369.6585180853463
 20
465.7614826485751
 30
0.0
  0
VERTEX
  5
283
330
280
100
AcDbEntity
  8
Layer 3
370
     0
100
AcDbVertex
100
AcDb2dVertex
 10
370.8989532411979
 20
467.4469788862953
 30
0.0
  0
VERTEX
  5
284
330
280
100
AcDbEntity
  8
Layer 3
370
     0
100
AcDbVertex
100
AcDb2dVertex
 10
370.9800313310852
 20
467.355589073034
 30
0.0
  0
VERTEX
  5
285
330
280
100
AcDbEntity
  8
Layer 3
370
     0
100
AcDbVertex
100
AcDb2dVertex
 10
369.7395907886748
 20
465.6701003198423
 30
0.0
  0
SEQEND
  5
286
330
280
100
AcDbEntity
  8
Layer 3
370
     0
  0
ENDBLK
  5
27F
330
27C
100
AcDbEntity
  8
0
100
AcDbBlockEnd
  0
ENDSEC
  0
SECTION
  2
ENTITIES
  0
INSERT
  5
42
330
1F
100
AcDbEntity
  8
Layer 2
100
AcDbBlockReference
  2
block 2
 10
0.0
 20
0.0
 30
0.0
  0
INSERT
  5
CA
330
1F
100
AcDbEntity
  8
Layer 2
100
AcDbBlockReference
  2
block 10
 10
0.0
 20
0.0
 30
0.0
  0
INSERT
  5
136
330
1F
100
AcDbEntity
  8
Layer 3
100
AcDbBlockReference
  2
block 17
 10
0.0
 20
0.0
 30
0.0
  0
INSERT
  5
161
330
1F
100
AcDbEntity
  8
Layer 3
100
AcDbBlockReference
  2
block 18
 10
0.0
 20
0.0
 30
0.0
  0
MTEXT
  5
28E
330
1F
100
AcDbEntity
  8
Layer 4
 62
   250
420
  2236191
100
AcDbMText
 10
358.7371025085449
 20
226.3475350141525
 30
0.0
 40
8.495999999999999
 41
0.0
 46
0.0
 71
     7
 72
     1
  1
\fHelvetica Neue LT Std 55 Roman|b0|i0|c0|p34;\W1;SIMPSON Strong-Tie\H4.248;®\H8.496; ^C
 73
     1
 44
1.0
  0
MTEXT
  5
28F
330
1F
100
AcDbEntity
  8
Layer 4
 62
   250
420
  2236191
100
AcDbMText
 10
333.6872978210449
 20
211.9481209516525
 30
0.0
 40
8.495999999999999
 41
0.0
 46
0.0
 71
     7
 72
     1
  1
\fHelvetica Neue LT Std 55 Roman|b0|i0|c0|p34;\W1;APT4 Post-to-Beam Installation 
 73
     1
 44
1.0
  0
POLYLINE
  5
290
330
1F
100
AcDbEntity
  8
Layer 4
 62
   250
420
  2236191
370
    18
100
AcDb2dPolyline
 66
     1
 10
0.0
 20
0.0
 30
0.0
  0
VERTEX
  5
291
330
290
100
AcDbEntity
  8
Layer 4
 62
   250
420
  2236191
370
    18
100
AcDbVertex
100
AcDb2dVertex
 10
481.2095598007636
 20
368.0822906660906
 30
0.0
  0
VERTEX
  5
292
330
290
100
AcDbEntity
  8
Layer 4
 62
   250
420
  2236191
370
    18
100
AcDbVertex
100
AcDb2dVertex
 10
471.32518873138
 20
414.3374083122062
 30
0.0
  0
SEQEND
  5
293
330
290
100
AcDbEntity
  8
Layer 4
 62
   250
420
  2236191
370
    18
  0
POLYLINE
  5
294
330
1F
100
AcDbEntity
  8
Layer 4
 62
   250
420
  2236191
370
    18
100
AcDb2dPolyline
 66
     1
 10
0.0
 20
0.0
 30
0.0
  0
VERTEX
  5
295
330
294
100
AcDbEntity
  8
Layer 4
 62
   250
420
  2236191
370
    18
100
AcDbVertex
100
AcDb2dVertex
 10
322.0322580645161
 20
382.5610680389391
 30
0.0
  0
VERTEX
  5
296
330
294
100
AcDbEntity
  8
Layer 4
 62
   250
420
  2236191
370
    18
100
AcDbVertex
100
AcDb2dVertex
 10
343.2948495082237
 20
402.5391911836541
 30
0.0
  0
SEQEND
  5
297
330
294
100
AcDbEntity
  8
Layer 4
 62
   250
420
  2236191
370
    18
  0
MTEXT
  5
298
330
1F
100
AcDbEntity
  8
Layer 4
 62
   250
420
  2236191
100
AcDbMText
 10
477.2914276123047
 20
354.3443031311035
 30
0.0
 40
8.495999999999999
 41
0.0
 46
0.0
 71
     7
 72
     1
  1
\fHelvetica Neue LT Std 57 Condensed|b0|i0|c0|p34;\W1;APT4
 73
     1
 44
1.0
  0
MTEXT
  5
299
330
1F
100
AcDbEntity
  8
Layer 4
 62
   250
420
  2236191
100
AcDbMText
 10
303.8627967834473
 20
368.0823593139648
 30
0.0
 40
8.495999999999999
 41
0.0
 46
0.0
 71
     7
 72
     1
  1
\fHelvetica Neue LT Std 57 Condensed|b0|i0|c0|p34;\W1;Beam
 73
     1
 44
1.0
  0
MTEXT
  5
29A
330
1F
100
AcDbEntity
  8
Layer 4
 62
   250
420
  2236191
100
AcDbMText
 10
488.5886688232422
 20
304.7959127426147
 30
0.0
 40
8.495999999999999
 41
0.0
 46
0.0
 71
     7
 72
     1
  1
\fHelvetica Neue LT Std 57 Condensed|b0|i0|c0|p34;\W1;Post
 73
     1
 44
1.0
  0
POLYLINE
  5
29B
330
1F
100
AcDbEntity
  8
Layer 4
 62
   250
420
  2236191
370
    18
100
AcDb2dPolyline
 66
     1
 10
0.0
 20
0.0
 30
0.0
  0
VERTEX
  5
29C
330
29B
100
AcDbEntity
  8
Layer 4
 62
   250
420
  2236191
370
    18
100
AcDbVertex
100
AcDb2dVertex
 10
483.6840323820998
 20
312.3548387096771
 30
0.0
  0
VERTEX
  5
29D
330
29B
100
AcDbEntity
  8
Layer 4
 62
   250
420
  2236191
370
    18
100
AcDbVertex
100
AcDb2dVertex
 10
449.9294867255012
 20
319.5209114428444
 30
0.0
  0
SEQEND
  5
29E
330
29B
100
AcDbEntity
  8
Layer 4
 62
   250
420
  2236191
370
    18
  0
ENDSEC
  0
SECTION
  2
OBJECTS
  0
DICTIONARY
  5
C
330
0
100
AcDbDictionary
281
     1
  3
ACAD_GROUP
350
D
  3
ACAD_LAYOUT
350
1A
  3
ACAD_MATERIAL
350
3B
  3
ACAD_MLEADERSTYLE
350
2A0
  3
ACAD_MLINESTYLE
350
17
  3
ACAD_PLOTSETTINGS
350
19
  3
ACAD_PLOTSTYLENAME
350
E
  3
ACAD_TABLESTYLE
350
29F
  3
ACAD_VISUALSTYLE
350
2A
  0
SUN
  5
3F
330
29
100
AcDbSun
 90
        1
290
     0
 63
     7
421
 16777215
 40
1.0
291
     1
 91
  2455826
 92
 54000000
292
     0
 70
     2
 71
   256
280
     1
  0
DICTIONARY
  5
D
102
{ACAD_REACTORS
330
C
102
}
330
C
100
AcDbDictionary
281
     1
  0
DICTIONARY
  5
1A
102
{ACAD_REACTORS
330
C
102
}
330
C
100
AcDbDictionary
281
     1
  3
Layout1
350
1E
  3
Layout2
350
26
  3
Model
350
22
  0
DICTIONARY
  5
3B
102
{ACAD_REACTORS
330
C
102
}
330
C
100
AcDbDictionary
281
     1
  3
ByBlock
350
3D
  3
ByLayer
350
3C
  3
Global
350
3E
  0
DICTIONARY
  5
2A0
102
{ACAD_REACTORS
330
C
102
}
330
C
100
AcDbDictionary
281
     1
  0
DICTIONARY
  5
17
102
{ACAD_REACTORS
330
C
102
}
330
C
100
AcDbDictionary
281
     1
  3
Standard
350
18
  0
DICTIONARY
  5
19
102
{ACAD_REACTORS
330
C
102
}
330
C
100
AcDbDictionary
281
     1
  0
ACDBDICTIONARYWDFLT
  5
E
102
{ACAD_REACTORS
330
C
102
}
330
C
100
AcDbDictionary
281
     1
  3
Normal
350
F
100
AcDbDictionaryWithDefault
340
F
  0
DICTIONARY
  5
29F
102
{ACAD_REACTORS
330
C
102
}
330
C
100
AcDbDictionary
281
     1
  0
DICTIONARY
  5
2A
102
{ACAD_REACTORS
330
C
102
}
330
C
100
AcDbDictionary
281
     1
  3
2dWireframe
350
2F
  3
3D Hidden
350
31
  3
3dWireframe
350
30
  3
Basic
350
32
  3
Brighten
350
36
  3
ColorChange
350
3A
  3
Conceptual
350
34
  3
Dim
350
35
  3
Facepattern
350
39
  3
Flat
350
2B
  3
FlatWithEdges
350
2C
  3
Gouraud
350
2D
  3
GouraudWithEdges
350
2E
  3
Linepattern
350
38
  3
Realistic
350
33
  3
Thicken
350
37
  0
LAYOUT
  5
1E
102
{ACAD_REACTORS
330
1A
102
}
330
1A
100
AcDbPlotSettings
  1

  2
none_device
  4

  6

 40
0.0
 41
0.0
 42
0.0
 43
0.0
 44
0.0
 45
0.0
 46
0.0
 47
0.0
 48
0.0
 49
0.0
140
0.0
141
0.0
142
1.0
143
1.0
 70
   688
 72
     0
 73
     0
 74
     5
  7

 75
    16
 76
     0
 77
     2
 78
   300
147
1.0
148
0.0
149
0.0
100
AcDbLayout
  1
Layout1
 70
     1
 71
     1
 10
0.0
 20
0.0
 11
12.0
 21
9.0
 12
0.0
 22
0.0
 32
0.0
 14
1.000000000000000E+20
 24
1.000000000000000E+20
 34
1.000000000000000E+20
 15
-1.000000000000000E+20
 25
-1.000000000000000E+20
 35
-1.000000000000000E+20
146
0.0
 13
0.0
 23
0.0
 33
0.0
 16
1.0
 26
0.0
 36
0.0
 17
0.0
 27
1.0
 37
0.0
 76
     0
330
1B
  0
LAYOUT
  5
26
102
{ACAD_REACTORS
330
1A
102
}
330
1A
100
AcDbPlotSettings
  1

  2
none_device
  4

  6

 40
0.0
 41
0.0
 42
0.0
 43
0.0
 44
0.0
 45
0.0
 46
0.0
 47
0.0
 48
0.0
 49
0.0
140
0.0
141
0.0
142
1.0
143
1.0
 70
   688
 72
     0
 73
     0
 74
     5
  7

 75
    16
 76
     0
 77
     2
 78
   300
147
1.0
148
0.0
149
0.0
100
AcDbLayout
  1
Layout2
 70
     1
 71
     2
 10
0.0
 20
0.0
 11
0.0
 21
0.0
 12
0.0
 22
0.0
 32
0.0
 14
0.0
 24
0.0
 34
0.0
 15
0.0
 25
0.0
 35
0.0
146
0.0
 13
0.0
 23
0.0
 33
0.0
 16
1.0
 26
0.0
 36
0.0
 17
0.0
 27
1.0
 37
0.0
 76
     0
330
23
  0
LAYOUT
  5
22
102
{ACAD_REACTORS
330
1A
102
}
330
1A
100
AcDbPlotSettings
  1

  2
none_device
  4

  6

 40
0.0
 41
0.0
 42
0.0
 43
0.0
 44
0.0
 45
0.0
 46
0.0
 47
0.0
 48
0.0
 49
0.0
140
0.0
141
0.0
142
1.0
143
1.0
 70
  1712
 72
     0
 73
     0
 74
     0
  7

 75
     0
 76
     0
 77
     2
 78
   300
147
1.0
148
0.0
149
0.0
100
AcDbLayout
  1
Model
 70
     1
 71
     0
 10
0.0
 20
0.0
 11
12.0
 21
9.0
 12
0.0
 22
0.0
 32
0.0
 14
1.000000000000000E+20
 24
1.000000000000000E+20
 34
1.000000000000000E+20
 15
-1.000000000000000E+20
 25
-1.000000000000000E+20
 35
-1.000000000000000E+20
146
0.0
 13
0.0
 23
0.0
 33
0.0
 16
1.0
 26
0.0
 36
0.0
 17
0.0
 27
1.0
 37
0.0
 76
     0
330
1F
331
29
  0
MATERIAL
  5
3D
102
{ACAD_REACTORS
330
3B
102
}
330
3B
100
AcDbMaterial
  1
ByBlock
 72
     1
 94
      127
  0
MATERIAL
  5
3C
102
{ACAD_REACTORS
330
3B
102
}
330
3B
100
AcDbMaterial
  1
ByLayer
 72
     1
 94
      127
  0
MATERIAL
  5
3E
102
{ACAD_REACTORS
330
3B
102
}
330
3B
100
AcDbMaterial
  1
Global
 72
     1
 94
      127
  0
MLINESTYLE
  5
18
102
{ACAD_REACTORS
330
17
102
}
330
17
100
AcDbMlineStyle
  2
Standard
 70
     0
  3

 62
   256
 51
90.0
 52
90.0
 71
     2
 49
0.5
 62
   256
  6
BYLAYER
 49
-0.5
 62
   256
  6
BYLAYER
  0
ACDBPLACEHOLDER
  5
F
102
{ACAD_REACTORS
330
E
102
}
330
E
  0
VISUALSTYLE
  5
2F
102
{ACAD_REACTORS
330
2A
102
}
330
2A
100
AcDbVisualStyle
  2
2dWireframe
 70
     4
177
     2
291
     0
 71
     0
176
     1
 72
     2
176
     1
 73
     0
176
     1
 90
        0
176
     1
 40
-0.6
176
     1
 41
-30.0
176
     1
 62
     5
 63
     7
421
 16777215
176
     1
 74
     1
176
     1
 91
        4
176
     1
 64
     7
176
     1
 65
   257
176
     1
 75
     1
176
     1
175
     1
176
     1
 42
1.0
176
     1
 92
        0
176
     1
 66
   257
176
     1
 43
1.0
176
     1
 76
     1
176
     1
 77
     6
176
     1
 78
     2
176
     1
 67
     7
176
     1
 79
     5
176
     1
170
     0
176
     1
171
     0
176
     1
290
     0
176
     1
 93
        1
176
     1
 44
0.0
176
     1
173
     0
176
     1
  0
VISUALSTYLE
  5
31
102
{ACAD_REACTORS
330
2A
102
}
330
2A
100
AcDbVisualStyle
  2
3D Hidden
 70
     6
177
     2
291
     0
 71
     1
176
     1
 72
     2
176
     1
 73
     2
176
     1
 90
        0
176
     1
 40
-0.6
176
     1
 41
-30.0
176
     1
 62
     5
 63
     7
421
 16777215
176
     1
 74
     2
176
     1
 91
        2
176
     1
 64
     7
176
     1
 65
   257
176
     1
 75
     2
176
     1
175
     1
176
     1
 42
40.0
176
     1
 92
        0
176
     1
 66
   257
176
     1
 43
1.0
176
     1
 76
     1
176
     1
 77
     6
176
     1
 78
     2
176
     1
 67
     7
176
     1
 79
     3
176
     1
170
     0
176
     1
171
     0
176
     1
290
     0
176
     1
 93
        1
176
     1
 44
0.0
176
     1
173
     0
176
     1
  0
VISUALSTYLE
  5
30
102
{ACAD_REACTORS
330
2A
102
}
330
2A
100
AcDbVisualStyle
  2
3dWireframe
 70
     5
177
     2
291
     0
 71
     0
176
     1
 72
     2
176
     1
 73
     0
176
     1
 90
        0
176
     1
 40
-0.6
176
     1
 41
-30.0
176
     1
 62
     5
 63
     7
421
 16777215
176
     1
 74
     1
176
     1
 91
        4
176
     1
 64
     7
176
     1
 65
   257
176
     1
 75
     1
176
     1
175
     1
176
     1
 42
1.0
176
     1
 92
        0
176
     1
 66
   257
176
     1
 43
1.0
176
     1
 76
     1
176
     1
 77
     6
176
     1
 78
     2
176
     1
 67
     7
176
     1
 79
     5
176
     1
170
     0
176
     1
171
     0
176
     1
290
     0
176
     1
 93
        1
176
     1
 44
0.0
176
     1
173
     0
176
     1
  0
VISUALSTYLE
  5
32
102
{ACAD_REACTORS
330
2A
102
}
330
2A
100
AcDbVisualStyle
  2
Basic
 70
     7
177
     2
291
     1
 71
     1
176
     1
 72
     0
176
     1
 73
     1
176
     1
 90
        0
176
     1
 40
-0.6
176
     1
 41
-30.0
176
     1
 62
     5
 63
     7
421
 16777215
176
     1
 74
     0
176
     1
 91
        4
176
     1
 64
     7
176
     1
 65
   257
176
     1
 75
     1
176
     1
175
     1
176
     1
 42
1.0
176
     1
 92
        8
176
     1
 66
     7
176
     1
 43
1.0
176
     1
 76
     1
176
     1
 77
     6
176
     1
 78
     2
176
     1
 67
     7
176
     1
 79
     5
176
     1
170
     0
176
     1
171
     0
176
     1
290
     0
176
     1
 93
        1
176
     1
 44
0.0
176
     1
173
     0
176
     1
  0
VISUALSTYLE
  5
36
102
{ACAD_REACTORS
330
2A
102
}
330
2A
100
AcDbVisualStyle
  2
Brighten
 70
    12
177
     2
291
     1
 71
     2
176
     1
 72
     2
176
     1
 73
     0
176
     1
 90
        0
176
     1
 40
-0.6
176
     1
 41
-30.0
176
     1
 62
     5
 63
     7
421
 16777215
176
     1
 74
     1
176
     1
 91
        4
176
     1
 64
     7
176
     1
 65
   257
176
     1
 75
     1
176
     1
175
     1
176
     1
 42
1.0
176
     1
 92
        8
176
     1
 66
     7
176
     1
 43
1.0
176
     1
 76
     1
176
     1
 77
     6
176
     1
 78
     2
176
     1
 67
     7
176
     1
 79
     5
176
     1
170
     0
176
     1
171
     0
176
     1
290
     0
176
     1
 93
        1
176
     1
 44
50.0
176
     1
173
     0
176
     1
  0
VISUALSTYLE
  5
3A
102
{ACAD_REACTORS
330
2A
102
}
330
2A
100
AcDbVisualStyle
  2
ColorChange
 70
    16
177
     2
291
     1
 71
     2
176
     1
 72
     2
176
     1
 73
     3
176
     1
 90
        0
176
     1
 40
-0.6
176
     1
 41
-30.0
176
     1
 62
     5
 63
     8
421
  8421504
176
     1
 74
     1
176
     1
 91
        4
176
     1
 64
     7
176
     1
 65
   257
176
     1
 75
     1
176
     1
175
     1
176
     1
 42
1.0
176
     1
 92
        8
176
     1
 66
     8
424
  8421504
176
     1
 43
1.0
176
     1
 76
     1
176
     1
 77
     6
176
     1
 78
     2
176
     1
 67
     7
176
     1
 79
     5
176
     1
170
     0
176
     1
171
     0
176
     1
290
     0
176
     1
 93
        1
176
     1
 44
0.0
176
     1
173
     0
176
     1
  0
VISUALSTYLE
  5
34
102
{ACAD_REACTORS
330
2A
102
}
330
2A
100
AcDbVisualStyle
  2
Conceptual
 70
     9
177
     2
291
     0
 71
     3
176
     1
 72
     2
176
     1
 73
     0
176
     1
 90
        0
176
     1
 40
-0.6
176
     1
 41
-30.0
176
     1
 62
     5
 63
     7
421
 16777215
176
     1
 74
     2
176
     1
 91
        2
176
     1
 64
     7
176
     1
 65
   257
176
     1
 75
     1
176
     1
175
     1
176
     1
 42
40.0
176
     1
 92
        8
176
     1
 66
     7
176
     1
 43
1.0
176
     1
 76
     1
176
     1
 77
     6
176
     1
 78
     2
176
     1
 67
     7
176
     1
 79
     3
176
     1
170
     0
176
     1
171
     0
176
     1
290
     0
176
     1
 93
        1
176
     1
 44
0.0
176
     1
173
     0
176
     1
  0
VISUALSTYLE
  5
35
102
{ACAD_REACTORS
330
2A
102
}
330
2A
100
AcDbVisualStyle
  2
Dim
 70
    11
177
     2
291
     1
 71
     2
176
     1
 72
     2
176
     1
 73
     0
176
     1
 90
        0
176
     1
 40
-0.6
176
     1
 41
-30.0
176
     1
 62
     5
 63
     7
421
 16777215
176
     1
 74
     1
176
     1
 91
        4
176
     1
 64
     7
176
     1
 65
   257
176
     1
 75
     1
176
     1
175
     1
176
     1
 42
1.0
176
     1
 92
        8
176
     1
 66
     7
176
     1
 43
1.0
176
     1
 76
     1
176
     1
 77
     6
176
     1
 78
     2
176
     1
 67
     7
176
     1
 79
     5
176
     1
170
     0
176
     1
171
     0
176
     1
290
     0
176
     1
 93
        1
176
     1
 44
-50.0
176
     1
173
     0
176
     1
  0
VISUALSTYLE
  5
39
102
{ACAD_REACTORS
330
2A
102
}
330
2A
100
AcDbVisualStyle
  2
Facepattern
 70
    15
177
     2
291
     1
 71
     2
176
     1
 72
     2
176
     1
 73
     0
176
     1
 90
        0
176
     1
 40
-0.6
176
     1
 41
-30.0
176
     1
 62
     5
 63
     7
421
 16777215
176
     1
 74
     1
176
     1
 91
        4
176
     1
 64
     7
176
     1
 65
   257
176
     1
 75
     1
176
     1
175
     1
176
     1
 42
1.0
176
     1
 92
        8
176
     1
 66
     7
176
     1
 43
1.0
176
     1
 76
     1
176
     1
 77
     6
176
     1
 78
     2
176
     1
 67
     7
176
     1
 79
     5
176
     1
170
     0
176
     1
171
     0
176
     1
290
     0
176
     1
 93
        1
176
     1
 44
0.0
176
     1
173
     0
176
     1
  0
VISUALSTYLE
  5
2B
102
{ACAD_REACTORS
330
2A
102
}
330
2A
100
AcDbVisualStyle
  2
Flat
 70
     0
177
     2
291
     1
 71
     2
176
     1
 72
     1
176
     1
 73
     1
176
     1
 90
        2
176
     1
 40
-0.6
176
     1
 41
30.0
176
     1
 62
     5
 63
     7
421
 16777215
176
     1
 74
     0
176
     1
 91
        4
176
     1
 64
     7
176
     1
 65
   257
176
     1
 75
     1
176
     1
175
     1
176
     1
 42
1.0
176
     1
 92
        8
176
     1
 66
     7
176
     1
 43
1.0
176
     1
 76
     1
176
     1
 77
     6
176
     1
 78
     2
176
     1
 67
     7
176
     1
 79
     5
176
     1
170
     0
176
     1
171
     0
176
     1
290
     0
176
     1
 93
       13
176
     1
 44
0.0
176
     1
173
     0
176
     1
  0
VISUALSTYLE
  5
2C
102
{ACAD_REACTORS
330
2A
102
}
330
2A
100
AcDbVisualStyle
  2
FlatWithEdges
 70
     1
177
     2
291
     1
 71
     2
176
     1
 72
     1
176
     1
 73
     1
176
     1
 90
        2
176
     1
 40
-0.6
176
     1
 41
30.0
176
     1
 62
     5
 63
     7
421
 16777215
176
     1
 74
     1
176
     1
 91
        4
176
     1
 64
     7
176
     1
 65
   257
176
     1
 75
     1
176
     1
175
     1
176
     1
 42
1.0
176
     1
 92
        0
176
     1
 66
   257
176
     1
 43
1.0
176
     1
 76
     1
176
     1
 77
     6
176
     1
 78
     2
176
     1
 67
     7
176
     1
 79
     5
176
     1
170
     0
176
     1
171
     0
176
     1
290
     0
176
     1
 93
       13
176
     1
 44
0.0
176
     1
173
     0
176
     1
  0
VISUALSTYLE
  5
2D
102
{ACAD_REACTORS
330
2A
102
}
330
2A
100
AcDbVisualStyle
  2
Gouraud
 70
     2
177
     2
291
     1
 71
     2
176
     1
 72
     2
176
     1
 73
     1
176
     1
 90
        2
176
     1
 40
-0.6
176
     1
 41
30.0
176
     1
 62
     5
 63
     7
421
 16777215
176
     1
 74
     0
176
     1
 91
        4
176
     1
 64
     7
176
     1
 65
   257
176
     1
 75
     1
176
     1
175
     1
176
     1
 42
1.0
176
     1
 92
        0
176
     1
 66
     7
176
     1
 43
1.0
176
     1
 76
     1
176
     1
 77
     6
176
     1
 78
     2
176
     1
 67
     7
176
     1
 79
     5
176
     1
170
     0
176
     1
171
     0
176
     1
290
     0
176
     1
 93
       13
176
     1
 44
0.0
176
     1
173
     0
176
     1
  0
VISUALSTYLE
  5
2E
102
{ACAD_REACTORS
330
2A
102
}
330
2A
100
AcDbVisualStyle
  2
GouraudWithEdges
 70
     3
177
     2
291
     1
 71
     2
176
     1
 72
     2
176
     1
 73
     1
176
     1
 90
        2
176
     1
 40
-0.6
176
     1
 41
30.0
176
     1
 62
     5
 63
     7
421
 16777215
176
     1
 74
     1
176
     1
 91
        4
176
     1
 64
     7
176
     1
 65
   257
176
     1
 75
     1
176
     1
175
     1
176
     1
 42
1.0
176
     1
 92
        0
176
     1
 66
   257
176
     1
 43
1.0
176
     1
 76
     1
176
     1
 77
     6
176
     1
 78
     2
176
     1
 67
     7
176
     1
 79
     5
176
     1
170
     0
176
     1
171
     0
176
     1
290
     0
176
     1
 93
       13
176
     1
 44
0.0
176
     1
173
     0
176
     1
  0
VISUALSTYLE
  5
38
102
{ACAD_REACTORS
330
2A
102
}
330
2A
100
AcDbVisualStyle
  2
Linepattern
 70
    14
177
     2
291
     1
 71
     2
176
     1
 72
     2
176
     1
 73
     0
176
     1
 90
        0
176
     1
 40
-0.6
176
     1
 41
-30.0
176
     1
 62
     5
 63
     7
421
 16777215
176
     1
 74
     1
176
     1
 91
        4
176
     1
 64
     7
176
     1
 65
   257
176
     1
 75
     7
176
     1
175
     7
176
     1
 42
1.0
176
     1
 92
        8
176
     1
 66
     7
176
     1
 43
1.0
176
     1
 76
     1
176
     1
 77
     6
176
     1
 78
     2
176
     1
 67
     7
176
     1
 79
     5
176
     1
170
     0
176
     1
171
     0
176
     1
290
     0
176
     1
 93
        1
176
     1
 44
0.0
176
     1
173
     0
176
     1
  0
VISUALSTYLE
  5
33
102
{ACAD_REACTORS
330
2A
102
}
330
2A
100
AcDbVisualStyle
  2
Realistic
 70
     8
177
     2
291
     0
 71
     2
176
     1
 72
     2
176
     1
 73
     0
176
     1
 90
        0
176
     1
 40
-0.6
176
     1
 41
-30.0
176
     1
 62
     5
 63
     7
421
 16777215
176
     1
 74
     1
176
     1
 91
        0
176
     1
 64
     7
176
     1
 65
   257
176
     1
 75
     1
176
     1
175
     1
176
     1
 42
1.0
176
     1
 92
        8
176
     1
 66
     8
424
  7895160
176
     1
 43
1.0
176
     1
 76
     1
176
     1
 77
     6
176
     1
 78
     2
176
     1
 67
     7
176
     1
 79
     5
176
     1
170
     0
176
     1
171
     0
176
     1
290
     0
176
     1
 93
       13
176
     1
 44
0.0
176
     1
173
     0
176
     1
  0
VISUALSTYLE
  5
37
102
{ACAD_REACTORS
330
2A
102
}
330
2A
100
AcDbVisualStyle
  2
Thicken
 70
    13
177
     2
291
     1
 71
     2
176
     1
 72
     2
176
     1
 73
     0
176
     1
 90
        0
176
     1
 40
-0.6
176
     1
 41
-30.0
176
     1
 62
     5
 63
     7
421
 16777215
176
     1
 74
     1
176
     1
 91
        4
176
     1
 64
     7
176
     1
 65
   257
176
     1
 75
     1
176
     1
175
     1
176
     1
 42
1.0
176
     1
 92
       12
176
     1
 66
     7
176
     1
 43
1.0
176
     1
 76
     1
176
     1
 77
     6
176
     1
 78
     2
176
     1
 67
     7
176
     1
 79
     5
176
     1
170
     0
176
     1
171
     0
176
     1
290
     0
176
     1
 93
        1
176
     1
 44
0.0
176
     1
173
     0
176
     1
  0
ENDSEC
  0
EOF
