  0
SECTION
  2
HEADER
  9
$ACADVER
  1
AC1024
  9
$ACADMAINTVER
 70
     6
  9
$DWGCODEPAGE
  3
ANSI_1252
  9
$INSBASE
 10
0.0
 20
0.0
 30
0.0
  9
$EXTMIN
 10
1.000000000000000E+20
 20
1.000000000000000E+20
 30
1.000000000000000E+20
  9
$EXTMAX
 10
-1.000000000000000E+20
 20
-1.000000000000000E+20
 30
-1.000000000000000E+20
  9
$LIMMIN
 10
0.0
 20
0.0
  9
$LIMMAX
 10
12.0
 20
9.0
  9
$ORTHOMODE
 70
     0
  9
$REGENMODE
 70
     1
  9
$FILLMODE
 70
     1
  9
$QTEXTMODE
 70
     0
  9
$MIRRTEXT
 70
     1
  9
$LTSCALE
 40
1.0
  9
$ATTMODE
 70
     1
  9
$TEXTSIZE
 40
0.2
  9
$TRACEWID
 40
0.05
  9
$TEXTSTYLE
  7
Standard
  9
$CLAYER
  8
0
  9
$CELTYPE
  6
ByLayer
  9
$CECOLOR
 62
   256
  9
$CELTSCALE
 40
1.0
  9
$DISPSILH
 70
     0
  9
$DIMSCALE
 40
1.0
  9
$DIMASZ
 40
0.18
  9
$DIMEXO
 40
0.0625
  9
$DIMDLI
 40
0.38
  9
$DIMRND
 40
0.0
  9
$DIMDLE
 40
0.0
  9
$DIMEXE
 40
0.18
  9
$DIMTP
 40
0.0
  9
$DIMTM
 40
0.0
  9
$DIMTXT
 40
0.18
  9
$DIMCEN
 40
0.09
  9
$DIMTSZ
 40
0.0
  9
$DIMTOL
 70
     0
  9
$DIMLIM
 70
     0
  9
$DIMTIH
 70
     1
  9
$DIMTOH
 70
     1
  9
$DIMSE1
 70
     0
  9
$DIMSE2
 70
     0
  9
$DIMTAD
 70
     0
  9
$DIMZIN
 70
     0
  9
$DIMBLK
  1

  9
$DIMASO
 70
     1
  9
$DIMSHO
 70
     1
  9
$DIMPOST
  1

  9
$DIMAPOST
  1

  9
$DIMALT
 70
     0
  9
$DIMALTD
 70
     2
  9
$DIMALTF
 40
25.4
  9
$DIMLFAC
 40
1.0
  9
$DIMTOFL
 70
     0
  9
$DIMTVP
 40
0.0
  9
$DIMTIX
 70
     0
  9
$DIMSOXD
 70
     0
  9
$DIMSAH
 70
     0
  9
$DIMBLK1
  1

  9
$DIMBLK2
  1

  9
$DIMSTYLE
  2
Standard
  9
$DIMCLRD
 70
     0
  9
$DIMCLRE
 70
     0
  9
$DIMCLRT
 70
     0
  9
$DIMTFAC
 40
1.0
  9
$DIMGAP
 40
0.09
  9
$DIMJUST
 70
     0
  9
$DIMSD1
 70
     0
  9
$DIMSD2
 70
     0
  9
$DIMTOLJ
 70
     1
  9
$DIMTZIN
 70
     0
  9
$DIMALTZ
 70
     0
  9
$DIMALTTZ
 70
     0
  9
$DIMUPT
 70
     0
  9
$DIMDEC
 70
     4
  9
$DIMTDEC
 70
     4
  9
$DIMALTU
 70
     2
  9
$DIMALTTD
 70
     2
  9
$DIMTXSTY
  7
Standard
  9
$DIMAUNIT
 70
     0
  9
$DIMADEC
 70
     0
  9
$DIMALTRND
 40
0.0
  9
$DIMAZIN
 70
     0
  9
$DIMDSEP
 70
    46
  9
$DIMATFIT
 70
     3
  9
$DIMFRAC
 70
     0
  9
$DIMLDRBLK
  1

  9
$DIMLUNIT
 70
     2
  9
$DIMLWD
 70
    -2
  9
$DIMLWE
 70
    -2
  9
$DIMTMOVE
 70
     0
  9
$DIMFXL
 40
1.0
  9
$DIMFXLON
 70
     0
  9
$DIMJOGANG
 40
0.7853981633974483
  9
$DIMTFILL
 70
     0
  9
$DIMTFILLCLR
 70
     0
  9
$DIMARCSYM
 70
     0
  9
$DIMLTYPE
  6

  9
$DIMLTEX1
  6

  9
$DIMLTEX2
  6

  9
$DIMTXTDIRECTION
 70
     0
  9
$LUNITS
 70
     2
  9
$LUPREC
 70
     4
  9
$SKETCHINC
 40
0.1
  9
$FILLETRAD
 40
0.5
  9
$AUNITS
 70
     0
  9
$AUPREC
 70
     0
  9
$MENU
  1
.
  9
$ELEVATION
 40
0.0
  9
$PELEVATION
 40
0.0
  9
$THICKNESS
 40
0.0
  9
$LIMCHECK
 70
     0
  9
$CHAMFERA
 40
0.5
  9
$CHAMFERB
 40
0.5
  9
$CHAMFERC
 40
1.0
  9
$CHAMFERD
 40
0.0
  9
$SKPOLY
 70
     0
  9
$TDCREATE
 40
2458782.43955191
  9
$TDUCREATE
 40
2458781.897885243
  9
$TDUPDATE
 40
2458782.439552141
  9
$TDUUPDATE
 40
2458781.897885474
  9
$TDINDWG
 40
0.0000000116
  9
$TDUSRTIMER
 40
0.0000000116
  9
$USRTIMER
 70
     1
  9
$ANGBASE
 50
0.0
  9
$ANGDIR
 70
     0
  9
$PDMODE
 70
     0
  9
$PDSIZE
 40
0.0
  9
$PLINEWID
 40
0.0
  9
$SPLFRAME
 70
     0
  9
$SPLINETYPE
 70
     6
  9
$SPLINESEGS
 70
     8
  9
$HANDSEED
  5
324
  9
$SURFTAB1
 70
     6
  9
$SURFTAB2
 70
     6
  9
$SURFTYPE
 70
     6
  9
$SURFU
 70
     6
  9
$SURFV
 70
     6
  9
$UCSBASE
  2

  9
$UCSNAME
  2

  9
$UCSORG
 10
0.0
 20
0.0
 30
0.0
  9
$UCSXDIR
 10
1.0
 20
0.0
 30
0.0
  9
$UCSYDIR
 10
0.0
 20
1.0
 30
0.0
  9
$UCSORTHOREF
  2

  9
$UCSORTHOVIEW
 70
     0
  9
$UCSORGTOP
 10
0.0
 20
0.0
 30
0.0
  9
$UCSORGBOTTOM
 10
0.0
 20
0.0
 30
0.0
  9
$UCSORGLEFT
 10
0.0
 20
0.0
 30
0.0
  9
$UCSORGRIGHT
 10
0.0
 20
0.0
 30
0.0
  9
$UCSORGFRONT
 10
0.0
 20
0.0
 30
0.0
  9
$UCSORGBACK
 10
0.0
 20
0.0
 30
0.0
  9
$PUCSBASE
  2

  9
$PUCSNAME
  2

  9
$PUCSORG
 10
0.0
 20
0.0
 30
0.0
  9
$PUCSXDIR
 10
1.0
 20
0.0
 30
0.0
  9
$PUCSYDIR
 10
0.0
 20
1.0
 30
0.0
  9
$PUCSORTHOREF
  2

  9
$PUCSORTHOVIEW
 70
     0
  9
$PUCSORGTOP
 10
0.0
 20
0.0
 30
0.0
  9
$PUCSORGBOTTOM
 10
0.0
 20
0.0
 30
0.0
  9
$PUCSORGLEFT
 10
0.0
 20
0.0
 30
0.0
  9
$PUCSORGRIGHT
 10
0.0
 20
0.0
 30
0.0
  9
$PUCSORGFRONT
 10
0.0
 20
0.0
 30
0.0
  9
$PUCSORGBACK
 10
0.0
 20
0.0
 30
0.0
  9
$USERI1
 70
     0
  9
$USERI2
 70
     0
  9
$USERI3
 70
     0
  9
$USERI4
 70
     0
  9
$USERI5
 70
     0
  9
$USERR1
 40
0.0
  9
$USERR2
 40
0.0
  9
$USERR3
 40
0.0
  9
$USERR4
 40
0.0
  9
$USERR5
 40
0.0
  9
$WORLDVIEW
 70
     1
  9
$SHADEDGE
 70
     3
  9
$SHADEDIF
 70
    70
  9
$TILEMODE
 70
     1
  9
$MAXACTVP
 70
    64
  9
$PINSBASE
 10
0.0
 20
0.0
 30
0.0
  9
$PLIMCHECK
 70
     0
  9
$PEXTMIN
 10
1.000000000000000E+20
 20
1.000000000000000E+20
 30
1.000000000000000E+20
  9
$PEXTMAX
 10
-1.000000000000000E+20
 20
-1.000000000000000E+20
 30
-1.000000000000000E+20
  9
$PLIMMIN
 10
0.0
 20
0.0
  9
$PLIMMAX
 10
12.0
 20
9.0
  9
$UNITMODE
 70
     0
  9
$VISRETAIN
 70
     1
  9
$PLINEGEN
 70
     0
  9
$PSLTSCALE
 70
     1
  9
$TREEDEPTH
 70
  3020
  9
$CMLSTYLE
  2
Standard
  9
$CMLJUST
 70
     0
  9
$CMLSCALE
 40
1.0
  9
$PROXYGRAPHICS
 70
     1
  9
$MEASUREMENT
 70
     0
  9
$CELWEIGHT
370
    -1
  9
$ENDCAPS
280
     0
  9
$JOINSTYLE
280
     0
  9
$LWDISPLAY
290
     1
  9
$INSUNITS
 70
     1
  9
$HYPERLINKBASE
  1

  9
$STYLESHEET
  1

  9
$XEDIT
290
     1
  9
$CEPSNTYPE
380
     0
  9
$PSTYLEMODE
290
     1
  9
$FINGERPRINTGUID
  2
{232523E2-85AF-495A-8C86-39287A8C2A5C}
  9
$VERSIONGUID
  2
{FAEB1C32-E019-11D5-929B-00C0DF256EC4}
  9
$EXTNAMES
290
     1
  9
$PSVPSCALE
 40
0.0
  9
$OLESTARTUP
290
     0
  9
$SORTENTS
280
   127
  9
$INDEXCTL
280
     0
  9
$HIDETEXT
280
     1
  9
$XCLIPFRAME
280
     2
  9
$HALOGAP
280
     0
  9
$OBSCOLOR
 70
   257
  9
$OBSLTYPE
280
     0
  9
$INTERSECTIONDISPLAY
280
     0
  9
$INTERSECTIONCOLOR
 70
   257
  9
$DIMASSOC
280
     2
  9
$PROJECTNAME
  1

  9
$CAMERADISPLAY
290
     0
  9
$LENSLENGTH
 40
50.0
  9
$CAMERAHEIGHT
 40
0.0
  9
$STEPSPERSEC
 40
2.0
  9
$STEPSIZE
 40
6.0
  9
$3DDWFPREC
 40
2.0
  9
$PSOLWIDTH
 40
0.25
  9
$PSOLHEIGHT
 40
4.0
  9
$LOFTANG1
 40
1.570796326794897
  9
$LOFTANG2
 40
1.570796326794897
  9
$LOFTMAG1
 40
0.0
  9
$LOFTMAG2
 40
0.0
  9
$LOFTPARAM
 70
     7
  9
$LOFTNORMALS
280
     1
  9
$LATITUDE
 40
37.795
  9
$LONGITUDE
 40
-122.394
  9
$NORTHDIRECTION
 40
0.0
  9
$TIMEZONE
 70
 -8000
  9
$LIGHTGLYPHDISPLAY
280
     1
  9
$TILEMODELIGHTSYNCH
280
     1
  9
$CMATERIAL
347
3C
  9
$SOLIDHIST
280
     1
  9
$SHOWHIST
280
     1
  9
$DWFFRAME
280
     2
  9
$DGNFRAME
280
     2
  9
$REALWORLDSCALE
290
     1
  9
$INTERFERECOLOR
 62
   256
  9
$CSHADOW
280
     0
  9
$SHADOWPLANELOCATION
 40
0.0
  0
ENDSEC
  0
SECTION
  2
CLASSES
  0
CLASS
  1
ACDBDICTIONARYWDFLT
  2
AcDbDictionaryWithDefault
  3
ObjectDBX Classes
 90
        0
 91
        4
280
     0
281
     0
  0
CLASS
  1
VISUALSTYLE
  2
AcDbVisualStyle
  3
ObjectDBX Classes
 90
     4095
 91
        4
280
     0
281
     0
  0
CLASS
  1
MATERIAL
  2
AcDbMaterial
  3
ObjectDBX Classes
 90
     1153
 91
        4
280
     0
281
     0
  0
CLASS
  1
SUN
  2
AcDbSun
  3
SCENEOE
 90
     1024
 91
        4
280
     0
281
     0
  0
ENDSEC
  0
SECTION
  2
TABLES
  0
TABLE
  2
VPORT
  5
8
330
0
100
AcDbSymbolTable
 70
     1
  0
VPORT
  5
29
330
8
100
AcDbSymbolTableRecord
100
AcDbViewportTableRecord
  2
*Active
 70
     0
 10
0.0
 20
0.0
 11
1.0
 21
1.0
 12
0.0
 22
0.0
 13
0.0
 23
0.0
 14
0.5
 24
0.5
 15
0.5
 25
0.5
 16
0.0
 26
0.0
 36
1.0
 17
4.318293718188443
 27
5.863597768539724
 37
0.0
 40
11.69291338582677
 41
0.7070707070707065
 42
50.0
 43
0.0
 44
0.0
 50
0.0
 51
0.0
 71
     0
 72
   100
 73
     1
 74
     3
 75
     0
 76
     0
 77
     0
 78
     0
281
     0
 65
     1
110
0.0
120
0.0
130
0.0
111
1.0
121
0.0
131
0.0
112
0.0
122
1.0
132
0.0
 79
     0
146
0.0
 60
     3
 61
     5
292
     1
282
     1
141
0.0
142
0.0
 63
   250
361
3F
  0
ENDTAB
  0
TABLE
  2
LTYPE
  5
5
330
0
100
AcDbSymbolTable
 70
     1
  0
LTYPE
  5
14
330
5
100
AcDbSymbolTableRecord
100
AcDbLinetypeTableRecord
  2
ByBlock
 70
     0
  3

 72
    65
 73
     0
 40
0.0
  0
LTYPE
  5
15
330
5
100
AcDbSymbolTableRecord
100
AcDbLinetypeTableRecord
  2
ByLayer
 70
     0
  3

 72
    65
 73
     0
 40
0.0
  0
LTYPE
  5
16
330
5
100
AcDbSymbolTableRecord
100
AcDbLinetypeTableRecord
  2
Continuous
 70
     0
  3
Solid line
 72
    65
 73
     0
 40
0.0
  0
ENDTAB
  0
TABLE
  2
LAYER
  5
2
330
0
100
AcDbSymbolTable
 70
     5
  0
LAYER
  5
10
330
2
100
AcDbSymbolTableRecord
100
AcDbLayerTableRecord
  2
0
 70
     0
 62
     7
  6
Continuous
370
    -3
390
F
347
3E
  0
LAYER
  5
40
330
2
100
AcDbSymbolTableRecord
100
AcDbLayerTableRecord
  2
I-Beam
 70
     0
 62
     7
  6
Continuous
370
    -3
390
F
347
3E
  0
LAYER
  5
68
330
2
100
AcDbSymbolTableRecord
100
AcDbLayerTableRecord
  2
Wood
 70
     0
 62
     7
  6
Continuous
370
    -3
390
F
347
3E
  0
LAYER
  5
1CF
330
2
100
AcDbSymbolTableRecord
100
AcDbLayerTableRecord
  2
BA
 70
     0
 62
     7
  6
Continuous
370
    -3
390
F
347
3E
  0
LAYER
  5
308
330
2
100
AcDbSymbolTableRecord
100
AcDbLayerTableRecord
  2
callout
 70
     0
 62
     7
  6
Continuous
370
    -3
390
F
347
3E
  0
ENDTAB
  0
TABLE
  2
STYLE
  5
3
330
0
100
AcDbSymbolTable
 70
     1
  0
STYLE
  5
11
330
3
100
AcDbSymbolTableRecord
100
AcDbTextStyleTableRecord
  2
Standard
 70
     0
 40
0.0
 41
1.0
 50
0.0
 71
     0
 42
0.2
  3
txt
  4

  0
ENDTAB
  0
TABLE
  2
VIEW
  5
6
330
0
100
AcDbSymbolTable
 70
     0
  0
ENDTAB
  0
TABLE
  2
UCS
  5
7
330
0
100
AcDbSymbolTable
 70
     0
  0
ENDTAB
  0
TABLE
  2
APPID
  5
9
330
0
100
AcDbSymbolTable
 70
     1
  0
APPID
  5
12
330
9
100
AcDbSymbolTableRecord
100
AcDbRegAppTableRecord
  2
ACAD
 70
     0
  0
ENDTAB
  0
TABLE
  2
DIMSTYLE
  5
A
330
0
100
AcDbSymbolTable
 70
     1
100
AcDbDimStyleTable
  0
DIMSTYLE
105
27
330
A
100
AcDbSymbolTableRecord
100
AcDbDimStyleTableRecord
  2
Standard
 70
     0
178
     0
340
11
  0
ENDTAB
  0
TABLE
  2
BLOCK_RECORD
  5
1
330
0
100
AcDbSymbolTable
 70
    17
  0
BLOCK_RECORD
  5
1F
330
1
100
AcDbSymbolTableRecord
100
AcDbBlockTableRecord
  2
*Model_Space
340
22
 70
     0
280
     1
281
     0
  0
BLOCK_RECORD
  5
1B
330
1
100
AcDbSymbolTableRecord
100
AcDbBlockTableRecord
  2
*Paper_Space
340
1E
 70
     0
280
     1
281
     0
  0
BLOCK_RECORD
  5
23
330
1
100
AcDbSymbolTableRecord
100
AcDbBlockTableRecord
  2
*Paper_Space0
340
26
 70
     0
280
     1
281
     0
  0
BLOCK_RECORD
  5
1D0
330
1
100
AcDbSymbolTableRecord
100
AcDbBlockTableRecord
  2
block 2
340
0
102
{BLKREFS
331
1D1
102
}
 70
     0
280
     1
281
     0
  0
BLOCK_RECORD
  5
1EF
330
1
100
AcDbSymbolTableRecord
100
AcDbBlockTableRecord
  2
block 3
340
0
102
{BLKREFS
331
1F0
102
}
 70
     0
280
     1
281
     0
  0
BLOCK_RECORD
  5
1FF
330
1
100
AcDbSymbolTableRecord
100
AcDbBlockTableRecord
  2
block 4
340
0
102
{BLKREFS
331
200
102
}
 70
     0
280
     1
281
     0
  0
BLOCK_RECORD
  5
22D
330
1
100
AcDbSymbolTableRecord
100
AcDbBlockTableRecord
  2
block 5
340
0
102
{BLKREFS
331
22E
102
}
 70
     0
280
     1
281
     0
  0
BLOCK_RECORD
  5
240
330
1
100
AcDbSymbolTableRecord
100
AcDbBlockTableRecord
  2
block 6
340
0
102
{BLKREFS
331
241
102
}
 70
     0
280
     1
281
     0
  0
BLOCK_RECORD
  5
259
330
1
100
AcDbSymbolTableRecord
100
AcDbBlockTableRecord
  2
block 7
340
0
102
{BLKREFS
331
25A
102
}
 70
     0
280
     1
281
     0
  0
BLOCK_RECORD
  5
277
330
1
100
AcDbSymbolTableRecord
100
AcDbBlockTableRecord
  2
block 8
340
0
102
{BLKREFS
331
278
102
}
 70
     0
280
     1
281
     0
  0
BLOCK_RECORD
  5
28A
330
1
100
AcDbSymbolTableRecord
100
AcDbBlockTableRecord
  2
block 9
340
0
102
{BLKREFS
331
28B
102
}
 70
     0
280
     1
281
     0
  0
BLOCK_RECORD
  5
291
330
1
100
AcDbSymbolTableRecord
100
AcDbBlockTableRecord
  2
block 10
340
0
102
{BLKREFS
331
292
102
}
 70
     0
280
     1
281
     0
  0
BLOCK_RECORD
  5
29B
330
1
100
AcDbSymbolTableRecord
100
AcDbBlockTableRecord
  2
block 11
340
0
102
{BLKREFS
331
29C
102
}
 70
     0
280
     1
281
     0
  0
BLOCK_RECORD
  5
2D8
330
1
100
AcDbSymbolTableRecord
100
AcDbBlockTableRecord
  2
block 12
340
0
102
{BLKREFS
331
2D9
102
}
 70
     0
280
     1
281
     0
  0
BLOCK_RECORD
  5
2E0
330
1
100
AcDbSymbolTableRecord
100
AcDbBlockTableRecord
  2
block 13
340
0
102
{BLKREFS
331
2E1
102
}
 70
     0
280
     1
281
     0
  0
BLOCK_RECORD
  5
2E8
330
1
100
AcDbSymbolTableRecord
100
AcDbBlockTableRecord
  2
block 14
340
0
102
{BLKREFS
331
2E9
102
}
 70
     0
280
     1
281
     0
  0
BLOCK_RECORD
  5
2F0
330
1
100
AcDbSymbolTableRecord
100
AcDbBlockTableRecord
  2
block 15
340
0
102
{BLKREFS
331
2F1
102
}
 70
     0
280
     1
281
     0
  0
BLOCK_RECORD
  5
2F8
330
1
100
AcDbSymbolTableRecord
100
AcDbBlockTableRecord
  2
block 16
340
0
102
{BLKREFS
331
2F9
102
}
 70
     0
280
     1
281
     0
  0
BLOCK_RECORD
  5
300
330
1
100
AcDbSymbolTableRecord
100
AcDbBlockTableRecord
  2
block 17
340
0
102
{BLKREFS
331
301
102
}
 70
     0
280
     1
281
     0
  0
ENDTAB
  0
ENDSEC
  0
SECTION
  2
BLOCKS
  0
BLOCK
  5
20
330
1F
100
AcDbEntity
  8
0
100
AcDbBlockBegin
  2
*Model_Space
 70
     0
 10
0.0
 20
0.0
 30
0.0
  3
*Model_Space
  1

  0
ENDBLK
  5
21
330
1F
100
AcDbEntity
  8
0
100
AcDbBlockEnd
  0
BLOCK
  5
1C
330
1B
100
AcDbEntity
 67
     1
  8
0
100
AcDbBlockBegin
  2
*Paper_Space
 70
     0
 10
0.0
 20
0.0
 30
0.0
  3
*Paper_Space
  1

  0
ENDBLK
  5
1D
330
1B
100
AcDbEntity
 67
     1
  8
0
100
AcDbBlockEnd
  0
BLOCK
  5
24
330
23
100
AcDbEntity
  8
0
100
AcDbBlockBegin
  2
*Paper_Space0
 70
     0
 10
0.0
 20
0.0
 30
0.0
  3
*Paper_Space0
  1

  0
ENDBLK
  5
25
330
23
100
AcDbEntity
  8
0
100
AcDbBlockEnd
  0
BLOCK
  5
1D2
330
1D0
100
AcDbEntity
  8
0
100
AcDbBlockBegin
  2
block 2
 70
     0
 10
0.0
 20
0.0
 30
0.0
  3
block 2
  1

  0
SPLINE
  5
1D4
330
1D0
100
AcDbEntity
  8
BA
370
     0
100
AcDbSpline
210
0.0
220
0.0
230
1.0
 70
    11
 71
     3
 72
   104
 73
   100
 74
     0
 42
0.0000000001
 43
0.0000000001
 12
1.0
 22
0.0
 32
0.0
 13
1.0
 23
0.0
 33
0.0
 40
0.0
 40
0.0
 40
0.0
 40
0.0
 40
1.0
 40
1.0
 40
1.0
 40
2.0
 40
2.0
 40
2.0
 40
3.0
 40
3.0
 40
3.0
 40
4.0
 40
4.0
 40
4.0
 40
5.0
 40
5.0
 40
5.0
 40
6.0
 40
6.0
 40
6.0
 40
7.0
 40
7.0
 40
7.0
 40
8.0
 40
8.0
 40
8.0
 40
9.0
 40
9.0
 40
9.0
 40
10.0
 40
10.0
 40
10.0
 40
11.0
 40
11.0
 40
11.0
 40
12.0
 40
12.0
 40
12.0
 40
13.0
 40
13.0
 40
13.0
 40
14.0
 40
14.0
 40
14.0
 40
15.0
 40
15.0
 40
15.0
 40
16.0
 40
16.0
 40
16.0
 40
17.0
 40
17.0
 40
17.0
 40
18.0
 40
18.0
 40
18.0
 40
19.0
 40
19.0
 40
19.0
 40
20.0
 40
20.0
 40
20.0
 40
21.0
 40
21.0
 40
21.0
 40
22.0
 40
22.0
 40
22.0
 40
23.0
 40
23.0
 40
23.0
 40
24.0
 40
24.0
 40
24.0
 40
25.0
 40
25.0
 40
25.0
 40
26.0
 40
26.0
 40
26.0
 40
27.0
 40
27.0
 40
27.0
 40
28.0
 40
28.0
 40
28.0
 40
29.0
 40
29.0
 40
29.0
 40
30.0
 40
30.0
 40
30.0
 40
31.0
 40
31.0
 40
31.0
 40
32.0
 40
32.0
 40
32.0
 40
33.0
 40
33.0
 40
33.0
 40
33.0
 10
4.224675297820896
 20
7.366350282971943
 30
0.0
 10
4.224675297820896
 20
7.366350282971943
 30
0.0
 10
4.224675297820896
 20
7.382866148825997
 30
0.0
 10
4.224675297820896
 20
7.382866148825997
 30
0.0
 10
4.224675297820896
 20
7.382866148825997
 30
0.0
 10
4.223025197812086
 20
7.391126559380659
 30
0.0
 10
4.213114687248586
 20
7.396081814662415
 30
0.0
 10
4.213114687248586
 20
7.396081814662415
 30
0.0
 10
3.980217689006584
 20
7.481971254460909
 30
0.0
 10
3.980217689006584
 20
7.481971254460909
 30
0.0
 10
3.980217689006584
 20
7.481971254460909
 30
0.0
 10
3.959564184992284
 20
7.476193426802385
 30
0.0
 10
3.959564184992284
 20
7.476193426802385
 30
0.0
 10
3.959564184992284
 20
7.476193426802385
 30
0.0
 10
3.943048319138218
 20
7.483626309724993
 30
0.0
 10
3.932310280942677
 20
7.480321154452073
 30
0.0
 10
3.932310280942677
 20
7.480321154452073
 30
0.0
 10
3.913316787447747
 20
7.477015999179153
 30
0.0
 10
3.910011632174827
 20
7.466282916238886
 30
0.0
 10
3.910011632174827
 20
7.466282916238886
 30
0.0
 10
3.893495766320775
 20
7.461327660957143
 30
0.0
 10
3.893495766320775
 20
7.461327660957143
 30
0.0
 10
3.893495766320775
 20
7.461327660957143
 30
0.0
 10
3.879457528107587
 20
7.469583116256532
 30
0.0
 10
3.866246817526454
 20
7.467105488615655
 30
0.0
 10
3.866246817526454
 20
7.467105488615655
 30
0.0
 10
3.84724836877625
 20
7.463805288598021
 30
0.0
 10
3.841848131570196
 20
7.451455801384857
 30
0.0
 10
3.841848131570196
 20
7.451455801384857
 30
0.0
 10
3.730799869655256
 20
7.42911354637052
 30
0.0
 10
3.730799869655256
 20
7.42911354637052
 30
0.0
 10
3.730799869655256
 20
7.42911354637052
 30
0.0
 10
3.730799869655256
 20
7.412597680516468
 30
0.0
 10
3.730799869655256
 20
7.412597680516468
 30
0.0
 10
3.730799869655256
 20
7.412597680516468
 30
0.0
 10
3.957091512606679
 20
7.33000844073562
 30
0.0
 10
3.957091512606679
 20
7.33000844073562
 30
0.0
 10
3.957091512606679
 20
7.33000844073562
 30
0.0
 10
3.962046767888435
 20
7.326708240717986
 30
0.0
 10
3.962046767888435
 20
7.321752985436255
 30
0.0
 10
3.962046767888435
 20
7.321752985436255
 30
0.0
 10
3.962046767888435
 20
7.306887219591001
 30
0.0
 10
3.962046767888435
 20
7.306887219591001
 30
0.0
 10
3.962046767888435
 20
7.306887219591001
 30
0.0
 10
4.008294165432959
 20
7.27385053262761
 30
0.0
 10
4.008294165432959
 20
7.27385053262761
 30
0.0
 10
4.008294165432959
 20
7.27385053262761
 30
0.0
 10
4.095838660495537
 20
7.044258689658527
 30
0.0
 10
4.095838660495537
 20
7.044258689658527
 30
0.0
 10
4.095838660495537
 20
7.044258689658527
 30
0.0
 10
4.095838660495537
 20
6.29271494209743
 30
0.0
 10
4.095838660495537
 20
6.29271494209743
 30
0.0
 10
4.095838660495537
 20
6.29271494209743
 30
0.0
 10
4.095838660495537
 20
6.244807534033511
 30
0.0
 10
4.115659681622522
 20
6.203520347026015
 30
0.0
 10
4.115659681622522
 20
6.203520347026015
 30
0.0
 10
4.241191163674961
 20
5.964013038238161
 30
0.0
 10
4.241191163674961
 20
5.964013038238161
 30
0.0
 10
4.241191163674961
 20
5.964013038238161
 30
0.0
 10
4.252746818991985
 20
5.950802327657028
 30
0.0
 10
4.259357129537837
 20
5.949147272392931
 30
0.0
 10
4.259357129537837
 20
5.949147272392931
 30
0.0
 10
4.280843116439478
 20
5.853342366775678
 30
0.0
 10
4.27753300591126
 20
5.808745069239976
 30
0.0
 10
4.27753300591126
 20
5.808745069239976
 30
0.0
 10
4.274222895383066
 20
5.797179503412394
 30
0.0
 10
4.289088661228308
 20
5.788924048112979
 30
0.0
 10
4.289088661228308
 20
5.788924048112979
 30
0.0
 10
4.47078796189933
 20
5.681563487178715
 30
0.0
 10
4.47078796189933
 20
5.681563487178715
 30
0.0
 10
4.47078796189933
 20
5.681563487178715
 30
0.0
 10
4.47739827244517
 20
5.674953176632875
 30
0.0
 10
4.500519493589788
 20
5.68651874246047
 30
0.0
 10
4.500519493589788
 20
5.68651874246047
 30
0.0
 10
4.485653727744547
 20
5.694774197759847
 30
0.0
 10
4.485653727744547
 20
5.694774197759847
 30
0.0
 10
4.485653727744547
 20
5.694774197759847
 30
0.0
 10
4.483998672480437
 20
5.709639963605089
 30
0.0
 10
4.483998672480437
 20
5.709639963605089
 30
0.0
 10
4.483998672480437
 20
5.709639963605089
 30
0.0
 10
4.488953927762193
 20
5.711295018869186
 30
0.0
 10
4.488953927762193
 20
5.711295018869186
 30
0.0
 10
4.488953927762193
 20
5.711295018869186
 30
0.0
 10
4.345251524591605
 20
6.279494321005725
 30
0.0
 10
4.345251524591605
 20
6.279494321005725
 30
0.0
 10
4.345251524591605
 20
6.279494321005725
 30
0.0
 10
4.345251524591605
 20
7.034348179095041
 30
0.0
 10
4.345251524591605
 20
7.034348179095041
 30
0.0
 10
4.345251524591605
 20
7.034348179095041
 30
0.0
 10
4.308909682355281
 20
7.239163745655408
 30
0.0
 10
4.308909682355281
 20
7.239163745655408
 30
0.0
 10
4.308909682355281
 20
7.239163745655408
 30
0.0
 10
4.274222895383066
 20
7.306887219591001
 30
0.0
 10
4.274222895383066
 20
7.306887219591001
 30
0.0
 10
4.274222895383066
 20
7.306887219591001
 30
0.0
 10
4.262657329555471
 20
7.323408040700352
 30
0.0
 10
4.254401874256094
 20
7.326708240717986
 30
0.0
 10
4.254401874256094
 20
7.326708240717986
 30
0.0
 10
4.224675297820896
 20
7.366350282971943
 30
0.0
 10
4.224675297820896
 20
7.366350282971943
 30
0.0
  0
HATCH
  5
1D5
330
1D0
100
AcDbEntity
  8
BA
 62
   254
420
 13358815
100
AcDbHatch
 10
0.0
 20
0.0
 30
0.0
210
0.0
220
0.0
230
1.0
  2
SOLID
 70
     1
 71
     0
 91
        1
 92
        1
 93
        1
 72
     4
 94
        3
 73
     0
 74
     1
 95
      104
 96
      100
 40
0.0
 40
0.0
 40
0.0
 40
0.0
 40
1.0
 40
1.0
 40
1.0
 40
2.0
 40
2.0
 40
2.0
 40
3.0
 40
3.0
 40
3.0
 40
4.0
 40
4.0
 40
4.0
 40
5.0
 40
5.0
 40
5.0
 40
6.0
 40
6.0
 40
6.0
 40
7.0
 40
7.0
 40
7.0
 40
8.0
 40
8.0
 40
8.0
 40
9.0
 40
9.0
 40
9.0
 40
10.0
 40
10.0
 40
10.0
 40
11.0
 40
11.0
 40
11.0
 40
12.0
 40
12.0
 40
12.0
 40
13.0
 40
13.0
 40
13.0
 40
14.0
 40
14.0
 40
14.0
 40
15.0
 40
15.0
 40
15.0
 40
16.0
 40
16.0
 40
16.0
 40
17.0
 40
17.0
 40
17.0
 40
18.0
 40
18.0
 40
18.0
 40
19.0
 40
19.0
 40
19.0
 40
20.0
 40
20.0
 40
20.0
 40
21.0
 40
21.0
 40
21.0
 40
22.0
 40
22.0
 40
22.0
 40
23.0
 40
23.0
 40
23.0
 40
24.0
 40
24.0
 40
24.0
 40
25.0
 40
25.0
 40
25.0
 40
26.0
 40
26.0
 40
26.0
 40
27.0
 40
27.0
 40
27.0
 40
28.0
 40
28.0
 40
28.0
 40
29.0
 40
29.0
 40
29.0
 40
30.0
 40
30.0
 40
30.0
 40
31.0
 40
31.0
 40
31.0
 40
32.0
 40
32.0
 40
32.0
 40
33.0
 40
33.0
 40
33.0
 40
33.0
 10
4.224675297820896
 20
7.366350282971943
 10
4.224675297820896
 20
7.366350282971943
 10
4.224675297820896
 20
7.382866148825997
 10
4.224675297820896
 20
7.382866148825997
 10
4.224675297820896
 20
7.382866148825997
 10
4.223025197812086
 20
7.391126559380659
 10
4.213114687248586
 20
7.396081814662415
 10
4.213114687248586
 20
7.396081814662415
 10
3.980217689006584
 20
7.481971254460909
 10
3.980217689006584
 20
7.481971254460909
 10
3.980217689006584
 20
7.481971254460909
 10
3.959564184992284
 20
7.476193426802385
 10
3.959564184992284
 20
7.476193426802385
 10
3.959564184992284
 20
7.476193426802385
 10
3.943048319138218
 20
7.483626309724993
 10
3.932310280942677
 20
7.480321154452073
 10
3.932310280942677
 20
7.480321154452073
 10
3.913316787447747
 20
7.477015999179153
 10
3.910011632174827
 20
7.466282916238886
 10
3.910011632174827
 20
7.466282916238886
 10
3.893495766320775
 20
7.461327660957143
 10
3.893495766320775
 20
7.461327660957143
 10
3.893495766320775
 20
7.461327660957143
 10
3.879457528107587
 20
7.469583116256532
 10
3.866246817526454
 20
7.467105488615655
 10
3.866246817526454
 20
7.467105488615655
 10
3.84724836877625
 20
7.463805288598021
 10
3.841848131570196
 20
7.451455801384857
 10
3.841848131570196
 20
7.451455801384857
 10
3.730799869655256
 20
7.42911354637052
 10
3.730799869655256
 20
7.42911354637052
 10
3.730799869655256
 20
7.42911354637052
 10
3.730799869655256
 20
7.412597680516468
 10
3.730799869655256
 20
7.412597680516468
 10
3.730799869655256
 20
7.412597680516468
 10
3.957091512606679
 20
7.33000844073562
 10
3.957091512606679
 20
7.33000844073562
 10
3.957091512606679
 20
7.33000844073562
 10
3.962046767888435
 20
7.326708240717986
 10
3.962046767888435
 20
7.321752985436255
 10
3.962046767888435
 20
7.321752985436255
 10
3.962046767888435
 20
7.306887219591001
 10
3.962046767888435
 20
7.306887219591001
 10
3.962046767888435
 20
7.306887219591001
 10
4.008294165432959
 20
7.27385053262761
 10
4.008294165432959
 20
7.27385053262761
 10
4.008294165432959
 20
7.27385053262761
 10
4.095838660495537
 20
7.044258689658527
 10
4.095838660495537
 20
7.044258689658527
 10
4.095838660495537
 20
7.044258689658527
 10
4.095838660495537
 20
6.29271494209743
 10
4.095838660495537
 20
6.29271494209743
 10
4.095838660495537
 20
6.29271494209743
 10
4.095838660495537
 20
6.244807534033511
 10
4.115659681622522
 20
6.203520347026015
 10
4.115659681622522
 20
6.203520347026015
 10
4.241191163674961
 20
5.964013038238161
 10
4.241191163674961
 20
5.964013038238161
 10
4.241191163674961
 20
5.964013038238161
 10
4.252746818991985
 20
5.950802327657028
 10
4.259357129537837
 20
5.949147272392931
 10
4.259357129537837
 20
5.949147272392931
 10
4.280843116439478
 20
5.853342366775678
 10
4.27753300591126
 20
5.808745069239976
 10
4.27753300591126
 20
5.808745069239976
 10
4.274222895383066
 20
5.797179503412394
 10
4.289088661228308
 20
5.788924048112979
 10
4.289088661228308
 20
5.788924048112979
 10
4.47078796189933
 20
5.681563487178715
 10
4.47078796189933
 20
5.681563487178715
 10
4.47078796189933
 20
5.681563487178715
 10
4.47739827244517
 20
5.674953176632875
 10
4.500519493589788
 20
5.68651874246047
 10
4.500519493589788
 20
5.68651874246047
 10
4.485653727744547
 20
5.694774197759847
 10
4.485653727744547
 20
5.694774197759847
 10
4.485653727744547
 20
5.694774197759847
 10
4.483998672480437
 20
5.709639963605089
 10
4.483998672480437
 20
5.709639963605089
 10
4.483998672480437
 20
5.709639963605089
 10
4.488953927762193
 20
5.711295018869186
 10
4.488953927762193
 20
5.711295018869186
 10
4.488953927762193
 20
5.711295018869186
 10
4.345251524591605
 20
6.279494321005725
 10
4.345251524591605
 20
6.279494321005725
 10
4.345251524591605
 20
6.279494321005725
 10
4.345251524591605
 20
7.034348179095041
 10
4.345251524591605
 20
7.034348179095041
 10
4.345251524591605
 20
7.034348179095041
 10
4.308909682355281
 20
7.239163745655408
 10
4.308909682355281
 20
7.239163745655408
 10
4.308909682355281
 20
7.239163745655408
 10
4.274222895383066
 20
7.306887219591001
 10
4.274222895383066
 20
7.306887219591001
 10
4.274222895383066
 20
7.306887219591001
 10
4.262657329555471
 20
7.323408040700352
 10
4.254401874256094
 20
7.326708240717986
 10
4.254401874256094
 20
7.326708240717986
 10
4.224675297820896
 20
7.366350282971943
 10
4.224675297820896
 20
7.366350282971943
 97
        0
 97
        0
 75
     2
 76
     1
 98
        0
  0
SPLINE
  5
1D6
330
1D0
100
AcDbEntity
  8
BA
370
     0
100
AcDbSpline
210
0.0
220
0.0
230
1.0
 70
    11
 71
     3
 72
    56
 73
    52
 74
     0
 42
0.0000000001
 43
0.0000000001
 12
1.0
 22
0.0
 32
0.0
 13
1.0
 23
0.0
 33
0.0
 40
0.0
 40
0.0
 40
0.0
 40
0.0
 40
1.0
 40
1.0
 40
1.0
 40
2.0
 40
2.0
 40
2.0
 40
3.0
 40
3.0
 40
3.0
 40
4.0
 40
4.0
 40
4.0
 40
5.0
 40
5.0
 40
5.0
 40
6.0
 40
6.0
 40
6.0
 40
7.0
 40
7.0
 40
7.0
 40
8.0
 40
8.0
 40
8.0
 40
9.0
 40
9.0
 40
9.0
 40
10.0
 40
10.0
 40
10.0
 40
11.0
 40
11.0
 40
11.0
 40
12.0
 40
12.0
 40
12.0
 40
13.0
 40
13.0
 40
13.0
 40
14.0
 40
14.0
 40
14.0
 40
15.0
 40
15.0
 40
15.0
 40
16.0
 40
16.0
 40
16.0
 40
17.0
 40
17.0
 40
17.0
 40
17.0
 10
4.617790565087565
 20
7.614113047059188
 30
0.0
 10
4.617790565087565
 20
7.614113047059188
 30
0.0
 10
4.530251025280247
 20
7.597592225949837
 30
0.0
 10
4.530251025280247
 20
7.597592225949837
 30
0.0
 10
4.530251025280247
 20
7.597592225949837
 30
0.0
 10
4.517862887075908
 20
7.605030064127757
 30
0.0
 10
4.502164638343325
 20
7.602547481231593
 30
0.0
 10
4.502164638343325
 20
7.602547481231593
 30
0.0
 10
4.485653727744547
 20
7.599247281213946
 30
0.0
 10
4.481521044839584
 20
7.588514198273692
 30
0.0
 10
4.481521044839584
 20
7.588514198273692
 30
0.0
 10
4.469965389522561
 20
7.585209043000759
 30
0.0
 10
4.469965389522561
 20
7.585209043000759
 30
0.0
 10
4.469965389522561
 20
7.585209043000759
 30
0.0
 10
4.449311885508248
 20
7.590986870659283
 30
0.0
 10
4.437746319680652
 20
7.58933677065046
 30
0.0
 10
4.437746319680652
 20
7.58933677065046
 30
0.0
 10
4.419580353817764
 20
7.584381515368717
 30
0.0
 10
4.412970043271924
 20
7.577771204822865
 30
0.0
 10
4.412970043271924
 20
7.577771204822865
 30
0.0
 10
4.37828325629971
 20
7.571165849532311
 30
0.0
 10
4.37828325629971
 20
7.571165849532311
 30
0.0
 10
4.37828325629971
 20
7.571165849532311
 30
0.0
 10
4.37828325629971
 20
7.556300083687069
 30
0.0
 10
4.37828325629971
 20
7.556300083687069
 30
0.0
 10
4.37828325629971
 20
7.556300083687069
 30
0.0
 10
4.617790565087565
 20
7.478666099187952
 30
0.0
 10
4.617790565087565
 20
7.478666099187952
 30
0.0
 10
4.617790565087565
 20
7.478666099187952
 30
0.0
 10
4.62935613091516
 20
7.475360943915044
 30
0.0
 10
4.62935613091516
 20
7.468755588624465
 30
0.0
 10
4.62935613091516
 20
7.468755588624465
 30
0.0
 10
4.62935613091516
 20
7.458845078060979
 30
0.0
 10
4.62935613091516
 20
7.458845078060979
 30
0.0
 10
4.62935613091516
 20
7.458845078060979
 30
0.0
 10
4.817645921110903
 20
7.394426759398306
 30
0.0
 10
4.817645921110903
 20
7.394426759398306
 30
0.0
 10
4.817645921110903
 20
7.394426759398306
 30
0.0
 10
4.840777052766068
 20
7.458845078060979
 30
0.0
 10
4.840777052766068
 20
7.458845078060979
 30
0.0
 10
4.840777052766068
 20
7.458845078060979
 30
0.0
 10
4.872163639720662
 20
7.495186920297303
 30
0.0
 10
4.872163639720662
 20
7.495186920297303
 30
0.0
 10
4.872163639720662
 20
7.495186920297303
 30
0.0
 10
4.872163639720662
 20
7.526568551996597
 30
0.0
 10
4.872163639720662
 20
7.526568551996597
 30
0.0
 10
4.872163639720662
 20
7.526568551996597
 30
0.0
 10
4.87049867394598
 20
7.539779262577743
 30
0.0
 10
4.853987763347201
 20
7.54308441785065
 30
0.0
 10
4.853987763347201
 20
7.54308441785065
 30
0.0
 10
4.617790565087565
 20
7.614113047059188
 30
0.0
 10
4.617790565087565
 20
7.614113047059188
 30
0.0
  0
HATCH
  5
1D7
330
1D0
100
AcDbEntity
  8
BA
 62
   254
420
 13358815
100
AcDbHatch
 10
0.0
 20
0.0
 30
0.0
210
0.0
220
0.0
230
1.0
  2
SOLID
 70
     1
 71
     0
 91
        1
 92
        1
 93
        1
 72
     4
 94
        3
 73
     0
 74
     1
 95
       56
 96
       52
 40
0.0
 40
0.0
 40
0.0
 40
0.0
 40
1.0
 40
1.0
 40
1.0
 40
2.0
 40
2.0
 40
2.0
 40
3.0
 40
3.0
 40
3.0
 40
4.0
 40
4.0
 40
4.0
 40
5.0
 40
5.0
 40
5.0
 40
6.0
 40
6.0
 40
6.0
 40
7.0
 40
7.0
 40
7.0
 40
8.0
 40
8.0
 40
8.0
 40
9.0
 40
9.0
 40
9.0
 40
10.0
 40
10.0
 40
10.0
 40
11.0
 40
11.0
 40
11.0
 40
12.0
 40
12.0
 40
12.0
 40
13.0
 40
13.0
 40
13.0
 40
14.0
 40
14.0
 40
14.0
 40
15.0
 40
15.0
 40
15.0
 40
16.0
 40
16.0
 40
16.0
 40
17.0
 40
17.0
 40
17.0
 40
17.0
 10
4.617790565087565
 20
7.614113047059188
 10
4.617790565087565
 20
7.614113047059188
 10
4.530251025280247
 20
7.597592225949837
 10
4.530251025280247
 20
7.597592225949837
 10
4.530251025280247
 20
7.597592225949837
 10
4.517862887075908
 20
7.605030064127757
 10
4.502164638343325
 20
7.602547481231593
 10
4.502164638343325
 20
7.602547481231593
 10
4.485653727744547
 20
7.599247281213946
 10
4.481521044839584
 20
7.588514198273692
 10
4.481521044839584
 20
7.588514198273692
 10
4.469965389522561
 20
7.585209043000759
 10
4.469965389522561
 20
7.585209043000759
 10
4.469965389522561
 20
7.585209043000759
 10
4.449311885508248
 20
7.590986870659283
 10
4.437746319680652
 20
7.58933677065046
 10
4.437746319680652
 20
7.58933677065046
 10
4.419580353817764
 20
7.584381515368717
 10
4.412970043271924
 20
7.577771204822865
 10
4.412970043271924
 20
7.577771204822865
 10
4.37828325629971
 20
7.571165849532311
 10
4.37828325629971
 20
7.571165849532311
 10
4.37828325629971
 20
7.571165849532311
 10
4.37828325629971
 20
7.556300083687069
 10
4.37828325629971
 20
7.556300083687069
 10
4.37828325629971
 20
7.556300083687069
 10
4.617790565087565
 20
7.478666099187952
 10
4.617790565087565
 20
7.478666099187952
 10
4.617790565087565
 20
7.478666099187952
 10
4.62935613091516
 20
7.475360943915044
 10
4.62935613091516
 20
7.468755588624465
 10
4.62935613091516
 20
7.468755588624465
 10
4.62935613091516
 20
7.458845078060979
 10
4.62935613091516
 20
7.458845078060979
 10
4.62935613091516
 20
7.458845078060979
 10
4.817645921110903
 20
7.394426759398306
 10
4.817645921110903
 20
7.394426759398306
 10
4.817645921110903
 20
7.394426759398306
 10
4.840777052766068
 20
7.458845078060979
 10
4.840777052766068
 20
7.458845078060979
 10
4.840777052766068
 20
7.458845078060979
 10
4.872163639720662
 20
7.495186920297303
 10
4.872163639720662
 20
7.495186920297303
 10
4.872163639720662
 20
7.495186920297303
 10
4.872163639720662
 20
7.526568551996597
 10
4.872163639720662
 20
7.526568551996597
 10
4.872163639720662
 20
7.526568551996597
 10
4.87049867394598
 20
7.539779262577743
 10
4.853987763347201
 20
7.54308441785065
 10
4.853987763347201
 20
7.54308441785065
 10
4.617790565087565
 20
7.614113047059188
 10
4.617790565087565
 20
7.614113047059188
 97
        0
 97
        0
 75
     2
 76
     1
 98
        0
  0
ENDBLK
  5
1D3
330
1D0
100
AcDbEntity
  8
0
100
AcDbBlockEnd
  0
BLOCK
  5
1F1
330
1EF
100
AcDbEntity
  8
0
100
AcDbBlockBegin
  2
block 3
 70
     0
 10
0.0
 20
0.0
 30
0.0
  3
block 3
  1

  0
POLYLINE
  5
1F3
330
1EF
100
AcDbEntity
  8
BA
 62
   250
420
  2301728
370
    13
100
AcDb2dPolyline
 66
     1
 10
0.0
 20
0.0
 30
0.0
  0
VERTEX
  5
1F4
330
1F3
100
AcDbEntity
  8
BA
 62
   250
420
  2301728
370
    13
100
AcDbVertex
100
AcDb2dVertex
 10
4.254411784766654
 20
6.011910535791508
 30
0.0
  0
VERTEX
  5
1F5
330
1F3
100
AcDbEntity
  8
BA
 62
   250
420
  2301728
370
    13
100
AcDbVertex
100
AcDb2dVertex
 10
4.254411784766654
 20
5.992089514664536
 30
0.0
  0
SEQEND
  5
1F6
330
1F3
100
AcDbEntity
  8
BA
 62
   250
420
  2301728
370
    13
  0
POLYLINE
  5
1F7
330
1EF
100
AcDbEntity
  8
BA
 62
   250
420
  2301728
370
    13
100
AcDb2dPolyline
 66
     1
 10
0.0
 20
0.0
 30
0.0
  0
VERTEX
  5
1F8
330
1F7
100
AcDbEntity
  8
BA
 62
   250
420
  2301728
370
    13
100
AcDbVertex
100
AcDb2dVertex
 10
4.254411784766654
 20
7.252384366747087
 30
0.0
  0
VERTEX
  5
1F9
330
1F7
100
AcDbEntity
  8
BA
 62
   250
420
  2301728
370
    13
100
AcDbVertex
100
AcDb2dVertex
 10
4.254411784766654
 20
6.028431356900847
 30
0.0
  0
SEQEND
  5
1FA
330
1F7
100
AcDbEntity
  8
BA
 62
   250
420
  2301728
370
    13
  0
POLYLINE
  5
1FB
330
1EF
100
AcDbEntity
  8
BA
 62
   250
420
  2301728
370
    13
100
AcDb2dPolyline
 66
     1
 10
0.0
 20
0.0
 30
0.0
  0
VERTEX
  5
1FC
330
1FB
100
AcDbEntity
  8
BA
 62
   250
420
  2301728
370
    13
100
AcDbVertex
100
AcDb2dVertex
 10
4.254411784766654
 20
7.283761043191096
 30
0.0
  0
VERTEX
  5
1FD
330
1FB
100
AcDbEntity
  8
BA
 62
   250
420
  2301728
370
    13
100
AcDbVertex
100
AcDb2dVertex
 10
4.254411784766654
 20
7.267245177337044
 30
0.0
  0
SEQEND
  5
1FE
330
1FB
100
AcDbEntity
  8
BA
 62
   250
420
  2301728
370
    13
  0
ENDBLK
  5
1F2
330
1EF
100
AcDbEntity
  8
0
100
AcDbBlockEnd
  0
BLOCK
  5
201
330
1FF
100
AcDbEntity
  8
0
100
AcDbBlockBegin
  2
block 4
 70
     0
 10
0.0
 20
0.0
 30
0.0
  3
block 4
  1

  0
SPLINE
  5
203
330
1FF
100
AcDbEntity
  8
BA
 62
   250
420
  2301728
370
    25
100
AcDbSpline
210
0.0
220
0.0
230
1.0
 70
    11
 71
     3
 72
   104
 73
   100
 74
     0
 42
0.0000000001
 43
0.0000000001
 12
1.0
 22
0.0
 32
0.0
 13
1.0
 23
0.0
 33
0.0
 40
0.0
 40
0.0
 40
0.0
 40
0.0
 40
1.0
 40
1.0
 40
1.0
 40
2.0
 40
2.0
 40
2.0
 40
3.0
 40
3.0
 40
3.0
 40
4.0
 40
4.0
 40
4.0
 40
5.0
 40
5.0
 40
5.0
 40
6.0
 40
6.0
 40
6.0
 40
7.0
 40
7.0
 40
7.0
 40
8.0
 40
8.0
 40
8.0
 40
9.0
 40
9.0
 40
9.0
 40
10.0
 40
10.0
 40
10.0
 40
11.0
 40
11.0
 40
11.0
 40
12.0
 40
12.0
 40
12.0
 40
13.0
 40
13.0
 40
13.0
 40
14.0
 40
14.0
 40
14.0
 40
15.0
 40
15.0
 40
15.0
 40
16.0
 40
16.0
 40
16.0
 40
17.0
 40
17.0
 40
17.0
 40
18.0
 40
18.0
 40
18.0
 40
19.0
 40
19.0
 40
19.0
 40
20.0
 40
20.0
 40
20.0
 40
21.0
 40
21.0
 40
21.0
 40
22.0
 40
22.0
 40
22.0
 40
23.0
 40
23.0
 40
23.0
 40
24.0
 40
24.0
 40
24.0
 40
25.0
 40
25.0
 40
25.0
 40
26.0
 40
26.0
 40
26.0
 40
27.0
 40
27.0
 40
27.0
 40
28.0
 40
28.0
 40
28.0
 40
29.0
 40
29.0
 40
29.0
 40
30.0
 40
30.0
 40
30.0
 40
31.0
 40
31.0
 40
31.0
 40
32.0
 40
32.0
 40
32.0
 40
33.0
 40
33.0
 40
33.0
 40
33.0
 10
4.224675297820896
 20
7.366350282971943
 30
0.0
 10
4.224675297820896
 20
7.366350282971943
 30
0.0
 10
4.224675297820896
 20
7.382866148825997
 30
0.0
 10
4.224675297820896
 20
7.382866148825997
 30
0.0
 10
4.224675297820896
 20
7.382866148825997
 30
0.0
 10
4.223025197812086
 20
7.391126559380659
 30
0.0
 10
4.213114687248586
 20
7.396081814662415
 30
0.0
 10
4.213114687248586
 20
7.396081814662415
 30
0.0
 10
3.980217689006584
 20
7.481971254460909
 30
0.0
 10
3.980217689006584
 20
7.481971254460909
 30
0.0
 10
3.980217689006584
 20
7.481971254460909
 30
0.0
 10
3.959564184992284
 20
7.476193426802385
 30
0.0
 10
3.959564184992284
 20
7.476193426802385
 30
0.0
 10
3.959564184992284
 20
7.476193426802385
 30
0.0
 10
3.943048319138218
 20
7.483626309724993
 30
0.0
 10
3.932310280942677
 20
7.480321154452073
 30
0.0
 10
3.932310280942677
 20
7.480321154452073
 30
0.0
 10
3.913316787447747
 20
7.477015999179153
 30
0.0
 10
3.910011632174827
 20
7.466282916238886
 30
0.0
 10
3.910011632174827
 20
7.466282916238886
 30
0.0
 10
3.893495766320775
 20
7.461327660957143
 30
0.0
 10
3.893495766320775
 20
7.461327660957143
 30
0.0
 10
3.893495766320775
 20
7.461327660957143
 30
0.0
 10
3.879457528107587
 20
7.469583116256532
 30
0.0
 10
3.866246817526454
 20
7.467105488615655
 30
0.0
 10
3.866246817526454
 20
7.467105488615655
 30
0.0
 10
3.84724836877625
 20
7.463805288598021
 30
0.0
 10
3.841848131570196
 20
7.451455801384857
 30
0.0
 10
3.841848131570196
 20
7.451455801384857
 30
0.0
 10
3.730799869655256
 20
7.42911354637052
 30
0.0
 10
3.730799869655256
 20
7.42911354637052
 30
0.0
 10
3.730799869655256
 20
7.42911354637052
 30
0.0
 10
3.730799869655256
 20
7.412597680516468
 30
0.0
 10
3.730799869655256
 20
7.412597680516468
 30
0.0
 10
3.730799869655256
 20
7.412597680516468
 30
0.0
 10
3.957091512606679
 20
7.33000844073562
 30
0.0
 10
3.957091512606679
 20
7.33000844073562
 30
0.0
 10
3.957091512606679
 20
7.33000844073562
 30
0.0
 10
3.962046767888435
 20
7.326708240717986
 30
0.0
 10
3.962046767888435
 20
7.321752985436255
 30
0.0
 10
3.962046767888435
 20
7.321752985436255
 30
0.0
 10
3.962046767888435
 20
7.306887219591001
 30
0.0
 10
3.962046767888435
 20
7.306887219591001
 30
0.0
 10
3.962046767888435
 20
7.306887219591001
 30
0.0
 10
4.008294165432959
 20
7.27385053262761
 30
0.0
 10
4.008294165432959
 20
7.27385053262761
 30
0.0
 10
4.008294165432959
 20
7.27385053262761
 30
0.0
 10
4.095838660495537
 20
7.044258689658527
 30
0.0
 10
4.095838660495537
 20
7.044258689658527
 30
0.0
 10
4.095838660495537
 20
7.044258689658527
 30
0.0
 10
4.095838660495537
 20
6.29271494209743
 30
0.0
 10
4.095838660495537
 20
6.29271494209743
 30
0.0
 10
4.095838660495537
 20
6.29271494209743
 30
0.0
 10
4.095838660495537
 20
6.244807534033511
 30
0.0
 10
4.115659681622522
 20
6.203520347026015
 30
0.0
 10
4.115659681622522
 20
6.203520347026015
 30
0.0
 10
4.241191163674961
 20
5.964013038238161
 30
0.0
 10
4.241191163674961
 20
5.964013038238161
 30
0.0
 10
4.241191163674961
 20
5.964013038238161
 30
0.0
 10
4.252746818991985
 20
5.950802327657028
 30
0.0
 10
4.259357129537837
 20
5.949147272392931
 30
0.0
 10
4.259357129537837
 20
5.949147272392931
 30
0.0
 10
4.280843116439478
 20
5.853342366775678
 30
0.0
 10
4.27753300591126
 20
5.808745069239976
 30
0.0
 10
4.27753300591126
 20
5.808745069239976
 30
0.0
 10
4.274222895383066
 20
5.797179503412394
 30
0.0
 10
4.289088661228308
 20
5.788924048112979
 30
0.0
 10
4.289088661228308
 20
5.788924048112979
 30
0.0
 10
4.47078796189933
 20
5.681563487178715
 30
0.0
 10
4.47078796189933
 20
5.681563487178715
 30
0.0
 10
4.47078796189933
 20
5.681563487178715
 30
0.0
 10
4.47739827244517
 20
5.674953176632875
 30
0.0
 10
4.500519493589788
 20
5.68651874246047
 30
0.0
 10
4.500519493589788
 20
5.68651874246047
 30
0.0
 10
4.485653727744547
 20
5.694774197759847
 30
0.0
 10
4.485653727744547
 20
5.694774197759847
 30
0.0
 10
4.485653727744547
 20
5.694774197759847
 30
0.0
 10
4.483998672480437
 20
5.709639963605089
 30
0.0
 10
4.483998672480437
 20
5.709639963605089
 30
0.0
 10
4.483998672480437
 20
5.709639963605089
 30
0.0
 10
4.488953927762193
 20
5.711295018869186
 30
0.0
 10
4.488953927762193
 20
5.711295018869186
 30
0.0
 10
4.488953927762193
 20
5.711295018869186
 30
0.0
 10
4.345251524591605
 20
6.279494321005725
 30
0.0
 10
4.345251524591605
 20
6.279494321005725
 30
0.0
 10
4.345251524591605
 20
6.279494321005725
 30
0.0
 10
4.345251524591605
 20
7.034348179095041
 30
0.0
 10
4.345251524591605
 20
7.034348179095041
 30
0.0
 10
4.345251524591605
 20
7.034348179095041
 30
0.0
 10
4.308909682355281
 20
7.239163745655408
 30
0.0
 10
4.308909682355281
 20
7.239163745655408
 30
0.0
 10
4.308909682355281
 20
7.239163745655408
 30
0.0
 10
4.274222895383066
 20
7.306887219591001
 30
0.0
 10
4.274222895383066
 20
7.306887219591001
 30
0.0
 10
4.274222895383066
 20
7.306887219591001
 30
0.0
 10
4.262657329555471
 20
7.323408040700352
 30
0.0
 10
4.254401874256094
 20
7.326708240717986
 30
0.0
 10
4.254401874256094
 20
7.326708240717986
 30
0.0
 10
4.224675297820896
 20
7.366350282971943
 30
0.0
 10
4.224675297820896
 20
7.366350282971943
 30
0.0
  0
SPLINE
  5
204
330
1FF
100
AcDbEntity
  8
BA
 62
   250
420
  2301728
370
    25
100
AcDbSpline
210
0.0
220
0.0
230
1.0
 70
    11
 71
     3
 72
    56
 73
    52
 74
     0
 42
0.0000000001
 43
0.0000000001
 12
1.0
 22
0.0
 32
0.0
 13
1.0
 23
0.0
 33
0.0
 40
0.0
 40
0.0
 40
0.0
 40
0.0
 40
1.0
 40
1.0
 40
1.0
 40
2.0
 40
2.0
 40
2.0
 40
3.0
 40
3.0
 40
3.0
 40
4.0
 40
4.0
 40
4.0
 40
5.0
 40
5.0
 40
5.0
 40
6.0
 40
6.0
 40
6.0
 40
7.0
 40
7.0
 40
7.0
 40
8.0
 40
8.0
 40
8.0
 40
9.0
 40
9.0
 40
9.0
 40
10.0
 40
10.0
 40
10.0
 40
11.0
 40
11.0
 40
11.0
 40
12.0
 40
12.0
 40
12.0
 40
13.0
 40
13.0
 40
13.0
 40
14.0
 40
14.0
 40
14.0
 40
15.0
 40
15.0
 40
15.0
 40
16.0
 40
16.0
 40
16.0
 40
17.0
 40
17.0
 40
17.0
 40
17.0
 10
4.617790565087565
 20
7.614113047059188
 30
0.0
 10
4.617790565087565
 20
7.614113047059188
 30
0.0
 10
4.530251025280247
 20
7.597592225949837
 30
0.0
 10
4.530251025280247
 20
7.597592225949837
 30
0.0
 10
4.530251025280247
 20
7.597592225949837
 30
0.0
 10
4.517862887075908
 20
7.605030064127757
 30
0.0
 10
4.502164638343325
 20
7.602547481231593
 30
0.0
 10
4.502164638343325
 20
7.602547481231593
 30
0.0
 10
4.485653727744547
 20
7.599247281213946
 30
0.0
 10
4.481521044839584
 20
7.588514198273692
 30
0.0
 10
4.481521044839584
 20
7.588514198273692
 30
0.0
 10
4.469965389522561
 20
7.585209043000759
 30
0.0
 10
4.469965389522561
 20
7.585209043000759
 30
0.0
 10
4.469965389522561
 20
7.585209043000759
 30
0.0
 10
4.449311885508248
 20
7.590986870659283
 30
0.0
 10
4.437746319680652
 20
7.58933677065046
 30
0.0
 10
4.437746319680652
 20
7.58933677065046
 30
0.0
 10
4.419580353817764
 20
7.584381515368717
 30
0.0
 10
4.412970043271924
 20
7.577771204822865
 30
0.0
 10
4.412970043271924
 20
7.577771204822865
 30
0.0
 10
4.37828325629971
 20
7.571165849532311
 30
0.0
 10
4.37828325629971
 20
7.571165849532311
 30
0.0
 10
4.37828325629971
 20
7.571165849532311
 30
0.0
 10
4.37828325629971
 20
7.556300083687069
 30
0.0
 10
4.37828325629971
 20
7.556300083687069
 30
0.0
 10
4.37828325629971
 20
7.556300083687069
 30
0.0
 10
4.617790565087565
 20
7.478666099187952
 30
0.0
 10
4.617790565087565
 20
7.478666099187952
 30
0.0
 10
4.617790565087565
 20
7.478666099187952
 30
0.0
 10
4.62935613091516
 20
7.475360943915044
 30
0.0
 10
4.62935613091516
 20
7.468755588624465
 30
0.0
 10
4.62935613091516
 20
7.468755588624465
 30
0.0
 10
4.62935613091516
 20
7.458845078060979
 30
0.0
 10
4.62935613091516
 20
7.458845078060979
 30
0.0
 10
4.62935613091516
 20
7.458845078060979
 30
0.0
 10
4.817645921110903
 20
7.394426759398306
 30
0.0
 10
4.817645921110903
 20
7.394426759398306
 30
0.0
 10
4.817645921110903
 20
7.394426759398306
 30
0.0
 10
4.840777052766068
 20
7.458845078060979
 30
0.0
 10
4.840777052766068
 20
7.458845078060979
 30
0.0
 10
4.840777052766068
 20
7.458845078060979
 30
0.0
 10
4.872163639720662
 20
7.495186920297303
 30
0.0
 10
4.872163639720662
 20
7.495186920297303
 30
0.0
 10
4.872163639720662
 20
7.495186920297303
 30
0.0
 10
4.872163639720662
 20
7.526568551996597
 30
0.0
 10
4.872163639720662
 20
7.526568551996597
 30
0.0
 10
4.872163639720662
 20
7.526568551996597
 30
0.0
 10
4.87049867394598
 20
7.539779262577743
 30
0.0
 10
4.853987763347201
 20
7.54308441785065
 30
0.0
 10
4.853987763347201
 20
7.54308441785065
 30
0.0
 10
4.617790565087565
 20
7.614113047059188
 30
0.0
 10
4.617790565087565
 20
7.614113047059188
 30
0.0
  0
ENDBLK
  5
202
330
1FF
100
AcDbEntity
  8
0
100
AcDbBlockEnd
  0
BLOCK
  5
22F
330
22D
100
AcDbEntity
  8
0
100
AcDbBlockBegin
  2
block 5
 70
     0
 10
0.0
 20
0.0
 30
0.0
  3
block 5
  1

  0
POLYLINE
  5
231
330
22D
100
AcDbEntity
  8
BA
 62
   250
420
  2301728
370
    13
100
AcDb2dPolyline
 66
     1
 10
0.0
 20
0.0
 30
0.0
  0
VERTEX
  5
232
330
231
100
AcDbEntity
  8
BA
 62
   250
420
  2301728
370
    13
100
AcDbVertex
100
AcDb2dVertex
 10
4.716653854264703
 20
7.545600696482741
 30
0.0
  0
VERTEX
  5
233
330
231
100
AcDbEntity
  8
BA
 62
   250
420
  2301728
370
    13
100
AcDbVertex
100
AcDb2dVertex
 10
4.668756356711381
 20
7.560515154266315
 30
0.0
  0
VERTEX
  5
234
330
231
100
AcDbEntity
  8
BA
 62
   250
420
  2301728
370
    13
100
AcDbVertex
100
AcDb2dVertex
 10
4.655777552077425
 20
7.564560494241732
 30
0.0
  0
SEQEND
  5
235
330
231
100
AcDbEntity
  8
BA
 62
   250
420
  2301728
370
    13
  0
POLYLINE
  5
236
330
22D
100
AcDbEntity
  8
BA
 62
   250
420
  2301728
370
    13
100
AcDb2dPolyline
 66
     1
 10
0.0
 20
0.0
 30
0.0
  0
VERTEX
  5
237
330
236
100
AcDbEntity
  8
BA
 62
   250
420
  2301728
370
    13
100
AcDbVertex
100
AcDb2dVertex
 10
4.784420934446795
 20
7.52450716579939
 30
0.0
  0
VERTEX
  5
238
330
236
100
AcDbEntity
  8
BA
 62
   250
420
  2301728
370
    13
100
AcDbVertex
100
AcDb2dVertex
 10
4.73360974678778
 20
7.540326322760834
 30
0.0
  0
SEQEND
  5
239
330
236
100
AcDbEntity
  8
BA
 62
   250
420
  2301728
370
    13
  0
SPLINE
  5
23A
330
22D
100
AcDbEntity
  8
BA
 62
   250
420
  2301728
370
    13
100
AcDbSpline
210
0.0
220
0.0
230
1.0
 70
     8
 71
     3
 72
     8
 73
     4
 74
     0
 42
0.0000000001
 43
0.0000000001
 12
1.0
 22
0.0
 32
0.0
 13
1.0
 23
0.0
 33
0.0
 40
0.0
 40
0.0
 40
0.0
 40
0.0
 40
1.0
 40
1.0
 40
1.0
 40
1.0
 10
4.797012238117708
 20
7.511702786151368
 30
0.0
 10
4.797012238117708
 20
7.519958241450745
 30
0.0
 10
4.793712038100062
 20
7.521613296714854
 30
0.0
 10
4.793712038100062
 20
7.521613296714854
 30
0.0
  0
POLYLINE
  5
23B
330
22D
100
AcDbEntity
  8
BA
 62
   250
420
  2301728
370
    13
100
AcDb2dPolyline
 66
     1
 10
0.0
 20
0.0
 30
0.0
  0
VERTEX
  5
23C
330
23B
100
AcDbEntity
  8
BA
 62
   250
420
  2301728
370
    13
100
AcDbVertex
100
AcDb2dVertex
 10
4.797012238117708
 20
7.483626309724993
 30
0.0
  0
VERTEX
  5
23D
330
23B
100
AcDbEntity
  8
BA
 62
   250
420
  2301728
370
    13
100
AcDbVertex
100
AcDb2dVertex
 10
4.797012238117708
 20
7.500142175579046
 30
0.0
  0
SEQEND
  5
23E
330
23B
100
AcDbEntity
  8
BA
 62
   250
420
  2301728
370
    13
  0
SPLINE
  5
23F
330
22D
100
AcDbEntity
  8
BA
 62
   250
420
  2301728
370
    18
100
AcDbSpline
210
0.0
220
0.0
230
1.0
 70
     8
 71
     3
 72
    26
 73
    22
 74
     0
 42
0.0000000001
 43
0.0000000001
 12
1.0
 22
0.0
 32
0.0
 13
1.0
 23
0.0
 33
0.0
 40
0.0
 40
0.0
 40
0.0
 40
0.0
 40
1.0
 40
1.0
 40
1.0
 40
2.0
 40
2.0
 40
2.0
 40
3.0
 40
3.0
 40
3.0
 40
4.0
 40
4.0
 40
4.0
 40
5.0
 40
5.0
 40
5.0
 40
6.0
 40
6.0
 40
6.0
 40
7.0
 40
7.0
 40
7.0
 40
7.0
 10
4.655777552077425
 20
7.564560494241732
 30
0.0
 10
4.655777552077425
 20
7.564560494241732
 30
0.0
 10
4.65165477968301
 20
7.568693177146706
 30
0.0
 10
4.654132407323888
 20
7.574471004805218
 30
0.0
 10
4.654132407323888
 20
7.574471004805218
 30
0.0
 10
4.662387862623265
 20
7.587681715386351
 30
0.0
 10
4.705330104894882
 20
7.574471004805218
 30
0.0
 10
4.705330104894882
 20
7.574471004805218
 30
0.0
 10
4.813533059227034
 20
7.541434317841826
 30
0.0
 10
4.813533059227034
 20
7.541434317841826
 30
0.0
 10
4.828398825072276
 20
7.538129162568907
 30
0.0
 10
4.831699025089923
 20
7.518313096697208
 30
0.0
 10
4.831699025089923
 20
7.518313096697208
 30
0.0
 10
4.831699025089923
 20
7.518313096697208
 30
0.0
 10
4.831699025089923
 20
7.49023166501556
 30
0.0
 10
4.831699025089923
 20
7.49023166501556
 30
0.0
 10
4.831699025089923
 20
7.49023166501556
 30
0.0
 10
4.829278878410327
 20
7.469917100462516
 30
0.0
 10
4.817655831621449
 20
7.468755588624465
 30
0.0
 10
4.813523148716487
 20
7.468344302436094
 30
0.0
 10
4.810174387197068
 20
7.469065787605132
 30
0.0
 10
4.807464853609013
 20
7.470381903407946
 30
0.0
  0
ENDBLK
  5
230
330
22D
100
AcDbEntity
  8
0
100
AcDbBlockEnd
  0
BLOCK
  5
242
330
240
100
AcDbEntity
  8
0
100
AcDbBlockBegin
  2
block 6
 70
     0
 10
0.0
 20
0.0
 30
0.0
  3
block 6
  1

  0
POLYLINE
  5
244
330
240
100
AcDbEntity
  8
BA
 62
   250
420
  2301728
370
    13
100
AcDb2dPolyline
 66
     1
 10
0.0
 20
0.0
 30
0.0
  0
VERTEX
  5
245
330
244
100
AcDbEntity
  8
BA
 62
   250
420
  2301728
370
    13
100
AcDbVertex
100
AcDb2dVertex
 10
3.975920491626261
 20
7.441961532265029
 30
0.0
  0
VERTEX
  5
246
330
244
100
AcDbEntity
  8
BA
 62
   250
420
  2301728
370
    13
100
AcDbVertex
100
AcDb2dVertex
 10
3.909189059798059
 20
7.466282916238886
 30
0.0
  0
SEQEND
  5
247
330
244
100
AcDbEntity
  8
BA
 62
   250
420
  2301728
370
    13
  0
POLYLINE
  5
248
330
240
100
AcDbEntity
  8
BA
 62
   250
420
  2301728
370
    13
100
AcDb2dPolyline
 66
     1
 10
0.0
 20
0.0
 30
0.0
  0
VERTEX
  5
249
330
248
100
AcDbEntity
  8
BA
 62
   250
420
  2301728
370
    13
100
AcDbVertex
100
AcDb2dVertex
 10
4.077043377211895
 20
7.40529066107802
 30
0.0
  0
VERTEX
  5
24A
330
248
100
AcDbEntity
  8
BA
 62
   250
420
  2301728
370
    13
100
AcDbVertex
100
AcDb2dVertex
 10
3.987756614392234
 20
7.437659379629419
 30
0.0
  0
SEQEND
  5
24B
330
248
100
AcDbEntity
  8
BA
 62
   250
420
  2301728
370
    13
  0
POLYLINE
  5
24C
330
240
100
AcDbEntity
  8
BA
 62
   250
420
  2301728
370
    13
100
AcDb2dPolyline
 66
     1
 10
0.0
 20
0.0
 30
0.0
  0
VERTEX
  5
24D
330
24C
100
AcDbEntity
  8
BA
 62
   250
420
  2301728
370
    13
100
AcDbVertex
100
AcDb2dVertex
 10
4.146460557402785
 20
7.379159617875252
 30
0.0
  0
VERTEX
  5
24E
330
24C
100
AcDbEntity
  8
BA
 62
   250
420
  2301728
370
    13
100
AcDbVertex
100
AcDb2dVertex
 10
4.094411546974394
 20
7.398752697259283
 30
0.0
  0
SEQEND
  5
24F
330
24C
100
AcDbEntity
  8
BA
 62
   250
420
  2301728
370
    13
  0
SPLINE
  5
250
330
240
100
AcDbEntity
  8
BA
 62
   250
420
  2301728
370
    13
100
AcDbSpline
210
0.0
220
0.0
230
1.0
 70
     8
 71
     3
 72
     8
 73
     4
 74
     0
 42
0.0000000001
 43
0.0000000001
 12
1.0
 22
0.0
 32
0.0
 13
1.0
 23
0.0
 33
0.0
 40
0.0
 40
0.0
 40
0.0
 40
0.0
 40
1.0
 40
1.0
 40
1.0
 40
1.0
 10
4.159148984077218
 20
7.365044077679676
 30
0.0
 10
4.159148984077218
 20
7.373667212920964
 30
0.0
 10
4.155698144299018
 20
7.375399570167461
 30
0.0
 10
4.155698144299018
 20
7.375399570167461
 30
0.0
  0
POLYLINE
  5
251
330
240
100
AcDbEntity
  8
BA
 62
   250
420
  2301728
370
    13
100
AcDb2dPolyline
 66
     1
 10
0.0
 20
0.0
 30
0.0
  0
VERTEX
  5
252
330
251
100
AcDbEntity
  8
BA
 62
   250
420
  2301728
370
    13
100
AcDbVertex
100
AcDb2dVertex
 10
4.161655352198724
 20
7.293594251772194
 30
0.0
  0
VERTEX
  5
253
330
251
100
AcDbEntity
  8
BA
 62
   250
420
  2301728
370
    13
100
AcDbVertex
100
AcDb2dVertex
 10
4.161655352198724
 20
7.35296514740489
 30
0.0
  0
SEQEND
  5
254
330
251
100
AcDbEntity
  8
BA
 62
   250
420
  2301728
370
    13
  0
SPLINE
  5
255
330
240
100
AcDbEntity
  8
BA
 62
   250
420
  2301728
370
    18
100
AcDbSpline
210
0.0
220
0.0
230
1.0
 70
     8
 71
     3
 72
    20
 73
    16
 74
     0
 42
0.0000000001
 43
0.0000000001
 12
1.0
 22
0.0
 32
0.0
 13
1.0
 23
0.0
 33
0.0
 40
0.0
 40
0.0
 40
0.0
 40
0.0
 40
1.0
 40
1.0
 40
1.0
 40
2.0
 40
2.0
 40
2.0
 40
3.0
 40
3.0
 40
3.0
 40
4.0
 40
4.0
 40
4.0
 40
5.0
 40
5.0
 40
5.0
 40
5.0
 10
3.962041812633149
 20
7.474538371538276
 30
0.0
 10
3.962041812633149
 20
7.474538371538276
 30
0.0
 10
4.177857054867925
 20
7.395056076819085
 30
0.0
 10
4.177857054867925
 20
7.395056076819085
 30
0.0
 10
4.193167802637453
 20
7.390695452171157
 30
0.0
 10
4.195403613820582
 20
7.369814997464939
 30
0.0
 10
4.195403613820582
 20
7.369814997464939
 30
0.0
 10
4.195403613820582
 20
7.369814997464939
 30
0.0
 10
4.195403613820582
 20
7.29661398434089
 30
0.0
 10
4.195403613820582
 20
7.29661398434089
 30
0.0
 10
4.195403613820582
 20
7.29661398434089
 30
0.0
 10
4.196816852626928
 20
7.279376633317825
 30
0.0
 10
4.180726147676056
 20
7.27416965106776
 30
0.0
 10
4.176593464771082
 20
7.272834705294851
 30
0.0
 10
4.172901799586182
 20
7.274493724763184
 30
0.0
 10
4.170070366718189
 20
7.275873267833604
 30
0.0
  0
POLYLINE
  5
256
330
240
100
AcDbEntity
  8
BA
 62
   250
420
  2301728
370
    18
100
AcDb2dPolyline
 66
     1
 10
0.0
 20
0.0
 30
0.0
  0
VERTEX
  5
257
330
256
100
AcDbEntity
  8
BA
 62
   250
420
  2301728
370
    18
100
AcDbVertex
100
AcDb2dVertex
 10
4.014686444746404
 20
7.428769651653965
 30
0.0
  0
VERTEX
  5
320
330
256
100
AcDbEntity
  8
0
100
AcDbVertex
100
AcDb2dVertex
 10
4.014686444746404
 20
7.428769651653965
 30
0.0
  0
SEQEND
  5
258
330
256
100
AcDbEntity
  8
BA
 62
   250
420
  2301728
370
    18
  0
ENDBLK
  5
243
330
240
100
AcDbEntity
  8
0
100
AcDbBlockEnd
  0
BLOCK
  5
25B
330
259
100
AcDbEntity
  8
0
100
AcDbBlockBegin
  2
block 7
 70
     0
 10
0.0
 20
0.0
 30
0.0
  3
block 7
  1

  0
POLYLINE
  5
25D
330
259
100
AcDbEntity
  8
BA
 62
   250
420
  2301728
370
    13
100
AcDb2dPolyline
 66
     1
 10
0.0
 20
0.0
 30
0.0
  0
VERTEX
  5
25E
330
25D
100
AcDbEntity
  8
BA
 62
   250
420
  2301728
370
    13
100
AcDbVertex
100
AcDb2dVertex
 10
3.907543915044521
 20
7.428290973993752
 30
0.0
  0
VERTEX
  5
25F
330
25D
100
AcDbEntity
  8
BA
 62
   250
420
  2301728
370
    13
100
AcDbVertex
100
AcDb2dVertex
 10
3.841470541117739
 20
7.451412195138371
 30
0.0
  0
SEQEND
  5
260
330
25D
100
AcDbEntity
  8
BA
 62
   250
420
  2301728
370
    13
  0
POLYLINE
  5
261
330
259
100
AcDbEntity
  8
BA
 62
   250
420
  2301728
370
    13
100
AcDb2dPolyline
 66
     1
 10
0.0
 20
0.0
 30
0.0
  0
VERTEX
  5
262
330
261
100
AcDbEntity
  8
BA
 62
   250
420
  2301728
370
    13
100
AcDbVertex
100
AcDb2dVertex
 10
4.020086681952446
 20
7.387201997197533
 30
0.0
  0
VERTEX
  5
263
330
261
100
AcDbEntity
  8
BA
 62
   250
420
  2301728
370
    13
100
AcDbVertex
100
AcDb2dVertex
 10
3.921514761785854
 20
7.423151383215528
 30
0.0
  0
SEQEND
  5
264
330
261
100
AcDbEntity
  8
BA
 62
   250
420
  2301728
370
    13
  0
POLYLINE
  5
265
330
259
100
AcDbEntity
  8
BA
 62
   250
420
  2301728
370
    13
100
AcDb2dPolyline
 66
     1
 10
0.0
 20
0.0
 30
0.0
  0
VERTEX
  5
266
330
265
100
AcDbEntity
  8
BA
 62
   250
420
  2301728
370
    13
100
AcDbVertex
100
AcDb2dVertex
 10
4.087848806879252
 20
7.361893526371532
 30
0.0
  0
VERTEX
  5
267
330
265
100
AcDbEntity
  8
BA
 62
   250
420
  2301728
370
    13
100
AcDbVertex
100
AcDb2dVertex
 10
4.035799796450862
 20
7.381491686924922
 30
0.0
  0
SEQEND
  5
268
330
265
100
AcDbEntity
  8
BA
 62
   250
420
  2301728
370
    13
  0
SPLINE
  5
269
330
259
100
AcDbEntity
  8
BA
 62
   250
420
  2301728
370
    13
100
AcDbSpline
210
0.0
220
0.0
230
1.0
 70
     8
 71
     3
 72
     8
 73
     4
 74
     0
 42
0.0000000001
 43
0.0000000001
 12
1.0
 22
0.0
 32
0.0
 13
1.0
 23
0.0
 33
0.0
 40
0.0
 40
0.0
 40
0.0
 40
0.0
 40
1.0
 40
1.0
 40
1.0
 40
1.0
 10
4.102313197046669
 20
7.347947455906604
 30
0.0
 10
4.102313197046669
 20
7.356570591147892
 30
0.0
 10
4.097092340081821
 20
7.358138433919041
 30
0.0
 10
4.097092340081821
 20
7.358138433919041
 30
0.0
  0
POLYLINE
  5
26A
330
259
100
AcDbEntity
  8
BA
 62
   250
420
  2301728
370
    13
100
AcDb2dPolyline
 66
     1
 10
0.0
 20
0.0
 30
0.0
  0
VERTEX
  5
26B
330
26A
100
AcDbEntity
  8
BA
 62
   250
420
  2301728
370
    13
100
AcDbVertex
100
AcDb2dVertex
 10
4.103885995073091
 20
7.281883992490394
 30
0.0
  0
VERTEX
  5
26C
330
26A
100
AcDbEntity
  8
BA
 62
   250
420
  2301728
370
    13
100
AcDbVertex
100
AcDb2dVertex
 10
4.103885995073091
 20
7.334866573013843
 30
0.0
  0
SEQEND
  5
26D
330
26A
100
AcDbEntity
  8
BA
 62
   250
420
  2301728
370
    13
  0
POLYLINE
  5
26E
330
259
100
AcDbEntity
  8
BA
 62
   250
420
  2301728
370
    13
100
AcDb2dPolyline
 66
     1
 10
0.0
 20
0.0
 30
0.0
  0
VERTEX
  5
26F
330
26E
100
AcDbEntity
  8
BA
 62
   250
420
  2301728
370
    13
100
AcDbVertex
100
AcDb2dVertex
 10
4.103885995073091
 20
7.213318125156875
 30
0.0
  0
VERTEX
  5
270
330
26E
100
AcDbEntity
  8
BA
 62
   250
420
  2301728
370
    13
100
AcDbVertex
100
AcDb2dVertex
 10
4.103885995073091
 20
7.268503812178614
 30
0.0
  0
SEQEND
  5
271
330
26E
100
AcDbEntity
  8
BA
 62
   250
420
  2301728
370
    13
  0
POLYLINE
  5
272
330
259
100
AcDbEntity
  8
BA
 62
   250
420
  2301728
370
    13
100
AcDb2dPolyline
 66
     1
 10
0.0
 20
0.0
 30
0.0
  0
VERTEX
  5
273
330
272
100
AcDbEntity
  8
BA
 62
   250
420
  2301728
370
    13
100
AcDbVertex
100
AcDb2dVertex
 10
4.103885995073091
 20
7.136380849550392
 30
0.0
  0
VERTEX
  5
274
330
272
100
AcDbEntity
  8
BA
 62
   250
420
  2301728
370
    13
100
AcDbVertex
100
AcDb2dVertex
 10
4.103885995073091
 20
7.19742166621303
 30
0.0
  0
SEQEND
  5
275
330
272
100
AcDbEntity
  8
BA
 62
   250
420
  2301728
370
    13
  0
SPLINE
  5
276
330
259
100
AcDbEntity
  8
BA
 62
   250
420
  2301728
370
    18
100
AcDbSpline
210
0.0
220
0.0
230
1.0
 70
     8
 71
     3
 72
    20
 73
    16
 74
     0
 42
0.0000000001
 43
0.0000000001
 12
1.0
 22
0.0
 32
0.0
 13
1.0
 23
0.0
 33
0.0
 40
0.0
 40
0.0
 40
0.0
 40
0.0
 40
1.0
 40
1.0
 40
1.0
 40
2.0
 40
2.0
 40
2.0
 40
3.0
 40
3.0
 40
3.0
 40
4.0
 40
4.0
 40
4.0
 40
5.0
 40
5.0
 40
5.0
 40
5.0
 10
3.886890411030208
 20
7.462150233333912
 30
0.0
 10
3.886890411030208
 20
7.462150233333912
 30
0.0
 10
4.119250259599665
 20
7.377799895825951
 30
0.0
 10
4.119250259599665
 20
7.377799895825951
 30
0.0
 10
4.134547132654411
 20
7.3734303517185
 30
0.0
 10
4.136781952786476
 20
7.352558816471792
 30
0.0
 10
4.136781952786476
 20
7.352558816471792
 30
0.0
 10
4.136781952786476
 20
7.352558816471792
 30
0.0
 10
4.136781952786476
 20
7.144723517342729
 30
0.0
 10
4.136781952786476
 20
7.144723517342729
 30
0.0
 10
4.136781952786476
 20
7.144723517342729
 30
0.0
 10
4.139114961404579
 20
7.129688281766865
 30
0.0
 10
4.122110432948299
 20
7.122280175120661
 30
0.0
 10
4.118137309263387
 20
7.120547937196256
 30
0.0
 10
4.114295004317922
 20
7.122604248816085
 30
0.0
 10
4.111464636233929
 20
7.123973881375958
 30
0.0
  0
ENDBLK
  5
25C
330
259
100
AcDbEntity
  8
0
100
AcDbBlockEnd
  0
BLOCK
  5
279
330
277
100
AcDbEntity
  8
0
100
AcDbBlockBegin
  2
block 8
 70
     0
 10
0.0
 20
0.0
 30
0.0
  3
block 8
  1

  0
POLYLINE
  5
27B
330
277
100
AcDbEntity
  8
BA
 62
   250
420
  2301728
370
    13
100
AcDb2dPolyline
 66
     1
 10
0.0
 20
0.0
 30
0.0
  0
VERTEX
  5
27C
330
27B
100
AcDbEntity
  8
BA
 62
   250
420
  2301728
370
    13
100
AcDbVertex
100
AcDb2dVertex
 10
3.943924408272033
 20
7.37574742908824
 30
0.0
  0
VERTEX
  5
27D
330
27B
100
AcDbEntity
  8
BA
 62
   250
420
  2301728
370
    13
100
AcDbVertex
100
AcDb2dVertex
 10
3.894860511886425
 20
7.39421863867647
 30
0.0
  0
VERTEX
  5
27E
330
27B
100
AcDbEntity
  8
BA
 62
   250
420
  2301728
370
    13
100
AcDbVertex
100
AcDb2dVertex
 10
3.881567475806555
 20
7.39922741071526
 30
0.0
  0
SEQEND
  5
27F
330
27B
100
AcDbEntity
  8
BA
 62
   250
420
  2301728
370
    13
  0
POLYLINE
  5
280
330
277
100
AcDbEntity
  8
BA
 62
   250
420
  2301728
370
    13
100
AcDb2dPolyline
 66
     1
 10
0.0
 20
0.0
 30
0.0
  0
VERTEX
  5
281
330
280
100
AcDbEntity
  8
BA
 62
   250
420
  2301728
370
    13
100
AcDbVertex
100
AcDb2dVertex
 10
4.013341588462936
 20
7.349606475374925
 30
0.0
  0
VERTEX
  5
282
330
280
100
AcDbEntity
  8
BA
 62
   250
420
  2301728
370
    13
100
AcDbVertex
100
AcDb2dVertex
 10
3.961291586983495
 20
7.369210456320565
 30
0.0
  0
SEQEND
  5
283
330
280
100
AcDbEntity
  8
BA
 62
   250
420
  2301728
370
    13
  0
SPLINE
  5
284
330
277
100
AcDbEntity
  8
BA
 62
   250
420
  2301728
370
    13
100
AcDbSpline
210
0.0
220
0.0
230
1.0
 70
     8
 71
     3
 72
     8
 73
     4
 74
     0
 42
0.0000000001
 43
0.0000000001
 12
1.0
 22
0.0
 32
0.0
 13
1.0
 23
0.0
 33
0.0
 40
0.0
 40
0.0
 40
0.0
 40
0.0
 40
1.0
 40
1.0
 40
1.0
 40
1.0
 10
4.026030015137368
 20
7.335505800945194
 30
0.0
 10
4.026030015137368
 20
7.344129061156713
 30
0.0
 10
4.022579175359169
 20
7.345856338177706
 30
0.0
 10
4.022579175359169
 20
7.345856338177706
 30
0.0
  0
POLYLINE
  5
285
330
277
100
AcDbEntity
  8
BA
 62
   250
420
  2301728
370
    13
100
AcDb2dPolyline
 66
     1
 10
0.0
 20
0.0
 30
0.0
  0
VERTEX
  5
286
330
285
100
AcDbEntity
  8
BA
 62
   250
420
  2301728
370
    13
100
AcDbVertex
100
AcDb2dVertex
 10
4.026030015137368
 20
7.306165734421988
 30
0.0
  0
VERTEX
  5
287
330
285
100
AcDbEntity
  8
BA
 62
   250
420
  2301728
370
    13
100
AcDbVertex
100
AcDb2dVertex
 10
4.026030015137368
 20
7.323422906466185
 30
0.0
  0
SEQEND
  5
288
330
285
100
AcDbEntity
  8
BA
 62
   250
420
  2301728
370
    13
  0
SPLINE
  5
289
330
277
100
AcDbEntity
  8
BA
 62
   250
420
  2301728
370
    18
100
AcDbSpline
210
0.0
220
0.0
230
1.0
 70
     8
 71
     3
 72
    26
 73
    22
 74
     0
 42
0.0000000001
 43
0.0000000001
 12
1.0
 22
0.0
 32
0.0
 13
1.0
 23
0.0
 33
0.0
 40
0.0
 40
0.0
 40
0.0
 40
0.0
 40
1.0
 40
1.0
 40
1.0
 40
2.0
 40
2.0
 40
2.0
 40
3.0
 40
3.0
 40
3.0
 40
4.0
 40
4.0
 40
4.0
 40
5.0
 40
5.0
 40
5.0
 40
6.0
 40
6.0
 40
6.0
 40
7.0
 40
7.0
 40
7.0
 40
7.0
 10
3.881567475806555
 20
7.39922741071526
 30
0.0
 10
3.881567475806555
 20
7.39922741071526
 30
0.0
 10
3.876152372834667
 20
7.402687169952969
 30
0.0
 10
3.880454525470276
 20
7.409665160440731
 30
0.0
 10
3.880454525470276
 20
7.409665160440731
 30
0.0
 10
3.889871492607704
 20
7.422943262493694
 30
0.0
 10
3.933863257947981
 20
7.406549295919565
 30
0.0
 10
3.933863257947981
 20
7.406549295919565
 30
0.0
 10
4.044737166924278
 20
7.36550392536982
 30
0.0
 10
4.044737166924278
 20
7.36550392536982
 30
0.0
 10
4.06003899562087
 20
7.361148255977165
 30
0.0
 10
4.062279689625446
 20
7.340276720730458
 30
0.0
 10
4.062279689625446
 20
7.340276720730458
 30
0.0
 10
4.062279689625446
 20
7.340276720730458
 30
0.0
 10
4.062279689625446
 20
7.313061467672064
 30
0.0
 10
4.062279689625446
 20
7.313061467672064
 30
0.0
 10
4.062279689625446
 20
7.313061467672064
 30
0.0
 10
4.060503726132475
 20
7.295268137006373
 30
0.0
 10
4.047597268225634
 20
7.290628035960544
 30
0.0
 10
4.043518174094187
 20
7.289161280397151
 30
0.0
 10
4.03978191151734
 20
7.290947154400682
 30
0.0
 10
4.036951397778353
 20
7.292316910621921
 30
0.0
  0
ENDBLK
  5
27A
330
277
100
AcDbEntity
  8
0
100
AcDbBlockEnd
  0
BLOCK
  5
28C
330
28A
100
AcDbEntity
  8
0
100
AcDbBlockBegin
  2
block 9
 70
     0
 10
0.0
 20
0.0
 30
0.0
  3
block 9
  1

  0
SPLINE
  5
28E
330
28A
100
AcDbEntity
  8
BA
 62
   250
420
  2301728
370
    13
100
AcDbSpline
210
0.0
220
0.0
230
1.0
 70
    11
 71
     3
 72
    17
 73
    13
 74
     0
 42
0.0000000001
 43
0.0000000001
 12
1.0
 22
0.0
 32
0.0
 13
1.0
 23
0.0
 33
0.0
 40
0.0
 40
0.0
 40
0.0
 40
0.0
 40
1.0
 40
1.0
 40
1.0
 40
2.0
 40
2.0
 40
2.0
 40
3.0
 40
3.0
 40
3.0
 40
4.0
 40
4.0
 40
4.0
 40
4.0
 10
4.079874810079875
 20
7.259173066483084
 30
0.0
 10
4.078243540041121
 20
7.248982088470648
 30
0.0
 10
4.070578751171322
 20
7.241738496299793
 30
0.0
 10
4.062758367285672
 20
7.242991184835015
 30
0.0
 10
4.054934019195798
 20
7.244239909166013
 30
0.0
 10
4.04992036407993
 20
7.253516147053447
 30
0.0
 10
4.051550570889415
 20
7.263713071372219
 30
0.0
 10
4.053181840928169
 20
7.273904049384655
 30
0.0
 10
4.060846629797967
 20
7.281152596810797
 30
0.0
 10
4.068667013683631
 20
7.279899908275562
 30
0.0
 10
4.076491361773492
 20
7.278651183944564
 30
0.0
 10
4.081505162043666
 20
7.269369990801856
 30
0.0
 10
4.079874810079875
 20
7.259173066483084
 30
0.0
  0
SPLINE
  5
28F
330
28A
100
AcDbEntity
  8
BA
 62
   250
420
  2301728
370
    18
100
AcDbSpline
210
0.0
220
0.0
230
1.0
 70
    11
 71
     3
 72
    23
 73
    19
 74
     0
 42
0.0000000001
 43
0.0000000001
 12
1.0
 22
0.0
 32
0.0
 13
1.0
 23
0.0
 33
0.0
 40
0.0
 40
0.0
 40
0.0
 40
0.0
 40
1.0
 40
1.0
 40
1.0
 40
2.0
 40
2.0
 40
2.0
 40
3.0
 40
3.0
 40
3.0
 40
4.0
 40
4.0
 40
4.0
 40
5.0
 40
5.0
 40
5.0
 40
6.0
 40
6.0
 40
6.0
 40
6.0
 10
4.068667013683631
 20
7.279899908275562
 30
0.0
 10
4.068086330401709
 20
7.279991084972746
 30
0.0
 10
4.064311344290963
 20
7.281336932307276
 30
0.0
 10
4.062816839297991
 20
7.281573916899687
 30
0.0
 10
4.054996455412341
 20
7.282827473096025
 30
0.0
 10
4.047331666542542
 20
7.275578057857299
 30
0.0
 10
4.045700396503788
 20
7.265386956606385
 30
0.0
 10
4.044070117516096
 20
7.255191023338675
 30
0.0
 10
4.049082853759109
 20
7.245914785451228
 30
0.0
 10
4.056908192900033
 20
7.244666061120243
 30
0.0
 10
4.057488948819064
 20
7.244573893372009
 30
0.0
 10
4.061262871241638
 20
7.243229037088541
 30
0.0
 10
4.062758367285672
 20
7.242991184835015
 30
0.0
 10
4.070578751171322
 20
7.241738496299793
 30
0.0
 10
4.078243540041121
 20
7.248982088470648
 30
0.0
 10
4.079874810079875
 20
7.259173066483084
 30
0.0
 10
4.081505162043666
 20
7.269369990801856
 30
0.0
 10
4.076491361773492
 20
7.278651183944564
 30
0.0
 10
4.068667013683631
 20
7.279899908275562
 30
0.0
  0
ENDBLK
  5
28D
330
28A
100
AcDbEntity
  8
0
100
AcDbBlockEnd
  0
BLOCK
  5
293
330
291
100
AcDbEntity
  8
0
100
AcDbBlockBegin
  2
block 10
 70
     0
 10
0.0
 20
0.0
 30
0.0
  3
block 10
  1

  0
SPLINE
  5
295
330
291
100
AcDbEntity
  8
BA
 62
   250
420
  2301728
370
    13
100
AcDbSpline
210
0.0
220
0.0
230
1.0
 70
    11
 71
     3
 72
    17
 73
    13
 74
     0
 42
0.0000000001
 43
0.0000000001
 12
1.0
 22
0.0
 32
0.0
 13
1.0
 23
0.0
 33
0.0
 40
0.0
 40
0.0
 40
0.0
 40
0.0
 40
1.0
 40
1.0
 40
1.0
 40
2.0
 40
2.0
 40
2.0
 40
3.0
 40
3.0
 40
3.0
 40
4.0
 40
4.0
 40
4.0
 40
4.0
 10
4.345531992040529
 20
5.877527976754815
 30
0.0
 10
4.335795906462964
 20
5.874101913253033
 30
0.0
 10
4.325595017939981
 20
5.877838175735456
 30
0.0
 10
4.32274971035718
 20
5.885909295538365
 30
0.0
 10
4.319894492263858
 20
5.893971495881765
 30
0.0
 10
4.325469154455833
 20
5.903282420556163
 30
0.0
 10
4.335196320573888
 20
5.906737224538587
 30
0.0
 10
4.344942316662026
 20
5.910173198550953
 30
0.0
 10
4.355142214133947
 20
5.906428016609008
 30
0.0
 10
4.357988592728463
 20
5.898365816265608
 30
0.0
 10
4.360842819842825
 20
5.890293705411649
 30
0.0
 10
4.355268077618121
 20
5.880963950767182
 30
0.0
 10
4.345531992040529
 20
5.877527976754815
 30
0.0
  0
SPLINE
  5
296
330
291
100
AcDbEntity
  8
BA
 62
   250
420
  2301728
370
    18
100
AcDbSpline
210
0.0
220
0.0
230
1.0
 70
    11
 71
     3
 72
    23
 73
    19
 74
     0
 42
0.0000000001
 43
0.0000000001
 12
1.0
 22
0.0
 32
0.0
 13
1.0
 23
0.0
 33
0.0
 40
0.0
 40
0.0
 40
0.0
 40
0.0
 40
1.0
 40
1.0
 40
1.0
 40
2.0
 40
2.0
 40
2.0
 40
3.0
 40
3.0
 40
3.0
 40
4.0
 40
4.0
 40
4.0
 40
5.0
 40
5.0
 40
5.0
 40
6.0
 40
6.0
 40
6.0
 40
6.0
 10
4.360320455903396
 20
5.893226225487385
 30
0.0
 10
4.359865563468525
 20
5.894523511320143
 30
0.0
 10
4.358181767723787
 20
5.897823711337789
 30
0.0
 10
4.357988592728463
 20
5.898365816265608
 30
0.0
 10
4.355142214133947
 20
5.906428016609008
 30
0.0
 10
4.344942316662026
 20
5.910173198550953
 30
0.0
 10
4.335196320573888
 20
5.906737224538587
 30
0.0
 10
4.325469154455833
 20
5.903282420556163
 30
0.0
 10
4.319894492263858
 20
5.893971495881765
 30
0.0
 10
4.32274971035718
 20
5.885909295538365
 30
0.0
 10
4.323204602792076
 20
5.884613000756657
 30
0.0
 10
4.324888398536788
 20
5.881312800739011
 30
0.0
 10
4.325081653492791
 20
5.880770695811192
 30
0.0
 10
4.327927952126629
 20
5.872698584957233
 30
0.0
 10
4.338128840649611
 20
5.868963313525847
 30
0.0
 10
4.347864926227177
 20
5.872389377027654
 30
0.0
 10
4.357601011804769
 20
5.875825351040008
 30
0.0
 10
4.363175673996718
 20
5.885155105684476
 30
0.0
 10
4.360320455903396
 20
5.893226225487385
 30
0.0
  0
ENDBLK
  5
294
330
291
100
AcDbEntity
  8
0
100
AcDbBlockEnd
  0
BLOCK
  5
29D
330
29B
100
AcDbEntity
  8
0
100
AcDbBlockBegin
  2
block 11
 70
     0
 10
0.0
 20
0.0
 30
0.0
  3
block 11
  1

  0
SPLINE
  5
29F
330
29B
100
AcDbEntity
  8
BA
 62
   250
420
  2301728
370
    13
100
AcDbSpline
210
0.0
220
0.0
230
1.0
 70
    11
 71
     3
 72
    17
 73
    13
 74
     0
 42
0.0000000001
 43
0.0000000001
 12
1.0
 22
0.0
 32
0.0
 13
1.0
 23
0.0
 33
0.0
 40
0.0
 40
0.0
 40
0.0
 40
0.0
 40
1.0
 40
1.0
 40
1.0
 40
2.0
 40
2.0
 40
2.0
 40
3.0
 40
3.0
 40
3.0
 40
4.0
 40
4.0
 40
4.0
 40
4.0
 10
4.820472490367592
 20
7.438346178011468
 30
0.0
 10
4.81891347541197
 20
7.428663609190935
 30
0.0
 10
4.811626276994629
 20
7.421782741706705
 30
0.0
 10
4.804203304582567
 20
7.422972994025384
 30
0.0
 10
4.796760511149387
 20
7.424158291088777
 30
0.0
 10
4.791998510823633
 20
7.43297071708183
 30
0.0
 10
4.793557434135285
 20
7.442658241157637
 30
0.0
 10
4.795115366395849
 20
7.452336845773945
 30
0.0
 10
4.802393645353681
 20
7.459227623768735
 30
0.0
 10
4.80982652827629
 20
7.458037371450068
 30
0.0
 10
4.817249500688351
 20
7.45684612808034
 30
0.0
 10
4.822010509963067
 20
7.44802973788305
 30
0.0
 10
4.820472490367592
 20
7.438346178011468
 30
0.0
  0
SPLINE
  5
2A0
330
29B
100
AcDbEntity
  8
BA
 62
   250
420
  2301728
370
    18
100
AcDbSpline
210
0.0
220
0.0
230
1.0
 70
    11
 71
     3
 72
    23
 73
    19
 74
     0
 42
0.0000000001
 43
0.0000000001
 12
1.0
 22
0.0
 32
0.0
 13
1.0
 23
0.0
 33
0.0
 40
0.0
 40
0.0
 40
0.0
 40
0.0
 40
1.0
 40
1.0
 40
1.0
 40
2.0
 40
2.0
 40
2.0
 40
3.0
 40
3.0
 40
3.0
 40
4.0
 40
4.0
 40
4.0
 40
5.0
 40
5.0
 40
5.0
 40
6.0
 40
6.0
 40
6.0
 40
6.0
 10
4.80982652827629
 20
7.458037371450068
 30
0.0
 10
4.809264602327352
 20
7.458124583943029
 30
0.0
 10
4.805683934860755
 20
7.459402048754655
 30
0.0
 10
4.804251866084339
 20
7.459624044191287
 30
0.0
 10
4.796827902621216
 20
7.460814296509953
 30
0.0
 10
4.789540704203899
 20
7.453928473770449
 30
0.0
 10
4.787991691402819
 20
7.444245904949916
 30
0.0
 10
4.786443669652802
 20
7.434562472333103
 30
0.0
 10
4.791204678927493
 20
7.425750910136331
 30
0.0
 10
4.798637561850127
 20
7.424564622021876
 30
0.0
 10
4.799199487799064
 20
7.424477409528915
 30
0.0
 10
4.80278015526566
 20
7.423195116429611
 30
0.0
 10
4.804203304582567
 20
7.422972994025384
 30
0.0
 10
4.811626276994629
 20
7.421782741706705
 30
0.0
 10
4.81891347541197
 20
7.428663609190935
 30
0.0
 10
4.820472490367592
 20
7.438346178011468
 30
0.0
 10
4.822010509963067
 20
7.44802973788305
 30
0.0
 10
4.817249500688351
 20
7.45684612808034
 30
0.0
 10
4.80982652827629
 20
7.458037371450068
 30
0.0
  0
ENDBLK
  5
29E
330
29B
100
AcDbEntity
  8
0
100
AcDbBlockEnd
  0
BLOCK
  5
2DA
330
2D8
100
AcDbEntity
  8
0
100
AcDbBlockBegin
  2
block 12
 70
     0
 10
0.0
 20
0.0
 30
0.0
  3
block 12
  1

  0
SPLINE
  5
2DC
330
2D8
100
AcDbEntity
  8
BA
370
     0
100
AcDbSpline
210
0.0
220
0.0
230
1.0
 70
    11
 71
     3
 72
    17
 73
    13
 74
     0
 42
0.0000000001
 43
0.0000000001
 12
1.0
 22
0.0
 32
0.0
 13
1.0
 23
0.0
 33
0.0
 40
0.0
 40
0.0
 40
0.0
 40
0.0
 40
1.0
 40
1.0
 40
1.0
 40
2.0
 40
2.0
 40
2.0
 40
3.0
 40
3.0
 40
3.0
 40
4.0
 40
4.0
 40
4.0
 40
4.0
 10
3.821721866717881
 20
7.432036155935697
 30
0.0
 10
3.821721866717881
 20
7.428059068046549
 30
0.0
 10
3.812633928531151
 20
7.424836170011316
 30
0.0
 10
3.80142216793067
 20
7.424836170011316
 30
0.0
 10
3.79020941627914
 20
7.424836170011316
 30
0.0
 10
3.781121478092422
 20
7.428059068046549
 30
0.0
 10
3.781121478092422
 20
7.432036155935697
 30
0.0
 10
3.781121478092422
 20
7.436009406911908
 30
0.0
 10
3.79020941627914
 20
7.439232177655842
 30
0.0
 10
3.80142216793067
 20
7.439232177655842
 30
0.0
 10
3.812633928531151
 20
7.439232177655842
 30
0.0
 10
3.821721866717881
 20
7.436009406911908
 30
0.0
 10
3.821721866717881
 20
7.432036155935697
 30
0.0
  0
HATCH
  5
2DD
330
2D8
100
AcDbEntity
  8
BA
 62
   254
420
 13358815
100
AcDbHatch
 10
0.0
 20
0.0
 30
0.0
210
0.0
220
0.0
230
1.0
  2
SOLID
 70
     1
 71
     0
 91
        1
 92
        1
 93
        1
 72
     4
 94
        3
 73
     0
 74
     1
 95
       17
 96
       13
 40
0.0
 40
0.0
 40
0.0
 40
0.0
 40
1.0
 40
1.0
 40
1.0
 40
2.0
 40
2.0
 40
2.0
 40
3.0
 40
3.0
 40
3.0
 40
4.0
 40
4.0
 40
4.0
 40
4.0
 10
3.821721866717881
 20
7.432036155935697
 10
3.821721866717881
 20
7.428059068046549
 10
3.812633928531151
 20
7.424836170011316
 10
3.80142216793067
 20
7.424836170011316
 10
3.79020941627914
 20
7.424836170011316
 10
3.781121478092422
 20
7.428059068046549
 10
3.781121478092422
 20
7.432036155935697
 10
3.781121478092422
 20
7.436009406911908
 10
3.79020941627914
 20
7.439232177655842
 10
3.80142216793067
 20
7.439232177655842
 10
3.812633928531151
 20
7.439232177655842
 10
3.821721866717881
 20
7.436009406911908
 10
3.821721866717881
 20
7.432036155935697
 97
        0
 97
        0
 75
     2
 76
     1
 98
        0
  0
SPLINE
  5
2DE
330
2D8
100
AcDbEntity
  8
BA
 62
   250
420
  2301728
370
    13
100
AcDbSpline
210
0.0
220
0.0
230
1.0
 70
    11
 71
     3
 72
    17
 73
    13
 74
     0
 42
0.0000000001
 43
0.0000000001
 12
1.0
 22
0.0
 32
0.0
 13
1.0
 23
0.0
 33
0.0
 40
0.0
 40
0.0
 40
0.0
 40
0.0
 40
1.0
 40
1.0
 40
1.0
 40
2.0
 40
2.0
 40
2.0
 40
3.0
 40
3.0
 40
3.0
 40
4.0
 40
4.0
 40
4.0
 40
4.0
 10
3.821721866717881
 20
7.432036155935697
 30
0.0
 10
3.821721866717881
 20
7.428059068046549
 30
0.0
 10
3.812633928531151
 20
7.424836170011316
 30
0.0
 10
3.80142216793067
 20
7.424836170011316
 30
0.0
 10
3.79020941627914
 20
7.424836170011316
 30
0.0
 10
3.781121478092422
 20
7.428059068046549
 30
0.0
 10
3.781121478092422
 20
7.432036155935697
 30
0.0
 10
3.781121478092422
 20
7.436009406911908
 30
0.0
 10
3.79020941627914
 20
7.439232177655842
 30
0.0
 10
3.80142216793067
 20
7.439232177655842
 30
0.0
 10
3.812633928531151
 20
7.439232177655842
 30
0.0
 10
3.821721866717881
 20
7.436009406911908
 30
0.0
 10
3.821721866717881
 20
7.432036155935697
 30
0.0
  0
SPLINE
  5
2DF
330
2D8
100
AcDbEntity
  8
BA
 62
   250
420
  2301728
370
    18
100
AcDbSpline
210
0.0
220
0.0
230
1.0
 70
    11
 71
     3
 72
    23
 73
    19
 74
     0
 42
0.0000000001
 43
0.0000000001
 12
1.0
 22
0.0
 32
0.0
 13
1.0
 23
0.0
 33
0.0
 40
0.0
 40
0.0
 40
0.0
 40
0.0
 40
1.0
 40
1.0
 40
1.0
 40
2.0
 40
2.0
 40
2.0
 40
3.0
 40
3.0
 40
3.0
 40
4.0
 40
4.0
 40
4.0
 40
5.0
 40
5.0
 40
5.0
 40
6.0
 40
6.0
 40
6.0
 40
6.0
 10
3.821721866717881
 20
7.432036155935697
 30
0.0
 10
3.821721866717881
 20
7.436009406911908
 30
0.0
 10
3.812633928531151
 20
7.439232177655842
 30
0.0
 10
3.80142216793067
 20
7.439232177655842
 30
0.0
 10
3.79020941627914
 20
7.439232177655842
 30
0.0
 10
3.781121478092422
 20
7.436009406911908
 30
0.0
 10
3.781121478092422
 20
7.432036155935697
 30
0.0
 10
3.781121478092422
 20
7.431165022057156
 30
0.0
 10
3.781121478092422
 20
7.427971982641894
 30
0.0
 10
3.781121478092422
 20
7.427100721675073
 30
0.0
 10
3.781121478092422
 20
7.423127597990186
 30
0.0
 10
3.79020941627914
 20
7.419904826839406
 30
0.0
 10
3.80142216793067
 20
7.419904826839406
 30
0.0
 10
3.812633928531151
 20
7.419904826839406
 30
0.0
 10
3.821721866717881
 20
7.423127597990186
 30
0.0
 10
3.821721866717881
 20
7.427100721675073
 30
0.0
 10
3.821721866717881
 20
7.427971982641894
 30
0.0
 10
3.821721866717881
 20
7.431165022057156
 30
0.0
 10
3.821721866717881
 20
7.432036155935697
 30
0.0
  0
ENDBLK
  5
2DB
330
2D8
100
AcDbEntity
  8
0
100
AcDbBlockEnd
  0
BLOCK
  5
2E2
330
2E0
100
AcDbEntity
  8
0
100
AcDbBlockBegin
  2
block 13
 70
     0
 10
0.0
 20
0.0
 30
0.0
  3
block 13
  1

  0
SPLINE
  5
2E4
330
2E0
100
AcDbEntity
  8
BA
370
     0
100
AcDbSpline
210
0.0
220
0.0
230
1.0
 70
    11
 71
     3
 72
    17
 73
    13
 74
     0
 42
0.0000000001
 43
0.0000000001
 12
1.0
 22
0.0
 32
0.0
 13
1.0
 23
0.0
 33
0.0
 40
0.0
 40
0.0
 40
0.0
 40
0.0
 40
1.0
 40
1.0
 40
1.0
 40
2.0
 40
2.0
 40
2.0
 40
3.0
 40
3.0
 40
3.0
 40
4.0
 40
4.0
 40
4.0
 40
4.0
 10
3.997638384475092
 20
7.441119138867129
 30
0.0
 10
3.997638384475092
 20
7.437142050978006
 30
0.0
 10
3.988540535777803
 20
7.43391915294276
 30
0.0
 10
3.977333730432608
 20
7.43391915294276
 30
0.0
 10
3.966125934036363
 20
7.43391915294276
 30
0.0
 10
3.957028085339074
 20
7.437142050978006
 30
0.0
 10
3.957028085339074
 20
7.441119138867129
 30
0.0
 10
3.957028085339074
 20
7.445092262552028
 30
0.0
 10
3.966125934036363
 20
7.448315160587286
 30
0.0
 10
3.977333730432608
 20
7.448315160587286
 30
0.0
 10
3.988540535777803
 20
7.448315160587286
 30
0.0
 10
3.997638384475092
 20
7.445092262552028
 30
0.0
 10
3.997638384475092
 20
7.441119138867129
 30
0.0
  0
HATCH
  5
2E5
330
2E0
100
AcDbEntity
  8
BA
 62
   254
420
 13358815
100
AcDbHatch
 10
0.0
 20
0.0
 30
0.0
210
0.0
220
0.0
230
1.0
  2
SOLID
 70
     1
 71
     0
 91
        1
 92
        1
 93
        1
 72
     4
 94
        3
 73
     0
 74
     1
 95
       17
 96
       13
 40
0.0
 40
0.0
 40
0.0
 40
0.0
 40
1.0
 40
1.0
 40
1.0
 40
2.0
 40
2.0
 40
2.0
 40
3.0
 40
3.0
 40
3.0
 40
4.0
 40
4.0
 40
4.0
 40
4.0
 10
3.997638384475092
 20
7.441119138867129
 10
3.997638384475092
 20
7.437142050978006
 10
3.988540535777803
 20
7.43391915294276
 10
3.977333730432608
 20
7.43391915294276
 10
3.966125934036363
 20
7.43391915294276
 10
3.957028085339074
 20
7.437142050978006
 10
3.957028085339074
 20
7.441119138867129
 10
3.957028085339074
 20
7.445092262552028
 10
3.966125934036363
 20
7.448315160587286
 10
3.977333730432608
 20
7.448315160587286
 10
3.988540535777803
 20
7.448315160587286
 10
3.997638384475092
 20
7.445092262552028
 10
3.997638384475092
 20
7.441119138867129
 97
        0
 97
        0
 75
     2
 76
     1
 98
        0
  0
SPLINE
  5
2E6
330
2E0
100
AcDbEntity
  8
BA
 62
   250
420
  2301728
370
    13
100
AcDbSpline
210
0.0
220
0.0
230
1.0
 70
    11
 71
     3
 72
    17
 73
    13
 74
     0
 42
0.0000000001
 43
0.0000000001
 12
1.0
 22
0.0
 32
0.0
 13
1.0
 23
0.0
 33
0.0
 40
0.0
 40
0.0
 40
0.0
 40
0.0
 40
1.0
 40
1.0
 40
1.0
 40
2.0
 40
2.0
 40
2.0
 40
3.0
 40
3.0
 40
3.0
 40
4.0
 40
4.0
 40
4.0
 40
4.0
 10
3.997638384475092
 20
7.441119138867129
 30
0.0
 10
3.997638384475092
 20
7.437142050978006
 30
0.0
 10
3.988540535777803
 20
7.43391915294276
 30
0.0
 10
3.977333730432608
 20
7.43391915294276
 30
0.0
 10
3.966125934036363
 20
7.43391915294276
 30
0.0
 10
3.957028085339074
 20
7.437142050978006
 30
0.0
 10
3.957028085339074
 20
7.441119138867129
 30
0.0
 10
3.957028085339074
 20
7.445092262552028
 30
0.0
 10
3.966125934036363
 20
7.448315160587286
 30
0.0
 10
3.977333730432608
 20
7.448315160587286
 30
0.0
 10
3.988540535777803
 20
7.448315160587286
 30
0.0
 10
3.997638384475092
 20
7.445092262552028
 30
0.0
 10
3.997638384475092
 20
7.441119138867129
 30
0.0
  0
SPLINE
  5
2E7
330
2E0
100
AcDbEntity
  8
BA
 62
   250
420
  2301728
370
    18
100
AcDbSpline
210
0.0
220
0.0
230
1.0
 70
     8
 71
     3
 72
    23
 73
    19
 74
     0
 42
0.0000000001
 43
0.0000000001
 12
1.0
 22
0.0
 32
0.0
 13
1.0
 23
0.0
 33
0.0
 40
0.0
 40
0.0
 40
0.0
 40
0.0
 40
1.0
 40
1.0
 40
1.0
 40
2.0
 40
2.0
 40
2.0
 40
3.0
 40
3.0
 40
3.0
 40
4.0
 40
4.0
 40
4.0
 40
5.0
 40
5.0
 40
5.0
 40
6.0
 40
6.0
 40
6.0
 40
6.0
 10
3.982163122230203
 20
7.429195803608195
 30
0.0
 10
3.991047894950371
 20
7.429960895023694
 30
0.0
 10
3.997638384475092
 20
7.432801247351196
 30
0.0
 10
3.997638384475092
 20
7.436183704606517
 30
0.0
 10
3.997638384475092
 20
7.437054838485046
 30
0.0
 10
3.997638384475092
 20
7.4402480049886
 30
0.0
 10
3.997638384475092
 20
7.441119138867129
 30
0.0
 10
3.997638384475092
 20
7.445092262552028
 30
0.0
 10
3.988540535777803
 20
7.448315160587286
 30
0.0
 10
3.977333730432608
 20
7.448315160587286
 30
0.0
 10
3.966125934036363
 20
7.448315160587286
 30
0.0
 10
3.957028085339074
 20
7.445092262552028
 30
0.0
 10
3.957028085339074
 20
7.441119138867129
 30
0.0
 10
3.957028085339074
 20
7.440669201687544
 30
0.0
 10
3.957028085339074
 20
7.439584991831907
 30
0.0
 10
3.957028085339074
 20
7.438530513507948
 30
0.0
 10
3.957028085339074
 20
7.437558292421676
 30
0.0
 10
3.957028085339074
 20
7.43660490130546
 30
0.0
 10
3.957028085339074
 20
7.436183704606517
 30
0.0
  0
ENDBLK
  5
2E3
330
2E0
100
AcDbEntity
  8
0
100
AcDbBlockEnd
  0
BLOCK
  5
2EA
330
2E8
100
AcDbEntity
  8
0
100
AcDbBlockBegin
  2
block 14
 70
     0
 10
0.0
 20
0.0
 30
0.0
  3
block 14
  1

  0
SPLINE
  5
2EC
330
2E8
100
AcDbEntity
  8
BA
370
     0
100
AcDbSpline
210
0.0
220
0.0
230
1.0
 70
    11
 71
     3
 72
    17
 73
    13
 74
     0
 42
0.0000000001
 43
0.0000000001
 12
1.0
 22
0.0
 32
0.0
 13
1.0
 23
0.0
 33
0.0
 40
0.0
 40
0.0
 40
0.0
 40
0.0
 40
1.0
 40
1.0
 40
1.0
 40
2.0
 40
2.0
 40
2.0
 40
3.0
 40
3.0
 40
3.0
 40
4.0
 40
4.0
 40
4.0
 40
4.0
 10
4.018281977978833
 20
7.473328298198465
 30
0.0
 10
4.018281977978833
 20
7.469351210309342
 30
0.0
 10
4.009194039792115
 20
7.466128312274097
 30
0.0
 10
3.997987234446921
 20
7.466128312274097
 30
0.0
 10
3.986769527540117
 20
7.466128312274097
 30
0.0
 10
3.977681589353387
 20
7.469351210309342
 30
0.0
 10
3.977681589353387
 20
7.473328298198465
 30
0.0
 10
3.977681589353387
 20
7.477301421883377
 30
0.0
 10
3.986769527540117
 20
7.480524319918622
 30
0.0
 10
3.997987234446921
 20
7.480524319918622
 30
0.0
 10
4.009194039792115
 20
7.480524319918622
 30
0.0
 10
4.018281977978833
 20
7.477301421883377
 30
0.0
 10
4.018281977978833
 20
7.473328298198465
 30
0.0
  0
HATCH
  5
2ED
330
2E8
100
AcDbEntity
  8
BA
 62
   254
420
 13358815
100
AcDbHatch
 10
0.0
 20
0.0
 30
0.0
210
0.0
220
0.0
230
1.0
  2
SOLID
 70
     1
 71
     0
 91
        1
 92
        1
 93
        1
 72
     4
 94
        3
 73
     0
 74
     1
 95
       17
 96
       13
 40
0.0
 40
0.0
 40
0.0
 40
0.0
 40
1.0
 40
1.0
 40
1.0
 40
2.0
 40
2.0
 40
2.0
 40
3.0
 40
3.0
 40
3.0
 40
4.0
 40
4.0
 40
4.0
 40
4.0
 10
4.018281977978833
 20
7.473328298198465
 10
4.018281977978833
 20
7.469351210309342
 10
4.009194039792115
 20
7.466128312274097
 10
3.997987234446921
 20
7.466128312274097
 10
3.986769527540117
 20
7.466128312274097
 10
3.977681589353387
 20
7.469351210309342
 10
3.977681589353387
 20
7.473328298198465
 10
3.977681589353387
 20
7.477301421883377
 10
3.986769527540117
 20
7.480524319918622
 10
3.997987234446921
 20
7.480524319918622
 10
4.009194039792115
 20
7.480524319918622
 10
4.018281977978833
 20
7.477301421883377
 10
4.018281977978833
 20
7.473328298198465
 97
        0
 97
        0
 75
     2
 76
     1
 98
        0
  0
SPLINE
  5
2EE
330
2E8
100
AcDbEntity
  8
BA
 62
   250
420
  2301728
370
    13
100
AcDbSpline
210
0.0
220
0.0
230
1.0
 70
    11
 71
     3
 72
    17
 73
    13
 74
     0
 42
0.0000000001
 43
0.0000000001
 12
1.0
 22
0.0
 32
0.0
 13
1.0
 23
0.0
 33
0.0
 40
0.0
 40
0.0
 40
0.0
 40
0.0
 40
1.0
 40
1.0
 40
1.0
 40
2.0
 40
2.0
 40
2.0
 40
3.0
 40
3.0
 40
3.0
 40
4.0
 40
4.0
 40
4.0
 40
4.0
 10
4.018281977978833
 20
7.473328298198465
 30
0.0
 10
4.018281977978833
 20
7.469351210309342
 30
0.0
 10
4.009194039792115
 20
7.466128312274097
 30
0.0
 10
3.997987234446921
 20
7.466128312274097
 30
0.0
 10
3.986769527540117
 20
7.466128312274097
 30
0.0
 10
3.977681589353387
 20
7.469351210309342
 30
0.0
 10
3.977681589353387
 20
7.473328298198465
 30
0.0
 10
3.977681589353387
 20
7.477301421883377
 30
0.0
 10
3.986769527540117
 20
7.480524319918622
 30
0.0
 10
3.997987234446921
 20
7.480524319918622
 30
0.0
 10
4.009194039792115
 20
7.480524319918622
 30
0.0
 10
4.018281977978833
 20
7.477301421883377
 30
0.0
 10
4.018281977978833
 20
7.473328298198465
 30
0.0
  0
SPLINE
  5
2EF
330
2E8
100
AcDbEntity
  8
BA
 62
   250
420
  2301728
370
    18
100
AcDbSpline
210
0.0
220
0.0
230
1.0
 70
     8
 71
     3
 72
    20
 73
    16
 74
     0
 42
0.0000000001
 43
0.0000000001
 12
1.0
 22
0.0
 32
0.0
 13
1.0
 23
0.0
 33
0.0
 40
0.0
 40
0.0
 40
0.0
 40
0.0
 40
1.0
 40
1.0
 40
1.0
 40
2.0
 40
2.0
 40
2.0
 40
3.0
 40
3.0
 40
3.0
 40
4.0
 40
4.0
 40
4.0
 40
5.0
 40
5.0
 40
5.0
 40
5.0
 10
4.000309267071947
 20
7.461656689907841
 30
0.0
 10
4.011517134676258
 20
7.461656689907841
 30
0.0
 10
4.018281977978833
 20
7.464419740252954
 30
0.0
 10
4.018281977978833
 20
7.468392863937866
 30
0.0
 10
4.018281977978833
 20
7.469263997816395
 30
0.0
 10
4.018281977978833
 20
7.472457164319949
 30
0.0
 10
4.018281977978833
 20
7.473328298198465
 30
0.0
 10
4.018281977978833
 20
7.477301421883377
 30
0.0
 10
4.009194039792115
 20
7.480524319918622
 30
0.0
 10
3.997987234446921
 20
7.480524319918622
 30
0.0
 10
3.986769527540117
 20
7.480524319918622
 30
0.0
 10
3.977681589353387
 20
7.477301421883377
 30
0.0
 10
3.977681589353387
 20
7.473328298198465
 30
0.0
 10
3.977681589353387
 20
7.472457164319949
 30
0.0
 10
3.977681589353387
 20
7.469263997816395
 30
0.0
 10
3.977681589353387
 20
7.468392863937866
 30
0.0
  0
ENDBLK
  5
2EB
330
2E8
100
AcDbEntity
  8
0
100
AcDbBlockEnd
  0
BLOCK
  5
2F2
330
2F0
100
AcDbEntity
  8
0
100
AcDbBlockBegin
  2
block 15
 70
     0
 10
0.0
 20
0.0
 30
0.0
  3
block 15
  1

  0
SPLINE
  5
2F4
330
2F0
100
AcDbEntity
  8
BA
370
     0
100
AcDbSpline
210
0.0
220
0.0
230
1.0
 70
    11
 71
     3
 72
    17
 73
    13
 74
     0
 42
0.0000000001
 43
0.0000000001
 12
1.0
 22
0.0
 32
0.0
 13
1.0
 23
0.0
 33
0.0
 40
0.0
 40
0.0
 40
0.0
 40
0.0
 40
1.0
 40
1.0
 40
1.0
 40
2.0
 40
2.0
 40
2.0
 40
3.0
 40
3.0
 40
3.0
 40
4.0
 40
4.0
 40
4.0
 40
4.0
 10
4.638579843096598
 20
7.603161932886526
 30
0.0
 10
4.638579843096598
 20
7.599383055208667
 30
0.0
 10
4.629946797344726
 20
7.596319716393496
 30
0.0
 10
4.619299935846382
 20
7.596319716393496
 30
0.0
 10
4.608654065399074
 20
7.596319716393496
 30
0.0
 10
4.600002189677171
 20
7.599383055208667
 30
0.0
 10
4.600002189677171
 20
7.603161932886526
 30
0.0
 10
4.600002189677171
 20
7.606936846360163
 30
0.0
 10
4.608654065399074
 20
7.610000185175332
 30
0.0
 10
4.619299935846382
 20
7.610000185175332
 30
0.0
 10
4.629946797344726
 20
7.610000185175332
 30
0.0
 10
4.638579843096598
 20
7.606936846360163
 30
0.0
 10
4.638579843096598
 20
7.603161932886526
 30
0.0
  0
HATCH
  5
2F5
330
2F0
100
AcDbEntity
  8
BA
 62
   254
420
 13358815
100
AcDbHatch
 10
0.0
 20
0.0
 30
0.0
210
0.0
220
0.0
230
1.0
  2
SOLID
 70
     1
 71
     0
 91
        1
 92
        1
 93
        1
 72
     4
 94
        3
 73
     0
 74
     1
 95
       17
 96
       13
 40
0.0
 40
0.0
 40
0.0
 40
0.0
 40
1.0
 40
1.0
 40
1.0
 40
2.0
 40
2.0
 40
2.0
 40
3.0
 40
3.0
 40
3.0
 40
4.0
 40
4.0
 40
4.0
 40
4.0
 10
4.638579843096598
 20
7.603161932886526
 10
4.638579843096598
 20
7.599383055208667
 10
4.629946797344726
 20
7.596319716393496
 10
4.619299935846382
 20
7.596319716393496
 10
4.608654065399074
 20
7.596319716393496
 10
4.600002189677171
 20
7.599383055208667
 10
4.600002189677171
 20
7.603161932886526
 10
4.600002189677171
 20
7.606936846360163
 10
4.608654065399074
 20
7.610000185175332
 10
4.619299935846382
 20
7.610000185175332
 10
4.629946797344726
 20
7.610000185175332
 10
4.638579843096598
 20
7.606936846360163
 10
4.638579843096598
 20
7.603161932886526
 97
        0
 97
        0
 75
     2
 76
     1
 98
        0
  0
SPLINE
  5
2F6
330
2F0
100
AcDbEntity
  8
BA
 62
   250
420
  2301728
370
    13
100
AcDbSpline
210
0.0
220
0.0
230
1.0
 70
    11
 71
     3
 72
    17
 73
    13
 74
     0
 42
0.0000000001
 43
0.0000000001
 12
1.0
 22
0.0
 32
0.0
 13
1.0
 23
0.0
 33
0.0
 40
0.0
 40
0.0
 40
0.0
 40
0.0
 40
1.0
 40
1.0
 40
1.0
 40
2.0
 40
2.0
 40
2.0
 40
3.0
 40
3.0
 40
3.0
 40
4.0
 40
4.0
 40
4.0
 40
4.0
 10
4.638579843096598
 20
7.603161932886526
 30
0.0
 10
4.638579843096598
 20
7.599383055208667
 30
0.0
 10
4.629946797344726
 20
7.596319716393496
 30
0.0
 10
4.619299935846382
 20
7.596319716393496
 30
0.0
 10
4.608654065399074
 20
7.596319716393496
 30
0.0
 10
4.600002189677171
 20
7.599383055208667
 30
0.0
 10
4.600002189677171
 20
7.603161932886526
 30
0.0
 10
4.600002189677171
 20
7.606936846360163
 30
0.0
 10
4.608654065399074
 20
7.610000185175332
 30
0.0
 10
4.619299935846382
 20
7.610000185175332
 30
0.0
 10
4.629946797344726
 20
7.610000185175332
 30
0.0
 10
4.638579843096598
 20
7.606936846360163
 30
0.0
 10
4.638579843096598
 20
7.603161932886526
 30
0.0
  0
SPLINE
  5
2F7
330
2F0
100
AcDbEntity
  8
BA
 62
   250
420
  2301728
370
    18
100
AcDbSpline
210
0.0
220
0.0
230
1.0
 70
    11
 71
     3
 72
    23
 73
    19
 74
     0
 42
0.0000000001
 43
0.0000000001
 12
1.0
 22
0.0
 32
0.0
 13
1.0
 23
0.0
 33
0.0
 40
0.0
 40
0.0
 40
0.0
 40
0.0
 40
1.0
 40
1.0
 40
1.0
 40
2.0
 40
2.0
 40
2.0
 40
3.0
 40
3.0
 40
3.0
 40
4.0
 40
4.0
 40
4.0
 40
5.0
 40
5.0
 40
5.0
 40
6.0
 40
6.0
 40
6.0
 40
6.0
 10
4.638579843096598
 20
7.603161932886526
 30
0.0
 10
4.638579843096598
 20
7.606936846360163
 30
0.0
 10
4.629946797344726
 20
7.610000185175332
 30
0.0
 10
4.619299935846382
 20
7.610000185175332
 30
0.0
 10
4.608654065399074
 20
7.610000185175332
 30
0.0
 10
4.600002189677171
 20
7.606936846360163
 30
0.0
 10
4.600002189677171
 20
7.603161932886526
 30
0.0
 10
4.600002189677171
 20
7.602334405254472
 30
0.0
 10
4.600002189677171
 20
7.599300797970979
 30
0.0
 10
4.600002189677171
 20
7.59847327033895
 30
0.0
 10
4.600002189677171
 20
7.594698356865301
 30
0.0
 10
4.608654065399074
 20
7.591635018050144
 30
0.0
 10
4.619299935846382
 20
7.591635018050144
 30
0.0
 10
4.629946797344726
 20
7.591635018050144
 30
0.0
 10
4.638579843096598
 20
7.594698356865301
 30
0.0
 10
4.638579843096598
 20
7.59847327033895
 30
0.0
 10
4.638579843096598
 20
7.599300797970979
 30
0.0
 10
4.638579843096598
 20
7.602334405254472
 30
0.0
 10
4.638579843096598
 20
7.603161932886526
 30
0.0
  0
ENDBLK
  5
2F3
330
2F0
100
AcDbEntity
  8
0
100
AcDbBlockEnd
  0
BLOCK
  5
2FA
330
2F8
100
AcDbEntity
  8
0
100
AcDbBlockBegin
  2
block 16
 70
     0
 10
0.0
 20
0.0
 30
0.0
  3
block 16
  1

  0
SPLINE
  5
2FC
330
2F8
100
AcDbEntity
  8
BA
370
     0
100
AcDbSpline
210
0.0
220
0.0
230
1.0
 70
    11
 71
     3
 72
    17
 73
    13
 74
     0
 42
0.0000000001
 43
0.0000000001
 12
1.0
 22
0.0
 32
0.0
 13
1.0
 23
0.0
 33
0.0
 40
0.0
 40
0.0
 40
0.0
 40
0.0
 40
1.0
 40
1.0
 40
1.0
 40
2.0
 40
2.0
 40
2.0
 40
3.0
 40
3.0
 40
3.0
 40
4.0
 40
4.0
 40
4.0
 40
4.0
 10
4.464332255318267
 20
7.57095277355519
 30
0.0
 10
4.464332255318267
 20
7.56717389587733
 30
0.0
 10
4.455680379596338
 20
7.564110557062147
 30
0.0
 10
4.445034509149031
 20
7.564110557062147
 30
0.0
 10
4.434387647650687
 20
7.564110557062147
 30
0.0
 10
4.425754601898815
 20
7.56717389587733
 30
0.0
 10
4.425754601898815
 20
7.57095277355519
 30
0.0
 10
4.425754601898815
 20
7.574727687028826
 30
0.0
 10
4.434387647650687
 20
7.577791025843996
 30
0.0
 10
4.445034509149031
 20
7.577791025843996
 30
0.0
 10
4.455680379596338
 20
7.577791025843996
 30
0.0
 10
4.464332255318267
 20
7.574727687028826
 30
0.0
 10
4.464332255318267
 20
7.57095277355519
 30
0.0
  0
HATCH
  5
2FD
330
2F8
100
AcDbEntity
  8
BA
 62
   254
420
 13358815
100
AcDbHatch
 10
0.0
 20
0.0
 30
0.0
210
0.0
220
0.0
230
1.0
  2
SOLID
 70
     1
 71
     0
 91
        1
 92
        1
 93
        1
 72
     4
 94
        3
 73
     0
 74
     1
 95
       17
 96
       13
 40
0.0
 40
0.0
 40
0.0
 40
0.0
 40
1.0
 40
1.0
 40
1.0
 40
2.0
 40
2.0
 40
2.0
 40
3.0
 40
3.0
 40
3.0
 40
4.0
 40
4.0
 40
4.0
 40
4.0
 10
4.464332255318267
 20
7.57095277355519
 10
4.464332255318267
 20
7.56717389587733
 10
4.455680379596338
 20
7.564110557062147
 10
4.445034509149031
 20
7.564110557062147
 10
4.434387647650687
 20
7.564110557062147
 10
4.425754601898815
 20
7.56717389587733
 10
4.425754601898815
 20
7.57095277355519
 10
4.425754601898815
 20
7.574727687028826
 10
4.434387647650687
 20
7.577791025843996
 10
4.445034509149031
 20
7.577791025843996
 10
4.455680379596338
 20
7.577791025843996
 10
4.464332255318267
 20
7.574727687028826
 10
4.464332255318267
 20
7.57095277355519
 97
        0
 97
        0
 75
     2
 76
     1
 98
        0
  0
SPLINE
  5
2FE
330
2F8
100
AcDbEntity
  8
BA
 62
   250
420
  2301728
370
    13
100
AcDbSpline
210
0.0
220
0.0
230
1.0
 70
    11
 71
     3
 72
    17
 73
    13
 74
     0
 42
0.0000000001
 43
0.0000000001
 12
1.0
 22
0.0
 32
0.0
 13
1.0
 23
0.0
 33
0.0
 40
0.0
 40
0.0
 40
0.0
 40
0.0
 40
1.0
 40
1.0
 40
1.0
 40
2.0
 40
2.0
 40
2.0
 40
3.0
 40
3.0
 40
3.0
 40
4.0
 40
4.0
 40
4.0
 40
4.0
 10
4.464332255318267
 20
7.57095277355519
 30
0.0
 10
4.464332255318267
 20
7.56717389587733
 30
0.0
 10
4.455680379596338
 20
7.564110557062147
 30
0.0
 10
4.445034509149031
 20
7.564110557062147
 30
0.0
 10
4.434387647650687
 20
7.564110557062147
 30
0.0
 10
4.425754601898815
 20
7.56717389587733
 30
0.0
 10
4.425754601898815
 20
7.57095277355519
 30
0.0
 10
4.425754601898815
 20
7.574727687028826
 30
0.0
 10
4.434387647650687
 20
7.577791025843996
 30
0.0
 10
4.445034509149031
 20
7.577791025843996
 30
0.0
 10
4.455680379596338
 20
7.577791025843996
 30
0.0
 10
4.464332255318267
 20
7.574727687028826
 30
0.0
 10
4.464332255318267
 20
7.57095277355519
 30
0.0
  0
SPLINE
  5
2FF
330
2F8
100
AcDbEntity
  8
BA
 62
   250
420
  2301728
370
    18
100
AcDbSpline
210
0.0
220
0.0
230
1.0
 70
    11
 71
     3
 72
    23
 73
    19
 74
     0
 42
0.0000000001
 43
0.0000000001
 12
1.0
 22
0.0
 32
0.0
 13
1.0
 23
0.0
 33
0.0
 40
0.0
 40
0.0
 40
0.0
 40
0.0
 40
1.0
 40
1.0
 40
1.0
 40
2.0
 40
2.0
 40
2.0
 40
3.0
 40
3.0
 40
3.0
 40
4.0
 40
4.0
 40
4.0
 40
5.0
 40
5.0
 40
5.0
 40
6.0
 40
6.0
 40
6.0
 40
6.0
 10
4.464332255318267
 20
7.57095277355519
 30
0.0
 10
4.464332255318267
 20
7.574727687028826
 30
0.0
 10
4.455680379596338
 20
7.577791025843996
 30
0.0
 10
4.445034509149031
 20
7.577791025843996
 30
0.0
 10
4.434387647650687
 20
7.577791025843996
 30
0.0
 10
4.425754601898815
 20
7.574727687028826
 30
0.0
 10
4.425754601898815
 20
7.57095277355519
 30
0.0
 10
4.425754601898815
 20
7.570125245923135
 30
0.0
 10
4.425754601898815
 20
7.567091638639643
 30
0.0
 10
4.425754601898815
 20
7.566264111007601
 30
0.0
 10
4.425754601898815
 20
7.562489197533978
 30
0.0
 10
4.434387647650687
 20
7.559425858718795
 30
0.0
 10
4.445034509149031
 20
7.559425858718795
 30
0.0
 10
4.455680379596338
 20
7.559425858718795
 30
0.0
 10
4.464332255318267
 20
7.562489197533978
 30
0.0
 10
4.464332255318267
 20
7.566264111007601
 30
0.0
 10
4.464332255318267
 20
7.567091638639643
 30
0.0
 10
4.464332255318267
 20
7.570125245923135
 30
0.0
 10
4.464332255318267
 20
7.57095277355519
 30
0.0
  0
ENDBLK
  5
2FB
330
2F8
100
AcDbEntity
  8
0
100
AcDbBlockEnd
  0
BLOCK
  5
302
330
300
100
AcDbEntity
  8
0
100
AcDbBlockBegin
  2
block 17
 70
     0
 10
0.0
 20
0.0
 30
0.0
  3
block 17
  1

  0
SPLINE
  5
304
330
300
100
AcDbEntity
  8
BA
370
     0
100
AcDbSpline
210
0.0
220
0.0
230
1.0
 70
    11
 71
     3
 72
    17
 73
    13
 74
     0
 42
0.0000000001
 43
0.0000000001
 12
1.0
 22
0.0
 32
0.0
 13
1.0
 23
0.0
 33
0.0
 40
0.0
 40
0.0
 40
0.0
 40
0.0
 40
1.0
 40
1.0
 40
1.0
 40
2.0
 40
2.0
 40
2.0
 40
3.0
 40
3.0
 40
3.0
 40
4.0
 40
4.0
 40
4.0
 40
4.0
 10
4.605557030848002
 20
7.557732152463485
 30
0.0
 10
4.605557030848002
 20
7.553953274785625
 30
0.0
 10
4.596905155126074
 20
7.550889935970455
 30
0.0
 10
4.586259284678767
 20
7.550889935970455
 30
0.0
 10
4.575612423180397
 20
7.550889935970455
 30
0.0
 10
4.566979377428551
 20
7.553953274785625
 30
0.0
 10
4.566979377428551
 20
7.557732152463485
 30
0.0
 10
4.566979377428551
 20
7.561507065937121
 30
0.0
 10
4.575612423180397
 20
7.564570404752303
 30
0.0
 10
4.586259284678767
 20
7.564570404752303
 30
0.0
 10
4.596905155126074
 20
7.564570404752303
 30
0.0
 10
4.605557030848002
 20
7.561507065937121
 30
0.0
 10
4.605557030848002
 20
7.557732152463485
 30
0.0
  0
HATCH
  5
305
330
300
100
AcDbEntity
  8
BA
 62
   254
420
 13358815
100
AcDbHatch
 10
0.0
 20
0.0
 30
0.0
210
0.0
220
0.0
230
1.0
  2
SOLID
 70
     1
 71
     0
 91
        1
 92
        1
 93
        1
 72
     4
 94
        3
 73
     0
 74
     1
 95
       17
 96
       13
 40
0.0
 40
0.0
 40
0.0
 40
0.0
 40
1.0
 40
1.0
 40
1.0
 40
2.0
 40
2.0
 40
2.0
 40
3.0
 40
3.0
 40
3.0
 40
4.0
 40
4.0
 40
4.0
 40
4.0
 10
4.605557030848002
 20
7.557732152463485
 10
4.605557030848002
 20
7.553953274785625
 10
4.596905155126074
 20
7.550889935970455
 10
4.586259284678767
 20
7.550889935970455
 10
4.575612423180397
 20
7.550889935970455
 10
4.566979377428551
 20
7.553953274785625
 10
4.566979377428551
 20
7.557732152463485
 10
4.566979377428551
 20
7.561507065937121
 10
4.575612423180397
 20
7.564570404752303
 10
4.586259284678767
 20
7.564570404752303
 10
4.596905155126074
 20
7.564570404752303
 10
4.605557030848002
 20
7.561507065937121
 10
4.605557030848002
 20
7.557732152463485
 97
        0
 97
        0
 75
     2
 76
     1
 98
        0
  0
SPLINE
  5
306
330
300
100
AcDbEntity
  8
BA
 62
   250
420
  2301728
370
    13
100
AcDbSpline
210
0.0
220
0.0
230
1.0
 70
    11
 71
     3
 72
    17
 73
    13
 74
     0
 42
0.0000000001
 43
0.0000000001
 12
1.0
 22
0.0
 32
0.0
 13
1.0
 23
0.0
 33
0.0
 40
0.0
 40
0.0
 40
0.0
 40
0.0
 40
1.0
 40
1.0
 40
1.0
 40
2.0
 40
2.0
 40
2.0
 40
3.0
 40
3.0
 40
3.0
 40
4.0
 40
4.0
 40
4.0
 40
4.0
 10
4.605557030848002
 20
7.557732152463485
 30
0.0
 10
4.605557030848002
 20
7.553953274785625
 30
0.0
 10
4.596905155126074
 20
7.550889935970455
 30
0.0
 10
4.586259284678767
 20
7.550889935970455
 30
0.0
 10
4.575612423180397
 20
7.550889935970455
 30
0.0
 10
4.566979377428551
 20
7.553953274785625
 30
0.0
 10
4.566979377428551
 20
7.557732152463485
 30
0.0
 10
4.566979377428551
 20
7.561507065937121
 30
0.0
 10
4.575612423180397
 20
7.564570404752303
 30
0.0
 10
4.586259284678767
 20
7.564570404752303
 30
0.0
 10
4.596905155126074
 20
7.564570404752303
 30
0.0
 10
4.605557030848002
 20
7.561507065937121
 30
0.0
 10
4.605557030848002
 20
7.557732152463485
 30
0.0
  0
SPLINE
  5
307
330
300
100
AcDbEntity
  8
BA
 62
   250
420
  2301728
370
    18
100
AcDbSpline
210
0.0
220
0.0
230
1.0
 70
     8
 71
     3
 72
    20
 73
    16
 74
     0
 42
0.0000000001
 43
0.0000000001
 12
1.0
 22
0.0
 32
0.0
 13
1.0
 23
0.0
 33
0.0
 40
0.0
 40
0.0
 40
0.0
 40
0.0
 40
1.0
 40
1.0
 40
1.0
 40
2.0
 40
2.0
 40
2.0
 40
3.0
 40
3.0
 40
3.0
 40
4.0
 40
4.0
 40
4.0
 40
5.0
 40
5.0
 40
5.0
 40
5.0
 10
4.592569306754537
 20
7.546577872824287
 30
0.0
 10
4.600118142650747
 20
7.547507478715134
 30
0.0
 10
4.605557030848002
 20
7.550052497827841
 30
0.0
 10
4.605557030848002
 20
7.553043489915908
 30
0.0
 10
4.605557030848002
 20
7.553871017547963
 30
0.0
 10
4.605557030848002
 20
7.55690462483143
 30
0.0
 10
4.605557030848002
 20
7.557732152463485
 30
0.0
 10
4.605557030848002
 20
7.561507065937121
 30
0.0
 10
4.596905155126074
 20
7.564570404752303
 30
0.0
 10
4.586259284678767
 20
7.564570404752303
 30
0.0
 10
4.575612423180397
 20
7.564570404752303
 30
0.0
 10
4.566979377428551
 20
7.561507065937121
 30
0.0
 10
4.566979377428551
 20
7.557732152463485
 30
0.0
 10
4.566979377428551
 20
7.55690462483143
 30
0.0
 10
4.566979377428551
 20
7.553871017547963
 30
0.0
 10
4.566979377428551
 20
7.553043489915908
 30
0.0
  0
ENDBLK
  5
303
330
300
100
AcDbEntity
  8
0
100
AcDbBlockEnd
  0
ENDSEC
  0
SECTION
  2
ENTITIES
  0
SPLINE
  5
41
330
1F
100
AcDbEntity
  8
I-Beam
370
     0
100
AcDbSpline
210
0.0
220
0.0
230
1.0
 70
    11
 71
     3
 72
    59
 73
    55
 74
     0
 42
0.0000000001
 43
0.0000000001
 12
1.0
 22
0.0
 32
0.0
 13
1.0
 23
0.0
 33
0.0
 40
0.0
 40
0.0
 40
0.0
 40
0.0
 40
1.0
 40
1.0
 40
1.0
 40
2.0
 40
2.0
 40
2.0
 40
3.0
 40
3.0
 40
3.0
 40
4.0
 40
4.0
 40
4.0
 40
5.0
 40
5.0
 40
5.0
 40
6.0
 40
6.0
 40
6.0
 40
7.0
 40
7.0
 40
7.0
 40
8.0
 40
8.0
 40
8.0
 40
9.0
 40
9.0
 40
9.0
 40
10.0
 40
10.0
 40
10.0
 40
11.0
 40
11.0
 40
11.0
 40
12.0
 40
12.0
 40
12.0
 40
13.0
 40
13.0
 40
13.0
 40
14.0
 40
14.0
 40
14.0
 40
15.0
 40
15.0
 40
15.0
 40
16.0
 40
16.0
 40
16.0
 40
17.0
 40
17.0
 40
17.0
 40
18.0
 40
18.0
 40
18.0
 40
18.0
 10
3.583807176977567
 20
7.442329212206939
 30
0.0
 10
3.583807176977567
 20
7.442329212206939
 30
0.0
 10
3.451670339634549
 20
7.372955638262511
 30
0.0
 10
3.451670339634549
 20
7.372955638262511
 30
0.0
 10
3.451670339634549
 20
7.372955638262511
 30
0.0
 10
3.005682498511684
 20
7.27715568790053
 30
0.0
 10
3.005682498511684
 20
7.27715568790053
 30
0.0
 10
3.005682498511684
 20
7.27715568790053
 30
0.0
 10
3.005682498511684
 20
7.184655937556208
 30
0.0
 10
3.005682498511684
 20
7.184655937556208
 30
0.0
 10
3.005682498511684
 20
7.184655937556208
 30
0.0
 10
3.180771488636853
 20
7.082250631903662
 30
0.0
 10
3.180771488636853
 20
7.082250631903662
 30
0.0
 10
3.180771488636853
 20
7.082250631903662
 30
0.0
 10
3.210943046996337
 20
7.066068750255605
 30
0.0
 10
3.210503020327324
 20
7.018742098110717
 30
0.0
 10
3.210503020327324
 20
7.018742098110717
 30
0.0
 10
3.210503020327324
 20
6.335657184369033
 30
0.0
 10
3.210503020327324
 20
6.335657184369033
 30
0.0
 10
3.210503020327324
 20
6.335657184369033
 30
0.0
 10
3.005682498511684
 20
6.272893920970445
 30
0.0
 10
3.005682498511684
 20
6.272893920970445
 30
0.0
 10
3.005682498511684
 20
6.272893920970445
 30
0.0
 10
3.005682498511684
 20
6.183699325899043
 30
0.0
 10
3.005682498511684
 20
6.183699325899043
 30
0.0
 10
3.005682498511684
 20
6.183699325899043
 30
0.0
 10
3.540850068940131
 20
5.820310635067572
 30
0.0
 10
3.540850068940131
 20
5.820310635067572
 30
0.0
 10
3.540850068940131
 20
5.820310635067572
 30
0.0
 10
5.549378558055574
 20
6.520651729802402
 30
0.0
 10
5.549378558055574
 20
6.520651729802402
 30
0.0
 10
5.549378558055574
 20
6.520651729802402
 30
0.0
 10
5.549378558055574
 20
6.596630659037398
 30
0.0
 10
5.549378558055574
 20
6.596630659037398
 30
0.0
 10
5.549378558055574
 20
6.596630659037398
 30
0.0
 10
5.337967546715213
 20
6.702346075218138
 30
0.0
 10
5.337967546715213
 20
6.702346075218138
 30
0.0
 10
5.337967546715213
 20
6.702346075218138
 30
0.0
 10
5.293660627139034
 20
6.720531862102158
 30
0.0
 10
5.291715193915429
 20
6.768414493889647
 30
0.0
 10
5.291715193915429
 20
6.768414493889647
 30
0.0
 10
5.291715193915429
 20
7.366350282971943
 30
0.0
 10
5.291715193915429
 20
7.366350282971943
 30
0.0
 10
5.291715193915429
 20
7.366350282971943
 30
0.0
 10
5.549388468566146
 20
7.42911354637052
 30
0.0
 10
5.549388468566146
 20
7.42911354637052
 30
0.0
 10
5.549388468566146
 20
7.42911354637052
 30
0.0
 10
5.549388468566146
 20
7.501792275587869
 30
0.0
 10
5.549388468566146
 20
7.501792275587869
 30
0.0
 10
5.549388468566146
 20
7.501792275587869
 30
0.0
 10
4.845742218558396
 20
7.706607842148236
 30
0.0
 10
4.845742218558396
 20
7.706607842148236
 30
0.0
 10
4.845742218558396
 20
7.706607842148236
 30
0.0
 10
3.583807176977567
 20
7.442329212206939
 30
0.0
 10
3.583807176977567
 20
7.442329212206939
 30
0.0
  0
HATCH
  5
42
330
1F
100
AcDbEntity
  8
I-Beam
 62
   253
420
 10066329
100
AcDbHatch
 10
0.0
 20
0.0
 30
0.0
210
0.0
220
0.0
230
1.0
  2
SOLID
 70
     1
 71
     0
 91
        1
 92
        1
 93
        1
 72
     4
 94
        3
 73
     0
 74
     1
 95
       59
 96
       55
 40
0.0
 40
0.0
 40
0.0
 40
0.0
 40
1.0
 40
1.0
 40
1.0
 40
2.0
 40
2.0
 40
2.0
 40
3.0
 40
3.0
 40
3.0
 40
4.0
 40
4.0
 40
4.0
 40
5.0
 40
5.0
 40
5.0
 40
6.0
 40
6.0
 40
6.0
 40
7.0
 40
7.0
 40
7.0
 40
8.0
 40
8.0
 40
8.0
 40
9.0
 40
9.0
 40
9.0
 40
10.0
 40
10.0
 40
10.0
 40
11.0
 40
11.0
 40
11.0
 40
12.0
 40
12.0
 40
12.0
 40
13.0
 40
13.0
 40
13.0
 40
14.0
 40
14.0
 40
14.0
 40
15.0
 40
15.0
 40
15.0
 40
16.0
 40
16.0
 40
16.0
 40
17.0
 40
17.0
 40
17.0
 40
18.0
 40
18.0
 40
18.0
 40
18.0
 10
3.583807176977567
 20
7.442329212206939
 10
3.583807176977567
 20
7.442329212206939
 10
3.451670339634549
 20
7.372955638262511
 10
3.451670339634549
 20
7.372955638262511
 10
3.451670339634549
 20
7.372955638262511
 10
3.005682498511684
 20
7.27715568790053
 10
3.005682498511684
 20
7.27715568790053
 10
3.005682498511684
 20
7.27715568790053
 10
3.005682498511684
 20
7.184655937556208
 10
3.005682498511684
 20
7.184655937556208
 10
3.005682498511684
 20
7.184655937556208
 10
3.180771488636853
 20
7.082250631903662
 10
3.180771488636853
 20
7.082250631903662
 10
3.180771488636853
 20
7.082250631903662
 10
3.210943046996337
 20
7.066068750255605
 10
3.210503020327324
 20
7.018742098110717
 10
3.210503020327324
 20
7.018742098110717
 10
3.210503020327324
 20
6.335657184369033
 10
3.210503020327324
 20
6.335657184369033
 10
3.210503020327324
 20
6.335657184369033
 10
3.005682498511684
 20
6.272893920970445
 10
3.005682498511684
 20
6.272893920970445
 10
3.005682498511684
 20
6.272893920970445
 10
3.005682498511684
 20
6.183699325899043
 10
3.005682498511684
 20
6.183699325899043
 10
3.005682498511684
 20
6.183699325899043
 10
3.540850068940131
 20
5.820310635067572
 10
3.540850068940131
 20
5.820310635067572
 10
3.540850068940131
 20
5.820310635067572
 10
5.549378558055574
 20
6.520651729802402
 10
5.549378558055574
 20
6.520651729802402
 10
5.549378558055574
 20
6.520651729802402
 10
5.549378558055574
 20
6.596630659037398
 10
5.549378558055574
 20
6.596630659037398
 10
5.549378558055574
 20
6.596630659037398
 10
5.337967546715213
 20
6.702346075218138
 10
5.337967546715213
 20
6.702346075218138
 10
5.337967546715213
 20
6.702346075218138
 10
5.293660627139034
 20
6.720531862102158
 10
5.291715193915429
 20
6.768414493889647
 10
5.291715193915429
 20
6.768414493889647
 10
5.291715193915429
 20
7.366350282971943
 10
5.291715193915429
 20
7.366350282971943
 10
5.291715193915429
 20
7.366350282971943
 10
5.549388468566146
 20
7.42911354637052
 10
5.549388468566146
 20
7.42911354637052
 10
5.549388468566146
 20
7.42911354637052
 10
5.549388468566146
 20
7.501792275587869
 10
5.549388468566146
 20
7.501792275587869
 10
5.549388468566146
 20
7.501792275587869
 10
4.845742218558396
 20
7.706607842148236
 10
4.845742218558396
 20
7.706607842148236
 10
4.845742218558396
 20
7.706607842148236
 10
3.583807176977567
 20
7.442329212206939
 10
3.583807176977567
 20
7.442329212206939
 97
        0
 97
        0
 75
     2
 76
     1
 98
        0
  0
SPLINE
  5
43
330
1F
100
AcDbEntity
  8
I-Beam
 62
   250
420
  2301728
370
    25
100
AcDbSpline
210
0.0
220
0.0
230
1.0
 70
    11
 71
     3
 72
    59
 73
    55
 74
     0
 42
0.0000000001
 43
0.0000000001
 12
1.0
 22
0.0
 32
0.0
 13
1.0
 23
0.0
 33
0.0
 40
0.0
 40
0.0
 40
0.0
 40
0.0
 40
1.0
 40
1.0
 40
1.0
 40
2.0
 40
2.0
 40
2.0
 40
3.0
 40
3.0
 40
3.0
 40
4.0
 40
4.0
 40
4.0
 40
5.0
 40
5.0
 40
5.0
 40
6.0
 40
6.0
 40
6.0
 40
7.0
 40
7.0
 40
7.0
 40
8.0
 40
8.0
 40
8.0
 40
9.0
 40
9.0
 40
9.0
 40
10.0
 40
10.0
 40
10.0
 40
11.0
 40
11.0
 40
11.0
 40
12.0
 40
12.0
 40
12.0
 40
13.0
 40
13.0
 40
13.0
 40
14.0
 40
14.0
 40
14.0
 40
15.0
 40
15.0
 40
15.0
 40
16.0
 40
16.0
 40
16.0
 40
17.0
 40
17.0
 40
17.0
 40
18.0
 40
18.0
 40
18.0
 40
18.0
 10
3.583807176977567
 20
7.442329212206939
 30
0.0
 10
3.583807176977567
 20
7.442329212206939
 30
0.0
 10
3.451670339634549
 20
7.372955638262511
 30
0.0
 10
3.451670339634549
 20
7.372955638262511
 30
0.0
 10
3.451670339634549
 20
7.372955638262511
 30
0.0
 10
3.005682498511684
 20
7.27715568790053
 30
0.0
 10
3.005682498511684
 20
7.27715568790053
 30
0.0
 10
3.005682498511684
 20
7.27715568790053
 30
0.0
 10
3.005682498511684
 20
7.184655937556208
 30
0.0
 10
3.005682498511684
 20
7.184655937556208
 30
0.0
 10
3.005682498511684
 20
7.184655937556208
 30
0.0
 10
3.180771488636853
 20
7.082250631903662
 30
0.0
 10
3.180771488636853
 20
7.082250631903662
 30
0.0
 10
3.180771488636853
 20
7.082250631903662
 30
0.0
 10
3.210943046996337
 20
7.066068750255605
 30
0.0
 10
3.210503020327324
 20
7.018742098110717
 30
0.0
 10
3.210503020327324
 20
7.018742098110717
 30
0.0
 10
3.210503020327324
 20
6.335657184369033
 30
0.0
 10
3.210503020327324
 20
6.335657184369033
 30
0.0
 10
3.210503020327324
 20
6.335657184369033
 30
0.0
 10
3.005682498511684
 20
6.272893920970445
 30
0.0
 10
3.005682498511684
 20
6.272893920970445
 30
0.0
 10
3.005682498511684
 20
6.272893920970445
 30
0.0
 10
3.005682498511684
 20
6.183699325899043
 30
0.0
 10
3.005682498511684
 20
6.183699325899043
 30
0.0
 10
3.005682498511684
 20
6.183699325899043
 30
0.0
 10
3.540850068940131
 20
5.820310635067572
 30
0.0
 10
3.540850068940131
 20
5.820310635067572
 30
0.0
 10
3.540850068940131
 20
5.820310635067572
 30
0.0
 10
5.549378558055574
 20
6.520651729802402
 30
0.0
 10
5.549378558055574
 20
6.520651729802402
 30
0.0
 10
5.549378558055574
 20
6.520651729802402
 30
0.0
 10
5.549378558055574
 20
6.596630659037398
 30
0.0
 10
5.549378558055574
 20
6.596630659037398
 30
0.0
 10
5.549378558055574
 20
6.596630659037398
 30
0.0
 10
5.337967546715213
 20
6.702346075218138
 30
0.0
 10
5.337967546715213
 20
6.702346075218138
 30
0.0
 10
5.337967546715213
 20
6.702346075218138
 30
0.0
 10
5.293660627139034
 20
6.720531862102158
 30
0.0
 10
5.291715193915429
 20
6.768414493889647
 30
0.0
 10
5.291715193915429
 20
6.768414493889647
 30
0.0
 10
5.291715193915429
 20
7.366350282971943
 30
0.0
 10
5.291715193915429
 20
7.366350282971943
 30
0.0
 10
5.291715193915429
 20
7.366350282971943
 30
0.0
 10
5.549388468566146
 20
7.42911354637052
 30
0.0
 10
5.549388468566146
 20
7.42911354637052
 30
0.0
 10
5.549388468566146
 20
7.42911354637052
 30
0.0
 10
5.549388468566146
 20
7.501792275587869
 30
0.0
 10
5.549388468566146
 20
7.501792275587869
 30
0.0
 10
5.549388468566146
 20
7.501792275587869
 30
0.0
 10
4.845742218558396
 20
7.706607842148236
 30
0.0
 10
4.845742218558396
 20
7.706607842148236
 30
0.0
 10
4.845742218558396
 20
7.706607842148236
 30
0.0
 10
3.583807176977567
 20
7.442329212206939
 30
0.0
 10
3.583807176977567
 20
7.442329212206939
 30
0.0
  0
POLYLINE
  5
44
330
1F
100
AcDbEntity
  8
I-Beam
 62
   250
420
  2301728
370
    25
100
AcDb2dPolyline
 66
     1
 10
0.0
 20
0.0
 30
0.0
  0
VERTEX
  5
45
330
44
100
AcDbEntity
  8
I-Beam
 62
   250
420
  2301728
370
    25
100
AcDbVertex
100
AcDb2dVertex
 10
5.066028092108354
 20
7.311533391089963
 30
0.0
  0
VERTEX
  5
46
330
44
100
AcDbEntity
  8
I-Beam
 62
   250
420
  2301728
370
    25
100
AcDbVertex
100
AcDb2dVertex
 10
5.307180545649746
 20
7.369539610883432
 30
0.0
  0
SEQEND
  5
47
330
44
100
AcDbEntity
  8
I-Beam
 62
   250
420
  2301728
370
    25
  0
SPLINE
  5
48
330
1F
100
AcDbEntity
  8
I-Beam
 62
   250
420
  2301728
370
    25
100
AcDbSpline
210
0.0
220
0.0
230
1.0
 70
     8
 71
     3
 72
    11
 73
     7
 74
     0
 42
0.0000000001
 43
0.0000000001
 12
1.0
 22
0.0
 32
0.0
 13
1.0
 23
0.0
 33
0.0
 40
0.0
 40
0.0
 40
0.0
 40
0.0
 40
1.0
 40
1.0
 40
1.0
 40
2.0
 40
2.0
 40
2.0
 40
2.0
 10
3.210503020327324
 20
6.3443873531244
 30
0.0
 10
3.210503020327324
 20
6.3443873531244
 30
0.0
 10
3.210503020327324
 20
6.207488515455641
 30
0.0
 10
3.210503020327324
 20
6.207488515455641
 30
0.0
 10
3.210503020327324
 20
6.207488515455641
 30
0.0
 10
3.209254295996339
 20
6.192273899638571
 30
0.0
 10
3.199111879485649
 20
6.183825189383191
 30
0.0
  0
SPLINE
  5
49
330
1F
100
AcDbEntity
  8
I-Beam
 62
   250
420
  2301728
370
    18
100
AcDbSpline
210
0.0
220
0.0
230
1.0
 70
     8
 71
     3
 72
    11
 73
     7
 74
     0
 42
0.0000000001
 43
0.0000000001
 12
1.0
 22
0.0
 32
0.0
 13
1.0
 23
0.0
 33
0.0
 40
0.0
 40
0.0
 40
0.0
 40
0.0
 40
1.0
 40
1.0
 40
1.0
 40
2.0
 40
2.0
 40
2.0
 40
2.0
 10
3.20249433674097
 20
6.187212601893811
 30
0.0
 10
3.20249433674097
 20
6.187212601893811
 30
0.0
 10
3.199116834740936
 20
6.173682772872515
 30
0.0
 10
3.172071051413165
 20
6.185518895638501
 30
0.0
 10
3.172071051413165
 20
6.185518895638501
 30
0.0
 10
3.005682498511684
 20
6.272893920970445
 30
0.0
 10
3.005682498511684
 20
6.272893920970445
 30
0.0
  0
SPLINE
  5
4A
330
1F
100
AcDbEntity
  8
I-Beam
 62
   250
420
  2301728
370
    18
100
AcDbSpline
210
0.0
220
0.0
230
1.0
 70
     8
 71
     3
 72
    20
 73
    16
 74
     0
 42
0.0000000001
 43
0.0000000001
 12
1.0
 22
0.0
 32
0.0
 13
1.0
 23
0.0
 33
0.0
 40
0.0
 40
0.0
 40
0.0
 40
0.0
 40
1.0
 40
1.0
 40
1.0
 40
2.0
 40
2.0
 40
2.0
 40
3.0
 40
3.0
 40
3.0
 40
4.0
 40
4.0
 40
4.0
 40
5.0
 40
5.0
 40
5.0
 40
5.0
 10
3.314041097337268
 20
7.003542348059479
 30
0.0
 10
3.314041097337268
 20
7.003542348059479
 30
0.0
 10
3.302208938775518
 20
7.000159890804171
 30
0.0
 10
3.300520187775494
 20
6.97480781373171
 30
0.0
 10
3.300520187775494
 20
6.97480781373171
 30
0.0
 10
3.300520187775494
 20
6.143273362259505
 30
0.0
 10
3.300520187775494
 20
6.143273362259505
 30
0.0
 10
3.300520187775494
 20
6.143273362259505
 30
0.0
 10
3.293760228520139
 20
6.116232534187032
 30
0.0
 10
3.332632224103324
 20
6.084119506808153
 30
0.0
 10
3.332632224103324
 20
6.084119506808153
 30
0.0
 10
3.538832288989397
 20
5.918487125862662
 30
0.0
 10
3.538832288989397
 20
5.918487125862662
 30
0.0
 10
3.538832288989397
 20
5.918487125862662
 30
0.0
 10
5.549378558055574
 20
6.596630659037398
 30
0.0
 10
5.549378558055574
 20
6.596630659037398
 30
0.0
  0
SPLINE
  5
4B
330
1F
100
AcDbEntity
  8
I-Beam
 62
   250
420
  2301728
370
    25
100
AcDbSpline
210
0.0
220
0.0
230
1.0
 70
     8
 71
     3
 72
    14
 73
    10
 74
     0
 42
0.0000000001
 43
0.0000000001
 12
1.0
 22
0.0
 32
0.0
 13
1.0
 23
0.0
 33
0.0
 40
0.0
 40
0.0
 40
0.0
 40
0.0
 40
1.0
 40
1.0
 40
1.0
 40
2.0
 40
2.0
 40
2.0
 40
3.0
 40
3.0
 40
3.0
 40
3.0
 10
3.305606261796684
 20
6.995093637804112
 30
0.0
 10
3.305606261796684
 20
6.995093637804112
 30
0.0
 10
3.320806011847922
 20
7.010307262570121
 30
0.0
 10
3.337703432358656
 20
7.001853597059468
 30
0.0
 10
3.337703432358656
 20
7.001853597059468
 30
0.0
 10
3.535449831734089
 20
6.92917486784212
 30
0.0
 10
3.535449831734089
 20
6.92917486784212
 30
0.0
 10
3.535449831734089
 20
6.92917486784212
 30
0.0
 10
4.505474748871519
 20
7.171445226975088
 30
0.0
 10
4.505474748871519
 20
7.171445226975088
 30
0.0
  0
POLYLINE
  5
4C
330
1F
100
AcDbEntity
  8
I-Beam
 62
   250
420
  2301728
370
    18
100
AcDb2dPolyline
 66
     1
 10
0.0
 20
0.0
 30
0.0
  0
VERTEX
  5
4D
330
4C
100
AcDbEntity
  8
I-Beam
 62
   250
420
  2301728
370
    18
100
AcDbVertex
100
AcDb2dVertex
 10
3.535449831734089
 20
6.92917486784212
 30
0.0
  0
VERTEX
  5
4E
330
4C
100
AcDbEntity
  8
I-Beam
 62
   250
420
  2301728
370
    18
100
AcDbVertex
100
AcDb2dVertex
 10
3.535449831734089
 20
7.018752008621277
 30
0.0
  0
SEQEND
  5
4F
330
4C
100
AcDbEntity
  8
I-Beam
 62
   250
420
  2301728
370
    18
  0
POLYLINE
  5
50
330
1F
100
AcDbEntity
  8
I-Beam
 62
   250
420
  2301728
370
    13
100
AcDb2dPolyline
 66
     1
 10
0.0
 20
0.0
 30
0.0
  0
VERTEX
  5
51
330
50
100
AcDbEntity
  8
I-Beam
 62
   250
420
  2301728
370
    13
100
AcDbVertex
100
AcDb2dVertex
 10
3.537157412704169
 20
5.921873547322207
 30
0.0
  0
VERTEX
  5
52
330
50
100
AcDbEntity
  8
I-Beam
 62
   250
420
  2301728
370
    13
100
AcDbVertex
100
AcDb2dVertex
 10
3.53884616370418
 20
5.823842741032396
 30
0.0
  0
SEQEND
  5
53
330
50
100
AcDbEntity
  8
I-Beam
 62
   250
420
  2301728
370
    13
  0
POLYLINE
  5
54
330
1F
100
AcDbEntity
  8
I-Beam
 62
   250
420
  2301728
370
    13
100
AcDb2dPolyline
 66
     1
 10
0.0
 20
0.0
 30
0.0
  0
VERTEX
  5
55
330
54
100
AcDbEntity
  8
I-Beam
 62
   250
420
  2301728
370
    13
100
AcDbVertex
100
AcDb2dVertex
 10
3.364463792982191
 20
6.145799646100019
 30
0.0
  0
VERTEX
  5
56
330
54
100
AcDbEntity
  8
I-Beam
 62
   250
420
  2301728
370
    13
100
AcDbVertex
100
AcDb2dVertex
 10
4.406369643236657
 20
6.474404332257879
 30
0.0
  0
SEQEND
  5
57
330
54
100
AcDbEntity
  8
I-Beam
 62
   250
420
  2301728
370
    13
  0
POLYLINE
  5
58
330
1F
100
AcDbEntity
  8
I-Beam
 62
   250
420
  2301728
370
    13
100
AcDb2dPolyline
 66
     1
 10
0.0
 20
0.0
 30
0.0
  0
VERTEX
  5
59
330
58
100
AcDbEntity
  8
I-Beam
 62
   250
420
  2301728
370
    13
100
AcDbVertex
100
AcDb2dVertex
 10
3.317437429307372
 20
6.13144615895304
 30
0.0
  0
VERTEX
  5
5A
330
58
100
AcDbEntity
  8
I-Beam
 62
   250
420
  2301728
370
    13
100
AcDbVertex
100
AcDb2dVertex
 10
3.342547744230551
 20
6.139111938873902
 30
0.0
  0
SEQEND
  5
5B
330
58
100
AcDbEntity
  8
I-Beam
 62
   250
420
  2301728
370
    13
  0
POLYLINE
  5
5C
330
1F
100
AcDbEntity
  8
I-Beam
 62
   250
420
  2301728
370
    13
100
AcDb2dPolyline
 66
     1
 10
0.0
 20
0.0
 30
0.0
  0
VERTEX
  5
5D
330
5C
100
AcDbEntity
  8
I-Beam
 62
   250
420
  2301728
370
    13
100
AcDbVertex
100
AcDb2dVertex
 10
3.38167240352464
 20
6.121245270430046
 30
0.0
  0
VERTEX
  5
5E
330
5C
100
AcDbEntity
  8
I-Beam
 62
   250
420
  2301728
370
    13
100
AcDbVertex
100
AcDb2dVertex
 10
4.409669843254278
 20
6.451278155857974
 30
0.0
  0
SEQEND
  5
5F
330
5C
100
AcDbEntity
  8
I-Beam
 62
   250
420
  2301728
370
    13
  0
POLYLINE
  5
60
330
1F
100
AcDbEntity
  8
I-Beam
 62
   250
420
  2301728
370
    13
100
AcDb2dPolyline
 66
     1
 10
0.0
 20
0.0
 30
0.0
  0
VERTEX
  5
61
330
60
100
AcDbEntity
  8
I-Beam
 62
   250
420
  2301728
370
    13
100
AcDbVertex
100
AcDb2dVertex
 10
3.332657054438325
 20
6.106099037135865
 30
0.0
  0
VERTEX
  5
62
330
60
100
AcDbEntity
  8
I-Beam
 62
   250
420
  2301728
370
    13
100
AcDbVertex
100
AcDb2dVertex
 10
3.354161817251439
 20
6.112738182025017
 30
0.0
  0
SEQEND
  5
63
330
60
100
AcDbEntity
  8
I-Beam
 62
   250
420
  2301728
370
    13
  0
POLYLINE
  5
64
330
1F
100
AcDbEntity
  8
I-Beam
 62
   250
420
  2301728
370
    18
100
AcDb2dPolyline
 66
     1
 10
0.0
 20
0.0
 30
0.0
  0
VERTEX
  5
65
330
64
100
AcDbEntity
  8
I-Beam
 62
   250
420
  2301728
370
    18
100
AcDbVertex
100
AcDb2dVertex
 10
3.005682498511684
 20
7.27715568790053
 30
0.0
  0
VERTEX
  5
66
330
64
100
AcDbEntity
  8
I-Beam
 62
   250
420
  2301728
370
    18
100
AcDbVertex
100
AcDb2dVertex
 10
3.537549868922484
 20
7.017832313240988
 30
0.0
  0
SEQEND
  5
67
330
64
100
AcDbEntity
  8
I-Beam
 62
   250
420
  2301728
370
    18
  0
POLYLINE
  5
69
330
1F
100
AcDbEntity
  8
Wood
370
     0
100
AcDb2dPolyline
 66
     1
 10
0.0
 20
0.0
 30
0.0
  0
VERTEX
  5
6A
330
69
100
AcDbEntity
  8
Wood
370
     0
100
AcDbVertex
100
AcDb2dVertex
 10
5.546900930414722
 20
7.681008993362739
 30
0.0
  0
VERTEX
  5
6B
330
69
100
AcDbEntity
  8
Wood
370
     0
100
AcDbVertex
100
AcDb2dVertex
 10
5.353975108498767
 20
7.734607016592197
 30
0.0
  0
VERTEX
  5
6C
330
69
100
AcDbEntity
  8
Wood
370
     0
100
AcDbVertex
100
AcDb2dVertex
 10
5.354468546803446
 20
7.761115650247423
 30
0.0
  0
VERTEX
  5
6D
330
69
100
AcDbEntity
  8
Wood
370
     0
100
AcDbVertex
100
AcDb2dVertex
 10
5.250408185886802
 20
7.762770705511507
 30
0.0
  0
VERTEX
  5
6E
330
69
100
AcDbEntity
  8
Wood
370
     0
100
AcDbVertex
100
AcDb2dVertex
 10
5.100927955057689
 20
7.804890375406355
 30
0.0
  0
VERTEX
  5
6F
330
69
100
AcDbEntity
  8
Wood
370
     0
100
AcDbVertex
100
AcDb2dVertex
 10
3.130391408187355
 20
7.418380463430266
 30
0.0
  0
VERTEX
  5
70
330
69
100
AcDbEntity
  8
Wood
370
     0
100
AcDbVertex
100
AcDb2dVertex
 10
3.130391408187355
 20
7.220170252160464
 30
0.0
  0
VERTEX
  5
71
330
69
100
AcDbEntity
  8
Wood
370
     0
100
AcDbVertex
100
AcDb2dVertex
 10
3.539199968931295
 20
7.021960040890677
 30
0.0
  0
VERTEX
  5
72
330
69
100
AcDbEntity
  8
Wood
370
     0
100
AcDbVertex
100
AcDb2dVertex
 10
4.247346581785942
 20
7.192432715195372
 30
0.0
  0
VERTEX
  5
73
330
69
100
AcDbEntity
  8
Wood
370
     0
100
AcDbVertex
100
AcDb2dVertex
 10
4.392326449768158
 20
7.133453284729941
 30
0.0
  0
VERTEX
  5
74
330
69
100
AcDbEntity
  8
Wood
370
     0
100
AcDbVertex
100
AcDb2dVertex
 10
4.392326449768158
 20
6.070551026795682
 30
0.0
  0
VERTEX
  5
75
330
69
100
AcDbEntity
  8
Wood
370
     0
100
AcDbVertex
100
AcDb2dVertex
 10
4.246146418956704
 20
6.023476101619116
 30
0.0
  0
VERTEX
  5
76
330
69
100
AcDbEntity
  8
Wood
370
     0
100
AcDbVertex
100
AcDb2dVertex
 10
4.246146418956704
 20
5.835176400912801
 30
0.0
  0
VERTEX
  5
77
330
69
100
AcDbEntity
  8
Wood
370
     0
100
AcDbVertex
100
AcDb2dVertex
 10
5.086062189212448
 20
5.347083755660933
 30
0.0
  0
VERTEX
  5
78
330
69
100
AcDbEntity
  8
Wood
370
     0
100
AcDbVertex
100
AcDb2dVertex
 10
5.447795824779809
 20
5.503174297035912
 30
0.0
  0
VERTEX
  5
79
330
69
100
AcDbEntity
  8
Wood
370
     0
100
AcDbVertex
100
AcDb2dVertex
 10
5.447795824779809
 20
5.713047280902439
 30
0.0
  0
VERTEX
  5
7A
330
69
100
AcDbEntity
  8
Wood
370
     0
100
AcDbVertex
100
AcDb2dVertex
 10
5.325898631363139
 20
5.775955153989608
 30
0.0
  0
VERTEX
  5
7B
330
69
100
AcDbEntity
  8
Wood
370
     0
100
AcDbVertex
100
AcDb2dVertex
 10
5.325898631363139
 20
6.311587527363472
 30
0.0
  0
VERTEX
  5
7C
330
69
100
AcDbEntity
  8
Wood
370
     0
100
AcDbVertex
100
AcDb2dVertex
 10
5.364630784335228
 20
6.325916143536169
 30
0.0
  0
VERTEX
  5
7D
330
69
100
AcDbEntity
  8
Wood
370
     0
100
AcDbVertex
100
AcDb2dVertex
 10
5.287824327468191
 20
6.395140068771095
 30
0.0
  0
VERTEX
  5
7E
330
69
100
AcDbEntity
  8
Wood
370
     0
100
AcDbVertex
100
AcDb2dVertex
 10
5.325898631363139
 20
6.407842370160298
 30
0.0
  0
VERTEX
  5
7F
330
69
100
AcDbEntity
  8
Wood
370
     0
100
AcDbVertex
100
AcDb2dVertex
 10
5.325898631363139
 20
6.930064831690717
 30
0.0
  0
VERTEX
  5
80
330
69
100
AcDbEntity
  8
Wood
370
     0
100
AcDbVertex
100
AcDb2dVertex
 10
5.447795824779809
 20
6.967428447566135
 30
0.0
  0
VERTEX
  5
81
330
69
100
AcDbEntity
  8
Wood
370
     0
100
AcDbVertex
100
AcDb2dVertex
 10
5.447795824779809
 20
7.183005837547385
 30
0.0
  0
VERTEX
  5
82
330
69
100
AcDbEntity
  8
Wood
370
     0
100
AcDbVertex
100
AcDb2dVertex
 10
4.928133248127955
 20
7.356226696431336
 30
0.0
  0
VERTEX
  5
83
330
69
100
AcDbEntity
  8
Wood
370
     0
100
AcDbVertex
100
AcDb2dVertex
 10
5.546900930414722
 20
7.505097430860789
 30
0.0
  0
VERTEX
  5
84
330
69
100
AcDbEntity
  8
Wood
370
     0
100
AcDbVertex
100
AcDb2dVertex
 10
5.546900930414722
 20
7.681008993362739
 30
0.0
  0
SEQEND
  5
86
330
69
100
AcDbEntity
  8
Wood
370
     0
  0
HATCH
  5
85
330
1F
100
AcDbEntity
  8
Wood
 62
    43
420
 15510365
100
AcDbHatch
 10
0.0
 20
0.0
 30
0.0
210
0.0
220
0.0
230
1.0
  2
SOLID
 70
     1
 71
     0
 91
        1
 92
        1
 93
       26
 72
     1
 10
5.546900930414722
 20
7.681008993362739
 11
5.353975108498767
 21
7.734607016592197
 72
     1
 10
5.353975108498767
 20
7.734607016592197
 11
5.354468546803446
 21
7.761115650247423
 72
     1
 10
5.354468546803446
 20
7.761115650247423
 11
5.250408185886802
 21
7.762770705511507
 72
     1
 10
5.250408185886802
 20
7.762770705511507
 11
5.100927955057689
 21
7.804890375406355
 72
     1
 10
5.100927955057689
 20
7.804890375406355
 11
3.130391408187355
 21
7.418380463430266
 72
     1
 10
3.130391408187355
 20
7.418380463430266
 11
3.130391408187355
 21
7.220170252160464
 72
     1
 10
3.130391408187355
 20
7.220170252160464
 11
3.539199968931295
 21
7.021960040890677
 72
     1
 10
3.539199968931295
 20
7.021960040890677
 11
4.247346581785942
 21
7.192432715195372
 72
     1
 10
4.247346581785942
 20
7.192432715195372
 11
4.392326449768158
 21
7.133453284729941
 72
     1
 10
4.392326449768158
 20
7.133453284729941
 11
4.392326449768158
 21
6.070551026795682
 72
     1
 10
4.392326449768158
 20
6.070551026795682
 11
4.246146418956704
 21
6.023476101619116
 72
     1
 10
4.246146418956704
 20
6.023476101619116
 11
4.246146418956704
 21
5.835176400912801
 72
     1
 10
4.246146418956704
 20
5.835176400912801
 11
5.086062189212448
 21
5.347083755660933
 72
     1
 10
5.086062189212448
 20
5.347083755660933
 11
5.447795824779809
 21
5.503174297035912
 72
     1
 10
5.447795824779809
 20
5.503174297035912
 11
5.447795824779809
 21
5.713047280902439
 72
     1
 10
5.447795824779809
 20
5.713047280902439
 11
5.325898631363139
 21
5.775955153989608
 72
     1
 10
5.325898631363139
 20
5.775955153989608
 11
5.325898631363139
 21
6.311587527363472
 72
     1
 10
5.325898631363139
 20
6.311587527363472
 11
5.364630784335228
 21
6.325916143536169
 72
     1
 10
5.364630784335228
 20
6.325916143536169
 11
5.287824327468191
 21
6.395140068771095
 72
     1
 10
5.287824327468191
 20
6.395140068771095
 11
5.325898631363139
 21
6.407842370160298
 72
     1
 10
5.325898631363139
 20
6.407842370160298
 11
5.325898631363139
 21
6.930064831690717
 72
     1
 10
5.325898631363139
 20
6.930064831690717
 11
5.447795824779809
 21
6.967428447566135
 72
     1
 10
5.447795824779809
 20
6.967428447566135
 11
5.447795824779809
 21
7.183005837547385
 72
     1
 10
5.447795824779809
 20
7.183005837547385
 11
4.928133248127955
 21
7.356226696431336
 72
     1
 10
4.928133248127955
 20
7.356226696431336
 11
5.546900930414722
 21
7.505097430860789
 72
     1
 10
5.546900930414722
 20
7.505097430860789
 11
5.546900930414722
 21
7.681008993362739
 97
        0
 75
     2
 76
     1
 98
        0
  0
POLYLINE
  5
87
330
1F
100
AcDbEntity
  8
Wood
 62
   250
420
  2301728
370
    25
100
AcDb2dPolyline
 66
     1
 10
0.0
 20
0.0
 30
0.0
  0
VERTEX
  5
88
330
87
100
AcDbEntity
  8
Wood
 62
   250
420
  2301728
370
    25
100
AcDbVertex
100
AcDb2dVertex
 10
5.546900930414722
 20
7.681008993362739
 30
0.0
  0
VERTEX
  5
89
330
87
100
AcDbEntity
  8
Wood
 62
   250
420
  2301728
370
    25
100
AcDbVertex
100
AcDb2dVertex
 10
5.353975108498767
 20
7.734607016592197
 30
0.0
  0
VERTEX
  5
8A
330
87
100
AcDbEntity
  8
Wood
 62
   250
420
  2301728
370
    25
100
AcDbVertex
100
AcDb2dVertex
 10
5.354468546803446
 20
7.761115650247423
 30
0.0
  0
VERTEX
  5
8B
330
87
100
AcDbEntity
  8
Wood
 62
   250
420
  2301728
370
    25
100
AcDbVertex
100
AcDb2dVertex
 10
5.250408185886802
 20
7.762770705511507
 30
0.0
  0
VERTEX
  5
8C
330
87
100
AcDbEntity
  8
Wood
 62
   250
420
  2301728
370
    25
100
AcDbVertex
100
AcDb2dVertex
 10
5.100927955057689
 20
7.804890375406355
 30
0.0
  0
VERTEX
  5
8D
330
87
100
AcDbEntity
  8
Wood
 62
   250
420
  2301728
370
    25
100
AcDbVertex
100
AcDb2dVertex
 10
3.130391408187355
 20
7.418380463430266
 30
0.0
  0
VERTEX
  5
8E
330
87
100
AcDbEntity
  8
Wood
 62
   250
420
  2301728
370
    25
100
AcDbVertex
100
AcDb2dVertex
 10
3.130391408187355
 20
7.220170252160464
 30
0.0
  0
VERTEX
  5
8F
330
87
100
AcDbEntity
  8
Wood
 62
   250
420
  2301728
370
    25
100
AcDbVertex
100
AcDb2dVertex
 10
3.539199968931295
 20
7.021960040890677
 30
0.0
  0
VERTEX
  5
90
330
87
100
AcDbEntity
  8
Wood
 62
   250
420
  2301728
370
    25
100
AcDbVertex
100
AcDb2dVertex
 10
4.247346581785942
 20
7.192432715195372
 30
0.0
  0
VERTEX
  5
91
330
87
100
AcDbEntity
  8
Wood
 62
   250
420
  2301728
370
    25
100
AcDbVertex
100
AcDb2dVertex
 10
4.392326449768158
 20
7.133453284729941
 30
0.0
  0
VERTEX
  5
92
330
87
100
AcDbEntity
  8
Wood
 62
   250
420
  2301728
370
    25
100
AcDbVertex
100
AcDb2dVertex
 10
4.392326449768158
 20
6.070551026795682
 30
0.0
  0
VERTEX
  5
93
330
87
100
AcDbEntity
  8
Wood
 62
   250
420
  2301728
370
    25
100
AcDbVertex
100
AcDb2dVertex
 10
4.246146418956704
 20
6.023476101619116
 30
0.0
  0
VERTEX
  5
94
330
87
100
AcDbEntity
  8
Wood
 62
   250
420
  2301728
370
    25
100
AcDbVertex
100
AcDb2dVertex
 10
4.246146418956704
 20
5.835176400912801
 30
0.0
  0
VERTEX
  5
95
330
87
100
AcDbEntity
  8
Wood
 62
   250
420
  2301728
370
    25
100
AcDbVertex
100
AcDb2dVertex
 10
5.086062189212448
 20
5.347083755660933
 30
0.0
  0
VERTEX
  5
96
330
87
100
AcDbEntity
  8
Wood
 62
   250
420
  2301728
370
    25
100
AcDbVertex
100
AcDb2dVertex
 10
5.447795824779809
 20
5.503174297035912
 30
0.0
  0
VERTEX
  5
97
330
87
100
AcDbEntity
  8
Wood
 62
   250
420
  2301728
370
    25
100
AcDbVertex
100
AcDb2dVertex
 10
5.447795824779809
 20
5.713047280902439
 30
0.0
  0
VERTEX
  5
98
330
87
100
AcDbEntity
  8
Wood
 62
   250
420
  2301728
370
    25
100
AcDbVertex
100
AcDb2dVertex
 10
5.325898631363139
 20
5.775955153989608
 30
0.0
  0
VERTEX
  5
99
330
87
100
AcDbEntity
  8
Wood
 62
   250
420
  2301728
370
    25
100
AcDbVertex
100
AcDb2dVertex
 10
5.325898631363139
 20
6.311587527363472
 30
0.0
  0
VERTEX
  5
9A
330
87
100
AcDbEntity
  8
Wood
 62
   250
420
  2301728
370
    25
100
AcDbVertex
100
AcDb2dVertex
 10
5.364630784335228
 20
6.325916143536169
 30
0.0
  0
VERTEX
  5
9B
330
87
100
AcDbEntity
  8
Wood
 62
   250
420
  2301728
370
    25
100
AcDbVertex
100
AcDb2dVertex
 10
5.287824327468191
 20
6.395140068771095
 30
0.0
  0
VERTEX
  5
9C
330
87
100
AcDbEntity
  8
Wood
 62
   250
420
  2301728
370
    25
100
AcDbVertex
100
AcDb2dVertex
 10
5.325898631363139
 20
6.407842370160298
 30
0.0
  0
VERTEX
  5
9D
330
87
100
AcDbEntity
  8
Wood
 62
   250
420
  2301728
370
    25
100
AcDbVertex
100
AcDb2dVertex
 10
5.325898631363139
 20
6.930064831690717
 30
0.0
  0
VERTEX
  5
9E
330
87
100
AcDbEntity
  8
Wood
 62
   250
420
  2301728
370
    25
100
AcDbVertex
100
AcDb2dVertex
 10
5.447795824779809
 20
6.967428447566135
 30
0.0
  0
VERTEX
  5
9F
330
87
100
AcDbEntity
  8
Wood
 62
   250
420
  2301728
370
    25
100
AcDbVertex
100
AcDb2dVertex
 10
5.447795824779809
 20
7.183005837547385
 30
0.0
  0
VERTEX
  5
A0
330
87
100
AcDbEntity
  8
Wood
 62
   250
420
  2301728
370
    25
100
AcDbVertex
100
AcDb2dVertex
 10
4.928133248127955
 20
7.356226696431336
 30
0.0
  0
VERTEX
  5
A1
330
87
100
AcDbEntity
  8
Wood
 62
   250
420
  2301728
370
    25
100
AcDbVertex
100
AcDb2dVertex
 10
5.546900930414722
 20
7.505097430860789
 30
0.0
  0
VERTEX
  5
A2
330
87
100
AcDbEntity
  8
Wood
 62
   250
420
  2301728
370
    25
100
AcDbVertex
100
AcDb2dVertex
 10
5.546900930414722
 20
7.681008993362739
 30
0.0
  0
SEQEND
  5
A3
330
87
100
AcDbEntity
  8
Wood
 62
   250
420
  2301728
370
    25
  0
POLYLINE
  5
A4
330
1F
100
AcDbEntity
  8
Wood
 62
   250
420
  2301728
370
    25
100
AcDb2dPolyline
 66
     1
 10
0.0
 20
0.0
 30
0.0
  0
VERTEX
  5
A5
330
A4
100
AcDbEntity
  8
Wood
 62
   250
420
  2301728
370
    25
100
AcDbVertex
100
AcDb2dVertex
 10
5.354468546803446
 20
7.734689273829872
 30
0.0
  0
VERTEX
  5
A6
330
A4
100
AcDbEntity
  8
Wood
 62
   250
420
  2301728
370
    25
100
AcDbVertex
100
AcDb2dVertex
 10
5.291715193915429
 20
7.731384118556965
 30
0.0
  0
SEQEND
  5
A7
330
A4
100
AcDbEntity
  8
Wood
 62
   250
420
  2301728
370
    25
  0
POLYLINE
  5
A8
330
1F
100
AcDbEntity
  8
Wood
 62
   250
420
  2301728
370
    25
100
AcDb2dPolyline
 66
     1
 10
0.0
 20
0.0
 30
0.0
  0
VERTEX
  5
A9
330
A8
100
AcDbEntity
  8
Wood
 62
   250
420
  2301728
370
    25
100
AcDbVertex
100
AcDb2dVertex
 10
5.325898631363139
 20
5.659961547303484
 30
0.0
  0
VERTEX
  5
AA
330
A8
100
AcDbEntity
  8
Wood
 62
   250
420
  2301728
370
    25
100
AcDbVertex
100
AcDb2dVertex
 10
5.325898631363139
 20
5.797595744856052
 30
0.0
  0
SEQEND
  5
AB
330
A8
100
AcDbEntity
  8
Wood
 62
   250
420
  2301728
370
    25
  0
POLYLINE
  5
AC
330
1F
100
AcDbEntity
  8
Wood
 62
   250
420
  2301728
370
    25
100
AcDb2dPolyline
 66
     1
 10
0.0
 20
0.0
 30
0.0
  0
VERTEX
  5
AD
330
AC
100
AcDbEntity
  8
Wood
 62
   250
420
  2301728
370
    25
100
AcDbVertex
100
AcDb2dVertex
 10
4.247346581785942
 20
7.192432715195372
 30
0.0
  0
VERTEX
  5
AE
330
AC
100
AcDbEntity
  8
Wood
 62
   250
420
  2301728
370
    25
100
AcDbVertex
100
AcDb2dVertex
 10
5.08375898655749
 20
6.86126309420581
 30
0.0
  0
VERTEX
  5
AF
330
AC
100
AcDbEntity
  8
Wood
 62
   250
420
  2301728
370
    25
100
AcDbVertex
100
AcDb2dVertex
 10
5.219399189384679
 20
6.900576107509058
 30
0.0
  0
SEQEND
  5
B0
330
AC
100
AcDbEntity
  8
Wood
 62
   250
420
  2301728
370
    25
  0
POLYLINE
  5
B1
330
1F
100
AcDbEntity
  8
Wood
 62
   250
420
  2301728
370
    18
100
AcDb2dPolyline
 66
     1
 10
0.0
 20
0.0
 30
0.0
  0
VERTEX
  5
B2
330
B1
100
AcDbEntity
  8
Wood
 62
   250
420
  2301728
370
    18
100
AcDbVertex
100
AcDb2dVertex
 10
3.130391408187355
 20
7.418380463430266
 30
0.0
  0
VERTEX
  5
B3
330
B1
100
AcDbEntity
  8
Wood
 62
   250
420
  2301728
370
    18
100
AcDbVertex
100
AcDb2dVertex
 10
3.536450793300989
 20
7.237107314713474
 30
0.0
  0
VERTEX
  5
B4
330
B1
100
AcDbEntity
  8
Wood
 62
   250
420
  2301728
370
    18
100
AcDbVertex
100
AcDb2dVertex
 10
3.536450793300989
 20
7.021960040890677
 30
0.0
  0
SEQEND
  5
B5
330
B1
100
AcDbEntity
  8
Wood
 62
   250
420
  2301728
370
    18
  0
POLYLINE
  5
B6
330
1F
100
AcDbEntity
  8
Wood
 62
   250
420
  2301728
370
    18
100
AcDb2dPolyline
 66
     1
 10
0.0
 20
0.0
 30
0.0
  0
VERTEX
  5
B7
330
B6
100
AcDbEntity
  8
Wood
 62
   250
420
  2301728
370
    18
100
AcDbVertex
100
AcDb2dVertex
 10
3.536450793300989
 20
7.237107314713474
 30
0.0
  0
VERTEX
  5
B8
330
B6
100
AcDbEntity
  8
Wood
 62
   250
420
  2301728
370
    18
100
AcDbVertex
100
AcDb2dVertex
 10
5.546900930414722
 20
7.681008993362739
 30
0.0
  0
SEQEND
  5
B9
330
B6
100
AcDbEntity
  8
Wood
 62
   250
420
  2301728
370
    18
  0
POLYLINE
  5
BA
330
1F
100
AcDbEntity
  8
Wood
 62
   250
420
  2301728
370
    13
100
AcDb2dPolyline
 66
     1
 10
0.0
 20
0.0
 30
0.0
  0
VERTEX
  5
BB
330
BA
100
AcDbEntity
  8
Wood
 62
   250
420
  2301728
370
    13
100
AcDbVertex
100
AcDb2dVertex
 10
3.12946675755178
 20
7.39832753635609
 30
0.0
  0
VERTEX
  5
BC
330
BA
100
AcDbEntity
  8
Wood
 62
   250
420
  2301728
370
    13
100
AcDbVertex
100
AcDb2dVertex
 10
3.180582197885087
 20
7.392427809417654
 30
0.0
  0
SEQEND
  5
BD
330
BA
100
AcDbEntity
  8
Wood
 62
   250
420
  2301728
370
    13
  0
POLYLINE
  5
BE
330
1F
100
AcDbEntity
  8
Wood
 62
   250
420
  2301728
370
    13
100
AcDb2dPolyline
 66
     1
 10
0.0
 20
0.0
 30
0.0
  0
VERTEX
  5
BF
330
BE
100
AcDbEntity
  8
Wood
 62
   250
420
  2301728
370
    13
100
AcDbVertex
100
AcDb2dVertex
 10
3.310348494596345
 20
7.337378887441698
 30
0.0
  0
VERTEX
  5
C0
330
BE
100
AcDbEntity
  8
Wood
 62
   250
420
  2301728
370
    13
100
AcDbVertex
100
AcDb2dVertex
 10
3.440109729062252
 20
7.252834303926672
 30
0.0
  0
VERTEX
  5
C1
330
BE
100
AcDbEntity
  8
Wood
 62
   250
420
  2301728
370
    13
100
AcDbVertex
100
AcDb2dVertex
 10
3.520718907641948
 20
7.243006050600861
 30
0.0
  0
SEQEND
  5
C2
330
BE
100
AcDbEntity
  8
Wood
 62
   250
420
  2301728
370
    13
  0
POLYLINE
  5
C3
330
1F
100
AcDbEntity
  8
Wood
 62
   250
420
  2301728
370
    13
100
AcDb2dPolyline
 66
     1
 10
0.0
 20
0.0
 30
0.0
  0
VERTEX
  5
C4
330
C3
100
AcDbEntity
  8
Wood
 62
   250
420
  2301728
370
    13
100
AcDbVertex
100
AcDb2dVertex
 10
3.133396324015065
 20
7.368837821123381
 30
0.0
  0
VERTEX
  5
C5
330
C3
100
AcDbEntity
  8
Wood
 62
   250
420
  2301728
370
    13
100
AcDbVertex
100
AcDb2dVertex
 10
3.215970700116056
 20
7.360973830991244
 30
0.0
  0
VERTEX
  5
C6
330
C3
100
AcDbEntity
  8
Wood
 62
   250
420
  2301728
370
    13
100
AcDbVertex
100
AcDb2dVertex
 10
3.455836718275438
 20
7.215481589612889
 30
0.0
  0
VERTEX
  5
C7
330
C3
100
AcDbEntity
  8
Wood
 62
   250
420
  2301728
370
    13
100
AcDbVertex
100
AcDb2dVertex
 10
3.538411092290441
 20
7.199753609348628
 30
0.0
  0
SEQEND
  5
C8
330
C3
100
AcDbEntity
  8
Wood
 62
   250
420
  2301728
370
    13
  0
POLYLINE
  5
C9
330
1F
100
AcDbEntity
  8
Wood
 62
   250
420
  2301728
370
    13
100
AcDb2dPolyline
 66
     1
 10
0.0
 20
0.0
 30
0.0
  0
VERTEX
  5
CA
330
C9
100
AcDbEntity
  8
Wood
 62
   250
420
  2301728
370
    13
100
AcDbVertex
100
AcDb2dVertex
 10
3.131432011796518
 20
7.343277623329085
 30
0.0
  0
VERTEX
  5
CB
330
C9
100
AcDbEntity
  8
Wood
 62
   250
420
  2301728
370
    13
100
AcDbVertex
100
AcDb2dVertex
 10
3.198279396598309
 20
7.343277623329085
 30
0.0
  0
VERTEX
  5
CC
330
C9
100
AcDbEntity
  8
Wood
 62
   250
420
  2301728
370
    13
100
AcDbVertex
100
AcDb2dVertex
 10
3.453871464030713
 20
7.178122928992757
 30
0.0
  0
VERTEX
  5
CD
330
C9
100
AcDbEntity
  8
Wood
 62
   250
420
  2301728
370
    13
100
AcDbVertex
100
AcDb2dVertex
 10
3.534481574852028
 20
7.164361194024296
 30
0.0
  0
SEQEND
  5
CE
330
C9
100
AcDbEntity
  8
Wood
 62
   250
420
  2301728
370
    13
  0
POLYLINE
  5
CF
330
1F
100
AcDbEntity
  8
Wood
 62
   250
420
  2301728
370
    13
100
AcDb2dPolyline
 66
     1
 10
0.0
 20
0.0
 30
0.0
  0
VERTEX
  5
D0
330
CF
100
AcDbEntity
  8
Wood
 62
   250
420
  2301728
370
    13
100
AcDbVertex
100
AcDb2dVertex
 10
3.133396324015065
 20
7.313787908096363
 30
0.0
  0
VERTEX
  5
D1
330
CF
100
AcDbEntity
  8
Wood
 62
   250
420
  2301728
370
    13
100
AcDbVertex
100
AcDb2dVertex
 10
3.196314142353572
 20
7.317717549837804
 30
0.0
  0
VERTEX
  5
D2
330
CF
100
AcDbEntity
  8
Wood
 62
   250
420
  2301728
370
    13
100
AcDbVertex
100
AcDb2dVertex
 10
3.424381748797992
 20
7.158461467085847
 30
0.0
  0
VERTEX
  5
D3
330
CF
100
AcDbEntity
  8
Wood
 62
   250
420
  2301728
370
    13
100
AcDbVertex
100
AcDb2dVertex
 10
3.534481574852028
 20
7.115210016884665
 30
0.0
  0
SEQEND
  5
D4
330
CF
100
AcDbEntity
  8
Wood
 62
   250
420
  2301728
370
    13
  0
POLYLINE
  5
D5
330
1F
100
AcDbEntity
  8
Wood
 62
   250
420
  2301728
370
    13
100
AcDb2dPolyline
 66
     1
 10
0.0
 20
0.0
 30
0.0
  0
VERTEX
  5
D6
330
D5
100
AcDbEntity
  8
Wood
 62
   250
420
  2301728
370
    13
100
AcDbVertex
100
AcDb2dVertex
 10
3.131432011796518
 20
7.286258491853105
 30
0.0
  0
VERTEX
  5
D7
330
D5
100
AcDbEntity
  8
Wood
 62
   250
420
  2301728
370
    13
100
AcDbVertex
100
AcDb2dVertex
 10
3.196314142353572
 20
7.292157227740492
 30
0.0
  0
VERTEX
  5
D8
330
D5
100
AcDbEntity
  8
Wood
 62
   250
420
  2301728
370
    13
100
AcDbVertex
100
AcDb2dVertex
 10
3.536446888303531
 20
7.050326895276561
 30
0.0
  0
SEQEND
  5
D9
330
D5
100
AcDbEntity
  8
Wood
 62
   250
420
  2301728
370
    13
  0
POLYLINE
  5
DA
330
1F
100
AcDbEntity
  8
Wood
 62
   250
420
  2301728
370
    13
100
AcDb2dPolyline
 66
     1
 10
0.0
 20
0.0
 30
0.0
  0
VERTEX
  5
DB
330
DA
100
AcDbEntity
  8
Wood
 62
   250
420
  2301728
370
    13
100
AcDbVertex
100
AcDb2dVertex
 10
3.12946675755178
 20
7.22924332458135
 30
0.0
  0
VERTEX
  5
DC
330
DA
100
AcDbEntity
  8
Wood
 62
   250
420
  2301728
370
    13
100
AcDbVertex
100
AcDb2dVertex
 10
3.21400638581152
 20
7.215481589612889
 30
0.0
  0
VERTEX
  5
DD
330
DA
100
AcDbEntity
  8
Wood
 62
   250
420
  2301728
370
    13
100
AcDbVertex
100
AcDb2dVertex
 10
3.288717760745435
 20
7.16633041247327
 30
0.0
  0
VERTEX
  5
DE
330
DA
100
AcDbEntity
  8
Wood
 62
   250
420
  2301728
370
    13
100
AcDbVertex
100
AcDb2dVertex
 10
3.34377262902774
 20
7.115210016884665
 30
0.0
  0
SEQEND
  5
DF
330
DA
100
AcDbEntity
  8
Wood
 62
   250
420
  2301728
370
    13
  0
POLYLINE
  5
E0
330
1F
100
AcDbEntity
  8
Wood
 62
   250
420
  2301728
370
    13
100
AcDb2dPolyline
 66
     1
 10
0.0
 20
0.0
 30
0.0
  0
VERTEX
  5
E1
330
E0
100
AcDbEntity
  8
Wood
 62
   250
420
  2301728
370
    13
100
AcDbVertex
100
AcDb2dVertex
 10
3.131432011796518
 20
7.260702381125725
 30
0.0
  0
VERTEX
  5
E2
330
E0
100
AcDbEntity
  8
Wood
 62
   250
420
  2301728
370
    13
100
AcDbVertex
100
AcDb2dVertex
 10
3.19434492390461
 20
7.260702381125725
 30
0.0
  0
VERTEX
  5
E3
330
E0
100
AcDbEntity
  8
Wood
 62
   250
420
  2301728
370
    13
100
AcDbVertex
100
AcDb2dVertex
 10
3.467634190050224
 20
7.060160103857647
 30
0.0
  0
SEQEND
  5
E4
330
E0
100
AcDbEntity
  8
Wood
 62
   250
420
  2301728
370
    13
  0
POLYLINE
  5
E5
330
1F
100
AcDbEntity
  8
Wood
 62
   250
420
  2301728
370
    13
100
AcDb2dPolyline
 66
     1
 10
0.0
 20
0.0
 30
0.0
  0
VERTEX
  5
E6
330
E5
100
AcDbEntity
  8
Wood
 62
   250
420
  2301728
370
    13
100
AcDbVertex
100
AcDb2dVertex
 10
3.182552457651759
 20
7.195820127705979
 30
0.0
  0
VERTEX
  5
E7
330
E5
100
AcDbEntity
  8
Wood
 62
   250
420
  2301728
370
    13
100
AcDbVertex
100
AcDb2dVertex
 10
3.221870375943644
 20
7.187956137573842
 30
0.0
  0
VERTEX
  5
E8
330
E5
100
AcDbEntity
  8
Wood
 62
   250
420
  2301728
370
    13
100
AcDbVertex
100
AcDb2dVertex
 10
3.274955034725925
 20
7.150598468004773
 30
0.0
  0
SEQEND
  5
E9
330
E5
100
AcDbEntity
  8
Wood
 62
   250
420
  2301728
370
    13
  0
POLYLINE
  5
EA
330
1F
100
AcDbEntity
  8
Wood
 62
   250
420
  2301728
370
    25
100
AcDb2dPolyline
 66
     1
 10
0.0
 20
0.0
 30
0.0
  0
VERTEX
  5
EB
330
EA
100
AcDbEntity
  8
Wood
 62
   250
420
  2301728
370
    25
100
AcDbVertex
100
AcDb2dVertex
 10
4.935633522522417
 20
7.35367176680807
 30
0.0
  0
VERTEX
  5
EC
330
EA
100
AcDbEntity
  8
Wood
 62
   250
420
  2301728
370
    25
100
AcDbVertex
100
AcDb2dVertex
 10
4.594204540997503
 20
7.468789284360392
 30
0.0
  0
SEQEND
  5
ED
330
EA
100
AcDbEntity
  8
Wood
 62
   250
420
  2301728
370
    25
  0
POLYLINE
  5
EE
330
1F
100
AcDbEntity
  8
Wood
 62
   250
420
  2301728
370
    18
100
AcDb2dPolyline
 66
     1
 10
0.0
 20
0.0
 30
0.0
  0
VERTEX
  5
EF
330
EE
100
AcDbEntity
  8
Wood
 62
   250
420
  2301728
370
    18
100
AcDbVertex
100
AcDb2dVertex
 10
4.246185069947905
 20
7.392108690977503
 30
0.0
  0
VERTEX
  5
F0
330
EE
100
AcDbEntity
  8
Wood
 62
   250
420
  2301728
370
    18
100
AcDbVertex
100
AcDb2dVertex
 10
4.246185069947905
 20
7.191566657688301
 30
0.0
  0
SEQEND
  5
F1
330
EE
100
AcDbEntity
  8
Wood
 62
   250
420
  2301728
370
    18
  0
POLYLINE
  5
F2
330
1F
100
AcDbEntity
  8
Wood
 62
   250
420
  2301728
370
    18
100
AcDb2dPolyline
 66
     1
 10
0.0
 20
0.0
 30
0.0
  0
VERTEX
  5
F3
330
F2
100
AcDbEntity
  8
Wood
 62
   250
420
  2301728
370
    18
100
AcDbVertex
100
AcDb2dVertex
 10
4.244210896243658
 20
7.390139472528542
 30
0.0
  0
VERTEX
  5
F4
330
F2
100
AcDbEntity
  8
Wood
 62
   250
420
  2301728
370
    18
100
AcDbVertex
100
AcDb2dVertex
 10
5.081784812853256
 20
7.085396227956519
 30
0.0
  0
VERTEX
  5
F5
330
F2
100
AcDbEntity
  8
Wood
 62
   250
420
  2301728
370
    18
100
AcDbVertex
100
AcDb2dVertex
 10
5.447795824779809
 20
7.183005837547385
 30
0.0
  0
SEQEND
  5
F6
330
F2
100
AcDbEntity
  8
Wood
 62
   250
420
  2301728
370
    18
  0
POLYLINE
  5
F7
330
1F
100
AcDbEntity
  8
Wood
 62
   250
420
  2301728
370
    18
100
AcDb2dPolyline
 66
     1
 10
0.0
 20
0.0
 30
0.0
  0
VERTEX
  5
F8
330
F7
100
AcDbEntity
  8
Wood
 62
   250
420
  2301728
370
    18
100
AcDbVertex
100
AcDb2dVertex
 10
5.081784812853256
 20
7.085396227956519
 30
0.0
  0
VERTEX
  5
F9
330
F7
100
AcDbEntity
  8
Wood
 62
   250
420
  2301728
370
    18
100
AcDbVertex
100
AcDb2dVertex
 10
5.081784812853256
 20
6.86126309420581
 30
0.0
  0
SEQEND
  5
FA
330
F7
100
AcDbEntity
  8
Wood
 62
   250
420
  2301728
370
    18
  0
POLYLINE
  5
FB
330
1F
100
AcDbEntity
  8
Wood
 62
   250
420
  2301728
370
    18
100
AcDb2dPolyline
 66
     1
 10
0.0
 20
0.0
 30
0.0
  0
VERTEX
  5
FC
330
FB
100
AcDbEntity
  8
Wood
 62
   250
420
  2301728
370
    18
100
AcDbVertex
100
AcDb2dVertex
 10
5.085704419781096
 20
5.555765412392121
 30
0.0
  0
VERTEX
  5
FD
330
FB
100
AcDbEntity
  8
Wood
 62
   250
420
  2301728
370
    18
100
AcDbVertex
100
AcDb2dVertex
 10
5.085704419781096
 20
5.347083755660933
 30
0.0
  0
SEQEND
  5
FE
330
FB
100
AcDbEntity
  8
Wood
 62
   250
420
  2301728
370
    18
  0
POLYLINE
  5
FF
330
1F
100
AcDbEntity
  8
Wood
 62
   250
420
  2301728
370
    18
100
AcDb2dPolyline
 66
     1
 10
0.0
 20
0.0
 30
0.0
  0
VERTEX
  5
100
330
FF
100
AcDbEntity
  8
Wood
 62
   250
420
  2301728
370
    18
100
AcDbVertex
100
AcDb2dVertex
 10
5.219631095331882
 20
5.613932262253128
 30
0.0
  0
VERTEX
  5
101
330
FF
100
AcDbEntity
  8
Wood
 62
   250
420
  2301728
370
    18
100
AcDbVertex
100
AcDb2dVertex
 10
5.085704419781096
 20
5.555756492932611
 30
0.0
  0
VERTEX
  5
102
330
FF
100
AcDbEntity
  8
Wood
 62
   250
420
  2301728
370
    18
100
AcDbVertex
100
AcDb2dVertex
 10
4.246146418956704
 20
6.023476101619116
 30
0.0
  0
SEQEND
  5
103
330
FF
100
AcDbEntity
  8
Wood
 62
   250
420
  2301728
370
    18
  0
POLYLINE
  5
104
330
1F
100
AcDbEntity
  8
Wood
 62
   250
420
  2301728
370
    18
100
AcDb2dPolyline
 66
     1
 10
0.0
 20
0.0
 30
0.0
  0
VERTEX
  5
105
330
104
100
AcDbEntity
  8
Wood
 62
   250
420
  2301728
370
    18
100
AcDbVertex
100
AcDb2dVertex
 10
5.447795824779809
 20
5.713047280902439
 30
0.0
  0
VERTEX
  5
106
330
104
100
AcDbEntity
  8
Wood
 62
   250
420
  2301728
370
    18
100
AcDbVertex
100
AcDb2dVertex
 10
5.327872700655259
 20
5.660948634155602
 30
0.0
  0
SEQEND
  5
107
330
104
100
AcDbEntity
  8
Wood
 62
   250
420
  2301728
370
    18
  0
POLYLINE
  5
108
330
1F
100
AcDbEntity
  8
Wood
 62
   250
420
  2301728
370
    18
100
AcDb2dPolyline
 66
     1
 10
0.0
 20
0.0
 30
0.0
  0
VERTEX
  5
109
330
108
100
AcDbEntity
  8
Wood
 62
   250
420
  2301728
370
    18
100
AcDbVertex
100
AcDb2dVertex
 10
4.392326449768158
 20
6.070551026795682
 30
0.0
  0
VERTEX
  5
10A
330
108
100
AcDbEntity
  8
Wood
 62
   250
420
  2301728
370
    18
100
AcDbVertex
100
AcDb2dVertex
 10
5.21937936836356
 20
5.614754834650689
 30
0.0
  0
SEQEND
  5
10B
330
108
100
AcDbEntity
  8
Wood
 62
   250
420
  2301728
370
    18
  0
POLYLINE
  5
10C
330
1F
100
AcDbEntity
  8
Wood
 62
   250
420
  2301728
370
    18
100
AcDb2dPolyline
 66
     1
 10
0.0
 20
0.0
 30
0.0
  0
VERTEX
  5
10D
330
10C
100
AcDbEntity
  8
Wood
 62
   250
420
  2301728
370
    18
100
AcDbVertex
100
AcDb2dVertex
 10
5.325549676979159
 20
6.930064831690717
 30
0.0
  0
VERTEX
  5
10E
330
10C
100
AcDbEntity
  8
Wood
 62
   250
420
  2301728
370
    18
100
AcDbVertex
100
AcDb2dVertex
 10
5.325549676979159
 20
6.965463193321398
 30
0.0
  0
VERTEX
  5
10F
330
10C
100
AcDbEntity
  8
Wood
 62
   250
420
  2301728
370
    18
100
AcDbVertex
100
AcDb2dVertex
 10
5.305893170327534
 20
7.036245050816888
 30
0.0
  0
VERTEX
  5
110
330
10C
100
AcDbEntity
  8
Wood
 62
   250
420
  2301728
370
    18
100
AcDbVertex
100
AcDb2dVertex
 10
5.237081522332068
 20
7.024447579042114
 30
0.0
  0
VERTEX
  5
111
330
10C
100
AcDbEntity
  8
Wood
 62
   250
420
  2301728
370
    18
100
AcDbVertex
100
AcDb2dVertex
 10
5.21937936836356
 20
6.939902995527101
 30
0.0
  0
VERTEX
  5
112
330
10C
100
AcDbEntity
  8
Wood
 62
   250
420
  2301728
370
    18
100
AcDbVertex
100
AcDb2dVertex
 10
5.21937936836356
 20
6.369511488453908
 30
0.0
  0
VERTEX
  5
113
330
10C
100
AcDbEntity
  8
Wood
 62
   250
420
  2301728
370
    18
100
AcDbVertex
100
AcDb2dVertex
 10
5.185167294847335
 20
6.357955833136871
 30
0.0
  0
VERTEX
  5
114
330
10C
100
AcDbEntity
  8
Wood
 62
   250
420
  2301728
370
    18
100
AcDbVertex
100
AcDb2dVertex
 10
5.256457561534742
 20
6.289288878595622
 30
0.0
  0
VERTEX
  5
115
330
10C
100
AcDbEntity
  8
Wood
 62
   250
420
  2301728
370
    18
100
AcDbVertex
100
AcDb2dVertex
 10
5.21937936836356
 20
6.274965217678211
 30
0.0
  0
VERTEX
  5
116
330
10C
100
AcDbEntity
  8
Wood
 62
   250
420
  2301728
370
    18
100
AcDbVertex
100
AcDb2dVertex
 10
5.21937936836356
 20
5.581325610186417
 30
0.0
  0
VERTEX
  5
117
330
10C
100
AcDbEntity
  8
Wood
 62
   250
420
  2301728
370
    18
100
AcDbVertex
100
AcDb2dVertex
 10
5.237081522332068
 20
5.508584444752513
 30
0.0
  0
VERTEX
  5
118
330
10C
100
AcDbEntity
  8
Wood
 62
   250
420
  2301728
370
    18
100
AcDbVertex
100
AcDb2dVertex
 10
5.307858424572284
 20
5.538074159985222
 30
0.0
  0
VERTEX
  5
119
330
10C
100
AcDbEntity
  8
Wood
 62
   250
420
  2301728
370
    18
100
AcDbVertex
100
AcDb2dVertex
 10
5.325540757519674
 20
5.630481742581322
 30
0.0
  0
VERTEX
  5
11A
330
10C
100
AcDbEntity
  8
Wood
 62
   250
420
  2301728
370
    18
100
AcDbVertex
100
AcDb2dVertex
 10
5.325540757519674
 20
5.663910968287357
 30
0.0
  0
SEQEND
  5
11B
330
10C
100
AcDbEntity
  8
Wood
 62
   250
420
  2301728
370
    18
  0
POLYLINE
  5
11C
330
1F
100
AcDbEntity
  8
Wood
 62
   250
420
  2301728
370
    25
100
AcDb2dPolyline
 66
     1
 10
0.0
 20
0.0
 30
0.0
  0
VERTEX
  5
11D
330
11C
100
AcDbEntity
  8
Wood
 62
   250
420
  2301728
370
    25
100
AcDbVertex
100
AcDb2dVertex
 10
5.363556484990164
 20
6.325746673805547
 30
0.0
  0
VERTEX
  5
11E
330
11C
100
AcDbEntity
  8
Wood
 62
   250
420
  2301728
370
    25
100
AcDbVertex
100
AcDb2dVertex
 10
5.221856996004438
 20
6.277442845319077
 30
0.0
  0
SEQEND
  5
11F
330
11C
100
AcDbEntity
  8
Wood
 62
   250
420
  2301728
370
    25
  0
POLYLINE
  5
120
330
1F
100
AcDbEntity
  8
Wood
 62
   250
420
  2301728
370
    25
100
AcDb2dPolyline
 66
     1
 10
0.0
 20
0.0
 30
0.0
  0
VERTEX
  5
121
330
120
100
AcDbEntity
  8
Wood
 62
   250
420
  2301728
370
    25
100
AcDbVertex
100
AcDb2dVertex
 10
5.328869698017948
 20
6.407508385954328
 30
0.0
  0
VERTEX
  5
122
330
120
100
AcDbEntity
  8
Wood
 62
   250
420
  2301728
370
    25
100
AcDbVertex
100
AcDb2dVertex
 10
5.185167294847335
 20
6.357955833136871
 30
0.0
  0
SEQEND
  5
123
330
120
100
AcDbEntity
  8
Wood
 62
   250
420
  2301728
370
    25
  0
POLYLINE
  5
124
330
1F
100
AcDbEntity
  8
Wood
 62
   250
420
  2301728
370
    13
100
AcDb2dPolyline
 66
     1
 10
0.0
 20
0.0
 30
0.0
  0
VERTEX
  5
125
330
124
100
AcDbEntity
  8
Wood
 62
   250
420
  2301728
370
    13
100
AcDbVertex
100
AcDb2dVertex
 10
5.304596875545839
 20
6.402558085927858
 30
0.0
  0
VERTEX
  5
126
330
124
100
AcDbEntity
  8
Wood
 62
   250
420
  2301728
370
    13
100
AcDbVertex
100
AcDb2dVertex
 10
5.304596875545839
 20
7.032310578123188
 30
0.0
  0
SEQEND
  5
127
330
124
100
AcDbEntity
  8
Wood
 62
   250
420
  2301728
370
    13
  0
POLYLINE
  5
128
330
1F
100
AcDbEntity
  8
Wood
 62
   250
420
  2301728
370
    13
100
AcDb2dPolyline
 66
     1
 10
0.0
 20
0.0
 30
0.0
  0
VERTEX
  5
129
330
128
100
AcDbEntity
  8
Wood
 62
   250
420
  2301728
370
    13
100
AcDbVertex
100
AcDb2dVertex
 10
5.338780208581435
 20
6.318313790882914
 30
0.0
  0
VERTEX
  5
12A
330
128
100
AcDbEntity
  8
Wood
 62
   250
420
  2301728
370
    13
100
AcDbVertex
100
AcDb2dVertex
 10
5.271884262277884
 20
6.385209737186478
 30
0.0
  0
SEQEND
  5
12B
330
128
100
AcDbEntity
  8
Wood
 62
   250
420
  2301728
370
    13
  0
POLYLINE
  5
12C
330
1F
100
AcDbEntity
  8
Wood
 62
   250
420
  2301728
370
    13
100
AcDb2dPolyline
 66
     1
 10
0.0
 20
0.0
 30
0.0
  0
VERTEX
  5
12D
330
12C
100
AcDbEntity
  8
Wood
 62
   250
420
  2301728
370
    13
100
AcDbVertex
100
AcDb2dVertex
 10
5.304596875545839
 20
5.538074159985222
 30
0.0
  0
VERTEX
  5
12E
330
12C
100
AcDbEntity
  8
Wood
 62
   250
420
  2301728
370
    13
100
AcDbVertex
100
AcDb2dVertex
 10
5.304596875545839
 20
6.303448025037684
 30
0.0
  0
SEQEND
  5
12F
330
12C
100
AcDbEntity
  8
Wood
 62
   250
420
  2301728
370
    13
  0
POLYLINE
  5
130
330
1F
100
AcDbEntity
  8
Wood
 62
   250
420
  2301728
370
    13
100
AcDb2dPolyline
 66
     1
 10
0.0
 20
0.0
 30
0.0
  0
VERTEX
  5
131
330
130
100
AcDbEntity
  8
Wood
 62
   250
420
  2301728
370
    13
100
AcDbVertex
100
AcDb2dVertex
 10
5.283295224140677
 20
6.392642620109086
 30
0.0
  0
VERTEX
  5
132
330
130
100
AcDbEntity
  8
Wood
 62
   250
420
  2301728
370
    13
100
AcDbVertex
100
AcDb2dVertex
 10
5.283295224140677
 20
7.032310578123188
 30
0.0
  0
SEQEND
  5
133
330
130
100
AcDbEntity
  8
Wood
 62
   250
420
  2301728
370
    13
  0
POLYLINE
  5
134
330
1F
100
AcDbEntity
  8
Wood
 62
   250
420
  2301728
370
    13
100
AcDb2dPolyline
 66
     1
 10
0.0
 20
0.0
 30
0.0
  0
VERTEX
  5
135
330
134
100
AcDbEntity
  8
Wood
 62
   250
420
  2301728
370
    13
100
AcDbVertex
100
AcDb2dVertex
 10
5.318959187454437
 20
6.310880907960305
 30
0.0
  0
VERTEX
  5
136
330
134
100
AcDbEntity
  8
Wood
 62
   250
420
  2301728
370
    13
100
AcDbVertex
100
AcDb2dVertex
 10
5.249585613510034
 20
6.380254481904735
 30
0.0
  0
SEQEND
  5
137
330
134
100
AcDbEntity
  8
Wood
 62
   250
420
  2301728
370
    13
  0
POLYLINE
  5
138
330
1F
100
AcDbEntity
  8
Wood
 62
   250
420
  2301728
370
    13
100
AcDb2dPolyline
 66
     1
 10
0.0
 20
0.0
 30
0.0
  0
VERTEX
  5
139
330
138
100
AcDbEntity
  8
Wood
 62
   250
420
  2301728
370
    13
100
AcDbVertex
100
AcDb2dVertex
 10
5.283295224140677
 20
5.528240951404137
 30
0.0
  0
VERTEX
  5
13A
330
138
100
AcDbEntity
  8
Wood
 62
   250
420
  2301728
370
    13
100
AcDbVertex
100
AcDb2dVertex
 10
5.283295224140677
 20
6.298492769755941
 30
0.0
  0
SEQEND
  5
13B
330
138
100
AcDbEntity
  8
Wood
 62
   250
420
  2301728
370
    13
  0
POLYLINE
  5
13C
330
1F
100
AcDbEntity
  8
Wood
 62
   250
420
  2301728
370
    13
100
AcDb2dPolyline
 66
     1
 10
0.0
 20
0.0
 30
0.0
  0
VERTEX
  5
13D
330
13C
100
AcDbEntity
  8
Wood
 62
   250
420
  2301728
370
    13
100
AcDbVertex
100
AcDb2dVertex
 10
5.261993572735516
 20
6.385214692441751
 30
0.0
  0
VERTEX
  5
13E
330
13C
100
AcDbEntity
  8
Wood
 62
   250
420
  2301728
370
    13
100
AcDbVertex
100
AcDb2dVertex
 10
5.261993572735516
 20
7.026411842235802
 30
0.0
  0
SEQEND
  5
13F
330
13C
100
AcDbEntity
  8
Wood
 62
   250
420
  2301728
370
    13
  0
POLYLINE
  5
140
330
1F
100
AcDbEntity
  8
Wood
 62
   250
420
  2301728
370
    13
100
AcDb2dPolyline
 66
     1
 10
0.0
 20
0.0
 30
0.0
  0
VERTEX
  5
141
330
140
100
AcDbEntity
  8
Wood
 62
   250
420
  2301728
370
    13
100
AcDbVertex
100
AcDb2dVertex
 10
5.294182911045734
 20
6.30592565267855
 30
0.0
  0
VERTEX
  5
142
330
140
100
AcDbEntity
  8
Wood
 62
   250
420
  2301728
370
    13
100
AcDbVertex
100
AcDb2dVertex
 10
5.227286964742183
 20
6.372821598982114
 30
0.0
  0
SEQEND
  5
143
330
140
100
AcDbEntity
  8
Wood
 62
   250
420
  2301728
370
    13
  0
POLYLINE
  5
144
330
1F
100
AcDbEntity
  8
Wood
 62
   250
420
  2301728
370
    13
100
AcDb2dPolyline
 66
     1
 10
0.0
 20
0.0
 30
0.0
  0
VERTEX
  5
145
330
144
100
AcDbEntity
  8
Wood
 62
   250
420
  2301728
370
    13
100
AcDbVertex
100
AcDb2dVertex
 10
5.261993572735516
 20
5.520381916527286
 30
0.0
  0
VERTEX
  5
146
330
144
100
AcDbEntity
  8
Wood
 62
   250
420
  2301728
370
    13
100
AcDbVertex
100
AcDb2dVertex
 10
5.261993572735516
 20
6.288582259192455
 30
0.0
  0
SEQEND
  5
147
330
144
100
AcDbEntity
  8
Wood
 62
   250
420
  2301728
370
    13
  0
POLYLINE
  5
148
330
1F
100
AcDbEntity
  8
Wood
 62
   250
420
  2301728
370
    13
100
AcDb2dPolyline
 66
     1
 10
0.0
 20
0.0
 30
0.0
  0
VERTEX
  5
149
330
148
100
AcDbEntity
  8
Wood
 62
   250
420
  2301728
370
    13
100
AcDbVertex
100
AcDb2dVertex
 10
5.240682010819783
 20
6.377776854263857
 30
0.0
  0
VERTEX
  5
14A
330
148
100
AcDbEntity
  8
Wood
 62
   250
420
  2301728
370
    13
100
AcDbVertex
100
AcDb2dVertex
 10
5.240682010819783
 20
7.022482324797377
 30
0.0
  0
SEQEND
  5
14B
330
148
100
AcDbEntity
  8
Wood
 62
   250
420
  2301728
370
    13
  0
POLYLINE
  5
14C
330
1F
100
AcDbEntity
  8
Wood
 62
   250
420
  2301728
370
    13
100
AcDb2dPolyline
 66
     1
 10
0.0
 20
0.0
 30
0.0
  0
VERTEX
  5
14D
330
14C
100
AcDbEntity
  8
Wood
 62
   250
420
  2301728
370
    13
100
AcDbVertex
100
AcDb2dVertex
 10
5.276839517559615
 20
6.298492769755941
 30
0.0
  0
VERTEX
  5
14E
330
14C
100
AcDbEntity
  8
Wood
 62
   250
420
  2301728
370
    13
100
AcDbVertex
100
AcDb2dVertex
 10
5.207465943615185
 20
6.367866343700371
 30
0.0
  0
SEQEND
  5
14F
330
14C
100
AcDbEntity
  8
Wood
 62
   250
420
  2301728
370
    13
  0
POLYLINE
  5
150
330
1F
100
AcDbEntity
  8
Wood
 62
   250
420
  2301728
370
    13
100
AcDb2dPolyline
 66
     1
 10
0.0
 20
0.0
 30
0.0
  0
VERTEX
  5
151
330
150
100
AcDbEntity
  8
Wood
 62
   250
420
  2301728
370
    13
100
AcDbVertex
100
AcDb2dVertex
 10
5.240682010819783
 20
5.510548707946214
 30
0.0
  0
VERTEX
  5
152
330
150
100
AcDbEntity
  8
Wood
 62
   250
420
  2301728
370
    13
100
AcDbVertex
100
AcDb2dVertex
 10
5.240682010819783
 20
6.283627003910699
 30
0.0
  0
SEQEND
  5
153
330
150
100
AcDbEntity
  8
Wood
 62
   250
420
  2301728
370
    13
  0
POLYLINE
  5
154
330
1F
100
AcDbEntity
  8
Wood
 62
   250
420
  2301728
370
    13
100
AcDb2dPolyline
 66
     1
 10
0.0
 20
0.0
 30
0.0
  0
VERTEX
  5
155
330
154
100
AcDbEntity
  8
Wood
 62
   250
420
  2301728
370
    13
100
AcDbVertex
100
AcDb2dVertex
 10
5.087649951398159
 20
5.528240951404137
 30
0.0
  0
VERTEX
  5
156
330
154
100
AcDbEntity
  8
Wood
 62
   250
420
  2301728
370
    13
100
AcDbVertex
100
AcDb2dVertex
 10
5.201688115956686
 20
5.602957281593338
 30
0.0
  0
SEQEND
  5
157
330
154
100
AcDbEntity
  8
Wood
 62
   250
420
  2301728
370
    13
  0
POLYLINE
  5
158
330
1F
100
AcDbEntity
  8
Wood
 62
   250
420
  2301728
370
    13
100
AcDb2dPolyline
 66
     1
 10
0.0
 20
0.0
 30
0.0
  0
VERTEX
  5
159
330
158
100
AcDbEntity
  8
Wood
 62
   250
420
  2301728
370
    13
100
AcDbVertex
100
AcDb2dVertex
 10
5.087649951398159
 20
5.50268075360984
 30
0.0
  0
VERTEX
  5
15A
330
158
100
AcDbEntity
  8
Wood
 62
   250
420
  2301728
370
    13
100
AcDbVertex
100
AcDb2dVertex
 10
5.22134462260831
 20
5.591158818767503
 30
0.0
  0
SEQEND
  5
15B
330
158
100
AcDbEntity
  8
Wood
 62
   250
420
  2301728
370
    13
  0
POLYLINE
  5
15C
330
1F
100
AcDbEntity
  8
Wood
 62
   250
420
  2301728
370
    13
100
AcDb2dPolyline
 66
     1
 10
0.0
 20
0.0
 30
0.0
  0
VERTEX
  5
15D
330
15C
100
AcDbEntity
  8
Wood
 62
   250
420
  2301728
370
    13
100
AcDbVertex
100
AcDb2dVertex
 10
5.087649951398159
 20
5.477120555815544
 30
0.0
  0
VERTEX
  5
15E
330
15C
100
AcDbEntity
  8
Wood
 62
   250
420
  2301728
370
    13
100
AcDbVertex
100
AcDb2dVertex
 10
5.223318796312545
 20
5.565598701013969
 30
0.0
  0
SEQEND
  5
15F
330
15C
100
AcDbEntity
  8
Wood
 62
   250
420
  2301728
370
    13
  0
POLYLINE
  5
160
330
1F
100
AcDbEntity
  8
Wood
 62
   250
420
  2301728
370
    13
100
AcDb2dPolyline
 66
     1
 10
0.0
 20
0.0
 30
0.0
  0
VERTEX
  5
161
330
160
100
AcDbEntity
  8
Wood
 62
   250
420
  2301728
370
    13
100
AcDbVertex
100
AcDb2dVertex
 10
5.085684598759977
 20
5.451560358021248
 30
0.0
  0
VERTEX
  5
162
330
160
100
AcDbEntity
  8
Wood
 62
   250
420
  2301728
370
    13
100
AcDbVertex
100
AcDb2dVertex
 10
5.229212576944645
 20
5.545933194862073
 30
0.0
  0
SEQEND
  5
163
330
160
100
AcDbEntity
  8
Wood
 62
   250
420
  2301728
370
    13
  0
POLYLINE
  5
164
330
1F
100
AcDbEntity
  8
Wood
 62
   250
420
  2301728
370
    13
100
AcDb2dPolyline
 66
     1
 10
0.0
 20
0.0
 30
0.0
  0
VERTEX
  5
165
330
164
100
AcDbEntity
  8
Wood
 62
   250
420
  2301728
370
    13
100
AcDbVertex
100
AcDb2dVertex
 10
5.087649951398159
 20
5.427964423420639
 30
0.0
  0
VERTEX
  5
166
330
164
100
AcDbEntity
  8
Wood
 62
   250
420
  2301728
370
    13
100
AcDbVertex
100
AcDb2dVertex
 10
5.235107348627808
 20
5.516443479629364
 30
0.0
  0
SEQEND
  5
167
330
164
100
AcDbEntity
  8
Wood
 62
   250
420
  2301728
370
    13
  0
POLYLINE
  5
168
330
1F
100
AcDbEntity
  8
Wood
 62
   250
420
  2301728
370
    13
100
AcDb2dPolyline
 66
     1
 10
0.0
 20
0.0
 30
0.0
  0
VERTEX
  5
169
330
168
100
AcDbEntity
  8
Wood
 62
   250
420
  2301728
370
    13
100
AcDbVertex
100
AcDb2dVertex
 10
5.085684598759977
 20
5.398474708187905
 30
0.0
  0
VERTEX
  5
16A
330
168
100
AcDbEntity
  8
Wood
 62
   250
420
  2301728
370
    13
100
AcDbVertex
100
AcDb2dVertex
 10
5.276404446145888
 20
5.524311512963473
 30
0.0
  0
SEQEND
  5
16B
330
168
100
AcDbEntity
  8
Wood
 62
   250
420
  2301728
370
    13
  0
POLYLINE
  5
16C
330
1F
100
AcDbEntity
  8
Wood
 62
   250
420
  2301728
370
    13
100
AcDb2dPolyline
 66
     1
 10
0.0
 20
0.0
 30
0.0
  0
VERTEX
  5
16D
330
16C
100
AcDbEntity
  8
Wood
 62
   250
420
  2301728
370
    13
100
AcDbVertex
100
AcDb2dVertex
 10
5.085684598759977
 20
5.37488967514893
 30
0.0
  0
VERTEX
  5
16E
330
16C
100
AcDbEntity
  8
Wood
 62
   250
420
  2301728
370
    13
100
AcDbVertex
100
AcDb2dVertex
 10
5.301954837236861
 20
5.514478225384614
 30
0.0
  0
VERTEX
  5
16F
330
16C
100
AcDbEntity
  8
Wood
 62
   250
420
  2301728
370
    13
100
AcDbVertex
100
AcDb2dVertex
 10
5.445482711614305
 20
5.530205214597824
 30
0.0
  0
SEQEND
  5
170
330
16C
100
AcDbEntity
  8
Wood
 62
   250
420
  2301728
370
    13
  0
POLYLINE
  5
171
330
1F
100
AcDbEntity
  8
Wood
 62
   250
420
  2301728
370
    13
100
AcDb2dPolyline
 66
     1
 10
0.0
 20
0.0
 30
0.0
  0
VERTEX
  5
172
330
171
100
AcDbEntity
  8
Wood
 62
   250
420
  2301728
370
    13
100
AcDbVertex
100
AcDb2dVertex
 10
5.101421498483735
 20
5.357187521180422
 30
0.0
  0
VERTEX
  5
173
330
171
100
AcDbEntity
  8
Wood
 62
   250
420
  2301728
370
    13
100
AcDbVertex
100
AcDb2dVertex
 10
5.288192007410089
 20
5.479084819009231
 30
0.0
  0
VERTEX
  5
174
330
171
100
AcDbEntity
  8
Wood
 62
   250
420
  2301728
370
    13
100
AcDbVertex
100
AcDb2dVertex
 10
5.447446974807993
 20
5.512513962190925
 30
0.0
  0
SEQEND
  5
175
330
171
100
AcDbEntity
  8
Wood
 62
   250
420
  2301728
370
    13
  0
POLYLINE
  5
176
330
1F
100
AcDbEntity
  8
Wood
 62
   250
420
  2301728
370
    13
100
AcDb2dPolyline
 66
     1
 10
0.0
 20
0.0
 30
0.0
  0
VERTEX
  5
177
330
176
100
AcDbEntity
  8
Wood
 62
   250
420
  2301728
370
    13
100
AcDbVertex
100
AcDb2dVertex
 10
5.193819170569264
 20
5.396510444994242
 30
0.0
  0
VERTEX
  5
178
330
176
100
AcDbEntity
  8
Wood
 62
   250
420
  2301728
370
    13
100
AcDbVertex
100
AcDb2dVertex
 10
5.272465018196903
 20
5.441737136862482
 30
0.0
  0
VERTEX
  5
179
330
176
100
AcDbEntity
  8
Wood
 62
   250
420
  2301728
370
    13
100
AcDbVertex
100
AcDb2dVertex
 10
5.35110987477348
 20
5.459428312357608
 30
0.0
  0
SEQEND
  5
17A
330
176
100
AcDbEntity
  8
Wood
 62
   250
420
  2301728
370
    13
  0
POLYLINE
  5
17B
330
1F
100
AcDbEntity
  8
Wood
 62
   250
420
  2301728
370
    13
100
AcDb2dPolyline
 66
     1
 10
0.0
 20
0.0
 30
0.0
  0
VERTEX
  5
17C
330
17B
100
AcDbEntity
  8
Wood
 62
   250
420
  2301728
370
    13
100
AcDbVertex
100
AcDb2dVertex
 10
5.309822687765973
 20
5.543967940617348
 30
0.0
  0
VERTEX
  5
17D
330
17B
100
AcDbEntity
  8
Wood
 62
   250
420
  2301728
370
    13
100
AcDbVertex
100
AcDb2dVertex
 10
5.331453368121831
 20
5.559694929830534
 30
0.0
  0
VERTEX
  5
17E
330
17B
100
AcDbEntity
  8
Wood
 62
   250
420
  2301728
370
    13
100
AcDbVertex
100
AcDb2dVertex
 10
5.447446974807993
 20
5.553801149198433
 30
0.0
  0
SEQEND
  5
17F
330
17B
100
AcDbEntity
  8
Wood
 62
   250
420
  2301728
370
    13
  0
POLYLINE
  5
180
330
1F
100
AcDbEntity
  8
Wood
 62
   250
420
  2301728
370
    13
100
AcDb2dPolyline
 66
     1
 10
0.0
 20
0.0
 30
0.0
  0
VERTEX
  5
181
330
180
100
AcDbEntity
  8
Wood
 62
   250
420
  2301728
370
    13
100
AcDbVertex
100
AcDb2dVertex
 10
5.31769163315337
 20
5.581325610186417
 30
0.0
  0
VERTEX
  5
182
330
180
100
AcDbEntity
  8
Wood
 62
   250
420
  2301728
370
    13
100
AcDbVertex
100
AcDb2dVertex
 10
5.347181348386104
 20
5.604921544787026
 30
0.0
  0
VERTEX
  5
183
330
180
100
AcDbEntity
  8
Wood
 62
   250
420
  2301728
370
    13
100
AcDbVertex
100
AcDb2dVertex
 10
5.449412229052718
 20
5.58525512762483
 30
0.0
  0
SEQEND
  5
184
330
180
100
AcDbEntity
  8
Wood
 62
   250
420
  2301728
370
    13
  0
POLYLINE
  5
185
330
1F
100
AcDbEntity
  8
Wood
 62
   250
420
  2301728
370
    13
100
AcDb2dPolyline
 66
     1
 10
0.0
 20
0.0
 30
0.0
  0
VERTEX
  5
186
330
185
100
AcDbEntity
  8
Wood
 62
   250
420
  2301728
370
    13
100
AcDbVertex
100
AcDb2dVertex
 10
5.323585413785495
 20
5.618684270806549
 30
0.0
  0
VERTEX
  5
187
330
185
100
AcDbEntity
  8
Wood
 62
   250
420
  2301728
370
    13
100
AcDbVertex
100
AcDb2dVertex
 10
5.37077629193565
 20
5.648173986039258
 30
0.0
  0
VERTEX
  5
188
330
185
100
AcDbEntity
  8
Wood
 62
   250
420
  2301728
370
    13
100
AcDbVertex
100
AcDb2dVertex
 10
5.449412229052718
 20
5.628507568877075
 30
0.0
  0
SEQEND
  5
189
330
185
100
AcDbEntity
  8
Wood
 62
   250
420
  2301728
370
    13
  0
POLYLINE
  5
18A
330
1F
100
AcDbEntity
  8
Wood
 62
   250
420
  2301728
370
    13
100
AcDb2dPolyline
 66
     1
 10
0.0
 20
0.0
 30
0.0
  0
VERTEX
  5
18B
330
18A
100
AcDbEntity
  8
Wood
 62
   250
420
  2301728
370
    13
100
AcDbVertex
100
AcDb2dVertex
 10
5.325549676979159
 20
5.642270294896585
 30
0.0
  0
VERTEX
  5
18C
330
18A
100
AcDbEntity
  8
Wood
 62
   250
420
  2301728
370
    13
100
AcDbVertex
100
AcDb2dVertex
 10
5.386503281148862
 20
5.685531655608328
 30
0.0
  0
VERTEX
  5
18D
330
18A
100
AcDbEntity
  8
Wood
 62
   250
420
  2301728
370
    13
100
AcDbVertex
100
AcDb2dVertex
 10
5.447446974807993
 20
5.681592227659343
 30
0.0
  0
SEQEND
  5
18E
330
18A
100
AcDbEntity
  8
Wood
 62
   250
420
  2301728
370
    13
  0
POLYLINE
  5
18F
330
1F
100
AcDbEntity
  8
Wood
 62
   250
420
  2301728
370
    13
100
AcDb2dPolyline
 66
     1
 10
0.0
 20
0.0
 30
0.0
  0
VERTEX
  5
190
330
18F
100
AcDbEntity
  8
Wood
 62
   250
420
  2301728
370
    13
100
AcDbVertex
100
AcDb2dVertex
 10
5.08175508132154
 20
7.052001771561789
 30
0.0
  0
VERTEX
  5
191
330
18F
100
AcDbEntity
  8
Wood
 62
   250
420
  2301728
370
    13
100
AcDbVertex
100
AcDb2dVertex
 10
5.282298226777988
 20
7.13851061827049
 30
0.0
  0
SEQEND
  5
192
330
18F
100
AcDbEntity
  8
Wood
 62
   250
420
  2301728
370
    13
  0
POLYLINE
  5
193
330
1F
100
AcDbEntity
  8
Wood
 62
   250
420
  2301728
370
    13
100
AcDb2dPolyline
 66
     1
 10
0.0
 20
0.0
 30
0.0
  0
VERTEX
  5
194
330
193
100
AcDbEntity
  8
Wood
 62
   250
420
  2301728
370
    13
100
AcDbVertex
100
AcDb2dVertex
 10
5.08175508132154
 20
7.024476319522755
 30
0.0
  0
VERTEX
  5
195
330
193
100
AcDbEntity
  8
Wood
 62
   250
420
  2301728
370
    13
100
AcDbVertex
100
AcDb2dVertex
 10
5.357013565916128
 20
7.152272353238963
 30
0.0
  0
VERTEX
  5
196
330
193
100
AcDbEntity
  8
Wood
 62
   250
420
  2301728
370
    13
100
AcDbVertex
100
AcDb2dVertex
 10
5.445482711614305
 20
7.168004297707435
 30
0.0
  0
SEQEND
  5
197
330
193
100
AcDbEntity
  8
Wood
 62
   250
420
  2301728
370
    13
  0
POLYLINE
  5
198
330
1F
100
AcDbEntity
  8
Wood
 62
   250
420
  2301728
370
    13
100
AcDb2dPolyline
 66
     1
 10
0.0
 20
0.0
 30
0.0
  0
VERTEX
  5
199
330
198
100
AcDbEntity
  8
Wood
 62
   250
420
  2301728
370
    13
100
AcDbVertex
100
AcDb2dVertex
 10
5.08175508132154
 20
6.991052131596322
 30
0.0
  0
VERTEX
  5
19A
330
198
100
AcDbEntity
  8
Wood
 62
   250
420
  2301728
370
    13
100
AcDbVertex
100
AcDb2dVertex
 10
5.355039392211893
 20
7.128682364944678
 30
0.0
  0
VERTEX
  5
19B
330
198
100
AcDbEntity
  8
Wood
 62
   250
420
  2301728
370
    13
100
AcDbVertex
100
AcDb2dVertex
 10
5.447446974807993
 20
7.142444099913139
 30
0.0
  0
SEQEND
  5
19C
330
198
100
AcDbEntity
  8
Wood
 62
   250
420
  2301728
370
    13
  0
POLYLINE
  5
19D
330
1F
100
AcDbEntity
  8
Wood
 62
   250
420
  2301728
370
    13
100
AcDb2dPolyline
 66
     1
 10
0.0
 20
0.0
 30
0.0
  0
VERTEX
  5
19E
330
19D
100
AcDbEntity
  8
Wood
 62
   250
420
  2301728
370
    13
100
AcDbVertex
100
AcDb2dVertex
 10
5.08175508132154
 20
6.949764944588828
 30
0.0
  0
VERTEX
  5
19F
330
19D
100
AcDbEntity
  8
Wood
 62
   250
420
  2301728
370
    13
100
AcDbVertex
100
AcDb2dVertex
 10
5.343251935798182
 20
7.101156912905644
 30
0.0
  0
VERTEX
  5
1A0
330
19D
100
AcDbEntity
  8
Wood
 62
   250
420
  2301728
370
    13
100
AcDbVertex
100
AcDb2dVertex
 10
5.447446974807993
 20
7.114919638925155
 30
0.0
  0
SEQEND
  5
1A1
330
19D
100
AcDbEntity
  8
Wood
 62
   250
420
  2301728
370
    13
  0
POLYLINE
  5
1A2
330
1F
100
AcDbEntity
  8
Wood
 62
   250
420
  2301728
370
    13
100
AcDb2dPolyline
 66
     1
 10
0.0
 20
0.0
 30
0.0
  0
VERTEX
  5
1A3
330
1A2
100
AcDbEntity
  8
Wood
 62
   250
420
  2301728
370
    13
100
AcDbVertex
100
AcDb2dVertex
 10
5.270800052422222
 20
7.027897427769264
 30
0.0
  0
VERTEX
  5
1A4
330
1A2
100
AcDbEntity
  8
Wood
 62
   250
420
  2301728
370
    13
100
AcDbVertex
100
AcDb2dVertex
 10
5.353075129018205
 20
7.075596715111335
 30
0.0
  0
VERTEX
  5
1A5
330
1A2
100
AcDbEntity
  8
Wood
 62
   250
420
  2301728
370
    13
100
AcDbVertex
100
AcDb2dVertex
 10
5.447446974807993
 20
7.083460705243472
 30
0.0
  0
SEQEND
  5
1A6
330
1A2
100
AcDbEntity
  8
Wood
 62
   250
420
  2301728
370
    13
  0
POLYLINE
  5
1A7
330
1F
100
AcDbEntity
  8
Wood
 62
   250
420
  2301728
370
    13
100
AcDb2dPolyline
 66
     1
 10
0.0
 20
0.0
 30
0.0
  0
VERTEX
  5
1A8
330
1A7
100
AcDbEntity
  8
Wood
 62
   250
420
  2301728
370
    13
100
AcDbVertex
100
AcDb2dVertex
 10
5.08175508132154
 20
6.918306010907145
 30
0.0
  0
VERTEX
  5
1A9
330
1A7
100
AcDbEntity
  8
Wood
 62
   250
420
  2301728
370
    13
100
AcDbVertex
100
AcDb2dVertex
 10
5.232599989455265
 20
7.005753382966203
 30
0.0
  0
SEQEND
  5
1AA
330
1A7
100
AcDbEntity
  8
Wood
 62
   250
420
  2301728
370
    13
  0
POLYLINE
  5
1AB
330
1F
100
AcDbEntity
  8
Wood
 62
   250
420
  2301728
370
    13
100
AcDb2dPolyline
 66
     1
 10
0.0
 20
0.0
 30
0.0
  0
VERTEX
  5
1AC
330
1AB
100
AcDbEntity
  8
Wood
 62
   250
420
  2301728
370
    13
100
AcDbVertex
100
AcDb2dVertex
 10
5.08372033556629
 20
6.88881629567441
 30
0.0
  0
VERTEX
  5
1AD
330
1AB
100
AcDbEntity
  8
Wood
 62
   250
420
  2301728
370
    13
100
AcDbVertex
100
AcDb2dVertex
 10
5.227248313750983
 20
6.973360879189435
 30
0.0
  0
SEQEND
  5
1AE
330
1AB
100
AcDbEntity
  8
Wood
 62
   250
420
  2301728
370
    13
  0
POLYLINE
  5
1AF
330
1F
100
AcDbEntity
  8
Wood
 62
   250
420
  2301728
370
    13
100
AcDb2dPolyline
 66
     1
 10
0.0
 20
0.0
 30
0.0
  0
VERTEX
  5
1B0
330
1AF
100
AcDbEntity
  8
Wood
 62
   250
420
  2301728
370
    13
100
AcDbVertex
100
AcDb2dVertex
 10
5.08175508132154
 20
6.873089306461225
 30
0.0
  0
VERTEX
  5
1B1
330
1AF
100
AcDbEntity
  8
Wood
 62
   250
420
  2301728
370
    13
100
AcDbVertex
100
AcDb2dVertex
 10
5.215450841976184
 20
6.932068736926655
 30
0.0
  0
SEQEND
  5
1B2
330
1AF
100
AcDbEntity
  8
Wood
 62
   250
420
  2301728
370
    13
  0
POLYLINE
  5
1B3
330
1F
100
AcDbEntity
  8
Wood
 62
   250
420
  2301728
370
    13
100
AcDb2dPolyline
 66
     1
 10
0.0
 20
0.0
 30
0.0
  0
VERTEX
  5
1B4
330
1B3
100
AcDbEntity
  8
Wood
 62
   250
420
  2301728
370
    13
100
AcDbVertex
100
AcDb2dVertex
 10
5.17416266391764
 20
6.88881629567441
 30
0.0
  0
VERTEX
  5
1B5
330
1B3
100
AcDbEntity
  8
Wood
 62
   250
420
  2301728
370
    13
100
AcDbVertex
100
AcDb2dVertex
 10
5.22134462260831
 20
6.912407389083783
 30
0.0
  0
SEQEND
  5
1B6
330
1B3
100
AcDbEntity
  8
Wood
 62
   250
420
  2301728
370
    13
  0
POLYLINE
  5
1B7
330
1F
100
AcDbEntity
  8
Wood
 62
   250
420
  2301728
370
    13
100
AcDb2dPolyline
 66
     1
 10
0.0
 20
0.0
 30
0.0
  0
VERTEX
  5
1B8
330
1B7
100
AcDbEntity
  8
Wood
 62
   250
420
  2301728
370
    13
100
AcDbVertex
100
AcDb2dVertex
 10
5.313752205204385
 20
7.022512056329067
 30
0.0
  0
VERTEX
  5
1B9
330
1B7
100
AcDbEntity
  8
Wood
 62
   250
420
  2301728
370
    13
100
AcDbVertex
100
AcDb2dVertex
 10
5.36290833759929
 20
7.048072371614567
 30
0.0
  0
VERTEX
  5
1BA
330
1B7
100
AcDbEntity
  8
Wood
 62
   250
420
  2301728
370
    13
100
AcDbVertex
100
AcDb2dVertex
 10
5.451386402756977
 20
7.050036517317039
 30
0.0
  0
SEQEND
  5
1BB
330
1B7
100
AcDbEntity
  8
Wood
 62
   250
420
  2301728
370
    13
  0
POLYLINE
  5
1BC
330
1F
100
AcDbEntity
  8
Wood
 62
   250
420
  2301728
370
    13
100
AcDb2dPolyline
 66
     1
 10
0.0
 20
0.0
 30
0.0
  0
VERTEX
  5
1BD
330
1BC
100
AcDbEntity
  8
Wood
 62
   250
420
  2301728
370
    13
100
AcDbVertex
100
AcDb2dVertex
 10
5.31769163315337
 20
7.00088534017742
 30
0.0
  0
VERTEX
  5
1BE
330
1BC
100
AcDbEntity
  8
Wood
 62
   250
420
  2301728
370
    13
100
AcDbVertex
100
AcDb2dVertex
 10
5.380599590006189
 20
7.026440582716431
 30
0.0
  0
VERTEX
  5
1BF
330
1BC
100
AcDbEntity
  8
Wood
 62
   250
420
  2301728
370
    13
100
AcDbVertex
100
AcDb2dVertex
 10
5.443518448420617
 20
7.026440582716431
 30
0.0
  0
SEQEND
  5
1C0
330
1BC
100
AcDbEntity
  8
Wood
 62
   250
420
  2301728
370
    13
  0
POLYLINE
  5
1C1
330
1F
100
AcDbEntity
  8
Wood
 62
   250
420
  2301728
370
    13
100
AcDb2dPolyline
 66
     1
 10
0.0
 20
0.0
 30
0.0
  0
VERTEX
  5
1C2
330
1C1
100
AcDbEntity
  8
Wood
 62
   250
420
  2301728
370
    13
100
AcDbVertex
100
AcDb2dVertex
 10
5.327514931223909
 20
6.971391660740474
 30
0.0
  0
VERTEX
  5
1C3
330
1C1
100
AcDbEntity
  8
Wood
 62
   250
420
  2301728
370
    13
100
AcDbVertex
100
AcDb2dVertex
 10
5.408125042045236
 20
6.998916237977873
 30
0.0
  0
VERTEX
  5
1C4
330
1C1
100
AcDbEntity
  8
Wood
 62
   250
420
  2301728
370
    13
100
AcDbVertex
100
AcDb2dVertex
 10
5.447446974807993
 20
6.994986604290034
 30
0.0
  0
SEQEND
  5
1C5
330
1C1
100
AcDbEntity
  8
Wood
 62
   250
420
  2301728
370
    13
  0
POLYLINE
  5
1C6
330
1F
100
AcDbEntity
  8
Wood
 62
   250
420
  2301728
370
    13
100
AcDb2dPolyline
 66
     1
 10
0.0
 20
0.0
 30
0.0
  0
VERTEX
  5
1C7
330
1C6
100
AcDbEntity
  8
Wood
 62
   250
420
  2301728
370
    13
100
AcDbVertex
100
AcDb2dVertex
 10
5.325549676979159
 20
6.947800681395139
 30
0.0
  0
VERTEX
  5
1C8
330
1C6
100
AcDbEntity
  8
Wood
 62
   250
420
  2301728
370
    13
100
AcDbVertex
100
AcDb2dVertex
 10
5.429755722401094
 20
6.983189132515248
 30
0.0
  0
VERTEX
  5
1C9
330
1C6
100
AcDbEntity
  8
Wood
 62
   250
420
  2301728
370
    13
100
AcDbVertex
100
AcDb2dVertex
 10
5.449412229052718
 20
6.977290396627861
 30
0.0
  0
SEQEND
  5
1CA
330
1C6
100
AcDbEntity
  8
Wood
 62
   250
420
  2301728
370
    13
  0
POLYLINE
  5
1CB
330
1F
100
AcDbEntity
  8
Wood
 62
   250
420
  2301728
370
    18
100
AcDb2dPolyline
 66
     1
 10
0.0
 20
0.0
 30
0.0
  0
VERTEX
  5
1CC
330
1CB
100
AcDbEntity
  8
Wood
 62
   250
420
  2301728
370
    18
100
AcDbVertex
100
AcDb2dVertex
 10
5.354468546803446
 20
7.761115650247423
 30
0.0
  0
VERTEX
  5
1CD
330
1CB
100
AcDbEntity
  8
Wood
 62
   250
420
  2301728
370
    18
100
AcDbVertex
100
AcDb2dVertex
 10
5.291715193915429
 20
7.731384118556965
 30
0.0
  0
SEQEND
  5
1CE
330
1CB
100
AcDbEntity
  8
Wood
 62
   250
420
  2301728
370
    18
  0
INSERT
  5
1D1
330
1F
100
AcDbEntity
  8
BA
100
AcDbBlockReference
  2
block 2
 10
0.0
 20
0.0
 30
0.0
  0
SPLINE
  5
1D8
330
1F
100
AcDbEntity
  8
BA
 62
   250
420
  2301728
370
    18
100
AcDbSpline
210
0.0
220
0.0
230
1.0
 70
     8
 71
     3
 72
    29
 73
    25
 74
     0
 42
0.0000000001
 43
0.0000000001
 12
1.0
 22
0.0
 32
0.0
 13
1.0
 23
0.0
 33
0.0
 40
0.0
 40
0.0
 40
0.0
 40
0.0
 40
1.0
 40
1.0
 40
1.0
 40
2.0
 40
2.0
 40
2.0
 40
3.0
 40
3.0
 40
3.0
 40
4.0
 40
4.0
 40
4.0
 40
5.0
 40
5.0
 40
5.0
 40
6.0
 40
6.0
 40
6.0
 40
7.0
 40
7.0
 40
7.0
 40
8.0
 40
8.0
 40
8.0
 40
8.0
 10
4.261012184801934
 20
7.321752985436255
 30
0.0
 10
4.261012184801934
 20
7.321752985436255
 30
0.0
 10
4.257702074273728
 20
7.303582064318081
 30
0.0
 10
4.26431238481958
 20
7.293671553754595
 30
0.0
 10
4.26431238481958
 20
7.293671553754595
 30
0.0
 10
4.292398771756527
 20
7.235858590382476
 30
0.0
 10
4.292398771756527
 20
7.235858590382476
 30
0.0
 10
4.292398771756527
 20
7.235858590382476
 30
0.0
 10
4.330385758746362
 20
7.032693123830931
 30
0.0
 10
4.330385758746362
 20
7.032693123830931
 30
0.0
 10
4.330385758746362
 20
7.032693123830931
 30
0.0
 10
4.330385758746362
 20
6.2778491762522
 30
0.0
 10
4.330385758746362
 20
6.2778491762522
 30
0.0
 10
4.330385758746362
 20
6.2778491762522
 30
0.0
 10
4.474088161916976
 20
5.706339763587443
 30
0.0
 10
4.474088161916976
 20
5.706339763587443
 30
0.0
 10
4.474088161916976
 20
5.706339763587443
 30
0.0
 10
4.464177651353465
 20
5.703039563569797
 30
0.0
 10
4.464177651353465
 20
5.703039563569797
 30
0.0
 10
4.464177651353465
 20
5.703039563569797
 30
0.0
 10
4.467477851371111
 20
5.694774197759847
 30
0.0
 10
4.467477851371111
 20
5.694774197759847
 30
0.0
 10
4.467477851371111
 20
5.694774197759847
 30
0.0
 10
4.472433106652867
 20
5.679908431914606
 30
0.0
 10
4.487298872498084
 20
5.681563487178715
 30
0.0
  0
POLYLINE
  5
1D9
330
1F
100
AcDbEntity
  8
BA
 62
   250
420
  2301728
370
    18
100
AcDb2dPolyline
 66
     1
 10
0.0
 20
0.0
 30
0.0
  0
VERTEX
  5
1DA
330
1D9
100
AcDbEntity
  8
BA
 62
   250
420
  2301728
370
    18
100
AcDbVertex
100
AcDb2dVertex
 10
4.332040814010472
 20
6.274539065723982
 30
0.0
  0
VERTEX
  5
1DB
330
1D9
100
AcDbEntity
  8
BA
 62
   250
420
  2301728
370
    18
100
AcDbVertex
100
AcDb2dVertex
 10
4.345251524591605
 20
6.279494321005725
 30
0.0
  0
SEQEND
  5
1DC
330
1D9
100
AcDbEntity
  8
BA
 62
   250
420
  2301728
370
    18
  0
POLYLINE
  5
1DD
330
1F
100
AcDbEntity
  8
BA
 62
   250
420
  2301728
370
    25
100
AcDb2dPolyline
 66
     1
 10
0.0
 20
0.0
 30
0.0
  0
VERTEX
  5
1DE
330
1DD
100
AcDbEntity
  8
BA
 62
   250
420
  2301728
370
    25
100
AcDbVertex
100
AcDb2dVertex
 10
4.47574321718106
 20
5.706339763587443
 30
0.0
  0
VERTEX
  5
1DF
330
1DD
100
AcDbEntity
  8
BA
 62
   250
420
  2301728
370
    25
100
AcDbVertex
100
AcDb2dVertex
 10
4.492254127779839
 20
5.711295018869186
 30
0.0
  0
SEQEND
  5
1E0
330
1DD
100
AcDbEntity
  8
BA
 62
   250
420
  2301728
370
    25
  0
POLYLINE
  5
1E1
330
1F
100
AcDbEntity
  8
BA
 62
   250
420
  2301728
370
    18
100
AcDb2dPolyline
 66
     1
 10
0.0
 20
0.0
 30
0.0
  0
VERTEX
  5
1E2
330
1E1
100
AcDbEntity
  8
BA
 62
   250
420
  2301728
370
    18
100
AcDbVertex
100
AcDb2dVertex
 10
4.330385758746362
 20
7.032693123830931
 30
0.0
  0
VERTEX
  5
1E3
330
1E1
100
AcDbEntity
  8
BA
 62
   250
420
  2301728
370
    18
100
AcDbVertex
100
AcDb2dVertex
 10
4.345251524591605
 20
7.034348179095041
 30
0.0
  0
SEQEND
  5
1E4
330
1E1
100
AcDbEntity
  8
BA
 62
   250
420
  2301728
370
    18
  0
POLYLINE
  5
1E5
330
1F
100
AcDbEntity
  8
BA
 62
   250
420
  2301728
370
    18
100
AcDb2dPolyline
 66
     1
 10
0.0
 20
0.0
 30
0.0
  0
VERTEX
  5
1E6
330
1E5
100
AcDbEntity
  8
BA
 62
   250
420
  2301728
370
    18
100
AcDbVertex
100
AcDb2dVertex
 10
4.292398771756527
 20
7.235858590382476
 30
0.0
  0
VERTEX
  5
1E7
330
1E5
100
AcDbEntity
  8
BA
 62
   250
420
  2301728
370
    18
100
AcDbVertex
100
AcDb2dVertex
 10
4.308909682355281
 20
7.239163745655408
 30
0.0
  0
SEQEND
  5
1E8
330
1E5
100
AcDbEntity
  8
BA
 62
   250
420
  2301728
370
    18
  0
SPLINE
  5
1E9
330
1F
100
AcDbEntity
  8
BA
 62
   250
420
  2301728
370
    18
100
AcDbSpline
210
0.0
220
0.0
230
1.0
 70
     8
 71
     3
 72
    23
 73
    19
 74
     0
 42
0.0000000001
 43
0.0000000001
 12
1.0
 22
0.0
 32
0.0
 13
1.0
 23
0.0
 33
0.0
 40
0.0
 40
0.0
 40
0.0
 40
0.0
 40
1.0
 40
1.0
 40
1.0
 40
2.0
 40
2.0
 40
2.0
 40
3.0
 40
3.0
 40
3.0
 40
4.0
 40
4.0
 40
4.0
 40
5.0
 40
5.0
 40
5.0
 40
6.0
 40
6.0
 40
6.0
 40
6.0
 10
4.008294165432959
 20
7.27385053262761
 30
0.0
 10
4.008294165432959
 20
7.27385053262761
 30
0.0
 10
4.013254375969975
 20
7.27715568790053
 30
0.0
 10
4.021509831269364
 20
7.263940022064124
 30
0.0
 10
4.021509831269364
 20
7.263940022064124
 30
0.0
 10
4.110704426340766
 20
7.035998279103865
 30
0.0
 10
4.110704426340766
 20
7.035998279103865
 30
0.0
 10
4.110704426340766
 20
7.035998279103865
 30
0.0
 10
4.110704426340766
 20
6.284449576287468
 30
0.0
 10
4.110704426340766
 20
6.284449576287468
 30
0.0
 10
4.110704426340766
 20
6.284449576287468
 30
0.0
 10
4.10904937107667
 20
6.256373099861106
 30
0.0
 10
4.125570192186008
 20
6.216731057607149
 30
0.0
 10
4.125570192186008
 20
6.216731057607149
 30
0.0
 10
4.249446618974338
 20
5.975578604065769
 30
0.0
 10
4.249446618974338
 20
5.975578604065769
 30
0.0
 10
4.249446618974338
 20
5.975578604065769
 30
0.0
 10
4.257702074273728
 20
5.955757582938784
 30
0.0
 10
4.259357129537837
 20
5.949147272392931
 30
0.0
  0
POLYLINE
  5
1EA
330
1F
100
AcDbEntity
  8
BA
 62
   250
420
  2301728
370
    18
100
AcDb2dPolyline
 66
     1
 10
0.0
 20
0.0
 30
0.0
  0
VERTEX
  5
1EB
330
1EA
100
AcDbEntity
  8
BA
 62
   250
420
  2301728
370
    18
100
AcDbVertex
100
AcDb2dVertex
 10
4.095838660495537
 20
7.044258689658527
 30
0.0
  0
VERTEX
  5
1EC
330
1EA
100
AcDbEntity
  8
BA
 62
   250
420
  2301728
370
    18
100
AcDbVertex
100
AcDb2dVertex
 10
4.110704426340766
 20
7.035998279103865
 30
0.0
  0
SEQEND
  5
1ED
330
1EA
100
AcDbEntity
  8
BA
 62
   250
420
  2301728
370
    18
  0
SPLINE
  5
1EE
330
1F
100
AcDbEntity
  8
BA
 62
   250
420
  2301728
370
    18
100
AcDbSpline
210
0.0
220
0.0
230
1.0
 70
     8
 71
     3
 72
    14
 73
    10
 74
     0
 42
0.0000000001
 43
0.0000000001
 12
1.0
 22
0.0
 32
0.0
 13
1.0
 23
0.0
 33
0.0
 40
0.0
 40
0.0
 40
0.0
 40
0.0
 40
1.0
 40
1.0
 40
1.0
 40
2.0
 40
2.0
 40
2.0
 40
3.0
 40
3.0
 40
3.0
 40
3.0
 10
3.730799869655256
 20
7.42911354637052
 30
0.0
 10
3.730799869655256
 20
7.42911354637052
 30
0.0
 10
3.968652123179001
 20
7.343224106572039
 30
0.0
 10
3.968652123179001
 20
7.343224106572039
 30
0.0
 10
3.968652123179001
 20
7.343224106572039
 30
0.0
 10
3.975262433724841
 20
7.343224106572039
 30
0.0
 10
3.975262433724841
 20
7.326708240717986
 30
0.0
 10
3.975262433724841
 20
7.326708240717986
 30
0.0
 10
3.975262433724841
 20
7.298626809036338
 30
0.0
 10
3.975262433724841
 20
7.298626809036338
 30
0.0
  0
INSERT
  5
1F0
330
1F
100
AcDbEntity
  8
BA
100
AcDbBlockReference
  2
block 3
 10
0.0
 20
0.0
 30
0.0
  0
INSERT
  5
200
330
1F
100
AcDbEntity
  8
BA
100
AcDbBlockReference
  2
block 4
 10
0.0
 20
0.0
 30
0.0
  0
SPLINE
  5
205
330
1F
100
AcDbEntity
  8
BA
 62
   250
420
  2301728
370
    18
100
AcDbSpline
210
0.0
220
0.0
230
1.0
 70
     8
 71
     3
 72
    14
 73
    10
 74
     0
 42
0.0000000001
 43
0.0000000001
 12
1.0
 22
0.0
 32
0.0
 13
1.0
 23
0.0
 33
0.0
 40
0.0
 40
0.0
 40
0.0
 40
0.0
 40
1.0
 40
1.0
 40
1.0
 40
2.0
 40
2.0
 40
2.0
 40
3.0
 40
3.0
 40
3.0
 40
3.0
 10
4.381593366827929
 20
7.572815949541122
 30
0.0
 10
4.381593366827929
 20
7.572815949541122
 30
0.0
 10
4.631001275668697
 20
7.491881765024395
 30
0.0
 10
4.631001275668697
 20
7.491881765024395
 30
0.0
 10
4.631001275668697
 20
7.491881765024395
 30
0.0
 10
4.642566841496293
 20
7.485276409733816
 30
0.0
 10
4.64421198624983
 20
7.470410643888575
 30
0.0
 10
4.64421198624983
 20
7.470410643888575
 30
0.0
 10
4.64421198624983
 20
7.452239722770425
 30
0.0
 10
4.64421198624983
 20
7.452239722770425
 30
0.0
  0
SPLINE
  5
206
330
1F
100
AcDbEntity
  8
BA
 62
   250
420
  2301728
370
    18
100
AcDbSpline
210
0.0
220
0.0
230
1.0
 70
     8
 71
     3
 72
    14
 73
    10
 74
     0
 42
0.0000000001
 43
0.0000000001
 12
1.0
 22
0.0
 32
0.0
 13
1.0
 23
0.0
 33
0.0
 40
0.0
 40
0.0
 40
0.0
 40
0.0
 40
1.0
 40
1.0
 40
1.0
 40
2.0
 40
2.0
 40
2.0
 40
3.0
 40
3.0
 40
3.0
 40
3.0
 10
4.706985160158966
 20
7.43076860163463
 30
0.0
 10
4.706985160158966
 20
7.43076860163463
 30
0.0
 10
4.706985160158966
 20
7.49023166501556
 30
0.0
 10
4.706985160158966
 20
7.49023166501556
 30
0.0
 10
4.706985160158966
 20
7.49023166501556
 30
0.0
 10
4.703684960141319
 20
7.510047730887258
 30
0.0
 10
4.688819194296078
 20
7.513352886160178
 30
0.0
 10
4.688819194296078
 20
7.513352886160178
 30
0.0
 10
4.460877451335818
 20
7.587681715386351
 30
0.0
 10
4.460877451335818
 20
7.587681715386351
 30
0.0
  0
POLYLINE
  5
207
330
1F
100
AcDbEntity
  8
BA
 62
   250
420
  2301728
370
    13
100
AcDb2dPolyline
 66
     1
 10
0.0
 20
0.0
 30
0.0
  0
VERTEX
  5
208
330
207
100
AcDbEntity
  8
BA
 62
   250
420
  2301728
370
    13
100
AcDbVertex
100
AcDb2dVertex
 10
4.672298373186751
 20
7.470415599143861
 30
0.0
  0
VERTEX
  5
209
330
207
100
AcDbEntity
  8
BA
 62
   250
420
  2301728
370
    13
100
AcDbVertex
100
AcDb2dVertex
 10
4.672298373186751
 20
7.443979312215762
 30
0.0
  0
SEQEND
  5
20A
330
207
100
AcDbEntity
  8
BA
 62
   250
420
  2301728
370
    13
  0
SPLINE
  5
20B
330
1F
100
AcDbEntity
  8
BA
 62
   250
420
  2301728
370
    13
100
AcDbSpline
210
0.0
220
0.0
230
1.0
 70
     8
 71
     3
 72
     8
 73
     4
 74
     0
 42
0.0000000001
 43
0.0000000001
 12
1.0
 22
0.0
 32
0.0
 13
1.0
 23
0.0
 33
0.0
 40
0.0
 40
0.0
 40
0.0
 40
0.0
 40
1.0
 40
1.0
 40
1.0
 40
1.0
 10
4.668998173169105
 20
7.493531865033206
 30
0.0
 10
4.668998173169105
 20
7.493531865033206
 30
0.0
 10
4.672298373186751
 20
7.491876809769097
 30
0.0
 10
4.672298373186751
 20
7.483621354469707
 30
0.0
  0
POLYLINE
  5
20C
330
1F
100
AcDbEntity
  8
BA
 62
   250
420
  2301728
370
    13
100
AcDb2dPolyline
 66
     1
 10
0.0
 20
0.0
 30
0.0
  0
VERTEX
  5
20D
330
20C
100
AcDbEntity
  8
BA
 62
   250
420
  2301728
370
    13
100
AcDbVertex
100
AcDb2dVertex
 10
4.570319219488434
 20
7.526437733257151
 30
0.0
  0
VERTEX
  5
20E
330
20C
100
AcDbEntity
  8
BA
 62
   250
420
  2301728
370
    13
100
AcDbVertex
100
AcDb2dVertex
 10
4.653657693867899
 20
7.498579288063183
 30
0.0
  0
SEQEND
  5
20F
330
20C
100
AcDbEntity
  8
BA
 62
   250
420
  2301728
370
    13
  0
POLYLINE
  5
210
330
1F
100
AcDbEntity
  8
BA
 62
   250
420
  2301728
370
    13
100
AcDb2dPolyline
 66
     1
 10
0.0
 20
0.0
 30
0.0
  0
VERTEX
  5
211
330
210
100
AcDbEntity
  8
BA
 62
   250
420
  2301728
370
    13
100
AcDbVertex
100
AcDb2dVertex
 10
4.487570420487524
 20
7.553730288297957
 30
0.0
  0
VERTEX
  5
212
330
210
100
AcDbEntity
  8
BA
 62
   250
420
  2301728
370
    13
100
AcDbVertex
100
AcDb2dVertex
 10
4.555027301688975
 20
7.531475245776581
 30
0.0
  0
SEQEND
  5
213
330
210
100
AcDbEntity
  8
BA
 62
   250
420
  2301728
370
    13
  0
POLYLINE
  5
214
330
1F
100
AcDbEntity
  8
BA
 62
   250
420
  2301728
370
    13
100
AcDb2dPolyline
 66
     1
 10
0.0
 20
0.0
 30
0.0
  0
VERTEX
  5
215
330
214
100
AcDbEntity
  8
BA
 62
   250
420
  2301728
370
    13
100
AcDbVertex
100
AcDb2dVertex
 10
4.412970043271924
 20
7.577771204822865
 30
0.0
  0
VERTEX
  5
216
330
214
100
AcDbEntity
  8
BA
 62
   250
420
  2301728
370
    13
100
AcDbVertex
100
AcDb2dVertex
 10
4.472162549714489
 20
7.558797532349065
 30
0.0
  0
SEQEND
  5
217
330
214
100
AcDbEntity
  8
BA
 62
   250
420
  2301728
370
    13
  0
SPLINE
  5
218
330
1F
100
AcDbEntity
  8
BA
 62
   250
420
  2301728
370
    18
100
AcDbSpline
210
0.0
220
0.0
230
1.0
 70
     8
 71
     3
 72
    14
 73
    10
 74
     0
 42
0.0000000001
 43
0.0000000001
 12
1.0
 22
0.0
 32
0.0
 13
1.0
 23
0.0
 33
0.0
 40
0.0
 40
0.0
 40
0.0
 40
0.0
 40
1.0
 40
1.0
 40
1.0
 40
2.0
 40
2.0
 40
2.0
 40
3.0
 40
3.0
 40
3.0
 40
3.0
 10
4.773048623575201
 20
7.412597680516468
 30
0.0
 10
4.773048623575201
 20
7.412597680516468
 30
0.0
 10
4.773048623575201
 20
7.503442375596692
 30
0.0
 10
4.773048623575201
 20
7.503442375596692
 30
0.0
 10
4.773048623575201
 20
7.503442375596692
 30
0.0
 10
4.769748423557555
 20
7.523258441468392
 30
0.0
 10
4.754882657712313
 20
7.526563596741298
 30
0.0
 10
4.754882657712313
 20
7.526563596741298
 30
0.0
 10
4.531073597657016
 20
7.596769653573069
 30
0.0
 10
4.531073597657016
 20
7.596769653573069
 30
0.0
  0
POLYLINE
  5
219
330
1F
100
AcDbEntity
  8
BA
 62
   250
420
  2301728
370
    13
100
AcDb2dPolyline
 66
     1
 10
0.0
 20
0.0
 30
0.0
  0
VERTEX
  5
21A
330
219
100
AcDbEntity
  8
BA
 62
   250
420
  2301728
370
    13
100
AcDbVertex
100
AcDb2dVertex
 10
4.738361836602987
 20
7.481971254460909
 30
0.0
  0
VERTEX
  5
21B
330
219
100
AcDbEntity
  8
BA
 62
   250
420
  2301728
370
    13
100
AcDbVertex
100
AcDb2dVertex
 10
4.738361836602987
 20
7.440679112198116
 30
0.0
  0
SEQEND
  5
21C
330
219
100
AcDbEntity
  8
BA
 62
   250
420
  2301728
370
    13
  0
SPLINE
  5
21D
330
1F
100
AcDbEntity
  8
BA
 62
   250
420
  2301728
370
    13
100
AcDbSpline
210
0.0
220
0.0
230
1.0
 70
     8
 71
     3
 72
     8
 73
     4
 74
     0
 42
0.0000000001
 43
0.0000000001
 12
1.0
 22
0.0
 32
0.0
 13
1.0
 23
0.0
 33
0.0
 40
0.0
 40
0.0
 40
0.0
 40
0.0
 40
1.0
 40
1.0
 40
1.0
 40
1.0
 10
4.735061636585341
 20
7.506742575614326
 30
0.0
 10
4.735061636585341
 20
7.506742575614326
 30
0.0
 10
4.738361836602987
 20
7.505087520350243
 30
0.0
 10
4.738361836602987
 20
7.49683206505084
 30
0.0
  0
POLYLINE
  5
21E
330
1F
100
AcDbEntity
  8
BA
 62
   250
420
  2301728
370
    13
100
AcDb2dPolyline
 66
     1
 10
0.0
 20
0.0
 30
0.0
  0
VERTEX
  5
21F
330
21E
100
AcDbEntity
  8
BA
 62
   250
420
  2301728
370
    13
100
AcDbVertex
100
AcDb2dVertex
 10
4.66099444483805
 20
7.530788447394532
 30
0.0
  0
VERTEX
  5
220
330
21E
100
AcDbEntity
  8
BA
 62
   250
420
  2301728
370
    13
100
AcDbVertex
100
AcDb2dVertex
 10
4.721647760537659
 20
7.511098245006981
 30
0.0
  0
SEQEND
  5
221
330
21E
100
AcDbEntity
  8
BA
 62
   250
420
  2301728
370
    13
  0
POLYLINE
  5
222
330
1F
100
AcDbEntity
  8
BA
 62
   250
420
  2301728
370
    13
100
AcDb2dPolyline
 66
     1
 10
0.0
 20
0.0
 30
0.0
  0
VERTEX
  5
223
330
222
100
AcDbEntity
  8
BA
 62
   250
420
  2301728
370
    13
100
AcDbVertex
100
AcDb2dVertex
 10
4.562092504669686
 20
7.562910394232908
 30
0.0
  0
VERTEX
  5
224
330
222
100
AcDbEntity
  8
BA
 62
   250
420
  2301728
370
    13
100
AcDbVertex
100
AcDb2dVertex
 10
4.647619219781569
 20
7.535134336072044
 30
0.0
  0
SEQEND
  5
225
330
222
100
AcDbEntity
  8
BA
 62
   250
420
  2301728
370
    13
  0
POLYLINE
  5
226
330
1F
100
AcDbEntity
  8
BA
 62
   250
420
  2301728
370
    13
100
AcDb2dPolyline
 66
     1
 10
0.0
 20
0.0
 30
0.0
  0
VERTEX
  5
227
330
226
100
AcDbEntity
  8
BA
 62
   250
420
  2301728
370
    13
100
AcDbVertex
100
AcDb2dVertex
 10
4.480698472462816
 20
7.58933677065046
 30
0.0
  0
VERTEX
  5
228
330
226
100
AcDbEntity
  8
BA
 62
   250
420
  2301728
370
    13
100
AcDbVertex
100
AcDb2dVertex
 10
4.548281217148415
 20
7.567390936058662
 30
0.0
  0
SEQEND
  5
229
330
226
100
AcDbEntity
  8
BA
 62
   250
420
  2301728
370
    13
  0
POLYLINE
  5
22A
330
1F
100
AcDbEntity
  8
BA
 62
   250
420
  2301728
370
    13
100
AcDb2dPolyline
 66
     1
 10
0.0
 20
0.0
 30
0.0
  0
VERTEX
  5
22B
330
22A
100
AcDbEntity
  8
BA
 62
   250
420
  2301728
370
    13
100
AcDbVertex
100
AcDb2dVertex
 10
4.807464853609013
 20
7.470381903407946
 30
0.0
  0
VERTEX
  5
321
330
22A
100
AcDbEntity
  8
0
100
AcDbVertex
100
AcDb2dVertex
 10
4.807464853609013
 20
7.470381903407946
 30
0.0
  0
SEQEND
  5
22C
330
22A
100
AcDbEntity
  8
BA
 62
   250
420
  2301728
370
    13
  0
INSERT
  5
22E
330
1F
100
AcDbEntity
  8
BA
100
AcDbBlockReference
  2
block 5
 10
0.0
 20
0.0
 30
0.0
  0
INSERT
  5
241
330
1F
100
AcDbEntity
  8
BA
100
AcDbBlockReference
  2
block 6
 10
0.0
 20
0.0
 30
0.0
  0
INSERT
  5
25A
330
1F
100
AcDbEntity
  8
BA
100
AcDbBlockReference
  2
block 7
 10
0.0
 20
0.0
 30
0.0
  0
INSERT
  5
278
330
1F
100
AcDbEntity
  8
BA
100
AcDbBlockReference
  2
block 8
 10
0.0
 20
0.0
 30
0.0
  0
INSERT
  5
28B
330
1F
100
AcDbEntity
  8
BA
100
AcDbBlockReference
  2
block 9
 10
0.0
 20
0.0
 30
0.0
  0
SPLINE
  5
290
330
1F
100
AcDbEntity
  8
BA
 62
   250
420
  2301728
370
    13
100
AcDbSpline
210
0.0
220
0.0
230
1.0
 70
    11
 71
     3
 72
    17
 73
    13
 74
     0
 42
0.0000000001
 43
0.0000000001
 12
1.0
 22
0.0
 32
0.0
 13
1.0
 23
0.0
 33
0.0
 40
0.0
 40
0.0
 40
0.0
 40
0.0
 40
1.0
 40
1.0
 40
1.0
 40
2.0
 40
2.0
 40
2.0
 40
3.0
 40
3.0
 40
3.0
 40
4.0
 40
4.0
 40
4.0
 40
4.0
 10
4.185173984816944
 20
7.228202720972174
 30
0.0
 10
4.183542714778191
 20
7.218011742959738
 30
0.0
 10
4.175877925908392
 20
7.210768150788883
 30
0.0
 10
4.168057542022741
 20
7.21202083932413
 30
0.0
 10
4.16023319393288
 20
7.213269563655116
 30
0.0
 10
4.155219541477083
 20
7.222545801542537
 30
0.0
 10
4.156849745626497
 20
7.232742725861309
 30
0.0
 10
4.158481015665239
 20
7.242933703873746
 30
0.0
 10
4.16614580453505
 20
7.250182251299886
 30
0.0
 10
4.1739661884207
 20
7.248929562764665
 30
0.0
 10
4.181790536510574
 20
7.247680838433666
 30
0.0
 10
4.186804339440818
 20
7.238399645290959
 30
0.0
 10
4.185173984816944
 20
7.228202720972174
 30
0.0
  0
INSERT
  5
292
330
1F
100
AcDbEntity
  8
BA
100
AcDbBlockReference
  2
block 10
 10
0.0
 20
0.0
 30
0.0
  0
SPLINE
  5
297
330
1F
100
AcDbEntity
  8
BA
 62
   250
420
  2301728
370
    18
100
AcDbSpline
210
0.0
220
0.0
230
1.0
 70
    11
 71
     3
 72
    23
 73
    19
 74
     0
 42
0.0000000001
 43
0.0000000001
 12
1.0
 22
0.0
 32
0.0
 13
1.0
 23
0.0
 33
0.0
 40
0.0
 40
0.0
 40
0.0
 40
0.0
 40
1.0
 40
1.0
 40
1.0
 40
2.0
 40
2.0
 40
2.0
 40
3.0
 40
3.0
 40
3.0
 40
4.0
 40
4.0
 40
4.0
 40
5.0
 40
5.0
 40
5.0
 40
6.0
 40
6.0
 40
6.0
 40
6.0
 10
4.1739661884207
 20
7.248929562764665
 30
0.0
 10
4.173385507798861
 20
7.249020739461848
 30
0.0
 10
4.169610519028045
 20
7.250366586796367
 30
0.0
 10
4.168116014035073
 20
7.250603570606396
 30
0.0
 10
4.160295630149436
 20
7.251857127585114
 30
0.0
 10
4.152630841279612
 20
7.244607711564034
 30
0.0
 10
4.15099957124087
 20
7.234416611095488
 30
0.0
 10
4.149369292253166
 20
7.224220677827765
 30
0.0
 10
4.154382028496179
 20
7.214944439940344
 30
0.0
 10
4.162207367637115
 20
7.213695715609346
 30
0.0
 10
4.162788123556134
 20
7.213603547861099
 30
0.0
 10
4.166562045978708
 20
7.212258691577618
 30
0.0
 10
4.168057542022741
 20
7.21202083932413
 30
0.0
 10
4.175877925908392
 20
7.210768150788883
 30
0.0
 10
4.183542714778191
 20
7.218011742959738
 30
0.0
 10
4.185173984816944
 20
7.228202720972174
 30
0.0
 10
4.186804339440818
 20
7.238399645290959
 30
0.0
 10
4.181790536510574
 20
7.247680838433666
 30
0.0
 10
4.1739661884207
 20
7.248929562764665
 30
0.0
  0
SPLINE
  5
298
330
1F
100
AcDbEntity
  8
BA
 62
   250
420
  2301728
370
    18
100
AcDbSpline
210
0.0
220
0.0
230
1.0
 70
    11
 71
     3
 72
    17
 73
    13
 74
     0
 42
0.0000000001
 43
0.0000000001
 12
1.0
 22
0.0
 32
0.0
 13
1.0
 23
0.0
 33
0.0
 40
0.0
 40
0.0
 40
0.0
 40
0.0
 40
1.0
 40
1.0
 40
1.0
 40
2.0
 40
2.0
 40
2.0
 40
3.0
 40
3.0
 40
3.0
 40
4.0
 40
4.0
 40
4.0
 40
4.0
 10
4.208537022419326
 20
7.144201233436042
 30
0.0
 10
4.207801662535505
 20
7.139618613351482
 30
0.0
 10
4.204355854092151
 20
7.136357064325036
 30
0.0
 10
4.200832591507265
 20
7.136917999222937
 30
0.0
 10
4.197319391414314
 20
7.137479925171887
 30
0.0
 10
4.195064674359324
 20
7.141655223272285
 30
0.0
 10
4.195790123732561
 20
7.146242798612118
 30
0.0
 10
4.196526550549202
 20
7.150830373951963
 30
0.0
 10
4.199981278649854
 20
7.154091922978422
 30
0.0
 10
4.203494554644609
 20
7.153526032825223
 30
0.0
 10
4.207026660609446
 20
7.152965218068364
 30
0.0
 10
4.209272382303121
 20
7.148788808775874
 30
0.0
 10
4.208537022419326
 20
7.144201233436042
 30
0.0
  0
SPLINE
  5
299
330
1F
100
AcDbEntity
  8
BA
 62
   250
420
  2301728
370
    18
100
AcDbSpline
210
0.0
220
0.0
230
1.0
 70
    11
 71
     3
 72
    17
 73
    13
 74
     0
 42
0.0000000001
 43
0.0000000001
 12
1.0
 22
0.0
 32
0.0
 13
1.0
 23
0.0
 33
0.0
 40
0.0
 40
0.0
 40
0.0
 40
0.0
 40
1.0
 40
1.0
 40
1.0
 40
2.0
 40
2.0
 40
2.0
 40
3.0
 40
3.0
 40
3.0
 40
4.0
 40
4.0
 40
4.0
 40
4.0
 10
4.191193628933206
 20
6.232429306339718
 30
0.0
 10
4.190458269049397
 20
6.227851641510445
 30
0.0
 10
4.187012460167908
 20
6.224590092483999
 30
0.0
 10
4.183489198021157
 20
6.225151027381886
 30
0.0
 10
4.17997599749007
 20
6.225712953330836
 30
0.0
 10
4.177721280873205
 20
6.229893206686533
 30
0.0
 10
4.178446730246454
 20
6.234480782026367
 30
0.0
 10
4.179183156624971
 20
6.239068357366199
 30
0.0
 10
4.182637885163747
 20
6.242319995882085
 30
0.0
 10
4.186151161158502
 20
6.241759060984186
 30
0.0
 10
4.189683267123327
 20
6.241198223194133
 30
0.0
 10
4.191928988817027
 20
6.237016881679551
 30
0.0
 10
4.191193628933206
 20
6.232429306339718
 30
0.0
  0
SPLINE
  5
29A
330
1F
100
AcDbEntity
  8
BA
 62
   250
420
  2301728
370
    18
100
AcDbSpline
210
0.0
220
0.0
230
1.0
 70
    11
 71
     3
 72
    17
 73
    13
 74
     0
 42
0.0000000001
 43
0.0000000001
 12
1.0
 22
0.0
 32
0.0
 13
1.0
 23
0.0
 33
0.0
 40
0.0
 40
0.0
 40
0.0
 40
0.0
 40
1.0
 40
1.0
 40
1.0
 40
2.0
 40
2.0
 40
2.0
 40
3.0
 40
3.0
 40
3.0
 40
4.0
 40
4.0
 40
4.0
 40
4.0
 10
4.093327337118745
 20
7.16030581310171
 30
0.0
 10
4.092591977234936
 20
7.155723193017151
 30
0.0
 10
4.089146165881137
 20
7.152461643990705
 30
0.0
 10
4.085622906206696
 20
7.153022578888617
 30
0.0
 10
4.082109703203312
 20
7.153584504837554
 30
0.0
 10
4.079854989058756
 20
7.157759802937953
 30
0.0
 10
4.08058043843198
 20
7.162347378277786
 30
0.0
 10
4.0813168623382
 20
7.166934953617644
 30
0.0
 10
4.084771593349286
 20
7.170196502644077
 30
0.0
 10
4.088284869344041
 20
7.169630612490904
 30
0.0
 10
4.091816975308878
 20
7.169069798140854
 30
0.0
 10
4.094062697002565
 20
7.164893388441556
 30
0.0
 10
4.093327337118745
 20
7.16030581310171
 30
0.0
  0
INSERT
  5
29C
330
1F
100
AcDbEntity
  8
BA
100
AcDbBlockReference
  2
block 11
 10
0.0
 20
0.0
 30
0.0
  0
POLYLINE
  5
2A1
330
1F
100
AcDbEntity
  8
BA
 62
   250
420
  2301728
370
    18
100
AcDb2dPolyline
 66
     1
 10
0.0
 20
0.0
 30
0.0
  0
VERTEX
  5
2A2
330
2A1
100
AcDbEntity
  8
BA
 62
   250
420
  2301728
370
    18
100
AcDbVertex
100
AcDb2dVertex
 10
4.339231880475331
 20
5.873676840173326
 30
0.0
  0
VERTEX
  5
2A3
330
2A1
100
AcDbEntity
  8
BA
 62
   250
420
  2301728
370
    18
100
AcDbVertex
100
AcDb2dVertex
 10
4.358588098656885
 20
5.855452314474633
 30
0.0
  0
VERTEX
  5
2A4
330
2A1
100
AcDbEntity
  8
BA
 62
   250
420
  2301728
370
    18
100
AcDbVertex
100
AcDb2dVertex
 10
4.358588098656885
 20
5.877663750749535
 30
0.0
  0
SEQEND
  5
2A5
330
2A1
100
AcDbEntity
  8
BA
 62
   250
420
  2301728
370
    18
  0
POLYLINE
  5
2A6
330
1F
100
AcDbEntity
  8
BA
 62
   250
420
  2301728
370
    18
100
AcDb2dPolyline
 66
     1
 10
0.0
 20
0.0
 30
0.0
  0
VERTEX
  5
2A7
330
2A6
100
AcDbEntity
  8
BA
 62
   250
420
  2301728
370
    18
100
AcDbVertex
100
AcDb2dVertex
 10
4.338699686058084
 20
6.068595683061504
 30
0.0
  0
VERTEX
  5
2A8
330
2A6
100
AcDbEntity
  8
BA
 62
   250
420
  2301728
370
    18
100
AcDbVertex
100
AcDb2dVertex
 10
4.333095292334418
 20
6.094233182838189
 30
0.0
  0
VERTEX
  5
2A9
330
2A6
100
AcDbEntity
  8
BA
 62
   250
420
  2301728
370
    18
100
AcDbVertex
100
AcDb2dVertex
 10
4.322391940925854
 20
6.08029702288382
 30
0.0
  0
VERTEX
  5
2AA
330
2A6
100
AcDbEntity
  8
BA
 62
   250
420
  2301728
370
    18
100
AcDbVertex
100
AcDb2dVertex
 10
4.338699686058084
 20
6.068595683061504
 30
0.0
  0
SEQEND
  5
2AB
330
2A6
100
AcDbEntity
  8
BA
 62
   250
420
  2301728
370
    18
  0
POLYLINE
  5
2AC
330
1F
100
AcDbEntity
  8
BA
 62
   250
420
  2301728
370
    18
100
AcDb2dPolyline
 66
     1
 10
0.0
 20
0.0
 30
0.0
  0
VERTEX
  5
2AD
330
2AC
100
AcDbEntity
  8
BA
 62
   250
420
  2301728
370
    18
100
AcDbVertex
100
AcDb2dVertex
 10
4.36287538552665
 20
5.967845432673067
 30
0.0
  0
VERTEX
  5
2AE
330
2AC
100
AcDbEntity
  8
BA
 62
   250
420
  2301728
370
    18
100
AcDbVertex
100
AcDb2dVertex
 10
4.357271982854046
 20
5.993482932449764
 30
0.0
  0
VERTEX
  5
2AF
330
2AC
100
AcDbEntity
  8
BA
 62
   250
420
  2301728
370
    18
100
AcDbVertex
100
AcDb2dVertex
 10
4.34656764039442
 20
5.979546772495395
 30
0.0
  0
VERTEX
  5
2B0
330
2AC
100
AcDbEntity
  8
BA
 62
   250
420
  2301728
370
    18
100
AcDbVertex
100
AcDb2dVertex
 10
4.36287538552665
 20
5.967845432673067
 30
0.0
  0
SEQEND
  5
2B1
330
2AC
100
AcDbEntity
  8
BA
 62
   250
420
  2301728
370
    18
  0
POLYLINE
  5
2B2
330
1F
100
AcDbEntity
  8
BA
 62
   250
420
  2301728
370
    18
100
AcDb2dPolyline
 66
     1
 10
0.0
 20
0.0
 30
0.0
  0
VERTEX
  5
2B3
330
2B2
100
AcDbEntity
  8
BA
 62
   250
420
  2301728
370
    18
100
AcDbVertex
100
AcDb2dVertex
 10
4.323253164293823
 20
6.151209699118769
 30
0.0
  0
VERTEX
  5
2B4
330
2B2
100
AcDbEntity
  8
BA
 62
   250
420
  2301728
370
    18
100
AcDbVertex
100
AcDb2dVertex
 10
4.317648770570182
 20
6.176847198895441
 30
0.0
  0
VERTEX
  5
2B5
330
2B2
100
AcDbEntity
  8
BA
 62
   250
420
  2301728
370
    18
100
AcDbVertex
100
AcDb2dVertex
 10
4.306945419161593
 20
6.162910047890009
 30
0.0
  0
VERTEX
  5
2B6
330
2B2
100
AcDbEntity
  8
BA
 62
   250
420
  2301728
370
    18
100
AcDbVertex
100
AcDb2dVertex
 10
4.323253164293823
 20
6.151209699118769
 30
0.0
  0
SEQEND
  5
2B7
330
2B2
100
AcDbEntity
  8
BA
 62
   250
420
  2301728
370
    18
  0
POLYLINE
  5
2B8
330
1F
100
AcDbEntity
  8
BA
 62
   250
420
  2301728
370
    13
100
AcDb2dPolyline
 66
     1
 10
0.0
 20
0.0
 30
0.0
  0
VERTEX
  5
2B9
330
2B8
100
AcDbEntity
  8
BA
 62
   250
420
  2301728
370
    13
100
AcDbVertex
100
AcDb2dVertex
 10
4.82711144975009
 20
7.530729975382201
 30
0.0
  0
VERTEX
  5
2BA
330
2B8
100
AcDbEntity
  8
BA
 62
   250
420
  2301728
370
    13
100
AcDbVertex
100
AcDb2dVertex
 10
4.849952203445759
 20
7.535888396130505
 30
0.0
  0
SEQEND
  5
2BB
330
2B8
100
AcDbEntity
  8
BA
 62
   250
420
  2301728
370
    13
  0
POLYLINE
  5
2BC
330
1F
100
AcDbEntity
  8
BA
 62
   250
420
  2301728
370
    13
100
AcDb2dPolyline
 66
     1
 10
0.0
 20
0.0
 30
0.0
  0
VERTEX
  5
2BD
330
2BC
100
AcDbEntity
  8
BA
 62
   250
420
  2301728
370
    13
100
AcDbVertex
100
AcDb2dVertex
 10
4.767725688351548
 20
7.517330965100363
 30
0.0
  0
VERTEX
  5
2BE
330
2BC
100
AcDbEntity
  8
BA
 62
   250
420
  2301728
370
    13
100
AcDbVertex
100
AcDb2dVertex
 10
4.78193339629537
 20
7.520538997369764
 30
0.0
  0
SEQEND
  5
2BF
330
2BC
100
AcDbEntity
  8
BA
 62
   250
420
  2301728
370
    13
  0
POLYLINE
  5
2C0
330
1F
100
AcDbEntity
  8
BA
 62
   250
420
  2301728
370
    13
100
AcDb2dPolyline
 66
     1
 10
0.0
 20
0.0
 30
0.0
  0
VERTEX
  5
2C1
330
2C0
100
AcDbEntity
  8
BA
 62
   250
420
  2301728
370
    13
100
AcDbVertex
100
AcDb2dVertex
 10
4.702194419352584
 20
7.502552411748095
 30
0.0
  0
VERTEX
  5
2C2
330
2C0
100
AcDbEntity
  8
BA
 62
   250
420
  2301728
370
    13
100
AcDbVertex
100
AcDb2dVertex
 10
4.719363387852758
 20
7.506418501918915
 30
0.0
  0
SEQEND
  5
2C3
330
2C0
100
AcDbEntity
  8
BA
 62
   250
420
  2301728
370
    13
  0
POLYLINE
  5
2C4
330
1F
100
AcDbEntity
  8
BA
 62
   250
420
  2301728
370
    13
100
AcDb2dPolyline
 66
     1
 10
0.0
 20
0.0
 30
0.0
  0
VERTEX
  5
2C5
330
2C4
100
AcDbEntity
  8
BA
 62
   250
420
  2301728
370
    13
100
AcDbVertex
100
AcDb2dVertex
 10
4.647812474737545
 20
7.490285181772606
 30
0.0
  0
VERTEX
  5
2C6
330
2C4
100
AcDbEntity
  8
BA
 62
   250
420
  2301728
370
    13
100
AcDbVertex
100
AcDb2dVertex
 10
4.658671421161974
 20
7.492733077881793
 30
0.0
  0
SEQEND
  5
2C7
330
2C4
100
AcDbEntity
  8
BA
 62
   250
420
  2301728
370
    13
  0
POLYLINE
  5
2C8
330
1F
100
AcDbEntity
  8
BA
 62
   250
420
  2301728
370
    13
100
AcDb2dPolyline
 66
     1
 10
0.0
 20
0.0
 30
0.0
  0
VERTEX
  5
2C9
330
2C8
100
AcDbEntity
  8
BA
 62
   250
420
  2301728
370
    13
100
AcDbVertex
100
AcDb2dVertex
 10
4.190341325024747
 20
7.3870662232028
 30
0.0
  0
VERTEX
  5
2CA
330
2C8
100
AcDbEntity
  8
BA
 62
   250
420
  2301728
370
    13
100
AcDbVertex
100
AcDb2dVertex
 10
4.205555940841817
 20
7.390502197215167
 30
0.0
  0
SEQEND
  5
2CB
330
2C8
100
AcDbEntity
  8
BA
 62
   250
420
  2301728
370
    13
  0
POLYLINE
  5
2CC
330
1F
100
AcDbEntity
  8
BA
 62
   250
420
  2301728
370
    13
100
AcDb2dPolyline
 66
     1
 10
0.0
 20
0.0
 30
0.0
  0
VERTEX
  5
2CD
330
2CC
100
AcDbEntity
  8
BA
 62
   250
420
  2301728
370
    13
100
AcDbVertex
100
AcDb2dVertex
 10
4.127888260606811
 20
7.372975459283629
 30
0.0
  0
VERTEX
  5
2CE
330
2CC
100
AcDbEntity
  8
BA
 62
   250
420
  2301728
370
    13
100
AcDbVertex
100
AcDb2dVertex
 10
4.140963197193224
 20
7.375921979847539
 30
0.0
  0
SEQEND
  5
2CF
330
2CC
100
AcDbEntity
  8
BA
 62
   250
420
  2301728
370
    13
  0
POLYLINE
  5
2D0
330
1F
100
AcDbEntity
  8
BA
 62
   250
420
  2301728
370
    13
100
AcDb2dPolyline
 66
     1
 10
0.0
 20
0.0
 30
0.0
  0
VERTEX
  5
2D1
330
2D0
100
AcDbEntity
  8
BA
 62
   250
420
  2301728
370
    13
100
AcDbVertex
100
AcDb2dVertex
 10
4.057072707375394
 20
7.356996743102122
 30
0.0
  0
VERTEX
  5
2D2
330
2D0
100
AcDbEntity
  8
BA
 62
   250
420
  2301728
370
    13
100
AcDbVertex
100
AcDb2dVertex
 10
4.073355676231206
 20
7.360669703705033
 30
0.0
  0
SEQEND
  5
2D3
330
2D0
100
AcDbEntity
  8
BA
 62
   250
420
  2301728
370
    13
  0
POLYLINE
  5
2D4
330
1F
100
AcDbEntity
  8
BA
 62
   250
420
  2301728
370
    13
100
AcDb2dPolyline
 66
     1
 10
0.0
 20
0.0
 30
0.0
  0
VERTEX
  5
2D5
330
2D4
100
AcDbEntity
  8
BA
 62
   250
420
  2301728
370
    13
100
AcDbVertex
100
AcDb2dVertex
 10
3.982816295359334
 20
7.340243024994543
 30
0.0
  0
VERTEX
  5
2D6
330
2D4
100
AcDbEntity
  8
BA
 62
   250
420
  2301728
370
    13
100
AcDbVertex
100
AcDb2dVertex
 10
4.006503336174129
 20
7.345585906246343
 30
0.0
  0
SEQEND
  5
2D7
330
2D4
100
AcDbEntity
  8
BA
 62
   250
420
  2301728
370
    13
  0
INSERT
  5
2D9
330
1F
100
AcDbEntity
  8
BA
100
AcDbBlockReference
  2
block 12
 10
0.0
 20
0.0
 30
0.0
  0
INSERT
  5
2E1
330
1F
100
AcDbEntity
  8
BA
100
AcDbBlockReference
  2
block 13
 10
0.0
 20
0.0
 30
0.0
  0
INSERT
  5
2E9
330
1F
100
AcDbEntity
  8
BA
100
AcDbBlockReference
  2
block 14
 10
0.0
 20
0.0
 30
0.0
  0
INSERT
  5
2F1
330
1F
100
AcDbEntity
  8
BA
100
AcDbBlockReference
  2
block 15
 10
0.0
 20
0.0
 30
0.0
  0
INSERT
  5
2F9
330
1F
100
AcDbEntity
  8
BA
100
AcDbBlockReference
  2
block 16
 10
0.0
 20
0.0
 30
0.0
  0
INSERT
  5
301
330
1F
100
AcDbEntity
  8
BA
100
AcDbBlockReference
  2
block 17
 10
0.0
 20
0.0
 30
0.0
  0
MTEXT
  5
309
330
1F
100
AcDbEntity
  8
callout
 62
   250
420
  2301728
100
AcDbMText
 10
3.627185397677951
 20
4.904399050606622
 30
0.0
 40
0.118
 41
0.0
 46
0.0
 71
     7
 72
     1
  1
\fHelvetica Neue LT Std 55 Roman|b0|i0|c0|p34;\W1;SIMPSON Strong-Tie\H0.068794;®\H0.118; ^C
 73
     1
 44
1.0
  0
MTEXT
  5
30A
330
1F
100
AcDbEntity
  8
callout
 62
   250
420
  2301728
100
AcDbMText
 10
3.261727227105034
 20
4.704393625259399
 30
0.0
 40
0.118
 41
0.0
 46
0.0
 71
     7
 72
     1
  1
\fHelvetica Neue LT Std 55 Roman|b0|i0|c0|p34;\W1;BA Top Fix I-Joist Installation on 
 73
     1
 44
1.0
  0
MTEXT
  5
30B
330
1F
100
AcDbEntity
  8
callout
 62
   250
420
  2301728
100
AcDbMText
 10
4.005800035264757
 20
4.504388199912177
 30
0.0
 40
0.118
 41
0.0
 46
0.0
 71
     7
 72
     1
  1
\fHelvetica Neue LT Std 55 Roman|b0|i0|c0|p34;\W1;Wood Nailer
 73
     1
 44
1.0
  0
POLYLINE
  5
30C
330
1F
100
AcDbEntity
  8
callout
 62
   250
420
  2236191
370
    18
100
AcDb2dPolyline
 66
     1
 10
0.0
 20
0.0
 30
0.0
  0
VERTEX
  5
30D
330
30C
100
AcDbEntity
  8
callout
 62
   250
420
  2236191
370
    18
100
AcDbVertex
100
AcDb2dVertex
 10
3.829410006742465
 20
5.663900975252457
 30
0.0
  0
VERTEX
  5
30E
330
30C
100
AcDbEntity
  8
callout
 62
   250
420
  2236191
370
    18
100
AcDbVertex
100
AcDb2dVertex
 10
4.221256312148221
 20
6.002000025228022
 30
0.0
  0
SEQEND
  5
30F
330
30C
100
AcDbEntity
  8
callout
 62
   250
420
  2236191
370
    18
  0
MTEXT
  5
310
330
1F
100
AcDbEntity
  8
callout
 62
   250
420
  2236191
100
AcDbMText
 10
3.033656650119358
 20
5.502682030200958
 30
0.0
 40
0.118
 41
0.0
 46
0.0
 71
     7
 72
     1
  1
\fHelvetica Neue LT Std 57 Condensed|b0|i0|c0|p34;\W1;BA1.81/11.88
 73
     1
 44
1.0
  0
MTEXT
  5
311
330
1F
100
AcDbEntity
  8
callout
 62
   250
420
  2236191
100
AcDbMText
 10
2.743334081437852
 20
7.761118994818793
 30
0.0
 40
0.118
 41
0.0
 46
0.0
 71
     7
 72
     1
  1
\fHelvetica Neue LT Std 57 Condensed|b0|i0|c0|p34;\W1;Steel Beam
 73
     1
 44
1.0
  0
MTEXT
  5
312
330
1F
100
AcDbEntity
  8
callout
 62
   250
420
  2236191
100
AcDbMText
 10
3.912746429443359
 20
7.960043801201714
 30
0.0
 40
0.118
 41
0.0
 46
0.0
 71
     7
 72
     1
  1
\fHelvetica Neue LT Std 57 Condensed|b0|i0|c0|p34;\W1;Wood Nailer
 73
     1
 44
1.0
  0
MTEXT
  5
313
330
1F
100
AcDbEntity
  8
callout
 62
   250
420
  2236191
100
AcDbMText
 10
3.970804214477539
 20
5.266096856858995
 30
0.0
 40
0.118
 41
0.0
 46
0.0
 71
     7
 72
     1
  1
\fHelvetica Neue LT Std 57 Condensed|b0|i0|c0|p34;\W1;I-Joist
 73
     1
 44
1.0
  0
POLYLINE
  5
314
330
1F
100
AcDbEntity
  8
callout
 62
   250
420
  2236191
370
    18
100
AcDb2dPolyline
 66
     1
 10
0.0
 20
0.0
 30
0.0
  0
VERTEX
  5
315
330
314
100
AcDbEntity
  8
callout
 62
   250
420
  2236191
370
    18
100
AcDbVertex
100
AcDb2dVertex
 10
4.460877451335818
 20
5.347083755660933
 30
0.0
  0
VERTEX
  5
316
330
314
100
AcDbEntity
  8
callout
 62
   250
420
  2236191
370
    18
100
AcDbVertex
100
AcDb2dVertex
 10
4.772310053762086
 20
5.526926414869321
 30
0.0
  0
SEQEND
  5
317
330
314
100
AcDbEntity
  8
callout
 62
   250
420
  2236191
370
    18
  0
POLYLINE
  5
318
330
1F
100
AcDbEntity
  8
callout
 62
   250
420
  2236191
370
    18
100
AcDb2dPolyline
 66
     1
 10
0.0
 20
0.0
 30
0.0
  0
VERTEX
  5
319
330
318
100
AcDbEntity
  8
callout
 62
   250
420
  2236191
370
    18
100
AcDbVertex
100
AcDb2dVertex
 10
2.97535842293904
 20
7.656362007168481
 30
0.0
  0
VERTEX
  5
31A
330
318
100
AcDbEntity
  8
callout
 62
   250
420
  2236191
370
    18
100
AcDbVertex
100
AcDb2dVertex
 10
3.005682498511684
 20
7.27715568790053
 30
0.0
  0
SEQEND
  5
31B
330
318
100
AcDbEntity
  8
callout
 62
   250
420
  2236191
370
    18
  0
POLYLINE
  5
31C
330
1F
100
AcDbEntity
  8
callout
 62
   250
420
  2236191
370
    18
100
AcDb2dPolyline
 66
     1
 10
0.0
 20
0.0
 30
0.0
  0
VERTEX
  5
31D
330
31C
100
AcDbEntity
  8
callout
 62
   250
420
  2236191
370
    18
100
AcDbVertex
100
AcDb2dVertex
 10
4.337818641668997
 20
7.898209951762864
 30
0.0
  0
VERTEX
  5
31E
330
31C
100
AcDbEntity
  8
callout
 62
   250
420
  2236191
370
    18
100
AcDbVertex
100
AcDb2dVertex
 10
4.66099444483805
 20
7.731384118556965
 30
0.0
  0
SEQEND
  5
31F
330
31C
100
AcDbEntity
  8
callout
 62
   250
420
  2236191
370
    18
  0
ENDSEC
  0
SECTION
  2
OBJECTS
  0
DICTIONARY
  5
C
330
0
100
AcDbDictionary
281
     1
  3
ACAD_GROUP
350
D
  3
ACAD_LAYOUT
350
1A
  3
ACAD_MATERIAL
350
3B
  3
ACAD_MLEADERSTYLE
350
323
  3
ACAD_MLINESTYLE
350
17
  3
ACAD_PLOTSETTINGS
350
19
  3
ACAD_PLOTSTYLENAME
350
E
  3
ACAD_TABLESTYLE
350
322
  3
ACAD_VISUALSTYLE
350
2A
  0
SUN
  5
3F
330
29
100
AcDbSun
 90
        1
290
     0
 63
     7
421
 16777215
 40
1.0
291
     1
 91
  2455826
 92
 54000000
292
     0
 70
     2
 71
   256
280
     1
  0
DICTIONARY
  5
D
102
{ACAD_REACTORS
330
C
102
}
330
C
100
AcDbDictionary
281
     1
  0
DICTIONARY
  5
1A
102
{ACAD_REACTORS
330
C
102
}
330
C
100
AcDbDictionary
281
     1
  3
Layout1
350
1E
  3
Layout2
350
26
  3
Model
350
22
  0
DICTIONARY
  5
3B
102
{ACAD_REACTORS
330
C
102
}
330
C
100
AcDbDictionary
281
     1
  3
ByBlock
350
3D
  3
ByLayer
350
3C
  3
Global
350
3E
  0
DICTIONARY
  5
323
102
{ACAD_REACTORS
330
C
102
}
330
C
100
AcDbDictionary
281
     1
  0
DICTIONARY
  5
17
102
{ACAD_REACTORS
330
C
102
}
330
C
100
AcDbDictionary
281
     1
  3
Standard
350
18
  0
DICTIONARY
  5
19
102
{ACAD_REACTORS
330
C
102
}
330
C
100
AcDbDictionary
281
     1
  0
ACDBDICTIONARYWDFLT
  5
E
102
{ACAD_REACTORS
330
C
102
}
330
C
100
AcDbDictionary
281
     1
  3
Normal
350
F
100
AcDbDictionaryWithDefault
340
F
  0
DICTIONARY
  5
322
102
{ACAD_REACTORS
330
C
102
}
330
C
100
AcDbDictionary
281
     1
  0
DICTIONARY
  5
2A
102
{ACAD_REACTORS
330
C
102
}
330
C
100
AcDbDictionary
281
     1
  3
2dWireframe
350
2F
  3
3D Hidden
350
31
  3
3dWireframe
350
30
  3
Basic
350
32
  3
Brighten
350
36
  3
ColorChange
350
3A
  3
Conceptual
350
34
  3
Dim
350
35
  3
Facepattern
350
39
  3
Flat
350
2B
  3
FlatWithEdges
350
2C
  3
Gouraud
350
2D
  3
GouraudWithEdges
350
2E
  3
Linepattern
350
38
  3
Realistic
350
33
  3
Thicken
350
37
  0
LAYOUT
  5
1E
102
{ACAD_REACTORS
330
1A
102
}
330
1A
100
AcDbPlotSettings
  1

  2
none_device
  4

  6

 40
0.0
 41
0.0
 42
0.0
 43
0.0
 44
0.0
 45
0.0
 46
0.0
 47
0.0
 48
0.0
 49
0.0
140
0.0
141
0.0
142
1.0
143
1.0
 70
   688
 72
     0
 73
     0
 74
     5
  7

 75
    16
 76
     0
 77
     2
 78
   300
147
1.0
148
0.0
149
0.0
100
AcDbLayout
  1
Layout1
 70
     1
 71
     1
 10
0.0
 20
0.0
 11
12.0
 21
9.0
 12
0.0
 22
0.0
 32
0.0
 14
1.000000000000000E+20
 24
1.000000000000000E+20
 34
1.000000000000000E+20
 15
-1.000000000000000E+20
 25
-1.000000000000000E+20
 35
-1.000000000000000E+20
146
0.0
 13
0.0
 23
0.0
 33
0.0
 16
1.0
 26
0.0
 36
0.0
 17
0.0
 27
1.0
 37
0.0
 76
     0
330
1B
  0
LAYOUT
  5
26
102
{ACAD_REACTORS
330
1A
102
}
330
1A
100
AcDbPlotSettings
  1

  2
none_device
  4

  6

 40
0.0
 41
0.0
 42
0.0
 43
0.0
 44
0.0
 45
0.0
 46
0.0
 47
0.0
 48
0.0
 49
0.0
140
0.0
141
0.0
142
1.0
143
1.0
 70
   688
 72
     0
 73
     0
 74
     5
  7

 75
    16
 76
     0
 77
     2
 78
   300
147
1.0
148
0.0
149
0.0
100
AcDbLayout
  1
Layout2
 70
     1
 71
     2
 10
0.0
 20
0.0
 11
0.0
 21
0.0
 12
0.0
 22
0.0
 32
0.0
 14
0.0
 24
0.0
 34
0.0
 15
0.0
 25
0.0
 35
0.0
146
0.0
 13
0.0
 23
0.0
 33
0.0
 16
1.0
 26
0.0
 36
0.0
 17
0.0
 27
1.0
 37
0.0
 76
     0
330
23
  0
LAYOUT
  5
22
102
{ACAD_REACTORS
330
1A
102
}
330
1A
100
AcDbPlotSettings
  1

  2
none_device
  4

  6

 40
0.0
 41
0.0
 42
0.0
 43
0.0
 44
0.0
 45
0.0
 46
0.0
 47
0.0
 48
0.0
 49
0.0
140
0.0
141
0.0
142
1.0
143
1.0
 70
  1712
 72
     0
 73
     0
 74
     0
  7

 75
     0
 76
     0
 77
     2
 78
   300
147
1.0
148
0.0
149
0.0
100
AcDbLayout
  1
Model
 70
     1
 71
     0
 10
0.0
 20
0.0
 11
12.0
 21
9.0
 12
0.0
 22
0.0
 32
0.0
 14
1.000000000000000E+20
 24
1.000000000000000E+20
 34
1.000000000000000E+20
 15
-1.000000000000000E+20
 25
-1.000000000000000E+20
 35
-1.000000000000000E+20
146
0.0
 13
0.0
 23
0.0
 33
0.0
 16
1.0
 26
0.0
 36
0.0
 17
0.0
 27
1.0
 37
0.0
 76
     0
330
1F
331
29
  0
MATERIAL
  5
3D
102
{ACAD_REACTORS
330
3B
102
}
330
3B
100
AcDbMaterial
  1
ByBlock
 72
     1
 94
      127
  0
MATERIAL
  5
3C
102
{ACAD_REACTORS
330
3B
102
}
330
3B
100
AcDbMaterial
  1
ByLayer
 72
     1
 94
      127
  0
MATERIAL
  5
3E
102
{ACAD_REACTORS
330
3B
102
}
330
3B
100
AcDbMaterial
  1
Global
 72
     1
 94
      127
  0
MLINESTYLE
  5
18
102
{ACAD_REACTORS
330
17
102
}
330
17
100
AcDbMlineStyle
  2
Standard
 70
     0
  3

 62
   256
 51
90.0
 52
90.0
 71
     2
 49
0.5
 62
   256
  6
BYLAYER
 49
-0.5
 62
   256
  6
BYLAYER
  0
ACDBPLACEHOLDER
  5
F
102
{ACAD_REACTORS
330
E
102
}
330
E
  0
VISUALSTYLE
  5
2F
102
{ACAD_REACTORS
330
2A
102
}
330
2A
100
AcDbVisualStyle
  2
2dWireframe
 70
     4
177
     2
291
     0
 71
     0
176
     1
 72
     2
176
     1
 73
     0
176
     1
 90
        0
176
     1
 40
-0.6
176
     1
 41
-30.0
176
     1
 62
     5
 63
     7
421
 16777215
176
     1
 74
     1
176
     1
 91
        4
176
     1
 64
     7
176
     1
 65
   257
176
     1
 75
     1
176
     1
175
     1
176
     1
 42
1.0
176
     1
 92
        0
176
     1
 66
   257
176
     1
 43
1.0
176
     1
 76
     1
176
     1
 77
     6
176
     1
 78
     2
176
     1
 67
     7
176
     1
 79
     5
176
     1
170
     0
176
     1
171
     0
176
     1
290
     0
176
     1
 93
        1
176
     1
 44
0.0
176
     1
173
     0
176
     1
  0
VISUALSTYLE
  5
31
102
{ACAD_REACTORS
330
2A
102
}
330
2A
100
AcDbVisualStyle
  2
3D Hidden
 70
     6
177
     2
291
     0
 71
     1
176
     1
 72
     2
176
     1
 73
     2
176
     1
 90
        0
176
     1
 40
-0.6
176
     1
 41
-30.0
176
     1
 62
     5
 63
     7
421
 16777215
176
     1
 74
     2
176
     1
 91
        2
176
     1
 64
     7
176
     1
 65
   257
176
     1
 75
     2
176
     1
175
     1
176
     1
 42
40.0
176
     1
 92
        0
176
     1
 66
   257
176
     1
 43
1.0
176
     1
 76
     1
176
     1
 77
     6
176
     1
 78
     2
176
     1
 67
     7
176
     1
 79
     3
176
     1
170
     0
176
     1
171
     0
176
     1
290
     0
176
     1
 93
        1
176
     1
 44
0.0
176
     1
173
     0
176
     1
  0
VISUALSTYLE
  5
30
102
{ACAD_REACTORS
330
2A
102
}
330
2A
100
AcDbVisualStyle
  2
3dWireframe
 70
     5
177
     2
291
     0
 71
     0
176
     1
 72
     2
176
     1
 73
     0
176
     1
 90
        0
176
     1
 40
-0.6
176
     1
 41
-30.0
176
     1
 62
     5
 63
     7
421
 16777215
176
     1
 74
     1
176
     1
 91
        4
176
     1
 64
     7
176
     1
 65
   257
176
     1
 75
     1
176
     1
175
     1
176
     1
 42
1.0
176
     1
 92
        0
176
     1
 66
   257
176
     1
 43
1.0
176
     1
 76
     1
176
     1
 77
     6
176
     1
 78
     2
176
     1
 67
     7
176
     1
 79
     5
176
     1
170
     0
176
     1
171
     0
176
     1
290
     0
176
     1
 93
        1
176
     1
 44
0.0
176
     1
173
     0
176
     1
  0
VISUALSTYLE
  5
32
102
{ACAD_REACTORS
330
2A
102
}
330
2A
100
AcDbVisualStyle
  2
Basic
 70
     7
177
     2
291
     1
 71
     1
176
     1
 72
     0
176
     1
 73
     1
176
     1
 90
        0
176
     1
 40
-0.6
176
     1
 41
-30.0
176
     1
 62
     5
 63
     7
421
 16777215
176
     1
 74
     0
176
     1
 91
        4
176
     1
 64
     7
176
     1
 65
   257
176
     1
 75
     1
176
     1
175
     1
176
     1
 42
1.0
176
     1
 92
        8
176
     1
 66
     7
176
     1
 43
1.0
176
     1
 76
     1
176
     1
 77
     6
176
     1
 78
     2
176
     1
 67
     7
176
     1
 79
     5
176
     1
170
     0
176
     1
171
     0
176
     1
290
     0
176
     1
 93
        1
176
     1
 44
0.0
176
     1
173
     0
176
     1
  0
VISUALSTYLE
  5
36
102
{ACAD_REACTORS
330
2A
102
}
330
2A
100
AcDbVisualStyle
  2
Brighten
 70
    12
177
     2
291
     1
 71
     2
176
     1
 72
     2
176
     1
 73
     0
176
     1
 90
        0
176
     1
 40
-0.6
176
     1
 41
-30.0
176
     1
 62
     5
 63
     7
421
 16777215
176
     1
 74
     1
176
     1
 91
        4
176
     1
 64
     7
176
     1
 65
   257
176
     1
 75
     1
176
     1
175
     1
176
     1
 42
1.0
176
     1
 92
        8
176
     1
 66
     7
176
     1
 43
1.0
176
     1
 76
     1
176
     1
 77
     6
176
     1
 78
     2
176
     1
 67
     7
176
     1
 79
     5
176
     1
170
     0
176
     1
171
     0
176
     1
290
     0
176
     1
 93
        1
176
     1
 44
50.0
176
     1
173
     0
176
     1
  0
VISUALSTYLE
  5
3A
102
{ACAD_REACTORS
330
2A
102
}
330
2A
100
AcDbVisualStyle
  2
ColorChange
 70
    16
177
     2
291
     1
 71
     2
176
     1
 72
     2
176
     1
 73
     3
176
     1
 90
        0
176
     1
 40
-0.6
176
     1
 41
-30.0
176
     1
 62
     5
 63
     8
421
  8421504
176
     1
 74
     1
176
     1
 91
        4
176
     1
 64
     7
176
     1
 65
   257
176
     1
 75
     1
176
     1
175
     1
176
     1
 42
1.0
176
     1
 92
        8
176
     1
 66
     8
424
  8421504
176
     1
 43
1.0
176
     1
 76
     1
176
     1
 77
     6
176
     1
 78
     2
176
     1
 67
     7
176
     1
 79
     5
176
     1
170
     0
176
     1
171
     0
176
     1
290
     0
176
     1
 93
        1
176
     1
 44
0.0
176
     1
173
     0
176
     1
  0
VISUALSTYLE
  5
34
102
{ACAD_REACTORS
330
2A
102
}
330
2A
100
AcDbVisualStyle
  2
Conceptual
 70
     9
177
     2
291
     0
 71
     3
176
     1
 72
     2
176
     1
 73
     0
176
     1
 90
        0
176
     1
 40
-0.6
176
     1
 41
-30.0
176
     1
 62
     5
 63
     7
421
 16777215
176
     1
 74
     2
176
     1
 91
        2
176
     1
 64
     7
176
     1
 65
   257
176
     1
 75
     1
176
     1
175
     1
176
     1
 42
40.0
176
     1
 92
        8
176
     1
 66
     7
176
     1
 43
1.0
176
     1
 76
     1
176
     1
 77
     6
176
     1
 78
     2
176
     1
 67
     7
176
     1
 79
     3
176
     1
170
     0
176
     1
171
     0
176
     1
290
     0
176
     1
 93
        1
176
     1
 44
0.0
176
     1
173
     0
176
     1
  0
VISUALSTYLE
  5
35
102
{ACAD_REACTORS
330
2A
102
}
330
2A
100
AcDbVisualStyle
  2
Dim
 70
    11
177
     2
291
     1
 71
     2
176
     1
 72
     2
176
     1
 73
     0
176
     1
 90
        0
176
     1
 40
-0.6
176
     1
 41
-30.0
176
     1
 62
     5
 63
     7
421
 16777215
176
     1
 74
     1
176
     1
 91
        4
176
     1
 64
     7
176
     1
 65
   257
176
     1
 75
     1
176
     1
175
     1
176
     1
 42
1.0
176
     1
 92
        8
176
     1
 66
     7
176
     1
 43
1.0
176
     1
 76
     1
176
     1
 77
     6
176
     1
 78
     2
176
     1
 67
     7
176
     1
 79
     5
176
     1
170
     0
176
     1
171
     0
176
     1
290
     0
176
     1
 93
        1
176
     1
 44
-50.0
176
     1
173
     0
176
     1
  0
VISUALSTYLE
  5
39
102
{ACAD_REACTORS
330
2A
102
}
330
2A
100
AcDbVisualStyle
  2
Facepattern
 70
    15
177
     2
291
     1
 71
     2
176
     1
 72
     2
176
     1
 73
     0
176
     1
 90
        0
176
     1
 40
-0.6
176
     1
 41
-30.0
176
     1
 62
     5
 63
     7
421
 16777215
176
     1
 74
     1
176
     1
 91
        4
176
     1
 64
     7
176
     1
 65
   257
176
     1
 75
     1
176
     1
175
     1
176
     1
 42
1.0
176
     1
 92
        8
176
     1
 66
     7
176
     1
 43
1.0
176
     1
 76
     1
176
     1
 77
     6
176
     1
 78
     2
176
     1
 67
     7
176
     1
 79
     5
176
     1
170
     0
176
     1
171
     0
176
     1
290
     0
176
     1
 93
        1
176
     1
 44
0.0
176
     1
173
     0
176
     1
  0
VISUALSTYLE
  5
2B
102
{ACAD_REACTORS
330
2A
102
}
330
2A
100
AcDbVisualStyle
  2
Flat
 70
     0
177
     2
291
     1
 71
     2
176
     1
 72
     1
176
     1
 73
     1
176
     1
 90
        2
176
     1
 40
-0.6
176
     1
 41
30.0
176
     1
 62
     5
 63
     7
421
 16777215
176
     1
 74
     0
176
     1
 91
        4
176
     1
 64
     7
176
     1
 65
   257
176
     1
 75
     1
176
     1
175
     1
176
     1
 42
1.0
176
     1
 92
        8
176
     1
 66
     7
176
     1
 43
1.0
176
     1
 76
     1
176
     1
 77
     6
176
     1
 78
     2
176
     1
 67
     7
176
     1
 79
     5
176
     1
170
     0
176
     1
171
     0
176
     1
290
     0
176
     1
 93
       13
176
     1
 44
0.0
176
     1
173
     0
176
     1
  0
VISUALSTYLE
  5
2C
102
{ACAD_REACTORS
330
2A
102
}
330
2A
100
AcDbVisualStyle
  2
FlatWithEdges
 70
     1
177
     2
291
     1
 71
     2
176
     1
 72
     1
176
     1
 73
     1
176
     1
 90
        2
176
     1
 40
-0.6
176
     1
 41
30.0
176
     1
 62
     5
 63
     7
421
 16777215
176
     1
 74
     1
176
     1
 91
        4
176
     1
 64
     7
176
     1
 65
   257
176
     1
 75
     1
176
     1
175
     1
176
     1
 42
1.0
176
     1
 92
        0
176
     1
 66
   257
176
     1
 43
1.0
176
     1
 76
     1
176
     1
 77
     6
176
     1
 78
     2
176
     1
 67
     7
176
     1
 79
     5
176
     1
170
     0
176
     1
171
     0
176
     1
290
     0
176
     1
 93
       13
176
     1
 44
0.0
176
     1
173
     0
176
     1
  0
VISUALSTYLE
  5
2D
102
{ACAD_REACTORS
330
2A
102
}
330
2A
100
AcDbVisualStyle
  2
Gouraud
 70
     2
177
     2
291
     1
 71
     2
176
     1
 72
     2
176
     1
 73
     1
176
     1
 90
        2
176
     1
 40
-0.6
176
     1
 41
30.0
176
     1
 62
     5
 63
     7
421
 16777215
176
     1
 74
     0
176
     1
 91
        4
176
     1
 64
     7
176
     1
 65
   257
176
     1
 75
     1
176
     1
175
     1
176
     1
 42
1.0
176
     1
 92
        0
176
     1
 66
     7
176
     1
 43
1.0
176
     1
 76
     1
176
     1
 77
     6
176
     1
 78
     2
176
     1
 67
     7
176
     1
 79
     5
176
     1
170
     0
176
     1
171
     0
176
     1
290
     0
176
     1
 93
       13
176
     1
 44
0.0
176
     1
173
     0
176
     1
  0
VISUALSTYLE
  5
2E
102
{ACAD_REACTORS
330
2A
102
}
330
2A
100
AcDbVisualStyle
  2
GouraudWithEdges
 70
     3
177
     2
291
     1
 71
     2
176
     1
 72
     2
176
     1
 73
     1
176
     1
 90
        2
176
     1
 40
-0.6
176
     1
 41
30.0
176
     1
 62
     5
 63
     7
421
 16777215
176
     1
 74
     1
176
     1
 91
        4
176
     1
 64
     7
176
     1
 65
   257
176
     1
 75
     1
176
     1
175
     1
176
     1
 42
1.0
176
     1
 92
        0
176
     1
 66
   257
176
     1
 43
1.0
176
     1
 76
     1
176
     1
 77
     6
176
     1
 78
     2
176
     1
 67
     7
176
     1
 79
     5
176
     1
170
     0
176
     1
171
     0
176
     1
290
     0
176
     1
 93
       13
176
     1
 44
0.0
176
     1
173
     0
176
     1
  0
VISUALSTYLE
  5
38
102
{ACAD_REACTORS
330
2A
102
}
330
2A
100
AcDbVisualStyle
  2
Linepattern
 70
    14
177
     2
291
     1
 71
     2
176
     1
 72
     2
176
     1
 73
     0
176
     1
 90
        0
176
     1
 40
-0.6
176
     1
 41
-30.0
176
     1
 62
     5
 63
     7
421
 16777215
176
     1
 74
     1
176
     1
 91
        4
176
     1
 64
     7
176
     1
 65
   257
176
     1
 75
     7
176
     1
175
     7
176
     1
 42
1.0
176
     1
 92
        8
176
     1
 66
     7
176
     1
 43
1.0
176
     1
 76
     1
176
     1
 77
     6
176
     1
 78
     2
176
     1
 67
     7
176
     1
 79
     5
176
     1
170
     0
176
     1
171
     0
176
     1
290
     0
176
     1
 93
        1
176
     1
 44
0.0
176
     1
173
     0
176
     1
  0
VISUALSTYLE
  5
33
102
{ACAD_REACTORS
330
2A
102
}
330
2A
100
AcDbVisualStyle
  2
Realistic
 70
     8
177
     2
291
     0
 71
     2
176
     1
 72
     2
176
     1
 73
     0
176
     1
 90
        0
176
     1
 40
-0.6
176
     1
 41
-30.0
176
     1
 62
     5
 63
     7
421
 16777215
176
     1
 74
     1
176
     1
 91
        0
176
     1
 64
     7
176
     1
 65
   257
176
     1
 75
     1
176
     1
175
     1
176
     1
 42
1.0
176
     1
 92
        8
176
     1
 66
     8
424
  7895160
176
     1
 43
1.0
176
     1
 76
     1
176
     1
 77
     6
176
     1
 78
     2
176
     1
 67
     7
176
     1
 79
     5
176
     1
170
     0
176
     1
171
     0
176
     1
290
     0
176
     1
 93
       13
176
     1
 44
0.0
176
     1
173
     0
176
     1
  0
VISUALSTYLE
  5
37
102
{ACAD_REACTORS
330
2A
102
}
330
2A
100
AcDbVisualStyle
  2
Thicken
 70
    13
177
     2
291
     1
 71
     2
176
     1
 72
     2
176
     1
 73
     0
176
     1
 90
        0
176
     1
 40
-0.6
176
     1
 41
-30.0
176
     1
 62
     5
 63
     7
421
 16777215
176
     1
 74
     1
176
     1
 91
        4
176
     1
 64
     7
176
     1
 65
   257
176
     1
 75
     1
176
     1
175
     1
176
     1
 42
1.0
176
     1
 92
       12
176
     1
 66
     7
176
     1
 43
1.0
176
     1
 76
     1
176
     1
 77
     6
176
     1
 78
     2
176
     1
 67
     7
176
     1
 79
     5
176
     1
170
     0
176
     1
171
     0
176
     1
290
     0
176
     1
 93
        1
176
     1
 44
0.0
176
     1
173
     0
176
     1
  0
ENDSEC
  0
EOF
