  0
SECTION
  2
HEADER
  9
$ACADVER
  1
AC1024
  9
$ACADMAINTVER
 70
     6
  9
$DWGCODEPAGE
  3
ANSI_1252
  9
$INSBASE
 10
0.0
 20
0.0
 30
0.0
  9
$EXTMIN
 10
1.000000000000000E+20
 20
1.000000000000000E+20
 30
1.000000000000000E+20
  9
$EXTMAX
 10
-1.000000000000000E+20
 20
-1.000000000000000E+20
 30
-1.000000000000000E+20
  9
$LIMMIN
 10
0.0
 20
0.0
  9
$LIMMAX
 10
12.0
 20
9.0
  9
$ORTHOMODE
 70
     0
  9
$REGENMODE
 70
     1
  9
$FILLMODE
 70
     1
  9
$QTEXTMODE
 70
     0
  9
$MIRRTEXT
 70
     1
  9
$LTSCALE
 40
1.0
  9
$ATTMODE
 70
     1
  9
$TEXTSIZE
 40
0.2
  9
$TRACEWID
 40
0.05
  9
$TEXTSTYLE
  7
Standard
  9
$CLAYER
  8
0
  9
$CELTYPE
  6
ByLayer
  9
$CECOLOR
 62
   256
  9
$CELTSCALE
 40
1.0
  9
$DISPSILH
 70
     0
  9
$DIMSCALE
 40
1.0
  9
$DIMASZ
 40
0.18
  9
$DIMEXO
 40
0.0625
  9
$DIMDLI
 40
0.38
  9
$DIMRND
 40
0.0
  9
$DIMDLE
 40
0.0
  9
$DIMEXE
 40
0.18
  9
$DIMTP
 40
0.0
  9
$DIMTM
 40
0.0
  9
$DIMTXT
 40
0.18
  9
$DIMCEN
 40
0.09
  9
$DIMTSZ
 40
0.0
  9
$DIMTOL
 70
     0
  9
$DIMLIM
 70
     0
  9
$DIMTIH
 70
     1
  9
$DIMTOH
 70
     1
  9
$DIMSE1
 70
     0
  9
$DIMSE2
 70
     0
  9
$DIMTAD
 70
     0
  9
$DIMZIN
 70
     0
  9
$DIMBLK
  1

  9
$DIMASO
 70
     1
  9
$DIMSHO
 70
     1
  9
$DIMPOST
  1

  9
$DIMAPOST
  1

  9
$DIMALT
 70
     0
  9
$DIMALTD
 70
     2
  9
$DIMALTF
 40
25.4
  9
$DIMLFAC
 40
1.0
  9
$DIMTOFL
 70
     0
  9
$DIMTVP
 40
0.0
  9
$DIMTIX
 70
     0
  9
$DIMSOXD
 70
     0
  9
$DIMSAH
 70
     0
  9
$DIMBLK1
  1

  9
$DIMBLK2
  1

  9
$DIMSTYLE
  2
Standard
  9
$DIMCLRD
 70
     0
  9
$DIMCLRE
 70
     0
  9
$DIMCLRT
 70
     0
  9
$DIMTFAC
 40
1.0
  9
$DIMGAP
 40
0.09
  9
$DIMJUST
 70
     0
  9
$DIMSD1
 70
     0
  9
$DIMSD2
 70
     0
  9
$DIMTOLJ
 70
     1
  9
$DIMTZIN
 70
     0
  9
$DIMALTZ
 70
     0
  9
$DIMALTTZ
 70
     0
  9
$DIMUPT
 70
     0
  9
$DIMDEC
 70
     4
  9
$DIMTDEC
 70
     4
  9
$DIMALTU
 70
     2
  9
$DIMALTTD
 70
     2
  9
$DIMTXSTY
  7
Standard
  9
$DIMAUNIT
 70
     0
  9
$DIMADEC
 70
     0
  9
$DIMALTRND
 40
0.0
  9
$DIMAZIN
 70
     0
  9
$DIMDSEP
 70
    46
  9
$DIMATFIT
 70
     3
  9
$DIMFRAC
 70
     0
  9
$DIMLDRBLK
  1

  9
$DIMLUNIT
 70
     2
  9
$DIMLWD
 70
    -2
  9
$DIMLWE
 70
    -2
  9
$DIMTMOVE
 70
     0
  9
$DIMFXL
 40
1.0
  9
$DIMFXLON
 70
     0
  9
$DIMJOGANG
 40
0.7853981633974483
  9
$DIMTFILL
 70
     0
  9
$DIMTFILLCLR
 70
     0
  9
$DIMARCSYM
 70
     0
  9
$DIMLTYPE
  6

  9
$DIMLTEX1
  6

  9
$DIMLTEX2
  6

  9
$DIMTXTDIRECTION
 70
     0
  9
$LUNITS
 70
     2
  9
$LUPREC
 70
     4
  9
$SKETCHINC
 40
0.1
  9
$FILLETRAD
 40
0.5
  9
$AUNITS
 70
     0
  9
$AUPREC
 70
     0
  9
$MENU
  1
.
  9
$ELEVATION
 40
0.0
  9
$PELEVATION
 40
0.0
  9
$THICKNESS
 40
0.0
  9
$LIMCHECK
 70
     0
  9
$CHAMFERA
 40
0.5
  9
$CHAMFERB
 40
0.5
  9
$CHAMFERC
 40
1.0
  9
$CHAMFERD
 40
0.0
  9
$SKPOLY
 70
     0
  9
$TDCREATE
 40
2458811.972511725
  9
$TDUCREATE
 40
2458811.430845058
  9
$TDUPDATE
 40
2458811.972511898
  9
$TDUUPDATE
 40
2458811.430845231
  9
$TDINDWG
 40
0.0000000116
  9
$TDUSRTIMER
 40
0.0000000116
  9
$USRTIMER
 70
     1
  9
$ANGBASE
 50
0.0
  9
$ANGDIR
 70
     0
  9
$PDMODE
 70
     0
  9
$PDSIZE
 40
0.0
  9
$PLINEWID
 40
0.0
  9
$SPLFRAME
 70
     0
  9
$SPLINETYPE
 70
     6
  9
$SPLINESEGS
 70
     8
  9
$HANDSEED
  5
39C
  9
$SURFTAB1
 70
     6
  9
$SURFTAB2
 70
     6
  9
$SURFTYPE
 70
     6
  9
$SURFU
 70
     6
  9
$SURFV
 70
     6
  9
$UCSBASE
  2

  9
$UCSNAME
  2

  9
$UCSORG
 10
0.0
 20
0.0
 30
0.0
  9
$UCSXDIR
 10
1.0
 20
0.0
 30
0.0
  9
$UCSYDIR
 10
0.0
 20
1.0
 30
0.0
  9
$UCSORTHOREF
  2

  9
$UCSORTHOVIEW
 70
     0
  9
$UCSORGTOP
 10
0.0
 20
0.0
 30
0.0
  9
$UCSORGBOTTOM
 10
0.0
 20
0.0
 30
0.0
  9
$UCSORGLEFT
 10
0.0
 20
0.0
 30
0.0
  9
$UCSORGRIGHT
 10
0.0
 20
0.0
 30
0.0
  9
$UCSORGFRONT
 10
0.0
 20
0.0
 30
0.0
  9
$UCSORGBACK
 10
0.0
 20
0.0
 30
0.0
  9
$PUCSBASE
  2

  9
$PUCSNAME
  2

  9
$PUCSORG
 10
0.0
 20
0.0
 30
0.0
  9
$PUCSXDIR
 10
1.0
 20
0.0
 30
0.0
  9
$PUCSYDIR
 10
0.0
 20
1.0
 30
0.0
  9
$PUCSORTHOREF
  2

  9
$PUCSORTHOVIEW
 70
     0
  9
$PUCSORGTOP
 10
0.0
 20
0.0
 30
0.0
  9
$PUCSORGBOTTOM
 10
0.0
 20
0.0
 30
0.0
  9
$PUCSORGLEFT
 10
0.0
 20
0.0
 30
0.0
  9
$PUCSORGRIGHT
 10
0.0
 20
0.0
 30
0.0
  9
$PUCSORGFRONT
 10
0.0
 20
0.0
 30
0.0
  9
$PUCSORGBACK
 10
0.0
 20
0.0
 30
0.0
  9
$USERI1
 70
     0
  9
$USERI2
 70
     0
  9
$USERI3
 70
     0
  9
$USERI4
 70
     0
  9
$USERI5
 70
     0
  9
$USERR1
 40
0.0
  9
$USERR2
 40
0.0
  9
$USERR3
 40
0.0
  9
$USERR4
 40
0.0
  9
$USERR5
 40
0.0
  9
$WORLDVIEW
 70
     1
  9
$SHADEDGE
 70
     3
  9
$SHADEDIF
 70
    70
  9
$TILEMODE
 70
     1
  9
$MAXACTVP
 70
    64
  9
$PINSBASE
 10
0.0
 20
0.0
 30
0.0
  9
$PLIMCHECK
 70
     0
  9
$PEXTMIN
 10
1.000000000000000E+20
 20
1.000000000000000E+20
 30
1.000000000000000E+20
  9
$PEXTMAX
 10
-1.000000000000000E+20
 20
-1.000000000000000E+20
 30
-1.000000000000000E+20
  9
$PLIMMIN
 10
0.0
 20
0.0
  9
$PLIMMAX
 10
12.0
 20
9.0
  9
$UNITMODE
 70
     0
  9
$VISRETAIN
 70
     1
  9
$PLINEGEN
 70
     0
  9
$PSLTSCALE
 70
     1
  9
$TREEDEPTH
 70
  3020
  9
$CMLSTYLE
  2
Standard
  9
$CMLJUST
 70
     0
  9
$CMLSCALE
 40
1.0
  9
$PROXYGRAPHICS
 70
     1
  9
$MEASUREMENT
 70
     0
  9
$CELWEIGHT
370
    -1
  9
$ENDCAPS
280
     0
  9
$JOINSTYLE
280
     0
  9
$LWDISPLAY
290
     1
  9
$INSUNITS
 70
     1
  9
$HYPERLINKBASE
  1

  9
$STYLESHEET
  1

  9
$XEDIT
290
     1
  9
$CEPSNTYPE
380
     0
  9
$PSTYLEMODE
290
     1
  9
$FINGERPRINTGUID
  2
{D918E29B-6437-4902-A859-031DF85179E0}
  9
$VERSIONGUID
  2
{FAEB1C32-E019-11D5-929B-00C0DF256EC4}
  9
$EXTNAMES
290
     1
  9
$PSVPSCALE
 40
0.0
  9
$OLESTARTUP
290
     0
  9
$SORTENTS
280
   127
  9
$INDEXCTL
280
     0
  9
$HIDETEXT
280
     1
  9
$XCLIPFRAME
280
     2
  9
$HALOGAP
280
     0
  9
$OBSCOLOR
 70
   257
  9
$OBSLTYPE
280
     0
  9
$INTERSECTIONDISPLAY
280
     0
  9
$INTERSECTIONCOLOR
 70
   257
  9
$DIMASSOC
280
     2
  9
$PROJECTNAME
  1

  9
$CAMERADISPLAY
290
     0
  9
$LENSLENGTH
 40
50.0
  9
$CAMERAHEIGHT
 40
0.0
  9
$STEPSPERSEC
 40
2.0
  9
$STEPSIZE
 40
6.0
  9
$3DDWFPREC
 40
2.0
  9
$PSOLWIDTH
 40
0.25
  9
$PSOLHEIGHT
 40
4.0
  9
$LOFTANG1
 40
1.570796326794897
  9
$LOFTANG2
 40
1.570796326794897
  9
$LOFTMAG1
 40
0.0
  9
$LOFTMAG2
 40
0.0
  9
$LOFTPARAM
 70
     7
  9
$LOFTNORMALS
280
     1
  9
$LATITUDE
 40
37.795
  9
$LONGITUDE
 40
-122.394
  9
$NORTHDIRECTION
 40
0.0
  9
$TIMEZONE
 70
 -8000
  9
$LIGHTGLYPHDISPLAY
280
     1
  9
$TILEMODELIGHTSYNCH
280
     1
  9
$CMATERIAL
347
3C
  9
$SOLIDHIST
280
     1
  9
$SHOWHIST
280
     1
  9
$DWFFRAME
280
     2
  9
$DGNFRAME
280
     2
  9
$REALWORLDSCALE
290
     1
  9
$INTERFERECOLOR
 62
   256
  9
$CSHADOW
280
     0
  9
$SHADOWPLANELOCATION
 40
0.0
  0
ENDSEC
  0
SECTION
  2
CLASSES
  0
CLASS
  1
ACDBDICTIONARYWDFLT
  2
AcDbDictionaryWithDefault
  3
ObjectDBX Classes
 90
        0
 91
        4
280
     0
281
     0
  0
CLASS
  1
VISUALSTYLE
  2
AcDbVisualStyle
  3
ObjectDBX Classes
 90
     4095
 91
        4
280
     0
281
     0
  0
CLASS
  1
MATERIAL
  2
AcDbMaterial
  3
ObjectDBX Classes
 90
     1153
 91
        4
280
     0
281
     0
  0
CLASS
  1
SUN
  2
AcDbSun
  3
SCENEOE
 90
     1024
 91
        4
280
     0
281
     0
  0
ENDSEC
  0
SECTION
  2
TABLES
  0
TABLE
  2
VPORT
  5
8
330
0
100
AcDbSymbolTable
 70
     1
  0
VPORT
  5
29
330
8
100
AcDbSymbolTableRecord
100
AcDbViewportTableRecord
  2
*Active
 70
     0
 10
0.0
 20
0.0
 11
1.0
 21
1.0
 12
0.0
 22
0.0
 13
0.0
 23
0.0
 14
0.5
 24
0.5
 15
0.5
 25
0.5
 16
0.0
 26
0.0
 36
1.0
 17
4.318293718188443
 27
5.863597768539724
 37
0.0
 40
11.69291338582677
 41
0.7070707070707065
 42
50.0
 43
0.0
 44
0.0
 50
0.0
 51
0.0
 71
     0
 72
   100
 73
     1
 74
     3
 75
     0
 76
     0
 77
     0
 78
     0
281
     0
 65
     1
110
0.0
120
0.0
130
0.0
111
1.0
121
0.0
131
0.0
112
0.0
122
1.0
132
0.0
 79
     0
146
0.0
 60
     3
 61
     5
292
     1
282
     1
141
0.0
142
0.0
 63
   250
361
3F
  0
ENDTAB
  0
TABLE
  2
LTYPE
  5
5
330
0
100
AcDbSymbolTable
 70
     1
  0
LTYPE
  5
14
330
5
100
AcDbSymbolTableRecord
100
AcDbLinetypeTableRecord
  2
ByBlock
 70
     0
  3

 72
    65
 73
     0
 40
0.0
  0
LTYPE
  5
15
330
5
100
AcDbSymbolTableRecord
100
AcDbLinetypeTableRecord
  2
ByLayer
 70
     0
  3

 72
    65
 73
     0
 40
0.0
  0
LTYPE
  5
16
330
5
100
AcDbSymbolTableRecord
100
AcDbLinetypeTableRecord
  2
Continuous
 70
     0
  3
Solid line
 72
    65
 73
     0
 40
0.0
  0
ENDTAB
  0
TABLE
  2
LAYER
  5
2
330
0
100
AcDbSymbolTable
 70
     6
  0
LAYER
  5
10
330
2
100
AcDbSymbolTableRecord
100
AcDbLayerTableRecord
  2
0
 70
     0
 62
     7
  6
Continuous
370
    -3
390
F
347
3E
  0
LAYER
  5
40
330
2
100
AcDbSymbolTableRecord
100
AcDbLayerTableRecord
  2
Beam
 70
     0
 62
     7
  6
Continuous
370
    -3
390
F
347
3E
  0
LAYER
  5
EA
330
2
100
AcDbSymbolTableRecord
100
AcDbLayerTableRecord
  2
Wood
 70
     0
 62
     7
  6
Continuous
370
    -3
390
F
347
3E
  0
LAYER
  5
1FC
330
2
100
AcDbSymbolTableRecord
100
AcDbLayerTableRecord
  2
Web Stiffener
 70
     0
 62
     7
  6
Continuous
370
    -3
390
F
347
3E
  0
LAYER
  5
23C
330
2
100
AcDbSymbolTableRecord
100
AcDbLayerTableRecord
  2
BA
 70
     0
 62
     7
  6
Continuous
370
    -3
390
F
347
3E
  0
LAYER
  5
379
330
2
100
AcDbSymbolTableRecord
100
AcDbLayerTableRecord
  2
callout
 70
     0
 62
     7
  6
Continuous
370
    -3
390
F
347
3E
  0
ENDTAB
  0
TABLE
  2
STYLE
  5
3
330
0
100
AcDbSymbolTable
 70
     1
  0
STYLE
  5
11
330
3
100
AcDbSymbolTableRecord
100
AcDbTextStyleTableRecord
  2
Standard
 70
     0
 40
0.0
 41
1.0
 50
0.0
 71
     0
 42
0.2
  3
txt
  4

  0
ENDTAB
  0
TABLE
  2
VIEW
  5
6
330
0
100
AcDbSymbolTable
 70
     0
  0
ENDTAB
  0
TABLE
  2
UCS
  5
7
330
0
100
AcDbSymbolTable
 70
     0
  0
ENDTAB
  0
TABLE
  2
APPID
  5
9
330
0
100
AcDbSymbolTable
 70
     1
  0
APPID
  5
12
330
9
100
AcDbSymbolTableRecord
100
AcDbRegAppTableRecord
  2
ACAD
 70
     0
  0
ENDTAB
  0
TABLE
  2
DIMSTYLE
  5
A
330
0
100
AcDbSymbolTable
 70
     1
100
AcDbDimStyleTable
  0
DIMSTYLE
105
27
330
A
100
AcDbSymbolTableRecord
100
AcDbDimStyleTableRecord
  2
Standard
 70
     0
178
     0
340
11
  0
ENDTAB
  0
TABLE
  2
BLOCK_RECORD
  5
1
330
0
100
AcDbSymbolTable
 70
    24
  0
BLOCK_RECORD
  5
1F
330
1
100
AcDbSymbolTableRecord
100
AcDbBlockTableRecord
  2
*Model_Space
340
22
 70
     0
280
     1
281
     0
  0
BLOCK_RECORD
  5
1B
330
1
100
AcDbSymbolTableRecord
100
AcDbBlockTableRecord
  2
*Paper_Space
340
1E
 70
     0
280
     1
281
     0
  0
BLOCK_RECORD
  5
23
330
1
100
AcDbSymbolTableRecord
100
AcDbBlockTableRecord
  2
*Paper_Space0
340
26
 70
     0
280
     1
281
     0
  0
BLOCK_RECORD
  5
41
330
1
100
AcDbSymbolTableRecord
100
AcDbBlockTableRecord
  2
block 2
340
0
102
{BLKREFS
331
42
102
}
 70
     0
280
     1
281
     0
  0
BLOCK_RECORD
  5
6D
330
1
100
AcDbSymbolTableRecord
100
AcDbBlockTableRecord
  2
block 3
340
0
102
{BLKREFS
331
6E
102
}
 70
     0
280
     1
281
     0
  0
BLOCK_RECORD
  5
9C
330
1
100
AcDbSymbolTableRecord
100
AcDbBlockTableRecord
  2
block 4
340
0
102
{BLKREFS
331
9D
102
}
 70
     0
280
     1
281
     0
  0
BLOCK_RECORD
  5
1FD
330
1
100
AcDbSymbolTableRecord
100
AcDbBlockTableRecord
  2
block 5
340
0
102
{BLKREFS
331
1FE
102
}
 70
     0
280
     1
281
     0
  0
BLOCK_RECORD
  5
201
330
1
100
AcDbSymbolTableRecord
100
AcDbBlockTableRecord
  2
block 6
340
0
102
{BLKREFS
331
202
102
}
 70
     0
280
     1
281
     0
  0
BLOCK_RECORD
  5
23D
330
1
100
AcDbSymbolTableRecord
100
AcDbBlockTableRecord
  2
block 7
340
0
102
{BLKREFS
331
23E
102
}
 70
     0
280
     1
281
     0
  0
BLOCK_RECORD
  5
241
330
1
100
AcDbSymbolTableRecord
100
AcDbBlockTableRecord
  2
block 8
340
0
102
{BLKREFS
331
242
102
}
 70
     0
280
     1
281
     0
  0
BLOCK_RECORD
  5
260
330
1
100
AcDbSymbolTableRecord
100
AcDbBlockTableRecord
  2
block 9
340
0
102
{BLKREFS
331
261
102
}
 70
     0
280
     1
281
     0
  0
BLOCK_RECORD
  5
270
330
1
100
AcDbSymbolTableRecord
100
AcDbBlockTableRecord
  2
block 10
340
0
102
{BLKREFS
331
271
102
}
 70
     0
280
     1
281
     0
  0
BLOCK_RECORD
  5
29E
330
1
100
AcDbSymbolTableRecord
100
AcDbBlockTableRecord
  2
block 11
340
0
102
{BLKREFS
331
29F
102
}
 70
     0
280
     1
281
     0
  0
BLOCK_RECORD
  5
2B1
330
1
100
AcDbSymbolTableRecord
100
AcDbBlockTableRecord
  2
block 12
340
0
102
{BLKREFS
331
2B2
102
}
 70
     0
280
     1
281
     0
  0
BLOCK_RECORD
  5
2CA
330
1
100
AcDbSymbolTableRecord
100
AcDbBlockTableRecord
  2
block 13
340
0
102
{BLKREFS
331
2CB
102
}
 70
     0
280
     1
281
     0
  0
BLOCK_RECORD
  5
2E8
330
1
100
AcDbSymbolTableRecord
100
AcDbBlockTableRecord
  2
block 14
340
0
102
{BLKREFS
331
2E9
102
}
 70
     0
280
     1
281
     0
  0
BLOCK_RECORD
  5
2FB
330
1
100
AcDbSymbolTableRecord
100
AcDbBlockTableRecord
  2
block 15
340
0
102
{BLKREFS
331
2FC
102
}
 70
     0
280
     1
281
     0
  0
BLOCK_RECORD
  5
302
330
1
100
AcDbSymbolTableRecord
100
AcDbBlockTableRecord
  2
block 16
340
0
102
{BLKREFS
331
303
102
}
 70
     0
280
     1
281
     0
  0
BLOCK_RECORD
  5
30C
330
1
100
AcDbSymbolTableRecord
100
AcDbBlockTableRecord
  2
block 17
340
0
102
{BLKREFS
331
30D
102
}
 70
     0
280
     1
281
     0
  0
BLOCK_RECORD
  5
349
330
1
100
AcDbSymbolTableRecord
100
AcDbBlockTableRecord
  2
block 18
340
0
102
{BLKREFS
331
34A
102
}
 70
     0
280
     1
281
     0
  0
BLOCK_RECORD
  5
351
330
1
100
AcDbSymbolTableRecord
100
AcDbBlockTableRecord
  2
block 19
340
0
102
{BLKREFS
331
352
102
}
 70
     0
280
     1
281
     0
  0
BLOCK_RECORD
  5
359
330
1
100
AcDbSymbolTableRecord
100
AcDbBlockTableRecord
  2
block 20
340
0
102
{BLKREFS
331
35A
102
}
 70
     0
280
     1
281
     0
  0
BLOCK_RECORD
  5
361
330
1
100
AcDbSymbolTableRecord
100
AcDbBlockTableRecord
  2
block 21
340
0
102
{BLKREFS
331
362
102
}
 70
     0
280
     1
281
     0
  0
BLOCK_RECORD
  5
369
330
1
100
AcDbSymbolTableRecord
100
AcDbBlockTableRecord
  2
block 22
340
0
102
{BLKREFS
331
36A
102
}
 70
     0
280
     1
281
     0
  0
BLOCK_RECORD
  5
371
330
1
100
AcDbSymbolTableRecord
100
AcDbBlockTableRecord
  2
block 23
340
0
102
{BLKREFS
331
372
102
}
 70
     0
280
     1
281
     0
  0
BLOCK_RECORD
  5
37D
330
1
100
AcDbSymbolTableRecord
100
AcDbBlockTableRecord
  2
block 24
340
0
102
{BLKREFS
331
37E
102
}
 70
     0
280
     1
281
     0
  0
ENDTAB
  0
ENDSEC
  0
SECTION
  2
BLOCKS
  0
BLOCK
  5
20
330
1F
100
AcDbEntity
  8
0
100
AcDbBlockBegin
  2
*Model_Space
 70
     0
 10
0.0
 20
0.0
 30
0.0
  3
*Model_Space
  1

  0
ENDBLK
  5
21
330
1F
100
AcDbEntity
  8
0
100
AcDbBlockEnd
  0
BLOCK
  5
1C
330
1B
100
AcDbEntity
 67
     1
  8
0
100
AcDbBlockBegin
  2
*Paper_Space
 70
     0
 10
0.0
 20
0.0
 30
0.0
  3
*Paper_Space
  1

  0
ENDBLK
  5
1D
330
1B
100
AcDbEntity
 67
     1
  8
0
100
AcDbBlockEnd
  0
BLOCK
  5
24
330
23
100
AcDbEntity
  8
0
100
AcDbBlockBegin
  2
*Paper_Space0
 70
     0
 10
0.0
 20
0.0
 30
0.0
  3
*Paper_Space0
  1

  0
ENDBLK
  5
25
330
23
100
AcDbEntity
  8
0
100
AcDbBlockEnd
  0
BLOCK
  5
43
330
41
100
AcDbEntity
  8
0
100
AcDbBlockBegin
  2
block 2
 70
     0
 10
0.0
 20
0.0
 30
0.0
  3
block 2
  1

  0
POLYLINE
  5
45
330
41
100
AcDbEntity
  8
Beam
 62
   250
420
  2301728
370
    18
100
AcDb2dPolyline
 66
     1
 10
0.0
 20
0.0
 30
0.0
  0
VERTEX
  5
46
330
45
100
AcDbEntity
  8
Beam
 62
   250
420
  2301728
370
    18
100
AcDbVertex
100
AcDb2dVertex
 10
3.129801142850422
 20
6.420282647490504
 30
0.0
  0
VERTEX
  5
47
330
45
100
AcDbEntity
  8
Beam
 62
   250
420
  2301728
370
    18
100
AcDbVertex
100
AcDb2dVertex
 10
3.033657370449494
 20
6.485087560664978
 30
0.0
  0
VERTEX
  5
48
330
45
100
AcDbEntity
  8
Beam
 62
   250
420
  2301728
370
    18
100
AcDbVertex
100
AcDb2dVertex
 10
3.195476581483869
 20
6.617260521231552
 30
0.0
  0
VERTEX
  5
49
330
45
100
AcDbEntity
  8
Beam
 62
   250
420
  2301728
370
    18
100
AcDbVertex
100
AcDb2dVertex
 10
3.129801142850422
 20
6.659536157118597
 30
0.0
  0
VERTEX
  5
4A
330
45
100
AcDbEntity
  8
Beam
 62
   250
420
  2301728
370
    18
100
AcDbVertex
100
AcDb2dVertex
 10
3.129801142850422
 20
7.412792799507669
 30
0.0
  0
VERTEX
  5
4B
330
45
100
AcDbEntity
  8
Beam
 62
   250
420
  2301728
370
    18
100
AcDbVertex
100
AcDb2dVertex
 10
5.157982537365367
 20
7.811804066710301
 30
0.0
  0
VERTEX
  5
4C
330
45
100
AcDbEntity
  8
Beam
 62
   250
420
  2301728
370
    18
100
AcDbVertex
100
AcDb2dVertex
 10
5.26299283154122
 20
7.771953405017926
 30
0.0
  0
VERTEX
  5
4D
330
45
100
AcDbEntity
  8
Beam
 62
   250
420
  2301728
370
    18
100
AcDbVertex
100
AcDb2dVertex
 10
5.354468546803446
 20
7.765681003584202
 30
0.0
  0
VERTEX
  5
4E
330
45
100
AcDbEntity
  8
Beam
 62
   250
420
  2301728
370
    18
100
AcDbVertex
100
AcDb2dVertex
 10
5.353098343275456
 20
7.733463272121575
 30
0.0
  0
VERTEX
  5
4F
330
45
100
AcDbEntity
  8
Beam
 62
   250
420
  2301728
370
    18
100
AcDbVertex
100
AcDb2dVertex
 10
5.389294713595821
 20
7.734689309872035
 30
0.0
  0
VERTEX
  5
50
330
45
100
AcDbEntity
  8
Beam
 62
   250
420
  2301728
370
    18
100
AcDbVertex
100
AcDb2dVertex
 10
5.545308232973158
 20
7.679193906494169
 30
0.0
  0
VERTEX
  5
51
330
45
100
AcDbEntity
  8
Beam
 62
   250
420
  2301728
370
    18
100
AcDbVertex
100
AcDb2dVertex
 10
5.530170389982534
 20
6.385214692441751
 30
0.0
  0
VERTEX
  5
52
330
45
100
AcDbEntity
  8
Beam
 62
   250
420
  2301728
370
    18
100
AcDbVertex
100
AcDb2dVertex
 10
4.5889120366192
 20
5.918338893543553
 30
0.0
  0
VERTEX
  5
53
330
45
100
AcDbEntity
  8
Beam
 62
   250
420
  2301728
370
    18
100
AcDbVertex
100
AcDb2dVertex
 10
3.485482779882128
 20
5.385114138321998
 30
0.0
  0
VERTEX
  5
54
330
45
100
AcDbEntity
  8
Beam
 62
   250
420
  2301728
370
    18
100
AcDbVertex
100
AcDb2dVertex
 10
3.129801142850422
 20
5.659350662937944
 30
0.0
  0
VERTEX
  5
55
330
45
100
AcDbEntity
  8
Beam
 62
   250
420
  2301728
370
    18
100
AcDbVertex
100
AcDb2dVertex
 10
3.129801142850422
 20
6.420282647490504
 30
0.0
  0
SEQEND
  5
57
330
45
100
AcDbEntity
  8
Beam
 62
   250
420
  2301728
370
    18
  0
HATCH
  5
56
330
41
100
AcDbEntity
  8
Beam
 62
    43
420
 15510365
100
AcDbHatch
 10
0.0
 20
0.0
 30
0.0
210
0.0
220
0.0
230
1.0
  2
SOLID
 70
     1
 71
     0
 91
        1
 92
        1
 93
       15
 72
     1
 10
3.129801142850422
 20
6.420282647490504
 11
3.033657370449494
 21
6.485087560664978
 72
     1
 10
3.033657370449494
 20
6.485087560664978
 11
3.195476581483869
 21
6.617260521231552
 72
     1
 10
3.195476581483869
 20
6.617260521231552
 11
3.129801142850422
 21
6.659536157118597
 72
     1
 10
3.129801142850422
 20
6.659536157118597
 11
3.129801142850422
 21
7.412792799507669
 72
     1
 10
3.129801142850422
 20
7.412792799507669
 11
5.157982537365367
 21
7.811804066710301
 72
     1
 10
5.157982537365367
 20
7.811804066710301
 11
5.26299283154122
 21
7.771953405017926
 72
     1
 10
5.26299283154122
 20
7.771953405017926
 11
5.354468546803446
 21
7.765681003584202
 72
     1
 10
5.354468546803446
 20
7.765681003584202
 11
5.353098343275456
 21
7.733463272121575
 72
     1
 10
5.353098343275456
 20
7.733463272121575
 11
5.389294713595821
 21
7.734689309872035
 72
     1
 10
5.389294713595821
 20
7.734689309872035
 11
5.545308232973158
 21
7.679193906494169
 72
     1
 10
5.545308232973158
 20
7.679193906494169
 11
5.530170389982534
 21
6.385214692441751
 72
     1
 10
5.530170389982534
 20
6.385214692441751
 11
4.5889120366192
 21
5.918338893543553
 72
     1
 10
4.5889120366192
 20
5.918338893543553
 11
3.485482779882128
 21
5.385114138321998
 72
     1
 10
3.485482779882128
 20
5.385114138321998
 11
3.129801142850422
 21
5.659350662937944
 72
     1
 10
3.129801142850422
 20
5.659350662937944
 11
3.129801142850422
 21
6.420282647490504
 97
        0
 75
     2
 76
     1
 98
        0
  0
POLYLINE
  5
58
330
41
100
AcDbEntity
  8
Beam
 62
   250
420
  2301728
370
    13
100
AcDb2dPolyline
 66
     1
 10
0.0
 20
0.0
 30
0.0
  0
VERTEX
  5
59
330
58
100
AcDbEntity
  8
Beam
 62
   250
420
  2301728
370
    13
100
AcDbVertex
100
AcDb2dVertex
 10
3.485482779882128
 20
5.385114138321998
 30
0.0
  0
VERTEX
  5
5A
330
58
100
AcDbEntity
  8
Beam
 62
   250
420
  2301728
370
    13
100
AcDbVertex
100
AcDb2dVertex
 10
3.485482779882128
 20
6.234930426479624
 30
0.0
  0
VERTEX
  5
5B
330
58
100
AcDbEntity
  8
Beam
 62
   250
420
  2301728
370
    13
100
AcDbVertex
100
AcDb2dVertex
 10
3.384827622048609
 20
6.248385199616033
 30
0.0
  0
VERTEX
  5
5C
330
58
100
AcDbEntity
  8
Beam
 62
   250
420
  2301728
370
    13
100
AcDbVertex
100
AcDb2dVertex
 10
3.605149532157409
 20
6.428342790315595
 30
0.0
  0
VERTEX
  5
5D
330
58
100
AcDbEntity
  8
Beam
 62
   250
420
  2301728
370
    13
100
AcDbVertex
100
AcDb2dVertex
 10
3.485482779882128
 20
6.430584967020813
 30
0.0
  0
VERTEX
  5
5E
330
58
100
AcDbEntity
  8
Beam
 62
   250
420
  2301728
370
    13
100
AcDbVertex
100
AcDb2dVertex
 10
3.485482779882128
 20
7.22170138886511
 30
0.0
  0
VERTEX
  5
5F
330
58
100
AcDbEntity
  8
Beam
 62
   250
420
  2301728
370
    13
100
AcDbVertex
100
AcDb2dVertex
 10
5.545308232973158
 20
7.679193906494169
 30
0.0
  0
SEQEND
  5
60
330
58
100
AcDbEntity
  8
Beam
 62
   250
420
  2301728
370
    13
  0
POLYLINE
  5
61
330
41
100
AcDbEntity
  8
Beam
 62
   250
420
  2301728
370
    13
100
AcDb2dPolyline
 66
     1
 10
0.0
 20
0.0
 30
0.0
  0
VERTEX
  5
62
330
61
100
AcDbEntity
  8
Beam
 62
   250
420
  2301728
370
    13
100
AcDbVertex
100
AcDb2dVertex
 10
3.485482779882128
 20
7.22170138886511
 30
0.0
  0
VERTEX
  5
63
330
61
100
AcDbEntity
  8
Beam
 62
   250
420
  2301728
370
    13
100
AcDbVertex
100
AcDb2dVertex
 10
3.129801142850422
 20
7.412792799507669
 30
0.0
  0
SEQEND
  5
64
330
61
100
AcDbEntity
  8
Beam
 62
   250
420
  2301728
370
    13
  0
POLYLINE
  5
65
330
41
100
AcDbEntity
  8
Beam
 62
   250
420
  2301728
370
    13
100
AcDb2dPolyline
 66
     1
 10
0.0
 20
0.0
 30
0.0
  0
VERTEX
  5
66
330
65
100
AcDbEntity
  8
Beam
 62
   250
420
  2301728
370
    13
100
AcDbVertex
100
AcDb2dVertex
 10
3.485482779882128
 20
6.430584967020813
 30
0.0
  0
VERTEX
  5
67
330
65
100
AcDbEntity
  8
Beam
 62
   250
420
  2301728
370
    13
100
AcDbVertex
100
AcDb2dVertex
 10
3.195476581483869
 20
6.617260521231552
 30
0.0
  0
SEQEND
  5
68
330
65
100
AcDbEntity
  8
Beam
 62
   250
420
  2301728
370
    13
  0
POLYLINE
  5
69
330
41
100
AcDbEntity
  8
Beam
 62
   250
420
  2301728
370
    13
100
AcDb2dPolyline
 66
     1
 10
0.0
 20
0.0
 30
0.0
  0
VERTEX
  5
6A
330
69
100
AcDbEntity
  8
Beam
 62
   250
420
  2301728
370
    13
100
AcDbVertex
100
AcDb2dVertex
 10
3.129801142850422
 20
6.420282647490504
 30
0.0
  0
VERTEX
  5
6B
330
69
100
AcDbEntity
  8
Beam
 62
   250
420
  2301728
370
    13
100
AcDbVertex
100
AcDb2dVertex
 10
3.384827622048609
 20
6.248385199616033
 30
0.0
  0
SEQEND
  5
6C
330
69
100
AcDbEntity
  8
Beam
 62
   250
420
  2301728
370
    13
  0
INSERT
  5
6E
330
41
100
AcDbEntity
  8
Beam
100
AcDbBlockReference
  2
block 3
 10
0.0
 20
0.0
 30
0.0
  0
INSERT
  5
9D
330
41
100
AcDbEntity
  8
Beam
100
AcDbBlockReference
  2
block 4
 10
0.0
 20
0.0
 30
0.0
  0
POLYLINE
  5
CB
330
41
100
AcDbEntity
  8
Beam
 62
   250
420
  2301728
370
     5
100
AcDb2dPolyline
 66
     1
 10
0.0
 20
0.0
 30
0.0
  0
VERTEX
  5
CC
330
CB
100
AcDbEntity
  8
Beam
 62
   250
420
  2301728
370
     5
100
AcDbVertex
100
AcDb2dVertex
 10
3.092020812622018
 20
6.445747823223869
 30
0.0
  0
VERTEX
  5
CD
330
CB
100
AcDbEntity
  8
Beam
 62
   250
420
  2301728
370
     5
100
AcDbVertex
100
AcDb2dVertex
 10
3.163384256598899
 20
6.523647594022501
 30
0.0
  0
VERTEX
  5
CE
330
CB
100
AcDbEntity
  8
Beam
 62
   250
420
  2301728
370
     5
100
AcDbVertex
100
AcDb2dVertex
 10
3.179879135725489
 20
6.604520869609157
 30
0.0
  0
SEQEND
  5
CF
330
CB
100
AcDbEntity
  8
Beam
 62
   250
420
  2301728
370
     5
  0
POLYLINE
  5
D0
330
41
100
AcDbEntity
  8
Beam
 62
   250
420
  2301728
370
     5
100
AcDb2dPolyline
 66
     1
 10
0.0
 20
0.0
 30
0.0
  0
VERTEX
  5
D1
330
D0
100
AcDbEntity
  8
Beam
 62
   250
420
  2301728
370
     5
100
AcDbVertex
100
AcDb2dVertex
 10
3.17068818019599
 20
6.392723236371416
 30
0.0
  0
VERTEX
  5
D2
330
D0
100
AcDbEntity
  8
Beam
 62
   250
420
  2301728
370
     5
100
AcDbVertex
100
AcDb2dVertex
 10
3.241870657474212
 20
6.478798189577143
 30
0.0
  0
VERTEX
  5
D3
330
D0
100
AcDbEntity
  8
Beam
 62
   250
420
  2301728
370
     5
100
AcDbVertex
100
AcDb2dVertex
 10
3.261115673899162
 20
6.5750091709573
 30
0.0
  0
SEQEND
  5
D4
330
D0
100
AcDbEntity
  8
Beam
 62
   250
420
  2301728
370
     5
  0
POLYLINE
  5
D5
330
41
100
AcDbEntity
  8
Beam
 62
   250
420
  2301728
370
     5
100
AcDb2dPolyline
 66
     1
 10
0.0
 20
0.0
 30
0.0
  0
VERTEX
  5
D6
330
D5
100
AcDbEntity
  8
Beam
 62
   250
420
  2301728
370
     5
100
AcDbVertex
100
AcDb2dVertex
 10
3.245451627409415
 20
6.342329730339328
 30
0.0
  0
VERTEX
  5
D7
330
D5
100
AcDbEntity
  8
Beam
 62
   250
420
  2301728
370
     5
100
AcDbVertex
100
AcDb2dVertex
 10
3.3169933453231
 20
6.445747823223869
 30
0.0
  0
VERTEX
  5
D8
330
D5
100
AcDbEntity
  8
Beam
 62
   250
420
  2301728
370
     5
100
AcDbVertex
100
AcDb2dVertex
 10
3.330960744963186
 20
6.530050047657722
 30
0.0
  0
SEQEND
  5
D9
330
D5
100
AcDbEntity
  8
Beam
 62
   250
420
  2301728
370
     5
  0
POLYLINE
  5
DA
330
41
100
AcDbEntity
  8
Beam
 62
   250
420
  2301728
370
     5
100
AcDb2dPolyline
 66
     1
 10
0.0
 20
0.0
 30
0.0
  0
VERTEX
  5
DB
330
DA
100
AcDbEntity
  8
Beam
 62
   250
420
  2301728
370
     5
100
AcDbVertex
100
AcDb2dVertex
 10
3.321010267741485
 20
6.29140072434993
 30
0.0
  0
VERTEX
  5
DC
330
DA
100
AcDbEntity
  8
Beam
 62
   250
420
  2301728
370
     5
100
AcDbVertex
100
AcDb2dVertex
 10
3.38331124769848
 20
6.392723236371416
 30
0.0
  0
VERTEX
  5
DD
330
DA
100
AcDbEntity
  8
Beam
 62
   250
420
  2301728
370
     5
100
AcDbVertex
100
AcDb2dVertex
 10
3.411768092163154
 20
6.47803524150365
 30
0.0
  0
SEQEND
  5
DE
330
DA
100
AcDbEntity
  8
Beam
 62
   250
420
  2301728
370
     5
  0
POLYLINE
  5
DF
330
41
100
AcDbEntity
  8
Beam
 62
   250
420
  2301728
370
     5
100
AcDb2dPolyline
 66
     1
 10
0.0
 20
0.0
 30
0.0
  0
VERTEX
  5
E0
330
DF
100
AcDbEntity
  8
Beam
 62
   250
420
  2301728
370
     5
100
AcDbVertex
100
AcDb2dVertex
 10
3.434195180198988
 20
6.288708424313376
 30
0.0
  0
VERTEX
  5
E1
330
DF
100
AcDbEntity
  8
Beam
 62
   250
420
  2301728
370
     5
100
AcDbVertex
100
AcDb2dVertex
 10
3.485482779882128
 20
6.373963246661232
 30
0.0
  0
VERTEX
  5
E2
330
DF
100
AcDbEntity
  8
Beam
 62
   250
420
  2301728
370
     5
100
AcDbVertex
100
AcDb2dVertex
 10
3.493034247115474
 20
6.43044369190645
 30
0.0
  0
SEQEND
  5
E3
330
DF
100
AcDbEntity
  8
Beam
 62
   250
420
  2301728
370
     5
  0
ENDBLK
  5
44
330
41
100
AcDbEntity
  8
0
100
AcDbBlockEnd
  0
BLOCK
  5
6F
330
6D
100
AcDbEntity
  8
0
100
AcDbBlockBegin
  2
block 3
 70
     0
 10
0.0
 20
0.0
 30
0.0
  3
block 3
  1

  0
POLYLINE
  5
71
330
6D
100
AcDbEntity
  8
Beam
 62
   250
420
  2301728
370
     5
100
AcDb2dPolyline
 66
     1
 10
0.0
 20
0.0
 30
0.0
  0
VERTEX
  5
72
330
71
100
AcDbEntity
  8
Beam
 62
   250
420
  2301728
370
     5
100
AcDbVertex
100
AcDb2dVertex
 10
3.129801142850422
 20
7.168355312818435
 30
0.0
  0
VERTEX
  5
73
330
71
100
AcDbEntity
  8
Beam
 62
   250
420
  2301728
370
     5
100
AcDbVertex
100
AcDb2dVertex
 10
3.175718247133015
 20
7.22170138886511
 30
0.0
  0
VERTEX
  5
74
330
71
100
AcDbEntity
  8
Beam
 62
   250
420
  2301728
370
     5
100
AcDbVertex
100
AcDb2dVertex
 10
3.211575200462372
 20
7.368858929895206
 30
0.0
  0
SEQEND
  5
75
330
71
100
AcDbEntity
  8
Beam
 62
   250
420
  2301728
370
     5
  0
POLYLINE
  5
76
330
6D
100
AcDbEntity
  8
Beam
 62
   250
420
  2301728
370
     5
100
AcDb2dPolyline
 66
     1
 10
0.0
 20
0.0
 30
0.0
  0
VERTEX
  5
77
330
76
100
AcDbEntity
  8
Beam
 62
   250
420
  2301728
370
     5
100
AcDbVertex
100
AcDb2dVertex
 10
3.129801142850422
 20
7.02820157389197
 30
0.0
  0
VERTEX
  5
78
330
76
100
AcDbEntity
  8
Beam
 62
   250
420
  2301728
370
     5
100
AcDbVertex
100
AcDb2dVertex
 10
3.223930718321425
 20
7.134718379977382
 30
0.0
  0
VERTEX
  5
79
330
76
100
AcDbEntity
  8
Beam
 62
   250
420
  2301728
370
     5
100
AcDbVertex
100
AcDb2dVertex
 10
3.295062738403405
 20
7.324005426562103
 30
0.0
  0
SEQEND
  5
7A
330
76
100
AcDbEntity
  8
Beam
 62
   250
420
  2301728
370
     5
  0
POLYLINE
  5
7B
330
6D
100
AcDbEntity
  8
Beam
 62
   250
420
  2301728
370
     5
100
AcDb2dPolyline
 66
     1
 10
0.0
 20
0.0
 30
0.0
  0
VERTEX
  5
7C
330
7B
100
AcDbEntity
  8
Beam
 62
   250
420
  2301728
370
     5
100
AcDbVertex
100
AcDb2dVertex
 10
3.129801142850422
 20
6.902623543374236
 30
0.0
  0
VERTEX
  5
7D
330
7B
100
AcDbEntity
  8
Beam
 62
   250
420
  2301728
370
     5
100
AcDbVertex
100
AcDb2dVertex
 10
3.246355788141348
 20
7.000170648613233
 30
0.0
  0
VERTEX
  5
7E
330
7B
100
AcDbEntity
  8
Beam
 62
   250
420
  2301728
370
     5
100
AcDbVertex
100
AcDb2dVertex
 10
3.350630277314394
 20
7.17610316385771
 30
0.0
  0
VERTEX
  5
7F
330
7B
100
AcDbEntity
  8
Beam
 62
   250
420
  2301728
370
     5
100
AcDbVertex
100
AcDb2dVertex
 10
3.377212871928476
 20
7.279869735357642
 30
0.0
  0
SEQEND
  5
80
330
7B
100
AcDbEntity
  8
Beam
 62
   250
420
  2301728
370
     5
  0
POLYLINE
  5
81
330
6D
100
AcDbEntity
  8
Beam
 62
   250
420
  2301728
370
     5
100
AcDb2dPolyline
 66
     1
 10
0.0
 20
0.0
 30
0.0
  0
VERTEX
  5
82
330
81
100
AcDbEntity
  8
Beam
 62
   250
420
  2301728
370
     5
100
AcDbVertex
100
AcDb2dVertex
 10
3.129801142850422
 20
6.794985358282903
 30
0.0
  0
VERTEX
  5
83
330
81
100
AcDbEntity
  8
Beam
 62
   250
420
  2301728
370
     5
100
AcDbVertex
100
AcDb2dVertex
 10
3.288962363451686
 20
6.902623543374236
 30
0.0
  0
VERTEX
  5
84
330
81
100
AcDbEntity
  8
Beam
 62
   250
420
  2301728
370
     5
100
AcDbVertex
100
AcDb2dVertex
 10
3.430237481384008
 20
7.121263606840961
 30
0.0
  0
VERTEX
  5
85
330
81
100
AcDbEntity
  8
Beam
 62
   250
420
  2301728
370
     5
100
AcDbVertex
100
AcDb2dVertex
 10
3.461700099488275
 20
7.234478795397333
 30
0.0
  0
SEQEND
  5
86
330
81
100
AcDbEntity
  8
Beam
 62
   250
420
  2301728
370
     5
  0
POLYLINE
  5
87
330
6D
100
AcDbEntity
  8
Beam
 62
   250
420
  2301728
370
     5
100
AcDb2dPolyline
 66
     1
 10
0.0
 20
0.0
 30
0.0
  0
VERTEX
  5
88
330
87
100
AcDbEntity
  8
Beam
 62
   250
420
  2301728
370
     5
100
AcDbVertex
100
AcDb2dVertex
 10
3.129801142850422
 20
6.685665326549522
 30
0.0
  0
VERTEX
  5
89
330
87
100
AcDbEntity
  8
Beam
 62
   250
420
  2301728
370
     5
100
AcDbVertex
100
AcDb2dVertex
 10
3.275507590315227
 20
6.774803198578297
 30
0.0
  0
VERTEX
  5
8A
330
87
100
AcDbEntity
  8
Beam
 62
   250
420
  2301728
370
     5
100
AcDbVertex
100
AcDb2dVertex
 10
3.433601174668107
 20
6.944669709425536
 30
0.0
  0
VERTEX
  5
8B
330
87
100
AcDbEntity
  8
Beam
 62
   250
420
  2301728
370
     5
100
AcDbVertex
100
AcDb2dVertex
 10
3.485482779882128
 20
7.048944201232731
 30
0.0
  0
SEQEND
  5
8C
330
87
100
AcDbEntity
  8
Beam
 62
   250
420
  2301728
370
     5
  0
POLYLINE
  5
8D
330
6D
100
AcDbEntity
  8
Beam
 62
   250
420
  2301728
370
     5
100
AcDb2dPolyline
 66
     1
 10
0.0
 20
0.0
 30
0.0
  0
VERTEX
  5
8E
330
8D
100
AcDbEntity
  8
Beam
 62
   250
420
  2301728
370
     5
100
AcDbVertex
100
AcDb2dVertex
 10
3.190531952356221
 20
6.620443313770743
 30
0.0
  0
VERTEX
  5
8F
330
8D
100
AcDbEntity
  8
Beam
 62
   250
420
  2301728
370
     5
100
AcDbVertex
100
AcDb2dVertex
 10
3.361842139485702
 20
6.71145334914815
 30
0.0
  0
VERTEX
  5
90
330
8D
100
AcDbEntity
  8
Beam
 62
   250
420
  2301728
370
     5
100
AcDbVertex
100
AcDb2dVertex
 10
3.485482779882128
 20
6.867304763891133
 30
0.0
  0
SEQEND
  5
91
330
8D
100
AcDbEntity
  8
Beam
 62
   250
420
  2301728
370
     5
  0
POLYLINE
  5
92
330
6D
100
AcDbEntity
  8
Beam
 62
   250
420
  2301728
370
     5
100
AcDb2dPolyline
 66
     1
 10
0.0
 20
0.0
 30
0.0
  0
VERTEX
  5
93
330
92
100
AcDbEntity
  8
Beam
 62
   250
420
  2301728
370
     5
100
AcDbVertex
100
AcDb2dVertex
 10
3.281139739513567
 20
6.56212017135686
 30
0.0
  0
VERTEX
  5
94
330
92
100
AcDbEntity
  8
Beam
 62
   250
420
  2301728
370
     5
100
AcDbVertex
100
AcDb2dVertex
 10
3.406691628395265
 20
6.620443313770743
 30
0.0
  0
VERTEX
  5
95
330
92
100
AcDbEntity
  8
Beam
 62
   250
420
  2301728
370
     5
100
AcDbVertex
100
AcDb2dVertex
 10
3.485482779882128
 20
6.71743399565619
 30
0.0
  0
SEQEND
  5
96
330
92
100
AcDbEntity
  8
Beam
 62
   250
420
  2301728
370
     5
  0
POLYLINE
  5
97
330
6D
100
AcDbEntity
  8
Beam
 62
   250
420
  2301728
370
     5
100
AcDb2dPolyline
 66
     1
 10
0.0
 20
0.0
 30
0.0
  0
VERTEX
  5
98
330
97
100
AcDbEntity
  8
Beam
 62
   250
420
  2301728
370
     5
100
AcDbVertex
100
AcDb2dVertex
 10
3.377212871928476
 20
6.50027799915223
 30
0.0
  0
VERTEX
  5
99
330
97
100
AcDbEntity
  8
Beam
 62
   250
420
  2301728
370
     5
100
AcDbVertex
100
AcDb2dVertex
 10
3.447055947804529
 20
6.530935435480741
 30
0.0
  0
VERTEX
  5
9A
330
97
100
AcDbEntity
  8
Beam
 62
   250
420
  2301728
370
     5
100
AcDbVertex
100
AcDb2dVertex
 10
3.485482779882128
 20
6.589800067952574
 30
0.0
  0
SEQEND
  5
9B
330
97
100
AcDbEntity
  8
Beam
 62
   250
420
  2301728
370
     5
  0
ENDBLK
  5
70
330
6D
100
AcDbEntity
  8
0
100
AcDbBlockEnd
  0
BLOCK
  5
9E
330
9C
100
AcDbEntity
  8
0
100
AcDbBlockBegin
  2
block 4
 70
     0
 10
0.0
 20
0.0
 30
0.0
  3
block 4
  1

  0
POLYLINE
  5
A0
330
9C
100
AcDbEntity
  8
Beam
 62
   250
420
  2301728
370
     5
100
AcDb2dPolyline
 66
     1
 10
0.0
 20
0.0
 30
0.0
  0
VERTEX
  5
A1
330
A0
100
AcDbEntity
  8
Beam
 62
   250
420
  2301728
370
     5
100
AcDbVertex
100
AcDb2dVertex
 10
3.129801142850422
 20
6.160752862279852
 30
0.0
  0
VERTEX
  5
A2
330
A0
100
AcDbEntity
  8
Beam
 62
   250
420
  2301728
370
     5
100
AcDbVertex
100
AcDb2dVertex
 10
3.175718247133015
 20
6.215055652547941
 30
0.0
  0
VERTEX
  5
A3
330
A0
100
AcDbEntity
  8
Beam
 62
   250
420
  2301728
370
     5
100
AcDbVertex
100
AcDb2dVertex
 10
3.211575200462372
 20
6.364853020000711
 30
0.0
  0
SEQEND
  5
A4
330
A0
100
AcDbEntity
  8
Beam
 62
   250
420
  2301728
370
     5
  0
POLYLINE
  5
A5
330
9C
100
AcDbEntity
  8
Beam
 62
   250
420
  2301728
370
     5
100
AcDb2dPolyline
 66
     1
 10
0.0
 20
0.0
 30
0.0
  0
VERTEX
  5
A6
330
A5
100
AcDbEntity
  8
Beam
 62
   250
420
  2301728
370
     5
100
AcDbVertex
100
AcDb2dVertex
 10
3.129801142850422
 20
6.018085178931945
 30
0.0
  0
VERTEX
  5
A7
330
A5
100
AcDbEntity
  8
Beam
 62
   250
420
  2301728
370
     5
100
AcDbVertex
100
AcDb2dVertex
 10
3.223930718321425
 20
6.126512483728598
 30
0.0
  0
VERTEX
  5
A8
330
A5
100
AcDbEntity
  8
Beam
 62
   250
420
  2301728
370
     5
100
AcDbVertex
100
AcDb2dVertex
 10
3.29201659695362
 20
6.310943167313781
 30
0.0
  0
SEQEND
  5
A9
330
A5
100
AcDbEntity
  8
Beam
 62
   250
420
  2301728
370
     5
  0
POLYLINE
  5
AA
330
9C
100
AcDbEntity
  8
Beam
 62
   250
420
  2301728
370
     5
100
AcDb2dPolyline
 66
     1
 10
0.0
 20
0.0
 30
0.0
  0
VERTEX
  5
AB
330
AA
100
AcDbEntity
  8
Beam
 62
   250
420
  2301728
370
     5
100
AcDbVertex
100
AcDb2dVertex
 10
3.129801142850422
 20
5.890254746285412
 30
0.0
  0
VERTEX
  5
AC
330
AA
100
AcDbEntity
  8
Beam
 62
   250
420
  2301728
370
     5
100
AcDbVertex
100
AcDb2dVertex
 10
3.246355788141348
 20
5.989550969523735
 30
0.0
  0
VERTEX
  5
AD
330
AA
100
AcDbEntity
  8
Beam
 62
   250
420
  2301728
370
     5
100
AcDbVertex
100
AcDb2dVertex
 10
3.350630277314394
 20
6.168640050093118
 30
0.0
  0
VERTEX
  5
AE
330
AA
100
AcDbEntity
  8
Beam
 62
   250
420
  2301728
370
     5
100
AcDbVertex
100
AcDb2dVertex
 10
3.372747905575933
 20
6.256527298738647
 30
0.0
  0
SEQEND
  5
AF
330
AA
100
AcDbEntity
  8
Beam
 62
   250
420
  2301728
370
     5
  0
POLYLINE
  5
B0
330
9C
100
AcDbEntity
  8
Beam
 62
   250
420
  2301728
370
     5
100
AcDb2dPolyline
 66
     1
 10
0.0
 20
0.0
 30
0.0
  0
VERTEX
  5
B1
330
B0
100
AcDbEntity
  8
Beam
 62
   250
420
  2301728
370
     5
100
AcDbVertex
100
AcDb2dVertex
 10
3.129801142850422
 20
5.780685804016962
 30
0.0
  0
VERTEX
  5
B2
330
B0
100
AcDbEntity
  8
Beam
 62
   250
420
  2301728
370
     5
100
AcDbVertex
100
AcDb2dVertex
 10
3.288962363451686
 20
5.890254746285412
 30
0.0
  0
VERTEX
  5
B3
330
B0
100
AcDbEntity
  8
Beam
 62
   250
420
  2301728
370
     5
100
AcDbVertex
100
AcDb2dVertex
 10
3.430237481384008
 20
6.112816197760379
 30
0.0
  0
VERTEX
  5
B4
330
B0
100
AcDbEntity
  8
Beam
 62
   250
420
  2301728
370
     5
100
AcDbVertex
100
AcDb2dVertex
 10
3.466511549759768
 20
6.237466651215818
 30
0.0
  0
SEQEND
  5
B5
330
B0
100
AcDbEntity
  8
Beam
 62
   250
420
  2301728
370
     5
  0
POLYLINE
  5
B6
330
9C
100
AcDbEntity
  8
Beam
 62
   250
420
  2301728
370
     5
100
AcDb2dPolyline
 66
     1
 10
0.0
 20
0.0
 30
0.0
  0
VERTEX
  5
B7
330
B6
100
AcDbEntity
  8
Beam
 62
   250
420
  2301728
370
     5
100
AcDbVertex
100
AcDb2dVertex
 10
3.129801142850422
 20
5.669404741910133
 30
0.0
  0
VERTEX
  5
B8
330
B6
100
AcDbEntity
  8
Beam
 62
   250
420
  2301728
370
     5
100
AcDbVertex
100
AcDb2dVertex
 10
3.275507590315227
 20
5.76014171143394
 30
0.0
  0
VERTEX
  5
B9
330
B6
100
AcDbEntity
  8
Beam
 62
   250
420
  2301728
370
     5
100
AcDbVertex
100
AcDb2dVertex
 10
3.433601174668107
 20
5.933055051289759
 30
0.0
  0
VERTEX
  5
BA
330
B6
100
AcDbEntity
  8
Beam
 62
   250
420
  2301728
370
     5
100
AcDbVertex
100
AcDb2dVertex
 10
3.485482779882128
 20
6.039199753881513
 30
0.0
  0
SEQEND
  5
BB
330
B6
100
AcDbEntity
  8
Beam
 62
   250
420
  2301728
370
     5
  0
POLYLINE
  5
BC
330
9C
100
AcDbEntity
  8
Beam
 62
   250
420
  2301728
370
     5
100
AcDb2dPolyline
 66
     1
 10
0.0
 20
0.0
 30
0.0
  0
VERTEX
  5
BD
330
BC
100
AcDbEntity
  8
Beam
 62
   250
420
  2301728
370
     5
100
AcDbVertex
100
AcDb2dVertex
 10
3.197784075076773
 20
5.60693490455454
 30
0.0
  0
VERTEX
  5
BE
330
BC
100
AcDbEntity
  8
Beam
 62
   250
420
  2301728
370
     5
100
AcDbVertex
100
AcDb2dVertex
 10
3.361842139485702
 20
5.695655676374776
 30
0.0
  0
VERTEX
  5
BF
330
BC
100
AcDbEntity
  8
Beam
 62
   250
420
  2301728
370
     5
100
AcDbVertex
100
AcDb2dVertex
 10
3.485482779882128
 20
5.854302247895803
 30
0.0
  0
SEQEND
  5
C0
330
BC
100
AcDbEntity
  8
Beam
 62
   250
420
  2301728
370
     5
  0
POLYLINE
  5
C1
330
9C
100
AcDbEntity
  8
Beam
 62
   250
420
  2301728
370
     5
100
AcDb2dPolyline
 66
     1
 10
0.0
 20
0.0
 30
0.0
  0
VERTEX
  5
C2
330
C1
100
AcDbEntity
  8
Beam
 62
   250
420
  2301728
370
     5
100
AcDbVertex
100
AcDb2dVertex
 10
3.281139739513567
 20
5.543642980581049
 30
0.0
  0
VERTEX
  5
C3
330
C1
100
AcDbEntity
  8
Beam
 62
   250
420
  2301728
370
     5
100
AcDbVertex
100
AcDb2dVertex
 10
3.406691628395265
 20
5.603012838284358
 30
0.0
  0
VERTEX
  5
C4
330
C1
100
AcDbEntity
  8
Beam
 62
   250
420
  2301728
370
     5
100
AcDbVertex
100
AcDb2dVertex
 10
3.485482779882128
 20
5.701743288326548
 30
0.0
  0
SEQEND
  5
C5
330
C1
100
AcDbEntity
  8
Beam
 62
   250
420
  2301728
370
     5
  0
POLYLINE
  5
C6
330
9C
100
AcDbEntity
  8
Beam
 62
   250
420
  2301728
370
     5
100
AcDb2dPolyline
 66
     1
 10
0.0
 20
0.0
 30
0.0
  0
VERTEX
  5
C7
330
C6
100
AcDbEntity
  8
Beam
 62
   250
420
  2301728
370
     5
100
AcDbVertex
100
AcDb2dVertex
 10
3.377212871928476
 20
5.468592257922106
 30
0.0
  0
VERTEX
  5
C8
330
C6
100
AcDbEntity
  8
Beam
 62
   250
420
  2301728
370
     5
100
AcDbVertex
100
AcDb2dVertex
 10
3.447055947804529
 20
5.511899135122222
 30
0.0
  0
VERTEX
  5
C9
330
C6
100
AcDbEntity
  8
Beam
 62
   250
420
  2301728
370
     5
100
AcDbVertex
100
AcDb2dVertex
 10
3.485482779882128
 20
5.571819965771561
 30
0.0
  0
SEQEND
  5
CA
330
C6
100
AcDbEntity
  8
Beam
 62
   250
420
  2301728
370
     5
  0
ENDBLK
  5
9F
330
9C
100
AcDbEntity
  8
0
100
AcDbBlockEnd
  0
BLOCK
  5
1FF
330
1FD
100
AcDbEntity
  8
0
100
AcDbBlockBegin
  2
block 5
 70
     0
 10
0.0
 20
0.0
 30
0.0
  3
block 5
  1

  0
INSERT
  5
202
330
1FD
100
AcDbEntity
  8
Web Stiffener
100
AcDbBlockReference
  2
block 6
 10
0.0
 20
0.0
 30
0.0
  0
SPLINE
  5
236
330
1FD
100
AcDbEntity
  8
Web Stiffener
 62
     7
420
 16777215
370
    18
100
AcDbSpline
210
0.0
220
0.0
230
1.0
 70
    11
 71
     3
 72
    23
 73
    19
 74
     0
 42
0.0000000001
 43
0.0000000001
 12
1.0
 22
0.0
 32
0.0
 13
1.0
 23
0.0
 33
0.0
 40
0.0
 40
0.0
 40
0.0
 40
0.0
 40
1.0
 40
1.0
 40
1.0
 40
2.0
 40
2.0
 40
2.0
 40
3.0
 40
3.0
 40
3.0
 40
4.0
 40
4.0
 40
4.0
 40
5.0
 40
5.0
 40
5.0
 40
6.0
 40
6.0
 40
6.0
 40
6.0
 10
4.541073189487684
 20
6.570858769879982
 30
0.0
 10
4.550564825119636
 20
6.572728191984538
 30
0.0
 10
4.556397244231877
 20
6.584019478375239
 30
0.0
 10
4.554118232642698
 20
6.596095230889722
 30
0.0
 10
4.551840477091142
 20
6.608164030282637
 30
0.0
 10
4.542298605004614
 20
6.616442372546215
 30
0.0
 10
4.532820961153296
 20
6.614578196306663
 30
0.0
 10
4.532820961153296
 20
6.614578196306663
 30
0.0
 10
4.524402942915887
 20
6.612771681661747
 30
0.0
 10
4.524402942915887
 20
6.612771681661747
 30
0.0
 10
4.514925328898622
 20
6.610909063961672
 30
0.0
 10
4.509092750128452
 20
6.599609436986699
 30
0.0
 10
4.511357872692795
 20
6.587533806607489
 30
0.0
 10
4.513637128293642
 20
6.575464978499831
 30
0.0
 10
4.523177530164983
 20
6.567188223490448
 30
0.0
 10
4.532669030456595
 20
6.569050575372317
 30
0.0
 10
4.532669030456595
 20
6.569050575372317
 30
0.0
 10
4.541073189487684
 20
6.570858769879982
 30
0.0
 10
4.541073189487684
 20
6.570858769879982
 30
0.0
  0
HATCH
  5
237
330
1FD
100
AcDbEntity
  8
Web Stiffener
 62
   254
420
 13358815
100
AcDbHatch
 10
0.0
 20
0.0
 30
0.0
210
0.0
220
0.0
230
1.0
  2
SOLID
 70
     1
 71
     0
 91
        1
 92
        1
 93
        1
 72
     4
 94
        3
 73
     0
 74
     1
 95
       23
 96
       19
 40
0.0
 40
0.0
 40
0.0
 40
0.0
 40
1.0
 40
1.0
 40
1.0
 40
2.0
 40
2.0
 40
2.0
 40
3.0
 40
3.0
 40
3.0
 40
4.0
 40
4.0
 40
4.0
 40
5.0
 40
5.0
 40
5.0
 40
6.0
 40
6.0
 40
6.0
 40
6.0
 10
4.541073189487684
 20
6.570858769879982
 10
4.550564825119636
 20
6.572728191984538
 10
4.556397244231877
 20
6.584019478375239
 10
4.554118232642698
 20
6.596095230889722
 10
4.551840477091142
 20
6.608164030282637
 10
4.542298605004614
 20
6.616442372546215
 10
4.532820961153296
 20
6.614578196306663
 10
4.532820961153296
 20
6.614578196306663
 10
4.524402942915887
 20
6.612771681661747
 10
4.524402942915887
 20
6.612771681661747
 10
4.514925328898622
 20
6.610909063961672
 10
4.509092750128452
 20
6.599609436986699
 10
4.511357872692795
 20
6.587533806607489
 10
4.513637128293642
 20
6.575464978499831
 10
4.523177530164983
 20
6.567188223490448
 10
4.532669030456595
 20
6.569050575372317
 10
4.532669030456595
 20
6.569050575372317
 10
4.541073189487684
 20
6.570858769879982
 10
4.541073189487684
 20
6.570858769879982
 97
        0
 97
        0
 75
     2
 76
     1
 98
        0
  0
SPLINE
  5
238
330
1FD
100
AcDbEntity
  8
Web Stiffener
 62
     7
420
 16777215
370
    13
100
AcDbSpline
210
0.0
220
0.0
230
1.0
 70
    11
 71
     3
 72
    17
 73
    13
 74
     0
 42
0.0000000001
 43
0.0000000001
 12
1.0
 22
0.0
 32
0.0
 13
1.0
 23
0.0
 33
0.0
 40
0.0
 40
0.0
 40
0.0
 40
0.0
 40
1.0
 40
1.0
 40
1.0
 40
2.0
 40
2.0
 40
2.0
 40
3.0
 40
3.0
 40
3.0
 40
4.0
 40
4.0
 40
4.0
 40
4.0
 10
4.53243851830257
 20
6.569054987955079
 30
0.0
 10
4.541930266072995
 20
6.570924407913012
 30
0.0
 10
4.547775095011326
 20
6.582216727575465
 30
0.0
 10
4.545497474800009
 20
6.594292597191106
 30
0.0
 10
4.543204444346681
 20
6.606361688984116
 30
0.0
 10
4.533677817327871
 20
6.614638180308146
 30
0.0
 10
4.524186428706419
 20
6.612775826288649
 30
0.0
 10
4.514694816744572
 20
6.610913476544434
 30
0.0
 10
4.508862349263987
 20
6.599613847439109
 30
0.0
 10
4.511141246813117
 20
6.587537953372033
 30
0.0
 10
4.513420390992096
 20
6.575469127397279
 30
0.0
 10
4.522947018010933
 20
6.567192636073223
 30
0.0
 10
4.53243851830257
 20
6.569054987955079
 30
0.0
  0
SPLINE
  5
239
330
1FD
100
AcDbEntity
  8
Web Stiffener
 62
     7
420
 16777215
370
    18
100
AcDbSpline
210
0.0
220
0.0
230
1.0
 70
    11
 71
     3
 72
    23
 73
    19
 74
     0
 42
0.0000000001
 43
0.0000000001
 12
1.0
 22
0.0
 32
0.0
 13
1.0
 23
0.0
 33
0.0
 40
0.0
 40
0.0
 40
0.0
 40
0.0
 40
1.0
 40
1.0
 40
1.0
 40
2.0
 40
2.0
 40
2.0
 40
3.0
 40
3.0
 40
3.0
 40
4.0
 40
4.0
 40
4.0
 40
5.0
 40
5.0
 40
5.0
 40
6.0
 40
6.0
 40
6.0
 40
6.0
 10
4.532814371926406
 20
6.139415398710475
 30
0.0
 10
4.542306142898698
 20
6.141291891037705
 30
0.0
 10
4.548138450988214
 20
6.152577377567278
 30
0.0
 10
4.545859712830153
 20
6.164667414210107
 30
0.0
 10
4.543581824491664
 20
6.17672927677188
 30
0.0
 10
4.53403992001765
 20
6.18500592710446
 30
0.0
 10
4.524562306000361
 20
6.183143309404386
 30
0.0
 10
4.524562306000361
 20
6.183143309404386
 30
0.0
 10
4.516144152422712
 20
6.181329724536782
 30
0.0
 10
4.516144152422712
 20
6.181329724536782
 30
0.0
 10
4.506666782017924
 20
6.179479833237527
 30
0.0
 10
4.500834230315832
 20
6.168181620307096
 30
0.0
 10
4.503099082199595
 20
6.156091849482499
 30
0.0
 10
4.505378473140758
 20
6.144030091597553
 30
0.0
 10
4.514918847943969
 20
6.135751922543628
 30
0.0
 10
4.524410377838042
 20
6.137615820864552
 30
0.0
 10
4.524410377838042
 20
6.137615820864552
 30
0.0
 10
4.532814371926406
 20
6.139415398710475
 30
0.0
 10
4.532814371926406
 20
6.139415398710475
 30
0.0
  0
HATCH
  5
23A
330
1FD
100
AcDbEntity
  8
Web Stiffener
 62
   254
420
 13358815
100
AcDbHatch
 10
0.0
 20
0.0
 30
0.0
210
0.0
220
0.0
230
1.0
  2
SOLID
 70
     1
 71
     0
 91
        1
 92
        1
 93
        1
 72
     4
 94
        3
 73
     0
 74
     1
 95
       23
 96
       19
 40
0.0
 40
0.0
 40
0.0
 40
0.0
 40
1.0
 40
1.0
 40
1.0
 40
2.0
 40
2.0
 40
2.0
 40
3.0
 40
3.0
 40
3.0
 40
4.0
 40
4.0
 40
4.0
 40
5.0
 40
5.0
 40
5.0
 40
6.0
 40
6.0
 40
6.0
 40
6.0
 10
4.532814371926406
 20
6.139415398710475
 10
4.542306142898698
 20
6.141291891037705
 10
4.548138450988214
 20
6.152577377567278
 10
4.545859712830153
 20
6.164667414210107
 10
4.543581824491664
 20
6.17672927677188
 10
4.53403992001765
 20
6.18500592710446
 10
4.524562306000361
 20
6.183143309404386
 10
4.524562306000361
 20
6.183143309404386
 10
4.516144152422712
 20
6.181329724536782
 10
4.516144152422712
 20
6.181329724536782
 10
4.506666782017924
 20
6.179479833237527
 10
4.500834230315832
 20
6.168181620307096
 10
4.503099082199595
 20
6.156091849482499
 10
4.505378473140758
 20
6.144030091597553
 10
4.514918847943969
 20
6.135751922543628
 10
4.524410377838042
 20
6.137615820864552
 10
4.524410377838042
 20
6.137615820864552
 10
4.532814371926406
 20
6.139415398710475
 10
4.532814371926406
 20
6.139415398710475
 97
        0
 97
        0
 75
     2
 76
     1
 98
        0
  0
SPLINE
  5
23B
330
1FD
100
AcDbEntity
  8
Web Stiffener
 62
     7
420
 16777215
370
    13
100
AcDbSpline
210
0.0
220
0.0
230
1.0
 70
    11
 71
     3
 72
    17
 73
    13
 74
     0
 42
0.0000000001
 43
0.0000000001
 12
1.0
 22
0.0
 32
0.0
 13
1.0
 23
0.0
 33
0.0
 40
0.0
 40
0.0
 40
0.0
 40
0.0
 40
1.0
 40
1.0
 40
1.0
 40
2.0
 40
2.0
 40
2.0
 40
3.0
 40
3.0
 40
3.0
 40
4.0
 40
4.0
 40
4.0
 40
4.0
 10
4.524179865684017
 20
6.137620233447314
 30
0.0
 10
4.5336717462604
 20
6.13949659123341
 30
0.0
 10
4.539516412790312
 20
6.150780426628658
 30
0.0
 10
4.537238792579046
 20
6.162856296244272
 30
0.0
 10
4.534945626785404
 20
6.174918317814596
 30
0.0
 10
4.525419297515251
 20
6.183210363628543
 30
0.0
 10
4.515927638213169
 20
6.181333869163672
 30
0.0
 10
4.506436269863924
 20
6.179484245820301
 30
0.0
 10
4.500603829451393
 20
6.168186030759519
 30
0.0
 10
4.502882456319892
 20
6.156095996247055
 30
0.0
 10
4.505161735839212
 20
6.144034240494975
 30
0.0
 10
4.514688335789995
 20
6.13575633512639
 30
0.0
 10
4.524179865684017
 20
6.137620233447314
 30
0.0
  0
ENDBLK
  5
200
330
1FD
100
AcDbEntity
  8
0
100
AcDbBlockEnd
  0
BLOCK
  5
203
330
201
100
AcDbEntity
  8
0
100
AcDbBlockBegin
  2
block 6
 70
     0
 10
0.0
 20
0.0
 30
0.0
  3
block 6
  1

  0
POLYLINE
  5
205
330
201
100
AcDbEntity
  8
Web Stiffener
 62
     7
420
 16777215
370
    18
100
AcDb2dPolyline
 66
     1
 10
0.0
 20
0.0
 30
0.0
  0
VERTEX
  5
206
330
205
100
AcDbEntity
  8
Web Stiffener
 62
     7
420
 16777215
370
    18
100
AcDbVertex
100
AcDb2dVertex
 10
4.740591397849483
 20
5.880376344086029
 30
0.0
  0
VERTEX
  5
207
330
205
100
AcDbEntity
  8
Web Stiffener
 62
     7
420
 16777215
370
    18
100
AcDbVertex
100
AcDb2dVertex
 10
4.62521093309907
 20
5.812298427119546
 30
0.0
  0
VERTEX
  5
208
330
205
100
AcDbEntity
  8
Web Stiffener
 62
     7
420
 16777215
370
    18
100
AcDbVertex
100
AcDb2dVertex
 10
4.247007113300242
 20
6.020505386278753
 30
0.0
  0
VERTEX
  5
209
330
205
100
AcDbEntity
  8
Web Stiffener
 62
     7
420
 16777215
370
    18
100
AcDbVertex
100
AcDb2dVertex
 10
4.2513086845413
 20
7.13851061827049
 30
0.0
  0
VERTEX
  5
20A
330
205
100
AcDbEntity
  8
Web Stiffener
 62
     7
420
 16777215
370
    18
100
AcDbVertex
100
AcDb2dVertex
 10
4.306011535710064
 20
7.167817198402859
 30
0.0
  0
VERTEX
  5
20B
330
205
100
AcDbEntity
  8
Web Stiffener
 62
     7
420
 16777215
370
    18
100
AcDbVertex
100
AcDb2dVertex
 10
4.74244843503354
 20
6.996378608052269
 30
0.0
  0
VERTEX
  5
20C
330
205
100
AcDbEntity
  8
Web Stiffener
 62
     7
420
 16777215
370
    18
100
AcDbVertex
100
AcDb2dVertex
 10
4.740591397849483
 20
5.880376344086029
 30
0.0
  0
SEQEND
  5
20E
330
205
100
AcDbEntity
  8
Web Stiffener
 62
     7
420
 16777215
370
    18
  0
HATCH
  5
20D
330
201
100
AcDbEntity
  8
Web Stiffener
 62
    43
420
 15510365
100
AcDbHatch
 10
0.0
 20
0.0
 30
0.0
210
0.0
220
0.0
230
1.0
  2
SOLID
 70
     1
 71
     0
 91
        1
 92
        1
 93
        6
 72
     1
 10
4.740591397849483
 20
5.880376344086029
 11
4.62521093309907
 21
5.812298427119546
 72
     1
 10
4.62521093309907
 20
5.812298427119546
 11
4.247007113300242
 21
6.020505386278753
 72
     1
 10
4.247007113300242
 20
6.020505386278753
 11
4.2513086845413
 21
7.13851061827049
 72
     1
 10
4.2513086845413
 20
7.13851061827049
 11
4.306011535710064
 21
7.167817198402859
 72
     1
 10
4.306011535710064
 20
7.167817198402859
 11
4.74244843503354
 21
6.996378608052269
 72
     1
 10
4.74244843503354
 20
6.996378608052269
 11
4.740591397849483
 21
5.880376344086029
 97
        0
 75
     2
 76
     1
 98
        0
  0
POLYLINE
  5
20F
330
201
100
AcDbEntity
  8
Web Stiffener
 62
     7
420
 16777215
370
    13
100
AcDb2dPolyline
 66
     1
 10
0.0
 20
0.0
 30
0.0
  0
VERTEX
  5
210
330
20F
100
AcDbEntity
  8
Web Stiffener
 62
     7
420
 16777215
370
    13
100
AcDbVertex
100
AcDb2dVertex
 10
4.292398771756527
 20
7.118727598566301
 30
0.0
  0
VERTEX
  5
211
330
20F
100
AcDbEntity
  8
Web Stiffener
 62
     7
420
 16777215
370
    13
100
AcDbVertex
100
AcDb2dVertex
 10
4.632616487455203
 20
6.990889530679434
 30
0.0
  0
VERTEX
  5
212
330
20F
100
AcDbEntity
  8
Web Stiffener
 62
     7
420
 16777215
370
    13
100
AcDbVertex
100
AcDb2dVertex
 10
4.62521093309907
 20
5.812298427119546
 30
0.0
  0
SEQEND
  5
213
330
20F
100
AcDbEntity
  8
Web Stiffener
 62
     7
420
 16777215
370
    13
  0
POLYLINE
  5
214
330
201
100
AcDbEntity
  8
Web Stiffener
 62
     7
420
 16777215
370
     9
100
AcDb2dPolyline
 66
     1
 10
0.0
 20
0.0
 30
0.0
  0
VERTEX
  5
215
330
214
100
AcDbEntity
  8
Web Stiffener
 62
     7
420
 16777215
370
     9
100
AcDbVertex
100
AcDb2dVertex
 10
4.628534316258563
 20
5.836077528288292
 30
0.0
  0
VERTEX
  5
397
330
214
100
AcDbEntity
  8
0
100
AcDbVertex
100
AcDb2dVertex
 10
4.628534316258563
 20
5.836077528288292
 30
0.0
  0
SEQEND
  5
216
330
214
100
AcDbEntity
  8
Web Stiffener
 62
     7
420
 16777215
370
     9
  0
POLYLINE
  5
217
330
201
100
AcDbEntity
  8
Web Stiffener
 62
     7
420
 16777215
370
     9
100
AcDb2dPolyline
 66
     1
 10
0.0
 20
0.0
 30
0.0
  0
VERTEX
  5
218
330
217
100
AcDbEntity
  8
Web Stiffener
 62
     7
420
 16777215
370
     9
100
AcDbVertex
100
AcDb2dVertex
 10
4.650089605734769
 20
6.993425817702738
 30
0.0
  0
VERTEX
  5
219
330
217
100
AcDbEntity
  8
Web Stiffener
 62
     7
420
 16777215
370
     9
100
AcDbVertex
100
AcDb2dVertex
 10
4.643941912097893
 20
5.827155731486173
 30
0.0
  0
SEQEND
  5
21A
330
217
100
AcDbEntity
  8
Web Stiffener
 62
     7
420
 16777215
370
     9
  0
POLYLINE
  5
21B
330
201
100
AcDbEntity
  8
Web Stiffener
 62
     7
420
 16777215
370
     9
100
AcDb2dPolyline
 66
     1
 10
0.0
 20
0.0
 30
0.0
  0
VERTEX
  5
21C
330
21B
100
AcDbEntity
  8
Web Stiffener
 62
     7
420
 16777215
370
     9
100
AcDbVertex
100
AcDb2dVertex
 10
4.665961052459402
 20
6.997537084692112
 30
0.0
  0
VERTEX
  5
21D
330
21B
100
AcDbEntity
  8
Web Stiffener
 62
     7
420
 16777215
370
     9
100
AcDbVertex
100
AcDb2dVertex
 10
4.663095864734158
 20
5.836077528288292
 30
0.0
  0
SEQEND
  5
21E
330
21B
100
AcDbEntity
  8
Web Stiffener
 62
     7
420
 16777215
370
     9
  0
POLYLINE
  5
21F
330
201
100
AcDbEntity
  8
Web Stiffener
 62
     7
420
 16777215
370
     9
100
AcDb2dPolyline
 66
     1
 10
0.0
 20
0.0
 30
0.0
  0
VERTEX
  5
220
330
21F
100
AcDbEntity
  8
Web Stiffener
 62
     7
420
 16777215
370
     9
100
AcDbVertex
100
AcDb2dVertex
 10
4.68232675256018
 20
7.00294357536595
 30
0.0
  0
VERTEX
  5
221
330
21F
100
AcDbEntity
  8
Web Stiffener
 62
     7
420
 16777215
370
     9
100
AcDbVertex
100
AcDb2dVertex
 10
4.68232675256018
 20
5.849910394265255
 30
0.0
  0
SEQEND
  5
222
330
21F
100
AcDbEntity
  8
Web Stiffener
 62
     7
420
 16777215
370
     9
  0
POLYLINE
  5
223
330
201
100
AcDbEntity
  8
Web Stiffener
 62
     7
420
 16777215
370
     9
100
AcDb2dPolyline
 66
     1
 10
0.0
 20
0.0
 30
0.0
  0
VERTEX
  5
224
330
223
100
AcDbEntity
  8
Web Stiffener
 62
     7
420
 16777215
370
     9
100
AcDbVertex
100
AcDb2dVertex
 10
4.699794410689921
 20
7.004690546451684
 30
0.0
  0
VERTEX
  5
225
330
223
100
AcDbEntity
  8
Web Stiffener
 62
     7
420
 16777215
370
     9
100
AcDbVertex
100
AcDb2dVertex
 10
4.702060931899647
 20
5.859554415154839
 30
0.0
  0
SEQEND
  5
226
330
223
100
AcDbEntity
  8
Web Stiffener
 62
     7
420
 16777215
370
     9
  0
POLYLINE
  5
227
330
201
100
AcDbEntity
  8
Web Stiffener
 62
     7
420
 16777215
370
     9
100
AcDb2dPolyline
 66
     1
 10
0.0
 20
0.0
 30
0.0
  0
VERTEX
  5
228
330
227
100
AcDbEntity
  8
Web Stiffener
 62
     7
420
 16777215
370
     9
100
AcDbVertex
100
AcDb2dVertex
 10
4.721288458070401
 20
7.004690546451684
 30
0.0
  0
VERTEX
  5
229
330
227
100
AcDbEntity
  8
Web Stiffener
 62
     7
420
 16777215
370
     9
100
AcDbVertex
100
AcDb2dVertex
 10
4.719322389120205
 20
5.867826994303439
 30
0.0
  0
SEQEND
  5
22A
330
227
100
AcDbEntity
  8
Web Stiffener
 62
     7
420
 16777215
370
     9
  0
POLYLINE
  5
22B
330
201
100
AcDbEntity
  8
Web Stiffener
 62
     7
420
 16777215
370
    13
100
AcDb2dPolyline
 66
     1
 10
0.0
 20
0.0
 30
0.0
  0
VERTEX
  5
22C
330
22B
100
AcDbEntity
  8
Web Stiffener
 62
     7
420
 16777215
370
    13
100
AcDbVertex
100
AcDb2dVertex
 10
4.632616487455203
 20
6.990889530679434
 30
0.0
  0
VERTEX
  5
22D
330
22B
100
AcDbEntity
  8
Web Stiffener
 62
     7
420
 16777215
370
    13
100
AcDbVertex
100
AcDb2dVertex
 10
4.710766368364653
 20
7.008329020162996
 30
0.0
  0
SEQEND
  5
22E
330
22B
100
AcDbEntity
  8
Web Stiffener
 62
     7
420
 16777215
370
    13
  0
SPLINE
  5
22F
330
201
100
AcDbEntity
  8
Web Stiffener
 62
     7
420
 16777215
370
     5
100
AcDbSpline
210
0.0
220
0.0
230
1.0
 70
     8
 71
     3
 72
    11
 73
     7
 74
     0
 42
0.0000000001
 43
0.0000000001
 12
1.0
 22
0.0
 32
0.0
 13
1.0
 23
0.0
 33
0.0
 40
0.0
 40
0.0
 40
0.0
 40
0.0
 40
1.0
 40
1.0
 40
1.0
 40
2.0
 40
2.0
 40
2.0
 40
2.0
 10
4.629543245472783
 20
6.872087813619979
 30
0.0
 10
4.586190499371392
 20
6.868719272229365
 30
0.0
 10
4.554070622224344
 20
6.840922994231189
 30
0.0
 10
4.524892257627041
 20
6.824690682447264
 30
0.0
 10
4.49572625533632
 20
6.808451061204247
 30
0.0
 10
4.367698038291943
 20
6.722726865597084
 30
0.0
 10
4.350806451612899
 20
6.702060931899647
 30
0.0
  0
SPLINE
  5
230
330
201
100
AcDbEntity
  8
Web Stiffener
 62
     7
420
 16777215
370
     5
100
AcDbSpline
210
0.0
220
0.0
230
1.0
 70
     8
 71
     3
 72
    32
 73
    28
 74
     0
 42
0.0000000001
 43
0.0000000001
 12
1.0
 22
0.0
 32
0.0
 13
1.0
 23
0.0
 33
0.0
 40
0.0
 40
0.0
 40
0.0
 40
0.0
 40
1.0
 40
1.0
 40
1.0
 40
2.0
 40
2.0
 40
2.0
 40
3.0
 40
3.0
 40
3.0
 40
4.0
 40
4.0
 40
4.0
 40
5.0
 40
5.0
 40
5.0
 40
6.0
 40
6.0
 40
6.0
 40
7.0
 40
7.0
 40
7.0
 40
8.0
 40
8.0
 40
8.0
 40
9.0
 40
9.0
 40
9.0
 40
9.0
 10
4.629543245472783
 20
6.711451595758098
 30
0.0
 10
4.585923256755197
 20
6.693396521975968
 30
0.0
 10
4.548876719610385
 20
6.677284104312194
 30
0.0
 10
4.521919670140581
 20
6.669401725311836
 30
0.0
 10
4.494976620800091
 20
6.661525028316431
 30
0.0
 10
4.459412407669864
 20
6.634915927803793
 30
0.0
 10
4.45917133951088
 20
6.622322447146985
 30
0.0
 10
4.458930406692161
 20
6.609736036712889
 30
0.0
 10
4.451983556452559
 20
6.569979763643661
 30
0.0
 10
4.445331993497929
 20
6.544917973496517
 30
0.0
 10
4.438666297777496
 20
6.519855039323387
 30
0.0
 10
4.438023566648401
 20
6.48627855176494
 30
0.0
 10
4.454272719947034
 20
6.473383552393872
 30
0.0
 10
4.470521334574262
 20
6.460460412653269
 30
0.0
 10
4.476249390415862
 20
6.437266374153914
 30
0.0
 10
4.480050681487758
 20
6.420395675944051
 30
0.0
 10
4.483852083104162
 20
6.403524975618135
 30
0.0
 10
4.50004715671197
 20
6.388530524645211
 30
0.0
 10
4.507970113273914
 20
6.371580788614601
 30
0.0
 10
4.515894241003328
 20
6.354631306856011
 30
0.0
 10
4.537925153938279
 20
6.320627860650435
 30
0.0
 10
4.545688684699522
 20
6.295282919443442
 30
0.0
 10
4.553437186794503
 20
6.269951134060015
 30
0.0
 10
4.56755914077035
 20
6.25289715339026
 30
0.0
 10
4.5838742018506
 20
6.244170887809357
 30
0.0
 10
4.600189833950556
 20
6.235474452490317
 30
0.0
 10
4.625975090556923
 20
6.214157706093184
 30
0.0
 10
4.625975090556923
 20
6.214157706093184
 30
0.0
  0
SPLINE
  5
231
330
201
100
AcDbEntity
  8
Web Stiffener
 62
     7
420
 16777215
370
     5
100
AcDbSpline
210
0.0
220
0.0
230
1.0
 70
     8
 71
     3
 72
    20
 73
    16
 74
     0
 42
0.0000000001
 43
0.0000000001
 12
1.0
 22
0.0
 32
0.0
 13
1.0
 23
0.0
 33
0.0
 40
0.0
 40
0.0
 40
0.0
 40
0.0
 40
1.0
 40
1.0
 40
1.0
 40
2.0
 40
2.0
 40
2.0
 40
3.0
 40
3.0
 40
3.0
 40
4.0
 40
4.0
 40
4.0
 40
5.0
 40
5.0
 40
5.0
 40
5.0
 10
4.628817886383861
 20
6.386343643450951
 30
0.0
 10
4.606559905059864
 20
6.407753340160588
 30
0.0
 10
4.57472090397856
 20
6.412298547593094
 30
0.0
 10
4.572899589717659
 20
6.42491736181311
 30
0.0
 10
4.571093848107213
 20
6.437551438122985
 30
0.0
 10
4.579645676142389
 20
6.454185666542874
 30
0.0
 10
4.571776615596844
 20
6.473219438445716
 30
0.0
 10
4.563878688936029
 20
6.492269182641697
 30
0.0
 10
4.54994673444422
 20
6.517724851695789
 30
0.0
 10
4.562755797752541
 20
6.540569703399594
 30
0.0
 10
4.575550771037493
 20
6.563415954102513
 30
0.0
 10
4.571670395719593
 20
6.576088473102939
 30
0.0
 10
4.588320938560931
 20
6.584162196698066
 30
0.0
 10
4.604971595176139
 20
6.592241863875491
 30
0.0
 10
4.630219610818535
 20
6.609427543572539
 30
0.0
 10
4.630219610818535
 20
6.609427543572539
 30
0.0
  0
SPLINE
  5
232
330
201
100
AcDbEntity
  8
Web Stiffener
 62
     7
420
 16777215
370
     5
100
AcDbSpline
210
0.0
220
0.0
230
1.0
 70
     8
 71
     3
 72
    20
 73
    16
 74
     0
 42
0.0000000001
 43
0.0000000001
 12
1.0
 22
0.0
 32
0.0
 13
1.0
 23
0.0
 33
0.0
 40
0.0
 40
0.0
 40
0.0
 40
0.0
 40
1.0
 40
1.0
 40
1.0
 40
2.0
 40
2.0
 40
2.0
 40
3.0
 40
3.0
 40
3.0
 40
4.0
 40
4.0
 40
4.0
 40
5.0
 40
5.0
 40
5.0
 40
5.0
 10
4.345251524591605
 20
6.337365591397744
 30
0.0
 10
4.348810713034128
 20
6.307914163397678
 30
0.0
 10
4.42415412813989
 20
6.192648845210821
 30
0.0
 10
4.430178642327544
 20
6.184149407789239
 30
0.0
 10
4.436201470139117
 20
6.175634442459542
 30
0.0
 10
4.454189642634219
 20
6.145894076325728
 30
0.0
 10
4.472526922253615
 20
6.135044302718041
 30
0.0
 10
4.490876965135233
 20
6.124208165710317
 30
0.0
 10
4.519398712329095
 20
6.106864255754027
 30
0.0
 10
4.531485952651565
 20
6.091934154651944
 30
0.0
 10
4.543572075027163
 20
6.077018220577125
 30
0.0
 10
4.576377387223525
 20
6.067991985653015
 30
0.0
 10
4.584502522846251
 20
6.061537402453862
 30
0.0
 10
4.592626269841503
 20
6.05508284583656
 30
0.0
 10
4.62410394265233
 20
6.034946236559159
 30
0.0
 10
4.62410394265233
 20
6.034946236559159
 30
0.0
  0
SPLINE
  5
233
330
201
100
AcDbEntity
  8
Web Stiffener
 62
     7
420
 16777215
370
     5
100
AcDbSpline
210
0.0
220
0.0
230
1.0
 70
     8
 71
     3
 72
    14
 73
    10
 74
     0
 42
0.0000000001
 43
0.0000000001
 12
1.0
 22
0.0
 32
0.0
 13
1.0
 23
0.0
 33
0.0
 40
0.0
 40
0.0
 40
0.0
 40
0.0
 40
1.0
 40
1.0
 40
1.0
 40
2.0
 40
2.0
 40
2.0
 40
3.0
 40
3.0
 40
3.0
 40
3.0
 10
4.393894850989404
 20
6.087158608428758
 30
0.0
 10
4.413945244935475
 20
6.057378766186212
 30
0.0
 10
4.461885185540647
 20
6.009305120100672
 30
0.0
 10
4.484263543775366
 20
5.994178021101144
 30
0.0
 10
4.506643317705589
 20
5.979052309564344
 30
0.0
 10
4.54322257670593
 20
5.951068005339569
 30
0.0
 10
4.555350013100224
 20
5.938237760376662
 30
0.0
 10
4.567476060867167
 20
5.925407541995583
 30
0.0
 10
4.62410394265233
 20
5.863597768539724
 30
0.0
 10
4.62410394265233
 20
5.863597768539724
 30
0.0
  0
SPLINE
  5
234
330
201
100
AcDbEntity
  8
Web Stiffener
 62
     7
420
 16777215
370
     5
100
AcDbSpline
210
0.0
220
0.0
230
1.0
 70
     8
 71
     3
 72
    11
 73
     7
 74
     0
 42
0.0000000001
 43
0.0000000001
 12
1.0
 22
0.0
 32
0.0
 13
1.0
 23
0.0
 33
0.0
 40
0.0
 40
0.0
 40
0.0
 40
0.0
 40
1.0
 40
1.0
 40
1.0
 40
2.0
 40
2.0
 40
2.0
 40
2.0
 10
4.586204465018353
 20
7.008329020162996
 30
0.0
 10
4.546973138072594
 20
7.004880169874278
 30
0.0
 10
4.528186034735679
 20
6.996758692072439
 30
0.0
 10
4.50322334064405
 20
6.984644103805963
 30
0.0
 10
4.478261926907559
 20
6.97252383277953
 30
0.0
 10
4.363496389400931
 20
6.921124907057585
 30
0.0
 10
4.350806451612899
 20
6.904569892473116
 30
0.0
  0
SPLINE
  5
235
330
201
100
AcDbEntity
  8
Web Stiffener
 62
     7
420
 16777215
370
     5
100
AcDbSpline
210
0.0
220
0.0
230
1.0
 70
     8
 71
     3
 72
     8
 73
     4
 74
     0
 42
0.0000000001
 43
0.0000000001
 12
1.0
 22
0.0
 32
0.0
 13
1.0
 23
0.0
 33
0.0
 40
0.0
 40
0.0
 40
0.0
 40
0.0
 40
1.0
 40
1.0
 40
1.0
 40
1.0
 10
4.455133176292621
 20
7.056935016494523
 30
0.0
 10
4.440663669911929
 20
7.055112788232956
 30
0.0
 10
4.350806451612899
 20
6.997537084692112
 30
0.0
 10
4.350806451612899
 20
6.997537084692112
 30
0.0
  0
ENDBLK
  5
204
330
201
100
AcDbEntity
  8
0
100
AcDbBlockEnd
  0
BLOCK
  5
23F
330
23D
100
AcDbEntity
  8
0
100
AcDbBlockBegin
  2
block 7
 70
     0
 10
0.0
 20
0.0
 30
0.0
  3
block 7
  1

  0
INSERT
  5
242
330
23D
100
AcDbEntity
  8
BA
100
AcDbBlockReference
  2
block 8
 10
0.0
 20
0.0
 30
0.0
  0
SPLINE
  5
249
330
23D
100
AcDbEntity
  8
BA
 62
   250
420
  2301728
370
    18
100
AcDbSpline
210
0.0
220
0.0
230
1.0
 70
     8
 71
     3
 72
    29
 73
    25
 74
     0
 42
0.0000000001
 43
0.0000000001
 12
1.0
 22
0.0
 32
0.0
 13
1.0
 23
0.0
 33
0.0
 40
0.0
 40
0.0
 40
0.0
 40
0.0
 40
1.0
 40
1.0
 40
1.0
 40
2.0
 40
2.0
 40
2.0
 40
3.0
 40
3.0
 40
3.0
 40
4.0
 40
4.0
 40
4.0
 40
5.0
 40
5.0
 40
5.0
 40
6.0
 40
6.0
 40
6.0
 40
7.0
 40
7.0
 40
7.0
 40
8.0
 40
8.0
 40
8.0
 40
8.0
 10
4.276791009603079
 20
7.314632122840053
 30
0.0
 10
4.276791009603079
 20
7.314632122840053
 30
0.0
 10
4.273480899074861
 20
7.296461201721879
 30
0.0
 10
4.280091209620726
 20
7.286550691158393
 30
0.0
 10
4.280091209620726
 20
7.286550691158393
 30
0.0
 10
4.308177596557672
 20
7.228737727786274
 30
0.0
 10
4.308177596557672
 20
7.228737727786274
 30
0.0
 10
4.308177596557672
 20
7.228737727786274
 30
0.0
 10
4.346164583547508
 20
7.025572261234729
 30
0.0
 10
4.346164583547508
 20
7.025572261234729
 30
0.0
 10
4.346164583547508
 20
7.025572261234729
 30
0.0
 10
4.346164583547508
 20
6.270728313655998
 30
0.0
 10
4.346164583547508
 20
6.270728313655998
 30
0.0
 10
4.346164583547508
 20
6.270728313655998
 30
0.0
 10
4.489866986718122
 20
5.699218900991253
 30
0.0
 10
4.489866986718122
 20
5.699218900991253
 30
0.0
 10
4.489866986718122
 20
5.699218900991253
 30
0.0
 10
4.47995647615461
 20
5.695918700973607
 30
0.0
 10
4.47995647615461
 20
5.695918700973607
 30
0.0
 10
4.47995647615461
 20
5.695918700973607
 30
0.0
 10
4.483256676172257
 20
5.687653335163632
 30
0.0
 10
4.483256676172257
 20
5.687653335163632
 30
0.0
 10
4.483256676172257
 20
5.687653335163632
 30
0.0
 10
4.488211931454012
 20
5.672787569318416
 30
0.0
 10
4.503077697299229
 20
5.674442624582525
 30
0.0
  0
POLYLINE
  5
24A
330
23D
100
AcDbEntity
  8
BA
 62
   250
420
  2301728
370
    18
100
AcDb2dPolyline
 66
     1
 10
0.0
 20
0.0
 30
0.0
  0
VERTEX
  5
24B
330
24A
100
AcDbEntity
  8
BA
 62
   250
420
  2301728
370
    18
100
AcDbVertex
100
AcDb2dVertex
 10
4.347819638811617
 20
6.26741820312778
 30
0.0
  0
VERTEX
  5
24C
330
24A
100
AcDbEntity
  8
BA
 62
   250
420
  2301728
370
    18
100
AcDbVertex
100
AcDb2dVertex
 10
4.361030349392751
 20
6.272373458409523
 30
0.0
  0
SEQEND
  5
24D
330
24A
100
AcDbEntity
  8
BA
 62
   250
420
  2301728
370
    18
  0
POLYLINE
  5
24E
330
23D
100
AcDbEntity
  8
BA
 62
   250
420
  2301728
370
    25
100
AcDb2dPolyline
 66
     1
 10
0.0
 20
0.0
 30
0.0
  0
VERTEX
  5
24F
330
24E
100
AcDbEntity
  8
BA
 62
   250
420
  2301728
370
    25
100
AcDbVertex
100
AcDb2dVertex
 10
4.491522041982206
 20
5.699218900991253
 30
0.0
  0
VERTEX
  5
250
330
24E
100
AcDbEntity
  8
BA
 62
   250
420
  2301728
370
    25
100
AcDbVertex
100
AcDb2dVertex
 10
4.508032952580985
 20
5.704174156272984
 30
0.0
  0
SEQEND
  5
251
330
24E
100
AcDbEntity
  8
BA
 62
   250
420
  2301728
370
    25
  0
POLYLINE
  5
252
330
23D
100
AcDbEntity
  8
BA
 62
   250
420
  2301728
370
    18
100
AcDb2dPolyline
 66
     1
 10
0.0
 20
0.0
 30
0.0
  0
VERTEX
  5
253
330
252
100
AcDbEntity
  8
BA
 62
   250
420
  2301728
370
    18
100
AcDbVertex
100
AcDb2dVertex
 10
4.346164583547508
 20
7.025572261234729
 30
0.0
  0
VERTEX
  5
254
330
252
100
AcDbEntity
  8
BA
 62
   250
420
  2301728
370
    18
100
AcDbVertex
100
AcDb2dVertex
 10
4.361030349392751
 20
7.027227316498839
 30
0.0
  0
SEQEND
  5
255
330
252
100
AcDbEntity
  8
BA
 62
   250
420
  2301728
370
    18
  0
POLYLINE
  5
256
330
23D
100
AcDbEntity
  8
BA
 62
   250
420
  2301728
370
    18
100
AcDb2dPolyline
 66
     1
 10
0.0
 20
0.0
 30
0.0
  0
VERTEX
  5
257
330
256
100
AcDbEntity
  8
BA
 62
   250
420
  2301728
370
    18
100
AcDbVertex
100
AcDb2dVertex
 10
4.308177596557672
 20
7.228737727786274
 30
0.0
  0
VERTEX
  5
258
330
256
100
AcDbEntity
  8
BA
 62
   250
420
  2301728
370
    18
100
AcDbVertex
100
AcDb2dVertex
 10
4.324688507156426
 20
7.232042883059206
 30
0.0
  0
SEQEND
  5
259
330
256
100
AcDbEntity
  8
BA
 62
   250
420
  2301728
370
    18
  0
SPLINE
  5
25A
330
23D
100
AcDbEntity
  8
BA
 62
   250
420
  2301728
370
    18
100
AcDbSpline
210
0.0
220
0.0
230
1.0
 70
     8
 71
     3
 72
    23
 73
    19
 74
     0
 42
0.0000000001
 43
0.0000000001
 12
1.0
 22
0.0
 32
0.0
 13
1.0
 23
0.0
 33
0.0
 40
0.0
 40
0.0
 40
0.0
 40
0.0
 40
1.0
 40
1.0
 40
1.0
 40
2.0
 40
2.0
 40
2.0
 40
3.0
 40
3.0
 40
3.0
 40
4.0
 40
4.0
 40
4.0
 40
5.0
 40
5.0
 40
5.0
 40
6.0
 40
6.0
 40
6.0
 40
6.0
 10
4.024072990234091
 20
7.266729670031408
 30
0.0
 10
4.024072990234091
 20
7.266729670031408
 30
0.0
 10
4.029033200771108
 20
7.270034825304328
 30
0.0
 10
4.03728865607051
 20
7.256819159467922
 30
0.0
 10
4.03728865607051
 20
7.256819159467922
 30
0.0
 10
4.126483251141912
 20
7.028877416507662
 30
0.0
 10
4.126483251141912
 20
7.028877416507662
 30
0.0
 10
4.126483251141912
 20
7.028877416507662
 30
0.0
 10
4.126483251141912
 20
6.277328713691266
 30
0.0
 10
4.126483251141912
 20
6.277328713691266
 30
0.0
 10
4.126483251141912
 20
6.277328713691266
 30
0.0
 10
4.124828195877803
 20
6.249252237264904
 30
0.0
 10
4.141349016987154
 20
6.209610195010947
 30
0.0
 10
4.141349016987154
 20
6.209610195010947
 30
0.0
 10
4.265225443775484
 20
5.968457741469567
 30
0.0
 10
4.265225443775484
 20
5.968457741469567
 30
0.0
 10
4.265225443775484
 20
5.968457741469567
 30
0.0
 10
4.273480899074861
 20
5.948636720342582
 30
0.0
 10
4.27513595433897
 20
5.942026409796729
 30
0.0
  0
POLYLINE
  5
25B
330
23D
100
AcDbEntity
  8
BA
 62
   250
420
  2301728
370
    18
100
AcDb2dPolyline
 66
     1
 10
0.0
 20
0.0
 30
0.0
  0
VERTEX
  5
25C
330
25B
100
AcDbEntity
  8
BA
 62
   250
420
  2301728
370
    18
100
AcDbVertex
100
AcDb2dVertex
 10
4.111617485296695
 20
7.037137827062325
 30
0.0
  0
VERTEX
  5
25D
330
25B
100
AcDbEntity
  8
BA
 62
   250
420
  2301728
370
    18
100
AcDbVertex
100
AcDb2dVertex
 10
4.126483251141912
 20
7.028877416507662
 30
0.0
  0
SEQEND
  5
25E
330
25B
100
AcDbEntity
  8
BA
 62
   250
420
  2301728
370
    18
  0
SPLINE
  5
25F
330
23D
100
AcDbEntity
  8
BA
 62
   250
420
  2301728
370
    18
100
AcDbSpline
210
0.0
220
0.0
230
1.0
 70
     8
 71
     3
 72
    14
 73
    10
 74
     0
 42
0.0000000001
 43
0.0000000001
 12
1.0
 22
0.0
 32
0.0
 13
1.0
 23
0.0
 33
0.0
 40
0.0
 40
0.0
 40
0.0
 40
0.0
 40
1.0
 40
1.0
 40
1.0
 40
2.0
 40
2.0
 40
2.0
 40
3.0
 40
3.0
 40
3.0
 40
3.0
 10
3.746578694456401
 20
7.421992683774318
 30
0.0
 10
3.746578694456401
 20
7.421992683774318
 30
0.0
 10
3.984430947980147
 20
7.336103243975836
 30
0.0
 10
3.984430947980147
 20
7.336103243975836
 30
0.0
 10
3.984430947980147
 20
7.336103243975836
 30
0.0
 10
3.991041258525986
 20
7.336103243975836
 30
0.0
 10
3.991041258525986
 20
7.319587378121784
 30
0.0
 10
3.991041258525986
 20
7.319587378121784
 30
0.0
 10
3.991041258525986
 20
7.291505946440136
 30
0.0
 10
3.991041258525986
 20
7.291505946440136
 30
0.0
  0
INSERT
  5
261
330
23D
100
AcDbEntity
  8
BA
100
AcDbBlockReference
  2
block 9
 10
0.0
 20
0.0
 30
0.0
  0
INSERT
  5
271
330
23D
100
AcDbEntity
  8
BA
100
AcDbBlockReference
  2
block 10
 10
0.0
 20
0.0
 30
0.0
  0
SPLINE
  5
276
330
23D
100
AcDbEntity
  8
BA
 62
   250
420
  2301728
370
    18
100
AcDbSpline
210
0.0
220
0.0
230
1.0
 70
     8
 71
     3
 72
    14
 73
    10
 74
     0
 42
0.0000000001
 43
0.0000000001
 12
1.0
 22
0.0
 32
0.0
 13
1.0
 23
0.0
 33
0.0
 40
0.0
 40
0.0
 40
0.0
 40
0.0
 40
1.0
 40
1.0
 40
1.0
 40
2.0
 40
2.0
 40
2.0
 40
3.0
 40
3.0
 40
3.0
 40
3.0
 10
4.397372191629074
 20
7.56569508694492
 30
0.0
 10
4.397372191629074
 20
7.56569508694492
 30
0.0
 10
4.646780100469843
 20
7.484760902428193
 30
0.0
 10
4.646780100469843
 20
7.484760902428193
 30
0.0
 10
4.646780100469843
 20
7.484760902428193
 30
0.0
 10
4.658345666297438
 20
7.478155547137614
 30
0.0
 10
4.659990811050975
 20
7.463289781292373
 30
0.0
 10
4.659990811050975
 20
7.463289781292373
 30
0.0
 10
4.659990811050975
 20
7.445118860174223
 30
0.0
 10
4.659990811050975
 20
7.445118860174223
 30
0.0
  0
SPLINE
  5
277
330
23D
100
AcDbEntity
  8
BA
 62
   250
420
  2301728
370
    18
100
AcDbSpline
210
0.0
220
0.0
230
1.0
 70
     8
 71
     3
 72
    14
 73
    10
 74
     0
 42
0.0000000001
 43
0.0000000001
 12
1.0
 22
0.0
 32
0.0
 13
1.0
 23
0.0
 33
0.0
 40
0.0
 40
0.0
 40
0.0
 40
0.0
 40
1.0
 40
1.0
 40
1.0
 40
2.0
 40
2.0
 40
2.0
 40
3.0
 40
3.0
 40
3.0
 40
3.0
 10
4.722763984960111
 20
7.423647739038428
 30
0.0
 10
4.722763984960111
 20
7.423647739038428
 30
0.0
 10
4.722763984960111
 20
7.483110802419358
 30
0.0
 10
4.722763984960111
 20
7.483110802419358
 30
0.0
 10
4.722763984960111
 20
7.483110802419358
 30
0.0
 10
4.719463784942465
 20
7.502926868291056
 30
0.0
 10
4.704598019097223
 20
7.506232023563976
 30
0.0
 10
4.704598019097223
 20
7.506232023563976
 30
0.0
 10
4.476656276136964
 20
7.580560852790149
 30
0.0
 10
4.476656276136964
 20
7.580560852790149
 30
0.0
  0
POLYLINE
  5
278
330
23D
100
AcDbEntity
  8
BA
 62
   250
420
  2301728
370
    13
100
AcDb2dPolyline
 66
     1
 10
0.0
 20
0.0
 30
0.0
  0
VERTEX
  5
279
330
278
100
AcDbEntity
  8
BA
 62
   250
420
  2301728
370
    13
100
AcDbVertex
100
AcDb2dVertex
 10
4.688077197987897
 20
7.463294736547659
 30
0.0
  0
VERTEX
  5
27A
330
278
100
AcDbEntity
  8
BA
 62
   250
420
  2301728
370
    13
100
AcDbVertex
100
AcDb2dVertex
 10
4.688077197987897
 20
7.43685844961956
 30
0.0
  0
SEQEND
  5
27B
330
278
100
AcDbEntity
  8
BA
 62
   250
420
  2301728
370
    13
  0
SPLINE
  5
27C
330
23D
100
AcDbEntity
  8
BA
 62
   250
420
  2301728
370
    13
100
AcDbSpline
210
0.0
220
0.0
230
1.0
 70
     8
 71
     3
 72
     8
 73
     4
 74
     0
 42
0.0000000001
 43
0.0000000001
 12
1.0
 22
0.0
 32
0.0
 13
1.0
 23
0.0
 33
0.0
 40
0.0
 40
0.0
 40
0.0
 40
0.0
 40
1.0
 40
1.0
 40
1.0
 40
1.0
 10
4.684776997970251
 20
7.486411002437004
 30
0.0
 10
4.684776997970251
 20
7.486411002437004
 30
0.0
 10
4.688077197987897
 20
7.484755947172895
 30
0.0
 10
4.688077197987897
 20
7.476500491873505
 30
0.0
  0
POLYLINE
  5
27D
330
23D
100
AcDbEntity
  8
BA
 62
   250
420
  2301728
370
    13
100
AcDb2dPolyline
 66
     1
 10
0.0
 20
0.0
 30
0.0
  0
VERTEX
  5
27E
330
27D
100
AcDbEntity
  8
BA
 62
   250
420
  2301728
370
    13
100
AcDbVertex
100
AcDb2dVertex
 10
4.58609804428958
 20
7.519316870660949
 30
0.0
  0
VERTEX
  5
27F
330
27D
100
AcDbEntity
  8
BA
 62
   250
420
  2301728
370
    13
100
AcDbVertex
100
AcDb2dVertex
 10
4.669436518669045
 20
7.49145842546698
 30
0.0
  0
SEQEND
  5
280
330
27D
100
AcDbEntity
  8
BA
 62
   250
420
  2301728
370
    13
  0
POLYLINE
  5
281
330
23D
100
AcDbEntity
  8
BA
 62
   250
420
  2301728
370
    13
100
AcDb2dPolyline
 66
     1
 10
0.0
 20
0.0
 30
0.0
  0
VERTEX
  5
282
330
281
100
AcDbEntity
  8
BA
 62
   250
420
  2301728
370
    13
100
AcDbVertex
100
AcDb2dVertex
 10
4.503349245288669
 20
7.546609425701755
 30
0.0
  0
VERTEX
  5
283
330
281
100
AcDbEntity
  8
BA
 62
   250
420
  2301728
370
    13
100
AcDbVertex
100
AcDb2dVertex
 10
4.570806126490121
 20
7.524354383180379
 30
0.0
  0
SEQEND
  5
284
330
281
100
AcDbEntity
  8
BA
 62
   250
420
  2301728
370
    13
  0
POLYLINE
  5
285
330
23D
100
AcDbEntity
  8
BA
 62
   250
420
  2301728
370
    13
100
AcDb2dPolyline
 66
     1
 10
0.0
 20
0.0
 30
0.0
  0
VERTEX
  5
286
330
285
100
AcDbEntity
  8
BA
 62
   250
420
  2301728
370
    13
100
AcDbVertex
100
AcDb2dVertex
 10
4.42874886807307
 20
7.570650342226663
 30
0.0
  0
VERTEX
  5
287
330
285
100
AcDbEntity
  8
BA
 62
   250
420
  2301728
370
    13
100
AcDbVertex
100
AcDb2dVertex
 10
4.487941374515635
 20
7.551676669752863
 30
0.0
  0
SEQEND
  5
288
330
285
100
AcDbEntity
  8
BA
 62
   250
420
  2301728
370
    13
  0
SPLINE
  5
289
330
23D
100
AcDbEntity
  8
BA
 62
   250
420
  2301728
370
    18
100
AcDbSpline
210
0.0
220
0.0
230
1.0
 70
     8
 71
     3
 72
    14
 73
    10
 74
     0
 42
0.0000000001
 43
0.0000000001
 12
1.0
 22
0.0
 32
0.0
 13
1.0
 23
0.0
 33
0.0
 40
0.0
 40
0.0
 40
0.0
 40
0.0
 40
1.0
 40
1.0
 40
1.0
 40
2.0
 40
2.0
 40
2.0
 40
3.0
 40
3.0
 40
3.0
 40
3.0
 10
4.788827448376347
 20
7.405476817920266
 30
0.0
 10
4.788827448376347
 20
7.405476817920266
 30
0.0
 10
4.788827448376347
 20
7.49632151300049
 30
0.0
 10
4.788827448376347
 20
7.49632151300049
 30
0.0
 10
4.788827448376347
 20
7.49632151300049
 30
0.0
 10
4.785527248358701
 20
7.51613757887219
 30
0.0
 10
4.770661482513459
 20
7.519442734145096
 30
0.0
 10
4.770661482513459
 20
7.519442734145096
 30
0.0
 10
4.546852422458161
 20
7.589648790976867
 30
0.0
 10
4.546852422458161
 20
7.589648790976867
 30
0.0
  0
POLYLINE
  5
28A
330
23D
100
AcDbEntity
  8
BA
 62
   250
420
  2301728
370
    13
100
AcDb2dPolyline
 66
     1
 10
0.0
 20
0.0
 30
0.0
  0
VERTEX
  5
28B
330
28A
100
AcDbEntity
  8
BA
 62
   250
420
  2301728
370
    13
100
AcDbVertex
100
AcDb2dVertex
 10
4.754140661404133
 20
7.474850391864707
 30
0.0
  0
VERTEX
  5
28C
330
28A
100
AcDbEntity
  8
BA
 62
   250
420
  2301728
370
    13
100
AcDbVertex
100
AcDb2dVertex
 10
4.754140661404133
 20
7.433558249601914
 30
0.0
  0
SEQEND
  5
28D
330
28A
100
AcDbEntity
  8
BA
 62
   250
420
  2301728
370
    13
  0
SPLINE
  5
28E
330
23D
100
AcDbEntity
  8
BA
 62
   250
420
  2301728
370
    13
100
AcDbSpline
210
0.0
220
0.0
230
1.0
 70
     8
 71
     3
 72
     8
 73
     4
 74
     0
 42
0.0000000001
 43
0.0000000001
 12
1.0
 22
0.0
 32
0.0
 13
1.0
 23
0.0
 33
0.0
 40
0.0
 40
0.0
 40
0.0
 40
0.0
 40
1.0
 40
1.0
 40
1.0
 40
1.0
 10
4.750840461386487
 20
7.499621713018124
 30
0.0
 10
4.750840461386487
 20
7.499621713018124
 30
0.0
 10
4.754140661404133
 20
7.497966657754053
 30
0.0
 10
4.754140661404133
 20
7.489711202454638
 30
0.0
  0
POLYLINE
  5
28F
330
23D
100
AcDbEntity
  8
BA
 62
   250
420
  2301728
370
    13
100
AcDb2dPolyline
 66
     1
 10
0.0
 20
0.0
 30
0.0
  0
VERTEX
  5
290
330
28F
100
AcDbEntity
  8
BA
 62
   250
420
  2301728
370
    13
100
AcDbVertex
100
AcDb2dVertex
 10
4.676773269639195
 20
7.52366758479833
 30
0.0
  0
VERTEX
  5
291
330
28F
100
AcDbEntity
  8
BA
 62
   250
420
  2301728
370
    13
100
AcDbVertex
100
AcDb2dVertex
 10
4.737426585338804
 20
7.503977382410779
 30
0.0
  0
SEQEND
  5
292
330
28F
100
AcDbEntity
  8
BA
 62
   250
420
  2301728
370
    13
  0
POLYLINE
  5
293
330
23D
100
AcDbEntity
  8
BA
 62
   250
420
  2301728
370
    13
100
AcDb2dPolyline
 66
     1
 10
0.0
 20
0.0
 30
0.0
  0
VERTEX
  5
294
330
293
100
AcDbEntity
  8
BA
 62
   250
420
  2301728
370
    13
100
AcDbVertex
100
AcDb2dVertex
 10
4.577871329470832
 20
7.555789531636706
 30
0.0
  0
VERTEX
  5
295
330
293
100
AcDbEntity
  8
BA
 62
   250
420
  2301728
370
    13
100
AcDbVertex
100
AcDb2dVertex
 10
4.663398044582714
 20
7.528013473475842
 30
0.0
  0
SEQEND
  5
296
330
293
100
AcDbEntity
  8
BA
 62
   250
420
  2301728
370
    13
  0
POLYLINE
  5
297
330
23D
100
AcDbEntity
  8
BA
 62
   250
420
  2301728
370
    13
100
AcDb2dPolyline
 66
     1
 10
0.0
 20
0.0
 30
0.0
  0
VERTEX
  5
298
330
297
100
AcDbEntity
  8
BA
 62
   250
420
  2301728
370
    13
100
AcDbVertex
100
AcDb2dVertex
 10
4.496477297263962
 20
7.582215908054258
 30
0.0
  0
VERTEX
  5
299
330
297
100
AcDbEntity
  8
BA
 62
   250
420
  2301728
370
    13
100
AcDbVertex
100
AcDb2dVertex
 10
4.564060041949561
 20
7.56027007346246
 30
0.0
  0
SEQEND
  5
29A
330
297
100
AcDbEntity
  8
BA
 62
   250
420
  2301728
370
    13
  0
POLYLINE
  5
29B
330
23D
100
AcDbEntity
  8
BA
 62
   250
420
  2301728
370
    13
100
AcDb2dPolyline
 66
     1
 10
0.0
 20
0.0
 30
0.0
  0
VERTEX
  5
29C
330
29B
100
AcDbEntity
  8
BA
 62
   250
420
  2301728
370
    13
100
AcDbVertex
100
AcDb2dVertex
 10
4.823243678410159
 20
7.463261040811744
 30
0.0
  0
VERTEX
  5
398
330
29B
100
AcDbEntity
  8
0
100
AcDbVertex
100
AcDb2dVertex
 10
4.823243678410159
 20
7.463261040811744
 30
0.0
  0
SEQEND
  5
29D
330
29B
100
AcDbEntity
  8
BA
 62
   250
420
  2301728
370
    13
  0
INSERT
  5
29F
330
23D
100
AcDbEntity
  8
BA
100
AcDbBlockReference
  2
block 11
 10
0.0
 20
0.0
 30
0.0
  0
INSERT
  5
2B2
330
23D
100
AcDbEntity
  8
BA
100
AcDbBlockReference
  2
block 12
 10
0.0
 20
0.0
 30
0.0
  0
INSERT
  5
2CB
330
23D
100
AcDbEntity
  8
BA
100
AcDbBlockReference
  2
block 13
 10
0.0
 20
0.0
 30
0.0
  0
INSERT
  5
2E9
330
23D
100
AcDbEntity
  8
BA
100
AcDbBlockReference
  2
block 14
 10
0.0
 20
0.0
 30
0.0
  0
INSERT
  5
2FC
330
23D
100
AcDbEntity
  8
BA
100
AcDbBlockReference
  2
block 15
 10
0.0
 20
0.0
 30
0.0
  0
SPLINE
  5
301
330
23D
100
AcDbEntity
  8
BA
 62
   250
420
  2301728
370
    13
100
AcDbSpline
210
0.0
220
0.0
230
1.0
 70
    11
 71
     3
 72
    17
 73
    13
 74
     0
 42
0.0000000001
 43
0.0000000001
 12
1.0
 22
0.0
 32
0.0
 13
1.0
 23
0.0
 33
0.0
 40
0.0
 40
0.0
 40
0.0
 40
0.0
 40
1.0
 40
1.0
 40
1.0
 40
2.0
 40
2.0
 40
2.0
 40
3.0
 40
3.0
 40
3.0
 40
4.0
 40
4.0
 40
4.0
 40
4.0
 10
4.200952809618077
 20
7.221081858375972
 30
0.0
 10
4.199321539579336
 20
7.210890880363536
 30
0.0
 10
4.191656750709525
 20
7.203647288192681
 30
0.0
 10
4.183836366823875
 20
7.204899976727928
 30
0.0
 10
4.176012018734026
 20
7.206148701058914
 30
0.0
 10
4.170998366278228
 20
7.215424938946335
 30
0.0
 10
4.172628570427656
 20
7.225621863265107
 30
0.0
 10
4.174259840466371
 20
7.235812841277543
 30
0.0
 10
4.181924629336208
 20
7.243061388703684
 30
0.0
 10
4.189745013221859
 20
7.241808700168463
 30
0.0
 10
4.197569361311707
 20
7.240559975837463
 30
0.0
 10
4.202583164241964
 20
7.231278782694757
 30
0.0
 10
4.200952809618077
 20
7.221081858375972
 30
0.0
  0
INSERT
  5
303
330
23D
100
AcDbEntity
  8
BA
100
AcDbBlockReference
  2
block 16
 10
0.0
 20
0.0
 30
0.0
  0
SPLINE
  5
308
330
23D
100
AcDbEntity
  8
BA
 62
   250
420
  2301728
370
    18
100
AcDbSpline
210
0.0
220
0.0
230
1.0
 70
    11
 71
     3
 72
    23
 73
    19
 74
     0
 42
0.0000000001
 43
0.0000000001
 12
1.0
 22
0.0
 32
0.0
 13
1.0
 23
0.0
 33
0.0
 40
0.0
 40
0.0
 40
0.0
 40
0.0
 40
1.0
 40
1.0
 40
1.0
 40
2.0
 40
2.0
 40
2.0
 40
3.0
 40
3.0
 40
3.0
 40
4.0
 40
4.0
 40
4.0
 40
5.0
 40
5.0
 40
5.0
 40
6.0
 40
6.0
 40
6.0
 40
6.0
 10
4.189745013221859
 20
7.241808700168463
 30
0.0
 10
4.189164332600007
 20
7.241899876865646
 30
0.0
 10
4.185389343829178
 20
7.243245724200165
 30
0.0
 10
4.183894838836219
 20
7.243482708010194
 30
0.0
 10
4.176074454950594
 20
7.244736264988912
 30
0.0
 10
4.168409666080757
 20
7.237486848967832
 30
0.0
 10
4.166778396042016
 20
7.227295748499285
 30
0.0
 10
4.165148117054311
 20
7.217099815231563
 30
0.0
 10
4.170160853297324
 20
7.207823577344142
 30
0.0
 10
4.177986192438261
 20
7.206574853013143
 30
0.0
 10
4.17856694835728
 20
7.206482685264897
 30
0.0
 10
4.182340870779854
 20
7.205137828981416
 30
0.0
 10
4.183836366823875
 20
7.204899976727928
 30
0.0
 10
4.191656750709525
 20
7.203647288192681
 30
0.0
 10
4.199321539579336
 20
7.210890880363536
 30
0.0
 10
4.200952809618077
 20
7.221081858375972
 30
0.0
 10
4.202583164241964
 20
7.231278782694757
 30
0.0
 10
4.197569361311707
 20
7.240559975837463
 30
0.0
 10
4.189745013221859
 20
7.241808700168463
 30
0.0
  0
SPLINE
  5
309
330
23D
100
AcDbEntity
  8
BA
 62
   250
420
  2301728
370
    18
100
AcDbSpline
210
0.0
220
0.0
230
1.0
 70
    11
 71
     3
 72
    17
 73
    13
 74
     0
 42
0.0000000001
 43
0.0000000001
 12
1.0
 22
0.0
 32
0.0
 13
1.0
 23
0.0
 33
0.0
 40
0.0
 40
0.0
 40
0.0
 40
0.0
 40
1.0
 40
1.0
 40
1.0
 40
2.0
 40
2.0
 40
2.0
 40
3.0
 40
3.0
 40
3.0
 40
4.0
 40
4.0
 40
4.0
 40
4.0
 10
4.224315847220471
 20
7.13708037083984
 30
0.0
 10
4.22358048733665
 20
7.13249775075528
 30
0.0
 10
4.220134678893297
 20
7.129236201728834
 30
0.0
 10
4.216611416308398
 20
7.129797136626735
 30
0.0
 10
4.213098216215459
 20
7.130359062575685
 30
0.0
 10
4.21084349916047
 20
7.134534360676083
 30
0.0
 10
4.211568948533719
 20
7.139121936015916
 30
0.0
 10
4.212305375350348
 20
7.143709511355761
 30
0.0
 10
4.215760103451
 20
7.14697106038222
 30
0.0
 10
4.219273379445743
 20
7.146405170229021
 30
0.0
 10
4.222805485410592
 20
7.145844355472162
 30
0.0
 10
4.225051207104267
 20
7.141667946179672
 30
0.0
 10
4.224315847220471
 20
7.13708037083984
 30
0.0
  0
SPLINE
  5
30A
330
23D
100
AcDbEntity
  8
BA
 62
   250
420
  2301728
370
    18
100
AcDbSpline
210
0.0
220
0.0
230
1.0
 70
    11
 71
     3
 72
    17
 73
    13
 74
     0
 42
0.0000000001
 43
0.0000000001
 12
1.0
 22
0.0
 32
0.0
 13
1.0
 23
0.0
 33
0.0
 40
0.0
 40
0.0
 40
0.0
 40
0.0
 40
1.0
 40
1.0
 40
1.0
 40
2.0
 40
2.0
 40
2.0
 40
3.0
 40
3.0
 40
3.0
 40
4.0
 40
4.0
 40
4.0
 40
4.0
 10
4.206972453734352
 20
6.225308443743516
 30
0.0
 10
4.206237093850531
 20
6.220730778914243
 30
0.0
 10
4.202791284969054
 20
6.217469229887797
 30
0.0
 10
4.199268022822303
 20
6.218030164785684
 30
0.0
 10
4.195754822291216
 20
6.218592090734634
 30
0.0
 10
4.19350010567435
 20
6.222772344090331
 30
0.0
 10
4.194225555047599
 20
6.227359919430164
 30
0.0
 10
4.194961981426129
 20
6.231947494769997
 30
0.0
 10
4.198416709964881
 20
6.235199133285883
 30
0.0
 10
4.201929985959648
 20
6.234638198387984
 30
0.0
 10
4.205462091924472
 20
6.234077360597931
 30
0.0
 10
4.207707813618173
 20
6.229896019083348
 30
0.0
 10
4.206972453734352
 20
6.225308443743516
 30
0.0
  0
SPLINE
  5
30B
330
23D
100
AcDbEntity
  8
BA
 62
   250
420
  2301728
370
    18
100
AcDbSpline
210
0.0
220
0.0
230
1.0
 70
    11
 71
     3
 72
    17
 73
    13
 74
     0
 42
0.0000000001
 43
0.0000000001
 12
1.0
 22
0.0
 32
0.0
 13
1.0
 23
0.0
 33
0.0
 40
0.0
 40
0.0
 40
0.0
 40
0.0
 40
1.0
 40
1.0
 40
1.0
 40
2.0
 40
2.0
 40
2.0
 40
3.0
 40
3.0
 40
3.0
 40
4.0
 40
4.0
 40
4.0
 40
4.0
 10
4.109106161919903
 20
7.153184950505508
 30
0.0
 10
4.108370802036082
 20
7.148602330420949
 30
0.0
 10
4.10492499068227
 20
7.145340781394502
 30
0.0
 10
4.101401731007829
 20
7.145901716292428
 30
0.0
 10
4.097888528004457
 20
7.146463642241352
 30
0.0
 10
4.095633813859902
 20
7.150638940341751
 30
0.0
 10
4.096359263233126
 20
7.155226515681584
 30
0.0
 10
4.097095687139346
 20
7.159814091021442
 30
0.0
 10
4.100550418150432
 20
7.163075640047875
 30
0.0
 10
4.104063694145174
 20
7.162509749894702
 30
0.0
 10
4.107595800110023
 20
7.161948935544652
 30
0.0
 10
4.109841521803698
 20
7.157772525845353
 30
0.0
 10
4.109106161919903
 20
7.153184950505508
 30
0.0
  0
INSERT
  5
30D
330
23D
100
AcDbEntity
  8
BA
100
AcDbBlockReference
  2
block 17
 10
0.0
 20
0.0
 30
0.0
  0
POLYLINE
  5
312
330
23D
100
AcDbEntity
  8
BA
 62
   250
420
  2301728
370
    18
100
AcDb2dPolyline
 66
     1
 10
0.0
 20
0.0
 30
0.0
  0
VERTEX
  5
313
330
312
100
AcDbEntity
  8
BA
 62
   250
420
  2301728
370
    18
100
AcDbVertex
100
AcDb2dVertex
 10
4.355010705276476
 20
5.866555977577124
 30
0.0
  0
VERTEX
  5
314
330
312
100
AcDbEntity
  8
BA
 62
   250
420
  2301728
370
    18
100
AcDbVertex
100
AcDb2dVertex
 10
4.374366923458031
 20
5.848331451878431
 30
0.0
  0
VERTEX
  5
315
330
312
100
AcDbEntity
  8
BA
 62
   250
420
  2301728
370
    18
100
AcDbVertex
100
AcDb2dVertex
 10
4.374366923458031
 20
5.870542888153333
 30
0.0
  0
SEQEND
  5
316
330
312
100
AcDbEntity
  8
BA
 62
   250
420
  2301728
370
    18
  0
POLYLINE
  5
317
330
23D
100
AcDbEntity
  8
BA
 62
   250
420
  2301728
370
    18
100
AcDb2dPolyline
 66
     1
 10
0.0
 20
0.0
 30
0.0
  0
VERTEX
  5
318
330
317
100
AcDbEntity
  8
BA
 62
   250
420
  2301728
370
    18
100
AcDbVertex
100
AcDb2dVertex
 10
4.35447851085923
 20
6.061474820465302
 30
0.0
  0
VERTEX
  5
319
330
317
100
AcDbEntity
  8
BA
 62
   250
420
  2301728
370
    18
100
AcDbVertex
100
AcDb2dVertex
 10
4.348874117135564
 20
6.087112320241986
 30
0.0
  0
VERTEX
  5
31A
330
317
100
AcDbEntity
  8
BA
 62
   250
420
  2301728
370
    18
100
AcDbVertex
100
AcDb2dVertex
 10
4.338170765727
 20
6.073176160287617
 30
0.0
  0
VERTEX
  5
31B
330
317
100
AcDbEntity
  8
BA
 62
   250
420
  2301728
370
    18
100
AcDbVertex
100
AcDb2dVertex
 10
4.35447851085923
 20
6.061474820465302
 30
0.0
  0
SEQEND
  5
31C
330
317
100
AcDbEntity
  8
BA
 62
   250
420
  2301728
370
    18
  0
POLYLINE
  5
31D
330
23D
100
AcDbEntity
  8
BA
 62
   250
420
  2301728
370
    18
100
AcDb2dPolyline
 66
     1
 10
0.0
 20
0.0
 30
0.0
  0
VERTEX
  5
31E
330
31D
100
AcDbEntity
  8
BA
 62
   250
420
  2301728
370
    18
100
AcDbVertex
100
AcDb2dVertex
 10
4.378654210327795
 20
5.960724570076864
 30
0.0
  0
VERTEX
  5
31F
330
31D
100
AcDbEntity
  8
BA
 62
   250
420
  2301728
370
    18
100
AcDbVertex
100
AcDb2dVertex
 10
4.373050807655192
 20
5.986362069853562
 30
0.0
  0
VERTEX
  5
320
330
31D
100
AcDbEntity
  8
BA
 62
   250
420
  2301728
370
    18
100
AcDbVertex
100
AcDb2dVertex
 10
4.362346465195565
 20
5.972425909899193
 30
0.0
  0
VERTEX
  5
321
330
31D
100
AcDbEntity
  8
BA
 62
   250
420
  2301728
370
    18
100
AcDbVertex
100
AcDb2dVertex
 10
4.378654210327795
 20
5.960724570076864
 30
0.0
  0
SEQEND
  5
322
330
31D
100
AcDbEntity
  8
BA
 62
   250
420
  2301728
370
    18
  0
POLYLINE
  5
323
330
23D
100
AcDbEntity
  8
BA
 62
   250
420
  2301728
370
    18
100
AcDb2dPolyline
 66
     1
 10
0.0
 20
0.0
 30
0.0
  0
VERTEX
  5
324
330
323
100
AcDbEntity
  8
BA
 62
   250
420
  2301728
370
    18
100
AcDbVertex
100
AcDb2dVertex
 10
4.339031989094969
 20
6.144088836522567
 30
0.0
  0
VERTEX
  5
325
330
323
100
AcDbEntity
  8
BA
 62
   250
420
  2301728
370
    18
100
AcDbVertex
100
AcDb2dVertex
 10
4.333427595371328
 20
6.169726336299239
 30
0.0
  0
VERTEX
  5
326
330
323
100
AcDbEntity
  8
BA
 62
   250
420
  2301728
370
    18
100
AcDbVertex
100
AcDb2dVertex
 10
4.322724243962739
 20
6.155789185293807
 30
0.0
  0
VERTEX
  5
327
330
323
100
AcDbEntity
  8
BA
 62
   250
420
  2301728
370
    18
100
AcDbVertex
100
AcDb2dVertex
 10
4.339031989094969
 20
6.144088836522567
 30
0.0
  0
SEQEND
  5
328
330
323
100
AcDbEntity
  8
BA
 62
   250
420
  2301728
370
    18
  0
POLYLINE
  5
329
330
23D
100
AcDbEntity
  8
BA
 62
   250
420
  2301728
370
    13
100
AcDb2dPolyline
 66
     1
 10
0.0
 20
0.0
 30
0.0
  0
VERTEX
  5
32A
330
329
100
AcDbEntity
  8
BA
 62
   250
420
  2301728
370
    13
100
AcDbVertex
100
AcDb2dVertex
 10
4.842890274551236
 20
7.523609112785998
 30
0.0
  0
VERTEX
  5
32B
330
329
100
AcDbEntity
  8
BA
 62
   250
420
  2301728
370
    13
100
AcDbVertex
100
AcDb2dVertex
 10
4.865731028246905
 20
7.528767533534303
 30
0.0
  0
SEQEND
  5
32C
330
329
100
AcDbEntity
  8
BA
 62
   250
420
  2301728
370
    13
  0
POLYLINE
  5
32D
330
23D
100
AcDbEntity
  8
BA
 62
   250
420
  2301728
370
    13
100
AcDb2dPolyline
 66
     1
 10
0.0
 20
0.0
 30
0.0
  0
VERTEX
  5
32E
330
32D
100
AcDbEntity
  8
BA
 62
   250
420
  2301728
370
    13
100
AcDbVertex
100
AcDb2dVertex
 10
4.783504513152693
 20
7.510210102504161
 30
0.0
  0
VERTEX
  5
32F
330
32D
100
AcDbEntity
  8
BA
 62
   250
420
  2301728
370
    13
100
AcDbVertex
100
AcDb2dVertex
 10
4.797712221096516
 20
7.513418134773562
 30
0.0
  0
SEQEND
  5
330
330
32D
100
AcDbEntity
  8
BA
 62
   250
420
  2301728
370
    13
  0
POLYLINE
  5
331
330
23D
100
AcDbEntity
  8
BA
 62
   250
420
  2301728
370
    13
100
AcDb2dPolyline
 66
     1
 10
0.0
 20
0.0
 30
0.0
  0
VERTEX
  5
332
330
331
100
AcDbEntity
  8
BA
 62
   250
420
  2301728
370
    13
100
AcDbVertex
100
AcDb2dVertex
 10
4.71797324415373
 20
7.495431549151893
 30
0.0
  0
VERTEX
  5
333
330
331
100
AcDbEntity
  8
BA
 62
   250
420
  2301728
370
    13
100
AcDbVertex
100
AcDb2dVertex
 10
4.735142212653904
 20
7.499297639322712
 30
0.0
  0
SEQEND
  5
334
330
331
100
AcDbEntity
  8
BA
 62
   250
420
  2301728
370
    13
  0
POLYLINE
  5
335
330
23D
100
AcDbEntity
  8
BA
 62
   250
420
  2301728
370
    13
100
AcDb2dPolyline
 66
     1
 10
0.0
 20
0.0
 30
0.0
  0
VERTEX
  5
336
330
335
100
AcDbEntity
  8
BA
 62
   250
420
  2301728
370
    13
100
AcDbVertex
100
AcDb2dVertex
 10
4.663591299538691
 20
7.483164319176403
 30
0.0
  0
VERTEX
  5
337
330
335
100
AcDbEntity
  8
BA
 62
   250
420
  2301728
370
    13
100
AcDbVertex
100
AcDb2dVertex
 10
4.674450245963119
 20
7.485612215285591
 30
0.0
  0
SEQEND
  5
338
330
335
100
AcDbEntity
  8
BA
 62
   250
420
  2301728
370
    13
  0
POLYLINE
  5
339
330
23D
100
AcDbEntity
  8
BA
 62
   250
420
  2301728
370
    13
100
AcDb2dPolyline
 66
     1
 10
0.0
 20
0.0
 30
0.0
  0
VERTEX
  5
33A
330
339
100
AcDbEntity
  8
BA
 62
   250
420
  2301728
370
    13
100
AcDbVertex
100
AcDb2dVertex
 10
4.206120149825892
 20
7.379945360606598
 30
0.0
  0
VERTEX
  5
33B
330
339
100
AcDbEntity
  8
BA
 62
   250
420
  2301728
370
    13
100
AcDbVertex
100
AcDb2dVertex
 10
4.221334765642951
 20
7.383381334618965
 30
0.0
  0
SEQEND
  5
33C
330
339
100
AcDbEntity
  8
BA
 62
   250
420
  2301728
370
    13
  0
POLYLINE
  5
33D
330
23D
100
AcDbEntity
  8
BA
 62
   250
420
  2301728
370
    13
100
AcDb2dPolyline
 66
     1
 10
0.0
 20
0.0
 30
0.0
  0
VERTEX
  5
33E
330
33D
100
AcDbEntity
  8
BA
 62
   250
420
  2301728
370
    13
100
AcDbVertex
100
AcDb2dVertex
 10
4.143667085407944
 20
7.365854596687427
 30
0.0
  0
VERTEX
  5
33F
330
33D
100
AcDbEntity
  8
BA
 62
   250
420
  2301728
370
    13
100
AcDbVertex
100
AcDb2dVertex
 10
4.156742021994382
 20
7.368801117251337
 30
0.0
  0
SEQEND
  5
340
330
33D
100
AcDbEntity
  8
BA
 62
   250
420
  2301728
370
    13
  0
POLYLINE
  5
341
330
23D
100
AcDbEntity
  8
BA
 62
   250
420
  2301728
370
    13
100
AcDb2dPolyline
 66
     1
 10
0.0
 20
0.0
 30
0.0
  0
VERTEX
  5
342
330
341
100
AcDbEntity
  8
BA
 62
   250
420
  2301728
370
    13
100
AcDbVertex
100
AcDb2dVertex
 10
4.072851532176527
 20
7.34987588050592
 30
0.0
  0
VERTEX
  5
343
330
341
100
AcDbEntity
  8
BA
 62
   250
420
  2301728
370
    13
100
AcDbVertex
100
AcDb2dVertex
 10
4.089134501032352
 20
7.353548841108831
 30
0.0
  0
SEQEND
  5
344
330
341
100
AcDbEntity
  8
BA
 62
   250
420
  2301728
370
    13
  0
POLYLINE
  5
345
330
23D
100
AcDbEntity
  8
BA
 62
   250
420
  2301728
370
    13
100
AcDb2dPolyline
 66
     1
 10
0.0
 20
0.0
 30
0.0
  0
VERTEX
  5
346
330
345
100
AcDbEntity
  8
BA
 62
   250
420
  2301728
370
    13
100
AcDbVertex
100
AcDb2dVertex
 10
3.998595120160492
 20
7.33312216239834
 30
0.0
  0
VERTEX
  5
347
330
345
100
AcDbEntity
  8
BA
 62
   250
420
  2301728
370
    13
100
AcDbVertex
100
AcDb2dVertex
 10
4.022282160975262
 20
7.338465043650141
 30
0.0
  0
SEQEND
  5
348
330
345
100
AcDbEntity
  8
BA
 62
   250
420
  2301728
370
    13
  0
INSERT
  5
34A
330
23D
100
AcDbEntity
  8
BA
100
AcDbBlockReference
  2
block 18
 10
0.0
 20
0.0
 30
0.0
  0
INSERT
  5
352
330
23D
100
AcDbEntity
  8
BA
100
AcDbBlockReference
  2
block 19
 10
0.0
 20
0.0
 30
0.0
  0
INSERT
  5
35A
330
23D
100
AcDbEntity
  8
BA
100
AcDbBlockReference
  2
block 20
 10
0.0
 20
0.0
 30
0.0
  0
INSERT
  5
362
330
23D
100
AcDbEntity
  8
BA
100
AcDbBlockReference
  2
block 21
 10
0.0
 20
0.0
 30
0.0
  0
INSERT
  5
36A
330
23D
100
AcDbEntity
  8
BA
100
AcDbBlockReference
  2
block 22
 10
0.0
 20
0.0
 30
0.0
  0
INSERT
  5
372
330
23D
100
AcDbEntity
  8
BA
100
AcDbBlockReference
  2
block 23
 10
0.0
 20
0.0
 30
0.0
  0
ENDBLK
  5
240
330
23D
100
AcDbEntity
  8
0
100
AcDbBlockEnd
  0
BLOCK
  5
243
330
241
100
AcDbEntity
  8
0
100
AcDbBlockBegin
  2
block 8
 70
     0
 10
0.0
 20
0.0
 30
0.0
  3
block 8
  1

  0
SPLINE
  5
245
330
241
100
AcDbEntity
  8
BA
370
     0
100
AcDbSpline
210
0.0
220
0.0
230
1.0
 70
    11
 71
     3
 72
   104
 73
   100
 74
     0
 42
0.0000000001
 43
0.0000000001
 12
1.0
 22
0.0
 32
0.0
 13
1.0
 23
0.0
 33
0.0
 40
0.0
 40
0.0
 40
0.0
 40
0.0
 40
1.0
 40
1.0
 40
1.0
 40
2.0
 40
2.0
 40
2.0
 40
3.0
 40
3.0
 40
3.0
 40
4.0
 40
4.0
 40
4.0
 40
5.0
 40
5.0
 40
5.0
 40
6.0
 40
6.0
 40
6.0
 40
7.0
 40
7.0
 40
7.0
 40
8.0
 40
8.0
 40
8.0
 40
9.0
 40
9.0
 40
9.0
 40
10.0
 40
10.0
 40
10.0
 40
11.0
 40
11.0
 40
11.0
 40
12.0
 40
12.0
 40
12.0
 40
13.0
 40
13.0
 40
13.0
 40
14.0
 40
14.0
 40
14.0
 40
15.0
 40
15.0
 40
15.0
 40
16.0
 40
16.0
 40
16.0
 40
17.0
 40
17.0
 40
17.0
 40
18.0
 40
18.0
 40
18.0
 40
19.0
 40
19.0
 40
19.0
 40
20.0
 40
20.0
 40
20.0
 40
21.0
 40
21.0
 40
21.0
 40
22.0
 40
22.0
 40
22.0
 40
23.0
 40
23.0
 40
23.0
 40
24.0
 40
24.0
 40
24.0
 40
25.0
 40
25.0
 40
25.0
 40
26.0
 40
26.0
 40
26.0
 40
27.0
 40
27.0
 40
27.0
 40
28.0
 40
28.0
 40
28.0
 40
29.0
 40
29.0
 40
29.0
 40
30.0
 40
30.0
 40
30.0
 40
31.0
 40
31.0
 40
31.0
 40
32.0
 40
32.0
 40
32.0
 40
33.0
 40
33.0
 40
33.0
 40
33.0
 10
4.240454122622042
 20
7.359229420375741
 30
0.0
 10
4.240454122622042
 20
7.359229420375741
 30
0.0
 10
4.240454122622042
 20
7.375745286229794
 30
0.0
 10
4.240454122622042
 20
7.375745286229794
 30
0.0
 10
4.240454122622042
 20
7.375745286229794
 30
0.0
 10
4.238804022613244
 20
7.384005696784457
 30
0.0
 10
4.228893512049732
 20
7.388960952066213
 30
0.0
 10
4.228893512049732
 20
7.388960952066213
 30
0.0
 10
3.995996513807717
 20
7.474850391864707
 30
0.0
 10
3.995996513807717
 20
7.474850391864707
 30
0.0
 10
3.995996513807717
 20
7.474850391864707
 30
0.0
 10
3.975343009793429
 20
7.469072564206183
 30
0.0
 10
3.975343009793429
 20
7.469072564206183
 30
0.0
 10
3.975343009793429
 20
7.469072564206183
 30
0.0
 10
3.958827143939364
 20
7.476505447128791
 30
0.0
 10
3.948089105743823
 20
7.473200291855871
 30
0.0
 10
3.948089105743823
 20
7.473200291855871
 30
0.0
 10
3.929095612248905
 20
7.469895136582951
 30
0.0
 10
3.925790456975973
 20
7.459162053642684
 30
0.0
 10
3.925790456975973
 20
7.459162053642684
 30
0.0
 10
3.909274591121933
 20
7.454206798360941
 30
0.0
 10
3.909274591121933
 20
7.454206798360941
 30
0.0
 10
3.909274591121933
 20
7.454206798360941
 30
0.0
 10
3.895236352908745
 20
7.46246225366033
 30
0.0
 10
3.882025642327587
 20
7.459984626019453
 30
0.0
 10
3.882025642327587
 20
7.459984626019453
 30
0.0
 10
3.863027193577384
 20
7.456684426001819
 30
0.0
 10
3.857626956371354
 20
7.444334938788655
 30
0.0
 10
3.857626956371354
 20
7.444334938788655
 30
0.0
 10
3.746578694456401
 20
7.421992683774318
 30
0.0
 10
3.746578694456401
 20
7.421992683774318
 30
0.0
 10
3.746578694456401
 20
7.421992683774318
 30
0.0
 10
3.746578694456401
 20
7.405476817920266
 30
0.0
 10
3.746578694456401
 20
7.405476817920266
 30
0.0
 10
3.746578694456401
 20
7.405476817920266
 30
0.0
 10
3.972870337407837
 20
7.322887578139418
 30
0.0
 10
3.972870337407837
 20
7.322887578139418
 30
0.0
 10
3.972870337407837
 20
7.322887578139418
 30
0.0
 10
3.977825592689593
 20
7.319587378121784
 30
0.0
 10
3.977825592689593
 20
7.314632122840053
 30
0.0
 10
3.977825592689593
 20
7.314632122840053
 30
0.0
 10
3.977825592689593
 20
7.299766356994799
 30
0.0
 10
3.977825592689593
 20
7.299766356994799
 30
0.0
 10
3.977825592689593
 20
7.299766356994799
 30
0.0
 10
4.024072990234091
 20
7.266729670031408
 30
0.0
 10
4.024072990234091
 20
7.266729670031408
 30
0.0
 10
4.024072990234091
 20
7.266729670031408
 30
0.0
 10
4.111617485296695
 20
7.037137827062325
 30
0.0
 10
4.111617485296695
 20
7.037137827062325
 30
0.0
 10
4.111617485296695
 20
7.037137827062325
 30
0.0
 10
4.111617485296695
 20
6.285594079501228
 30
0.0
 10
4.111617485296695
 20
6.285594079501228
 30
0.0
 10
4.111617485296695
 20
6.285594079501228
 30
0.0
 10
4.111617485296695
 20
6.237686671437308
 30
0.0
 10
4.131438506423668
 20
6.196399484429813
 30
0.0
 10
4.131438506423668
 20
6.196399484429813
 30
0.0
 10
4.256969988476107
 20
5.956892175641959
 30
0.0
 10
4.256969988476107
 20
5.956892175641959
 30
0.0
 10
4.256969988476107
 20
5.956892175641959
 30
0.0
 10
4.26852564379313
 20
5.943681465060826
 30
0.0
 10
4.27513595433897
 20
5.942026409796729
 30
0.0
 10
4.27513595433897
 20
5.942026409796729
 30
0.0
 10
4.296621941240624
 20
5.846221504179476
 30
0.0
 10
4.293311830712406
 20
5.801624206643762
 30
0.0
 10
4.293311830712406
 20
5.801624206643762
 30
0.0
 10
4.290001720184212
 20
5.790058640816192
 30
0.0
 10
4.304867486029454
 20
5.78180318551679
 30
0.0
 10
4.304867486029454
 20
5.78180318551679
 30
0.0
 10
4.486566786700475
 20
5.674442624582525
 30
0.0
 10
4.486566786700475
 20
5.674442624582525
 30
0.0
 10
4.486566786700475
 20
5.674442624582525
 30
0.0
 10
4.493177097246315
 20
5.66783231403666
 30
0.0
 10
4.516298318390934
 20
5.679397879864281
 30
0.0
 10
4.516298318390934
 20
5.679397879864281
 30
0.0
 10
4.501432552545692
 20
5.687653335163632
 30
0.0
 10
4.501432552545692
 20
5.687653335163632
 30
0.0
 10
4.501432552545692
 20
5.687653335163632
 30
0.0
 10
4.499777497281583
 20
5.7025191010089
 30
0.0
 10
4.499777497281583
 20
5.7025191010089
 30
0.0
 10
4.499777497281583
 20
5.7025191010089
 30
0.0
 10
4.504732752563338
 20
5.704174156272984
 30
0.0
 10
4.504732752563338
 20
5.704174156272984
 30
0.0
 10
4.504732752563338
 20
5.704174156272984
 30
0.0
 10
4.361030349392751
 20
6.272373458409523
 30
0.0
 10
4.361030349392751
 20
6.272373458409523
 30
0.0
 10
4.361030349392751
 20
6.272373458409523
 30
0.0
 10
4.361030349392751
 20
7.027227316498839
 30
0.0
 10
4.361030349392751
 20
7.027227316498839
 30
0.0
 10
4.361030349392751
 20
7.027227316498839
 30
0.0
 10
4.324688507156426
 20
7.232042883059206
 30
0.0
 10
4.324688507156426
 20
7.232042883059206
 30
0.0
 10
4.324688507156426
 20
7.232042883059206
 30
0.0
 10
4.290001720184212
 20
7.299766356994799
 30
0.0
 10
4.290001720184212
 20
7.299766356994799
 30
0.0
 10
4.290001720184212
 20
7.299766356994799
 30
0.0
 10
4.278436154356617
 20
7.31628717810415
 30
0.0
 10
4.27018069905724
 20
7.319587378121784
 30
0.0
 10
4.27018069905724
 20
7.319587378121784
 30
0.0
 10
4.240454122622042
 20
7.359229420375741
 30
0.0
 10
4.240454122622042
 20
7.359229420375741
 30
0.0
  0
HATCH
  5
246
330
241
100
AcDbEntity
  8
BA
 62
   254
420
 13358815
100
AcDbHatch
 10
0.0
 20
0.0
 30
0.0
210
0.0
220
0.0
230
1.0
  2
SOLID
 70
     1
 71
     0
 91
        1
 92
        1
 93
        1
 72
     4
 94
        3
 73
     0
 74
     1
 95
      104
 96
      100
 40
0.0
 40
0.0
 40
0.0
 40
0.0
 40
1.0
 40
1.0
 40
1.0
 40
2.0
 40
2.0
 40
2.0
 40
3.0
 40
3.0
 40
3.0
 40
4.0
 40
4.0
 40
4.0
 40
5.0
 40
5.0
 40
5.0
 40
6.0
 40
6.0
 40
6.0
 40
7.0
 40
7.0
 40
7.0
 40
8.0
 40
8.0
 40
8.0
 40
9.0
 40
9.0
 40
9.0
 40
10.0
 40
10.0
 40
10.0
 40
11.0
 40
11.0
 40
11.0
 40
12.0
 40
12.0
 40
12.0
 40
13.0
 40
13.0
 40
13.0
 40
14.0
 40
14.0
 40
14.0
 40
15.0
 40
15.0
 40
15.0
 40
16.0
 40
16.0
 40
16.0
 40
17.0
 40
17.0
 40
17.0
 40
18.0
 40
18.0
 40
18.0
 40
19.0
 40
19.0
 40
19.0
 40
20.0
 40
20.0
 40
20.0
 40
21.0
 40
21.0
 40
21.0
 40
22.0
 40
22.0
 40
22.0
 40
23.0
 40
23.0
 40
23.0
 40
24.0
 40
24.0
 40
24.0
 40
25.0
 40
25.0
 40
25.0
 40
26.0
 40
26.0
 40
26.0
 40
27.0
 40
27.0
 40
27.0
 40
28.0
 40
28.0
 40
28.0
 40
29.0
 40
29.0
 40
29.0
 40
30.0
 40
30.0
 40
30.0
 40
31.0
 40
31.0
 40
31.0
 40
32.0
 40
32.0
 40
32.0
 40
33.0
 40
33.0
 40
33.0
 40
33.0
 10
4.240454122622042
 20
7.359229420375741
 10
4.240454122622042
 20
7.359229420375741
 10
4.240454122622042
 20
7.375745286229794
 10
4.240454122622042
 20
7.375745286229794
 10
4.240454122622042
 20
7.375745286229794
 10
4.238804022613244
 20
7.384005696784457
 10
4.228893512049732
 20
7.388960952066213
 10
4.228893512049732
 20
7.388960952066213
 10
3.995996513807717
 20
7.474850391864707
 10
3.995996513807717
 20
7.474850391864707
 10
3.995996513807717
 20
7.474850391864707
 10
3.975343009793429
 20
7.469072564206183
 10
3.975343009793429
 20
7.469072564206183
 10
3.975343009793429
 20
7.469072564206183
 10
3.958827143939364
 20
7.476505447128791
 10
3.948089105743823
 20
7.473200291855871
 10
3.948089105743823
 20
7.473200291855871
 10
3.929095612248905
 20
7.469895136582951
 10
3.925790456975973
 20
7.459162053642684
 10
3.925790456975973
 20
7.459162053642684
 10
3.909274591121933
 20
7.454206798360941
 10
3.909274591121933
 20
7.454206798360941
 10
3.909274591121933
 20
7.454206798360941
 10
3.895236352908745
 20
7.46246225366033
 10
3.882025642327587
 20
7.459984626019453
 10
3.882025642327587
 20
7.459984626019453
 10
3.863027193577384
 20
7.456684426001819
 10
3.857626956371354
 20
7.444334938788655
 10
3.857626956371354
 20
7.444334938788655
 10
3.746578694456401
 20
7.421992683774318
 10
3.746578694456401
 20
7.421992683774318
 10
3.746578694456401
 20
7.421992683774318
 10
3.746578694456401
 20
7.405476817920266
 10
3.746578694456401
 20
7.405476817920266
 10
3.746578694456401
 20
7.405476817920266
 10
3.972870337407837
 20
7.322887578139418
 10
3.972870337407837
 20
7.322887578139418
 10
3.972870337407837
 20
7.322887578139418
 10
3.977825592689593
 20
7.319587378121784
 10
3.977825592689593
 20
7.314632122840053
 10
3.977825592689593
 20
7.314632122840053
 10
3.977825592689593
 20
7.299766356994799
 10
3.977825592689593
 20
7.299766356994799
 10
3.977825592689593
 20
7.299766356994799
 10
4.024072990234091
 20
7.266729670031408
 10
4.024072990234091
 20
7.266729670031408
 10
4.024072990234091
 20
7.266729670031408
 10
4.111617485296695
 20
7.037137827062325
 10
4.111617485296695
 20
7.037137827062325
 10
4.111617485296695
 20
7.037137827062325
 10
4.111617485296695
 20
6.285594079501228
 10
4.111617485296695
 20
6.285594079501228
 10
4.111617485296695
 20
6.285594079501228
 10
4.111617485296695
 20
6.237686671437308
 10
4.131438506423668
 20
6.196399484429813
 10
4.131438506423668
 20
6.196399484429813
 10
4.256969988476107
 20
5.956892175641959
 10
4.256969988476107
 20
5.956892175641959
 10
4.256969988476107
 20
5.956892175641959
 10
4.26852564379313
 20
5.943681465060826
 10
4.27513595433897
 20
5.942026409796729
 10
4.27513595433897
 20
5.942026409796729
 10
4.296621941240624
 20
5.846221504179476
 10
4.293311830712406
 20
5.801624206643762
 10
4.293311830712406
 20
5.801624206643762
 10
4.290001720184212
 20
5.790058640816192
 10
4.304867486029454
 20
5.78180318551679
 10
4.304867486029454
 20
5.78180318551679
 10
4.486566786700475
 20
5.674442624582525
 10
4.486566786700475
 20
5.674442624582525
 10
4.486566786700475
 20
5.674442624582525
 10
4.493177097246315
 20
5.66783231403666
 10
4.516298318390934
 20
5.679397879864281
 10
4.516298318390934
 20
5.679397879864281
 10
4.501432552545692
 20
5.687653335163632
 10
4.501432552545692
 20
5.687653335163632
 10
4.501432552545692
 20
5.687653335163632
 10
4.499777497281583
 20
5.7025191010089
 10
4.499777497281583
 20
5.7025191010089
 10
4.499777497281583
 20
5.7025191010089
 10
4.504732752563338
 20
5.704174156272984
 10
4.504732752563338
 20
5.704174156272984
 10
4.504732752563338
 20
5.704174156272984
 10
4.361030349392751
 20
6.272373458409523
 10
4.361030349392751
 20
6.272373458409523
 10
4.361030349392751
 20
6.272373458409523
 10
4.361030349392751
 20
7.027227316498839
 10
4.361030349392751
 20
7.027227316498839
 10
4.361030349392751
 20
7.027227316498839
 10
4.324688507156426
 20
7.232042883059206
 10
4.324688507156426
 20
7.232042883059206
 10
4.324688507156426
 20
7.232042883059206
 10
4.290001720184212
 20
7.299766356994799
 10
4.290001720184212
 20
7.299766356994799
 10
4.290001720184212
 20
7.299766356994799
 10
4.278436154356617
 20
7.31628717810415
 10
4.27018069905724
 20
7.319587378121784
 10
4.27018069905724
 20
7.319587378121784
 10
4.240454122622042
 20
7.359229420375741
 10
4.240454122622042
 20
7.359229420375741
 97
        0
 97
        0
 75
     2
 76
     1
 98
        0
  0
SPLINE
  5
247
330
241
100
AcDbEntity
  8
BA
370
     0
100
AcDbSpline
210
0.0
220
0.0
230
1.0
 70
    11
 71
     3
 72
    56
 73
    52
 74
     0
 42
0.0000000001
 43
0.0000000001
 12
1.0
 22
0.0
 32
0.0
 13
1.0
 23
0.0
 33
0.0
 40
0.0
 40
0.0
 40
0.0
 40
0.0
 40
1.0
 40
1.0
 40
1.0
 40
2.0
 40
2.0
 40
2.0
 40
3.0
 40
3.0
 40
3.0
 40
4.0
 40
4.0
 40
4.0
 40
5.0
 40
5.0
 40
5.0
 40
6.0
 40
6.0
 40
6.0
 40
7.0
 40
7.0
 40
7.0
 40
8.0
 40
8.0
 40
8.0
 40
9.0
 40
9.0
 40
9.0
 40
10.0
 40
10.0
 40
10.0
 40
11.0
 40
11.0
 40
11.0
 40
12.0
 40
12.0
 40
12.0
 40
13.0
 40
13.0
 40
13.0
 40
14.0
 40
14.0
 40
14.0
 40
15.0
 40
15.0
 40
15.0
 40
16.0
 40
16.0
 40
16.0
 40
17.0
 40
17.0
 40
17.0
 40
17.0
 10
4.63356938988871
 20
7.606992184462986
 30
0.0
 10
4.63356938988871
 20
7.606992184462986
 30
0.0
 10
4.546029850081393
 20
7.590471363353635
 30
0.0
 10
4.546029850081393
 20
7.590471363353635
 30
0.0
 10
4.546029850081393
 20
7.590471363353635
 30
0.0
 10
4.533641711877054
 20
7.597909201531555
 30
0.0
 10
4.517943463144471
 20
7.595426618635391
 30
0.0
 10
4.517943463144471
 20
7.595426618635391
 30
0.0
 10
4.501432552545692
 20
7.592126418617744
 30
0.0
 10
4.49729986964073
 20
7.58139333567749
 30
0.0
 10
4.49729986964073
 20
7.58139333567749
 30
0.0
 10
4.485744214323707
 20
7.578088180404556
 30
0.0
 10
4.485744214323707
 20
7.578088180404556
 30
0.0
 10
4.485744214323707
 20
7.578088180404556
 30
0.0
 10
4.465090710309394
 20
7.583866008063081
 30
0.0
 10
4.453525144481798
 20
7.582215908054258
 30
0.0
 10
4.453525144481798
 20
7.582215908054258
 30
0.0
 10
4.43535917861891
 20
7.577260652772515
 30
0.0
 10
4.42874886807307
 20
7.570650342226663
 30
0.0
 10
4.42874886807307
 20
7.570650342226663
 30
0.0
 10
4.394062081100856
 20
7.564044986936109
 30
0.0
 10
4.394062081100856
 20
7.564044986936109
 30
0.0
 10
4.394062081100856
 20
7.564044986936109
 30
0.0
 10
4.394062081100856
 20
7.549179221090867
 30
0.0
 10
4.394062081100856
 20
7.549179221090867
 30
0.0
 10
4.394062081100856
 20
7.549179221090867
 30
0.0
 10
4.63356938988871
 20
7.47154523659175
 30
0.0
 10
4.63356938988871
 20
7.47154523659175
 30
0.0
 10
4.63356938988871
 20
7.47154523659175
 30
0.0
 10
4.645134955716306
 20
7.468240081318842
 30
0.0
 10
4.645134955716306
 20
7.461634726028263
 30
0.0
 10
4.645134955716306
 20
7.461634726028263
 30
0.0
 10
4.645134955716306
 20
7.451724215464777
 30
0.0
 10
4.645134955716306
 20
7.451724215464777
 30
0.0
 10
4.645134955716306
 20
7.451724215464777
 30
0.0
 10
4.833424745912049
 20
7.387305896802104
 30
0.0
 10
4.833424745912049
 20
7.387305896802104
 30
0.0
 10
4.833424745912049
 20
7.387305896802104
 30
0.0
 10
4.856555877567214
 20
7.451724215464777
 30
0.0
 10
4.856555877567214
 20
7.451724215464777
 30
0.0
 10
4.856555877567214
 20
7.451724215464777
 30
0.0
 10
4.887942464521807
 20
7.488066057701101
 30
0.0
 10
4.887942464521807
 20
7.488066057701101
 30
0.0
 10
4.887942464521807
 20
7.488066057701101
 30
0.0
 10
4.887942464521807
 20
7.519447689400395
 30
0.0
 10
4.887942464521807
 20
7.519447689400395
 30
0.0
 10
4.887942464521807
 20
7.519447689400395
 30
0.0
 10
4.886277498747126
 20
7.532658399981541
 30
0.0
 10
4.869766588148346
 20
7.535963555254447
 30
0.0
 10
4.869766588148346
 20
7.535963555254447
 30
0.0
 10
4.63356938988871
 20
7.606992184462986
 30
0.0
 10
4.63356938988871
 20
7.606992184462986
 30
0.0
  0
HATCH
  5
248
330
241
100
AcDbEntity
  8
BA
 62
   254
420
 13358815
100
AcDbHatch
 10
0.0
 20
0.0
 30
0.0
210
0.0
220
0.0
230
1.0
  2
SOLID
 70
     1
 71
     0
 91
        1
 92
        1
 93
        1
 72
     4
 94
        3
 73
     0
 74
     1
 95
       56
 96
       52
 40
0.0
 40
0.0
 40
0.0
 40
0.0
 40
1.0
 40
1.0
 40
1.0
 40
2.0
 40
2.0
 40
2.0
 40
3.0
 40
3.0
 40
3.0
 40
4.0
 40
4.0
 40
4.0
 40
5.0
 40
5.0
 40
5.0
 40
6.0
 40
6.0
 40
6.0
 40
7.0
 40
7.0
 40
7.0
 40
8.0
 40
8.0
 40
8.0
 40
9.0
 40
9.0
 40
9.0
 40
10.0
 40
10.0
 40
10.0
 40
11.0
 40
11.0
 40
11.0
 40
12.0
 40
12.0
 40
12.0
 40
13.0
 40
13.0
 40
13.0
 40
14.0
 40
14.0
 40
14.0
 40
15.0
 40
15.0
 40
15.0
 40
16.0
 40
16.0
 40
16.0
 40
17.0
 40
17.0
 40
17.0
 40
17.0
 10
4.63356938988871
 20
7.606992184462986
 10
4.63356938988871
 20
7.606992184462986
 10
4.546029850081393
 20
7.590471363353635
 10
4.546029850081393
 20
7.590471363353635
 10
4.546029850081393
 20
7.590471363353635
 10
4.533641711877054
 20
7.597909201531555
 10
4.517943463144471
 20
7.595426618635391
 10
4.517943463144471
 20
7.595426618635391
 10
4.501432552545692
 20
7.592126418617744
 10
4.49729986964073
 20
7.58139333567749
 10
4.49729986964073
 20
7.58139333567749
 10
4.485744214323707
 20
7.578088180404556
 10
4.485744214323707
 20
7.578088180404556
 10
4.485744214323707
 20
7.578088180404556
 10
4.465090710309394
 20
7.583866008063081
 10
4.453525144481798
 20
7.582215908054258
 10
4.453525144481798
 20
7.582215908054258
 10
4.43535917861891
 20
7.577260652772515
 10
4.42874886807307
 20
7.570650342226663
 10
4.42874886807307
 20
7.570650342226663
 10
4.394062081100856
 20
7.564044986936109
 10
4.394062081100856
 20
7.564044986936109
 10
4.394062081100856
 20
7.564044986936109
 10
4.394062081100856
 20
7.549179221090867
 10
4.394062081100856
 20
7.549179221090867
 10
4.394062081100856
 20
7.549179221090867
 10
4.63356938988871
 20
7.47154523659175
 10
4.63356938988871
 20
7.47154523659175
 10
4.63356938988871
 20
7.47154523659175
 10
4.645134955716306
 20
7.468240081318842
 10
4.645134955716306
 20
7.461634726028263
 10
4.645134955716306
 20
7.461634726028263
 10
4.645134955716306
 20
7.451724215464777
 10
4.645134955716306
 20
7.451724215464777
 10
4.645134955716306
 20
7.451724215464777
 10
4.833424745912049
 20
7.387305896802104
 10
4.833424745912049
 20
7.387305896802104
 10
4.833424745912049
 20
7.387305896802104
 10
4.856555877567214
 20
7.451724215464777
 10
4.856555877567214
 20
7.451724215464777
 10
4.856555877567214
 20
7.451724215464777
 10
4.887942464521807
 20
7.488066057701101
 10
4.887942464521807
 20
7.488066057701101
 10
4.887942464521807
 20
7.488066057701101
 10
4.887942464521807
 20
7.519447689400395
 10
4.887942464521807
 20
7.519447689400395
 10
4.887942464521807
 20
7.519447689400395
 10
4.886277498747126
 20
7.532658399981541
 10
4.869766588148346
 20
7.535963555254447
 10
4.869766588148346
 20
7.535963555254447
 10
4.63356938988871
 20
7.606992184462986
 10
4.63356938988871
 20
7.606992184462986
 97
        0
 97
        0
 75
     2
 76
     1
 98
        0
  0
ENDBLK
  5
244
330
241
100
AcDbEntity
  8
0
100
AcDbBlockEnd
  0
BLOCK
  5
262
330
260
100
AcDbEntity
  8
0
100
AcDbBlockBegin
  2
block 9
 70
     0
 10
0.0
 20
0.0
 30
0.0
  3
block 9
  1

  0
POLYLINE
  5
264
330
260
100
AcDbEntity
  8
BA
 62
   250
420
  2301728
370
    13
100
AcDb2dPolyline
 66
     1
 10
0.0
 20
0.0
 30
0.0
  0
VERTEX
  5
265
330
264
100
AcDbEntity
  8
BA
 62
   250
420
  2301728
370
    13
100
AcDbVertex
100
AcDb2dVertex
 10
4.270190609567786
 20
6.004789673195305
 30
0.0
  0
VERTEX
  5
266
330
264
100
AcDbEntity
  8
BA
 62
   250
420
  2301728
370
    13
100
AcDbVertex
100
AcDb2dVertex
 10
4.270190609567786
 20
5.984968652068333
 30
0.0
  0
SEQEND
  5
267
330
264
100
AcDbEntity
  8
BA
 62
   250
420
  2301728
370
    13
  0
POLYLINE
  5
268
330
260
100
AcDbEntity
  8
BA
 62
   250
420
  2301728
370
    13
100
AcDb2dPolyline
 66
     1
 10
0.0
 20
0.0
 30
0.0
  0
VERTEX
  5
269
330
268
100
AcDbEntity
  8
BA
 62
   250
420
  2301728
370
    13
100
AcDbVertex
100
AcDb2dVertex
 10
4.270190609567786
 20
7.245263504150885
 30
0.0
  0
VERTEX
  5
26A
330
268
100
AcDbEntity
  8
BA
 62
   250
420
  2301728
370
    13
100
AcDbVertex
100
AcDb2dVertex
 10
4.270190609567786
 20
6.021310494304644
 30
0.0
  0
SEQEND
  5
26B
330
268
100
AcDbEntity
  8
BA
 62
   250
420
  2301728
370
    13
  0
POLYLINE
  5
26C
330
260
100
AcDbEntity
  8
BA
 62
   250
420
  2301728
370
    13
100
AcDb2dPolyline
 66
     1
 10
0.0
 20
0.0
 30
0.0
  0
VERTEX
  5
26D
330
26C
100
AcDbEntity
  8
BA
 62
   250
420
  2301728
370
    13
100
AcDbVertex
100
AcDb2dVertex
 10
4.270190609567786
 20
7.276640180594894
 30
0.0
  0
VERTEX
  5
26E
330
26C
100
AcDbEntity
  8
BA
 62
   250
420
  2301728
370
    13
100
AcDbVertex
100
AcDb2dVertex
 10
4.270190609567786
 20
7.260124314740842
 30
0.0
  0
SEQEND
  5
26F
330
26C
100
AcDbEntity
  8
BA
 62
   250
420
  2301728
370
    13
  0
ENDBLK
  5
263
330
260
100
AcDbEntity
  8
0
100
AcDbBlockEnd
  0
BLOCK
  5
272
330
270
100
AcDbEntity
  8
0
100
AcDbBlockBegin
  2
block 10
 70
     0
 10
0.0
 20
0.0
 30
0.0
  3
block 10
  1

  0
SPLINE
  5
274
330
270
100
AcDbEntity
  8
BA
 62
   250
420
  2301728
370
    25
100
AcDbSpline
210
0.0
220
0.0
230
1.0
 70
    11
 71
     3
 72
   104
 73
   100
 74
     0
 42
0.0000000001
 43
0.0000000001
 12
1.0
 22
0.0
 32
0.0
 13
1.0
 23
0.0
 33
0.0
 40
0.0
 40
0.0
 40
0.0
 40
0.0
 40
1.0
 40
1.0
 40
1.0
 40
2.0
 40
2.0
 40
2.0
 40
3.0
 40
3.0
 40
3.0
 40
4.0
 40
4.0
 40
4.0
 40
5.0
 40
5.0
 40
5.0
 40
6.0
 40
6.0
 40
6.0
 40
7.0
 40
7.0
 40
7.0
 40
8.0
 40
8.0
 40
8.0
 40
9.0
 40
9.0
 40
9.0
 40
10.0
 40
10.0
 40
10.0
 40
11.0
 40
11.0
 40
11.0
 40
12.0
 40
12.0
 40
12.0
 40
13.0
 40
13.0
 40
13.0
 40
14.0
 40
14.0
 40
14.0
 40
15.0
 40
15.0
 40
15.0
 40
16.0
 40
16.0
 40
16.0
 40
17.0
 40
17.0
 40
17.0
 40
18.0
 40
18.0
 40
18.0
 40
19.0
 40
19.0
 40
19.0
 40
20.0
 40
20.0
 40
20.0
 40
21.0
 40
21.0
 40
21.0
 40
22.0
 40
22.0
 40
22.0
 40
23.0
 40
23.0
 40
23.0
 40
24.0
 40
24.0
 40
24.0
 40
25.0
 40
25.0
 40
25.0
 40
26.0
 40
26.0
 40
26.0
 40
27.0
 40
27.0
 40
27.0
 40
28.0
 40
28.0
 40
28.0
 40
29.0
 40
29.0
 40
29.0
 40
30.0
 40
30.0
 40
30.0
 40
31.0
 40
31.0
 40
31.0
 40
32.0
 40
32.0
 40
32.0
 40
33.0
 40
33.0
 40
33.0
 40
33.0
 10
4.240454122622042
 20
7.359229420375741
 30
0.0
 10
4.240454122622042
 20
7.359229420375741
 30
0.0
 10
4.240454122622042
 20
7.375745286229794
 30
0.0
 10
4.240454122622042
 20
7.375745286229794
 30
0.0
 10
4.240454122622042
 20
7.375745286229794
 30
0.0
 10
4.238804022613244
 20
7.384005696784457
 30
0.0
 10
4.228893512049732
 20
7.388960952066213
 30
0.0
 10
4.228893512049732
 20
7.388960952066213
 30
0.0
 10
3.995996513807717
 20
7.474850391864707
 30
0.0
 10
3.995996513807717
 20
7.474850391864707
 30
0.0
 10
3.995996513807717
 20
7.474850391864707
 30
0.0
 10
3.975343009793429
 20
7.469072564206183
 30
0.0
 10
3.975343009793429
 20
7.469072564206183
 30
0.0
 10
3.975343009793429
 20
7.469072564206183
 30
0.0
 10
3.958827143939364
 20
7.476505447128791
 30
0.0
 10
3.948089105743823
 20
7.473200291855871
 30
0.0
 10
3.948089105743823
 20
7.473200291855871
 30
0.0
 10
3.929095612248905
 20
7.469895136582951
 30
0.0
 10
3.925790456975973
 20
7.459162053642684
 30
0.0
 10
3.925790456975973
 20
7.459162053642684
 30
0.0
 10
3.909274591121933
 20
7.454206798360941
 30
0.0
 10
3.909274591121933
 20
7.454206798360941
 30
0.0
 10
3.909274591121933
 20
7.454206798360941
 30
0.0
 10
3.895236352908745
 20
7.46246225366033
 30
0.0
 10
3.882025642327587
 20
7.459984626019453
 30
0.0
 10
3.882025642327587
 20
7.459984626019453
 30
0.0
 10
3.863027193577384
 20
7.456684426001819
 30
0.0
 10
3.857626956371354
 20
7.444334938788655
 30
0.0
 10
3.857626956371354
 20
7.444334938788655
 30
0.0
 10
3.746578694456401
 20
7.421992683774318
 30
0.0
 10
3.746578694456401
 20
7.421992683774318
 30
0.0
 10
3.746578694456401
 20
7.421992683774318
 30
0.0
 10
3.746578694456401
 20
7.405476817920266
 30
0.0
 10
3.746578694456401
 20
7.405476817920266
 30
0.0
 10
3.746578694456401
 20
7.405476817920266
 30
0.0
 10
3.972870337407837
 20
7.322887578139418
 30
0.0
 10
3.972870337407837
 20
7.322887578139418
 30
0.0
 10
3.972870337407837
 20
7.322887578139418
 30
0.0
 10
3.977825592689593
 20
7.319587378121784
 30
0.0
 10
3.977825592689593
 20
7.314632122840053
 30
0.0
 10
3.977825592689593
 20
7.314632122840053
 30
0.0
 10
3.977825592689593
 20
7.299766356994799
 30
0.0
 10
3.977825592689593
 20
7.299766356994799
 30
0.0
 10
3.977825592689593
 20
7.299766356994799
 30
0.0
 10
4.024072990234091
 20
7.266729670031408
 30
0.0
 10
4.024072990234091
 20
7.266729670031408
 30
0.0
 10
4.024072990234091
 20
7.266729670031408
 30
0.0
 10
4.111617485296695
 20
7.037137827062325
 30
0.0
 10
4.111617485296695
 20
7.037137827062325
 30
0.0
 10
4.111617485296695
 20
7.037137827062325
 30
0.0
 10
4.111617485296695
 20
6.285594079501228
 30
0.0
 10
4.111617485296695
 20
6.285594079501228
 30
0.0
 10
4.111617485296695
 20
6.285594079501228
 30
0.0
 10
4.111617485296695
 20
6.237686671437308
 30
0.0
 10
4.131438506423668
 20
6.196399484429813
 30
0.0
 10
4.131438506423668
 20
6.196399484429813
 30
0.0
 10
4.256969988476107
 20
5.956892175641959
 30
0.0
 10
4.256969988476107
 20
5.956892175641959
 30
0.0
 10
4.256969988476107
 20
5.956892175641959
 30
0.0
 10
4.26852564379313
 20
5.943681465060826
 30
0.0
 10
4.27513595433897
 20
5.942026409796729
 30
0.0
 10
4.27513595433897
 20
5.942026409796729
 30
0.0
 10
4.296621941240624
 20
5.846221504179476
 30
0.0
 10
4.293311830712406
 20
5.801624206643762
 30
0.0
 10
4.293311830712406
 20
5.801624206643762
 30
0.0
 10
4.290001720184212
 20
5.790058640816192
 30
0.0
 10
4.304867486029454
 20
5.78180318551679
 30
0.0
 10
4.304867486029454
 20
5.78180318551679
 30
0.0
 10
4.486566786700475
 20
5.674442624582525
 30
0.0
 10
4.486566786700475
 20
5.674442624582525
 30
0.0
 10
4.486566786700475
 20
5.674442624582525
 30
0.0
 10
4.493177097246315
 20
5.66783231403666
 30
0.0
 10
4.516298318390934
 20
5.679397879864281
 30
0.0
 10
4.516298318390934
 20
5.679397879864281
 30
0.0
 10
4.501432552545692
 20
5.687653335163632
 30
0.0
 10
4.501432552545692
 20
5.687653335163632
 30
0.0
 10
4.501432552545692
 20
5.687653335163632
 30
0.0
 10
4.499777497281583
 20
5.7025191010089
 30
0.0
 10
4.499777497281583
 20
5.7025191010089
 30
0.0
 10
4.499777497281583
 20
5.7025191010089
 30
0.0
 10
4.504732752563338
 20
5.704174156272984
 30
0.0
 10
4.504732752563338
 20
5.704174156272984
 30
0.0
 10
4.504732752563338
 20
5.704174156272984
 30
0.0
 10
4.361030349392751
 20
6.272373458409523
 30
0.0
 10
4.361030349392751
 20
6.272373458409523
 30
0.0
 10
4.361030349392751
 20
6.272373458409523
 30
0.0
 10
4.361030349392751
 20
7.027227316498839
 30
0.0
 10
4.361030349392751
 20
7.027227316498839
 30
0.0
 10
4.361030349392751
 20
7.027227316498839
 30
0.0
 10
4.324688507156426
 20
7.232042883059206
 30
0.0
 10
4.324688507156426
 20
7.232042883059206
 30
0.0
 10
4.324688507156426
 20
7.232042883059206
 30
0.0
 10
4.290001720184212
 20
7.299766356994799
 30
0.0
 10
4.290001720184212
 20
7.299766356994799
 30
0.0
 10
4.290001720184212
 20
7.299766356994799
 30
0.0
 10
4.278436154356617
 20
7.31628717810415
 30
0.0
 10
4.27018069905724
 20
7.319587378121784
 30
0.0
 10
4.27018069905724
 20
7.319587378121784
 30
0.0
 10
4.240454122622042
 20
7.359229420375741
 30
0.0
 10
4.240454122622042
 20
7.359229420375741
 30
0.0
  0
SPLINE
  5
275
330
270
100
AcDbEntity
  8
BA
 62
   250
420
  2301728
370
    25
100
AcDbSpline
210
0.0
220
0.0
230
1.0
 70
    11
 71
     3
 72
    56
 73
    52
 74
     0
 42
0.0000000001
 43
0.0000000001
 12
1.0
 22
0.0
 32
0.0
 13
1.0
 23
0.0
 33
0.0
 40
0.0
 40
0.0
 40
0.0
 40
0.0
 40
1.0
 40
1.0
 40
1.0
 40
2.0
 40
2.0
 40
2.0
 40
3.0
 40
3.0
 40
3.0
 40
4.0
 40
4.0
 40
4.0
 40
5.0
 40
5.0
 40
5.0
 40
6.0
 40
6.0
 40
6.0
 40
7.0
 40
7.0
 40
7.0
 40
8.0
 40
8.0
 40
8.0
 40
9.0
 40
9.0
 40
9.0
 40
10.0
 40
10.0
 40
10.0
 40
11.0
 40
11.0
 40
11.0
 40
12.0
 40
12.0
 40
12.0
 40
13.0
 40
13.0
 40
13.0
 40
14.0
 40
14.0
 40
14.0
 40
15.0
 40
15.0
 40
15.0
 40
16.0
 40
16.0
 40
16.0
 40
17.0
 40
17.0
 40
17.0
 40
17.0
 10
4.63356938988871
 20
7.606992184462986
 30
0.0
 10
4.63356938988871
 20
7.606992184462986
 30
0.0
 10
4.546029850081393
 20
7.590471363353635
 30
0.0
 10
4.546029850081393
 20
7.590471363353635
 30
0.0
 10
4.546029850081393
 20
7.590471363353635
 30
0.0
 10
4.533641711877054
 20
7.597909201531555
 30
0.0
 10
4.517943463144471
 20
7.595426618635391
 30
0.0
 10
4.517943463144471
 20
7.595426618635391
 30
0.0
 10
4.501432552545692
 20
7.592126418617744
 30
0.0
 10
4.49729986964073
 20
7.58139333567749
 30
0.0
 10
4.49729986964073
 20
7.58139333567749
 30
0.0
 10
4.485744214323707
 20
7.578088180404556
 30
0.0
 10
4.485744214323707
 20
7.578088180404556
 30
0.0
 10
4.485744214323707
 20
7.578088180404556
 30
0.0
 10
4.465090710309394
 20
7.583866008063081
 30
0.0
 10
4.453525144481798
 20
7.582215908054258
 30
0.0
 10
4.453525144481798
 20
7.582215908054258
 30
0.0
 10
4.43535917861891
 20
7.577260652772515
 30
0.0
 10
4.42874886807307
 20
7.570650342226663
 30
0.0
 10
4.42874886807307
 20
7.570650342226663
 30
0.0
 10
4.394062081100856
 20
7.564044986936109
 30
0.0
 10
4.394062081100856
 20
7.564044986936109
 30
0.0
 10
4.394062081100856
 20
7.564044986936109
 30
0.0
 10
4.394062081100856
 20
7.549179221090867
 30
0.0
 10
4.394062081100856
 20
7.549179221090867
 30
0.0
 10
4.394062081100856
 20
7.549179221090867
 30
0.0
 10
4.63356938988871
 20
7.47154523659175
 30
0.0
 10
4.63356938988871
 20
7.47154523659175
 30
0.0
 10
4.63356938988871
 20
7.47154523659175
 30
0.0
 10
4.645134955716306
 20
7.468240081318842
 30
0.0
 10
4.645134955716306
 20
7.461634726028263
 30
0.0
 10
4.645134955716306
 20
7.461634726028263
 30
0.0
 10
4.645134955716306
 20
7.451724215464777
 30
0.0
 10
4.645134955716306
 20
7.451724215464777
 30
0.0
 10
4.645134955716306
 20
7.451724215464777
 30
0.0
 10
4.833424745912049
 20
7.387305896802104
 30
0.0
 10
4.833424745912049
 20
7.387305896802104
 30
0.0
 10
4.833424745912049
 20
7.387305896802104
 30
0.0
 10
4.856555877567214
 20
7.451724215464777
 30
0.0
 10
4.856555877567214
 20
7.451724215464777
 30
0.0
 10
4.856555877567214
 20
7.451724215464777
 30
0.0
 10
4.887942464521807
 20
7.488066057701101
 30
0.0
 10
4.887942464521807
 20
7.488066057701101
 30
0.0
 10
4.887942464521807
 20
7.488066057701101
 30
0.0
 10
4.887942464521807
 20
7.519447689400395
 30
0.0
 10
4.887942464521807
 20
7.519447689400395
 30
0.0
 10
4.887942464521807
 20
7.519447689400395
 30
0.0
 10
4.886277498747126
 20
7.532658399981541
 30
0.0
 10
4.869766588148346
 20
7.535963555254447
 30
0.0
 10
4.869766588148346
 20
7.535963555254447
 30
0.0
 10
4.63356938988871
 20
7.606992184462986
 30
0.0
 10
4.63356938988871
 20
7.606992184462986
 30
0.0
  0
ENDBLK
  5
273
330
270
100
AcDbEntity
  8
0
100
AcDbBlockEnd
  0
BLOCK
  5
2A0
330
29E
100
AcDbEntity
  8
0
100
AcDbBlockBegin
  2
block 11
 70
     0
 10
0.0
 20
0.0
 30
0.0
  3
block 11
  1

  0
POLYLINE
  5
2A2
330
29E
100
AcDbEntity
  8
BA
 62
   250
420
  2301728
370
    13
100
AcDb2dPolyline
 66
     1
 10
0.0
 20
0.0
 30
0.0
  0
VERTEX
  5
2A3
330
2A2
100
AcDbEntity
  8
BA
 62
   250
420
  2301728
370
    13
100
AcDbVertex
100
AcDb2dVertex
 10
4.732432679065848
 20
7.538479833886539
 30
0.0
  0
VERTEX
  5
2A4
330
2A2
100
AcDbEntity
  8
BA
 62
   250
420
  2301728
370
    13
100
AcDbVertex
100
AcDb2dVertex
 10
4.684535181512526
 20
7.553394291670113
 30
0.0
  0
VERTEX
  5
2A5
330
2A2
100
AcDbEntity
  8
BA
 62
   250
420
  2301728
370
    13
100
AcDbVertex
100
AcDb2dVertex
 10
4.671556376878571
 20
7.557439631645529
 30
0.0
  0
SEQEND
  5
2A6
330
2A2
100
AcDbEntity
  8
BA
 62
   250
420
  2301728
370
    13
  0
POLYLINE
  5
2A7
330
29E
100
AcDbEntity
  8
BA
 62
   250
420
  2301728
370
    13
100
AcDb2dPolyline
 66
     1
 10
0.0
 20
0.0
 30
0.0
  0
VERTEX
  5
2A8
330
2A7
100
AcDbEntity
  8
BA
 62
   250
420
  2301728
370
    13
100
AcDbVertex
100
AcDb2dVertex
 10
4.80019975924794
 20
7.517386303203188
 30
0.0
  0
VERTEX
  5
2A9
330
2A7
100
AcDbEntity
  8
BA
 62
   250
420
  2301728
370
    13
100
AcDbVertex
100
AcDb2dVertex
 10
4.749388571588926
 20
7.533205460164632
 30
0.0
  0
SEQEND
  5
2AA
330
2A7
100
AcDbEntity
  8
BA
 62
   250
420
  2301728
370
    13
  0
SPLINE
  5
2AB
330
29E
100
AcDbEntity
  8
BA
 62
   250
420
  2301728
370
    13
100
AcDbSpline
210
0.0
220
0.0
230
1.0
 70
     8
 71
     3
 72
     8
 73
     4
 74
     0
 42
0.0000000001
 43
0.0000000001
 12
1.0
 22
0.0
 32
0.0
 13
1.0
 23
0.0
 33
0.0
 40
0.0
 40
0.0
 40
0.0
 40
0.0
 40
1.0
 40
1.0
 40
1.0
 40
1.0
 10
4.812791062918854
 20
7.504581923555166
 30
0.0
 10
4.812791062918854
 20
7.512837378854543
 30
0.0
 10
4.809490862901208
 20
7.514492434118652
 30
0.0
 10
4.809490862901208
 20
7.514492434118652
 30
0.0
  0
POLYLINE
  5
2AC
330
29E
100
AcDbEntity
  8
BA
 62
   250
420
  2301728
370
    13
100
AcDb2dPolyline
 66
     1
 10
0.0
 20
0.0
 30
0.0
  0
VERTEX
  5
2AD
330
2AC
100
AcDbEntity
  8
BA
 62
   250
420
  2301728
370
    13
100
AcDbVertex
100
AcDb2dVertex
 10
4.812791062918854
 20
7.476505447128791
 30
0.0
  0
VERTEX
  5
2AE
330
2AC
100
AcDbEntity
  8
BA
 62
   250
420
  2301728
370
    13
100
AcDbVertex
100
AcDb2dVertex
 10
4.812791062918854
 20
7.493021312982844
 30
0.0
  0
SEQEND
  5
2AF
330
2AC
100
AcDbEntity
  8
BA
 62
   250
420
  2301728
370
    13
  0
SPLINE
  5
2B0
330
29E
100
AcDbEntity
  8
BA
 62
   250
420
  2301728
370
    18
100
AcDbSpline
210
0.0
220
0.0
230
1.0
 70
     8
 71
     3
 72
    26
 73
    22
 74
     0
 42
0.0000000001
 43
0.0000000001
 12
1.0
 22
0.0
 32
0.0
 13
1.0
 23
0.0
 33
0.0
 40
0.0
 40
0.0
 40
0.0
 40
0.0
 40
1.0
 40
1.0
 40
1.0
 40
2.0
 40
2.0
 40
2.0
 40
3.0
 40
3.0
 40
3.0
 40
4.0
 40
4.0
 40
4.0
 40
5.0
 40
5.0
 40
5.0
 40
6.0
 40
6.0
 40
6.0
 40
7.0
 40
7.0
 40
7.0
 40
7.0
 10
4.671556376878571
 20
7.557439631645529
 30
0.0
 10
4.671556376878571
 20
7.557439631645529
 30
0.0
 10
4.667433604484156
 20
7.561572314550504
 30
0.0
 10
4.669911232125034
 20
7.567350142209015
 30
0.0
 10
4.669911232125034
 20
7.567350142209015
 30
0.0
 10
4.678166687424411
 20
7.580560852790149
 30
0.0
 10
4.721108929696028
 20
7.567350142209015
 30
0.0
 10
4.721108929696028
 20
7.567350142209015
 30
0.0
 10
4.82931188402818
 20
7.534313455245624
 30
0.0
 10
4.82931188402818
 20
7.534313455245624
 30
0.0
 10
4.844177649873422
 20
7.531008299972704
 30
0.0
 10
4.847477849891068
 20
7.511192234101006
 30
0.0
 10
4.847477849891068
 20
7.511192234101006
 30
0.0
 10
4.847477849891068
 20
7.511192234101006
 30
0.0
 10
4.847477849891068
 20
7.483110802419358
 30
0.0
 10
4.847477849891068
 20
7.483110802419358
 30
0.0
 10
4.847477849891068
 20
7.483110802419358
 30
0.0
 10
4.845057703211473
 20
7.462796237866314
 30
0.0
 10
4.833434656422595
 20
7.461634726028263
 30
0.0
 10
4.829301973517633
 20
7.461223439839891
 30
0.0
 10
4.825953211998214
 20
7.461944925008929
 30
0.0
 10
4.823243678410159
 20
7.463261040811744
 30
0.0
  0
ENDBLK
  5
2A1
330
29E
100
AcDbEntity
  8
0
100
AcDbBlockEnd
  0
BLOCK
  5
2B3
330
2B1
100
AcDbEntity
  8
0
100
AcDbBlockBegin
  2
block 12
 70
     0
 10
0.0
 20
0.0
 30
0.0
  3
block 12
  1

  0
POLYLINE
  5
2B5
330
2B1
100
AcDbEntity
  8
BA
 62
   250
420
  2301728
370
    13
100
AcDb2dPolyline
 66
     1
 10
0.0
 20
0.0
 30
0.0
  0
VERTEX
  5
2B6
330
2B5
100
AcDbEntity
  8
BA
 62
   250
420
  2301728
370
    13
100
AcDbVertex
100
AcDb2dVertex
 10
3.991699316427407
 20
7.434840669668827
 30
0.0
  0
VERTEX
  5
2B7
330
2B5
100
AcDbEntity
  8
BA
 62
   250
420
  2301728
370
    13
100
AcDbVertex
100
AcDb2dVertex
 10
3.924967884599204
 20
7.459162053642684
 30
0.0
  0
SEQEND
  5
2B8
330
2B5
100
AcDbEntity
  8
BA
 62
   250
420
  2301728
370
    13
  0
POLYLINE
  5
2B9
330
2B1
100
AcDbEntity
  8
BA
 62
   250
420
  2301728
370
    13
100
AcDb2dPolyline
 66
     1
 10
0.0
 20
0.0
 30
0.0
  0
VERTEX
  5
2BA
330
2B9
100
AcDbEntity
  8
BA
 62
   250
420
  2301728
370
    13
100
AcDbVertex
100
AcDb2dVertex
 10
4.092822202013041
 20
7.398169798481831
 30
0.0
  0
VERTEX
  5
2BB
330
2B9
100
AcDbEntity
  8
BA
 62
   250
420
  2301728
370
    13
100
AcDbVertex
100
AcDb2dVertex
 10
4.00353543919338
 20
7.430538517033217
 30
0.0
  0
SEQEND
  5
2BC
330
2B9
100
AcDbEntity
  8
BA
 62
   250
420
  2301728
370
    13
  0
POLYLINE
  5
2BD
330
2B1
100
AcDbEntity
  8
BA
 62
   250
420
  2301728
370
    13
100
AcDb2dPolyline
 66
     1
 10
0.0
 20
0.0
 30
0.0
  0
VERTEX
  5
2BE
330
2BD
100
AcDbEntity
  8
BA
 62
   250
420
  2301728
370
    13
100
AcDbVertex
100
AcDb2dVertex
 10
4.16223938220393
 20
7.37203875527905
 30
0.0
  0
VERTEX
  5
2BF
330
2BD
100
AcDbEntity
  8
BA
 62
   250
420
  2301728
370
    13
100
AcDbVertex
100
AcDb2dVertex
 10
4.110190371775539
 20
7.39163183466308
 30
0.0
  0
SEQEND
  5
2C0
330
2BD
100
AcDbEntity
  8
BA
 62
   250
420
  2301728
370
    13
  0
SPLINE
  5
2C1
330
2B1
100
AcDbEntity
  8
BA
 62
   250
420
  2301728
370
    13
100
AcDbSpline
210
0.0
220
0.0
230
1.0
 70
     8
 71
     3
 72
     8
 73
     4
 74
     0
 42
0.0000000001
 43
0.0000000001
 12
1.0
 22
0.0
 32
0.0
 13
1.0
 23
0.0
 33
0.0
 40
0.0
 40
0.0
 40
0.0
 40
0.0
 40
1.0
 40
1.0
 40
1.0
 40
1.0
 10
4.174927808878364
 20
7.357923215083474
 30
0.0
 10
4.174927808878364
 20
7.366546350324761
 30
0.0
 10
4.171476969100164
 20
7.368278707571259
 30
0.0
 10
4.171476969100164
 20
7.368278707571259
 30
0.0
  0
POLYLINE
  5
2C2
330
2B1
100
AcDbEntity
  8
BA
 62
   250
420
  2301728
370
    13
100
AcDb2dPolyline
 66
     1
 10
0.0
 20
0.0
 30
0.0
  0
VERTEX
  5
2C3
330
2C2
100
AcDbEntity
  8
BA
 62
   250
420
  2301728
370
    13
100
AcDbVertex
100
AcDb2dVertex
 10
4.17743417699987
 20
7.286473389175992
 30
0.0
  0
VERTEX
  5
2C4
330
2C2
100
AcDbEntity
  8
BA
 62
   250
420
  2301728
370
    13
100
AcDbVertex
100
AcDb2dVertex
 10
4.17743417699987
 20
7.345844284808688
 30
0.0
  0
SEQEND
  5
2C5
330
2C2
100
AcDbEntity
  8
BA
 62
   250
420
  2301728
370
    13
  0
SPLINE
  5
2C6
330
2B1
100
AcDbEntity
  8
BA
 62
   250
420
  2301728
370
    18
100
AcDbSpline
210
0.0
220
0.0
230
1.0
 70
     8
 71
     3
 72
    20
 73
    16
 74
     0
 42
0.0000000001
 43
0.0000000001
 12
1.0
 22
0.0
 32
0.0
 13
1.0
 23
0.0
 33
0.0
 40
0.0
 40
0.0
 40
0.0
 40
0.0
 40
1.0
 40
1.0
 40
1.0
 40
2.0
 40
2.0
 40
2.0
 40
3.0
 40
3.0
 40
3.0
 40
4.0
 40
4.0
 40
4.0
 40
5.0
 40
5.0
 40
5.0
 40
5.0
 10
3.977820637434282
 20
7.467417508942074
 30
0.0
 10
3.977820637434282
 20
7.467417508942074
 30
0.0
 10
4.19363587966907
 20
7.387935214222883
 30
0.0
 10
4.19363587966907
 20
7.387935214222883
 30
0.0
 10
4.208946627438611
 20
7.383574589574954
 30
0.0
 10
4.211182438621714
 20
7.362694134868737
 30
0.0
 10
4.211182438621714
 20
7.362694134868737
 30
0.0
 10
4.211182438621714
 20
7.362694134868737
 30
0.0
 10
4.211182438621714
 20
7.289493121744688
 30
0.0
 10
4.211182438621714
 20
7.289493121744688
 30
0.0
 10
4.211182438621714
 20
7.289493121744688
 30
0.0
 10
4.212595677428074
 20
7.272255770721623
 30
0.0
 10
4.196504972477214
 20
7.267048788471558
 30
0.0
 10
4.192372289572227
 20
7.265713842698649
 30
0.0
 10
4.188680624387315
 20
7.267372862166982
 30
0.0
 10
4.185849191519335
 20
7.268752405237402
 30
0.0
  0
POLYLINE
  5
2C7
330
2B1
100
AcDbEntity
  8
BA
 62
   250
420
  2301728
370
    18
100
AcDb2dPolyline
 66
     1
 10
0.0
 20
0.0
 30
0.0
  0
VERTEX
  5
2C8
330
2C7
100
AcDbEntity
  8
BA
 62
   250
420
  2301728
370
    18
100
AcDbVertex
100
AcDb2dVertex
 10
4.03046526954755
 20
7.421648789057762
 30
0.0
  0
VERTEX
  5
399
330
2C7
100
AcDbEntity
  8
0
100
AcDbVertex
100
AcDb2dVertex
 10
4.03046526954755
 20
7.421648789057762
 30
0.0
  0
SEQEND
  5
2C9
330
2C7
100
AcDbEntity
  8
BA
 62
   250
420
  2301728
370
    18
  0
ENDBLK
  5
2B4
330
2B1
100
AcDbEntity
  8
0
100
AcDbBlockEnd
  0
BLOCK
  5
2CC
330
2CA
100
AcDbEntity
  8
0
100
AcDbBlockBegin
  2
block 13
 70
     0
 10
0.0
 20
0.0
 30
0.0
  3
block 13
  1

  0
POLYLINE
  5
2CE
330
2CA
100
AcDbEntity
  8
BA
 62
   250
420
  2301728
370
    13
100
AcDb2dPolyline
 66
     1
 10
0.0
 20
0.0
 30
0.0
  0
VERTEX
  5
2CF
330
2CE
100
AcDbEntity
  8
BA
 62
   250
420
  2301728
370
    13
100
AcDbVertex
100
AcDb2dVertex
 10
3.923322739845667
 20
7.42117011139755
 30
0.0
  0
VERTEX
  5
2D0
330
2CE
100
AcDbEntity
  8
BA
 62
   250
420
  2301728
370
    13
100
AcDbVertex
100
AcDb2dVertex
 10
3.857249365918884
 20
7.444291332542169
 30
0.0
  0
SEQEND
  5
2D1
330
2CE
100
AcDbEntity
  8
BA
 62
   250
420
  2301728
370
    13
  0
POLYLINE
  5
2D2
330
2CA
100
AcDbEntity
  8
BA
 62
   250
420
  2301728
370
    13
100
AcDb2dPolyline
 66
     1
 10
0.0
 20
0.0
 30
0.0
  0
VERTEX
  5
2D3
330
2D2
100
AcDbEntity
  8
BA
 62
   250
420
  2301728
370
    13
100
AcDbVertex
100
AcDb2dVertex
 10
4.035865506753604
 20
7.380081134601331
 30
0.0
  0
VERTEX
  5
2D4
330
2D2
100
AcDbEntity
  8
BA
 62
   250
420
  2301728
370
    13
100
AcDbVertex
100
AcDb2dVertex
 10
3.937293586587
 20
7.416030520619326
 30
0.0
  0
SEQEND
  5
2D5
330
2D2
100
AcDbEntity
  8
BA
 62
   250
420
  2301728
370
    13
  0
POLYLINE
  5
2D6
330
2CA
100
AcDbEntity
  8
BA
 62
   250
420
  2301728
370
    13
100
AcDb2dPolyline
 66
     1
 10
0.0
 20
0.0
 30
0.0
  0
VERTEX
  5
2D7
330
2D6
100
AcDbEntity
  8
BA
 62
   250
420
  2301728
370
    13
100
AcDbVertex
100
AcDb2dVertex
 10
4.103627631680411
 20
7.35477266377533
 30
0.0
  0
VERTEX
  5
2D8
330
2D6
100
AcDbEntity
  8
BA
 62
   250
420
  2301728
370
    13
100
AcDbVertex
100
AcDb2dVertex
 10
4.051578621251994
 20
7.37437082432872
 30
0.0
  0
SEQEND
  5
2D9
330
2D6
100
AcDbEntity
  8
BA
 62
   250
420
  2301728
370
    13
  0
SPLINE
  5
2DA
330
2CA
100
AcDbEntity
  8
BA
 62
   250
420
  2301728
370
    13
100
AcDbSpline
210
0.0
220
0.0
230
1.0
 70
     8
 71
     3
 72
     8
 73
     4
 74
     0
 42
0.0000000001
 43
0.0000000001
 12
1.0
 22
0.0
 32
0.0
 13
1.0
 23
0.0
 33
0.0
 40
0.0
 40
0.0
 40
0.0
 40
0.0
 40
1.0
 40
1.0
 40
1.0
 40
1.0
 10
4.118092021847815
 20
7.340826593310402
 30
0.0
 10
4.118092021847815
 20
7.34944972855169
 30
0.0
 10
4.112871164882967
 20
7.351017571322839
 30
0.0
 10
4.112871164882967
 20
7.351017571322839
 30
0.0
  0
POLYLINE
  5
2DB
330
2CA
100
AcDbEntity
  8
BA
 62
   250
420
  2301728
370
    13
100
AcDb2dPolyline
 66
     1
 10
0.0
 20
0.0
 30
0.0
  0
VERTEX
  5
2DC
330
2DB
100
AcDbEntity
  8
BA
 62
   250
420
  2301728
370
    13
100
AcDbVertex
100
AcDb2dVertex
 10
4.119664819874237
 20
7.274763129894191
 30
0.0
  0
VERTEX
  5
2DD
330
2DB
100
AcDbEntity
  8
BA
 62
   250
420
  2301728
370
    13
100
AcDbVertex
100
AcDb2dVertex
 10
4.119664819874237
 20
7.327745710417641
 30
0.0
  0
SEQEND
  5
2DE
330
2DB
100
AcDbEntity
  8
BA
 62
   250
420
  2301728
370
    13
  0
POLYLINE
  5
2DF
330
2CA
100
AcDbEntity
  8
BA
 62
   250
420
  2301728
370
    13
100
AcDb2dPolyline
 66
     1
 10
0.0
 20
0.0
 30
0.0
  0
VERTEX
  5
2E0
330
2DF
100
AcDbEntity
  8
BA
 62
   250
420
  2301728
370
    13
100
AcDbVertex
100
AcDb2dVertex
 10
4.119664819874237
 20
7.206197262560673
 30
0.0
  0
VERTEX
  5
2E1
330
2DF
100
AcDbEntity
  8
BA
 62
   250
420
  2301728
370
    13
100
AcDbVertex
100
AcDb2dVertex
 10
4.119664819874237
 20
7.261382949582412
 30
0.0
  0
SEQEND
  5
2E2
330
2DF
100
AcDbEntity
  8
BA
 62
   250
420
  2301728
370
    13
  0
POLYLINE
  5
2E3
330
2CA
100
AcDbEntity
  8
BA
 62
   250
420
  2301728
370
    13
100
AcDb2dPolyline
 66
     1
 10
0.0
 20
0.0
 30
0.0
  0
VERTEX
  5
2E4
330
2E3
100
AcDbEntity
  8
BA
 62
   250
420
  2301728
370
    13
100
AcDbVertex
100
AcDb2dVertex
 10
4.119664819874237
 20
7.129259986954189
 30
0.0
  0
VERTEX
  5
2E5
330
2E3
100
AcDbEntity
  8
BA
 62
   250
420
  2301728
370
    13
100
AcDbVertex
100
AcDb2dVertex
 10
4.119664819874237
 20
7.190300803616828
 30
0.0
  0
SEQEND
  5
2E6
330
2E3
100
AcDbEntity
  8
BA
 62
   250
420
  2301728
370
    13
  0
SPLINE
  5
2E7
330
2CA
100
AcDbEntity
  8
BA
 62
   250
420
  2301728
370
    18
100
AcDbSpline
210
0.0
220
0.0
230
1.0
 70
     8
 71
     3
 72
    20
 73
    16
 74
     0
 42
0.0000000001
 43
0.0000000001
 12
1.0
 22
0.0
 32
0.0
 13
1.0
 23
0.0
 33
0.0
 40
0.0
 40
0.0
 40
0.0
 40
0.0
 40
1.0
 40
1.0
 40
1.0
 40
2.0
 40
2.0
 40
2.0
 40
3.0
 40
3.0
 40
3.0
 40
4.0
 40
4.0
 40
4.0
 40
5.0
 40
5.0
 40
5.0
 40
5.0
 10
3.902669235831354
 20
7.45502937073771
 30
0.0
 10
3.902669235831354
 20
7.45502937073771
 30
0.0
 10
4.135029084400811
 20
7.370679033229749
 30
0.0
 10
4.135029084400811
 20
7.370679033229749
 30
0.0
 10
4.150325957455556
 20
7.366309489122298
 30
0.0
 10
4.152560777587622
 20
7.34543795387559
 30
0.0
 10
4.152560777587622
 20
7.34543795387559
 30
0.0
 10
4.152560777587622
 20
7.34543795387559
 30
0.0
 10
4.152560777587622
 20
7.137602654746527
 30
0.0
 10
4.152560777587622
 20
7.137602654746527
 30
0.0
 10
4.152560777587622
 20
7.137602654746527
 30
0.0
 10
4.154893786205725
 20
7.122567419170663
 30
0.0
 10
4.137889257749444
 20
7.115159312524459
 30
0.0
 10
4.133916134064545
 20
7.113427074600054
 30
0.0
 10
4.13007382911908
 20
7.115483386219883
 30
0.0
 10
4.127243461035075
 20
7.116853018779756
 30
0.0
  0
ENDBLK
  5
2CD
330
2CA
100
AcDbEntity
  8
0
100
AcDbBlockEnd
  0
BLOCK
  5
2EA
330
2E8
100
AcDbEntity
  8
0
100
AcDbBlockBegin
  2
block 14
 70
     0
 10
0.0
 20
0.0
 30
0.0
  3
block 14
  1

  0
POLYLINE
  5
2EC
330
2E8
100
AcDbEntity
  8
BA
 62
   250
420
  2301728
370
    13
100
AcDb2dPolyline
 66
     1
 10
0.0
 20
0.0
 30
0.0
  0
VERTEX
  5
2ED
330
2EC
100
AcDbEntity
  8
BA
 62
   250
420
  2301728
370
    13
100
AcDbVertex
100
AcDb2dVertex
 10
3.959703233073166
 20
7.368626566492038
 30
0.0
  0
VERTEX
  5
2EE
330
2EC
100
AcDbEntity
  8
BA
 62
   250
420
  2301728
370
    13
100
AcDbVertex
100
AcDb2dVertex
 10
3.910639336687584
 20
7.387097776080268
 30
0.0
  0
VERTEX
  5
2EF
330
2EC
100
AcDbEntity
  8
BA
 62
   250
420
  2301728
370
    13
100
AcDbVertex
100
AcDb2dVertex
 10
3.8973463006077
 20
7.392106548119058
 30
0.0
  0
SEQEND
  5
2F0
330
2EC
100
AcDbEntity
  8
BA
 62
   250
420
  2301728
370
    13
  0
POLYLINE
  5
2F1
330
2E8
100
AcDbEntity
  8
BA
 62
   250
420
  2301728
370
    13
100
AcDb2dPolyline
 66
     1
 10
0.0
 20
0.0
 30
0.0
  0
VERTEX
  5
2F2
330
2F1
100
AcDbEntity
  8
BA
 62
   250
420
  2301728
370
    13
100
AcDbVertex
100
AcDb2dVertex
 10
4.029120413264081
 20
7.342485612778723
 30
0.0
  0
VERTEX
  5
2F3
330
2F1
100
AcDbEntity
  8
BA
 62
   250
420
  2301728
370
    13
100
AcDbVertex
100
AcDb2dVertex
 10
3.977070411784653
 20
7.362089593724363
 30
0.0
  0
SEQEND
  5
2F4
330
2F1
100
AcDbEntity
  8
BA
 62
   250
420
  2301728
370
    13
  0
SPLINE
  5
2F5
330
2E8
100
AcDbEntity
  8
BA
 62
   250
420
  2301728
370
    13
100
AcDbSpline
210
0.0
220
0.0
230
1.0
 70
     8
 71
     3
 72
     8
 73
     4
 74
     0
 42
0.0000000001
 43
0.0000000001
 12
1.0
 22
0.0
 32
0.0
 13
1.0
 23
0.0
 33
0.0
 40
0.0
 40
0.0
 40
0.0
 40
0.0
 40
1.0
 40
1.0
 40
1.0
 40
1.0
 10
4.041808839938514
 20
7.328384938348992
 30
0.0
 10
4.041808839938514
 20
7.337008198560511
 30
0.0
 10
4.038358000160315
 20
7.338735475581504
 30
0.0
 10
4.038358000160315
 20
7.338735475581504
 30
0.0
  0
POLYLINE
  5
2F6
330
2E8
100
AcDbEntity
  8
BA
 62
   250
420
  2301728
370
    13
100
AcDb2dPolyline
 66
     1
 10
0.0
 20
0.0
 30
0.0
  0
VERTEX
  5
2F7
330
2F6
100
AcDbEntity
  8
BA
 62
   250
420
  2301728
370
    13
100
AcDbVertex
100
AcDb2dVertex
 10
4.041808839938514
 20
7.299044871825786
 30
0.0
  0
VERTEX
  5
2F8
330
2F6
100
AcDbEntity
  8
BA
 62
   250
420
  2301728
370
    13
100
AcDbVertex
100
AcDb2dVertex
 10
4.041808839938514
 20
7.316302043869983
 30
0.0
  0
SEQEND
  5
2F9
330
2F6
100
AcDbEntity
  8
BA
 62
   250
420
  2301728
370
    13
  0
SPLINE
  5
2FA
330
2E8
100
AcDbEntity
  8
BA
 62
   250
420
  2301728
370
    18
100
AcDbSpline
210
0.0
220
0.0
230
1.0
 70
     8
 71
     3
 72
    26
 73
    22
 74
     0
 42
0.0000000001
 43
0.0000000001
 12
1.0
 22
0.0
 32
0.0
 13
1.0
 23
0.0
 33
0.0
 40
0.0
 40
0.0
 40
0.0
 40
0.0
 40
1.0
 40
1.0
 40
1.0
 40
2.0
 40
2.0
 40
2.0
 40
3.0
 40
3.0
 40
3.0
 40
4.0
 40
4.0
 40
4.0
 40
5.0
 40
5.0
 40
5.0
 40
6.0
 40
6.0
 40
6.0
 40
7.0
 40
7.0
 40
7.0
 40
7.0
 10
3.8973463006077
 20
7.392106548119058
 30
0.0
 10
3.8973463006077
 20
7.392106548119058
 30
0.0
 10
3.891931197635813
 20
7.395566307356766
 30
0.0
 10
3.896233350271409
 20
7.402544297844529
 30
0.0
 10
3.896233350271409
 20
7.402544297844529
 30
0.0
 10
3.905650317408849
 20
7.415822399897491
 30
0.0
 10
3.949642082749127
 20
7.399428433323363
 30
0.0
 10
3.949642082749127
 20
7.399428433323363
 30
0.0
 10
4.060515991725424
 20
7.358383062773618
 30
0.0
 10
4.060515991725424
 20
7.358383062773618
 30
0.0
 10
4.075817820422015
 20
7.354027393380963
 30
0.0
 10
4.078058514426579
 20
7.333155858134255
 30
0.0
 10
4.078058514426579
 20
7.333155858134255
 30
0.0
 10
4.078058514426579
 20
7.333155858134255
 30
0.0
 10
4.078058514426579
 20
7.305940605075862
 30
0.0
 10
4.078058514426579
 20
7.305940605075862
 30
0.0
 10
4.078058514426579
 20
7.305940605075862
 30
0.0
 10
4.076282550933633
 20
7.288147274410171
 30
0.0
 10
4.063376093026767
 20
7.283507173364342
 30
0.0
 10
4.059296998895332
 20
7.282040417800949
 30
0.0
 10
4.055560736318486
 20
7.28382629180448
 30
0.0
 10
4.052730222579511
 20
7.285196048025719
 30
0.0
  0
ENDBLK
  5
2EB
330
2E8
100
AcDbEntity
  8
0
100
AcDbBlockEnd
  0
BLOCK
  5
2FD
330
2FB
100
AcDbEntity
  8
0
100
AcDbBlockBegin
  2
block 15
 70
     0
 10
0.0
 20
0.0
 30
0.0
  3
block 15
  1

  0
SPLINE
  5
2FF
330
2FB
100
AcDbEntity
  8
BA
 62
   250
420
  2301728
370
    13
100
AcDbSpline
210
0.0
220
0.0
230
1.0
 70
    11
 71
     3
 72
    17
 73
    13
 74
     0
 42
0.0000000001
 43
0.0000000001
 12
1.0
 22
0.0
 32
0.0
 13
1.0
 23
0.0
 33
0.0
 40
0.0
 40
0.0
 40
0.0
 40
0.0
 40
1.0
 40
1.0
 40
1.0
 40
2.0
 40
2.0
 40
2.0
 40
3.0
 40
3.0
 40
3.0
 40
4.0
 40
4.0
 40
4.0
 40
4.0
 10
4.09565363488102
 20
7.252052203886882
 30
0.0
 10
4.094022364842254
 20
7.241861225874445
 30
0.0
 10
4.086357575972468
 20
7.234617633703591
 30
0.0
 10
4.078537192086817
 20
7.235870322238813
 30
0.0
 10
4.070712843996944
 20
7.237119046569811
 30
0.0
 10
4.065699188881076
 20
7.246395284457245
 30
0.0
 10
4.067329395690548
 20
7.256592208776017
 30
0.0
 10
4.068960665729315
 20
7.266783186788453
 30
0.0
 10
4.076625454599101
 20
7.274031734214595
 30
0.0
 10
4.084445838484776
 20
7.27277904567936
 30
0.0
 10
4.09227018657465
 20
7.271530321348362
 30
0.0
 10
4.097283986844811
 20
7.262249128205654
 30
0.0
 10
4.09565363488102
 20
7.252052203886882
 30
0.0
  0
SPLINE
  5
300
330
2FB
100
AcDbEntity
  8
BA
 62
   250
420
  2301728
370
    18
100
AcDbSpline
210
0.0
220
0.0
230
1.0
 70
    11
 71
     3
 72
    23
 73
    19
 74
     0
 42
0.0000000001
 43
0.0000000001
 12
1.0
 22
0.0
 32
0.0
 13
1.0
 23
0.0
 33
0.0
 40
0.0
 40
0.0
 40
0.0
 40
0.0
 40
1.0
 40
1.0
 40
1.0
 40
2.0
 40
2.0
 40
2.0
 40
3.0
 40
3.0
 40
3.0
 40
4.0
 40
4.0
 40
4.0
 40
5.0
 40
5.0
 40
5.0
 40
6.0
 40
6.0
 40
6.0
 40
6.0
 10
4.084445838484776
 20
7.27277904567936
 30
0.0
 10
4.083865155202854
 20
7.272870222376544
 30
0.0
 10
4.080090169092121
 20
7.274216069711074
 30
0.0
 10
4.078595664099137
 20
7.274453054303485
 30
0.0
 10
4.070775280213486
 20
7.275706610499823
 30
0.0
 10
4.063110491343701
 20
7.268457195261097
 30
0.0
 10
4.061479221304934
 20
7.258266094010183
 30
0.0
 10
4.059848942317229
 20
7.248070160742473
 30
0.0
 10
4.064861678560242
 20
7.238793922855026
 30
0.0
 10
4.072687017701178
 20
7.237545198524041
 30
0.0
 10
4.073267773620197
 20
7.237453030775807
 30
0.0
 10
4.077041696042771
 20
7.236108174492339
 30
0.0
 10
4.078537192086817
 20
7.235870322238813
 30
0.0
 10
4.086357575972468
 20
7.234617633703591
 30
0.0
 10
4.094022364842254
 20
7.241861225874445
 30
0.0
 10
4.09565363488102
 20
7.252052203886882
 30
0.0
 10
4.097283986844811
 20
7.262249128205654
 30
0.0
 10
4.09227018657465
 20
7.271530321348362
 30
0.0
 10
4.084445838484776
 20
7.27277904567936
 30
0.0
  0
ENDBLK
  5
2FE
330
2FB
100
AcDbEntity
  8
0
100
AcDbBlockEnd
  0
BLOCK
  5
304
330
302
100
AcDbEntity
  8
0
100
AcDbBlockBegin
  2
block 16
 70
     0
 10
0.0
 20
0.0
 30
0.0
  3
block 16
  1

  0
SPLINE
  5
306
330
302
100
AcDbEntity
  8
BA
 62
   250
420
  2301728
370
    13
100
AcDbSpline
210
0.0
220
0.0
230
1.0
 70
    11
 71
     3
 72
    17
 73
    13
 74
     0
 42
0.0000000001
 43
0.0000000001
 12
1.0
 22
0.0
 32
0.0
 13
1.0
 23
0.0
 33
0.0
 40
0.0
 40
0.0
 40
0.0
 40
0.0
 40
1.0
 40
1.0
 40
1.0
 40
2.0
 40
2.0
 40
2.0
 40
3.0
 40
3.0
 40
3.0
 40
4.0
 40
4.0
 40
4.0
 40
4.0
 10
4.361310816841675
 20
5.870407114158612
 30
0.0
 10
4.35157473126411
 20
5.866981050656831
 30
0.0
 10
4.341373842741127
 20
5.870717313139253
 30
0.0
 10
4.338528535158326
 20
5.878788432942163
 30
0.0
 10
4.335673317065003
 20
5.886850633285563
 30
0.0
 10
4.341247979256979
 20
5.896161557959961
 30
0.0
 10
4.350975145375034
 20
5.899616361942384
 30
0.0
 10
4.360721141463172
 20
5.903052335954751
 30
0.0
 10
4.370921038935093
 20
5.899307154012805
 30
0.0
 10
4.373767417529608
 20
5.891244953669406
 30
0.0
 10
4.37662164464397
 20
5.883172842815447
 30
0.0
 10
4.371046902419266
 20
5.87384308817098
 30
0.0
 10
4.361310816841675
 20
5.870407114158612
 30
0.0
  0
SPLINE
  5
307
330
302
100
AcDbEntity
  8
BA
 62
   250
420
  2301728
370
    18
100
AcDbSpline
210
0.0
220
0.0
230
1.0
 70
    11
 71
     3
 72
    23
 73
    19
 74
     0
 42
0.0000000001
 43
0.0000000001
 12
1.0
 22
0.0
 32
0.0
 13
1.0
 23
0.0
 33
0.0
 40
0.0
 40
0.0
 40
0.0
 40
0.0
 40
1.0
 40
1.0
 40
1.0
 40
2.0
 40
2.0
 40
2.0
 40
3.0
 40
3.0
 40
3.0
 40
4.0
 40
4.0
 40
4.0
 40
5.0
 40
5.0
 40
5.0
 40
6.0
 40
6.0
 40
6.0
 40
6.0
 10
4.376099280704541
 20
5.886105362891183
 30
0.0
 10
4.375644388269671
 20
5.887402648723941
 30
0.0
 10
4.373960592524933
 20
5.890702848741587
 30
0.0
 10
4.373767417529608
 20
5.891244953669406
 30
0.0
 10
4.370921038935093
 20
5.899307154012805
 30
0.0
 10
4.360721141463172
 20
5.903052335954751
 30
0.0
 10
4.350975145375034
 20
5.899616361942384
 30
0.0
 10
4.341247979256979
 20
5.896161557959961
 30
0.0
 10
4.335673317065003
 20
5.886850633285563
 30
0.0
 10
4.338528535158326
 20
5.878788432942163
 30
0.0
 10
4.338983427593222
 20
5.877492138160455
 30
0.0
 10
4.340667223337934
 20
5.874191938142808
 30
0.0
 10
4.340860478293936
 20
5.87364983321499
 30
0.0
 10
4.343706776927775
 20
5.865577722361031
 30
0.0
 10
4.353907665450757
 20
5.861842450929644
 30
0.0
 10
4.363643751028323
 20
5.865268514431452
 30
0.0
 10
4.373379836605914
 20
5.868704488443806
 30
0.0
 10
4.378954498797864
 20
5.878034243088273
 30
0.0
 10
4.376099280704541
 20
5.886105362891183
 30
0.0
  0
ENDBLK
  5
305
330
302
100
AcDbEntity
  8
0
100
AcDbBlockEnd
  0
BLOCK
  5
30E
330
30C
100
AcDbEntity
  8
0
100
AcDbBlockBegin
  2
block 17
 70
     0
 10
0.0
 20
0.0
 30
0.0
  3
block 17
  1

  0
SPLINE
  5
310
330
30C
100
AcDbEntity
  8
BA
 62
   250
420
  2301728
370
    13
100
AcDbSpline
210
0.0
220
0.0
230
1.0
 70
    11
 71
     3
 72
    17
 73
    13
 74
     0
 42
0.0000000001
 43
0.0000000001
 12
1.0
 22
0.0
 32
0.0
 13
1.0
 23
0.0
 33
0.0
 40
0.0
 40
0.0
 40
0.0
 40
0.0
 40
1.0
 40
1.0
 40
1.0
 40
2.0
 40
2.0
 40
2.0
 40
3.0
 40
3.0
 40
3.0
 40
4.0
 40
4.0
 40
4.0
 40
4.0
 10
4.836251315168738
 20
7.431225315415266
 30
0.0
 10
4.834692300213115
 20
7.421542746594733
 30
0.0
 10
4.827405101795774
 20
7.414661879110503
 30
0.0
 10
4.819982129383712
 20
7.415852131429182
 30
0.0
 10
4.812539335950532
 20
7.417037428492575
 30
0.0
 10
4.807777335624778
 20
7.425849854485628
 30
0.0
 10
4.809336258936431
 20
7.435537378561435
 30
0.0
 10
4.810894191196994
 20
7.445215983177743
 30
0.0
 10
4.818172470154827
 20
7.452106761172533
 30
0.0
 10
4.825605353077435
 20
7.450916508853866
 30
0.0
 10
4.833028325489496
 20
7.449725265484138
 30
0.0
 10
4.837789334764213
 20
7.440908875286848
 30
0.0
 10
4.836251315168738
 20
7.431225315415266
 30
0.0
  0
SPLINE
  5
311
330
30C
100
AcDbEntity
  8
BA
 62
   250
420
  2301728
370
    18
100
AcDbSpline
210
0.0
220
0.0
230
1.0
 70
    11
 71
     3
 72
    23
 73
    19
 74
     0
 42
0.0000000001
 43
0.0000000001
 12
1.0
 22
0.0
 32
0.0
 13
1.0
 23
0.0
 33
0.0
 40
0.0
 40
0.0
 40
0.0
 40
0.0
 40
1.0
 40
1.0
 40
1.0
 40
2.0
 40
2.0
 40
2.0
 40
3.0
 40
3.0
 40
3.0
 40
4.0
 40
4.0
 40
4.0
 40
5.0
 40
5.0
 40
5.0
 40
6.0
 40
6.0
 40
6.0
 40
6.0
 10
4.825605353077435
 20
7.450916508853866
 30
0.0
 10
4.825043427128498
 20
7.451003721346827
 30
0.0
 10
4.821462759661901
 20
7.452281186158453
 30
0.0
 10
4.820030690885485
 20
7.452503181595084
 30
0.0
 10
4.812606727422361
 20
7.453693433913751
 30
0.0
 10
4.805319529005045
 20
7.446807611174247
 30
0.0
 10
4.803770516203965
 20
7.437125042353714
 30
0.0
 10
4.802222494453948
 20
7.427441609736901
 30
0.0
 10
4.806983503728639
 20
7.418630047540129
 30
0.0
 10
4.814416386651272
 20
7.417443759425673
 30
0.0
 10
4.81497831260021
 20
7.417356546932713
 30
0.0
 10
4.818558980066806
 20
7.416074253833408
 30
0.0
 10
4.819982129383712
 20
7.415852131429182
 30
0.0
 10
4.827405101795774
 20
7.414661879110503
 30
0.0
 10
4.834692300213115
 20
7.421542746594733
 30
0.0
 10
4.836251315168738
 20
7.431225315415266
 30
0.0
 10
4.837789334764213
 20
7.440908875286848
 30
0.0
 10
4.833028325489496
 20
7.449725265484138
 30
0.0
 10
4.825605353077435
 20
7.450916508853866
 30
0.0
  0
ENDBLK
  5
30F
330
30C
100
AcDbEntity
  8
0
100
AcDbBlockEnd
  0
BLOCK
  5
34B
330
349
100
AcDbEntity
  8
0
100
AcDbBlockBegin
  2
block 18
 70
     0
 10
0.0
 20
0.0
 30
0.0
  3
block 18
  1

  0
SPLINE
  5
34D
330
349
100
AcDbEntity
  8
BA
370
     0
100
AcDbSpline
210
0.0
220
0.0
230
1.0
 70
    11
 71
     3
 72
    17
 73
    13
 74
     0
 42
0.0000000001
 43
0.0000000001
 12
1.0
 22
0.0
 32
0.0
 13
1.0
 23
0.0
 33
0.0
 40
0.0
 40
0.0
 40
0.0
 40
0.0
 40
1.0
 40
1.0
 40
1.0
 40
2.0
 40
2.0
 40
2.0
 40
3.0
 40
3.0
 40
3.0
 40
4.0
 40
4.0
 40
4.0
 40
4.0
 10
3.837500691519027
 20
7.424915293339495
 30
0.0
 10
3.837500691519027
 20
7.420938205450347
 30
0.0
 10
3.828412753332284
 20
7.417715307415114
 30
0.0
 10
3.817200992731816
 20
7.417715307415114
 30
0.0
 10
3.805988241080286
 20
7.417715307415114
 30
0.0
 10
3.796900302893568
 20
7.420938205450347
 30
0.0
 10
3.796900302893568
 20
7.424915293339495
 30
0.0
 10
3.796900302893568
 20
7.428888544315706
 30
0.0
 10
3.805988241080286
 20
7.43211131505964
 30
0.0
 10
3.817200992731816
 20
7.43211131505964
 30
0.0
 10
3.828412753332284
 20
7.43211131505964
 30
0.0
 10
3.837500691519027
 20
7.428888544315706
 30
0.0
 10
3.837500691519027
 20
7.424915293339495
 30
0.0
  0
HATCH
  5
34E
330
349
100
AcDbEntity
  8
BA
 62
   254
420
 13358815
100
AcDbHatch
 10
0.0
 20
0.0
 30
0.0
210
0.0
220
0.0
230
1.0
  2
SOLID
 70
     1
 71
     0
 91
        1
 92
        1
 93
        1
 72
     4
 94
        3
 73
     0
 74
     1
 95
       17
 96
       13
 40
0.0
 40
0.0
 40
0.0
 40
0.0
 40
1.0
 40
1.0
 40
1.0
 40
2.0
 40
2.0
 40
2.0
 40
3.0
 40
3.0
 40
3.0
 40
4.0
 40
4.0
 40
4.0
 40
4.0
 10
3.837500691519027
 20
7.424915293339495
 10
3.837500691519027
 20
7.420938205450347
 10
3.828412753332284
 20
7.417715307415114
 10
3.817200992731816
 20
7.417715307415114
 10
3.805988241080286
 20
7.417715307415114
 10
3.796900302893568
 20
7.420938205450347
 10
3.796900302893568
 20
7.424915293339495
 10
3.796900302893568
 20
7.428888544315706
 10
3.805988241080286
 20
7.43211131505964
 10
3.817200992731816
 20
7.43211131505964
 10
3.828412753332284
 20
7.43211131505964
 10
3.837500691519027
 20
7.428888544315706
 10
3.837500691519027
 20
7.424915293339495
 97
        0
 97
        0
 75
     2
 76
     1
 98
        0
  0
SPLINE
  5
34F
330
349
100
AcDbEntity
  8
BA
 62
   250
420
  2301728
370
    13
100
AcDbSpline
210
0.0
220
0.0
230
1.0
 70
    11
 71
     3
 72
    17
 73
    13
 74
     0
 42
0.0000000001
 43
0.0000000001
 12
1.0
 22
0.0
 32
0.0
 13
1.0
 23
0.0
 33
0.0
 40
0.0
 40
0.0
 40
0.0
 40
0.0
 40
1.0
 40
1.0
 40
1.0
 40
2.0
 40
2.0
 40
2.0
 40
3.0
 40
3.0
 40
3.0
 40
4.0
 40
4.0
 40
4.0
 40
4.0
 10
3.837500691519027
 20
7.424915293339495
 30
0.0
 10
3.837500691519027
 20
7.420938205450347
 30
0.0
 10
3.828412753332284
 20
7.417715307415114
 30
0.0
 10
3.817200992731816
 20
7.417715307415114
 30
0.0
 10
3.805988241080286
 20
7.417715307415114
 30
0.0
 10
3.796900302893568
 20
7.420938205450347
 30
0.0
 10
3.796900302893568
 20
7.424915293339495
 30
0.0
 10
3.796900302893568
 20
7.428888544315706
 30
0.0
 10
3.805988241080286
 20
7.43211131505964
 30
0.0
 10
3.817200992731816
 20
7.43211131505964
 30
0.0
 10
3.828412753332284
 20
7.43211131505964
 30
0.0
 10
3.837500691519027
 20
7.428888544315706
 30
0.0
 10
3.837500691519027
 20
7.424915293339495
 30
0.0
  0
SPLINE
  5
350
330
349
100
AcDbEntity
  8
BA
 62
   250
420
  2301728
370
    18
100
AcDbSpline
210
0.0
220
0.0
230
1.0
 70
    11
 71
     3
 72
    23
 73
    19
 74
     0
 42
0.0000000001
 43
0.0000000001
 12
1.0
 22
0.0
 32
0.0
 13
1.0
 23
0.0
 33
0.0
 40
0.0
 40
0.0
 40
0.0
 40
0.0
 40
1.0
 40
1.0
 40
1.0
 40
2.0
 40
2.0
 40
2.0
 40
3.0
 40
3.0
 40
3.0
 40
4.0
 40
4.0
 40
4.0
 40
5.0
 40
5.0
 40
5.0
 40
6.0
 40
6.0
 40
6.0
 40
6.0
 10
3.837500691519027
 20
7.424915293339495
 30
0.0
 10
3.837500691519027
 20
7.428888544315706
 30
0.0
 10
3.828412753332284
 20
7.43211131505964
 30
0.0
 10
3.817200992731816
 20
7.43211131505964
 30
0.0
 10
3.805988241080286
 20
7.43211131505964
 30
0.0
 10
3.796900302893568
 20
7.428888544315706
 30
0.0
 10
3.796900302893568
 20
7.424915293339495
 30
0.0
 10
3.796900302893568
 20
7.424044159460954
 30
0.0
 10
3.796900302893568
 20
7.420851120045691
 30
0.0
 10
3.796900302893568
 20
7.419979859078871
 30
0.0
 10
3.796900302893568
 20
7.416006735393984
 30
0.0
 10
3.805988241080286
 20
7.412783964243204
 30
0.0
 10
3.817200992731816
 20
7.412783964243204
 30
0.0
 10
3.828412753332284
 20
7.412783964243204
 30
0.0
 10
3.837500691519027
 20
7.416006735393984
 30
0.0
 10
3.837500691519027
 20
7.419979859078871
 30
0.0
 10
3.837500691519027
 20
7.420851120045691
 30
0.0
 10
3.837500691519027
 20
7.424044159460954
 30
0.0
 10
3.837500691519027
 20
7.424915293339495
 30
0.0
  0
ENDBLK
  5
34C
330
349
100
AcDbEntity
  8
0
100
AcDbBlockEnd
  0
BLOCK
  5
353
330
351
100
AcDbEntity
  8
0
100
AcDbBlockBegin
  2
block 19
 70
     0
 10
0.0
 20
0.0
 30
0.0
  3
block 19
  1

  0
SPLINE
  5
355
330
351
100
AcDbEntity
  8
BA
370
     0
100
AcDbSpline
210
0.0
220
0.0
230
1.0
 70
    11
 71
     3
 72
    17
 73
    13
 74
     0
 42
0.0000000001
 43
0.0000000001
 12
1.0
 22
0.0
 32
0.0
 13
1.0
 23
0.0
 33
0.0
 40
0.0
 40
0.0
 40
0.0
 40
0.0
 40
1.0
 40
1.0
 40
1.0
 40
2.0
 40
2.0
 40
2.0
 40
3.0
 40
3.0
 40
3.0
 40
4.0
 40
4.0
 40
4.0
 40
4.0
 10
4.013417209276238
 20
7.433998276270927
 30
0.0
 10
4.013417209276238
 20
7.430021188381803
 30
0.0
 10
4.004319360578949
 20
7.426798290346558
 30
0.0
 10
3.993112555233741
 20
7.426798290346558
 30
0.0
 10
3.981904758837522
 20
7.426798290346558
 30
0.0
 10
3.972806910140207
 20
7.430021188381803
 30
0.0
 10
3.972806910140207
 20
7.433998276270927
 30
0.0
 10
3.972806910140207
 20
7.437971399955826
 30
0.0
 10
3.981904758837522
 20
7.441194297991084
 30
0.0
 10
3.993112555233741
 20
7.441194297991084
 30
0.0
 10
4.004319360578949
 20
7.441194297991084
 30
0.0
 10
4.013417209276238
 20
7.437971399955826
 30
0.0
 10
4.013417209276238
 20
7.433998276270927
 30
0.0
  0
HATCH
  5
356
330
351
100
AcDbEntity
  8
BA
 62
   254
420
 13358815
100
AcDbHatch
 10
0.0
 20
0.0
 30
0.0
210
0.0
220
0.0
230
1.0
  2
SOLID
 70
     1
 71
     0
 91
        1
 92
        1
 93
        1
 72
     4
 94
        3
 73
     0
 74
     1
 95
       17
 96
       13
 40
0.0
 40
0.0
 40
0.0
 40
0.0
 40
1.0
 40
1.0
 40
1.0
 40
2.0
 40
2.0
 40
2.0
 40
3.0
 40
3.0
 40
3.0
 40
4.0
 40
4.0
 40
4.0
 40
4.0
 10
4.013417209276238
 20
7.433998276270927
 10
4.013417209276238
 20
7.430021188381803
 10
4.004319360578949
 20
7.426798290346558
 10
3.993112555233741
 20
7.426798290346558
 10
3.981904758837522
 20
7.426798290346558
 10
3.972806910140207
 20
7.430021188381803
 10
3.972806910140207
 20
7.433998276270927
 10
3.972806910140207
 20
7.437971399955826
 10
3.981904758837522
 20
7.441194297991084
 10
3.993112555233741
 20
7.441194297991084
 10
4.004319360578949
 20
7.441194297991084
 10
4.013417209276238
 20
7.437971399955826
 10
4.013417209276238
 20
7.433998276270927
 97
        0
 97
        0
 75
     2
 76
     1
 98
        0
  0
SPLINE
  5
357
330
351
100
AcDbEntity
  8
BA
 62
   250
420
  2301728
370
    13
100
AcDbSpline
210
0.0
220
0.0
230
1.0
 70
    11
 71
     3
 72
    17
 73
    13
 74
     0
 42
0.0000000001
 43
0.0000000001
 12
1.0
 22
0.0
 32
0.0
 13
1.0
 23
0.0
 33
0.0
 40
0.0
 40
0.0
 40
0.0
 40
0.0
 40
1.0
 40
1.0
 40
1.0
 40
2.0
 40
2.0
 40
2.0
 40
3.0
 40
3.0
 40
3.0
 40
4.0
 40
4.0
 40
4.0
 40
4.0
 10
4.013417209276238
 20
7.433998276270927
 30
0.0
 10
4.013417209276238
 20
7.430021188381803
 30
0.0
 10
4.004319360578949
 20
7.426798290346558
 30
0.0
 10
3.993112555233741
 20
7.426798290346558
 30
0.0
 10
3.981904758837522
 20
7.426798290346558
 30
0.0
 10
3.972806910140207
 20
7.430021188381803
 30
0.0
 10
3.972806910140207
 20
7.433998276270927
 30
0.0
 10
3.972806910140207
 20
7.437971399955826
 30
0.0
 10
3.981904758837522
 20
7.441194297991084
 30
0.0
 10
3.993112555233741
 20
7.441194297991084
 30
0.0
 10
4.004319360578949
 20
7.441194297991084
 30
0.0
 10
4.013417209276238
 20
7.437971399955826
 30
0.0
 10
4.013417209276238
 20
7.433998276270927
 30
0.0
  0
SPLINE
  5
358
330
351
100
AcDbEntity
  8
BA
 62
   250
420
  2301728
370
    18
100
AcDbSpline
210
0.0
220
0.0
230
1.0
 70
     8
 71
     3
 72
    23
 73
    19
 74
     0
 42
0.0000000001
 43
0.0000000001
 12
1.0
 22
0.0
 32
0.0
 13
1.0
 23
0.0
 33
0.0
 40
0.0
 40
0.0
 40
0.0
 40
0.0
 40
1.0
 40
1.0
 40
1.0
 40
2.0
 40
2.0
 40
2.0
 40
3.0
 40
3.0
 40
3.0
 40
4.0
 40
4.0
 40
4.0
 40
5.0
 40
5.0
 40
5.0
 40
6.0
 40
6.0
 40
6.0
 40
6.0
 10
3.997941947031348
 20
7.422074941011992
 30
0.0
 10
4.006826719751517
 20
7.422840032427492
 30
0.0
 10
4.013417209276238
 20
7.425680384754994
 30
0.0
 10
4.013417209276238
 20
7.429062842010315
 30
0.0
 10
4.013417209276238
 20
7.429933975888844
 30
0.0
 10
4.013417209276238
 20
7.433127142392398
 30
0.0
 10
4.013417209276238
 20
7.433998276270927
 30
0.0
 10
4.013417209276238
 20
7.437971399955826
 30
0.0
 10
4.004319360578949
 20
7.441194297991084
 30
0.0
 10
3.993112555233741
 20
7.441194297991084
 30
0.0
 10
3.981904758837522
 20
7.441194297991084
 30
0.0
 10
3.972806910140207
 20
7.437971399955826
 30
0.0
 10
3.972806910140207
 20
7.433998276270927
 30
0.0
 10
3.972806910140207
 20
7.433548339091342
 30
0.0
 10
3.972806910140207
 20
7.432464129235704
 30
0.0
 10
3.972806910140207
 20
7.431409650911746
 30
0.0
 10
3.972806910140207
 20
7.430437429825474
 30
0.0
 10
3.972806910140207
 20
7.429484038709258
 30
0.0
 10
3.972806910140207
 20
7.429062842010315
 30
0.0
  0
ENDBLK
  5
354
330
351
100
AcDbEntity
  8
0
100
AcDbBlockEnd
  0
BLOCK
  5
35B
330
359
100
AcDbEntity
  8
0
100
AcDbBlockBegin
  2
block 20
 70
     0
 10
0.0
 20
0.0
 30
0.0
  3
block 20
  1

  0
SPLINE
  5
35D
330
359
100
AcDbEntity
  8
BA
370
     0
100
AcDbSpline
210
0.0
220
0.0
230
1.0
 70
    11
 71
     3
 72
    17
 73
    13
 74
     0
 42
0.0000000001
 43
0.0000000001
 12
1.0
 22
0.0
 32
0.0
 13
1.0
 23
0.0
 33
0.0
 40
0.0
 40
0.0
 40
0.0
 40
0.0
 40
1.0
 40
1.0
 40
1.0
 40
2.0
 40
2.0
 40
2.0
 40
3.0
 40
3.0
 40
3.0
 40
4.0
 40
4.0
 40
4.0
 40
4.0
 10
4.034060802779979
 20
7.466207435602263
 30
0.0
 10
4.034060802779979
 20
7.46223034771314
 30
0.0
 10
4.024972864593261
 20
7.459007449677895
 30
0.0
 10
4.013766059248054
 20
7.459007449677895
 30
0.0
 10
4.002548352341263
 20
7.459007449677895
 30
0.0
 10
3.99346041415452
 20
7.46223034771314
 30
0.0
 10
3.99346041415452
 20
7.466207435602263
 30
0.0
 10
3.99346041415452
 20
7.470180559287175
 30
0.0
 10
4.002548352341263
 20
7.47340345732242
 30
0.0
 10
4.013766059248054
 20
7.47340345732242
 30
0.0
 10
4.024972864593261
 20
7.47340345732242
 30
0.0
 10
4.034060802779979
 20
7.470180559287175
 30
0.0
 10
4.034060802779979
 20
7.466207435602263
 30
0.0
  0
HATCH
  5
35E
330
359
100
AcDbEntity
  8
BA
 62
   254
420
 13358815
100
AcDbHatch
 10
0.0
 20
0.0
 30
0.0
210
0.0
220
0.0
230
1.0
  2
SOLID
 70
     1
 71
     0
 91
        1
 92
        1
 93
        1
 72
     4
 94
        3
 73
     0
 74
     1
 95
       17
 96
       13
 40
0.0
 40
0.0
 40
0.0
 40
0.0
 40
1.0
 40
1.0
 40
1.0
 40
2.0
 40
2.0
 40
2.0
 40
3.0
 40
3.0
 40
3.0
 40
4.0
 40
4.0
 40
4.0
 40
4.0
 10
4.034060802779979
 20
7.466207435602263
 10
4.034060802779979
 20
7.46223034771314
 10
4.024972864593261
 20
7.459007449677895
 10
4.013766059248054
 20
7.459007449677895
 10
4.002548352341263
 20
7.459007449677895
 10
3.99346041415452
 20
7.46223034771314
 10
3.99346041415452
 20
7.466207435602263
 10
3.99346041415452
 20
7.470180559287175
 10
4.002548352341263
 20
7.47340345732242
 10
4.013766059248054
 20
7.47340345732242
 10
4.024972864593261
 20
7.47340345732242
 10
4.034060802779979
 20
7.470180559287175
 10
4.034060802779979
 20
7.466207435602263
 97
        0
 97
        0
 75
     2
 76
     1
 98
        0
  0
SPLINE
  5
35F
330
359
100
AcDbEntity
  8
BA
 62
   250
420
  2301728
370
    13
100
AcDbSpline
210
0.0
220
0.0
230
1.0
 70
    11
 71
     3
 72
    17
 73
    13
 74
     0
 42
0.0000000001
 43
0.0000000001
 12
1.0
 22
0.0
 32
0.0
 13
1.0
 23
0.0
 33
0.0
 40
0.0
 40
0.0
 40
0.0
 40
0.0
 40
1.0
 40
1.0
 40
1.0
 40
2.0
 40
2.0
 40
2.0
 40
3.0
 40
3.0
 40
3.0
 40
4.0
 40
4.0
 40
4.0
 40
4.0
 10
4.034060802779979
 20
7.466207435602263
 30
0.0
 10
4.034060802779979
 20
7.46223034771314
 30
0.0
 10
4.024972864593261
 20
7.459007449677895
 30
0.0
 10
4.013766059248054
 20
7.459007449677895
 30
0.0
 10
4.002548352341263
 20
7.459007449677895
 30
0.0
 10
3.99346041415452
 20
7.46223034771314
 30
0.0
 10
3.99346041415452
 20
7.466207435602263
 30
0.0
 10
3.99346041415452
 20
7.470180559287175
 30
0.0
 10
4.002548352341263
 20
7.47340345732242
 30
0.0
 10
4.013766059248054
 20
7.47340345732242
 30
0.0
 10
4.024972864593261
 20
7.47340345732242
 30
0.0
 10
4.034060802779979
 20
7.470180559287175
 30
0.0
 10
4.034060802779979
 20
7.466207435602263
 30
0.0
  0
SPLINE
  5
360
330
359
100
AcDbEntity
  8
BA
 62
   250
420
  2301728
370
    18
100
AcDbSpline
210
0.0
220
0.0
230
1.0
 70
     8
 71
     3
 72
    20
 73
    16
 74
     0
 42
0.0000000001
 43
0.0000000001
 12
1.0
 22
0.0
 32
0.0
 13
1.0
 23
0.0
 33
0.0
 40
0.0
 40
0.0
 40
0.0
 40
0.0
 40
1.0
 40
1.0
 40
1.0
 40
2.0
 40
2.0
 40
2.0
 40
3.0
 40
3.0
 40
3.0
 40
4.0
 40
4.0
 40
4.0
 40
5.0
 40
5.0
 40
5.0
 40
5.0
 10
4.016088091873093
 20
7.454535827311638
 30
0.0
 10
4.027295959477416
 20
7.454535827311638
 30
0.0
 10
4.034060802779979
 20
7.457298877656752
 30
0.0
 10
4.034060802779979
 20
7.461272001341664
 30
0.0
 10
4.034060802779979
 20
7.462143135220193
 30
0.0
 10
4.034060802779979
 20
7.465336301723747
 30
0.0
 10
4.034060802779979
 20
7.466207435602263
 30
0.0
 10
4.034060802779979
 20
7.470180559287175
 30
0.0
 10
4.024972864593261
 20
7.47340345732242
 30
0.0
 10
4.013766059248054
 20
7.47340345732242
 30
0.0
 10
4.002548352341263
 20
7.47340345732242
 30
0.0
 10
3.99346041415452
 20
7.470180559287175
 30
0.0
 10
3.99346041415452
 20
7.466207435602263
 30
0.0
 10
3.99346041415452
 20
7.465336301723747
 30
0.0
 10
3.99346041415452
 20
7.462143135220193
 30
0.0
 10
3.99346041415452
 20
7.461272001341664
 30
0.0
  0
ENDBLK
  5
35C
330
359
100
AcDbEntity
  8
0
100
AcDbBlockEnd
  0
BLOCK
  5
363
330
361
100
AcDbEntity
  8
0
100
AcDbBlockBegin
  2
block 21
 70
     0
 10
0.0
 20
0.0
 30
0.0
  3
block 21
  1

  0
SPLINE
  5
365
330
361
100
AcDbEntity
  8
BA
370
     0
100
AcDbSpline
210
0.0
220
0.0
230
1.0
 70
    11
 71
     3
 72
    17
 73
    13
 74
     0
 42
0.0000000001
 43
0.0000000001
 12
1.0
 22
0.0
 32
0.0
 13
1.0
 23
0.0
 33
0.0
 40
0.0
 40
0.0
 40
0.0
 40
0.0
 40
1.0
 40
1.0
 40
1.0
 40
2.0
 40
2.0
 40
2.0
 40
3.0
 40
3.0
 40
3.0
 40
4.0
 40
4.0
 40
4.0
 40
4.0
 10
4.654358667897744
 20
7.596041070290324
 30
0.0
 10
4.654358667897744
 20
7.592262192612464
 30
0.0
 10
4.645725622145871
 20
7.589198853797294
 30
0.0
 10
4.635078760647527
 20
7.589198853797294
 30
0.0
 10
4.62443289020022
 20
7.589198853797294
 30
0.0
 10
4.615781014478316
 20
7.592262192612464
 30
0.0
 10
4.615781014478316
 20
7.596041070290324
 30
0.0
 10
4.615781014478316
 20
7.599815983763961
 30
0.0
 10
4.62443289020022
 20
7.60287932257913
 30
0.0
 10
4.635078760647527
 20
7.60287932257913
 30
0.0
 10
4.645725622145871
 20
7.60287932257913
 30
0.0
 10
4.654358667897744
 20
7.599815983763961
 30
0.0
 10
4.654358667897744
 20
7.596041070290324
 30
0.0
  0
HATCH
  5
366
330
361
100
AcDbEntity
  8
BA
 62
   254
420
 13358815
100
AcDbHatch
 10
0.0
 20
0.0
 30
0.0
210
0.0
220
0.0
230
1.0
  2
SOLID
 70
     1
 71
     0
 91
        1
 92
        1
 93
        1
 72
     4
 94
        3
 73
     0
 74
     1
 95
       17
 96
       13
 40
0.0
 40
0.0
 40
0.0
 40
0.0
 40
1.0
 40
1.0
 40
1.0
 40
2.0
 40
2.0
 40
2.0
 40
3.0
 40
3.0
 40
3.0
 40
4.0
 40
4.0
 40
4.0
 40
4.0
 10
4.654358667897744
 20
7.596041070290324
 10
4.654358667897744
 20
7.592262192612464
 10
4.645725622145871
 20
7.589198853797294
 10
4.635078760647527
 20
7.589198853797294
 10
4.62443289020022
 20
7.589198853797294
 10
4.615781014478316
 20
7.592262192612464
 10
4.615781014478316
 20
7.596041070290324
 10
4.615781014478316
 20
7.599815983763961
 10
4.62443289020022
 20
7.60287932257913
 10
4.635078760647527
 20
7.60287932257913
 10
4.645725622145871
 20
7.60287932257913
 10
4.654358667897744
 20
7.599815983763961
 10
4.654358667897744
 20
7.596041070290324
 97
        0
 97
        0
 75
     2
 76
     1
 98
        0
  0
SPLINE
  5
367
330
361
100
AcDbEntity
  8
BA
 62
   250
420
  2301728
370
    13
100
AcDbSpline
210
0.0
220
0.0
230
1.0
 70
    11
 71
     3
 72
    17
 73
    13
 74
     0
 42
0.0000000001
 43
0.0000000001
 12
1.0
 22
0.0
 32
0.0
 13
1.0
 23
0.0
 33
0.0
 40
0.0
 40
0.0
 40
0.0
 40
0.0
 40
1.0
 40
1.0
 40
1.0
 40
2.0
 40
2.0
 40
2.0
 40
3.0
 40
3.0
 40
3.0
 40
4.0
 40
4.0
 40
4.0
 40
4.0
 10
4.654358667897744
 20
7.596041070290324
 30
0.0
 10
4.654358667897744
 20
7.592262192612464
 30
0.0
 10
4.645725622145871
 20
7.589198853797294
 30
0.0
 10
4.635078760647527
 20
7.589198853797294
 30
0.0
 10
4.62443289020022
 20
7.589198853797294
 30
0.0
 10
4.615781014478316
 20
7.592262192612464
 30
0.0
 10
4.615781014478316
 20
7.596041070290324
 30
0.0
 10
4.615781014478316
 20
7.599815983763961
 30
0.0
 10
4.62443289020022
 20
7.60287932257913
 30
0.0
 10
4.635078760647527
 20
7.60287932257913
 30
0.0
 10
4.645725622145871
 20
7.60287932257913
 30
0.0
 10
4.654358667897744
 20
7.599815983763961
 30
0.0
 10
4.654358667897744
 20
7.596041070290324
 30
0.0
  0
SPLINE
  5
368
330
361
100
AcDbEntity
  8
BA
 62
   250
420
  2301728
370
    18
100
AcDbSpline
210
0.0
220
0.0
230
1.0
 70
    11
 71
     3
 72
    23
 73
    19
 74
     0
 42
0.0000000001
 43
0.0000000001
 12
1.0
 22
0.0
 32
0.0
 13
1.0
 23
0.0
 33
0.0
 40
0.0
 40
0.0
 40
0.0
 40
0.0
 40
1.0
 40
1.0
 40
1.0
 40
2.0
 40
2.0
 40
2.0
 40
3.0
 40
3.0
 40
3.0
 40
4.0
 40
4.0
 40
4.0
 40
5.0
 40
5.0
 40
5.0
 40
6.0
 40
6.0
 40
6.0
 40
6.0
 10
4.654358667897744
 20
7.596041070290324
 30
0.0
 10
4.654358667897744
 20
7.599815983763961
 30
0.0
 10
4.645725622145871
 20
7.60287932257913
 30
0.0
 10
4.635078760647527
 20
7.60287932257913
 30
0.0
 10
4.62443289020022
 20
7.60287932257913
 30
0.0
 10
4.615781014478316
 20
7.599815983763961
 30
0.0
 10
4.615781014478316
 20
7.596041070290324
 30
0.0
 10
4.615781014478316
 20
7.59521354265827
 30
0.0
 10
4.615781014478316
 20
7.592179935374777
 30
0.0
 10
4.615781014478316
 20
7.591352407742748
 30
0.0
 10
4.615781014478316
 20
7.587577494269099
 30
0.0
 10
4.62443289020022
 20
7.584514155453942
 30
0.0
 10
4.635078760647527
 20
7.584514155453942
 30
0.0
 10
4.645725622145871
 20
7.584514155453942
 30
0.0
 10
4.654358667897744
 20
7.587577494269099
 30
0.0
 10
4.654358667897744
 20
7.591352407742748
 30
0.0
 10
4.654358667897744
 20
7.592179935374777
 30
0.0
 10
4.654358667897744
 20
7.59521354265827
 30
0.0
 10
4.654358667897744
 20
7.596041070290324
 30
0.0
  0
ENDBLK
  5
364
330
361
100
AcDbEntity
  8
0
100
AcDbBlockEnd
  0
BLOCK
  5
36B
330
369
100
AcDbEntity
  8
0
100
AcDbBlockBegin
  2
block 22
 70
     0
 10
0.0
 20
0.0
 30
0.0
  3
block 22
  1

  0
SPLINE
  5
36D
330
369
100
AcDbEntity
  8
BA
370
     0
100
AcDbSpline
210
0.0
220
0.0
230
1.0
 70
    11
 71
     3
 72
    17
 73
    13
 74
     0
 42
0.0000000001
 43
0.0000000001
 12
1.0
 22
0.0
 32
0.0
 13
1.0
 23
0.0
 33
0.0
 40
0.0
 40
0.0
 40
0.0
 40
0.0
 40
1.0
 40
1.0
 40
1.0
 40
2.0
 40
2.0
 40
2.0
 40
3.0
 40
3.0
 40
3.0
 40
4.0
 40
4.0
 40
4.0
 40
4.0
 10
4.480111080119412
 20
7.563831910958988
 30
0.0
 10
4.480111080119412
 20
7.560053033281128
 30
0.0
 10
4.471459204397484
 20
7.556989694465945
 30
0.0
 10
4.460813333950177
 20
7.556989694465945
 30
0.0
 10
4.450166472451833
 20
7.556989694465945
 30
0.0
 10
4.44153342669996
 20
7.560053033281128
 30
0.0
 10
4.44153342669996
 20
7.563831910958988
 30
0.0
 10
4.44153342669996
 20
7.567606824432636
 30
0.0
 10
4.450166472451833
 20
7.570670163247794
 30
0.0
 10
4.460813333950177
 20
7.570670163247794
 30
0.0
 10
4.471459204397484
 20
7.570670163247794
 30
0.0
 10
4.480111080119412
 20
7.567606824432636
 30
0.0
 10
4.480111080119412
 20
7.563831910958988
 30
0.0
  0
HATCH
  5
36E
330
369
100
AcDbEntity
  8
BA
 62
   254
420
 13358815
100
AcDbHatch
 10
0.0
 20
0.0
 30
0.0
210
0.0
220
0.0
230
1.0
  2
SOLID
 70
     1
 71
     0
 91
        1
 92
        1
 93
        1
 72
     4
 94
        3
 73
     0
 74
     1
 95
       17
 96
       13
 40
0.0
 40
0.0
 40
0.0
 40
0.0
 40
1.0
 40
1.0
 40
1.0
 40
2.0
 40
2.0
 40
2.0
 40
3.0
 40
3.0
 40
3.0
 40
4.0
 40
4.0
 40
4.0
 40
4.0
 10
4.480111080119412
 20
7.563831910958988
 10
4.480111080119412
 20
7.560053033281128
 10
4.471459204397484
 20
7.556989694465945
 10
4.460813333950177
 20
7.556989694465945
 10
4.450166472451833
 20
7.556989694465945
 10
4.44153342669996
 20
7.560053033281128
 10
4.44153342669996
 20
7.563831910958988
 10
4.44153342669996
 20
7.567606824432636
 10
4.450166472451833
 20
7.570670163247794
 10
4.460813333950177
 20
7.570670163247794
 10
4.471459204397484
 20
7.570670163247794
 10
4.480111080119412
 20
7.567606824432636
 10
4.480111080119412
 20
7.563831910958988
 97
        0
 97
        0
 75
     2
 76
     1
 98
        0
  0
SPLINE
  5
36F
330
369
100
AcDbEntity
  8
BA
 62
   250
420
  2301728
370
    13
100
AcDbSpline
210
0.0
220
0.0
230
1.0
 70
    11
 71
     3
 72
    17
 73
    13
 74
     0
 42
0.0000000001
 43
0.0000000001
 12
1.0
 22
0.0
 32
0.0
 13
1.0
 23
0.0
 33
0.0
 40
0.0
 40
0.0
 40
0.0
 40
0.0
 40
1.0
 40
1.0
 40
1.0
 40
2.0
 40
2.0
 40
2.0
 40
3.0
 40
3.0
 40
3.0
 40
4.0
 40
4.0
 40
4.0
 40
4.0
 10
4.480111080119412
 20
7.563831910958988
 30
0.0
 10
4.480111080119412
 20
7.560053033281128
 30
0.0
 10
4.471459204397484
 20
7.556989694465945
 30
0.0
 10
4.460813333950177
 20
7.556989694465945
 30
0.0
 10
4.450166472451833
 20
7.556989694465945
 30
0.0
 10
4.44153342669996
 20
7.560053033281128
 30
0.0
 10
4.44153342669996
 20
7.563831910958988
 30
0.0
 10
4.44153342669996
 20
7.567606824432636
 30
0.0
 10
4.450166472451833
 20
7.570670163247794
 30
0.0
 10
4.460813333950177
 20
7.570670163247794
 30
0.0
 10
4.471459204397484
 20
7.570670163247794
 30
0.0
 10
4.480111080119412
 20
7.567606824432636
 30
0.0
 10
4.480111080119412
 20
7.563831910958988
 30
0.0
  0
SPLINE
  5
370
330
369
100
AcDbEntity
  8
BA
 62
   250
420
  2301728
370
    18
100
AcDbSpline
210
0.0
220
0.0
230
1.0
 70
    11
 71
     3
 72
    23
 73
    19
 74
     0
 42
0.0000000001
 43
0.0000000001
 12
1.0
 22
0.0
 32
0.0
 13
1.0
 23
0.0
 33
0.0
 40
0.0
 40
0.0
 40
0.0
 40
0.0
 40
1.0
 40
1.0
 40
1.0
 40
2.0
 40
2.0
 40
2.0
 40
3.0
 40
3.0
 40
3.0
 40
4.0
 40
4.0
 40
4.0
 40
5.0
 40
5.0
 40
5.0
 40
6.0
 40
6.0
 40
6.0
 40
6.0
 10
4.480111080119412
 20
7.563831910958988
 30
0.0
 10
4.480111080119412
 20
7.567606824432636
 30
0.0
 10
4.471459204397484
 20
7.570670163247794
 30
0.0
 10
4.460813333950177
 20
7.570670163247794
 30
0.0
 10
4.450166472451833
 20
7.570670163247794
 30
0.0
 10
4.44153342669996
 20
7.567606824432636
 30
0.0
 10
4.44153342669996
 20
7.563831910958988
 30
0.0
 10
4.44153342669996
 20
7.563004383326933
 30
0.0
 10
4.44153342669996
 20
7.559970776043441
 30
0.0
 10
4.44153342669996
 20
7.559143248411399
 30
0.0
 10
4.44153342669996
 20
7.555368334937775
 30
0.0
 10
4.450166472451833
 20
7.552304996122593
 30
0.0
 10
4.460813333950177
 20
7.552304996122593
 30
0.0
 10
4.471459204397484
 20
7.552304996122593
 30
0.0
 10
4.480111080119412
 20
7.555368334937775
 30
0.0
 10
4.480111080119412
 20
7.559143248411399
 30
0.0
 10
4.480111080119412
 20
7.559970776043441
 30
0.0
 10
4.480111080119412
 20
7.563004383326933
 30
0.0
 10
4.480111080119412
 20
7.563831910958988
 30
0.0
  0
ENDBLK
  5
36C
330
369
100
AcDbEntity
  8
0
100
AcDbBlockEnd
  0
BLOCK
  5
373
330
371
100
AcDbEntity
  8
0
100
AcDbBlockBegin
  2
block 23
 70
     0
 10
0.0
 20
0.0
 30
0.0
  3
block 23
  1

  0
SPLINE
  5
375
330
371
100
AcDbEntity
  8
BA
370
     0
100
AcDbSpline
210
0.0
220
0.0
230
1.0
 70
    11
 71
     3
 72
    17
 73
    13
 74
     0
 42
0.0000000001
 43
0.0000000001
 12
1.0
 22
0.0
 32
0.0
 13
1.0
 23
0.0
 33
0.0
 40
0.0
 40
0.0
 40
0.0
 40
0.0
 40
1.0
 40
1.0
 40
1.0
 40
2.0
 40
2.0
 40
2.0
 40
3.0
 40
3.0
 40
3.0
 40
4.0
 40
4.0
 40
4.0
 40
4.0
 10
4.621335855649148
 20
7.550611289867283
 30
0.0
 10
4.621335855649148
 20
7.546832412189423
 30
0.0
 10
4.61268397992722
 20
7.543769073374253
 30
0.0
 10
4.602038109479913
 20
7.543769073374253
 30
0.0
 10
4.591391247981543
 20
7.543769073374253
 30
0.0
 10
4.582758202229696
 20
7.546832412189423
 30
0.0
 10
4.582758202229696
 20
7.550611289867283
 30
0.0
 10
4.582758202229696
 20
7.554386203340918
 30
0.0
 10
4.591391247981543
 20
7.557449542156101
 30
0.0
 10
4.602038109479913
 20
7.557449542156101
 30
0.0
 10
4.61268397992722
 20
7.557449542156101
 30
0.0
 10
4.621335855649148
 20
7.554386203340918
 30
0.0
 10
4.621335855649148
 20
7.550611289867283
 30
0.0
  0
HATCH
  5
376
330
371
100
AcDbEntity
  8
BA
 62
   254
420
 13358815
100
AcDbHatch
 10
0.0
 20
0.0
 30
0.0
210
0.0
220
0.0
230
1.0
  2
SOLID
 70
     1
 71
     0
 91
        1
 92
        1
 93
        1
 72
     4
 94
        3
 73
     0
 74
     1
 95
       17
 96
       13
 40
0.0
 40
0.0
 40
0.0
 40
0.0
 40
1.0
 40
1.0
 40
1.0
 40
2.0
 40
2.0
 40
2.0
 40
3.0
 40
3.0
 40
3.0
 40
4.0
 40
4.0
 40
4.0
 40
4.0
 10
4.621335855649148
 20
7.550611289867283
 10
4.621335855649148
 20
7.546832412189423
 10
4.61268397992722
 20
7.543769073374253
 10
4.602038109479913
 20
7.543769073374253
 10
4.591391247981543
 20
7.543769073374253
 10
4.582758202229696
 20
7.546832412189423
 10
4.582758202229696
 20
7.550611289867283
 10
4.582758202229696
 20
7.554386203340918
 10
4.591391247981543
 20
7.557449542156101
 10
4.602038109479913
 20
7.557449542156101
 10
4.61268397992722
 20
7.557449542156101
 10
4.621335855649148
 20
7.554386203340918
 10
4.621335855649148
 20
7.550611289867283
 97
        0
 97
        0
 75
     2
 76
     1
 98
        0
  0
SPLINE
  5
377
330
371
100
AcDbEntity
  8
BA
 62
   250
420
  2301728
370
    13
100
AcDbSpline
210
0.0
220
0.0
230
1.0
 70
    11
 71
     3
 72
    17
 73
    13
 74
     0
 42
0.0000000001
 43
0.0000000001
 12
1.0
 22
0.0
 32
0.0
 13
1.0
 23
0.0
 33
0.0
 40
0.0
 40
0.0
 40
0.0
 40
0.0
 40
1.0
 40
1.0
 40
1.0
 40
2.0
 40
2.0
 40
2.0
 40
3.0
 40
3.0
 40
3.0
 40
4.0
 40
4.0
 40
4.0
 40
4.0
 10
4.621335855649148
 20
7.550611289867283
 30
0.0
 10
4.621335855649148
 20
7.546832412189423
 30
0.0
 10
4.61268397992722
 20
7.543769073374253
 30
0.0
 10
4.602038109479913
 20
7.543769073374253
 30
0.0
 10
4.591391247981543
 20
7.543769073374253
 30
0.0
 10
4.582758202229696
 20
7.546832412189423
 30
0.0
 10
4.582758202229696
 20
7.550611289867283
 30
0.0
 10
4.582758202229696
 20
7.554386203340918
 30
0.0
 10
4.591391247981543
 20
7.557449542156101
 30
0.0
 10
4.602038109479913
 20
7.557449542156101
 30
0.0
 10
4.61268397992722
 20
7.557449542156101
 30
0.0
 10
4.621335855649148
 20
7.554386203340918
 30
0.0
 10
4.621335855649148
 20
7.550611289867283
 30
0.0
  0
SPLINE
  5
378
330
371
100
AcDbEntity
  8
BA
 62
   250
420
  2301728
370
    18
100
AcDbSpline
210
0.0
220
0.0
230
1.0
 70
     8
 71
     3
 72
    20
 73
    16
 74
     0
 42
0.0000000001
 43
0.0000000001
 12
1.0
 22
0.0
 32
0.0
 13
1.0
 23
0.0
 33
0.0
 40
0.0
 40
0.0
 40
0.0
 40
0.0
 40
1.0
 40
1.0
 40
1.0
 40
2.0
 40
2.0
 40
2.0
 40
3.0
 40
3.0
 40
3.0
 40
4.0
 40
4.0
 40
4.0
 40
5.0
 40
5.0
 40
5.0
 40
5.0
 10
4.608348131555683
 20
7.539457010228084
 30
0.0
 10
4.615896967451893
 20
7.540386616118932
 30
0.0
 10
4.621335855649148
 20
7.542931635231639
 30
0.0
 10
4.621335855649148
 20
7.545922627319706
 30
0.0
 10
4.621335855649148
 20
7.546750154951761
 30
0.0
 10
4.621335855649148
 20
7.549783762235228
 30
0.0
 10
4.621335855649148
 20
7.550611289867283
 30
0.0
 10
4.621335855649148
 20
7.554386203340918
 30
0.0
 10
4.61268397992722
 20
7.557449542156101
 30
0.0
 10
4.602038109479913
 20
7.557449542156101
 30
0.0
 10
4.591391247981543
 20
7.557449542156101
 30
0.0
 10
4.582758202229696
 20
7.554386203340918
 30
0.0
 10
4.582758202229696
 20
7.550611289867283
 30
0.0
 10
4.582758202229696
 20
7.549783762235228
 30
0.0
 10
4.582758202229696
 20
7.546750154951761
 30
0.0
 10
4.582758202229696
 20
7.545922627319706
 30
0.0
  0
ENDBLK
  5
374
330
371
100
AcDbEntity
  8
0
100
AcDbBlockEnd
  0
BLOCK
  5
37F
330
37D
100
AcDbEntity
  8
0
100
AcDbBlockBegin
  2
block 24
 70
     0
 10
0.0
 20
0.0
 30
0.0
  3
block 24
  1

  0
POLYLINE
  5
381
330
37D
100
AcDbEntity
  8
callout
 62
   250
420
  2301728
370
    18
100
AcDb2dPolyline
 66
     1
 10
0.0
 20
0.0
 30
0.0
  0
VERTEX
  5
382
330
381
100
AcDbEntity
  8
callout
 62
   250
420
  2301728
370
    18
100
AcDbVertex
100
AcDb2dVertex
 10
4.578298355871892
 20
5.777248153075093
 30
0.0
  0
VERTEX
  5
383
330
381
100
AcDbEntity
  8
callout
 62
   250
420
  2301728
370
    18
100
AcDbVertex
100
AcDb2dVertex
 10
4.336718206355019
 20
5.398474708187905
 30
0.0
  0
SEQEND
  5
384
330
381
100
AcDbEntity
  8
callout
 62
   250
420
  2301728
370
    18
  0
POLYLINE
  5
385
330
37D
100
AcDbEntity
  8
callout
370
     0
100
AcDb2dPolyline
 66
     1
 10
0.0
 20
0.0
 30
0.0
  0
VERTEX
  5
386
330
385
100
AcDbEntity
  8
callout
370
     0
100
AcDbVertex
100
AcDb2dVertex
 10
4.579947721419027
 20
5.727766566004927
 30
0.0
  0
VERTEX
  5
387
330
385
100
AcDbEntity
  8
callout
370
     0
100
AcDbVertex
100
AcDb2dVertex
 10
4.614410344226497
 20
5.826268611385609
 30
0.0
  0
VERTEX
  5
388
330
385
100
AcDbEntity
  8
callout
370
     0
100
AcDbVertex
100
AcDb2dVertex
 10
4.530596923819808
 20
5.769677112314285
 30
0.0
  0
VERTEX
  5
389
330
385
100
AcDbEntity
  8
callout
370
     0
100
AcDbVertex
100
AcDb2dVertex
 10
4.579947721419027
 20
5.727766566004927
 30
0.0
  0
SEQEND
  5
38B
330
385
100
AcDbEntity
  8
callout
370
     0
  0
HATCH
  5
38A
330
37D
100
AcDbEntity
  8
callout
 62
   250
420
  2301728
100
AcDbHatch
 10
0.0
 20
0.0
 30
0.0
210
0.0
220
0.0
230
1.0
  2
SOLID
 70
     1
 71
     0
 91
        1
 92
        1
 93
        3
 72
     1
 10
4.579947721419027
 20
5.727766566004927
 11
4.614410344226497
 21
5.826268611385609
 72
     1
 10
4.614410344226497
 20
5.826268611385609
 11
4.530596923819808
 21
5.769677112314285
 72
     1
 10
4.530596923819808
 20
5.769677112314285
 11
4.579947721419027
 21
5.727766566004927
 97
        0
 75
     2
 76
     1
 98
        0
  0
ENDBLK
  5
380
330
37D
100
AcDbEntity
  8
0
100
AcDbBlockEnd
  0
ENDSEC
  0
SECTION
  2
ENTITIES
  0
INSERT
  5
42
330
1F
100
AcDbEntity
  8
Beam
100
AcDbBlockReference
  2
block 2
 10
0.0
 20
0.0
 30
0.0
  0
POLYLINE
  5
E4
330
1F
100
AcDbEntity
  8
Beam
 62
   250
420
  2301728
370
    18
100
AcDb2dPolyline
 66
     1
 10
0.0
 20
0.0
 30
0.0
  0
VERTEX
  5
E5
330
E4
100
AcDbEntity
  8
Beam
 62
   250
420
  2301728
370
    18
100
AcDbVertex
100
AcDb2dVertex
 10
5.349686379928319
 20
7.761872759856638
 30
0.0
  0
VERTEX
  5
E6
330
E4
100
AcDbEntity
  8
Beam
 62
   250
420
  2301728
370
    18
100
AcDbVertex
100
AcDb2dVertex
 10
5.287186379928319
 20
7.735663082437276
 30
0.0
  0
VERTEX
  5
E7
330
E4
100
AcDbEntity
  8
Beam
 62
   250
420
  2301728
370
    18
100
AcDbVertex
100
AcDb2dVertex
 10
5.349686379928319
 20
7.73297491039428
 30
0.0
  0
SEQEND
  5
E9
330
E4
100
AcDbEntity
  8
Beam
 62
   250
420
  2301728
370
    18
  0
HATCH
  5
E8
330
1F
100
AcDbEntity
  8
Beam
 62
    43
420
 15510365
100
AcDbHatch
 10
0.0
 20
0.0
 30
0.0
210
0.0
220
0.0
230
1.0
  2
SOLID
 70
     1
 71
     0
 91
        1
 92
        1
 93
        3
 72
     1
 10
5.349686379928319
 20
7.761872759856638
 11
5.287186379928319
 21
7.735663082437275
 72
     1
 10
5.287186379928319
 20
7.735663082437276
 11
5.349686379928319
 21
7.73297491039428
 72
     1
 10
5.349686379928319
 20
7.73297491039428
 11
5.349686379928319
 21
7.761872759856638
 97
        0
 75
     2
 76
     1
 98
        0
  0
POLYLINE
  5
EB
330
1F
100
AcDbEntity
  8
Wood
370
     0
100
AcDb2dPolyline
 66
     1
 10
0.0
 20
0.0
 30
0.0
  0
VERTEX
  5
EC
330
EB
100
AcDbEntity
  8
Wood
370
     0
100
AcDbVertex
100
AcDb2dVertex
 10
4.247346581785942
 20
7.192432715195372
 30
0.0
  0
VERTEX
  5
ED
330
EB
100
AcDbEntity
  8
Wood
370
     0
100
AcDbVertex
100
AcDb2dVertex
 10
4.392326449768158
 20
7.133453284729941
 30
0.0
  0
VERTEX
  5
EE
330
EB
100
AcDbEntity
  8
Wood
370
     0
100
AcDbVertex
100
AcDb2dVertex
 10
4.392326449768158
 20
6.070551026795682
 30
0.0
  0
VERTEX
  5
EF
330
EB
100
AcDbEntity
  8
Wood
370
     0
100
AcDbVertex
100
AcDb2dVertex
 10
4.246146418956704
 20
6.023476101619116
 30
0.0
  0
VERTEX
  5
F0
330
EB
100
AcDbEntity
  8
Wood
370
     0
100
AcDbVertex
100
AcDb2dVertex
 10
4.246146418956704
 20
5.835176400912801
 30
0.0
  0
VERTEX
  5
F1
330
EB
100
AcDbEntity
  8
Wood
370
     0
100
AcDbVertex
100
AcDb2dVertex
 10
5.086062189212448
 20
5.347083755660933
 30
0.0
  0
VERTEX
  5
F2
330
EB
100
AcDbEntity
  8
Wood
370
     0
100
AcDbVertex
100
AcDb2dVertex
 10
5.447795824779809
 20
5.503174297035912
 30
0.0
  0
VERTEX
  5
F3
330
EB
100
AcDbEntity
  8
Wood
370
     0
100
AcDbVertex
100
AcDb2dVertex
 10
5.447795824779809
 20
5.713047280902439
 30
0.0
  0
VERTEX
  5
F4
330
EB
100
AcDbEntity
  8
Wood
370
     0
100
AcDbVertex
100
AcDb2dVertex
 10
5.325898631363139
 20
5.775955153989608
 30
0.0
  0
VERTEX
  5
F5
330
EB
100
AcDbEntity
  8
Wood
370
     0
100
AcDbVertex
100
AcDb2dVertex
 10
5.325898631363139
 20
6.311587527363472
 30
0.0
  0
VERTEX
  5
F6
330
EB
100
AcDbEntity
  8
Wood
370
     0
100
AcDbVertex
100
AcDb2dVertex
 10
5.364630784335228
 20
6.325916143536169
 30
0.0
  0
VERTEX
  5
F7
330
EB
100
AcDbEntity
  8
Wood
370
     0
100
AcDbVertex
100
AcDb2dVertex
 10
5.287824327468191
 20
6.395140068771095
 30
0.0
  0
VERTEX
  5
F8
330
EB
100
AcDbEntity
  8
Wood
370
     0
100
AcDbVertex
100
AcDb2dVertex
 10
5.325898631363139
 20
6.407842370160298
 30
0.0
  0
VERTEX
  5
F9
330
EB
100
AcDbEntity
  8
Wood
370
     0
100
AcDbVertex
100
AcDb2dVertex
 10
5.325898631363139
 20
6.930064831690717
 30
0.0
  0
VERTEX
  5
FA
330
EB
100
AcDbEntity
  8
Wood
370
     0
100
AcDbVertex
100
AcDb2dVertex
 10
5.447795824779809
 20
6.967428447566135
 30
0.0
  0
VERTEX
  5
FB
330
EB
100
AcDbEntity
  8
Wood
370
     0
100
AcDbVertex
100
AcDb2dVertex
 10
5.447795824779809
 20
7.183005837547385
 30
0.0
  0
VERTEX
  5
FC
330
EB
100
AcDbEntity
  8
Wood
370
     0
100
AcDbVertex
100
AcDb2dVertex
 10
4.928133248127955
 20
7.356226696431336
 30
0.0
  0
SEQEND
  5
FE
330
EB
100
AcDbEntity
  8
Wood
370
     0
  0
HATCH
  5
FD
330
1F
100
AcDbEntity
  8
Wood
 62
    43
420
 15510365
100
AcDbHatch
 10
0.0
 20
0.0
 30
0.0
210
0.0
220
0.0
230
1.0
  2
SOLID
 70
     1
 71
     0
 91
        1
 92
        1
 93
       17
 72
     1
 10
4.247346581785942
 20
7.192432715195372
 11
4.392326449768158
 21
7.133453284729941
 72
     1
 10
4.392326449768158
 20
7.133453284729941
 11
4.392326449768158
 21
6.070551026795682
 72
     1
 10
4.392326449768158
 20
6.070551026795682
 11
4.246146418956704
 21
6.023476101619116
 72
     1
 10
4.246146418956704
 20
6.023476101619116
 11
4.246146418956704
 21
5.835176400912802
 72
     1
 10
4.246146418956704
 20
5.835176400912801
 11
5.086062189212448
 21
5.347083755660933
 72
     1
 10
5.086062189212448
 20
5.347083755660933
 11
5.447795824779809
 21
5.503174297035911
 72
     1
 10
5.447795824779809
 20
5.503174297035912
 11
5.447795824779809
 21
5.71304728090244
 72
     1
 10
5.447795824779809
 20
5.713047280902439
 11
5.325898631363139
 21
5.775955153989608
 72
     1
 10
5.325898631363139
 20
5.775955153989608
 11
5.325898631363139
 21
6.311587527363472
 72
     1
 10
5.325898631363139
 20
6.311587527363472
 11
5.364630784335229
 21
6.325916143536169
 72
     1
 10
5.364630784335228
 20
6.325916143536169
 11
5.287824327468191
 21
6.395140068771095
 72
     1
 10
5.287824327468191
 20
6.395140068771095
 11
5.325898631363139
 21
6.407842370160298
 72
     1
 10
5.325898631363139
 20
6.407842370160298
 11
5.325898631363139
 21
6.930064831690717
 72
     1
 10
5.325898631363139
 20
6.930064831690717
 11
5.447795824779809
 21
6.967428447566134
 72
     1
 10
5.447795824779809
 20
6.967428447566135
 11
5.447795824779809
 21
7.183005837547386
 72
     1
 10
5.447795824779809
 20
7.183005837547385
 11
4.928133248127955
 21
7.356226696431336
 72
     1
 10
4.928133248127955
 20
7.356226696431336
 11
4.247346581785943
 21
7.192432715195372
 97
        0
 75
     2
 76
     1
 98
        0
  0
POLYLINE
  5
FF
330
1F
100
AcDbEntity
  8
Wood
 62
   250
420
  2301728
370
    25
100
AcDb2dPolyline
 66
     1
 10
0.0
 20
0.0
 30
0.0
  0
VERTEX
  5
100
330
FF
100
AcDbEntity
  8
Wood
 62
   250
420
  2301728
370
    25
100
AcDbVertex
100
AcDb2dVertex
 10
4.247346581785942
 20
7.192432715195372
 30
0.0
  0
VERTEX
  5
101
330
FF
100
AcDbEntity
  8
Wood
 62
   250
420
  2301728
370
    25
100
AcDbVertex
100
AcDb2dVertex
 10
4.392326449768158
 20
7.133453284729941
 30
0.0
  0
VERTEX
  5
102
330
FF
100
AcDbEntity
  8
Wood
 62
   250
420
  2301728
370
    25
100
AcDbVertex
100
AcDb2dVertex
 10
4.392326449768158
 20
6.070551026795682
 30
0.0
  0
VERTEX
  5
103
330
FF
100
AcDbEntity
  8
Wood
 62
   250
420
  2301728
370
    25
100
AcDbVertex
100
AcDb2dVertex
 10
4.246146418956704
 20
6.023476101619116
 30
0.0
  0
VERTEX
  5
104
330
FF
100
AcDbEntity
  8
Wood
 62
   250
420
  2301728
370
    25
100
AcDbVertex
100
AcDb2dVertex
 10
4.246146418956704
 20
5.835176400912801
 30
0.0
  0
VERTEX
  5
105
330
FF
100
AcDbEntity
  8
Wood
 62
   250
420
  2301728
370
    25
100
AcDbVertex
100
AcDb2dVertex
 10
5.086062189212448
 20
5.347083755660933
 30
0.0
  0
VERTEX
  5
106
330
FF
100
AcDbEntity
  8
Wood
 62
   250
420
  2301728
370
    25
100
AcDbVertex
100
AcDb2dVertex
 10
5.447795824779809
 20
5.503174297035912
 30
0.0
  0
VERTEX
  5
107
330
FF
100
AcDbEntity
  8
Wood
 62
   250
420
  2301728
370
    25
100
AcDbVertex
100
AcDb2dVertex
 10
5.447795824779809
 20
5.713047280902439
 30
0.0
  0
VERTEX
  5
108
330
FF
100
AcDbEntity
  8
Wood
 62
   250
420
  2301728
370
    25
100
AcDbVertex
100
AcDb2dVertex
 10
5.325898631363139
 20
5.775955153989608
 30
0.0
  0
VERTEX
  5
109
330
FF
100
AcDbEntity
  8
Wood
 62
   250
420
  2301728
370
    25
100
AcDbVertex
100
AcDb2dVertex
 10
5.325898631363139
 20
6.311587527363472
 30
0.0
  0
VERTEX
  5
10A
330
FF
100
AcDbEntity
  8
Wood
 62
   250
420
  2301728
370
    25
100
AcDbVertex
100
AcDb2dVertex
 10
5.364630784335228
 20
6.325916143536169
 30
0.0
  0
VERTEX
  5
10B
330
FF
100
AcDbEntity
  8
Wood
 62
   250
420
  2301728
370
    25
100
AcDbVertex
100
AcDb2dVertex
 10
5.287824327468191
 20
6.395140068771095
 30
0.0
  0
VERTEX
  5
10C
330
FF
100
AcDbEntity
  8
Wood
 62
   250
420
  2301728
370
    25
100
AcDbVertex
100
AcDb2dVertex
 10
5.325898631363139
 20
6.407842370160298
 30
0.0
  0
VERTEX
  5
10D
330
FF
100
AcDbEntity
  8
Wood
 62
   250
420
  2301728
370
    25
100
AcDbVertex
100
AcDb2dVertex
 10
5.325898631363139
 20
6.930064831690717
 30
0.0
  0
VERTEX
  5
10E
330
FF
100
AcDbEntity
  8
Wood
 62
   250
420
  2301728
370
    25
100
AcDbVertex
100
AcDb2dVertex
 10
5.447795824779809
 20
6.967428447566135
 30
0.0
  0
VERTEX
  5
10F
330
FF
100
AcDbEntity
  8
Wood
 62
   250
420
  2301728
370
    25
100
AcDbVertex
100
AcDb2dVertex
 10
5.447795824779809
 20
7.183005837547385
 30
0.0
  0
VERTEX
  5
110
330
FF
100
AcDbEntity
  8
Wood
 62
   250
420
  2301728
370
    25
100
AcDbVertex
100
AcDb2dVertex
 10
4.928133248127955
 20
7.356226696431336
 30
0.0
  0
SEQEND
  5
111
330
FF
100
AcDbEntity
  8
Wood
 62
   250
420
  2301728
370
    25
  0
POLYLINE
  5
112
330
1F
100
AcDbEntity
  8
Wood
 62
   250
420
  2301728
370
    25
100
AcDb2dPolyline
 66
     1
 10
0.0
 20
0.0
 30
0.0
  0
VERTEX
  5
113
330
112
100
AcDbEntity
  8
Wood
 62
   250
420
  2301728
370
    25
100
AcDbVertex
100
AcDb2dVertex
 10
5.325898631363139
 20
5.659961547303484
 30
0.0
  0
VERTEX
  5
114
330
112
100
AcDbEntity
  8
Wood
 62
   250
420
  2301728
370
    25
100
AcDbVertex
100
AcDb2dVertex
 10
5.325898631363139
 20
5.797595744856052
 30
0.0
  0
SEQEND
  5
115
330
112
100
AcDbEntity
  8
Wood
 62
   250
420
  2301728
370
    25
  0
POLYLINE
  5
116
330
1F
100
AcDbEntity
  8
Wood
 62
   250
420
  2301728
370
    25
100
AcDb2dPolyline
 66
     1
 10
0.0
 20
0.0
 30
0.0
  0
VERTEX
  5
117
330
116
100
AcDbEntity
  8
Wood
 62
   250
420
  2301728
370
    25
100
AcDbVertex
100
AcDb2dVertex
 10
4.247346581785942
 20
7.192432715195372
 30
0.0
  0
VERTEX
  5
118
330
116
100
AcDbEntity
  8
Wood
 62
   250
420
  2301728
370
    25
100
AcDbVertex
100
AcDb2dVertex
 10
5.08375898655749
 20
6.86126309420581
 30
0.0
  0
VERTEX
  5
119
330
116
100
AcDbEntity
  8
Wood
 62
   250
420
  2301728
370
    25
100
AcDbVertex
100
AcDb2dVertex
 10
5.219399189384679
 20
6.900576107509058
 30
0.0
  0
SEQEND
  5
11A
330
116
100
AcDbEntity
  8
Wood
 62
   250
420
  2301728
370
    25
  0
POLYLINE
  5
11B
330
1F
100
AcDbEntity
  8
Wood
 62
   250
420
  2301728
370
    25
100
AcDb2dPolyline
 66
     1
 10
0.0
 20
0.0
 30
0.0
  0
VERTEX
  5
11C
330
11B
100
AcDbEntity
  8
Wood
 62
   250
420
  2301728
370
    25
100
AcDbVertex
100
AcDb2dVertex
 10
4.935633522522417
 20
7.35367176680807
 30
0.0
  0
VERTEX
  5
11D
330
11B
100
AcDbEntity
  8
Wood
 62
   250
420
  2301728
370
    25
100
AcDbVertex
100
AcDb2dVertex
 10
4.594204540997503
 20
7.468789284360392
 30
0.0
  0
SEQEND
  5
11E
330
11B
100
AcDbEntity
  8
Wood
 62
   250
420
  2301728
370
    25
  0
POLYLINE
  5
11F
330
1F
100
AcDbEntity
  8
Wood
 62
   250
420
  2301728
370
    18
100
AcDb2dPolyline
 66
     1
 10
0.0
 20
0.0
 30
0.0
  0
VERTEX
  5
120
330
11F
100
AcDbEntity
  8
Wood
 62
   250
420
  2301728
370
    18
100
AcDbVertex
100
AcDb2dVertex
 10
4.246185069947905
 20
7.392108690977503
 30
0.0
  0
VERTEX
  5
121
330
11F
100
AcDbEntity
  8
Wood
 62
   250
420
  2301728
370
    18
100
AcDbVertex
100
AcDb2dVertex
 10
4.246185069947905
 20
7.191566657688301
 30
0.0
  0
SEQEND
  5
122
330
11F
100
AcDbEntity
  8
Wood
 62
   250
420
  2301728
370
    18
  0
POLYLINE
  5
123
330
1F
100
AcDbEntity
  8
Wood
 62
   250
420
  2301728
370
    18
100
AcDb2dPolyline
 66
     1
 10
0.0
 20
0.0
 30
0.0
  0
VERTEX
  5
124
330
123
100
AcDbEntity
  8
Wood
 62
   250
420
  2301728
370
    18
100
AcDbVertex
100
AcDb2dVertex
 10
4.244210896243658
 20
7.390139472528542
 30
0.0
  0
VERTEX
  5
125
330
123
100
AcDbEntity
  8
Wood
 62
   250
420
  2301728
370
    18
100
AcDbVertex
100
AcDb2dVertex
 10
5.081784812853256
 20
7.085396227956519
 30
0.0
  0
VERTEX
  5
126
330
123
100
AcDbEntity
  8
Wood
 62
   250
420
  2301728
370
    18
100
AcDbVertex
100
AcDb2dVertex
 10
5.447795824779809
 20
7.183005837547385
 30
0.0
  0
SEQEND
  5
127
330
123
100
AcDbEntity
  8
Wood
 62
   250
420
  2301728
370
    18
  0
POLYLINE
  5
128
330
1F
100
AcDbEntity
  8
Wood
 62
   250
420
  2301728
370
    18
100
AcDb2dPolyline
 66
     1
 10
0.0
 20
0.0
 30
0.0
  0
VERTEX
  5
129
330
128
100
AcDbEntity
  8
Wood
 62
   250
420
  2301728
370
    18
100
AcDbVertex
100
AcDb2dVertex
 10
5.081784812853256
 20
7.085396227956519
 30
0.0
  0
VERTEX
  5
12A
330
128
100
AcDbEntity
  8
Wood
 62
   250
420
  2301728
370
    18
100
AcDbVertex
100
AcDb2dVertex
 10
5.081784812853256
 20
6.86126309420581
 30
0.0
  0
SEQEND
  5
12B
330
128
100
AcDbEntity
  8
Wood
 62
   250
420
  2301728
370
    18
  0
POLYLINE
  5
12C
330
1F
100
AcDbEntity
  8
Wood
 62
   250
420
  2301728
370
    18
100
AcDb2dPolyline
 66
     1
 10
0.0
 20
0.0
 30
0.0
  0
VERTEX
  5
12D
330
12C
100
AcDbEntity
  8
Wood
 62
   250
420
  2301728
370
    18
100
AcDbVertex
100
AcDb2dVertex
 10
5.085704419781096
 20
5.555765412392121
 30
0.0
  0
VERTEX
  5
12E
330
12C
100
AcDbEntity
  8
Wood
 62
   250
420
  2301728
370
    18
100
AcDbVertex
100
AcDb2dVertex
 10
5.085704419781096
 20
5.347083755660933
 30
0.0
  0
SEQEND
  5
12F
330
12C
100
AcDbEntity
  8
Wood
 62
   250
420
  2301728
370
    18
  0
POLYLINE
  5
130
330
1F
100
AcDbEntity
  8
Wood
 62
   250
420
  2301728
370
    18
100
AcDb2dPolyline
 66
     1
 10
0.0
 20
0.0
 30
0.0
  0
VERTEX
  5
131
330
130
100
AcDbEntity
  8
Wood
 62
   250
420
  2301728
370
    18
100
AcDbVertex
100
AcDb2dVertex
 10
5.219631095331882
 20
5.613932262253128
 30
0.0
  0
VERTEX
  5
132
330
130
100
AcDbEntity
  8
Wood
 62
   250
420
  2301728
370
    18
100
AcDbVertex
100
AcDb2dVertex
 10
5.085704419781096
 20
5.555756492932611
 30
0.0
  0
VERTEX
  5
133
330
130
100
AcDbEntity
  8
Wood
 62
   250
420
  2301728
370
    18
100
AcDbVertex
100
AcDb2dVertex
 10
4.246146418956704
 20
6.023476101619116
 30
0.0
  0
SEQEND
  5
134
330
130
100
AcDbEntity
  8
Wood
 62
   250
420
  2301728
370
    18
  0
POLYLINE
  5
135
330
1F
100
AcDbEntity
  8
Wood
 62
   250
420
  2301728
370
    18
100
AcDb2dPolyline
 66
     1
 10
0.0
 20
0.0
 30
0.0
  0
VERTEX
  5
136
330
135
100
AcDbEntity
  8
Wood
 62
   250
420
  2301728
370
    18
100
AcDbVertex
100
AcDb2dVertex
 10
5.447795824779809
 20
5.713047280902439
 30
0.0
  0
VERTEX
  5
137
330
135
100
AcDbEntity
  8
Wood
 62
   250
420
  2301728
370
    18
100
AcDbVertex
100
AcDb2dVertex
 10
5.327872700655259
 20
5.660948634155602
 30
0.0
  0
SEQEND
  5
138
330
135
100
AcDbEntity
  8
Wood
 62
   250
420
  2301728
370
    18
  0
POLYLINE
  5
139
330
1F
100
AcDbEntity
  8
Wood
 62
   250
420
  2301728
370
    18
100
AcDb2dPolyline
 66
     1
 10
0.0
 20
0.0
 30
0.0
  0
VERTEX
  5
13A
330
139
100
AcDbEntity
  8
Wood
 62
   250
420
  2301728
370
    18
100
AcDbVertex
100
AcDb2dVertex
 10
4.392326449768158
 20
6.070551026795682
 30
0.0
  0
VERTEX
  5
13B
330
139
100
AcDbEntity
  8
Wood
 62
   250
420
  2301728
370
    18
100
AcDbVertex
100
AcDb2dVertex
 10
5.21937936836356
 20
5.614754834650689
 30
0.0
  0
SEQEND
  5
13C
330
139
100
AcDbEntity
  8
Wood
 62
   250
420
  2301728
370
    18
  0
POLYLINE
  5
13D
330
1F
100
AcDbEntity
  8
Wood
 62
   250
420
  2301728
370
    18
100
AcDb2dPolyline
 66
     1
 10
0.0
 20
0.0
 30
0.0
  0
VERTEX
  5
13E
330
13D
100
AcDbEntity
  8
Wood
 62
   250
420
  2301728
370
    18
100
AcDbVertex
100
AcDb2dVertex
 10
5.325549676979159
 20
6.930064831690717
 30
0.0
  0
VERTEX
  5
13F
330
13D
100
AcDbEntity
  8
Wood
 62
   250
420
  2301728
370
    18
100
AcDbVertex
100
AcDb2dVertex
 10
5.325549676979159
 20
6.965463193321398
 30
0.0
  0
VERTEX
  5
140
330
13D
100
AcDbEntity
  8
Wood
 62
   250
420
  2301728
370
    18
100
AcDbVertex
100
AcDb2dVertex
 10
5.305893170327534
 20
7.036245050816888
 30
0.0
  0
VERTEX
  5
141
330
13D
100
AcDbEntity
  8
Wood
 62
   250
420
  2301728
370
    18
100
AcDbVertex
100
AcDb2dVertex
 10
5.237081522332068
 20
7.024447579042114
 30
0.0
  0
VERTEX
  5
142
330
13D
100
AcDbEntity
  8
Wood
 62
   250
420
  2301728
370
    18
100
AcDbVertex
100
AcDb2dVertex
 10
5.21937936836356
 20
6.939902995527101
 30
0.0
  0
VERTEX
  5
143
330
13D
100
AcDbEntity
  8
Wood
 62
   250
420
  2301728
370
    18
100
AcDbVertex
100
AcDb2dVertex
 10
5.21937936836356
 20
6.369511488453908
 30
0.0
  0
VERTEX
  5
144
330
13D
100
AcDbEntity
  8
Wood
 62
   250
420
  2301728
370
    18
100
AcDbVertex
100
AcDb2dVertex
 10
5.185167294847335
 20
6.357955833136871
 30
0.0
  0
VERTEX
  5
145
330
13D
100
AcDbEntity
  8
Wood
 62
   250
420
  2301728
370
    18
100
AcDbVertex
100
AcDb2dVertex
 10
5.256457561534742
 20
6.289288878595622
 30
0.0
  0
VERTEX
  5
146
330
13D
100
AcDbEntity
  8
Wood
 62
   250
420
  2301728
370
    18
100
AcDbVertex
100
AcDb2dVertex
 10
5.21937936836356
 20
6.274965217678211
 30
0.0
  0
VERTEX
  5
147
330
13D
100
AcDbEntity
  8
Wood
 62
   250
420
  2301728
370
    18
100
AcDbVertex
100
AcDb2dVertex
 10
5.21937936836356
 20
5.581325610186417
 30
0.0
  0
VERTEX
  5
148
330
13D
100
AcDbEntity
  8
Wood
 62
   250
420
  2301728
370
    18
100
AcDbVertex
100
AcDb2dVertex
 10
5.237081522332068
 20
5.508584444752513
 30
0.0
  0
VERTEX
  5
149
330
13D
100
AcDbEntity
  8
Wood
 62
   250
420
  2301728
370
    18
100
AcDbVertex
100
AcDb2dVertex
 10
5.307858424572284
 20
5.538074159985222
 30
0.0
  0
VERTEX
  5
14A
330
13D
100
AcDbEntity
  8
Wood
 62
   250
420
  2301728
370
    18
100
AcDbVertex
100
AcDb2dVertex
 10
5.325540757519674
 20
5.630481742581322
 30
0.0
  0
VERTEX
  5
14B
330
13D
100
AcDbEntity
  8
Wood
 62
   250
420
  2301728
370
    18
100
AcDbVertex
100
AcDb2dVertex
 10
5.325540757519674
 20
5.663910968287357
 30
0.0
  0
SEQEND
  5
14C
330
13D
100
AcDbEntity
  8
Wood
 62
   250
420
  2301728
370
    18
  0
POLYLINE
  5
14D
330
1F
100
AcDbEntity
  8
Wood
 62
   250
420
  2301728
370
    25
100
AcDb2dPolyline
 66
     1
 10
0.0
 20
0.0
 30
0.0
  0
VERTEX
  5
14E
330
14D
100
AcDbEntity
  8
Wood
 62
   250
420
  2301728
370
    25
100
AcDbVertex
100
AcDb2dVertex
 10
5.363556484990164
 20
6.325746673805547
 30
0.0
  0
VERTEX
  5
14F
330
14D
100
AcDbEntity
  8
Wood
 62
   250
420
  2301728
370
    25
100
AcDbVertex
100
AcDb2dVertex
 10
5.221856996004438
 20
6.277442845319077
 30
0.0
  0
SEQEND
  5
150
330
14D
100
AcDbEntity
  8
Wood
 62
   250
420
  2301728
370
    25
  0
POLYLINE
  5
151
330
1F
100
AcDbEntity
  8
Wood
 62
   250
420
  2301728
370
    25
100
AcDb2dPolyline
 66
     1
 10
0.0
 20
0.0
 30
0.0
  0
VERTEX
  5
152
330
151
100
AcDbEntity
  8
Wood
 62
   250
420
  2301728
370
    25
100
AcDbVertex
100
AcDb2dVertex
 10
5.328869698017948
 20
6.407508385954328
 30
0.0
  0
VERTEX
  5
153
330
151
100
AcDbEntity
  8
Wood
 62
   250
420
  2301728
370
    25
100
AcDbVertex
100
AcDb2dVertex
 10
5.185167294847335
 20
6.357955833136871
 30
0.0
  0
SEQEND
  5
154
330
151
100
AcDbEntity
  8
Wood
 62
   250
420
  2301728
370
    25
  0
POLYLINE
  5
155
330
1F
100
AcDbEntity
  8
Wood
 62
   250
420
  2301728
370
    13
100
AcDb2dPolyline
 66
     1
 10
0.0
 20
0.0
 30
0.0
  0
VERTEX
  5
156
330
155
100
AcDbEntity
  8
Wood
 62
   250
420
  2301728
370
    13
100
AcDbVertex
100
AcDb2dVertex
 10
5.304596875545839
 20
6.402558085927858
 30
0.0
  0
VERTEX
  5
157
330
155
100
AcDbEntity
  8
Wood
 62
   250
420
  2301728
370
    13
100
AcDbVertex
100
AcDb2dVertex
 10
5.304596875545839
 20
7.032310578123188
 30
0.0
  0
SEQEND
  5
158
330
155
100
AcDbEntity
  8
Wood
 62
   250
420
  2301728
370
    13
  0
POLYLINE
  5
159
330
1F
100
AcDbEntity
  8
Wood
 62
   250
420
  2301728
370
    13
100
AcDb2dPolyline
 66
     1
 10
0.0
 20
0.0
 30
0.0
  0
VERTEX
  5
15A
330
159
100
AcDbEntity
  8
Wood
 62
   250
420
  2301728
370
    13
100
AcDbVertex
100
AcDb2dVertex
 10
5.338780208581435
 20
6.318313790882914
 30
0.0
  0
VERTEX
  5
15B
330
159
100
AcDbEntity
  8
Wood
 62
   250
420
  2301728
370
    13
100
AcDbVertex
100
AcDb2dVertex
 10
5.271884262277884
 20
6.385209737186478
 30
0.0
  0
SEQEND
  5
15C
330
159
100
AcDbEntity
  8
Wood
 62
   250
420
  2301728
370
    13
  0
POLYLINE
  5
15D
330
1F
100
AcDbEntity
  8
Wood
 62
   250
420
  2301728
370
    13
100
AcDb2dPolyline
 66
     1
 10
0.0
 20
0.0
 30
0.0
  0
VERTEX
  5
15E
330
15D
100
AcDbEntity
  8
Wood
 62
   250
420
  2301728
370
    13
100
AcDbVertex
100
AcDb2dVertex
 10
5.304596875545839
 20
5.538074159985222
 30
0.0
  0
VERTEX
  5
15F
330
15D
100
AcDbEntity
  8
Wood
 62
   250
420
  2301728
370
    13
100
AcDbVertex
100
AcDb2dVertex
 10
5.304596875545839
 20
6.303448025037684
 30
0.0
  0
SEQEND
  5
160
330
15D
100
AcDbEntity
  8
Wood
 62
   250
420
  2301728
370
    13
  0
POLYLINE
  5
161
330
1F
100
AcDbEntity
  8
Wood
 62
   250
420
  2301728
370
    13
100
AcDb2dPolyline
 66
     1
 10
0.0
 20
0.0
 30
0.0
  0
VERTEX
  5
162
330
161
100
AcDbEntity
  8
Wood
 62
   250
420
  2301728
370
    13
100
AcDbVertex
100
AcDb2dVertex
 10
5.283295224140677
 20
6.392642620109086
 30
0.0
  0
VERTEX
  5
163
330
161
100
AcDbEntity
  8
Wood
 62
   250
420
  2301728
370
    13
100
AcDbVertex
100
AcDb2dVertex
 10
5.283295224140677
 20
7.032310578123188
 30
0.0
  0
SEQEND
  5
164
330
161
100
AcDbEntity
  8
Wood
 62
   250
420
  2301728
370
    13
  0
POLYLINE
  5
165
330
1F
100
AcDbEntity
  8
Wood
 62
   250
420
  2301728
370
    13
100
AcDb2dPolyline
 66
     1
 10
0.0
 20
0.0
 30
0.0
  0
VERTEX
  5
166
330
165
100
AcDbEntity
  8
Wood
 62
   250
420
  2301728
370
    13
100
AcDbVertex
100
AcDb2dVertex
 10
5.318959187454437
 20
6.310880907960305
 30
0.0
  0
VERTEX
  5
167
330
165
100
AcDbEntity
  8
Wood
 62
   250
420
  2301728
370
    13
100
AcDbVertex
100
AcDb2dVertex
 10
5.249585613510034
 20
6.380254481904735
 30
0.0
  0
SEQEND
  5
168
330
165
100
AcDbEntity
  8
Wood
 62
   250
420
  2301728
370
    13
  0
POLYLINE
  5
169
330
1F
100
AcDbEntity
  8
Wood
 62
   250
420
  2301728
370
    13
100
AcDb2dPolyline
 66
     1
 10
0.0
 20
0.0
 30
0.0
  0
VERTEX
  5
16A
330
169
100
AcDbEntity
  8
Wood
 62
   250
420
  2301728
370
    13
100
AcDbVertex
100
AcDb2dVertex
 10
5.283295224140677
 20
5.528240951404137
 30
0.0
  0
VERTEX
  5
16B
330
169
100
AcDbEntity
  8
Wood
 62
   250
420
  2301728
370
    13
100
AcDbVertex
100
AcDb2dVertex
 10
5.283295224140677
 20
6.298492769755941
 30
0.0
  0
SEQEND
  5
16C
330
169
100
AcDbEntity
  8
Wood
 62
   250
420
  2301728
370
    13
  0
POLYLINE
  5
16D
330
1F
100
AcDbEntity
  8
Wood
 62
   250
420
  2301728
370
    13
100
AcDb2dPolyline
 66
     1
 10
0.0
 20
0.0
 30
0.0
  0
VERTEX
  5
16E
330
16D
100
AcDbEntity
  8
Wood
 62
   250
420
  2301728
370
    13
100
AcDbVertex
100
AcDb2dVertex
 10
5.261993572735516
 20
6.385214692441751
 30
0.0
  0
VERTEX
  5
16F
330
16D
100
AcDbEntity
  8
Wood
 62
   250
420
  2301728
370
    13
100
AcDbVertex
100
AcDb2dVertex
 10
5.261993572735516
 20
7.026411842235802
 30
0.0
  0
SEQEND
  5
170
330
16D
100
AcDbEntity
  8
Wood
 62
   250
420
  2301728
370
    13
  0
POLYLINE
  5
171
330
1F
100
AcDbEntity
  8
Wood
 62
   250
420
  2301728
370
    13
100
AcDb2dPolyline
 66
     1
 10
0.0
 20
0.0
 30
0.0
  0
VERTEX
  5
172
330
171
100
AcDbEntity
  8
Wood
 62
   250
420
  2301728
370
    13
100
AcDbVertex
100
AcDb2dVertex
 10
5.294182911045734
 20
6.30592565267855
 30
0.0
  0
VERTEX
  5
173
330
171
100
AcDbEntity
  8
Wood
 62
   250
420
  2301728
370
    13
100
AcDbVertex
100
AcDb2dVertex
 10
5.227286964742183
 20
6.372821598982114
 30
0.0
  0
SEQEND
  5
174
330
171
100
AcDbEntity
  8
Wood
 62
   250
420
  2301728
370
    13
  0
POLYLINE
  5
175
330
1F
100
AcDbEntity
  8
Wood
 62
   250
420
  2301728
370
    13
100
AcDb2dPolyline
 66
     1
 10
0.0
 20
0.0
 30
0.0
  0
VERTEX
  5
176
330
175
100
AcDbEntity
  8
Wood
 62
   250
420
  2301728
370
    13
100
AcDbVertex
100
AcDb2dVertex
 10
5.261993572735516
 20
5.520381916527286
 30
0.0
  0
VERTEX
  5
177
330
175
100
AcDbEntity
  8
Wood
 62
   250
420
  2301728
370
    13
100
AcDbVertex
100
AcDb2dVertex
 10
5.261993572735516
 20
6.288582259192455
 30
0.0
  0
SEQEND
  5
178
330
175
100
AcDbEntity
  8
Wood
 62
   250
420
  2301728
370
    13
  0
POLYLINE
  5
179
330
1F
100
AcDbEntity
  8
Wood
 62
   250
420
  2301728
370
    13
100
AcDb2dPolyline
 66
     1
 10
0.0
 20
0.0
 30
0.0
  0
VERTEX
  5
17A
330
179
100
AcDbEntity
  8
Wood
 62
   250
420
  2301728
370
    13
100
AcDbVertex
100
AcDb2dVertex
 10
5.240682010819783
 20
6.377776854263857
 30
0.0
  0
VERTEX
  5
17B
330
179
100
AcDbEntity
  8
Wood
 62
   250
420
  2301728
370
    13
100
AcDbVertex
100
AcDb2dVertex
 10
5.240682010819783
 20
7.022482324797377
 30
0.0
  0
SEQEND
  5
17C
330
179
100
AcDbEntity
  8
Wood
 62
   250
420
  2301728
370
    13
  0
POLYLINE
  5
17D
330
1F
100
AcDbEntity
  8
Wood
 62
   250
420
  2301728
370
    13
100
AcDb2dPolyline
 66
     1
 10
0.0
 20
0.0
 30
0.0
  0
VERTEX
  5
17E
330
17D
100
AcDbEntity
  8
Wood
 62
   250
420
  2301728
370
    13
100
AcDbVertex
100
AcDb2dVertex
 10
5.276839517559615
 20
6.298492769755941
 30
0.0
  0
VERTEX
  5
17F
330
17D
100
AcDbEntity
  8
Wood
 62
   250
420
  2301728
370
    13
100
AcDbVertex
100
AcDb2dVertex
 10
5.207465943615185
 20
6.367866343700371
 30
0.0
  0
SEQEND
  5
180
330
17D
100
AcDbEntity
  8
Wood
 62
   250
420
  2301728
370
    13
  0
POLYLINE
  5
181
330
1F
100
AcDbEntity
  8
Wood
 62
   250
420
  2301728
370
    13
100
AcDb2dPolyline
 66
     1
 10
0.0
 20
0.0
 30
0.0
  0
VERTEX
  5
182
330
181
100
AcDbEntity
  8
Wood
 62
   250
420
  2301728
370
    13
100
AcDbVertex
100
AcDb2dVertex
 10
5.240682010819783
 20
5.510548707946214
 30
0.0
  0
VERTEX
  5
183
330
181
100
AcDbEntity
  8
Wood
 62
   250
420
  2301728
370
    13
100
AcDbVertex
100
AcDb2dVertex
 10
5.240682010819783
 20
6.283627003910699
 30
0.0
  0
SEQEND
  5
184
330
181
100
AcDbEntity
  8
Wood
 62
   250
420
  2301728
370
    13
  0
POLYLINE
  5
185
330
1F
100
AcDbEntity
  8
Wood
 62
   250
420
  2301728
370
    13
100
AcDb2dPolyline
 66
     1
 10
0.0
 20
0.0
 30
0.0
  0
VERTEX
  5
186
330
185
100
AcDbEntity
  8
Wood
 62
   250
420
  2301728
370
    13
100
AcDbVertex
100
AcDb2dVertex
 10
5.087649951398159
 20
5.528240951404137
 30
0.0
  0
VERTEX
  5
187
330
185
100
AcDbEntity
  8
Wood
 62
   250
420
  2301728
370
    13
100
AcDbVertex
100
AcDb2dVertex
 10
5.201688115956686
 20
5.602957281593338
 30
0.0
  0
SEQEND
  5
188
330
185
100
AcDbEntity
  8
Wood
 62
   250
420
  2301728
370
    13
  0
POLYLINE
  5
189
330
1F
100
AcDbEntity
  8
Wood
 62
   250
420
  2301728
370
    13
100
AcDb2dPolyline
 66
     1
 10
0.0
 20
0.0
 30
0.0
  0
VERTEX
  5
18A
330
189
100
AcDbEntity
  8
Wood
 62
   250
420
  2301728
370
    13
100
AcDbVertex
100
AcDb2dVertex
 10
5.087649951398159
 20
5.50268075360984
 30
0.0
  0
VERTEX
  5
18B
330
189
100
AcDbEntity
  8
Wood
 62
   250
420
  2301728
370
    13
100
AcDbVertex
100
AcDb2dVertex
 10
5.22134462260831
 20
5.591158818767503
 30
0.0
  0
SEQEND
  5
18C
330
189
100
AcDbEntity
  8
Wood
 62
   250
420
  2301728
370
    13
  0
POLYLINE
  5
18D
330
1F
100
AcDbEntity
  8
Wood
 62
   250
420
  2301728
370
    13
100
AcDb2dPolyline
 66
     1
 10
0.0
 20
0.0
 30
0.0
  0
VERTEX
  5
18E
330
18D
100
AcDbEntity
  8
Wood
 62
   250
420
  2301728
370
    13
100
AcDbVertex
100
AcDb2dVertex
 10
5.087649951398159
 20
5.477120555815544
 30
0.0
  0
VERTEX
  5
18F
330
18D
100
AcDbEntity
  8
Wood
 62
   250
420
  2301728
370
    13
100
AcDbVertex
100
AcDb2dVertex
 10
5.223318796312545
 20
5.565598701013969
 30
0.0
  0
SEQEND
  5
190
330
18D
100
AcDbEntity
  8
Wood
 62
   250
420
  2301728
370
    13
  0
POLYLINE
  5
191
330
1F
100
AcDbEntity
  8
Wood
 62
   250
420
  2301728
370
    13
100
AcDb2dPolyline
 66
     1
 10
0.0
 20
0.0
 30
0.0
  0
VERTEX
  5
192
330
191
100
AcDbEntity
  8
Wood
 62
   250
420
  2301728
370
    13
100
AcDbVertex
100
AcDb2dVertex
 10
5.085684598759977
 20
5.451560358021248
 30
0.0
  0
VERTEX
  5
193
330
191
100
AcDbEntity
  8
Wood
 62
   250
420
  2301728
370
    13
100
AcDbVertex
100
AcDb2dVertex
 10
5.229212576944645
 20
5.545933194862073
 30
0.0
  0
SEQEND
  5
194
330
191
100
AcDbEntity
  8
Wood
 62
   250
420
  2301728
370
    13
  0
POLYLINE
  5
195
330
1F
100
AcDbEntity
  8
Wood
 62
   250
420
  2301728
370
    13
100
AcDb2dPolyline
 66
     1
 10
0.0
 20
0.0
 30
0.0
  0
VERTEX
  5
196
330
195
100
AcDbEntity
  8
Wood
 62
   250
420
  2301728
370
    13
100
AcDbVertex
100
AcDb2dVertex
 10
5.087649951398159
 20
5.427964423420639
 30
0.0
  0
VERTEX
  5
197
330
195
100
AcDbEntity
  8
Wood
 62
   250
420
  2301728
370
    13
100
AcDbVertex
100
AcDb2dVertex
 10
5.235107348627808
 20
5.516443479629364
 30
0.0
  0
SEQEND
  5
198
330
195
100
AcDbEntity
  8
Wood
 62
   250
420
  2301728
370
    13
  0
POLYLINE
  5
199
330
1F
100
AcDbEntity
  8
Wood
 62
   250
420
  2301728
370
    13
100
AcDb2dPolyline
 66
     1
 10
0.0
 20
0.0
 30
0.0
  0
VERTEX
  5
19A
330
199
100
AcDbEntity
  8
Wood
 62
   250
420
  2301728
370
    13
100
AcDbVertex
100
AcDb2dVertex
 10
5.085684598759977
 20
5.398474708187905
 30
0.0
  0
VERTEX
  5
19B
330
199
100
AcDbEntity
  8
Wood
 62
   250
420
  2301728
370
    13
100
AcDbVertex
100
AcDb2dVertex
 10
5.276404446145888
 20
5.524311512963473
 30
0.0
  0
SEQEND
  5
19C
330
199
100
AcDbEntity
  8
Wood
 62
   250
420
  2301728
370
    13
  0
POLYLINE
  5
19D
330
1F
100
AcDbEntity
  8
Wood
 62
   250
420
  2301728
370
    13
100
AcDb2dPolyline
 66
     1
 10
0.0
 20
0.0
 30
0.0
  0
VERTEX
  5
19E
330
19D
100
AcDbEntity
  8
Wood
 62
   250
420
  2301728
370
    13
100
AcDbVertex
100
AcDb2dVertex
 10
5.085684598759977
 20
5.37488967514893
 30
0.0
  0
VERTEX
  5
19F
330
19D
100
AcDbEntity
  8
Wood
 62
   250
420
  2301728
370
    13
100
AcDbVertex
100
AcDb2dVertex
 10
5.301954837236861
 20
5.514478225384614
 30
0.0
  0
VERTEX
  5
1A0
330
19D
100
AcDbEntity
  8
Wood
 62
   250
420
  2301728
370
    13
100
AcDbVertex
100
AcDb2dVertex
 10
5.445482711614305
 20
5.530205214597824
 30
0.0
  0
SEQEND
  5
1A1
330
19D
100
AcDbEntity
  8
Wood
 62
   250
420
  2301728
370
    13
  0
POLYLINE
  5
1A2
330
1F
100
AcDbEntity
  8
Wood
 62
   250
420
  2301728
370
    13
100
AcDb2dPolyline
 66
     1
 10
0.0
 20
0.0
 30
0.0
  0
VERTEX
  5
1A3
330
1A2
100
AcDbEntity
  8
Wood
 62
   250
420
  2301728
370
    13
100
AcDbVertex
100
AcDb2dVertex
 10
5.101421498483735
 20
5.357187521180422
 30
0.0
  0
VERTEX
  5
1A4
330
1A2
100
AcDbEntity
  8
Wood
 62
   250
420
  2301728
370
    13
100
AcDbVertex
100
AcDb2dVertex
 10
5.288192007410089
 20
5.479084819009231
 30
0.0
  0
VERTEX
  5
1A5
330
1A2
100
AcDbEntity
  8
Wood
 62
   250
420
  2301728
370
    13
100
AcDbVertex
100
AcDb2dVertex
 10
5.447446974807993
 20
5.512513962190925
 30
0.0
  0
SEQEND
  5
1A6
330
1A2
100
AcDbEntity
  8
Wood
 62
   250
420
  2301728
370
    13
  0
POLYLINE
  5
1A7
330
1F
100
AcDbEntity
  8
Wood
 62
   250
420
  2301728
370
    13
100
AcDb2dPolyline
 66
     1
 10
0.0
 20
0.0
 30
0.0
  0
VERTEX
  5
1A8
330
1A7
100
AcDbEntity
  8
Wood
 62
   250
420
  2301728
370
    13
100
AcDbVertex
100
AcDb2dVertex
 10
5.193819170569264
 20
5.396510444994242
 30
0.0
  0
VERTEX
  5
1A9
330
1A7
100
AcDbEntity
  8
Wood
 62
   250
420
  2301728
370
    13
100
AcDbVertex
100
AcDb2dVertex
 10
5.272465018196903
 20
5.441737136862482
 30
0.0
  0
VERTEX
  5
1AA
330
1A7
100
AcDbEntity
  8
Wood
 62
   250
420
  2301728
370
    13
100
AcDbVertex
100
AcDb2dVertex
 10
5.35110987477348
 20
5.459428312357608
 30
0.0
  0
SEQEND
  5
1AB
330
1A7
100
AcDbEntity
  8
Wood
 62
   250
420
  2301728
370
    13
  0
POLYLINE
  5
1AC
330
1F
100
AcDbEntity
  8
Wood
 62
   250
420
  2301728
370
    13
100
AcDb2dPolyline
 66
     1
 10
0.0
 20
0.0
 30
0.0
  0
VERTEX
  5
1AD
330
1AC
100
AcDbEntity
  8
Wood
 62
   250
420
  2301728
370
    13
100
AcDbVertex
100
AcDb2dVertex
 10
5.309822687765973
 20
5.543967940617348
 30
0.0
  0
VERTEX
  5
1AE
330
1AC
100
AcDbEntity
  8
Wood
 62
   250
420
  2301728
370
    13
100
AcDbVertex
100
AcDb2dVertex
 10
5.331453368121831
 20
5.559694929830534
 30
0.0
  0
VERTEX
  5
1AF
330
1AC
100
AcDbEntity
  8
Wood
 62
   250
420
  2301728
370
    13
100
AcDbVertex
100
AcDb2dVertex
 10
5.447446974807993
 20
5.553801149198433
 30
0.0
  0
SEQEND
  5
1B0
330
1AC
100
AcDbEntity
  8
Wood
 62
   250
420
  2301728
370
    13
  0
POLYLINE
  5
1B1
330
1F
100
AcDbEntity
  8
Wood
 62
   250
420
  2301728
370
    13
100
AcDb2dPolyline
 66
     1
 10
0.0
 20
0.0
 30
0.0
  0
VERTEX
  5
1B2
330
1B1
100
AcDbEntity
  8
Wood
 62
   250
420
  2301728
370
    13
100
AcDbVertex
100
AcDb2dVertex
 10
5.31769163315337
 20
5.581325610186417
 30
0.0
  0
VERTEX
  5
1B3
330
1B1
100
AcDbEntity
  8
Wood
 62
   250
420
  2301728
370
    13
100
AcDbVertex
100
AcDb2dVertex
 10
5.347181348386104
 20
5.604921544787026
 30
0.0
  0
VERTEX
  5
1B4
330
1B1
100
AcDbEntity
  8
Wood
 62
   250
420
  2301728
370
    13
100
AcDbVertex
100
AcDb2dVertex
 10
5.449412229052718
 20
5.58525512762483
 30
0.0
  0
SEQEND
  5
1B5
330
1B1
100
AcDbEntity
  8
Wood
 62
   250
420
  2301728
370
    13
  0
POLYLINE
  5
1B6
330
1F
100
AcDbEntity
  8
Wood
 62
   250
420
  2301728
370
    13
100
AcDb2dPolyline
 66
     1
 10
0.0
 20
0.0
 30
0.0
  0
VERTEX
  5
1B7
330
1B6
100
AcDbEntity
  8
Wood
 62
   250
420
  2301728
370
    13
100
AcDbVertex
100
AcDb2dVertex
 10
5.323585413785495
 20
5.618684270806549
 30
0.0
  0
VERTEX
  5
1B8
330
1B6
100
AcDbEntity
  8
Wood
 62
   250
420
  2301728
370
    13
100
AcDbVertex
100
AcDb2dVertex
 10
5.37077629193565
 20
5.648173986039258
 30
0.0
  0
VERTEX
  5
1B9
330
1B6
100
AcDbEntity
  8
Wood
 62
   250
420
  2301728
370
    13
100
AcDbVertex
100
AcDb2dVertex
 10
5.449412229052718
 20
5.628507568877075
 30
0.0
  0
SEQEND
  5
1BA
330
1B6
100
AcDbEntity
  8
Wood
 62
   250
420
  2301728
370
    13
  0
POLYLINE
  5
1BB
330
1F
100
AcDbEntity
  8
Wood
 62
   250
420
  2301728
370
    13
100
AcDb2dPolyline
 66
     1
 10
0.0
 20
0.0
 30
0.0
  0
VERTEX
  5
1BC
330
1BB
100
AcDbEntity
  8
Wood
 62
   250
420
  2301728
370
    13
100
AcDbVertex
100
AcDb2dVertex
 10
5.325549676979159
 20
5.642270294896585
 30
0.0
  0
VERTEX
  5
1BD
330
1BB
100
AcDbEntity
  8
Wood
 62
   250
420
  2301728
370
    13
100
AcDbVertex
100
AcDb2dVertex
 10
5.386503281148862
 20
5.685531655608328
 30
0.0
  0
VERTEX
  5
1BE
330
1BB
100
AcDbEntity
  8
Wood
 62
   250
420
  2301728
370
    13
100
AcDbVertex
100
AcDb2dVertex
 10
5.447446974807993
 20
5.681592227659343
 30
0.0
  0
SEQEND
  5
1BF
330
1BB
100
AcDbEntity
  8
Wood
 62
   250
420
  2301728
370
    13
  0
POLYLINE
  5
1C0
330
1F
100
AcDbEntity
  8
Wood
 62
   250
420
  2301728
370
    13
100
AcDb2dPolyline
 66
     1
 10
0.0
 20
0.0
 30
0.0
  0
VERTEX
  5
1C1
330
1C0
100
AcDbEntity
  8
Wood
 62
   250
420
  2301728
370
    13
100
AcDbVertex
100
AcDb2dVertex
 10
5.08175508132154
 20
7.052001771561789
 30
0.0
  0
VERTEX
  5
1C2
330
1C0
100
AcDbEntity
  8
Wood
 62
   250
420
  2301728
370
    13
100
AcDbVertex
100
AcDb2dVertex
 10
5.282298226777988
 20
7.13851061827049
 30
0.0
  0
SEQEND
  5
1C3
330
1C0
100
AcDbEntity
  8
Wood
 62
   250
420
  2301728
370
    13
  0
POLYLINE
  5
1C4
330
1F
100
AcDbEntity
  8
Wood
 62
   250
420
  2301728
370
    13
100
AcDb2dPolyline
 66
     1
 10
0.0
 20
0.0
 30
0.0
  0
VERTEX
  5
1C5
330
1C4
100
AcDbEntity
  8
Wood
 62
   250
420
  2301728
370
    13
100
AcDbVertex
100
AcDb2dVertex
 10
5.08175508132154
 20
7.024476319522755
 30
0.0
  0
VERTEX
  5
1C6
330
1C4
100
AcDbEntity
  8
Wood
 62
   250
420
  2301728
370
    13
100
AcDbVertex
100
AcDb2dVertex
 10
5.357013565916128
 20
7.152272353238963
 30
0.0
  0
VERTEX
  5
1C7
330
1C4
100
AcDbEntity
  8
Wood
 62
   250
420
  2301728
370
    13
100
AcDbVertex
100
AcDb2dVertex
 10
5.445482711614305
 20
7.168004297707435
 30
0.0
  0
SEQEND
  5
1C8
330
1C4
100
AcDbEntity
  8
Wood
 62
   250
420
  2301728
370
    13
  0
POLYLINE
  5
1C9
330
1F
100
AcDbEntity
  8
Wood
 62
   250
420
  2301728
370
    13
100
AcDb2dPolyline
 66
     1
 10
0.0
 20
0.0
 30
0.0
  0
VERTEX
  5
1CA
330
1C9
100
AcDbEntity
  8
Wood
 62
   250
420
  2301728
370
    13
100
AcDbVertex
100
AcDb2dVertex
 10
5.08175508132154
 20
6.991052131596322
 30
0.0
  0
VERTEX
  5
1CB
330
1C9
100
AcDbEntity
  8
Wood
 62
   250
420
  2301728
370
    13
100
AcDbVertex
100
AcDb2dVertex
 10
5.355039392211893
 20
7.128682364944678
 30
0.0
  0
VERTEX
  5
1CC
330
1C9
100
AcDbEntity
  8
Wood
 62
   250
420
  2301728
370
    13
100
AcDbVertex
100
AcDb2dVertex
 10
5.447446974807993
 20
7.142444099913139
 30
0.0
  0
SEQEND
  5
1CD
330
1C9
100
AcDbEntity
  8
Wood
 62
   250
420
  2301728
370
    13
  0
POLYLINE
  5
1CE
330
1F
100
AcDbEntity
  8
Wood
 62
   250
420
  2301728
370
    13
100
AcDb2dPolyline
 66
     1
 10
0.0
 20
0.0
 30
0.0
  0
VERTEX
  5
1CF
330
1CE
100
AcDbEntity
  8
Wood
 62
   250
420
  2301728
370
    13
100
AcDbVertex
100
AcDb2dVertex
 10
5.08175508132154
 20
6.949764944588828
 30
0.0
  0
VERTEX
  5
1D0
330
1CE
100
AcDbEntity
  8
Wood
 62
   250
420
  2301728
370
    13
100
AcDbVertex
100
AcDb2dVertex
 10
5.343251935798182
 20
7.101156912905644
 30
0.0
  0
VERTEX
  5
1D1
330
1CE
100
AcDbEntity
  8
Wood
 62
   250
420
  2301728
370
    13
100
AcDbVertex
100
AcDb2dVertex
 10
5.447446974807993
 20
7.114919638925155
 30
0.0
  0
SEQEND
  5
1D2
330
1CE
100
AcDbEntity
  8
Wood
 62
   250
420
  2301728
370
    13
  0
POLYLINE
  5
1D3
330
1F
100
AcDbEntity
  8
Wood
 62
   250
420
  2301728
370
    13
100
AcDb2dPolyline
 66
     1
 10
0.0
 20
0.0
 30
0.0
  0
VERTEX
  5
1D4
330
1D3
100
AcDbEntity
  8
Wood
 62
   250
420
  2301728
370
    13
100
AcDbVertex
100
AcDb2dVertex
 10
5.270800052422222
 20
7.027897427769264
 30
0.0
  0
VERTEX
  5
1D5
330
1D3
100
AcDbEntity
  8
Wood
 62
   250
420
  2301728
370
    13
100
AcDbVertex
100
AcDb2dVertex
 10
5.353075129018205
 20
7.075596715111335
 30
0.0
  0
VERTEX
  5
1D6
330
1D3
100
AcDbEntity
  8
Wood
 62
   250
420
  2301728
370
    13
100
AcDbVertex
100
AcDb2dVertex
 10
5.447446974807993
 20
7.083460705243472
 30
0.0
  0
SEQEND
  5
1D7
330
1D3
100
AcDbEntity
  8
Wood
 62
   250
420
  2301728
370
    13
  0
POLYLINE
  5
1D8
330
1F
100
AcDbEntity
  8
Wood
 62
   250
420
  2301728
370
    13
100
AcDb2dPolyline
 66
     1
 10
0.0
 20
0.0
 30
0.0
  0
VERTEX
  5
1D9
330
1D8
100
AcDbEntity
  8
Wood
 62
   250
420
  2301728
370
    13
100
AcDbVertex
100
AcDb2dVertex
 10
5.08175508132154
 20
6.918306010907145
 30
0.0
  0
VERTEX
  5
1DA
330
1D8
100
AcDbEntity
  8
Wood
 62
   250
420
  2301728
370
    13
100
AcDbVertex
100
AcDb2dVertex
 10
5.232599989455265
 20
7.005753382966203
 30
0.0
  0
SEQEND
  5
1DB
330
1D8
100
AcDbEntity
  8
Wood
 62
   250
420
  2301728
370
    13
  0
POLYLINE
  5
1DC
330
1F
100
AcDbEntity
  8
Wood
 62
   250
420
  2301728
370
    13
100
AcDb2dPolyline
 66
     1
 10
0.0
 20
0.0
 30
0.0
  0
VERTEX
  5
1DD
330
1DC
100
AcDbEntity
  8
Wood
 62
   250
420
  2301728
370
    13
100
AcDbVertex
100
AcDb2dVertex
 10
5.08372033556629
 20
6.88881629567441
 30
0.0
  0
VERTEX
  5
1DE
330
1DC
100
AcDbEntity
  8
Wood
 62
   250
420
  2301728
370
    13
100
AcDbVertex
100
AcDb2dVertex
 10
5.227248313750983
 20
6.973360879189435
 30
0.0
  0
SEQEND
  5
1DF
330
1DC
100
AcDbEntity
  8
Wood
 62
   250
420
  2301728
370
    13
  0
POLYLINE
  5
1E0
330
1F
100
AcDbEntity
  8
Wood
 62
   250
420
  2301728
370
    13
100
AcDb2dPolyline
 66
     1
 10
0.0
 20
0.0
 30
0.0
  0
VERTEX
  5
1E1
330
1E0
100
AcDbEntity
  8
Wood
 62
   250
420
  2301728
370
    13
100
AcDbVertex
100
AcDb2dVertex
 10
5.08175508132154
 20
6.873089306461225
 30
0.0
  0
VERTEX
  5
1E2
330
1E0
100
AcDbEntity
  8
Wood
 62
   250
420
  2301728
370
    13
100
AcDbVertex
100
AcDb2dVertex
 10
5.215450841976184
 20
6.932068736926655
 30
0.0
  0
SEQEND
  5
1E3
330
1E0
100
AcDbEntity
  8
Wood
 62
   250
420
  2301728
370
    13
  0
POLYLINE
  5
1E4
330
1F
100
AcDbEntity
  8
Wood
 62
   250
420
  2301728
370
    13
100
AcDb2dPolyline
 66
     1
 10
0.0
 20
0.0
 30
0.0
  0
VERTEX
  5
1E5
330
1E4
100
AcDbEntity
  8
Wood
 62
   250
420
  2301728
370
    13
100
AcDbVertex
100
AcDb2dVertex
 10
5.17416266391764
 20
6.88881629567441
 30
0.0
  0
VERTEX
  5
1E6
330
1E4
100
AcDbEntity
  8
Wood
 62
   250
420
  2301728
370
    13
100
AcDbVertex
100
AcDb2dVertex
 10
5.22134462260831
 20
6.912407389083783
 30
0.0
  0
SEQEND
  5
1E7
330
1E4
100
AcDbEntity
  8
Wood
 62
   250
420
  2301728
370
    13
  0
POLYLINE
  5
1E8
330
1F
100
AcDbEntity
  8
Wood
 62
   250
420
  2301728
370
    13
100
AcDb2dPolyline
 66
     1
 10
0.0
 20
0.0
 30
0.0
  0
VERTEX
  5
1E9
330
1E8
100
AcDbEntity
  8
Wood
 62
   250
420
  2301728
370
    13
100
AcDbVertex
100
AcDb2dVertex
 10
5.313752205204385
 20
7.022512056329067
 30
0.0
  0
VERTEX
  5
1EA
330
1E8
100
AcDbEntity
  8
Wood
 62
   250
420
  2301728
370
    13
100
AcDbVertex
100
AcDb2dVertex
 10
5.36290833759929
 20
7.048072371614567
 30
0.0
  0
VERTEX
  5
1EB
330
1E8
100
AcDbEntity
  8
Wood
 62
   250
420
  2301728
370
    13
100
AcDbVertex
100
AcDb2dVertex
 10
5.451386402756977
 20
7.050036517317039
 30
0.0
  0
SEQEND
  5
1EC
330
1E8
100
AcDbEntity
  8
Wood
 62
   250
420
  2301728
370
    13
  0
POLYLINE
  5
1ED
330
1F
100
AcDbEntity
  8
Wood
 62
   250
420
  2301728
370
    13
100
AcDb2dPolyline
 66
     1
 10
0.0
 20
0.0
 30
0.0
  0
VERTEX
  5
1EE
330
1ED
100
AcDbEntity
  8
Wood
 62
   250
420
  2301728
370
    13
100
AcDbVertex
100
AcDb2dVertex
 10
5.31769163315337
 20
7.00088534017742
 30
0.0
  0
VERTEX
  5
1EF
330
1ED
100
AcDbEntity
  8
Wood
 62
   250
420
  2301728
370
    13
100
AcDbVertex
100
AcDb2dVertex
 10
5.380599590006189
 20
7.026440582716431
 30
0.0
  0
VERTEX
  5
1F0
330
1ED
100
AcDbEntity
  8
Wood
 62
   250
420
  2301728
370
    13
100
AcDbVertex
100
AcDb2dVertex
 10
5.443518448420617
 20
7.026440582716431
 30
0.0
  0
SEQEND
  5
1F1
330
1ED
100
AcDbEntity
  8
Wood
 62
   250
420
  2301728
370
    13
  0
POLYLINE
  5
1F2
330
1F
100
AcDbEntity
  8
Wood
 62
   250
420
  2301728
370
    13
100
AcDb2dPolyline
 66
     1
 10
0.0
 20
0.0
 30
0.0
  0
VERTEX
  5
1F3
330
1F2
100
AcDbEntity
  8
Wood
 62
   250
420
  2301728
370
    13
100
AcDbVertex
100
AcDb2dVertex
 10
5.327514931223909
 20
6.971391660740474
 30
0.0
  0
VERTEX
  5
1F4
330
1F2
100
AcDbEntity
  8
Wood
 62
   250
420
  2301728
370
    13
100
AcDbVertex
100
AcDb2dVertex
 10
5.408125042045236
 20
6.998916237977873
 30
0.0
  0
VERTEX
  5
1F5
330
1F2
100
AcDbEntity
  8
Wood
 62
   250
420
  2301728
370
    13
100
AcDbVertex
100
AcDb2dVertex
 10
5.447446974807993
 20
6.994986604290034
 30
0.0
  0
SEQEND
  5
1F6
330
1F2
100
AcDbEntity
  8
Wood
 62
   250
420
  2301728
370
    13
  0
POLYLINE
  5
1F7
330
1F
100
AcDbEntity
  8
Wood
 62
   250
420
  2301728
370
    13
100
AcDb2dPolyline
 66
     1
 10
0.0
 20
0.0
 30
0.0
  0
VERTEX
  5
1F8
330
1F7
100
AcDbEntity
  8
Wood
 62
   250
420
  2301728
370
    13
100
AcDbVertex
100
AcDb2dVertex
 10
5.325549676979159
 20
6.947800681395139
 30
0.0
  0
VERTEX
  5
1F9
330
1F7
100
AcDbEntity
  8
Wood
 62
   250
420
  2301728
370
    13
100
AcDbVertex
100
AcDb2dVertex
 10
5.429755722401094
 20
6.983189132515248
 30
0.0
  0
VERTEX
  5
1FA
330
1F7
100
AcDbEntity
  8
Wood
 62
   250
420
  2301728
370
    13
100
AcDbVertex
100
AcDb2dVertex
 10
5.449412229052718
 20
6.977290396627861
 30
0.0
  0
SEQEND
  5
1FB
330
1F7
100
AcDbEntity
  8
Wood
 62
   250
420
  2301728
370
    13
  0
INSERT
  5
1FE
330
1F
100
AcDbEntity
  8
Web Stiffener
100
AcDbBlockReference
  2
block 5
 10
0.0
 20
0.0
 30
0.0
  0
INSERT
  5
23E
330
1F
100
AcDbEntity
  8
BA
100
AcDbBlockReference
  2
block 7
 10
0.0
 20
0.0
 30
0.0
  0
MTEXT
  5
37A
330
1F
100
AcDbEntity
  8
callout
 62
   250
420
  2301728
100
AcDbMText
 10
3.627192179361979
 20
4.851335896386041
 30
0.0
 40
0.118
 41
0.0
 46
0.0
 71
     7
 72
     1
  1
\fHelvetica Neue LT Std 55 Roman|b0|i0|c0|p34;\W1;SIMPSON Strong-Tie\H0.068794;®\H0.118; ^C
 73
     1
 44
1.0
  0
MTEXT
  5
37B
330
1F
100
AcDbEntity
  8
callout
 62
   250
420
  2301728
100
AcDbMText
 10
3.201655069986979
 20
4.651330471038818
 30
0.0
 40
0.118
 41
0.0
 46
0.0
 71
     7
 72
     1
  1
\fHelvetica Neue LT Std 55 Roman|b0|i0|c0|p34;\W1;BA Top Fix I-Joist Installation with 
 73
     1
 44
1.0
  0
MTEXT
  5
37C
330
1F
100
AcDbEntity
  8
callout
 62
   250
420
  2301728
100
AcDbMText
 10
3.919306437174479
 20
4.451325045691596
 30
0.0
 40
0.118
 41
0.0
 46
0.0
 71
     7
 72
     1
  1
\fHelvetica Neue LT Std 55 Roman|b0|i0|c0|p34;\W1;Web Stiffeners
 73
     1
 44
1.0
  0
INSERT
  5
37E
330
1F
100
AcDbEntity
  8
callout
100
AcDbBlockReference
  2
block 24
 10
0.0
 20
0.0
 30
0.0
  0
MTEXT
  5
38C
330
1F
100
AcDbEntity
  8
callout
 62
   250
420
  2301728
100
AcDbMText
 10
3.600135061475966
 20
5.292179107666016
 30
0.0
 40
0.1081666666666666
 41
0.0
 46
0.0
 71
     7
 72
     1
  1
\fHelvetica Neue LT Std 57 Condensed|b0|i0|c0|p34;\W1;Web Stiffener
 73
     1
 44
1.0
  0
MTEXT
  5
38D
330
1F
100
AcDbEntity
  8
callout
 62
   250
420
  2236191
100
AcDbMText
 10
3.03365961710612
 20
7.703496297200521
 30
0.0
 40
0.118
 41
0.0
 46
0.0
 71
     7
 72
     1
  1
\fHelvetica Neue LT Std 57 Condensed|b0|i0|c0|p34;\W1;BA1.81/11.88
 73
     1
 44
1.0
  0
MTEXT
  5
38E
330
1F
100
AcDbEntity
  8
callout
 62
   250
420
  2236191
100
AcDbMText
 10
4.520061704847548
 20
5.292179756694369
 30
0.0
 40
0.118
 41
0.0
 46
0.0
 71
     7
 72
     1
  1
\fHelvetica Neue LT Std 57 Condensed|b0|i0|c0|p34;\W1;I-Joist
 73
     1
 44
1.0
  0
POLYLINE
  5
38F
330
1F
100
AcDbEntity
  8
callout
 62
   250
420
  2236191
370
    18
100
AcDb2dPolyline
 66
     1
 10
0.0
 20
0.0
 30
0.0
  0
VERTEX
  5
390
330
38F
100
AcDbEntity
  8
callout
 62
   250
420
  2236191
370
    18
100
AcDbVertex
100
AcDb2dVertex
 10
3.500878692822173
 20
7.677963050478966
 30
0.0
  0
VERTEX
  5
391
330
38F
100
AcDbEntity
  8
callout
 62
   250
420
  2236191
370
    18
100
AcDbVertex
100
AcDb2dVertex
 10
3.849692577276869
 20
7.450224945369655
 30
0.0
  0
SEQEND
  5
392
330
38F
100
AcDbEntity
  8
callout
 62
   250
420
  2236191
370
    18
  0
POLYLINE
  5
393
330
1F
100
AcDbEntity
  8
callout
 62
   250
420
  2236191
370
    18
100
AcDb2dPolyline
 66
     1
 10
0.0
 20
0.0
 30
0.0
  0
VERTEX
  5
394
330
393
100
AcDbEntity
  8
callout
 62
   250
420
  2236191
370
    18
100
AcDbVertex
100
AcDb2dVertex
 10
4.632616487455203
 20
5.434850741685674
 30
0.0
  0
VERTEX
  5
395
330
393
100
AcDbEntity
  8
callout
 62
   250
420
  2236191
370
    18
100
AcDbVertex
100
AcDb2dVertex
 10
4.611790212507988
 20
5.622693134453812
 30
0.0
  0
SEQEND
  5
396
330
393
100
AcDbEntity
  8
callout
 62
   250
420
  2236191
370
    18
  0
ENDSEC
  0
SECTION
  2
OBJECTS
  0
DICTIONARY
  5
C
330
0
100
AcDbDictionary
281
     1
  3
ACAD_GROUP
350
D
  3
ACAD_LAYOUT
350
1A
  3
ACAD_MATERIAL
350
3B
  3
ACAD_MLEADERSTYLE
350
39B
  3
ACAD_MLINESTYLE
350
17
  3
ACAD_PLOTSETTINGS
350
19
  3
ACAD_PLOTSTYLENAME
350
E
  3
ACAD_TABLESTYLE
350
39A
  3
ACAD_VISUALSTYLE
350
2A
  0
SUN
  5
3F
330
29
100
AcDbSun
 90
        1
290
     0
 63
     7
421
 16777215
 40
1.0
291
     1
 91
  2455826
 92
 54000000
292
     0
 70
     2
 71
   256
280
     1
  0
DICTIONARY
  5
D
102
{ACAD_REACTORS
330
C
102
}
330
C
100
AcDbDictionary
281
     1
  0
DICTIONARY
  5
1A
102
{ACAD_REACTORS
330
C
102
}
330
C
100
AcDbDictionary
281
     1
  3
Layout1
350
1E
  3
Layout2
350
26
  3
Model
350
22
  0
DICTIONARY
  5
3B
102
{ACAD_REACTORS
330
C
102
}
330
C
100
AcDbDictionary
281
     1
  3
ByBlock
350
3D
  3
ByLayer
350
3C
  3
Global
350
3E
  0
DICTIONARY
  5
39B
102
{ACAD_REACTORS
330
C
102
}
330
C
100
AcDbDictionary
281
     1
  0
DICTIONARY
  5
17
102
{ACAD_REACTORS
330
C
102
}
330
C
100
AcDbDictionary
281
     1
  3
Standard
350
18
  0
DICTIONARY
  5
19
102
{ACAD_REACTORS
330
C
102
}
330
C
100
AcDbDictionary
281
     1
  0
ACDBDICTIONARYWDFLT
  5
E
102
{ACAD_REACTORS
330
C
102
}
330
C
100
AcDbDictionary
281
     1
  3
Normal
350
F
100
AcDbDictionaryWithDefault
340
F
  0
DICTIONARY
  5
39A
102
{ACAD_REACTORS
330
C
102
}
330
C
100
AcDbDictionary
281
     1
  0
DICTIONARY
  5
2A
102
{ACAD_REACTORS
330
C
102
}
330
C
100
AcDbDictionary
281
     1
  3
2dWireframe
350
2F
  3
3D Hidden
350
31
  3
3dWireframe
350
30
  3
Basic
350
32
  3
Brighten
350
36
  3
ColorChange
350
3A
  3
Conceptual
350
34
  3
Dim
350
35
  3
Facepattern
350
39
  3
Flat
350
2B
  3
FlatWithEdges
350
2C
  3
Gouraud
350
2D
  3
GouraudWithEdges
350
2E
  3
Linepattern
350
38
  3
Realistic
350
33
  3
Thicken
350
37
  0
LAYOUT
  5
1E
102
{ACAD_REACTORS
330
1A
102
}
330
1A
100
AcDbPlotSettings
  1

  2
none_device
  4

  6

 40
0.0
 41
0.0
 42
0.0
 43
0.0
 44
0.0
 45
0.0
 46
0.0
 47
0.0
 48
0.0
 49
0.0
140
0.0
141
0.0
142
1.0
143
1.0
 70
   688
 72
     0
 73
     0
 74
     5
  7

 75
    16
 76
     0
 77
     2
 78
   300
147
1.0
148
0.0
149
0.0
100
AcDbLayout
  1
Layout1
 70
     1
 71
     1
 10
0.0
 20
0.0
 11
12.0
 21
9.0
 12
0.0
 22
0.0
 32
0.0
 14
1.000000000000000E+20
 24
1.000000000000000E+20
 34
1.000000000000000E+20
 15
-1.000000000000000E+20
 25
-1.000000000000000E+20
 35
-1.000000000000000E+20
146
0.0
 13
0.0
 23
0.0
 33
0.0
 16
1.0
 26
0.0
 36
0.0
 17
0.0
 27
1.0
 37
0.0
 76
     0
330
1B
  0
LAYOUT
  5
26
102
{ACAD_REACTORS
330
1A
102
}
330
1A
100
AcDbPlotSettings
  1

  2
none_device
  4

  6

 40
0.0
 41
0.0
 42
0.0
 43
0.0
 44
0.0
 45
0.0
 46
0.0
 47
0.0
 48
0.0
 49
0.0
140
0.0
141
0.0
142
1.0
143
1.0
 70
   688
 72
     0
 73
     0
 74
     5
  7

 75
    16
 76
     0
 77
     2
 78
   300
147
1.0
148
0.0
149
0.0
100
AcDbLayout
  1
Layout2
 70
     1
 71
     2
 10
0.0
 20
0.0
 11
0.0
 21
0.0
 12
0.0
 22
0.0
 32
0.0
 14
0.0
 24
0.0
 34
0.0
 15
0.0
 25
0.0
 35
0.0
146
0.0
 13
0.0
 23
0.0
 33
0.0
 16
1.0
 26
0.0
 36
0.0
 17
0.0
 27
1.0
 37
0.0
 76
     0
330
23
  0
LAYOUT
  5
22
102
{ACAD_REACTORS
330
1A
102
}
330
1A
100
AcDbPlotSettings
  1

  2
none_device
  4

  6

 40
0.0
 41
0.0
 42
0.0
 43
0.0
 44
0.0
 45
0.0
 46
0.0
 47
0.0
 48
0.0
 49
0.0
140
0.0
141
0.0
142
1.0
143
1.0
 70
  1712
 72
     0
 73
     0
 74
     0
  7

 75
     0
 76
     0
 77
     2
 78
   300
147
1.0
148
0.0
149
0.0
100
AcDbLayout
  1
Model
 70
     1
 71
     0
 10
0.0
 20
0.0
 11
12.0
 21
9.0
 12
0.0
 22
0.0
 32
0.0
 14
1.000000000000000E+20
 24
1.000000000000000E+20
 34
1.000000000000000E+20
 15
-1.000000000000000E+20
 25
-1.000000000000000E+20
 35
-1.000000000000000E+20
146
0.0
 13
0.0
 23
0.0
 33
0.0
 16
1.0
 26
0.0
 36
0.0
 17
0.0
 27
1.0
 37
0.0
 76
     0
330
1F
331
29
  0
MATERIAL
  5
3D
102
{ACAD_REACTORS
330
3B
102
}
330
3B
100
AcDbMaterial
  1
ByBlock
 72
     1
 94
      127
  0
MATERIAL
  5
3C
102
{ACAD_REACTORS
330
3B
102
}
330
3B
100
AcDbMaterial
  1
ByLayer
 72
     1
 94
      127
  0
MATERIAL
  5
3E
102
{ACAD_REACTORS
330
3B
102
}
330
3B
100
AcDbMaterial
  1
Global
 72
     1
 94
      127
  0
MLINESTYLE
  5
18
102
{ACAD_REACTORS
330
17
102
}
330
17
100
AcDbMlineStyle
  2
Standard
 70
     0
  3

 62
   256
 51
90.0
 52
90.0
 71
     2
 49
0.5
 62
   256
  6
BYLAYER
 49
-0.5
 62
   256
  6
BYLAYER
  0
ACDBPLACEHOLDER
  5
F
102
{ACAD_REACTORS
330
E
102
}
330
E
  0
VISUALSTYLE
  5
2F
102
{ACAD_REACTORS
330
2A
102
}
330
2A
100
AcDbVisualStyle
  2
2dWireframe
 70
     4
177
     2
291
     0
 71
     0
176
     1
 72
     2
176
     1
 73
     0
176
     1
 90
        0
176
     1
 40
-0.6
176
     1
 41
-30.0
176
     1
 62
     5
 63
     7
421
 16777215
176
     1
 74
     1
176
     1
 91
        4
176
     1
 64
     7
176
     1
 65
   257
176
     1
 75
     1
176
     1
175
     1
176
     1
 42
1.0
176
     1
 92
        0
176
     1
 66
   257
176
     1
 43
1.0
176
     1
 76
     1
176
     1
 77
     6
176
     1
 78
     2
176
     1
 67
     7
176
     1
 79
     5
176
     1
170
     0
176
     1
171
     0
176
     1
290
     0
176
     1
 93
        1
176
     1
 44
0.0
176
     1
173
     0
176
     1
  0
VISUALSTYLE
  5
31
102
{ACAD_REACTORS
330
2A
102
}
330
2A
100
AcDbVisualStyle
  2
3D Hidden
 70
     6
177
     2
291
     0
 71
     1
176
     1
 72
     2
176
     1
 73
     2
176
     1
 90
        0
176
     1
 40
-0.6
176
     1
 41
-30.0
176
     1
 62
     5
 63
     7
421
 16777215
176
     1
 74
     2
176
     1
 91
        2
176
     1
 64
     7
176
     1
 65
   257
176
     1
 75
     2
176
     1
175
     1
176
     1
 42
40.0
176
     1
 92
        0
176
     1
 66
   257
176
     1
 43
1.0
176
     1
 76
     1
176
     1
 77
     6
176
     1
 78
     2
176
     1
 67
     7
176
     1
 79
     3
176
     1
170
     0
176
     1
171
     0
176
     1
290
     0
176
     1
 93
        1
176
     1
 44
0.0
176
     1
173
     0
176
     1
  0
VISUALSTYLE
  5
30
102
{ACAD_REACTORS
330
2A
102
}
330
2A
100
AcDbVisualStyle
  2
3dWireframe
 70
     5
177
     2
291
     0
 71
     0
176
     1
 72
     2
176
     1
 73
     0
176
     1
 90
        0
176
     1
 40
-0.6
176
     1
 41
-30.0
176
     1
 62
     5
 63
     7
421
 16777215
176
     1
 74
     1
176
     1
 91
        4
176
     1
 64
     7
176
     1
 65
   257
176
     1
 75
     1
176
     1
175
     1
176
     1
 42
1.0
176
     1
 92
        0
176
     1
 66
   257
176
     1
 43
1.0
176
     1
 76
     1
176
     1
 77
     6
176
     1
 78
     2
176
     1
 67
     7
176
     1
 79
     5
176
     1
170
     0
176
     1
171
     0
176
     1
290
     0
176
     1
 93
        1
176
     1
 44
0.0
176
     1
173
     0
176
     1
  0
VISUALSTYLE
  5
32
102
{ACAD_REACTORS
330
2A
102
}
330
2A
100
AcDbVisualStyle
  2
Basic
 70
     7
177
     2
291
     1
 71
     1
176
     1
 72
     0
176
     1
 73
     1
176
     1
 90
        0
176
     1
 40
-0.6
176
     1
 41
-30.0
176
     1
 62
     5
 63
     7
421
 16777215
176
     1
 74
     0
176
     1
 91
        4
176
     1
 64
     7
176
     1
 65
   257
176
     1
 75
     1
176
     1
175
     1
176
     1
 42
1.0
176
     1
 92
        8
176
     1
 66
     7
176
     1
 43
1.0
176
     1
 76
     1
176
     1
 77
     6
176
     1
 78
     2
176
     1
 67
     7
176
     1
 79
     5
176
     1
170
     0
176
     1
171
     0
176
     1
290
     0
176
     1
 93
        1
176
     1
 44
0.0
176
     1
173
     0
176
     1
  0
VISUALSTYLE
  5
36
102
{ACAD_REACTORS
330
2A
102
}
330
2A
100
AcDbVisualStyle
  2
Brighten
 70
    12
177
     2
291
     1
 71
     2
176
     1
 72
     2
176
     1
 73
     0
176
     1
 90
        0
176
     1
 40
-0.6
176
     1
 41
-30.0
176
     1
 62
     5
 63
     7
421
 16777215
176
     1
 74
     1
176
     1
 91
        4
176
     1
 64
     7
176
     1
 65
   257
176
     1
 75
     1
176
     1
175
     1
176
     1
 42
1.0
176
     1
 92
        8
176
     1
 66
     7
176
     1
 43
1.0
176
     1
 76
     1
176
     1
 77
     6
176
     1
 78
     2
176
     1
 67
     7
176
     1
 79
     5
176
     1
170
     0
176
     1
171
     0
176
     1
290
     0
176
     1
 93
        1
176
     1
 44
50.0
176
     1
173
     0
176
     1
  0
VISUALSTYLE
  5
3A
102
{ACAD_REACTORS
330
2A
102
}
330
2A
100
AcDbVisualStyle
  2
ColorChange
 70
    16
177
     2
291
     1
 71
     2
176
     1
 72
     2
176
     1
 73
     3
176
     1
 90
        0
176
     1
 40
-0.6
176
     1
 41
-30.0
176
     1
 62
     5
 63
     8
421
  8421504
176
     1
 74
     1
176
     1
 91
        4
176
     1
 64
     7
176
     1
 65
   257
176
     1
 75
     1
176
     1
175
     1
176
     1
 42
1.0
176
     1
 92
        8
176
     1
 66
     8
424
  8421504
176
     1
 43
1.0
176
     1
 76
     1
176
     1
 77
     6
176
     1
 78
     2
176
     1
 67
     7
176
     1
 79
     5
176
     1
170
     0
176
     1
171
     0
176
     1
290
     0
176
     1
 93
        1
176
     1
 44
0.0
176
     1
173
     0
176
     1
  0
VISUALSTYLE
  5
34
102
{ACAD_REACTORS
330
2A
102
}
330
2A
100
AcDbVisualStyle
  2
Conceptual
 70
     9
177
     2
291
     0
 71
     3
176
     1
 72
     2
176
     1
 73
     0
176
     1
 90
        0
176
     1
 40
-0.6
176
     1
 41
-30.0
176
     1
 62
     5
 63
     7
421
 16777215
176
     1
 74
     2
176
     1
 91
        2
176
     1
 64
     7
176
     1
 65
   257
176
     1
 75
     1
176
     1
175
     1
176
     1
 42
40.0
176
     1
 92
        8
176
     1
 66
     7
176
     1
 43
1.0
176
     1
 76
     1
176
     1
 77
     6
176
     1
 78
     2
176
     1
 67
     7
176
     1
 79
     3
176
     1
170
     0
176
     1
171
     0
176
     1
290
     0
176
     1
 93
        1
176
     1
 44
0.0
176
     1
173
     0
176
     1
  0
VISUALSTYLE
  5
35
102
{ACAD_REACTORS
330
2A
102
}
330
2A
100
AcDbVisualStyle
  2
Dim
 70
    11
177
     2
291
     1
 71
     2
176
     1
 72
     2
176
     1
 73
     0
176
     1
 90
        0
176
     1
 40
-0.6
176
     1
 41
-30.0
176
     1
 62
     5
 63
     7
421
 16777215
176
     1
 74
     1
176
     1
 91
        4
176
     1
 64
     7
176
     1
 65
   257
176
     1
 75
     1
176
     1
175
     1
176
     1
 42
1.0
176
     1
 92
        8
176
     1
 66
     7
176
     1
 43
1.0
176
     1
 76
     1
176
     1
 77
     6
176
     1
 78
     2
176
     1
 67
     7
176
     1
 79
     5
176
     1
170
     0
176
     1
171
     0
176
     1
290
     0
176
     1
 93
        1
176
     1
 44
-50.0
176
     1
173
     0
176
     1
  0
VISUALSTYLE
  5
39
102
{ACAD_REACTORS
330
2A
102
}
330
2A
100
AcDbVisualStyle
  2
Facepattern
 70
    15
177
     2
291
     1
 71
     2
176
     1
 72
     2
176
     1
 73
     0
176
     1
 90
        0
176
     1
 40
-0.6
176
     1
 41
-30.0
176
     1
 62
     5
 63
     7
421
 16777215
176
     1
 74
     1
176
     1
 91
        4
176
     1
 64
     7
176
     1
 65
   257
176
     1
 75
     1
176
     1
175
     1
176
     1
 42
1.0
176
     1
 92
        8
176
     1
 66
     7
176
     1
 43
1.0
176
     1
 76
     1
176
     1
 77
     6
176
     1
 78
     2
176
     1
 67
     7
176
     1
 79
     5
176
     1
170
     0
176
     1
171
     0
176
     1
290
     0
176
     1
 93
        1
176
     1
 44
0.0
176
     1
173
     0
176
     1
  0
VISUALSTYLE
  5
2B
102
{ACAD_REACTORS
330
2A
102
}
330
2A
100
AcDbVisualStyle
  2
Flat
 70
     0
177
     2
291
     1
 71
     2
176
     1
 72
     1
176
     1
 73
     1
176
     1
 90
        2
176
     1
 40
-0.6
176
     1
 41
30.0
176
     1
 62
     5
 63
     7
421
 16777215
176
     1
 74
     0
176
     1
 91
        4
176
     1
 64
     7
176
     1
 65
   257
176
     1
 75
     1
176
     1
175
     1
176
     1
 42
1.0
176
     1
 92
        8
176
     1
 66
     7
176
     1
 43
1.0
176
     1
 76
     1
176
     1
 77
     6
176
     1
 78
     2
176
     1
 67
     7
176
     1
 79
     5
176
     1
170
     0
176
     1
171
     0
176
     1
290
     0
176
     1
 93
       13
176
     1
 44
0.0
176
     1
173
     0
176
     1
  0
VISUALSTYLE
  5
2C
102
{ACAD_REACTORS
330
2A
102
}
330
2A
100
AcDbVisualStyle
  2
FlatWithEdges
 70
     1
177
     2
291
     1
 71
     2
176
     1
 72
     1
176
     1
 73
     1
176
     1
 90
        2
176
     1
 40
-0.6
176
     1
 41
30.0
176
     1
 62
     5
 63
     7
421
 16777215
176
     1
 74
     1
176
     1
 91
        4
176
     1
 64
     7
176
     1
 65
   257
176
     1
 75
     1
176
     1
175
     1
176
     1
 42
1.0
176
     1
 92
        0
176
     1
 66
   257
176
     1
 43
1.0
176
     1
 76
     1
176
     1
 77
     6
176
     1
 78
     2
176
     1
 67
     7
176
     1
 79
     5
176
     1
170
     0
176
     1
171
     0
176
     1
290
     0
176
     1
 93
       13
176
     1
 44
0.0
176
     1
173
     0
176
     1
  0
VISUALSTYLE
  5
2D
102
{ACAD_REACTORS
330
2A
102
}
330
2A
100
AcDbVisualStyle
  2
Gouraud
 70
     2
177
     2
291
     1
 71
     2
176
     1
 72
     2
176
     1
 73
     1
176
     1
 90
        2
176
     1
 40
-0.6
176
     1
 41
30.0
176
     1
 62
     5
 63
     7
421
 16777215
176
     1
 74
     0
176
     1
 91
        4
176
     1
 64
     7
176
     1
 65
   257
176
     1
 75
     1
176
     1
175
     1
176
     1
 42
1.0
176
     1
 92
        0
176
     1
 66
     7
176
     1
 43
1.0
176
     1
 76
     1
176
     1
 77
     6
176
     1
 78
     2
176
     1
 67
     7
176
     1
 79
     5
176
     1
170
     0
176
     1
171
     0
176
     1
290
     0
176
     1
 93
       13
176
     1
 44
0.0
176
     1
173
     0
176
     1
  0
VISUALSTYLE
  5
2E
102
{ACAD_REACTORS
330
2A
102
}
330
2A
100
AcDbVisualStyle
  2
GouraudWithEdges
 70
     3
177
     2
291
     1
 71
     2
176
     1
 72
     2
176
     1
 73
     1
176
     1
 90
        2
176
     1
 40
-0.6
176
     1
 41
30.0
176
     1
 62
     5
 63
     7
421
 16777215
176
     1
 74
     1
176
     1
 91
        4
176
     1
 64
     7
176
     1
 65
   257
176
     1
 75
     1
176
     1
175
     1
176
     1
 42
1.0
176
     1
 92
        0
176
     1
 66
   257
176
     1
 43
1.0
176
     1
 76
     1
176
     1
 77
     6
176
     1
 78
     2
176
     1
 67
     7
176
     1
 79
     5
176
     1
170
     0
176
     1
171
     0
176
     1
290
     0
176
     1
 93
       13
176
     1
 44
0.0
176
     1
173
     0
176
     1
  0
VISUALSTYLE
  5
38
102
{ACAD_REACTORS
330
2A
102
}
330
2A
100
AcDbVisualStyle
  2
Linepattern
 70
    14
177
     2
291
     1
 71
     2
176
     1
 72
     2
176
     1
 73
     0
176
     1
 90
        0
176
     1
 40
-0.6
176
     1
 41
-30.0
176
     1
 62
     5
 63
     7
421
 16777215
176
     1
 74
     1
176
     1
 91
        4
176
     1
 64
     7
176
     1
 65
   257
176
     1
 75
     7
176
     1
175
     7
176
     1
 42
1.0
176
     1
 92
        8
176
     1
 66
     7
176
     1
 43
1.0
176
     1
 76
     1
176
     1
 77
     6
176
     1
 78
     2
176
     1
 67
     7
176
     1
 79
     5
176
     1
170
     0
176
     1
171
     0
176
     1
290
     0
176
     1
 93
        1
176
     1
 44
0.0
176
     1
173
     0
176
     1
  0
VISUALSTYLE
  5
33
102
{ACAD_REACTORS
330
2A
102
}
330
2A
100
AcDbVisualStyle
  2
Realistic
 70
     8
177
     2
291
     0
 71
     2
176
     1
 72
     2
176
     1
 73
     0
176
     1
 90
        0
176
     1
 40
-0.6
176
     1
 41
-30.0
176
     1
 62
     5
 63
     7
421
 16777215
176
     1
 74
     1
176
     1
 91
        0
176
     1
 64
     7
176
     1
 65
   257
176
     1
 75
     1
176
     1
175
     1
176
     1
 42
1.0
176
     1
 92
        8
176
     1
 66
     8
424
  7895160
176
     1
 43
1.0
176
     1
 76
     1
176
     1
 77
     6
176
     1
 78
     2
176
     1
 67
     7
176
     1
 79
     5
176
     1
170
     0
176
     1
171
     0
176
     1
290
     0
176
     1
 93
       13
176
     1
 44
0.0
176
     1
173
     0
176
     1
  0
VISUALSTYLE
  5
37
102
{ACAD_REACTORS
330
2A
102
}
330
2A
100
AcDbVisualStyle
  2
Thicken
 70
    13
177
     2
291
     1
 71
     2
176
     1
 72
     2
176
     1
 73
     0
176
     1
 90
        0
176
     1
 40
-0.6
176
     1
 41
-30.0
176
     1
 62
     5
 63
     7
421
 16777215
176
     1
 74
     1
176
     1
 91
        4
176
     1
 64
     7
176
     1
 65
   257
176
     1
 75
     1
176
     1
175
     1
176
     1
 42
1.0
176
     1
 92
       12
176
     1
 66
     7
176
     1
 43
1.0
176
     1
 76
     1
176
     1
 77
     6
176
     1
 78
     2
176
     1
 67
     7
176
     1
 79
     5
176
     1
170
     0
176
     1
171
     0
176
     1
290
     0
176
     1
 93
        1
176
     1
 44
0.0
176
     1
173
     0
176
     1
  0
ENDSEC
  0
EOF
