  0
SECTION
  2
HEADER
  9
$ACADVER
  1
AC1024
  9
$ACADMAINTVER
 70
     6
  9
$DWGCODEPAGE
  3
ANSI_1252
  9
$INSBASE
 10
0.0
 20
0.0
 30
0.0
  9
$EXTMIN
 10
1.000000000000000E+20
 20
1.000000000000000E+20
 30
1.000000000000000E+20
  9
$EXTMAX
 10
-1.000000000000000E+20
 20
-1.000000000000000E+20
 30
-1.000000000000000E+20
  9
$LIMMIN
 10
0.0
 20
0.0
  9
$LIMMAX
 10
12.0
 20
9.0
  9
$ORTHOMODE
 70
     0
  9
$REGENMODE
 70
     1
  9
$FILLMODE
 70
     1
  9
$QTEXTMODE
 70
     0
  9
$MIRRTEXT
 70
     1
  9
$LTSCALE
 40
1.0
  9
$ATTMODE
 70
     1
  9
$TEXTSIZE
 40
0.2
  9
$TRACEWID
 40
0.05
  9
$TEXTSTYLE
  7
Standard
  9
$CLAYER
  8
0
  9
$CELTYPE
  6
ByLayer
  9
$CECOLOR
 62
   256
  9
$CELTSCALE
 40
1.0
  9
$DISPSILH
 70
     0
  9
$DIMSCALE
 40
1.0
  9
$DIMASZ
 40
0.18
  9
$DIMEXO
 40
0.0625
  9
$DIMDLI
 40
0.38
  9
$DIMRND
 40
0.0
  9
$DIMDLE
 40
0.0
  9
$DIMEXE
 40
0.18
  9
$DIMTP
 40
0.0
  9
$DIMTM
 40
0.0
  9
$DIMTXT
 40
0.18
  9
$DIMCEN
 40
0.09
  9
$DIMTSZ
 40
0.0
  9
$DIMTOL
 70
     0
  9
$DIMLIM
 70
     0
  9
$DIMTIH
 70
     1
  9
$DIMTOH
 70
     1
  9
$DIMSE1
 70
     0
  9
$DIMSE2
 70
     0
  9
$DIMTAD
 70
     0
  9
$DIMZIN
 70
     0
  9
$DIMBLK
  1

  9
$DIMASO
 70
     1
  9
$DIMSHO
 70
     1
  9
$DIMPOST
  1

  9
$DIMAPOST
  1

  9
$DIMALT
 70
     0
  9
$DIMALTD
 70
     2
  9
$DIMALTF
 40
25.4
  9
$DIMLFAC
 40
1.0
  9
$DIMTOFL
 70
     0
  9
$DIMTVP
 40
0.0
  9
$DIMTIX
 70
     0
  9
$DIMSOXD
 70
     0
  9
$DIMSAH
 70
     0
  9
$DIMBLK1
  1

  9
$DIMBLK2
  1

  9
$DIMSTYLE
  2
Standard
  9
$DIMCLRD
 70
     0
  9
$DIMCLRE
 70
     0
  9
$DIMCLRT
 70
     0
  9
$DIMTFAC
 40
1.0
  9
$DIMGAP
 40
0.09
  9
$DIMJUST
 70
     0
  9
$DIMSD1
 70
     0
  9
$DIMSD2
 70
     0
  9
$DIMTOLJ
 70
     1
  9
$DIMTZIN
 70
     0
  9
$DIMALTZ
 70
     0
  9
$DIMALTTZ
 70
     0
  9
$DIMUPT
 70
     0
  9
$DIMDEC
 70
     4
  9
$DIMTDEC
 70
     4
  9
$DIMALTU
 70
     2
  9
$DIMALTTD
 70
     2
  9
$DIMTXSTY
  7
Standard
  9
$DIMAUNIT
 70
     0
  9
$DIMADEC
 70
     0
  9
$DIMALTRND
 40
0.0
  9
$DIMAZIN
 70
     0
  9
$DIMDSEP
 70
    46
  9
$DIMATFIT
 70
     3
  9
$DIMFRAC
 70
     0
  9
$DIMLDRBLK
  1

  9
$DIMLUNIT
 70
     2
  9
$DIMLWD
 70
    -2
  9
$DIMLWE
 70
    -2
  9
$DIMTMOVE
 70
     0
  9
$DIMFXL
 40
1.0
  9
$DIMFXLON
 70
     0
  9
$DIMJOGANG
 40
0.7853981633974483
  9
$DIMTFILL
 70
     0
  9
$DIMTFILLCLR
 70
     0
  9
$DIMARCSYM
 70
     0
  9
$DIMLTYPE
  6

  9
$DIMLTEX1
  6

  9
$DIMLTEX2
  6

  9
$DIMTXTDIRECTION
 70
     0
  9
$LUNITS
 70
     2
  9
$LUPREC
 70
     4
  9
$SKETCHINC
 40
0.1
  9
$FILLETRAD
 40
0.5
  9
$AUNITS
 70
     0
  9
$AUPREC
 70
     0
  9
$MENU
  1
.
  9
$ELEVATION
 40
0.0
  9
$PELEVATION
 40
0.0
  9
$THICKNESS
 40
0.0
  9
$LIMCHECK
 70
     0
  9
$CHAMFERA
 40
0.5
  9
$CHAMFERB
 40
0.5
  9
$CHAMFERC
 40
1.0
  9
$CHAMFERD
 40
0.0
  9
$SKPOLY
 70
     0
  9
$TDCREATE
 40
2458782.443063067
  9
$TDUCREATE
 40
2458781.9013964
  9
$TDUPDATE
 40
2458782.443063067
  9
$TDUUPDATE
 40
2458781.9013964
  9
$TDINDWG
 40
0.0000000116
  9
$TDUSRTIMER
 40
0.0000000116
  9
$USRTIMER
 70
     1
  9
$ANGBASE
 50
0.0
  9
$ANGDIR
 70
     0
  9
$PDMODE
 70
     0
  9
$PDSIZE
 40
0.0
  9
$PLINEWID
 40
0.0
  9
$SPLFRAME
 70
     0
  9
$SPLINETYPE
 70
     6
  9
$SPLINESEGS
 70
     8
  9
$HANDSEED
  5
10E
  9
$SURFTAB1
 70
     6
  9
$SURFTAB2
 70
     6
  9
$SURFTYPE
 70
     6
  9
$SURFU
 70
     6
  9
$SURFV
 70
     6
  9
$UCSBASE
  2

  9
$UCSNAME
  2

  9
$UCSORG
 10
0.0
 20
0.0
 30
0.0
  9
$UCSXDIR
 10
1.0
 20
0.0
 30
0.0
  9
$UCSYDIR
 10
0.0
 20
1.0
 30
0.0
  9
$UCSORTHOREF
  2

  9
$UCSORTHOVIEW
 70
     0
  9
$UCSORGTOP
 10
0.0
 20
0.0
 30
0.0
  9
$UCSORGBOTTOM
 10
0.0
 20
0.0
 30
0.0
  9
$UCSORGLEFT
 10
0.0
 20
0.0
 30
0.0
  9
$UCSORGRIGHT
 10
0.0
 20
0.0
 30
0.0
  9
$UCSORGFRONT
 10
0.0
 20
0.0
 30
0.0
  9
$UCSORGBACK
 10
0.0
 20
0.0
 30
0.0
  9
$PUCSBASE
  2

  9
$PUCSNAME
  2

  9
$PUCSORG
 10
0.0
 20
0.0
 30
0.0
  9
$PUCSXDIR
 10
1.0
 20
0.0
 30
0.0
  9
$PUCSYDIR
 10
0.0
 20
1.0
 30
0.0
  9
$PUCSORTHOREF
  2

  9
$PUCSORTHOVIEW
 70
     0
  9
$PUCSORGTOP
 10
0.0
 20
0.0
 30
0.0
  9
$PUCSORGBOTTOM
 10
0.0
 20
0.0
 30
0.0
  9
$PUCSORGLEFT
 10
0.0
 20
0.0
 30
0.0
  9
$PUCSORGRIGHT
 10
0.0
 20
0.0
 30
0.0
  9
$PUCSORGFRONT
 10
0.0
 20
0.0
 30
0.0
  9
$PUCSORGBACK
 10
0.0
 20
0.0
 30
0.0
  9
$USERI1
 70
     0
  9
$USERI2
 70
     0
  9
$USERI3
 70
     0
  9
$USERI4
 70
     0
  9
$USERI5
 70
     0
  9
$USERR1
 40
0.0
  9
$USERR2
 40
0.0
  9
$USERR3
 40
0.0
  9
$USERR4
 40
0.0
  9
$USERR5
 40
0.0
  9
$WORLDVIEW
 70
     1
  9
$SHADEDGE
 70
     3
  9
$SHADEDIF
 70
    70
  9
$TILEMODE
 70
     1
  9
$MAXACTVP
 70
    64
  9
$PINSBASE
 10
0.0
 20
0.0
 30
0.0
  9
$PLIMCHECK
 70
     0
  9
$PEXTMIN
 10
1.000000000000000E+20
 20
1.000000000000000E+20
 30
1.000000000000000E+20
  9
$PEXTMAX
 10
-1.000000000000000E+20
 20
-1.000000000000000E+20
 30
-1.000000000000000E+20
  9
$PLIMMIN
 10
0.0
 20
0.0
  9
$PLIMMAX
 10
12.0
 20
9.0
  9
$UNITMODE
 70
     0
  9
$VISRETAIN
 70
     1
  9
$PLINEGEN
 70
     0
  9
$PSLTSCALE
 70
     1
  9
$TREEDEPTH
 70
  3020
  9
$CMLSTYLE
  2
Standard
  9
$CMLJUST
 70
     0
  9
$CMLSCALE
 40
1.0
  9
$PROXYGRAPHICS
 70
     1
  9
$MEASUREMENT
 70
     0
  9
$CELWEIGHT
370
    -1
  9
$ENDCAPS
280
     0
  9
$JOINSTYLE
280
     0
  9
$LWDISPLAY
290
     1
  9
$INSUNITS
 70
     1
  9
$HYPERLINKBASE
  1

  9
$STYLESHEET
  1

  9
$XEDIT
290
     1
  9
$CEPSNTYPE
380
     0
  9
$PSTYLEMODE
290
     1
  9
$FINGERPRINTGUID
  2
{485A0B14-57B6-4E54-81AC-8C489E0D2F37}
  9
$VERSIONGUID
  2
{FAEB1C32-E019-11D5-929B-00C0DF256EC4}
  9
$EXTNAMES
290
     1
  9
$PSVPSCALE
 40
0.0
  9
$OLESTARTUP
290
     0
  9
$SORTENTS
280
   127
  9
$INDEXCTL
280
     0
  9
$HIDETEXT
280
     1
  9
$XCLIPFRAME
280
     2
  9
$HALOGAP
280
     0
  9
$OBSCOLOR
 70
   257
  9
$OBSLTYPE
280
     0
  9
$INTERSECTIONDISPLAY
280
     0
  9
$INTERSECTIONCOLOR
 70
   257
  9
$DIMASSOC
280
     2
  9
$PROJECTNAME
  1

  9
$CAMERADISPLAY
290
     0
  9
$LENSLENGTH
 40
50.0
  9
$CAMERAHEIGHT
 40
0.0
  9
$STEPSPERSEC
 40
2.0
  9
$STEPSIZE
 40
6.0
  9
$3DDWFPREC
 40
2.0
  9
$PSOLWIDTH
 40
0.25
  9
$PSOLHEIGHT
 40
4.0
  9
$LOFTANG1
 40
1.570796326794897
  9
$LOFTANG2
 40
1.570796326794897
  9
$LOFTMAG1
 40
0.0
  9
$LOFTMAG2
 40
0.0
  9
$LOFTPARAM
 70
     7
  9
$LOFTNORMALS
280
     1
  9
$LATITUDE
 40
37.795
  9
$LONGITUDE
 40
-122.394
  9
$NORTHDIRECTION
 40
0.0
  9
$TIMEZONE
 70
 -8000
  9
$LIGHTGLYPHDISPLAY
280
     1
  9
$TILEMODELIGHTSYNCH
280
     1
  9
$CMATERIAL
347
3C
  9
$SOLIDHIST
280
     1
  9
$SHOWHIST
280
     1
  9
$DWFFRAME
280
     2
  9
$DGNFRAME
280
     2
  9
$REALWORLDSCALE
290
     1
  9
$INTERFERECOLOR
 62
   256
  9
$CSHADOW
280
     0
  9
$SHADOWPLANELOCATION
 40
0.0
  0
ENDSEC
  0
SECTION
  2
CLASSES
  0
CLASS
  1
ACDBDICTIONARYWDFLT
  2
AcDbDictionaryWithDefault
  3
ObjectDBX Classes
 90
        0
 91
        4
280
     0
281
     0
  0
CLASS
  1
VISUALSTYLE
  2
AcDbVisualStyle
  3
ObjectDBX Classes
 90
     4095
 91
        4
280
     0
281
     0
  0
CLASS
  1
MATERIAL
  2
AcDbMaterial
  3
ObjectDBX Classes
 90
     1153
 91
        4
280
     0
281
     0
  0
CLASS
  1
SUN
  2
AcDbSun
  3
SCENEOE
 90
     1024
 91
        4
280
     0
281
     0
  0
ENDSEC
  0
SECTION
  2
TABLES
  0
TABLE
  2
VPORT
  5
8
330
0
100
AcDbSymbolTable
 70
     1
  0
VPORT
  5
29
330
8
100
AcDbSymbolTableRecord
100
AcDbViewportTableRecord
  2
*Active
 70
     0
 10
0.0
 20
0.0
 11
1.0
 21
1.0
 12
0.0
 22
0.0
 13
0.0
 23
0.0
 14
0.5
 24
0.5
 15
0.5
 25
0.5
 16
0.0
 26
0.0
 36
1.0
 17
2.259724266006312
 27
4.526035302329395
 37
0.0
 40
11.69291338582677
 41
0.7070707070707065
 42
50.0
 43
0.0
 44
0.0
 50
0.0
 51
0.0
 71
     0
 72
   100
 73
     1
 74
     3
 75
     0
 76
     0
 77
     0
 78
     0
281
     0
 65
     1
110
0.0
120
0.0
130
0.0
111
1.0
121
0.0
131
0.0
112
0.0
122
1.0
132
0.0
 79
     0
146
0.0
 60
     3
 61
     5
292
     1
282
     1
141
0.0
142
0.0
 63
   250
361
3F
  0
ENDTAB
  0
TABLE
  2
LTYPE
  5
5
330
0
100
AcDbSymbolTable
 70
     1
  0
LTYPE
  5
14
330
5
100
AcDbSymbolTableRecord
100
AcDbLinetypeTableRecord
  2
ByBlock
 70
     0
  3

 72
    65
 73
     0
 40
0.0
  0
LTYPE
  5
15
330
5
100
AcDbSymbolTableRecord
100
AcDbLinetypeTableRecord
  2
ByLayer
 70
     0
  3

 72
    65
 73
     0
 40
0.0
  0
LTYPE
  5
16
330
5
100
AcDbSymbolTableRecord
100
AcDbLinetypeTableRecord
  2
Continuous
 70
     0
  3
Solid line
 72
    65
 73
     0
 40
0.0
  0
ENDTAB
  0
TABLE
  2
LAYER
  5
2
330
0
100
AcDbSymbolTable
 70
     3
  0
LAYER
  5
10
330
2
100
AcDbSymbolTableRecord
100
AcDbLayerTableRecord
  2
0
 70
     0
 62
     7
  6
Continuous
370
    -3
390
F
347
3E
  0
LAYER
  5
40
330
2
100
AcDbSymbolTableRecord
100
AcDbLayerTableRecord
  2
Layer 1
 70
     0
 62
     7
  6
Continuous
370
    -3
390
F
347
3E
  0
LAYER
  5
E3
330
2
100
AcDbSymbolTableRecord
100
AcDbLayerTableRecord
  2
Callout
 70
     0
 62
     7
  6
Continuous
370
    -3
390
F
347
3E
  0
ENDTAB
  0
TABLE
  2
STYLE
  5
3
330
0
100
AcDbSymbolTable
 70
     1
  0
STYLE
  5
11
330
3
100
AcDbSymbolTableRecord
100
AcDbTextStyleTableRecord
  2
Standard
 70
     0
 40
0.0
 41
1.0
 50
0.0
 71
     0
 42
0.2
  3
txt
  4

  0
ENDTAB
  0
TABLE
  2
VIEW
  5
6
330
0
100
AcDbSymbolTable
 70
     0
  0
ENDTAB
  0
TABLE
  2
UCS
  5
7
330
0
100
AcDbSymbolTable
 70
     0
  0
ENDTAB
  0
TABLE
  2
APPID
  5
9
330
0
100
AcDbSymbolTable
 70
     1
  0
APPID
  5
12
330
9
100
AcDbSymbolTableRecord
100
AcDbRegAppTableRecord
  2
ACAD
 70
     0
  0
ENDTAB
  0
TABLE
  2
DIMSTYLE
  5
A
330
0
100
AcDbSymbolTable
 70
     1
100
AcDbDimStyleTable
  0
DIMSTYLE
105
27
330
A
100
AcDbSymbolTableRecord
100
AcDbDimStyleTableRecord
  2
Standard
 70
     0
178
     0
340
11
  0
ENDTAB
  0
TABLE
  2
BLOCK_RECORD
  5
1
330
0
100
AcDbSymbolTable
 70
     3
  0
BLOCK_RECORD
  5
1F
330
1
100
AcDbSymbolTableRecord
100
AcDbBlockTableRecord
  2
*Model_Space
340
22
 70
     0
280
     1
281
     0
  0
BLOCK_RECORD
  5
1B
330
1
100
AcDbSymbolTableRecord
100
AcDbBlockTableRecord
  2
*Paper_Space
340
1E
 70
     0
280
     1
281
     0
  0
BLOCK_RECORD
  5
23
330
1
100
AcDbSymbolTableRecord
100
AcDbBlockTableRecord
  2
*Paper_Space0
340
26
 70
     0
280
     1
281
     0
  0
BLOCK_RECORD
  5
E4
330
1
100
AcDbSymbolTableRecord
100
AcDbBlockTableRecord
  2
block 2
340
0
102
{BLKREFS
331
E5
102
}
 70
     0
280
     1
281
     0
  0
BLOCK_RECORD
  5
EA
330
1
100
AcDbSymbolTableRecord
100
AcDbBlockTableRecord
  2
block 3
340
0
102
{BLKREFS
331
EB
102
}
 70
     0
280
     1
281
     0
  0
ENDTAB
  0
ENDSEC
  0
SECTION
  2
BLOCKS
  0
BLOCK
  5
20
330
1F
100
AcDbEntity
  8
0
100
AcDbBlockBegin
  2
*Model_Space
 70
     0
 10
0.0
 20
0.0
 30
0.0
  3
*Model_Space
  1

  0
ENDBLK
  5
21
330
1F
100
AcDbEntity
  8
0
100
AcDbBlockEnd
  0
BLOCK
  5
1C
330
1B
100
AcDbEntity
 67
     1
  8
0
100
AcDbBlockBegin
  2
*Paper_Space
 70
     0
 10
0.0
 20
0.0
 30
0.0
  3
*Paper_Space
  1

  0
ENDBLK
  5
1D
330
1B
100
AcDbEntity
 67
     1
  8
0
100
AcDbBlockEnd
  0
BLOCK
  5
24
330
23
100
AcDbEntity
  8
0
100
AcDbBlockBegin
  2
*Paper_Space0
 70
     0
 10
0.0
 20
0.0
 30
0.0
  3
*Paper_Space0
  1

  0
ENDBLK
  5
25
330
23
100
AcDbEntity
  8
0
100
AcDbBlockEnd
  0
BLOCK
  5
E6
330
E4
100
AcDbEntity
  8
0
100
AcDbBlockBegin
  2
block 2
 70
     0
 10
0.0
 20
0.0
 30
0.0
  3
block 2
  1

  0
MTEXT
  5
E8
330
E4
100
AcDbEntity
  8
Callout
 62
   250
420
  2301728
100
AcDbMText
 10
0.5987792544894748
 20
5.106039047241211
 30
0.0
 40
0.118
 41
0.0
 46
0.0
 71
     7
 72
     1
  1
\fHelvetica Neue LT Std 57 Condensed|b0|i0|c0|p34;\W1;Post
 73
     1
 44
1.0
  0
MTEXT
  5
E9
330
E4
100
AcDbEntity
  8
Callout
 62
   250
420
  2301728
100
AcDbMText
 10
3.123206423388587
 20
7.253442128499349
 30
0.0
 40
0.118
 41
0.0
 46
0.0
 71
     7
 72
     1
  1
\fHelvetica Neue LT Std 57 Condensed|b0|i0|c0|p34;\W1;Beam
 73
     1
 44
1.0
  0
INSERT
  5
EB
330
E4
100
AcDbEntity
  8
Callout
100
AcDbBlockReference
  2
block 3
 10
0.0
 20
0.0
 30
0.0
  0
POLYLINE
  5
F9
330
E4
100
AcDbEntity
  8
Callout
 62
   250
420
  2301728
370
    25
100
AcDb2dPolyline
 66
     1
 10
0.0
 20
0.0
 30
0.0
  0
VERTEX
  5
FA
330
F9
100
AcDbEntity
  8
Callout
 62
   250
420
  2301728
370
    25
100
AcDbVertex
100
AcDb2dVertex
 10
2.502791495777627
 20
6.956151288125359
 30
0.0
  0
VERTEX
  5
FB
330
F9
100
AcDbEntity
  8
Callout
 62
   250
420
  2301728
370
    25
100
AcDbVertex
100
AcDb2dVertex
 10
2.859351852912571
 20
7.299819946289062
 30
0.0
  0
VERTEX
  5
FC
330
F9
100
AcDbEntity
  8
Callout
 62
   250
420
  2301728
370
    25
100
AcDbVertex
100
AcDb2dVertex
 10
3.067590736540903
 20
7.299819946289062
 30
0.0
  0
SEQEND
  5
FD
330
F9
100
AcDbEntity
  8
Callout
 62
   250
420
  2301728
370
    25
  0
POLYLINE
  5
FE
330
E4
100
AcDbEntity
  8
Callout
370
     0
100
AcDb2dPolyline
 66
     1
 10
0.0
 20
0.0
 30
0.0
  0
VERTEX
  5
FF
330
FE
100
AcDbEntity
  8
Callout
370
     0
100
AcDbVertex
100
AcDb2dVertex
 10
2.479075804364154
 20
6.997250688156353
 30
0.0
  0
VERTEX
  5
100
330
FE
100
AcDbEntity
  8
Callout
370
     0
100
AcDbVertex
100
AcDb2dVertex
 10
2.538632052859637
 20
6.937690967438735
 30
0.0
  0
VERTEX
  5
101
330
FE
100
AcDbEntity
  8
Callout
370
     0
100
AcDbVertex
100
AcDb2dVertex
 10
2.425107104906904
 20
6.880758329988086
 30
0.0
  0
VERTEX
  5
102
330
FE
100
AcDbEntity
  8
Callout
370
     0
100
AcDbVertex
100
AcDb2dVertex
 10
2.479075804364154
 20
6.997250688156353
 30
0.0
  0
SEQEND
  5
104
330
FE
100
AcDbEntity
  8
Callout
370
     0
  0
HATCH
  5
103
330
E4
100
AcDbEntity
  8
Callout
 62
   250
420
  2301728
100
AcDbHatch
 10
0.0
 20
0.0
 30
0.0
210
0.0
220
0.0
230
1.0
  2
SOLID
 70
     1
 71
     0
 91
        1
 92
        1
 93
        3
 72
     1
 10
2.479075804364154
 20
6.997250688156353
 11
2.538632052859637
 21
6.937690967438735
 72
     1
 10
2.538632052859637
 20
6.937690967438735
 11
2.425107104906904
 21
6.880758329988086
 72
     1
 10
2.425107104906904
 20
6.880758329988086
 11
2.479075804364154
 21
6.997250688156353
 97
        0
 75
     2
 76
     1
 98
        0
  0
ENDBLK
  5
E7
330
E4
100
AcDbEntity
  8
0
100
AcDbBlockEnd
  0
BLOCK
  5
EC
330
EA
100
AcDbEntity
  8
0
100
AcDbBlockBegin
  2
block 3
 70
     0
 10
0.0
 20
0.0
 30
0.0
  3
block 3
  1

  0
POLYLINE
  5
EE
330
EA
100
AcDbEntity
  8
Callout
 62
   250
420
  2301728
370
    25
100
AcDb2dPolyline
 66
     1
 10
0.0
 20
0.0
 30
0.0
  0
VERTEX
  5
EF
330
EE
100
AcDbEntity
  8
Callout
 62
   250
420
  2301728
370
    25
100
AcDbVertex
100
AcDb2dVertex
 10
0.9587041186533345
 20
5.147863812745413
 30
0.0
  0
VERTEX
  5
F0
330
EE
100
AcDbEntity
  8
Callout
 62
   250
420
  2301728
370
    25
100
AcDbVertex
100
AcDb2dVertex
 10
1.176281137194388
 20
5.147863812745413
 30
0.0
  0
SEQEND
  5
F1
330
EE
100
AcDbEntity
  8
Callout
 62
   250
420
  2301728
370
    25
  0
POLYLINE
  5
F2
330
EA
100
AcDbEntity
  8
Callout
370
     0
100
AcDb2dPolyline
 66
     1
 10
0.0
 20
0.0
 30
0.0
  0
VERTEX
  5
F3
330
F2
100
AcDbEntity
  8
Callout
370
     0
100
AcDbVertex
100
AcDb2dVertex
 10
1.141857526083312
 20
5.106040998563925
 30
0.0
  0
VERTEX
  5
F4
330
F2
100
AcDbEntity
  8
Callout
370
     0
100
AcDbVertex
100
AcDb2dVertex
 10
1.141857526083312
 20
5.190270163102771
 30
0.0
  0
VERTEX
  5
F5
330
F2
100
AcDbEntity
  8
Callout
370
     0
100
AcDbVertex
100
AcDb2dVertex
 10
1.261350581638832
 20
5.149023534967619
 30
0.0
  0
VERTEX
  5
F6
330
F2
100
AcDbEntity
  8
Callout
370
     0
100
AcDbVertex
100
AcDb2dVertex
 10
1.141857526083312
 20
5.106040998563925
 30
0.0
  0
SEQEND
  5
F8
330
F2
100
AcDbEntity
  8
Callout
370
     0
  0
HATCH
  5
F7
330
EA
100
AcDbEntity
  8
Callout
 62
   250
420
  2301728
100
AcDbHatch
 10
0.0
 20
0.0
 30
0.0
210
0.0
220
0.0
230
1.0
  2
SOLID
 70
     1
 71
     0
 91
        1
 92
        1
 93
        3
 72
     1
 10
1.141857526083312
 20
5.106040998563925
 11
1.141857526083312
 21
5.190270163102771
 72
     1
 10
1.141857526083312
 20
5.190270163102771
 11
1.261350581638832
 21
5.149023534967619
 72
     1
 10
1.261350581638832
 20
5.149023534967619
 11
1.141857526083312
 21
5.106040998563925
 97
        0
 75
     2
 76
     1
 98
        0
  0
ENDBLK
  5
ED
330
EA
100
AcDbEntity
  8
0
100
AcDbBlockEnd
  0
ENDSEC
  0
SECTION
  2
ENTITIES
  0
POLYLINE
  5
41
330
1F
100
AcDbEntity
  8
Layer 1
 62
   250
420
  2301728
370
    35
100
AcDb2dPolyline
 66
     1
 10
0.0
 20
0.0
 30
0.0
  0
VERTEX
  5
42
330
41
100
AcDbEntity
  8
Layer 1
 62
   250
420
  2301728
370
    35
100
AcDbVertex
100
AcDb2dVertex
 10
1.296503334485237
 20
5.667122081758154
 30
0.0
  0
VERTEX
  5
43
330
41
100
AcDbEntity
  8
Layer 1
 62
   250
420
  2301728
370
    35
100
AcDbVertex
100
AcDb2dVertex
 10
1.297825212929928
 20
4.496552729174949
 30
0.0
  0
VERTEX
  5
44
330
41
100
AcDbEntity
  8
Layer 1
 62
   250
420
  2301728
370
    35
100
AcDbVertex
100
AcDb2dVertex
 10
1.5718377373691
 20
4.368835093919125
 30
0.0
  0
VERTEX
  5
45
330
41
100
AcDbEntity
  8
Layer 1
 62
   250
420
  2301728
370
    35
100
AcDbVertex
100
AcDb2dVertex
 10
1.6595442407751
 20
4.422356716989977
 30
0.0
  0
VERTEX
  5
46
330
41
100
AcDbEntity
  8
Layer 1
 62
   250
420
  2301728
370
    35
100
AcDbVertex
100
AcDb2dVertex
 10
1.753347778141751
 20
4.161815263937481
 30
0.0
  0
VERTEX
  5
47
330
41
100
AcDbEntity
  8
Layer 1
 62
   250
420
  2301728
370
    35
100
AcDbVertex
100
AcDb2dVertex
 10
1.844107905130676
 20
4.219933239691764
 30
0.0
  0
VERTEX
  5
48
330
41
100
AcDbEntity
  8
Layer 1
 62
   250
420
  2301728
370
    35
100
AcDbVertex
100
AcDb2dVertex
 10
2.085643742055873
 20
4.099928752020787
 30
0.0
  0
VERTEX
  5
49
330
41
100
AcDbEntity
  8
Layer 1
 62
   250
420
  2301728
370
    35
100
AcDbVertex
100
AcDb2dVertex
 10
2.819672593237505
 20
4.646172024387194
 30
0.0
  0
VERTEX
  5
4A
330
41
100
AcDbEntity
  8
Layer 1
 62
   250
420
  2301728
370
    35
100
AcDbVertex
100
AcDb2dVertex
 10
2.81957010166823
 20
4.956860762691475
 30
0.0
  0
VERTEX
  5
4B
330
41
100
AcDbEntity
  8
Layer 1
 62
   250
420
  2301728
370
    35
100
AcDbVertex
100
AcDb2dVertex
 10
2.891760958280024
 20
4.92090461780021
 30
0.0
  0
VERTEX
  5
4C
330
41
100
AcDbEntity
  8
Layer 1
 62
   250
420
  2301728
370
    35
100
AcDbVertex
100
AcDb2dVertex
 10
3.642022897240723
 20
5.459797405057657
 30
0.0
  0
VERTEX
  5
4D
330
41
100
AcDbEntity
  8
Layer 1
 62
   250
420
  2301728
370
    35
100
AcDbVertex
100
AcDb2dVertex
 10
3.64180477415741
 20
5.757601113512363
 30
0.0
  0
VERTEX
  5
4E
330
41
100
AcDbEntity
  8
Layer 1
 62
   250
420
  2301728
370
    35
100
AcDbVertex
100
AcDb2dVertex
 10
3.565183128166356
 20
5.827022289414217
 30
0.0
  0
VERTEX
  5
4F
330
41
100
AcDbEntity
  8
Layer 1
 62
   250
420
  2301728
370
    35
100
AcDbVertex
100
AcDb2dVertex
 10
3.729303666435903
 20
6.004424464216337
 30
0.0
  0
VERTEX
  5
50
330
41
100
AcDbEntity
  8
Layer 1
 62
   250
420
  2301728
370
    35
100
AcDbVertex
100
AcDb2dVertex
 10
3.620565367417814
 20
6.133860804249164
 30
0.0
  0
VERTEX
  5
51
330
41
100
AcDbEntity
  8
Layer 1
 62
   250
420
  2301728
370
    35
100
AcDbVertex
100
AcDb2dVertex
 10
3.620899122015165
 20
6.428263894995249
 30
0.0
  0
VERTEX
  5
52
330
41
100
AcDbEntity
  8
Layer 1
 62
   250
420
  2301728
370
    35
100
AcDbVertex
100
AcDb2dVertex
 10
1.285032162693799
 20
7.292396595404435
 30
0.0
  0
VERTEX
  5
53
330
41
100
AcDbEntity
  8
Layer 1
 62
   250
420
  2301728
370
    35
100
AcDbVertex
100
AcDb2dVertex
 10
0.5232990519416868
 20
6.912336832637758
 30
0.0
  0
VERTEX
  5
54
330
41
100
AcDbEntity
  8
Layer 1
 62
   250
420
  2301728
370
    35
100
AcDbVertex
100
AcDb2dVertex
 10
0.5232859119969109
 20
6.581620190502449
 30
0.0
  0
VERTEX
  5
55
330
41
100
AcDbEntity
  8
Layer 1
 62
   250
420
  2301728
370
    35
100
AcDbVertex
100
AcDb2dVertex
 10
0.4448562096043689
 20
6.526608497693738
 30
0.0
  0
VERTEX
  5
56
330
41
100
AcDbEntity
  8
Layer 1
 62
   250
420
  2301728
370
    35
100
AcDbVertex
100
AcDb2dVertex
 10
0.5911668667214497
 20
6.338081825993034
 30
0.0
  0
VERTEX
  5
57
330
41
100
AcDbEntity
  8
Layer 1
 62
   250
420
  2301728
370
    35
100
AcDbVertex
100
AcDb2dVertex
 10
0.5392378049577297
 20
6.268403326822825
 30
0.0
  0
VERTEX
  5
58
330
41
100
AcDbEntity
  8
Layer 1
 62
   250
420
  2301728
370
    35
100
AcDbVertex
100
AcDb2dVertex
 10
0.5394559280410426
 20
6.014368774424534
 30
0.0
  0
VERTEX
  5
59
330
41
100
AcDbEntity
  8
Layer 1
 62
   250
420
  2301728
370
    35
100
AcDbVertex
100
AcDb2dVertex
 10
1.296503334485237
 20
5.667122081758154
 30
0.0
  0
SEQEND
  5
5B
330
41
100
AcDbEntity
  8
Layer 1
 62
   250
420
  2301728
370
    35
  0
HATCH
  5
5A
330
1F
100
AcDbEntity
  8
Layer 1
 62
    43
420
 15444572
100
AcDbHatch
 10
0.0
 20
0.0
 30
0.0
210
0.0
220
0.0
230
1.0
  2
SOLID
 70
     1
 71
     0
 91
        1
 92
        1
 93
       23
 72
     1
 10
1.296503334485237
 20
5.667122081758154
 11
1.297825212929928
 21
4.496552729174949
 72
     1
 10
1.297825212929928
 20
4.496552729174949
 11
1.5718377373691
 21
4.368835093919125
 72
     1
 10
1.5718377373691
 20
4.368835093919125
 11
1.6595442407751
 21
4.422356716989977
 72
     1
 10
1.6595442407751
 20
4.422356716989977
 11
1.753347778141751
 21
4.161815263937481
 72
     1
 10
1.753347778141751
 20
4.161815263937481
 11
1.844107905130676
 21
4.219933239691764
 72
     1
 10
1.844107905130676
 20
4.219933239691764
 11
2.085643742055873
 21
4.099928752020787
 72
     1
 10
2.085643742055873
 20
4.099928752020787
 11
2.819672593237505
 21
4.646172024387194
 72
     1
 10
2.819672593237505
 20
4.646172024387194
 11
2.81957010166823
 21
4.956860762691475
 72
     1
 10
2.81957010166823
 20
4.956860762691475
 11
2.891760958280024
 21
4.92090461780021
 72
     1
 10
2.891760958280024
 20
4.92090461780021
 11
3.642022897240723
 21
5.459797405057657
 72
     1
 10
3.642022897240723
 20
5.459797405057657
 11
3.64180477415741
 21
5.757601113512363
 72
     1
 10
3.64180477415741
 20
5.757601113512363
 11
3.565183128166356
 21
5.827022289414217
 72
     1
 10
3.565183128166356
 20
5.827022289414217
 11
3.729303666435903
 21
6.004424464216337
 72
     1
 10
3.729303666435903
 20
6.004424464216337
 11
3.620565367417814
 21
6.133860804249164
 72
     1
 10
3.620565367417814
 20
6.133860804249164
 11
3.620899122015165
 21
6.428263894995249
 72
     1
 10
3.620899122015165
 20
6.428263894995249
 11
1.285032162693799
 21
7.292396595404435
 72
     1
 10
1.285032162693799
 20
7.292396595404435
 11
0.5232990519416868
 21
6.912336832637758
 72
     1
 10
0.5232990519416868
 20
6.912336832637758
 11
0.5232859119969109
 21
6.581620190502449
 72
     1
 10
0.5232859119969109
 20
6.581620190502449
 11
0.4448562096043689
 21
6.526608497693738
 72
     1
 10
0.4448562096043689
 20
6.526608497693738
 11
0.5911668667214497
 21
6.338081825993034
 72
     1
 10
0.5911668667214497
 20
6.338081825993034
 11
0.5392378049577297
 21
6.268403326822825
 72
     1
 10
0.5392378049577297
 20
6.268403326822825
 11
0.5394559280410426
 21
6.014368774424534
 72
     1
 10
0.5394559280410426
 20
6.014368774424534
 11
1.296503334485237
 21
5.667122081758154
 97
        0
 75
     2
 76
     1
 98
        0
  0
POLYLINE
  5
5C
330
1F
100
AcDbEntity
  8
Layer 1
 62
   250
420
  2301728
370
    25
100
AcDb2dPolyline
 66
     1
 10
0.0
 20
0.0
 30
0.0
  0
VERTEX
  5
5D
330
5C
100
AcDbEntity
  8
Layer 1
 62
   250
420
  2301728
370
    25
100
AcDbVertex
100
AcDb2dVertex
 10
0.5264815465669825
 20
6.91201621798517
 30
0.0
  0
VERTEX
  5
5E
330
5C
100
AcDbEntity
  8
Layer 1
 62
   250
420
  2301728
370
    25
100
AcDbVertex
100
AcDb2dVertex
 10
2.859079287627512
 20
5.95589339217228
 30
0.0
  0
VERTEX
  5
5F
330
5C
100
AcDbEntity
  8
Layer 1
 62
   250
420
  2301728
370
    25
100
AcDbVertex
100
AcDb2dVertex
 10
3.620899122015165
 20
6.428263894995249
 30
0.0
  0
SEQEND
  5
60
330
5C
100
AcDbEntity
  8
Layer 1
 62
   250
420
  2301728
370
    25
  0
POLYLINE
  5
61
330
1F
100
AcDbEntity
  8
Layer 1
 62
   250
420
  2301728
370
    25
100
AcDb2dPolyline
 66
     1
 10
0.0
 20
0.0
 30
0.0
  0
VERTEX
  5
62
330
61
100
AcDbEntity
  8
Layer 1
 62
   250
420
  2301728
370
    25
100
AcDbVertex
100
AcDb2dVertex
 10
1.29410398056872
 20
5.667045870078444
 30
0.0
  0
VERTEX
  5
63
330
61
100
AcDbEntity
  8
Layer 1
 62
   250
420
  2301728
370
    25
100
AcDbVertex
100
AcDb2dVertex
 10
2.819133855501579
 20
4.957373220537824
 30
0.0
  0
SEQEND
  5
64
330
61
100
AcDbEntity
  8
Layer 1
 62
   250
420
  2301728
370
    25
  0
POLYLINE
  5
65
330
1F
100
AcDbEntity
  8
Layer 1
 62
   250
420
  2301728
370
    25
100
AcDb2dPolyline
 66
     1
 10
0.0
 20
0.0
 30
0.0
  0
VERTEX
  5
66
330
65
100
AcDbEntity
  8
Layer 1
 62
   250
420
  2301728
370
    25
100
AcDbVertex
100
AcDb2dVertex
 10
2.085309987458509
 20
5.297408711509888
 30
0.0
  0
VERTEX
  5
67
330
65
100
AcDbEntity
  8
Layer 1
 62
   250
420
  2301728
370
    25
100
AcDbVertex
100
AcDb2dVertex
 10
2.085028792640249
 20
4.100583121270751
 30
0.0
  0
SEQEND
  5
68
330
65
100
AcDbEntity
  8
Layer 1
 62
   250
420
  2301728
370
    25
  0
POLYLINE
  5
69
330
1F
100
AcDbEntity
  8
Layer 1
 62
   250
420
  2301728
370
    25
100
AcDb2dPolyline
 66
     1
 10
0.0
 20
0.0
 30
0.0
  0
VERTEX
  5
6A
330
69
100
AcDbEntity
  8
Layer 1
 62
   250
420
  2301728
370
    25
100
AcDbVertex
100
AcDb2dVertex
 10
1.573572210079836
 20
4.371812605405883
 30
0.0
  0
VERTEX
  5
6B
330
69
100
AcDbEntity
  8
Layer 1
 62
   250
420
  2301728
370
    25
100
AcDbVertex
100
AcDb2dVertex
 10
1.63479121280179
 20
4.481023942436005
 30
0.0
  0
VERTEX
  5
6C
330
69
100
AcDbEntity
  8
Layer 1
 62
   250
420
  2301728
370
    25
100
AcDbVertex
100
AcDb2dVertex
 10
1.661573048248859
 20
4.423678595434668
 30
0.0
  0
SEQEND
  5
6D
330
69
100
AcDbEntity
  8
Layer 1
 62
   250
420
  2301728
370
    25
  0
POLYLINE
  5
6E
330
1F
100
AcDbEntity
  8
Layer 1
 62
   250
420
  2301728
370
    25
100
AcDb2dPolyline
 66
     1
 10
0.0
 20
0.0
 30
0.0
  0
VERTEX
  5
6F
330
6E
100
AcDbEntity
  8
Layer 1
 62
   250
420
  2301728
370
    25
100
AcDbVertex
100
AcDb2dVertex
 10
1.753347778141751
 20
4.162277789993671
 30
0.0
  0
VERTEX
  5
70
330
6E
100
AcDbEntity
  8
Layer 1
 62
   250
420
  2301728
370
    25
100
AcDbVertex
100
AcDb2dVertex
 10
1.80916626496993
 20
4.243787495442247
 30
0.0
  0
VERTEX
  5
71
330
6E
100
AcDbEntity
  8
Layer 1
 62
   250
420
  2301728
370
    25
100
AcDbVertex
100
AcDb2dVertex
 10
1.847109068518029
 20
4.220574468996952
 30
0.0
  0
SEQEND
  5
72
330
6E
100
AcDbEntity
  8
Layer 1
 62
   250
420
  2301728
370
    25
  0
SPLINE
  5
73
330
1F
100
AcDbEntity
  8
Layer 1
 62
   250
420
  2301728
370
    13
100
AcDbSpline
210
0.0
220
0.0
230
1.0
 70
     8
 71
     3
 72
    11
 73
     7
 74
     0
 42
0.0000000001
 43
0.0000000001
 12
1.0
 22
0.0
 32
0.0
 13
1.0
 23
0.0
 33
0.0
 40
0.0
 40
0.0
 40
0.0
 40
0.0
 40
1.0
 40
1.0
 40
1.0
 40
2.0
 40
2.0
 40
2.0
 40
2.0
 10
1.613683205509978
 20
4.441682947769853
 30
0.0
 10
1.617866963927377
 20
4.435367890309408
 30
0.0
 10
1.633330050942441
 20
4.429581058629057
 30
0.0
 10
1.634420666359043
 20
4.423294909047134
 30
0.0
 10
1.635498141830857
 20
4.417019271421042
 30
0.0
 10
1.634701861177291
 20
4.410191756114247
 30
0.0
 10
1.634701861177291
 20
4.407547999224865
 30
0.0
  0
POLYLINE
  5
74
330
1F
100
AcDbEntity
  8
Layer 1
 62
   250
420
  2301728
370
    35
100
AcDb2dPolyline
 66
     1
 10
0.0
 20
0.0
 30
0.0
  0
VERTEX
  5
75
330
74
100
AcDbEntity
  8
Layer 1
 62
   250
420
  2301728
370
    35
100
AcDbVertex
100
AcDb2dVertex
 10
2.116364932947464
 20
5.28403750370353
 30
0.0
  0
VERTEX
  5
76
330
74
100
AcDbEntity
  8
Layer 1
 62
   250
420
  2301728
370
    35
100
AcDbVertex
100
AcDb2dVertex
 10
2.116801179114102
 20
4.868100435714255
 30
0.0
  0
VERTEX
  5
77
330
74
100
AcDbEntity
  8
Layer 1
 62
   250
420
  2301728
370
    35
100
AcDbVertex
100
AcDb2dVertex
 10
2.150523533393059
 20
4.843541878923676
 30
0.0
  0
VERTEX
  5
78
330
74
100
AcDbEntity
  8
Layer 1
 62
   250
420
  2301728
370
    35
100
AcDbVertex
100
AcDb2dVertex
 10
2.420494210818434
 20
4.693291866362074
 30
0.0
  0
VERTEX
  5
79
330
74
100
AcDbEntity
  8
Layer 1
 62
   250
420
  2301728
370
    35
100
AcDbVertex
100
AcDb2dVertex
 10
2.57195047031069
 20
4.800116989420454
 30
0.0
  0
VERTEX
  5
7A
330
74
100
AcDbEntity
  8
Layer 1
 62
   250
420
  2301728
370
    35
100
AcDbVertex
100
AcDb2dVertex
 10
2.68874618346682
 20
5.016939218206681
 30
0.0
  0
VERTEX
  5
7B
330
74
100
AcDbEntity
  8
Layer 1
 62
   250
420
  2301728
370
    35
100
AcDbVertex
100
AcDb2dVertex
 10
2.116364932947464
 20
5.28403750370353
 30
0.0
  0
SEQEND
  5
7D
330
74
100
AcDbEntity
  8
Layer 1
 62
   250
420
  2301728
370
    35
  0
HATCH
  5
7C
330
1F
100
AcDbEntity
  8
Layer 1
 62
     9
420
 12307926
100
AcDbHatch
 10
0.0
 20
0.0
 30
0.0
210
0.0
220
0.0
230
1.0
  2
SOLID
 70
     1
 71
     0
 91
        1
 92
        1
 93
        6
 72
     1
 10
2.116364932947464
 20
5.28403750370353
 11
2.116801179114102
 21
4.868100435714255
 72
     1
 10
2.116801179114102
 20
4.868100435714255
 11
2.150523533393059
 21
4.843541878923676
 72
     1
 10
2.150523533393059
 20
4.843541878923676
 11
2.420494210818434
 21
4.693291866362074
 72
     1
 10
2.420494210818434
 20
4.693291866362074
 11
2.57195047031069
 21
4.800116989420454
 72
     1
 10
2.57195047031069
 20
4.800116989420454
 11
2.68874618346682
 21
5.016939218206681
 72
     1
 10
2.68874618346682
 20
5.016939218206681
 11
2.116364932947464
 21
5.28403750370353
 97
        0
 75
     2
 76
     1
 98
        0
  0
POLYLINE
  5
7E
330
1F
100
AcDbEntity
  8
Layer 1
 62
   250
420
  2301728
370
    25
100
AcDb2dPolyline
 66
     1
 10
0.0
 20
0.0
 30
0.0
  0
VERTEX
  5
7F
330
7E
100
AcDbEntity
  8
Layer 1
 62
   250
420
  2301728
370
    25
100
AcDbVertex
100
AcDb2dVertex
 10
2.151703500434147
 20
5.267701924355176
 30
0.0
  0
VERTEX
  5
80
330
7E
100
AcDbEntity
  8
Layer 1
 62
   250
420
  2301728
370
    25
100
AcDbVertex
100
AcDb2dVertex
 10
2.151511657240386
 20
4.843541878923676
 30
0.0
  0
VERTEX
  5
81
330
7E
100
AcDbEntity
  8
Layer 1
 62
   250
420
  2301728
370
    25
100
AcDbVertex
100
AcDb2dVertex
 10
2.408239898318218
 20
4.700348016707999
 30
0.0
  0
SEQEND
  5
82
330
7E
100
AcDbEntity
  8
Layer 1
 62
   250
420
  2301728
370
    25
  0
SPLINE
  5
83
330
1F
100
AcDbEntity
  8
Layer 1
 62
   250
420
  2301728
370
    35
100
AcDbSpline
210
0.0
220
0.0
230
1.0
 70
    11
 71
     3
 72
    11
 73
     7
 74
     0
 42
0.0000000001
 43
0.0000000001
 12
1.0
 22
0.0
 32
0.0
 13
1.0
 23
0.0
 33
0.0
 40
0.0
 40
0.0
 40
0.0
 40
0.0
 40
1.0
 40
1.0
 40
1.0
 40
2.0
 40
2.0
 40
2.0
 40
2.0
 10
2.390737491873551
 20
4.997973021913721
 30
0.0
 10
2.390737491873551
 20
4.868910051757944
 30
0.0
 10
2.534430671990802
 20
4.912781503938289
 30
0.0
 10
2.534430671990802
 20
5.029887319791189
 30
0.0
 10
2.534430671990802
 20
5.124484410238905
 30
0.0
 10
2.390737491873551
 20
5.110855659514881
 30
0.0
 10
2.390737491873551
 20
4.997973021913721
 30
0.0
  0
SPLINE
  5
84
330
1F
100
AcDbEntity
  8
Layer 1
 62
   250
420
  2301728
370
    35
100
AcDbSpline
210
0.0
220
0.0
230
1.0
 70
    11
 71
     3
 72
    17
 73
    13
 74
     0
 42
0.0000000001
 43
0.0000000001
 12
1.0
 22
0.0
 32
0.0
 13
1.0
 23
0.0
 33
0.0
 40
0.0
 40
0.0
 40
0.0
 40
0.0
 40
1.0
 40
1.0
 40
1.0
 40
2.0
 40
2.0
 40
2.0
 40
3.0
 40
3.0
 40
3.0
 40
4.0
 40
4.0
 40
4.0
 40
4.0
 10
2.506495149392221
 20
5.043179687928879
 30
0.0
 10
2.506495149392221
 20
5.065007764194547
 30
0.0
 10
2.498755721917809
 20
5.081062148724641
 30
0.0
 10
2.486963935473796
 20
5.091442705099452
 30
0.0
 10
2.445131607277694
 20
5.099268856209404
 30
0.0
 10
2.390737491873551
 20
5.067433398000617
 30
0.0
 10
2.390737491873551
 20
4.997973021913721
 30
0.0
 10
2.390737491873551
 20
4.966663161496058
 30
0.0
 10
2.399181220388073
 20
4.945644505828745
 30
0.0
 10
2.411961130679427
 20
4.933287701759253
 30
0.0
 10
2.453588475736979
 20
4.928128959439302
 30
0.0
 10
2.506495149392221
 20
4.97212937852382
 30
0.0
 10
2.506495149392221
 20
5.043179687928879
 30
0.0
  0
HATCH
  5
85
330
1F
100
AcDbEntity
  8
Layer 1
 62
    43
420
 15444057
100
AcDbHatch
 10
0.0
 20
0.0
 30
0.0
210
0.0
220
0.0
230
1.0
  2
SOLID
 70
     1
 71
     0
 91
        1
 92
        1
 93
        1
 72
     4
 94
        3
 73
     0
 74
     1
 95
       17
 96
       13
 40
0.0
 40
0.0
 40
0.0
 40
0.0
 40
1.0
 40
1.0
 40
1.0
 40
2.0
 40
2.0
 40
2.0
 40
3.0
 40
3.0
 40
3.0
 40
4.0
 40
4.0
 40
4.0
 40
4.0
 10
2.506495149392221
 20
5.043179687928879
 10
2.506495149392221
 20
5.065007764194547
 10
2.498755721917809
 20
5.081062148724641
 10
2.486963935473796
 20
5.091442705099452
 10
2.445131607277694
 20
5.099268856209404
 10
2.390737491873551
 20
5.067433398000617
 10
2.390737491873551
 20
4.997973021913721
 10
2.390737491873551
 20
4.966663161496058
 10
2.399181220388073
 20
4.945644505828745
 10
2.411961130679427
 20
4.933287701759253
 10
2.453588475736979
 20
4.928128959439302
 10
2.506495149392221
 20
4.97212937852382
 10
2.506495149392221
 20
5.043179687928879
 97
        0
 97
        0
 75
     2
 76
     1
 98
        0
  0
SPLINE
  5
86
330
1F
100
AcDbEntity
  8
Layer 1
 62
   250
420
  2301728
370
    35
100
AcDbSpline
210
0.0
220
0.0
230
1.0
 70
    11
 71
     3
 72
    11
 73
     7
 74
     0
 42
0.0000000001
 43
0.0000000001
 12
1.0
 22
0.0
 32
0.0
 13
1.0
 23
0.0
 33
0.0
 40
0.0
 40
0.0
 40
0.0
 40
0.0
 40
1.0
 40
1.0
 40
1.0
 40
2.0
 40
2.0
 40
2.0
 40
2.0
 10
2.461235923597946
 20
4.858232337185781
 30
0.0
 10
2.461235923597946
 20
4.824972508963027
 30
0.0
 10
2.50250323416857
 20
4.82773189736646
 30
0.0
 10
2.50250323416857
 20
4.858232337185781
 30
0.0
 10
2.50250323416857
 20
4.891108479021012
 30
0.0
 10
2.461235923597946
 20
4.89819353724546
 30
0.0
 10
2.461235923597946
 20
4.858232337185781
 30
0.0
  0
HATCH
  5
87
330
1F
100
AcDbEntity
  8
Layer 1
 62
   250
420
  2301728
100
AcDbHatch
 10
0.0
 20
0.0
 30
0.0
210
0.0
220
0.0
230
1.0
  2
SOLID
 70
     1
 71
     0
 91
        1
 92
        1
 93
        1
 72
     4
 94
        3
 73
     0
 74
     1
 95
       11
 96
        7
 40
0.0
 40
0.0
 40
0.0
 40
0.0
 40
1.0
 40
1.0
 40
1.0
 40
2.0
 40
2.0
 40
2.0
 40
2.0
 10
2.461235923597946
 20
4.858232337185781
 10
2.461235923597946
 20
4.824972508963027
 10
2.50250323416857
 20
4.82773189736646
 10
2.50250323416857
 20
4.858232337185781
 10
2.50250323416857
 20
4.891108479021012
 10
2.461235923597946
 20
4.89819353724546
 10
2.461235923597946
 20
4.858232337185781
 97
        0
 97
        0
 75
     2
 76
     1
 98
        0
  0
SPLINE
  5
88
330
1F
100
AcDbEntity
  8
Layer 1
 62
   250
420
  2301728
370
    35
100
AcDbSpline
210
0.0
220
0.0
230
1.0
 70
    11
 71
     3
 72
    11
 73
     7
 74
     0
 42
0.0000000001
 43
0.0000000001
 12
1.0
 22
0.0
 32
0.0
 13
1.0
 23
0.0
 33
0.0
 40
0.0
 40
0.0
 40
0.0
 40
0.0
 40
1.0
 40
1.0
 40
1.0
 40
2.0
 40
2.0
 40
2.0
 40
2.0
 10
2.236379932574272
 20
5.178917945477362
 30
0.0
 10
2.236379932574272
 20
5.145658117254609
 30
0.0
 10
2.277636731189078
 20
5.144785624921332
 30
0.0
 10
2.277636731189078
 20
5.178917945477362
 30
0.0
 10
2.277636731189078
 20
5.204170291352246
 30
0.0
 10
2.236379932574272
 20
5.218823957768968
 30
0.0
 10
2.236379932574272
 20
5.178917945477362
 30
0.0
  0
HATCH
  5
89
330
1F
100
AcDbEntity
  8
Layer 1
 62
   250
420
  2301728
100
AcDbHatch
 10
0.0
 20
0.0
 30
0.0
210
0.0
220
0.0
230
1.0
  2
SOLID
 70
     1
 71
     0
 91
        1
 92
        1
 93
        1
 72
     4
 94
        3
 73
     0
 74
     1
 95
       11
 96
        7
 40
0.0
 40
0.0
 40
0.0
 40
0.0
 40
1.0
 40
1.0
 40
1.0
 40
2.0
 40
2.0
 40
2.0
 40
2.0
 10
2.236379932574272
 20
5.178917945477362
 10
2.236379932574272
 20
5.145658117254609
 10
2.277636731189078
 20
5.144785624921332
 10
2.277636731189078
 20
5.178917945477362
 10
2.277636731189078
 20
5.204170291352246
 10
2.236379932574272
 20
5.218823957768968
 10
2.236379932574272
 20
5.178917945477362
 97
        0
 97
        0
 75
     2
 76
     1
 98
        0
  0
POLYLINE
  5
8A
330
1F
100
AcDbEntity
  8
Layer 1
 62
   250
420
  2301728
370
    25
100
AcDb2dPolyline
 66
     1
 10
0.0
 20
0.0
 30
0.0
  0
VERTEX
  5
8B
330
8A
100
AcDbEntity
  8
Layer 1
 62
   250
420
  2301728
370
    25
100
AcDbVertex
100
AcDb2dVertex
 10
2.860593009265964
 20
5.954994619949452
 30
0.0
  0
VERTEX
  5
8C
330
8A
100
AcDbEntity
  8
Layer 1
 62
   250
420
  2301728
370
    25
100
AcDbVertex
100
AcDb2dVertex
 10
2.860196182933679
 20
5.654662786119401
 30
0.0
  0
VERTEX
  5
8D
330
8A
100
AcDbEntity
  8
Layer 1
 62
   250
420
  2301728
370
    25
100
AcDbVertex
100
AcDb2dVertex
 10
2.982163778354536
 20
5.499128099133991
 30
0.0
  0
VERTEX
  5
8E
330
8A
100
AcDbEntity
  8
Layer 1
 62
   250
420
  2301728
370
    25
100
AcDbVertex
100
AcDb2dVertex
 10
2.820466245902101
 20
5.31992794887089
 30
0.0
  0
VERTEX
  5
8F
330
8A
100
AcDbEntity
  8
Layer 1
 62
   250
420
  2301728
370
    25
100
AcDbVertex
100
AcDb2dVertex
 10
2.892325975905502
 20
5.241461454632978
 30
0.0
  0
VERTEX
  5
90
330
8A
100
AcDbEntity
  8
Layer 1
 62
   250
420
  2301728
370
    25
100
AcDbVertex
100
AcDb2dVertex
 10
2.892391675629395
 20
4.92090461780021
 30
0.0
  0
SEQEND
  5
91
330
8A
100
AcDbEntity
  8
Layer 1
 62
   250
420
  2301728
370
    25
  0
POLYLINE
  5
92
330
1F
100
AcDbEntity
  8
Layer 1
 62
   250
420
  2301728
370
    25
100
AcDb2dPolyline
 66
     1
 10
0.0
 20
0.0
 30
0.0
  0
VERTEX
  5
93
330
92
100
AcDbEntity
  8
Layer 1
 62
   250
420
  2301728
370
    25
100
AcDbVertex
100
AcDb2dVertex
 10
2.862146150738757
 20
5.653380327509037
 30
0.0
  0
VERTEX
  5
94
330
92
100
AcDbEntity
  8
Layer 1
 62
   250
420
  2301728
370
    25
100
AcDbVertex
100
AcDb2dVertex
 10
3.620849336985632
 20
6.133104170811533
 30
0.0
  0
SEQEND
  5
95
330
92
100
AcDbEntity
  8
Layer 1
 62
   250
420
  2301728
370
    25
  0
POLYLINE
  5
96
330
1F
100
AcDbEntity
  8
Layer 1
 62
   250
420
  2301728
370
    25
100
AcDb2dPolyline
 66
     1
 10
0.0
 20
0.0
 30
0.0
  0
VERTEX
  5
97
330
96
100
AcDbEntity
  8
Layer 1
 62
   250
420
  2301728
370
    25
100
AcDbVertex
100
AcDb2dVertex
 10
2.982444973172783
 20
5.497624678085344
 30
0.0
  0
VERTEX
  5
98
330
96
100
AcDbEntity
  8
Layer 1
 62
   250
420
  2301728
370
    25
100
AcDbVertex
100
AcDb2dVertex
 10
3.729303666435903
 20
6.004424464216337
 30
0.0
  0
SEQEND
  5
99
330
96
100
AcDbEntity
  8
Layer 1
 62
   250
420
  2301728
370
    25
  0
POLYLINE
  5
9A
330
1F
100
AcDbEntity
  8
Layer 1
 62
   250
420
  2301728
370
    25
100
AcDb2dPolyline
 66
     1
 10
0.0
 20
0.0
 30
0.0
  0
VERTEX
  5
9B
330
9A
100
AcDbEntity
  8
Layer 1
 62
   250
420
  2301728
370
    25
100
AcDbVertex
100
AcDb2dVertex
 10
2.820416440651898
 20
5.319812317356839
 30
0.0
  0
VERTEX
  5
9C
330
9A
100
AcDbEntity
  8
Layer 1
 62
   250
420
  2301728
370
    25
100
AcDbVertex
100
AcDb2dVertex
 10
3.565146336320974
 20
5.827124561334194
 30
0.0
  0
SEQEND
  5
9D
330
9A
100
AcDbEntity
  8
Layer 1
 62
   250
420
  2301728
370
    25
  0
POLYLINE
  5
9E
330
1F
100
AcDbEntity
  8
Layer 1
 62
   250
420
  2301728
370
    25
100
AcDb2dPolyline
 66
     1
 10
0.0
 20
0.0
 30
0.0
  0
VERTEX
  5
9F
330
9E
100
AcDbEntity
  8
Layer 1
 62
   250
420
  2301728
370
    25
100
AcDbVertex
100
AcDb2dVertex
 10
2.892686138758058
 20
5.239188244186329
 30
0.0
  0
VERTEX
  5
A0
330
9E
100
AcDbEntity
  8
Layer 1
 62
   250
420
  2301728
370
    25
100
AcDbVertex
100
AcDb2dVertex
 10
3.642803409960556
 20
5.756011180194188
 30
0.0
  0
SEQEND
  5
A1
330
9E
100
AcDbEntity
  8
Layer 1
 62
   250
420
  2301728
370
    25
  0
SPLINE
  5
A2
330
1F
100
AcDbEntity
  8
Layer 1
 62
   250
420
  2301728
370
    13
100
AcDbSpline
210
0.0
220
0.0
230
1.0
 70
     8
 71
     3
 72
    11
 73
     7
 74
     0
 42
0.0000000001
 43
0.0000000001
 12
1.0
 22
0.0
 32
0.0
 13
1.0
 23
0.0
 33
0.0
 40
0.0
 40
0.0
 40
0.0
 40
0.0
 40
1.0
 40
1.0
 40
1.0
 40
2.0
 40
2.0
 40
2.0
 40
2.0
 10
2.936610217797225
 20
6.006053817368852
 30
0.0
 10
2.935840217033223
 20
5.990398887160015
 30
0.0
 10
2.89956345748937
 20
5.829947021472561
 30
0.0
 10
2.893839697543954
 20
5.814318371153288
 30
0.0
 10
2.888052865863604
 20
5.798716000723567
 30
0.0
 10
2.866456052626038
 20
5.767198529178409
 30
0.0
 10
2.863107994696545
 20
5.753251791790754
 30
0.0
  0
SPLINE
  5
A3
330
1F
100
AcDbEntity
  8
Layer 1
 62
   250
420
  2301728
370
    13
100
AcDbSpline
210
0.0
220
0.0
230
1.0
 70
     8
 71
     3
 72
    11
 73
     7
 74
     0
 42
0.0000000001
 43
0.0000000001
 12
1.0
 22
0.0
 32
0.0
 13
1.0
 23
0.0
 33
0.0
 40
0.0
 40
0.0
 40
0.0
 40
0.0
 40
1.0
 40
1.0
 40
1.0
 40
2.0
 40
2.0
 40
2.0
 40
2.0
 10
3.052021113164503
 20
6.073459106092413
 30
0.0
 10
3.044615307896695
 20
6.058626961926834
 30
0.0
 10
2.999164238908659
 20
5.880133947549691
 30
0.0
 10
2.990118700923302
 20
5.860384389556947
 30
0.0
 10
2.981046883048369
 20
5.840687832328828
 30
0.0
 10
2.934158304101604
 20
5.711971341275342
 30
0.0
 10
2.932502671059536
 20
5.697149483565454
 30
0.0
  0
SPLINE
  5
A4
330
1F
100
AcDbEntity
  8
Layer 1
 62
   250
420
  2301728
370
    13
100
AcDbSpline
210
0.0
220
0.0
230
1.0
 70
     8
 71
     3
 72
    11
 73
     7
 74
     0
 42
0.0000000001
 43
0.0000000001
 12
1.0
 22
0.0
 32
0.0
 13
1.0
 23
0.0
 33
0.0
 40
0.0
 40
0.0
 40
0.0
 40
0.0
 40
1.0
 40
1.0
 40
1.0
 40
2.0
 40
2.0
 40
2.0
 40
2.0
 10
3.170099152540211
 20
6.148758873638763
 30
0.0
 10
3.169305499875589
 20
6.138057702611339
 30
0.0
 10
3.125854330482828
 20
5.996148926994983
 30
0.0
 10
3.124201325429719
 20
5.978081502924864
 30
0.0
 10
3.122545692387651
 20
5.959961519075629
 30
0.0
 10
3.066469664051914
 20
5.792965960888599
 30
0.0
 10
3.062362117314226
 20
5.77977608432017
 30
0.0
  0
SPLINE
  5
A5
330
1F
100
AcDbEntity
  8
Layer 1
 62
   250
420
  2301728
370
    13
100
AcDbSpline
210
0.0
220
0.0
230
1.0
 70
     8
 71
     3
 72
    14
 73
    10
 74
     0
 42
0.0000000001
 43
0.0000000001
 12
1.0
 22
0.0
 32
0.0
 13
1.0
 23
0.0
 33
0.0
 40
0.0
 40
0.0
 40
0.0
 40
0.0
 40
1.0
 40
1.0
 40
1.0
 40
2.0
 40
2.0
 40
2.0
 40
3.0
 40
3.0
 40
3.0
 40
3.0
 10
3.282251209211709
 20
6.219565009636717
 30
0.0
 10
3.28145492855813
 20
6.211339403997713
 30
0.0
 10
3.241869530919125
 20
6.105578387108418
 30
0.0
 10
3.241036458420164
 20
6.09079594923287
 30
0.0
 10
3.24020075793227
 20
6.075987231467757
 30
0.0
 10
3.189977261000775
 20
5.920502264906493
 30
0.0
 10
3.184227221165808
 20
5.904823682797061
 30
0.0
 10
3.17851660116518
 20
5.889231824323158
 30
0.0
 10
3.174847928583075
 20
5.862965074711408
 30
0.0
 10
3.171576082333281
 20
5.850631922542511
 30
0.0
  0
SPLINE
  5
A6
330
1F
100
AcDbEntity
  8
Layer 1
 62
   250
420
  2301728
370
    13
100
AcDbSpline
210
0.0
220
0.0
230
1.0
 70
     8
 71
     3
 72
    11
 73
     7
 74
     0
 42
0.0000000001
 43
0.0000000001
 12
1.0
 22
0.0
 32
0.0
 13
1.0
 23
0.0
 33
0.0
 40
0.0
 40
0.0
 40
0.0
 40
0.0
 40
1.0
 40
1.0
 40
1.0
 40
2.0
 40
2.0
 40
2.0
 40
2.0
 10
3.389988244437695
 20
6.284520783087853
 30
0.0
 10
3.38502397330045
 20
6.260627107503043
 30
0.0
 10
3.361090877881325
 20
6.155801884039925
 30
0.0
 10
3.357819031631531
 20
6.136002615248028
 30
0.0
 10
3.354534045436948
 20
6.11629269808063
 30
0.0
 10
3.312754277019975
 20
5.95085028136638
 30
0.0
 10
3.310315503269117
 20
5.937710336588111
 30
0.0
  0
SPLINE
  5
A7
330
1F
100
AcDbEntity
  8
Layer 1
 62
   250
420
  2301728
370
    13
100
AcDbSpline
210
0.0
220
0.0
230
1.0
 70
     8
 71
     3
 72
    11
 73
     7
 74
     0
 42
0.0000000001
 43
0.0000000001
 12
1.0
 22
0.0
 32
0.0
 13
1.0
 23
0.0
 33
0.0
 40
0.0
 40
0.0
 40
0.0
 40
0.0
 40
1.0
 40
1.0
 40
1.0
 40
2.0
 40
2.0
 40
2.0
 40
2.0
 10
3.500676511260887
 20
6.353878667605474
 30
0.0
 10
3.499843438761925
 20
6.338234249352454
 30
0.0
 10
3.457383021205437
 20
6.200201757445698
 30
0.0
 10
3.450813048816296
 20
6.182930842669432
 30
0.0
 10
3.444216796537603
 20
6.165633190723017
 30
0.0
 10
3.396198182339908
 20
5.999407633300001
 30
0.0
 10
3.392926336090113
 20
5.987857621839894
 30
0.0
  0
SPLINE
  5
A8
330
1F
100
AcDbEntity
  8
Layer 1
 62
   250
420
  2301728
370
    13
100
AcDbSpline
210
0.0
220
0.0
230
1.0
 70
     8
 71
     3
 72
    14
 73
    10
 74
     0
 42
0.0000000001
 43
0.0000000001
 12
1.0
 22
0.0
 32
0.0
 13
1.0
 23
0.0
 33
0.0
 40
0.0
 40
0.0
 40
0.0
 40
0.0
 40
1.0
 40
1.0
 40
1.0
 40
2.0
 40
2.0
 40
2.0
 40
3.0
 40
3.0
 40
3.0
 40
3.0
 10
3.620207960919843
 20
6.380426612035484
 30
0.0
 10
3.619014853933979
 20
6.364834753561594
 30
0.0
 10
3.578580615862291
 20
6.293734512366377
 30
0.0
 10
3.577540077902388
 20
6.282455183768711
 30
0.0
 10
3.576719999681675
 20
6.273407017794384
 30
0.0
 10
3.534798319861086
 20
6.140173461280811
 30
0.0
 10
3.5314607738874
 20
6.126173936553869
 30
0.0
 10
3.52814950780329
 20
6.112135219552783
 30
0.0
 10
3.520052673830908
 20
6.072510402079425
 30
0.0
 10
3.518399668777799
 20
6.067569782842788
 30
0.0
  0
SPLINE
  5
A9
330
1F
100
AcDbEntity
  8
Layer 1
 62
   250
420
  2301728
370
    13
100
AcDbSpline
210
0.0
220
0.0
230
1.0
 70
     8
 71
     3
 72
     8
 73
     4
 74
     0
 42
0.0000000001
 43
0.0000000001
 12
1.0
 22
0.0
 32
0.0
 13
1.0
 23
0.0
 33
0.0
 40
0.0
 40
0.0
 40
0.0
 40
0.0
 40
1.0
 40
1.0
 40
1.0
 40
1.0
 10
2.922148394574252
 20
5.688295788773858
 30
0.0
 10
2.933606426420915
 20
5.653777153841347
 30
0.0
 10
2.971988205118224
 20
5.494531535084534
 30
0.0
 10
2.971988205118224
 20
5.514898449490866
 30
0.0
  0
SPLINE
  5
AA
330
1F
100
AcDbEntity
  8
Layer 1
 62
   250
420
  2301728
370
    13
100
AcDbSpline
210
0.0
220
0.0
230
1.0
 70
     8
 71
     3
 72
    11
 73
     7
 74
     0
 42
0.0000000001
 43
0.0000000001
 12
1.0
 22
0.0
 32
0.0
 13
1.0
 23
0.0
 33
0.0
 40
0.0
 40
0.0
 40
0.0
 40
0.0
 40
1.0
 40
1.0
 40
1.0
 40
2.0
 40
2.0
 40
2.0
 40
2.0
 10
3.043167285982134
 20
5.765030438290005
 30
0.0
 10
3.04564285157835
 20
5.755149199816742
 30
0.0
 10
3.088000777565589
 20
5.682700800287269
 30
0.0
 10
3.092095184358489
 20
5.668727783010088
 30
0.0
 10
3.096226382996772
 20
5.654765277688676
 30
0.0
 10
3.115113739621064
 20
5.59214555685335
 30
0.0
 10
3.115113739621064
 20
5.588077429950001
 30
0.0
  0
SPLINE
  5
AB
330
1F
100
AcDbEntity
  8
Layer 1
 62
   250
420
  2301728
370
    13
100
AcDbSpline
210
0.0
220
0.0
230
1.0
 70
     8
 71
     3
 72
    11
 73
     7
 74
     0
 42
0.0000000001
 43
0.0000000001
 12
1.0
 22
0.0
 32
0.0
 13
1.0
 23
0.0
 33
0.0
 40
0.0
 40
0.0
 40
0.0
 40
0.0
 40
1.0
 40
1.0
 40
1.0
 40
2.0
 40
2.0
 40
2.0
 40
2.0
 10
3.173050384137418
 20
5.846219529085968
 30
0.0
 10
3.174679737289908
 20
5.840482629195776
 30
0.0
 10
3.203167137569203
 20
5.713934449025222
 30
0.0
 10
3.203167137569203
 20
5.704105770331075
 30
0.0
 10
3.203167137569203
 20
5.694250811747375
 30
0.0
 10
3.208980249139106
 20
5.659719036870077
 30
0.0
 10
3.208980249139106
 20
5.652302852037224
 30
0.0
  0
SPLINE
  5
AC
330
1F
100
AcDbEntity
  8
Layer 1
 62
   250
420
  2301728
370
    13
100
AcDbSpline
210
0.0
220
0.0
230
1.0
 70
     8
 71
     3
 72
    11
 73
     7
 74
     0
 42
0.0000000001
 43
0.0000000001
 12
1.0
 22
0.0
 32
0.0
 13
1.0
 23
0.0
 33
0.0
 40
0.0
 40
0.0
 40
0.0
 40
0.0
 40
1.0
 40
1.0
 40
1.0
 40
2.0
 40
2.0
 40
2.0
 40
2.0
 10
3.298497436935552
 20
5.927405991892985
 30
0.0
 10
3.300176721878213
 20
5.918321034073288
 30
0.0
 10
3.313382366380362
 20
5.860384389556947
 30
0.0
 10
3.315871210977598
 20
5.846437652169294
 30
0.0
 10
3.318372917407158
 20
5.832438355002523
 30
0.0
 10
3.338905395117687
 20
5.749375508081167
 30
0.0
 10
3.338905395117687
 20
5.741136762705196
 30
0.0
  0
SPLINE
  5
AD
330
1F
100
AcDbEntity
  8
Layer 1
 62
   250
420
  2301728
370
    13
100
AcDbSpline
210
0.0
220
0.0
230
1.0
 70
     8
 71
     3
 72
    11
 73
     7
 74
     0
 42
0.0000000001
 43
0.0000000001
 12
1.0
 22
0.0
 32
0.0
 13
1.0
 23
0.0
 33
0.0
 40
0.0
 40
0.0
 40
0.0
 40
0.0
 40
1.0
 40
1.0
 40
1.0
 40
2.0
 40
2.0
 40
2.0
 40
2.0
 10
3.387037153694488
 20
5.984932670132252
 30
0.0
 10
3.388692786778367
 20
5.97587399220212
 30
0.0
 10
3.40477068231323
 20
5.889168752588223
 30
0.0
 10
3.406400035465746
 20
5.880160227439925
 30
0.0
 10
3.408005736717642
 20
5.871124980418699
 30
0.0
 10
3.417936906981064
 20
5.806158465445984
 30
0.0
 10
3.417103834482127
 20
5.793799033387535
 30
0.0
  0
SPLINE
  5
AE
330
1F
100
AcDbEntity
  8
Layer 1
 62
   250
420
  2301728
370
    13
100
AcDbSpline
210
0.0
220
0.0
230
1.0
 70
     8
 71
     3
 72
    11
 73
     7
 74
     0
 42
0.0000000001
 43
0.0000000001
 12
1.0
 22
0.0
 32
0.0
 13
1.0
 23
0.0
 33
0.0
 40
0.0
 40
0.0
 40
0.0
 40
0.0
 40
1.0
 40
1.0
 40
1.0
 40
2.0
 40
2.0
 40
2.0
 40
2.0
 10
3.509222731344658
 20
6.057856735662704
 30
0.0
 10
3.513367069927729
 20
6.047168929790713
 30
0.0
 10
3.520759602859976
 20
6.001883198896217
 30
0.0
 10
3.526507014706011
 20
5.983789494936546
 30
0.0
 10
3.532257054540979
 20
5.965698418965821
 30
0.0
 10
3.545410139264024
 20
5.893300172550135
 30
0.0
 10
3.547065772306066
 20
5.882585640254306
 30
0.0
  0
SPLINE
  5
AF
330
1F
100
AcDbEntity
  8
Layer 1
 62
   250
420
  2301728
370
    13
100
AcDbSpline
210
0.0
220
0.0
230
1.0
 70
     8
 71
     3
 72
    11
 73
     7
 74
     0
 42
0.0000000001
 43
0.0000000001
 12
1.0
 22
0.0
 32
0.0
 13
1.0
 23
0.0
 33
0.0
 40
0.0
 40
0.0
 40
0.0
 40
0.0
 40
1.0
 40
1.0
 40
1.0
 40
2.0
 40
2.0
 40
2.0
 40
2.0
 10
3.60140732793108
 20
6.117872119442962
 30
0.0
 10
3.603049821028384
 20
6.114613413137956
 30
0.0
 10
3.627676705531813
 20
6.034848692355947
 30
0.0
 10
3.629319198629092
 20
6.024108101494195
 30
0.0
 10
3.630998483571754
 20
6.013446350301099
 30
0.0
 10
3.641676002698583
 20
5.950132840381482
 30
0.0
 10
3.641676002698583
 20
5.945192221144857
 30
0.0
  0
SPLINE
  5
B0
330
1F
100
AcDbEntity
  8
Layer 1
 62
   250
420
  2301728
370
    13
100
AcDbSpline
210
0.0
220
0.0
230
1.0
 70
     8
 71
     3
 72
     8
 73
     4
 74
     0
 42
0.0000000001
 43
0.0000000001
 12
1.0
 22
0.0
 32
0.0
 13
1.0
 23
0.0
 33
0.0
 40
0.0
 40
0.0
 40
0.0
 40
0.0
 40
1.0
 40
1.0
 40
1.0
 40
1.0
 10
3.066622087411335
 20
5.553571934962254
 30
0.0
 10
3.060887815510088
 20
5.547001962573126
 30
0.0
 10
3.002412433257834
 20
5.445732408166994
 30
0.0
 10
2.996688673312418
 20
5.439162435777866
 30
0.0
  0
SPLINE
  5
B1
330
1F
100
AcDbEntity
  8
Layer 1
 62
   250
420
  2301728
370
    13
100
AcDbSpline
210
0.0
220
0.0
230
1.0
 70
     8
 71
     3
 72
    11
 73
     7
 74
     0
 42
0.0000000001
 43
0.0000000001
 12
1.0
 22
0.0
 32
0.0
 13
1.0
 23
0.0
 33
0.0
 40
0.0
 40
0.0
 40
0.0
 40
0.0
 40
1.0
 40
1.0
 40
1.0
 40
2.0
 40
2.0
 40
2.0
 40
2.0
 10
3.212265235333689
 20
5.65141721975917
 30
0.0
 10
3.208980249139106
 20
5.645706599758531
 30
0.0
 10
3.191656545943437
 20
5.601283074452163
 30
0.0
 10
3.185909134097427
 20
5.596366107116144
 30
0.0
 10
3.1801985140968
 20
5.591375556089335
 30
0.0
 10
3.157884259874335
 20
5.555960776922953
 30
0.0
 10
3.156254906721819
 20
5.549377664589037
 30
0.0
  0
SPLINE
  5
B2
330
1F
100
AcDbEntity
  8
Layer 1
 62
   250
420
  2301728
370
    13
100
AcDbSpline
210
0.0
220
0.0
230
1.0
 70
     8
 71
     3
 72
    11
 73
     7
 74
     0
 42
0.0000000001
 43
0.0000000001
 12
1.0
 22
0.0
 32
0.0
 13
1.0
 23
0.0
 33
0.0
 40
0.0
 40
0.0
 40
0.0
 40
0.0
 40
1.0
 40
1.0
 40
1.0
 40
2.0
 40
2.0
 40
2.0
 40
2.0
 10
3.310956871506379
 20
5.720517561359125
 30
0.0
 10
3.308504818878671
 20
5.713934449025222
 30
0.0
 10
3.295378014045177
 20
5.673655262301913
 30
0.0
 10
3.289591320757179
 20
5.667122081758154
 30
0.0
 10
3.283817490629265
 20
5.66053918486783
 30
0.0
 10
3.276375025906848
 20
5.638250995091337
 30
0.0
 10
3.27309003971229
 20
5.630871602103866
 30
0.0
  0
SPLINE
  5
B3
330
1F
100
AcDbEntity
  8
Layer 1
 62
   250
420
  2301728
370
    13
100
AcDbSpline
210
0.0
220
0.0
230
1.0
 70
     8
 71
     3
 72
    11
 73
     7
 74
     0
 42
0.0000000001
 43
0.0000000001
 12
1.0
 22
0.0
 32
0.0
 13
1.0
 23
0.0
 33
0.0
 40
0.0
 40
0.0
 40
0.0
 40
0.0
 40
1.0
 40
1.0
 40
1.0
 40
2.0
 40
2.0
 40
2.0
 40
2.0
 10
3.42777872562
 20
5.800345353876082
 30
0.0
 10
3.42777872562
 20
5.795431014529009
 30
0.0
 10
3.418720047689855
 20
5.755125547916135
 30
0.0
 10
3.412970007854887
 20
5.747693595149561
 30
0.0
 10
3.407183176174537
 20
5.740316830151035
 30
0.0
 10
3.396482005147113
 20
5.715613733967883
 30
0.0
 10
3.389938312647523
 20
5.707414408426239
 30
0.0
  0
SPLINE
  5
B4
330
1F
100
AcDbEntity
  8
Layer 1
 62
   250
420
  2301728
370
    13
100
AcDbSpline
210
0.0
220
0.0
230
1.0
 70
     8
 71
     3
 72
    11
 73
     7
 74
     0
 42
0.0000000001
 43
0.0000000001
 12
1.0
 22
0.0
 32
0.0
 13
1.0
 23
0.0
 33
0.0
 40
0.0
 40
0.0
 40
0.0
 40
0.0
 40
1.0
 40
1.0
 40
1.0
 40
2.0
 40
2.0
 40
2.0
 40
2.0
 10
3.532257054540979
 20
5.870265628030211
 30
0.0
 10
3.52567394220705
 20
5.862027103187819
 30
0.0
 10
3.510917784221065
 20
5.819232710500361
 30
0.0
 10
3.504295252052821
 20
5.814318371153288
 30
0.0
 10
3.497712139718891
 20
5.809453963596373
 30
0.0
 10
3.478735431470113
 20
5.774052324374755
 30
0.0
 10
3.473834232067828
 20
5.76418422584628
 30
0.0
  0
SPLINE
  5
B5
330
1F
100
AcDbEntity
  8
Layer 1
 62
   250
420
  2301728
370
    13
100
AcDbSpline
210
0.0
220
0.0
230
1.0
 70
     8
 71
     3
 72
    11
 73
     7
 74
     0
 42
0.0000000001
 43
0.0000000001
 12
1.0
 22
0.0
 32
0.0
 13
1.0
 23
0.0
 33
0.0
 40
0.0
 40
0.0
 40
0.0
 40
0.0
 40
1.0
 40
1.0
 40
1.0
 40
2.0
 40
2.0
 40
2.0
 40
2.0
 10
3.455766807997709
 20
5.751853701666353
 30
0.0
 10
3.463989785439935
 20
5.746899942484939
 30
0.0
 10
3.482892909997973
 20
5.714793801413722
 30
0.0
 10
3.487833529234599
 20
5.709096321357858
 30
0.0
 10
3.492810940316606
 20
5.703296566256439
 30
0.0
 10
3.50756709830259
 20
5.672832701758794
 30
0.0
 10
3.510058431832552
 20
5.666302149204019
 30
0.0
  0
SPLINE
  5
B6
330
1F
100
AcDbEntity
  8
Layer 1
 62
   250
420
  2301728
370
    13
100
AcDbSpline
210
0.0
220
0.0
230
1.0
 70
     8
 71
     3
 72
    11
 73
     7
 74
     0
 42
0.0000000001
 43
0.0000000001
 12
1.0
 22
0.0
 32
0.0
 13
1.0
 23
0.0
 33
0.0
 40
0.0
 40
0.0
 40
0.0
 40
0.0
 40
1.0
 40
1.0
 40
1.0
 40
2.0
 40
2.0
 40
2.0
 40
2.0
 10
3.327394803491921
 20
5.663004023064647
 30
0.0
 10
3.33151286218544
 20
5.656357838995796
 30
0.0
 10
3.348849705325872
 20
5.623442277326236
 30
0.0
 10
3.353790324562497
 20
5.617694865480214
 30
0.0
 10
3.358652104130467
 20
5.611984245479587
 30
0.0
 10
3.380070214119062
 20
5.583136810713364
 30
0.0
 10
3.383342060368831
 20
5.57657997826901
 30
0.0
  0
SPLINE
  5
B7
330
1F
100
AcDbEntity
  8
Layer 1
 62
   250
420
  2301728
370
    13
100
AcDbSpline
210
0.0
220
0.0
230
1.0
 70
     8
 71
     3
 72
    11
 73
     7
 74
     0
 42
0.0000000001
 43
0.0000000001
 12
1.0
 22
0.0
 32
0.0
 13
1.0
 23
0.0
 33
0.0
 40
0.0
 40
0.0
 40
0.0
 40
0.0
 40
1.0
 40
1.0
 40
1.0
 40
2.0
 40
2.0
 40
2.0
 40
2.0
 10
3.203219697348307
 20
5.578209331421514
 30
0.0
 10
3.208980249139106
 20
5.574950625116508
 30
0.0
 10
3.234466486031048
 20
5.550313228657248
 30
0.0
 10
3.237725192336054
 20
5.543693324477961
 30
0.0
 10
3.241036458420164
 20
5.537083932254505
 30
0.0
 10
3.255009475697382
 20
5.501719084878257
 30
0.0
 10
3.258294461891965
 20
5.491877266239322
 30
0.0
  0
SPLINE
  5
B8
330
1F
100
AcDbEntity
  8
Layer 1
 62
   250
420
  2301728
370
    13
100
AcDbSpline
210
0.0
220
0.0
230
1.0
 70
     8
 71
     3
 72
    11
 73
     7
 74
     0
 42
0.0000000001
 43
0.0000000001
 12
1.0
 22
0.0
 32
0.0
 13
1.0
 23
0.0
 33
0.0
 40
0.0
 40
0.0
 40
0.0
 40
0.0
 40
1.0
 40
1.0
 40
1.0
 40
2.0
 40
2.0
 40
2.0
 40
2.0
 10
3.103616287940086
 20
5.511600323351508
 30
0.0
 10
3.108520115331329
 20
5.504194650474473
 30
0.0
 10
3.122545692387651
 20
5.487719787711486
 30
0.0
 10
3.13078194415516
 20
5.474566702988441
 30
0.0
 10
3.138983763305254
 20
5.461400478320607
 30
0.0
 10
3.153855687768656
 20
5.428487754221477
 30
0.0
 10
3.157114394155971
 20
5.421108151652523
 30
0.0
  0
SPLINE
  5
B9
330
1F
100
AcDbEntity
  8
Layer 1
 62
   250
420
  2301728
370
    13
100
AcDbSpline
210
0.0
220
0.0
230
1.0
 70
     8
 71
     3
 72
    11
 73
     7
 74
     0
 42
0.0000000001
 43
0.0000000001
 12
1.0
 22
0.0
 32
0.0
 13
1.0
 23
0.0
 33
0.0
 40
0.0
 40
0.0
 40
0.0
 40
0.0
 40
1.0
 40
1.0
 40
1.0
 40
2.0
 40
2.0
 40
2.0
 40
2.0
 10
2.953098220504999
 20
5.410380909859592
 30
0.0
 10
2.956409486589109
 20
5.405426941554134
 30
0.0
 10
2.976952476255469
 20
5.378300839553869
 30
0.0
 10
2.982715656035225
 20
5.371757147054293
 30
0.0
 10
2.988436787991683
 20
5.365174034720389
 30
0.0
 10
3.004927549889519
 20
5.333120453428275
 30
0.0
 10
3.009841889360738
 20
5.322379862566511
 30
0.0
  0
SPLINE
  5
BA
330
1F
100
AcDbEntity
  8
Layer 1
 62
   250
420
  2301728
370
    13
100
AcDbSpline
210
0.0
220
0.0
230
1.0
 70
     8
 71
     3
 72
    11
 73
     7
 74
     0
 42
0.0000000001
 43
0.0000000001
 12
1.0
 22
0.0
 32
0.0
 13
1.0
 23
0.0
 33
0.0
 40
0.0
 40
0.0
 40
0.0
 40
0.0
 40
1.0
 40
1.0
 40
1.0
 40
2.0
 40
2.0
 40
2.0
 40
2.0
 10
3.01892671585516
 20
5.326524201149582
 30
0.0
 10
3.015615449771051
 20
5.318285455773599
 30
0.0
 10
2.972821277617186
 20
5.160285503781779
 30
0.0
 10
2.966238165283256
 20
5.14631248650456
 30
0.0
 10
2.959694472783692
 20
5.132336841238397
 30
0.0
 10
2.904157182183856
 20
4.985873760761883
 30
0.0
 10
2.892659858867824
 20
4.963685650009311
 30
0.0
  0
SPLINE
  5
BB
330
1F
100
AcDbEntity
  8
Layer 1
 62
   250
420
  2301728
370
    13
100
AcDbSpline
210
0.0
220
0.0
230
1.0
 70
     8
 71
     3
 72
    11
 73
     7
 74
     0
 42
0.0000000001
 43
0.0000000001
 12
1.0
 22
0.0
 32
0.0
 13
1.0
 23
0.0
 33
0.0
 40
0.0
 40
0.0
 40
0.0
 40
0.0
 40
1.0
 40
1.0
 40
1.0
 40
2.0
 40
2.0
 40
2.0
 40
2.0
 10
3.159589824706548
 20
5.421108151652523
 30
0.0
 10
3.163297917122968
 20
5.434965537415691
 30
0.0
 10
3.093711397566216
 20
5.242602001839726
 30
0.0
 10
3.091285763760147
 20
5.233543528566353
 30
0.0
 10
3.088833850064525
 20
5.224471506034686
 30
0.0
 10
3.026240540858276
 20
5.034930430597089
 30
0.0
 10
3.025470408354749
 20
5.016810446747867
 30
0.0
  0
SPLINE
  5
BC
330
1F
100
AcDbEntity
  8
Layer 1
 62
   250
420
  2301728
370
    13
100
AcDbSpline
210
0.0
220
0.0
230
1.0
 70
     8
 71
     3
 72
    14
 73
    10
 74
     0
 42
0.0000000001
 43
0.0000000001
 12
1.0
 22
0.0
 32
0.0
 13
1.0
 23
0.0
 33
0.0
 40
0.0
 40
0.0
 40
0.0
 40
0.0
 40
1.0
 40
1.0
 40
1.0
 40
2.0
 40
2.0
 40
2.0
 40
3.0
 40
3.0
 40
3.0
 40
3.0
 10
3.259127534390902
 20
5.490261053031595
 30
0.0
 10
3.258294461891965
 20
5.481226027002069
 30
0.0
 10
3.239380825378122
 20
5.391480204166479
 30
0.0
 10
3.230332659403807
 20
5.375015853359299
 30
0.0
 10
3.221247701584111
 20
5.358527850651537
 30
0.0
 10
3.180968514860802
 20
5.237611450812943
 30
0.0
 10
3.174372262582109
 20
5.217078973102414
 30
0.0
 10
3.167802290192968
 20
5.196522843491291
 30
0.0
 10
3.136145535233153
 20
5.109649412584241
 30
0.0
 10
3.136145535233153
 20
5.09649895585014
 30
0.0
  0
SPLINE
  5
BD
330
1F
100
AcDbEntity
  8
Layer 1
 62
   250
420
  2301728
370
    13
100
AcDbSpline
210
0.0
220
0.0
230
1.0
 70
     8
 71
     3
 72
    14
 73
    10
 74
     0
 42
0.0000000001
 43
0.0000000001
 12
1.0
 22
0.0
 32
0.0
 13
1.0
 23
0.0
 33
0.0
 40
0.0
 40
0.0
 40
0.0
 40
0.0
 40
1.0
 40
1.0
 40
1.0
 40
2.0
 40
2.0
 40
2.0
 40
3.0
 40
3.0
 40
3.0
 40
3.0
 10
3.380853354827827
 20
5.574990044950836
 30
0.0
 10
3.379224001675336
 20
5.562606960991793
 30
0.0
 10
3.345525299296974
 20
5.451532379792133
 30
0.0
 10
3.343869666254907
 20
5.440831208764709
 30
0.0
 10
3.342203660978435
 20
5.430166829582655
 30
0.0
 10
3.311766153172635
 20
5.344591625219715
 30
0.0
 10
3.308504818878671
 20
5.333900966148096
 30
0.0
 10
3.305169900893967
 20
5.32321293506546
 30
0.0
 10
3.268149420475664
 20
5.204787868756827
 30
0.0
 10
3.268945701129218
 20
5.192428436698378
 30
0.0
  0
SPLINE
  5
BE
330
1F
100
AcDbEntity
  8
Layer 1
 62
   250
420
  2301728
370
    13
100
AcDbSpline
210
0.0
220
0.0
230
1.0
 70
     8
 71
     3
 72
    14
 73
    10
 74
     0
 42
0.0000000001
 43
0.0000000001
 12
1.0
 22
0.0
 32
0.0
 13
1.0
 23
0.0
 33
0.0
 40
0.0
 40
0.0
 40
0.0
 40
0.0
 40
1.0
 40
1.0
 40
1.0
 40
2.0
 40
2.0
 40
2.0
 40
3.0
 40
3.0
 40
3.0
 40
3.0
 10
3.509222731344658
 20
5.664685935996267
 30
0.0
 10
3.509222731344658
 20
5.655561558342242
 30
0.0
 10
3.466428702050406
 20
5.535504510892135
 30
0.0
 10
3.463130433051447
 20
5.51984958068331
 30
0.0
 10
3.459858729495282
 20
5.504194650474473
 30
0.0
 10
3.429434358662042
 20
5.428537476430152
 30
0.0
 10
3.425290020078996
 20
5.412075753611942
 30
0.0
 10
3.421208753230859
 20
5.395585331665491
 30
0.0
 10
3.390695173466762
 20
5.293353724551316
 30
0.0
 10
3.384085781243281
 20
5.273604387549577
 30
0.0
  0
SPLINE
  5
BF
330
1F
100
AcDbEntity
  8
Layer 1
 62
   250
420
  2301728
370
    13
100
AcDbSpline
210
0.0
220
0.0
230
1.0
 70
     8
 71
     3
 72
    14
 73
    10
 74
     0
 42
0.0000000001
 43
0.0000000001
 12
1.0
 22
0.0
 32
0.0
 13
1.0
 23
0.0
 33
0.0
 40
0.0
 40
0.0
 40
0.0
 40
0.0
 40
1.0
 40
1.0
 40
1.0
 40
2.0
 40
2.0
 40
2.0
 40
3.0
 40
3.0
 40
3.0
 40
3.0
 10
3.624402231293061
 20
5.740277410316694
 30
0.0
 10
3.624402231293061
 20
5.736196143468558
 30
0.0
 10
3.606245455598456
 20
5.640702908786971
 30
0.0
 10
3.605475601206662
 20
5.636647921828398
 30
0.0
 10
3.604681802169832
 20
5.632566654980261
 30
0.0
 10
3.57009746751343
 20
5.52153149361493
 30
0.0
 10
3.566799341374083
 20
5.50503035096238
 30
0.0
 10
3.563527495124289
 20
5.488579140099975
 30
0.0
 10
3.536285761609987
 20
5.394481576276247
 30
0.0
 10
3.534630128567919
 20
5.381354562720339
 30
0.0
  0
POLYLINE
  5
C0
330
1F
100
AcDbEntity
  8
Layer 1
 62
   250
420
  2301728
370
    25
100
AcDb2dPolyline
 66
     1
 10
0.0
 20
0.0
 30
0.0
  0
VERTEX
  5
C1
330
C0
100
AcDbEntity
  8
Layer 1
 62
   250
420
  2301728
370
    25
100
AcDbVertex
100
AcDb2dVertex
 10
0.4490268280769922
 20
6.527071023749929
 30
0.0
  0
VERTEX
  5
C2
330
C0
100
AcDbEntity
  8
Layer 1
 62
   250
420
  2301728
370
    25
100
AcDbVertex
100
AcDb2dVertex
 10
0.539892174207681
 20
6.540594654915733
 30
0.0
  0
VERTEX
  5
C3
330
C0
100
AcDbEntity
  8
Layer 1
 62
   250
420
  2301728
370
    25
100
AcDbVertex
100
AcDb2dVertex
 10
0.5247497018452046
 20
6.581002613097856
 30
0.0
  0
SEQEND
  5
C4
330
C0
100
AcDbEntity
  8
Layer 1
 62
   250
420
  2301728
370
    25
  0
SPLINE
  5
C5
330
1F
100
AcDbEntity
  8
Layer 1
 62
   250
420
  2301728
370
    35
100
AcDbSpline
210
0.0
220
0.0
230
1.0
 70
    11
 71
     3
 72
    35
 73
    31
 74
     0
 42
0.0000000001
 43
0.0000000001
 12
1.0
 22
0.0
 32
0.0
 13
1.0
 23
0.0
 33
0.0
 40
0.0
 40
0.0
 40
0.0
 40
0.0
 40
1.0
 40
1.0
 40
1.0
 40
2.0
 40
2.0
 40
2.0
 40
3.0
 40
3.0
 40
3.0
 40
4.0
 40
4.0
 40
4.0
 40
5.0
 40
5.0
 40
5.0
 40
6.0
 40
6.0
 40
6.0
 40
7.0
 40
7.0
 40
7.0
 40
8.0
 40
8.0
 40
8.0
 40
9.0
 40
9.0
 40
9.0
 40
10.0
 40
10.0
 40
10.0
 40
10.0
 10
1.334664362110288
 20
6.034002704790269
 30
0.0
 10
1.334664362110288
 20
6.034002704790269
 30
0.0
 10
1.334664362110288
 20
5.684214521925734
 30
0.0
 10
1.334664362110288
 20
5.664735867786425
 30
0.0
 10
1.334664362110288
 20
5.645283493536668
 30
0.0
 10
1.341171262764482
 20
5.616141724007421
 30
0.0
 10
1.357364930709221
 20
5.599974335952234
 30
0.0
 10
1.377679285336424
 20
5.579570843098685
 30
0.0
 10
1.929273143216543
 20
5.324290410537274
 30
0.0
 10
1.950357498607761
 20
5.314538150225695
 30
0.0
 10
1.977189265844989
 20
5.302167999508583
 30
0.0
 10
1.984334767815413
 20
5.317670506357987
 30
0.0
 10
1.98912296369263
 20
5.342717869094321
 30
0.0
 10
1.98912296369263
 20
5.342717869094321
 30
0.0
 10
1.959211193399357
 20
5.355794742137656
 30
0.0
 10
1.959211193399357
 20
5.355794742137656
 30
0.0
 10
1.959211193399357
 20
5.355794742137656
 30
0.0
 10
1.958606755939564
 20
5.820194554458137
 30
0.0
 10
1.958606755939564
 20
5.820194554458137
 30
0.0
 10
1.958606755939564
 20
5.820194554458137
 30
0.0
 10
1.753295218361308
 20
6.230959740182672
 30
0.0
 10
1.753295218361308
 20
6.230959740182672
 30
0.0
 10
1.753295218361308
 20
6.230959740182672
 30
0.0
 10
1.57979538312606
 20
6.306656565827185
 30
0.0
 10
1.57979538312606
 20
6.306656565827185
 30
0.0
 10
1.57979538312606
 20
6.306656565827185
 30
0.0
 10
1.551589082465789
 20
6.294362601726776
 30
0.0
 10
1.551589082465789
 20
6.294362601726776
 30
0.0
 10
1.551589082465789
 20
6.294362601726776
 30
0.0
 10
1.334664362110288
 20
6.034002704790269
 30
0.0
 10
1.334664362110288
 20
6.034002704790269
 30
0.0
  0
HATCH
  5
C6
330
1F
100
AcDbEntity
  8
Layer 1
 62
     9
420
 12307926
100
AcDbHatch
 10
0.0
 20
0.0
 30
0.0
210
0.0
220
0.0
230
1.0
  2
SOLID
 70
     1
 71
     0
 91
        1
 92
        1
 93
        1
 72
     4
 94
        3
 73
     0
 74
     1
 95
       35
 96
       31
 40
0.0
 40
0.0
 40
0.0
 40
0.0
 40
1.0
 40
1.0
 40
1.0
 40
2.0
 40
2.0
 40
2.0
 40
3.0
 40
3.0
 40
3.0
 40
4.0
 40
4.0
 40
4.0
 40
5.0
 40
5.0
 40
5.0
 40
6.0
 40
6.0
 40
6.0
 40
7.0
 40
7.0
 40
7.0
 40
8.0
 40
8.0
 40
8.0
 40
9.0
 40
9.0
 40
9.0
 40
10.0
 40
10.0
 40
10.0
 40
10.0
 10
1.334664362110288
 20
6.034002704790269
 10
1.334664362110288
 20
6.034002704790269
 10
1.334664362110288
 20
5.684214521925734
 10
1.334664362110288
 20
5.664735867786425
 10
1.334664362110288
 20
5.645283493536668
 10
1.341171262764482
 20
5.616141724007421
 10
1.357364930709221
 20
5.599974335952234
 10
1.377679285336424
 20
5.579570843098685
 10
1.929273143216543
 20
5.324290410537274
 10
1.950357498607761
 20
5.314538150225695
 10
1.977189265844989
 20
5.302167999508583
 10
1.984334767815413
 20
5.317670506357987
 10
1.98912296369263
 20
5.342717869094321
 10
1.98912296369263
 20
5.342717869094321
 10
1.959211193399357
 20
5.355794742137656
 10
1.959211193399357
 20
5.355794742137656
 10
1.959211193399357
 20
5.355794742137656
 10
1.958606755939564
 20
5.820194554458137
 10
1.958606755939564
 20
5.820194554458137
 10
1.958606755939564
 20
5.820194554458137
 10
1.753295218361308
 20
6.230959740182672
 10
1.753295218361308
 20
6.230959740182672
 10
1.753295218361308
 20
6.230959740182672
 10
1.57979538312606
 20
6.306656565827185
 10
1.57979538312606
 20
6.306656565827185
 10
1.57979538312606
 20
6.306656565827185
 10
1.551589082465789
 20
6.294362601726776
 10
1.551589082465789
 20
6.294362601726776
 10
1.551589082465789
 20
6.294362601726776
 10
1.334664362110288
 20
6.034002704790269
 10
1.334664362110288
 20
6.034002704790269
 97
        0
 97
        0
 75
     2
 76
     1
 98
        0
  0
SPLINE
  5
C7
330
1F
100
AcDbEntity
  8
Layer 1
 62
   250
420
  1645600
370
    35
100
AcDbSpline
210
0.0
220
0.0
230
1.0
 70
    11
 71
     3
 72
    11
 73
     7
 74
     0
 42
0.0000000001
 43
0.0000000001
 12
1.0
 22
0.0
 32
0.0
 13
1.0
 23
0.0
 33
0.0
 40
0.0
 40
0.0
 40
0.0
 40
0.0
 40
1.0
 40
1.0
 40
1.0
 40
2.0
 40
2.0
 40
2.0
 40
2.0
 10
1.603045106217488
 20
6.147500066928993
 30
0.0
 10
1.603045106217488
 20
6.113162763234438
 30
0.0
 10
1.648330611901315
 20
6.110505866400268
 30
0.0
 10
1.648330611901315
 20
6.144832658139017
 30
0.0
 10
1.648330611901315
 20
6.176757467972303
 30
0.0
 10
1.603045106217488
 20
6.179451156651845
 30
0.0
 10
1.603045106217488
 20
6.147500066928993
 30
0.0
  0
HATCH
  5
C8
330
1F
100
AcDbEntity
  8
Layer 1
 62
   250
420
  1645600
100
AcDbHatch
 10
0.0
 20
0.0
 30
0.0
210
0.0
220
0.0
230
1.0
  2
SOLID
 70
     1
 71
     0
 91
        1
 92
        1
 93
        1
 72
     4
 94
        3
 73
     0
 74
     1
 95
       11
 96
        7
 40
0.0
 40
0.0
 40
0.0
 40
0.0
 40
1.0
 40
1.0
 40
1.0
 40
2.0
 40
2.0
 40
2.0
 40
2.0
 10
1.603045106217488
 20
6.147500066928993
 10
1.603045106217488
 20
6.113162763234438
 10
1.648330611901315
 20
6.110505866400268
 10
1.648330611901315
 20
6.144832658139017
 10
1.648330611901315
 20
6.176757467972303
 10
1.603045106217488
 20
6.179451156651845
 10
1.603045106217488
 20
6.147500066928993
 97
        0
 97
        0
 75
     2
 76
     1
 98
        0
  0
SPLINE
  5
C9
330
1F
100
AcDbEntity
  8
Layer 1
 62
   250
420
  1645600
370
    35
100
AcDbSpline
210
0.0
220
0.0
230
1.0
 70
    11
 71
     3
 72
    11
 73
     7
 74
     0
 42
0.0000000001
 43
0.0000000001
 12
1.0
 22
0.0
 32
0.0
 13
1.0
 23
0.0
 33
0.0
 40
0.0
 40
0.0
 40
0.0
 40
0.0
 40
1.0
 40
1.0
 40
1.0
 40
2.0
 40
2.0
 40
2.0
 40
2.0
 10
1.800004994476884
 20
5.59934361860289
 30
0.0
 10
1.800004994476884
 20
5.560925048060185
 30
0.0
 10
1.845224800436831
 20
5.558257852129928
 30
0.0
 10
1.845224800436831
 20
5.596699861713495
 30
0.0
 10
1.845224800436831
 20
5.628601019646175
 30
0.0
 10
1.800004994476884
 20
5.631271056425121
 30
0.0
 10
1.800004994476884
 20
5.59934361860289
 30
0.0
  0
HATCH
  5
CA
330
1F
100
AcDbEntity
  8
Layer 1
 62
   250
420
  1645600
100
AcDbHatch
 10
0.0
 20
0.0
 30
0.0
210
0.0
220
0.0
230
1.0
  2
SOLID
 70
     1
 71
     0
 91
        1
 92
        1
 93
        1
 72
     4
 94
        3
 73
     0
 74
     1
 95
       11
 96
        7
 40
0.0
 40
0.0
 40
0.0
 40
0.0
 40
1.0
 40
1.0
 40
1.0
 40
2.0
 40
2.0
 40
2.0
 40
2.0
 10
1.800004994476884
 20
5.59934361860289
 10
1.800004994476884
 20
5.560925048060185
 10
1.845224800436831
 20
5.558257852129928
 10
1.845224800436831
 20
5.596699861713495
 10
1.845224800436831
 20
5.628601019646175
 10
1.800004994476884
 20
5.631271056425121
 10
1.800004994476884
 20
5.59934361860289
 97
        0
 97
        0
 75
     2
 76
     1
 98
        0
  0
SPLINE
  5
CB
330
1F
100
AcDbEntity
  8
Layer 1
 62
   250
420
  1645600
370
    35
100
AcDbSpline
210
0.0
220
0.0
230
1.0
 70
    11
 71
     3
 72
    11
 73
     7
 74
     0
 42
0.0000000001
 43
0.0000000001
 12
1.0
 22
0.0
 32
0.0
 13
1.0
 23
0.0
 33
0.0
 40
0.0
 40
0.0
 40
0.0
 40
0.0
 40
1.0
 40
1.0
 40
1.0
 40
2.0
 40
2.0
 40
2.0
 40
2.0
 10
1.40484217918207
 20
5.75233987962315
 30
0.0
 10
1.40484217918207
 20
5.715051344331376
 30
0.0
 10
1.450061985142004
 20
5.712394447497204
 30
0.0
 10
1.450061985142004
 20
5.749696122733755
 30
0.0
 10
1.450061985142004
 20
5.781636919003555
 30
0.0
 10
1.40484217918207
 20
5.784304109290765
 30
0.0
 10
1.40484217918207
 20
5.75233987962315
 30
0.0
  0
HATCH
  5
CC
330
1F
100
AcDbEntity
  8
Layer 1
 62
   250
420
  1645600
100
AcDbHatch
 10
0.0
 20
0.0
 30
0.0
210
0.0
220
0.0
230
1.0
  2
SOLID
 70
     1
 71
     0
 91
        1
 92
        1
 93
        1
 72
     4
 94
        3
 73
     0
 74
     1
 95
       11
 96
        7
 40
0.0
 40
0.0
 40
0.0
 40
0.0
 40
1.0
 40
1.0
 40
1.0
 40
2.0
 40
2.0
 40
2.0
 40
2.0
 10
1.40484217918207
 20
5.75233987962315
 10
1.40484217918207
 20
5.715051344331376
 10
1.450061985142004
 20
5.712394447497204
 10
1.450061985142004
 20
5.749696122733755
 10
1.450061985142004
 20
5.781636919003555
 10
1.40484217918207
 20
5.784304109290765
 10
1.40484217918207
 20
5.75233987962315
 97
        0
 97
        0
 75
     2
 76
     1
 98
        0
  0
SPLINE
  5
CD
330
1F
100
AcDbEntity
  8
Layer 1
 62
   250
420
  1645600
370
    35
100
AcDbSpline
210
0.0
220
0.0
230
1.0
 70
    11
 71
     3
 72
    11
 73
     7
 74
     0
 42
0.0000000001
 43
0.0000000001
 12
1.0
 22
0.0
 32
0.0
 13
1.0
 23
0.0
 33
0.0
 40
0.0
 40
0.0
 40
0.0
 40
0.0
 40
1.0
 40
1.0
 40
1.0
 40
2.0
 40
2.0
 40
2.0
 40
2.0
 10
1.595923256147671
 20
6.140764531235669
 30
0.0
 10
1.595923256147671
 20
6.106450879441695
 30
0.0
 10
1.641182481941946
 20
6.103783470651706
 30
0.0
 10
1.641182481941946
 20
6.138147054235838
 30
0.0
 10
1.641182481941946
 20
6.17004558417956
 30
0.0
 10
1.595923256147671
 20
6.172728760903283
 30
0.0
 10
1.595923256147671
 20
6.140764531235669
 30
0.0
  0
HATCH
  5
CE
330
1F
100
AcDbEntity
  8
Layer 1
 62
     9
420
 12307926
100
AcDbHatch
 10
0.0
 20
0.0
 30
0.0
210
0.0
220
0.0
230
1.0
  2
SOLID
 70
     1
 71
     0
 91
        1
 92
        1
 93
        1
 72
     4
 94
        3
 73
     0
 74
     1
 95
       11
 96
        7
 40
0.0
 40
0.0
 40
0.0
 40
0.0
 40
1.0
 40
1.0
 40
1.0
 40
2.0
 40
2.0
 40
2.0
 40
2.0
 10
1.595923256147671
 20
6.140764531235669
 10
1.595923256147671
 20
6.106450879441695
 10
1.641182481941946
 20
6.103783470651706
 10
1.641182481941946
 20
6.138147054235838
 10
1.641182481941946
 20
6.17004558417956
 10
1.595923256147671
 20
6.172728760903283
 10
1.595923256147671
 20
6.140764531235669
 97
        0
 97
        0
 75
     2
 76
     1
 98
        0
  0
SPLINE
  5
CF
330
1F
100
AcDbEntity
  8
Layer 1
 62
   250
420
  1645600
370
    35
100
AcDbSpline
210
0.0
220
0.0
230
1.0
 70
    11
 71
     3
 72
    11
 73
     7
 74
     0
 42
0.0000000001
 43
0.0000000001
 12
1.0
 22
0.0
 32
0.0
 13
1.0
 23
0.0
 33
0.0
 40
0.0
 40
0.0
 40
0.0
 40
0.0
 40
1.0
 40
1.0
 40
1.0
 40
2.0
 40
2.0
 40
2.0
 40
2.0
 10
1.792817444683174
 20
5.592621222854328
 30
0.0
 10
1.792817444683174
 20
5.554252584101757
 30
0.0
 10
1.83806353053266
 20
5.551582760013919
 30
0.0
 10
1.83806353053266
 20
5.589964326020158
 30
0.0
 10
1.83806353053266
 20
5.621889135853444
 30
0.0
 10
1.792817444683174
 20
5.624559172632391
 30
0.0
 10
1.792817444683174
 20
5.592621222854328
 30
0.0
  0
HATCH
  5
D0
330
1F
100
AcDbEntity
  8
Layer 1
 62
     9
420
 12307926
100
AcDbHatch
 10
0.0
 20
0.0
 30
0.0
210
0.0
220
0.0
230
1.0
  2
SOLID
 70
     1
 71
     0
 91
        1
 92
        1
 93
        1
 72
     4
 94
        3
 73
     0
 74
     1
 95
       11
 96
        7
 40
0.0
 40
0.0
 40
0.0
 40
0.0
 40
1.0
 40
1.0
 40
1.0
 40
2.0
 40
2.0
 40
2.0
 40
2.0
 10
1.792817444683174
 20
5.592621222854328
 10
1.792817444683174
 20
5.554252584101757
 10
1.83806353053266
 20
5.551582760013919
 10
1.83806353053266
 20
5.589964326020158
 10
1.83806353053266
 20
5.621889135853444
 10
1.792817444683174
 20
5.624559172632391
 10
1.792817444683174
 20
5.592621222854328
 97
        0
 97
        0
 75
     2
 76
     1
 98
        0
  0
SPLINE
  5
D1
330
1F
100
AcDbEntity
  8
Layer 1
 62
   250
420
  1645600
370
    35
100
AcDbSpline
210
0.0
220
0.0
230
1.0
 70
    11
 71
     3
 72
    11
 73
     7
 74
     0
 42
0.0000000001
 43
0.0000000001
 12
1.0
 22
0.0
 32
0.0
 13
1.0
 23
0.0
 33
0.0
 40
0.0
 40
0.0
 40
0.0
 40
0.0
 40
1.0
 40
1.0
 40
1.0
 40
2.0
 40
2.0
 40
2.0
 40
2.0
 10
1.397709817156422
 20
5.745614855885631
 30
0.0
 10
1.397709817156422
 20
5.708352600483408
 30
0.0
 10
1.44291648317158
 20
5.705632631914315
 30
0.0
 10
1.44291648317158
 20
5.742986866929969
 30
0.0
 10
1.44291648317158
 20
5.774885396873704
 30
0.0
 10
1.397709817156422
 20
5.777568573597427
 30
0.0
 10
1.397709817156422
 20
5.745614855885631
 30
0.0
  0
HATCH
  5
D2
330
1F
100
AcDbEntity
  8
Layer 1
 62
     9
420
 12307926
100
AcDbHatch
 10
0.0
 20
0.0
 30
0.0
210
0.0
220
0.0
230
1.0
  2
SOLID
 70
     1
 71
     0
 91
        1
 92
        1
 93
        1
 72
     4
 94
        3
 73
     0
 74
     1
 95
       11
 96
        7
 40
0.0
 40
0.0
 40
0.0
 40
0.0
 40
1.0
 40
1.0
 40
1.0
 40
2.0
 40
2.0
 40
2.0
 40
2.0
 10
1.397709817156422
 20
5.745614855885631
 10
1.397709817156422
 20
5.708352600483408
 10
1.44291648317158
 20
5.705632631914315
 10
1.44291648317158
 20
5.742986866929969
 10
1.44291648317158
 20
5.774885396873704
 10
1.397709817156422
 20
5.777568573597427
 10
1.397709817156422
 20
5.745614855885631
 97
        0
 97
        0
 75
     2
 76
     1
 98
        0
  0
SPLINE
  5
D3
330
1F
100
AcDbEntity
  8
Layer 1
 62
   250
420
  1645600
370
    35
100
AcDbSpline
210
0.0
220
0.0
230
1.0
 70
    11
 71
     3
 72
    11
 73
     7
 74
     0
 42
0.0000000001
 43
0.0000000001
 12
1.0
 22
0.0
 32
0.0
 13
1.0
 23
0.0
 33
0.0
 40
0.0
 40
0.0
 40
0.0
 40
0.0
 40
1.0
 40
1.0
 40
1.0
 40
2.0
 40
2.0
 40
2.0
 40
2.0
 10
1.55177041370372
 20
6.008658154423882
 30
0.0
 10
1.55177041370372
 20
5.88245686879548
 30
0.0
 10
1.685466821702385
 20
5.87296194469871
 30
0.0
 10
1.685466821702385
 20
5.978362697743123
 30
0.0
 10
1.685466821702385
 20
6.115985223372806
 30
0.0
 10
1.55177041370372
 20
6.105142367616976
 30
0.0
 10
1.55177041370372
 20
6.008658154423882
 30
0.0
  0
SPLINE
  5
D4
330
1F
100
AcDbEntity
  8
Layer 1
 62
   250
420
  1645600
370
    35
100
AcDbSpline
210
0.0
220
0.0
230
1.0
 70
    11
 71
     3
 72
    17
 73
    13
 74
     0
 42
0.0000000001
 43
0.0000000001
 12
1.0
 22
0.0
 32
0.0
 13
1.0
 23
0.0
 33
0.0
 40
0.0
 40
0.0
 40
0.0
 40
0.0
 40
1.0
 40
1.0
 40
1.0
 40
2.0
 40
2.0
 40
2.0
 40
3.0
 40
3.0
 40
3.0
 40
4.0
 40
4.0
 40
4.0
 40
4.0
 10
1.610027672872661
 20
6.08117225367726
 30
0.0
 10
1.59107461652449
 20
6.070047976427973
 30
0.0
 10
1.577035994652925
 20
6.04785986567539
 30
0.0
 10
1.577035994652925
 20
6.016639356882226
 30
0.0
 10
1.577035994652925
 20
5.946064713478133
 30
0.0
 10
1.618894507609032
 20
5.912034884491365
 30
0.0
 10
1.655759936678957
 20
5.9141138456047
 30
0.0
 10
1.673004800205957
 20
5.924841074672283
 30
0.0
 10
1.685466821702385
 20
5.946243416727131
 30
0.0
 10
1.685466821702385
 20
5.978362697743123
 30
0.0
 10
1.685466821702385
 20
6.053094819675051
 30
0.0
 10
1.646046986371756
 20
6.08395792197027
 30
0.0
 10
1.610027672872661
 20
6.08117225367726
 30
0.0
  0
HATCH
  5
D5
330
1F
100
AcDbEntity
  8
Layer 1
 62
    43
420
 15444572
100
AcDbHatch
 10
0.0
 20
0.0
 30
0.0
210
0.0
220
0.0
230
1.0
  2
SOLID
 70
     1
 71
     0
 91
        1
 92
        1
 93
        1
 72
     4
 94
        3
 73
     0
 74
     1
 95
       17
 96
       13
 40
0.0
 40
0.0
 40
0.0
 40
0.0
 40
1.0
 40
1.0
 40
1.0
 40
2.0
 40
2.0
 40
2.0
 40
3.0
 40
3.0
 40
3.0
 40
4.0
 40
4.0
 40
4.0
 40
4.0
 10
1.610027672872661
 20
6.08117225367726
 10
1.59107461652449
 20
6.070047976427973
 10
1.577035994652925
 20
6.04785986567539
 10
1.577035994652925
 20
6.016639356882226
 10
1.577035994652925
 20
5.946064713478133
 10
1.618894507609032
 20
5.912034884491365
 10
1.655759936678957
 20
5.9141138456047
 10
1.673004800205957
 20
5.924841074672283
 10
1.685466821702385
 20
5.946243416727131
 10
1.685466821702385
 20
5.978362697743123
 10
1.685466821702385
 20
6.053094819675051
 10
1.646046986371756
 20
6.08395792197027
 10
1.610027672872661
 20
6.08117225367726
 97
        0
 97
        0
 75
     2
 76
     1
 98
        0
  0
SPLINE
  5
D6
330
1F
100
AcDbEntity
  8
Layer 1
 62
   250
420
  2301728
370
    35
100
AcDbSpline
210
0.0
220
0.0
230
1.0
 70
     8
 71
     3
 72
    20
 73
    16
 74
     0
 42
0.0000000001
 43
0.0000000001
 12
1.0
 22
0.0
 32
0.0
 13
1.0
 23
0.0
 33
0.0
 40
0.0
 40
0.0
 40
0.0
 40
0.0
 40
1.0
 40
1.0
 40
1.0
 40
2.0
 40
2.0
 40
2.0
 40
3.0
 40
3.0
 40
3.0
 40
4.0
 40
4.0
 40
4.0
 40
5.0
 40
5.0
 40
5.0
 40
5.0
 10
1.552064748466756
 20
6.294118198753899
 30
0.0
 10
1.552064748466756
 20
6.294118198753899
 30
0.0
 10
1.725335944279891
 20
6.21668976015346
 30
0.0
 10
1.725335944279891
 20
6.21668976015346
 30
0.0
 10
1.725335944279891
 20
6.21668976015346
 30
0.0
 10
1.927670069953617
 20
5.802629076278536
 30
0.0
 10
1.927670069953617
 20
5.802629076278536
 30
0.0
 10
1.927670069953617
 20
5.802629076278536
 30
0.0
 10
1.926001296966761
 20
5.380135175844922
 30
0.0
 10
1.926001296966761
 20
5.380135175844922
 30
0.0
 10
1.926001296966761
 20
5.380135175844922
 30
0.0
 10
1.925512491020994
 20
5.357860341456798
 30
0.0
 10
1.925680682314186
 20
5.346425961510755
 30
0.0
 10
1.925925085287051
 20
5.331283489148265
 30
0.0
 10
1.943811178119227
 20
5.316976717273696
 30
0.0
 10
1.951781868621727
 20
5.314306680494749
 30
0.0
  0
POLYLINE
  5
D7
330
1F
100
AcDbEntity
  8
Layer 1
 62
   250
420
  2301728
370
    25
100
AcDb2dPolyline
 66
     1
 10
0.0
 20
0.0
 30
0.0
  0
VERTEX
  5
D8
330
D7
100
AcDbEntity
  8
Layer 1
 62
   250
420
  2301728
370
    25
100
AcDbVertex
100
AcDb2dVertex
 10
1.724886657033027
 20
6.216742319932589
 30
0.0
  0
VERTEX
  5
D9
330
D7
100
AcDbEntity
  8
Layer 1
 62
   250
420
  2301728
370
    25
100
AcDbVertex
100
AcDb2dVertex
 10
1.753295218361308
 20
6.230959740182672
 30
0.0
  0
SEQEND
  5
DA
330
D7
100
AcDbEntity
  8
Layer 1
 62
   250
420
  2301728
370
    25
  0
SPLINE
  5
DB
330
1F
100
AcDbEntity
  8
Layer 1
 62
   250
420
  2301728
370
    35
100
AcDbSpline
210
0.0
220
0.0
230
1.0
 70
    11
 71
     3
 72
    11
 73
     7
 74
     0
 42
0.0000000001
 43
0.0000000001
 12
1.0
 22
0.0
 32
0.0
 13
1.0
 23
0.0
 33
0.0
 40
0.0
 40
0.0
 40
0.0
 40
0.0
 40
1.0
 40
1.0
 40
1.0
 40
2.0
 40
2.0
 40
2.0
 40
2.0
 10
2.468050298959952
 20
4.856090526186916
 30
0.0
 10
2.468050298959952
 20
4.822830697964163
 30
0.0
 10
2.509317609530576
 20
4.825550666533268
 30
0.0
 10
2.509317609530576
 20
4.856090526186916
 30
0.0
 10
2.509317609530576
 20
4.888979807966936
 30
0.0
 10
2.468050298959952
 20
4.895986026522703
 30
0.0
 10
2.468050298959952
 20
4.856090526186916
 30
0.0
  0
HATCH
  5
DC
330
1F
100
AcDbEntity
  8
Layer 1
 62
     9
420
 12307926
100
AcDbHatch
 10
0.0
 20
0.0
 30
0.0
210
0.0
220
0.0
230
1.0
  2
SOLID
 70
     1
 71
     0
 91
        1
 92
        1
 93
        1
 72
     4
 94
        3
 73
     0
 74
     1
 95
       11
 96
        7
 40
0.0
 40
0.0
 40
0.0
 40
0.0
 40
1.0
 40
1.0
 40
1.0
 40
2.0
 40
2.0
 40
2.0
 40
2.0
 10
2.468050298959952
 20
4.856090526186916
 10
2.468050298959952
 20
4.822830697964163
 10
2.509317609530576
 20
4.825550666533268
 10
2.509317609530576
 20
4.856090526186916
 10
2.509317609530576
 20
4.888979807966936
 10
2.468050298959952
 20
4.895986026522703
 10
2.468050298959952
 20
4.856090526186916
 97
        0
 97
        0
 75
     2
 76
     1
 98
        0
  0
SPLINE
  5
DD
330
1F
100
AcDbEntity
  8
Layer 1
 62
   250
420
  2301728
370
    35
100
AcDbSpline
210
0.0
220
0.0
230
1.0
 70
    11
 71
     3
 72
    11
 73
     7
 74
     0
 42
0.0000000001
 43
0.0000000001
 12
1.0
 22
0.0
 32
0.0
 13
1.0
 23
0.0
 33
0.0
 40
0.0
 40
0.0
 40
0.0
 40
0.0
 40
1.0
 40
1.0
 40
1.0
 40
2.0
 40
2.0
 40
2.0
 40
2.0
 10
2.243207447881054
 20
5.176723574699395
 30
0.0
 10
2.243207447881054
 20
5.143476886421417
 30
0.0
 10
2.284438079606288
 20
5.142641388293908
 30
0.0
 10
2.284438079606288
 20
5.176723574699395
 30
0.0
 10
2.284438079606288
 20
5.20200220046383
 30
0.0
 10
2.243207447881054
 20
5.216642726935775
 30
0.0
 10
2.243207447881054
 20
5.176723574699395
 30
0.0
  0
HATCH
  5
DE
330
1F
100
AcDbEntity
  8
Layer 1
 62
     9
420
 12307926
100
AcDbHatch
 10
0.0
 20
0.0
 30
0.0
210
0.0
220
0.0
230
1.0
  2
SOLID
 70
     1
 71
     0
 91
        1
 92
        1
 93
        1
 72
     4
 94
        3
 73
     0
 74
     1
 95
       11
 96
        7
 40
0.0
 40
0.0
 40
0.0
 40
0.0
 40
1.0
 40
1.0
 40
1.0
 40
2.0
 40
2.0
 40
2.0
 40
2.0
 10
2.243207447881054
 20
5.176723574699395
 10
2.243207447881054
 20
5.143476886421417
 10
2.284438079606288
 20
5.142641388293908
 10
2.284438079606288
 20
5.176723574699395
 10
2.284438079606288
 20
5.20200220046383
 10
2.243207447881054
 20
5.216642726935775
 10
2.243207447881054
 20
5.176723574699395
 97
        0
 97
        0
 75
     2
 76
     1
 98
        0
  0
POLYLINE
  5
DF
330
1F
100
AcDbEntity
  8
Layer 1
 62
   250
420
  2301728
370
    25
100
AcDb2dPolyline
 66
     1
 10
0.0
 20
0.0
 30
0.0
  0
VERTEX
  5
E0
330
DF
100
AcDbEntity
  8
Layer 1
 62
   250
420
  2301728
370
    25
100
AcDbVertex
100
AcDb2dVertex
 10
1.928003928546698
 20
5.802629076278536
 30
0.0
  0
VERTEX
  5
E1
330
DF
100
AcDbEntity
  8
Layer 1
 62
   250
420
  2301728
370
    25
100
AcDbVertex
100
AcDb2dVertex
 10
1.960724915037821
 20
5.817282742695284
 30
0.0
  0
SEQEND
  5
E2
330
DF
100
AcDbEntity
  8
Layer 1
 62
   250
420
  2301728
370
    25
  0
INSERT
  5
E5
330
1F
100
AcDbEntity
  8
Callout
100
AcDbBlockReference
  2
block 2
 10
0.0
 20
0.0
 30
0.0
  0
MTEXT
  5
105
330
1F
100
AcDbEntity
  8
Callout
 62
   250
420
  2301728
100
AcDbMText
 10
1.317824257744683
 20
3.663130230373806
 30
0.0
 40
0.118
 41
0.0
 46
0.0
 71
     7
 72
     1
  1
\fHelvetica Neue LT Std 55 Roman|b0|i0|c0|p34;\W1;SIMPSON Strong-Tie\H0.068794;®\H0.118; ^C
 73
     1
 44
1.0
  0
MTEXT
  5
106
330
1F
100
AcDbEntity
  8
Callout
 62
   250
420
  2301728
100
AcDbMText
 10
1.239448335435655
 20
3.46313836839464
 30
0.0
 40
0.118
 41
0.0
 46
0.0
 71
     7
 72
     1
  1
\fHelvetica Neue LT Std 55 Roman|b0|i0|c0|p34;\W1;BC Post Cap Installation
 73
     1
 44
1.0
  0
MTEXT
  5
107
330
1F
100
AcDbEntity
  8
Callout
 62
   250
420
  2301728
100
AcDbMText
 10
0.5987856123182508
 20
5.547657436794704
 30
0.0
 40
0.118
 41
0.0
 46
0.0
 71
     7
 72
     1
  1
\fHelvetica LT Std Condensed|b0|i0|c0|p34;\W1;BC
 73
     1
 44
1.0
  0
POLYLINE
  5
108
330
1F
100
AcDbEntity
  8
Callout
 62
   250
420
  2236191
370
    18
100
AcDb2dPolyline
 66
     1
 10
0.0
 20
0.0
 30
0.0
  0
VERTEX
  5
109
330
108
100
AcDbEntity
  8
Callout
 62
   250
420
  2236191
370
    18
100
AcDbVertex
100
AcDb2dVertex
 10
0.8593189964157721
 20
5.600397442174097
 30
0.0
  0
VERTEX
  5
10A
330
108
100
AcDbEntity
  8
Callout
 62
   250
420
  2236191
370
    18
100
AcDbVertex
100
AcDb2dVertex
 10
1.334664362110288
 20
5.817282742695284
 30
0.0
  0
SEQEND
  5
10B
330
108
100
AcDbEntity
  8
Callout
 62
   250
420
  2236191
370
    18
  0
ENDSEC
  0
SECTION
  2
OBJECTS
  0
DICTIONARY
  5
C
330
0
100
AcDbDictionary
281
     1
  3
ACAD_GROUP
350
D
  3
ACAD_LAYOUT
350
1A
  3
ACAD_MATERIAL
350
3B
  3
ACAD_MLEADERSTYLE
350
10D
  3
ACAD_MLINESTYLE
350
17
  3
ACAD_PLOTSETTINGS
350
19
  3
ACAD_PLOTSTYLENAME
350
E
  3
ACAD_TABLESTYLE
350
10C
  3
ACAD_VISUALSTYLE
350
2A
  0
SUN
  5
3F
330
29
100
AcDbSun
 90
        1
290
     0
 63
     7
421
 16777215
 40
1.0
291
     1
 91
  2455826
 92
 54000000
292
     0
 70
     2
 71
   256
280
     1
  0
DICTIONARY
  5
D
102
{ACAD_REACTORS
330
C
102
}
330
C
100
AcDbDictionary
281
     1
  0
DICTIONARY
  5
1A
102
{ACAD_REACTORS
330
C
102
}
330
C
100
AcDbDictionary
281
     1
  3
Layout1
350
1E
  3
Layout2
350
26
  3
Model
350
22
  0
DICTIONARY
  5
3B
102
{ACAD_REACTORS
330
C
102
}
330
C
100
AcDbDictionary
281
     1
  3
ByBlock
350
3D
  3
ByLayer
350
3C
  3
Global
350
3E
  0
DICTIONARY
  5
10D
102
{ACAD_REACTORS
330
C
102
}
330
C
100
AcDbDictionary
281
     1
  0
DICTIONARY
  5
17
102
{ACAD_REACTORS
330
C
102
}
330
C
100
AcDbDictionary
281
     1
  3
Standard
350
18
  0
DICTIONARY
  5
19
102
{ACAD_REACTORS
330
C
102
}
330
C
100
AcDbDictionary
281
     1
  0
ACDBDICTIONARYWDFLT
  5
E
102
{ACAD_REACTORS
330
C
102
}
330
C
100
AcDbDictionary
281
     1
  3
Normal
350
F
100
AcDbDictionaryWithDefault
340
F
  0
DICTIONARY
  5
10C
102
{ACAD_REACTORS
330
C
102
}
330
C
100
AcDbDictionary
281
     1
  0
DICTIONARY
  5
2A
102
{ACAD_REACTORS
330
C
102
}
330
C
100
AcDbDictionary
281
     1
  3
2dWireframe
350
2F
  3
3D Hidden
350
31
  3
3dWireframe
350
30
  3
Basic
350
32
  3
Brighten
350
36
  3
ColorChange
350
3A
  3
Conceptual
350
34
  3
Dim
350
35
  3
Facepattern
350
39
  3
Flat
350
2B
  3
FlatWithEdges
350
2C
  3
Gouraud
350
2D
  3
GouraudWithEdges
350
2E
  3
Linepattern
350
38
  3
Realistic
350
33
  3
Thicken
350
37
  0
LAYOUT
  5
1E
102
{ACAD_REACTORS
330
1A
102
}
330
1A
100
AcDbPlotSettings
  1

  2
none_device
  4

  6

 40
0.0
 41
0.0
 42
0.0
 43
0.0
 44
0.0
 45
0.0
 46
0.0
 47
0.0
 48
0.0
 49
0.0
140
0.0
141
0.0
142
1.0
143
1.0
 70
   688
 72
     0
 73
     0
 74
     5
  7

 75
    16
 76
     0
 77
     2
 78
   300
147
1.0
148
0.0
149
0.0
100
AcDbLayout
  1
Layout1
 70
     1
 71
     1
 10
0.0
 20
0.0
 11
12.0
 21
9.0
 12
0.0
 22
0.0
 32
0.0
 14
1.000000000000000E+20
 24
1.000000000000000E+20
 34
1.000000000000000E+20
 15
-1.000000000000000E+20
 25
-1.000000000000000E+20
 35
-1.000000000000000E+20
146
0.0
 13
0.0
 23
0.0
 33
0.0
 16
1.0
 26
0.0
 36
0.0
 17
0.0
 27
1.0
 37
0.0
 76
     0
330
1B
  0
LAYOUT
  5
26
102
{ACAD_REACTORS
330
1A
102
}
330
1A
100
AcDbPlotSettings
  1

  2
none_device
  4

  6

 40
0.0
 41
0.0
 42
0.0
 43
0.0
 44
0.0
 45
0.0
 46
0.0
 47
0.0
 48
0.0
 49
0.0
140
0.0
141
0.0
142
1.0
143
1.0
 70
   688
 72
     0
 73
     0
 74
     5
  7

 75
    16
 76
     0
 77
     2
 78
   300
147
1.0
148
0.0
149
0.0
100
AcDbLayout
  1
Layout2
 70
     1
 71
     2
 10
0.0
 20
0.0
 11
0.0
 21
0.0
 12
0.0
 22
0.0
 32
0.0
 14
0.0
 24
0.0
 34
0.0
 15
0.0
 25
0.0
 35
0.0
146
0.0
 13
0.0
 23
0.0
 33
0.0
 16
1.0
 26
0.0
 36
0.0
 17
0.0
 27
1.0
 37
0.0
 76
     0
330
23
  0
LAYOUT
  5
22
102
{ACAD_REACTORS
330
1A
102
}
330
1A
100
AcDbPlotSettings
  1

  2
none_device
  4

  6

 40
0.0
 41
0.0
 42
0.0
 43
0.0
 44
0.0
 45
0.0
 46
0.0
 47
0.0
 48
0.0
 49
0.0
140
0.0
141
0.0
142
1.0
143
1.0
 70
  1712
 72
     0
 73
     0
 74
     0
  7

 75
     0
 76
     0
 77
     2
 78
   300
147
1.0
148
0.0
149
0.0
100
AcDbLayout
  1
Model
 70
     1
 71
     0
 10
0.0
 20
0.0
 11
12.0
 21
9.0
 12
0.0
 22
0.0
 32
0.0
 14
1.000000000000000E+20
 24
1.000000000000000E+20
 34
1.000000000000000E+20
 15
-1.000000000000000E+20
 25
-1.000000000000000E+20
 35
-1.000000000000000E+20
146
0.0
 13
0.0
 23
0.0
 33
0.0
 16
1.0
 26
0.0
 36
0.0
 17
0.0
 27
1.0
 37
0.0
 76
     0
330
1F
331
29
  0
MATERIAL
  5
3D
102
{ACAD_REACTORS
330
3B
102
}
330
3B
100
AcDbMaterial
  1
ByBlock
 72
     1
 94
      127
  0
MATERIAL
  5
3C
102
{ACAD_REACTORS
330
3B
102
}
330
3B
100
AcDbMaterial
  1
ByLayer
 72
     1
 94
      127
  0
MATERIAL
  5
3E
102
{ACAD_REACTORS
330
3B
102
}
330
3B
100
AcDbMaterial
  1
Global
 72
     1
 94
      127
  0
MLINESTYLE
  5
18
102
{ACAD_REACTORS
330
17
102
}
330
17
100
AcDbMlineStyle
  2
Standard
 70
     0
  3

 62
   256
 51
90.0
 52
90.0
 71
     2
 49
0.5
 62
   256
  6
BYLAYER
 49
-0.5
 62
   256
  6
BYLAYER
  0
ACDBPLACEHOLDER
  5
F
102
{ACAD_REACTORS
330
E
102
}
330
E
  0
VISUALSTYLE
  5
2F
102
{ACAD_REACTORS
330
2A
102
}
330
2A
100
AcDbVisualStyle
  2
2dWireframe
 70
     4
177
     2
291
     0
 71
     0
176
     1
 72
     2
176
     1
 73
     0
176
     1
 90
        0
176
     1
 40
-0.6
176
     1
 41
-30.0
176
     1
 62
     5
 63
     7
421
 16777215
176
     1
 74
     1
176
     1
 91
        4
176
     1
 64
     7
176
     1
 65
   257
176
     1
 75
     1
176
     1
175
     1
176
     1
 42
1.0
176
     1
 92
        0
176
     1
 66
   257
176
     1
 43
1.0
176
     1
 76
     1
176
     1
 77
     6
176
     1
 78
     2
176
     1
 67
     7
176
     1
 79
     5
176
     1
170
     0
176
     1
171
     0
176
     1
290
     0
176
     1
 93
        1
176
     1
 44
0.0
176
     1
173
     0
176
     1
  0
VISUALSTYLE
  5
31
102
{ACAD_REACTORS
330
2A
102
}
330
2A
100
AcDbVisualStyle
  2
3D Hidden
 70
     6
177
     2
291
     0
 71
     1
176
     1
 72
     2
176
     1
 73
     2
176
     1
 90
        0
176
     1
 40
-0.6
176
     1
 41
-30.0
176
     1
 62
     5
 63
     7
421
 16777215
176
     1
 74
     2
176
     1
 91
        2
176
     1
 64
     7
176
     1
 65
   257
176
     1
 75
     2
176
     1
175
     1
176
     1
 42
40.0
176
     1
 92
        0
176
     1
 66
   257
176
     1
 43
1.0
176
     1
 76
     1
176
     1
 77
     6
176
     1
 78
     2
176
     1
 67
     7
176
     1
 79
     3
176
     1
170
     0
176
     1
171
     0
176
     1
290
     0
176
     1
 93
        1
176
     1
 44
0.0
176
     1
173
     0
176
     1
  0
VISUALSTYLE
  5
30
102
{ACAD_REACTORS
330
2A
102
}
330
2A
100
AcDbVisualStyle
  2
3dWireframe
 70
     5
177
     2
291
     0
 71
     0
176
     1
 72
     2
176
     1
 73
     0
176
     1
 90
        0
176
     1
 40
-0.6
176
     1
 41
-30.0
176
     1
 62
     5
 63
     7
421
 16777215
176
     1
 74
     1
176
     1
 91
        4
176
     1
 64
     7
176
     1
 65
   257
176
     1
 75
     1
176
     1
175
     1
176
     1
 42
1.0
176
     1
 92
        0
176
     1
 66
   257
176
     1
 43
1.0
176
     1
 76
     1
176
     1
 77
     6
176
     1
 78
     2
176
     1
 67
     7
176
     1
 79
     5
176
     1
170
     0
176
     1
171
     0
176
     1
290
     0
176
     1
 93
        1
176
     1
 44
0.0
176
     1
173
     0
176
     1
  0
VISUALSTYLE
  5
32
102
{ACAD_REACTORS
330
2A
102
}
330
2A
100
AcDbVisualStyle
  2
Basic
 70
     7
177
     2
291
     1
 71
     1
176
     1
 72
     0
176
     1
 73
     1
176
     1
 90
        0
176
     1
 40
-0.6
176
     1
 41
-30.0
176
     1
 62
     5
 63
     7
421
 16777215
176
     1
 74
     0
176
     1
 91
        4
176
     1
 64
     7
176
     1
 65
   257
176
     1
 75
     1
176
     1
175
     1
176
     1
 42
1.0
176
     1
 92
        8
176
     1
 66
     7
176
     1
 43
1.0
176
     1
 76
     1
176
     1
 77
     6
176
     1
 78
     2
176
     1
 67
     7
176
     1
 79
     5
176
     1
170
     0
176
     1
171
     0
176
     1
290
     0
176
     1
 93
        1
176
     1
 44
0.0
176
     1
173
     0
176
     1
  0
VISUALSTYLE
  5
36
102
{ACAD_REACTORS
330
2A
102
}
330
2A
100
AcDbVisualStyle
  2
Brighten
 70
    12
177
     2
291
     1
 71
     2
176
     1
 72
     2
176
     1
 73
     0
176
     1
 90
        0
176
     1
 40
-0.6
176
     1
 41
-30.0
176
     1
 62
     5
 63
     7
421
 16777215
176
     1
 74
     1
176
     1
 91
        4
176
     1
 64
     7
176
     1
 65
   257
176
     1
 75
     1
176
     1
175
     1
176
     1
 42
1.0
176
     1
 92
        8
176
     1
 66
     7
176
     1
 43
1.0
176
     1
 76
     1
176
     1
 77
     6
176
     1
 78
     2
176
     1
 67
     7
176
     1
 79
     5
176
     1
170
     0
176
     1
171
     0
176
     1
290
     0
176
     1
 93
        1
176
     1
 44
50.0
176
     1
173
     0
176
     1
  0
VISUALSTYLE
  5
3A
102
{ACAD_REACTORS
330
2A
102
}
330
2A
100
AcDbVisualStyle
  2
ColorChange
 70
    16
177
     2
291
     1
 71
     2
176
     1
 72
     2
176
     1
 73
     3
176
     1
 90
        0
176
     1
 40
-0.6
176
     1
 41
-30.0
176
     1
 62
     5
 63
     8
421
  8421504
176
     1
 74
     1
176
     1
 91
        4
176
     1
 64
     7
176
     1
 65
   257
176
     1
 75
     1
176
     1
175
     1
176
     1
 42
1.0
176
     1
 92
        8
176
     1
 66
     8
424
  8421504
176
     1
 43
1.0
176
     1
 76
     1
176
     1
 77
     6
176
     1
 78
     2
176
     1
 67
     7
176
     1
 79
     5
176
     1
170
     0
176
     1
171
     0
176
     1
290
     0
176
     1
 93
        1
176
     1
 44
0.0
176
     1
173
     0
176
     1
  0
VISUALSTYLE
  5
34
102
{ACAD_REACTORS
330
2A
102
}
330
2A
100
AcDbVisualStyle
  2
Conceptual
 70
     9
177
     2
291
     0
 71
     3
176
     1
 72
     2
176
     1
 73
     0
176
     1
 90
        0
176
     1
 40
-0.6
176
     1
 41
-30.0
176
     1
 62
     5
 63
     7
421
 16777215
176
     1
 74
     2
176
     1
 91
        2
176
     1
 64
     7
176
     1
 65
   257
176
     1
 75
     1
176
     1
175
     1
176
     1
 42
40.0
176
     1
 92
        8
176
     1
 66
     7
176
     1
 43
1.0
176
     1
 76
     1
176
     1
 77
     6
176
     1
 78
     2
176
     1
 67
     7
176
     1
 79
     3
176
     1
170
     0
176
     1
171
     0
176
     1
290
     0
176
     1
 93
        1
176
     1
 44
0.0
176
     1
173
     0
176
     1
  0
VISUALSTYLE
  5
35
102
{ACAD_REACTORS
330
2A
102
}
330
2A
100
AcDbVisualStyle
  2
Dim
 70
    11
177
     2
291
     1
 71
     2
176
     1
 72
     2
176
     1
 73
     0
176
     1
 90
        0
176
     1
 40
-0.6
176
     1
 41
-30.0
176
     1
 62
     5
 63
     7
421
 16777215
176
     1
 74
     1
176
     1
 91
        4
176
     1
 64
     7
176
     1
 65
   257
176
     1
 75
     1
176
     1
175
     1
176
     1
 42
1.0
176
     1
 92
        8
176
     1
 66
     7
176
     1
 43
1.0
176
     1
 76
     1
176
     1
 77
     6
176
     1
 78
     2
176
     1
 67
     7
176
     1
 79
     5
176
     1
170
     0
176
     1
171
     0
176
     1
290
     0
176
     1
 93
        1
176
     1
 44
-50.0
176
     1
173
     0
176
     1
  0
VISUALSTYLE
  5
39
102
{ACAD_REACTORS
330
2A
102
}
330
2A
100
AcDbVisualStyle
  2
Facepattern
 70
    15
177
     2
291
     1
 71
     2
176
     1
 72
     2
176
     1
 73
     0
176
     1
 90
        0
176
     1
 40
-0.6
176
     1
 41
-30.0
176
     1
 62
     5
 63
     7
421
 16777215
176
     1
 74
     1
176
     1
 91
        4
176
     1
 64
     7
176
     1
 65
   257
176
     1
 75
     1
176
     1
175
     1
176
     1
 42
1.0
176
     1
 92
        8
176
     1
 66
     7
176
     1
 43
1.0
176
     1
 76
     1
176
     1
 77
     6
176
     1
 78
     2
176
     1
 67
     7
176
     1
 79
     5
176
     1
170
     0
176
     1
171
     0
176
     1
290
     0
176
     1
 93
        1
176
     1
 44
0.0
176
     1
173
     0
176
     1
  0
VISUALSTYLE
  5
2B
102
{ACAD_REACTORS
330
2A
102
}
330
2A
100
AcDbVisualStyle
  2
Flat
 70
     0
177
     2
291
     1
 71
     2
176
     1
 72
     1
176
     1
 73
     1
176
     1
 90
        2
176
     1
 40
-0.6
176
     1
 41
30.0
176
     1
 62
     5
 63
     7
421
 16777215
176
     1
 74
     0
176
     1
 91
        4
176
     1
 64
     7
176
     1
 65
   257
176
     1
 75
     1
176
     1
175
     1
176
     1
 42
1.0
176
     1
 92
        8
176
     1
 66
     7
176
     1
 43
1.0
176
     1
 76
     1
176
     1
 77
     6
176
     1
 78
     2
176
     1
 67
     7
176
     1
 79
     5
176
     1
170
     0
176
     1
171
     0
176
     1
290
     0
176
     1
 93
       13
176
     1
 44
0.0
176
     1
173
     0
176
     1
  0
VISUALSTYLE
  5
2C
102
{ACAD_REACTORS
330
2A
102
}
330
2A
100
AcDbVisualStyle
  2
FlatWithEdges
 70
     1
177
     2
291
     1
 71
     2
176
     1
 72
     1
176
     1
 73
     1
176
     1
 90
        2
176
     1
 40
-0.6
176
     1
 41
30.0
176
     1
 62
     5
 63
     7
421
 16777215
176
     1
 74
     1
176
     1
 91
        4
176
     1
 64
     7
176
     1
 65
   257
176
     1
 75
     1
176
     1
175
     1
176
     1
 42
1.0
176
     1
 92
        0
176
     1
 66
   257
176
     1
 43
1.0
176
     1
 76
     1
176
     1
 77
     6
176
     1
 78
     2
176
     1
 67
     7
176
     1
 79
     5
176
     1
170
     0
176
     1
171
     0
176
     1
290
     0
176
     1
 93
       13
176
     1
 44
0.0
176
     1
173
     0
176
     1
  0
VISUALSTYLE
  5
2D
102
{ACAD_REACTORS
330
2A
102
}
330
2A
100
AcDbVisualStyle
  2
Gouraud
 70
     2
177
     2
291
     1
 71
     2
176
     1
 72
     2
176
     1
 73
     1
176
     1
 90
        2
176
     1
 40
-0.6
176
     1
 41
30.0
176
     1
 62
     5
 63
     7
421
 16777215
176
     1
 74
     0
176
     1
 91
        4
176
     1
 64
     7
176
     1
 65
   257
176
     1
 75
     1
176
     1
175
     1
176
     1
 42
1.0
176
     1
 92
        0
176
     1
 66
     7
176
     1
 43
1.0
176
     1
 76
     1
176
     1
 77
     6
176
     1
 78
     2
176
     1
 67
     7
176
     1
 79
     5
176
     1
170
     0
176
     1
171
     0
176
     1
290
     0
176
     1
 93
       13
176
     1
 44
0.0
176
     1
173
     0
176
     1
  0
VISUALSTYLE
  5
2E
102
{ACAD_REACTORS
330
2A
102
}
330
2A
100
AcDbVisualStyle
  2
GouraudWithEdges
 70
     3
177
     2
291
     1
 71
     2
176
     1
 72
     2
176
     1
 73
     1
176
     1
 90
        2
176
     1
 40
-0.6
176
     1
 41
30.0
176
     1
 62
     5
 63
     7
421
 16777215
176
     1
 74
     1
176
     1
 91
        4
176
     1
 64
     7
176
     1
 65
   257
176
     1
 75
     1
176
     1
175
     1
176
     1
 42
1.0
176
     1
 92
        0
176
     1
 66
   257
176
     1
 43
1.0
176
     1
 76
     1
176
     1
 77
     6
176
     1
 78
     2
176
     1
 67
     7
176
     1
 79
     5
176
     1
170
     0
176
     1
171
     0
176
     1
290
     0
176
     1
 93
       13
176
     1
 44
0.0
176
     1
173
     0
176
     1
  0
VISUALSTYLE
  5
38
102
{ACAD_REACTORS
330
2A
102
}
330
2A
100
AcDbVisualStyle
  2
Linepattern
 70
    14
177
     2
291
     1
 71
     2
176
     1
 72
     2
176
     1
 73
     0
176
     1
 90
        0
176
     1
 40
-0.6
176
     1
 41
-30.0
176
     1
 62
     5
 63
     7
421
 16777215
176
     1
 74
     1
176
     1
 91
        4
176
     1
 64
     7
176
     1
 65
   257
176
     1
 75
     7
176
     1
175
     7
176
     1
 42
1.0
176
     1
 92
        8
176
     1
 66
     7
176
     1
 43
1.0
176
     1
 76
     1
176
     1
 77
     6
176
     1
 78
     2
176
     1
 67
     7
176
     1
 79
     5
176
     1
170
     0
176
     1
171
     0
176
     1
290
     0
176
     1
 93
        1
176
     1
 44
0.0
176
     1
173
     0
176
     1
  0
VISUALSTYLE
  5
33
102
{ACAD_REACTORS
330
2A
102
}
330
2A
100
AcDbVisualStyle
  2
Realistic
 70
     8
177
     2
291
     0
 71
     2
176
     1
 72
     2
176
     1
 73
     0
176
     1
 90
        0
176
     1
 40
-0.6
176
     1
 41
-30.0
176
     1
 62
     5
 63
     7
421
 16777215
176
     1
 74
     1
176
     1
 91
        0
176
     1
 64
     7
176
     1
 65
   257
176
     1
 75
     1
176
     1
175
     1
176
     1
 42
1.0
176
     1
 92
        8
176
     1
 66
     8
424
  7895160
176
     1
 43
1.0
176
     1
 76
     1
176
     1
 77
     6
176
     1
 78
     2
176
     1
 67
     7
176
     1
 79
     5
176
     1
170
     0
176
     1
171
     0
176
     1
290
     0
176
     1
 93
       13
176
     1
 44
0.0
176
     1
173
     0
176
     1
  0
VISUALSTYLE
  5
37
102
{ACAD_REACTORS
330
2A
102
}
330
2A
100
AcDbVisualStyle
  2
Thicken
 70
    13
177
     2
291
     1
 71
     2
176
     1
 72
     2
176
     1
 73
     0
176
     1
 90
        0
176
     1
 40
-0.6
176
     1
 41
-30.0
176
     1
 62
     5
 63
     7
421
 16777215
176
     1
 74
     1
176
     1
 91
        4
176
     1
 64
     7
176
     1
 65
   257
176
     1
 75
     1
176
     1
175
     1
176
     1
 42
1.0
176
     1
 92
       12
176
     1
 66
     7
176
     1
 43
1.0
176
     1
 76
     1
176
     1
 77
     6
176
     1
 78
     2
176
     1
 67
     7
176
     1
 79
     5
176
     1
170
     0
176
     1
171
     0
176
     1
290
     0
176
     1
 93
        1
176
     1
 44
0.0
176
     1
173
     0
176
     1
  0
ENDSEC
  0
EOF
