  0
SECTION
  2
HEADER
  9
$ACADVER
  1
AC1024
  9
$ACADMAINTVER
 70
     6
  9
$DWGCODEPAGE
  3
ANSI_1252
  9
$INSBASE
 10
0.0
 20
0.0
 30
0.0
  9
$EXTMIN
 10
1.000000000000000E+20
 20
1.000000000000000E+20
 30
1.000000000000000E+20
  9
$EXTMAX
 10
-1.000000000000000E+20
 20
-1.000000000000000E+20
 30
-1.000000000000000E+20
  9
$LIMMIN
 10
0.0
 20
0.0
  9
$LIMMAX
 10
12.0
 20
9.0
  9
$ORTHOMODE
 70
     0
  9
$REGENMODE
 70
     1
  9
$FILLMODE
 70
     1
  9
$QTEXTMODE
 70
     0
  9
$MIRRTEXT
 70
     1
  9
$LTSCALE
 40
1.0
  9
$ATTMODE
 70
     1
  9
$TEXTSIZE
 40
0.2
  9
$TRACEWID
 40
0.05
  9
$TEXTSTYLE
  7
Standard
  9
$CLAYER
  8
0
  9
$CELTYPE
  6
ByLayer
  9
$CECOLOR
 62
   256
  9
$CELTSCALE
 40
1.0
  9
$DISPSILH
 70
     0
  9
$DIMSCALE
 40
1.0
  9
$DIMASZ
 40
0.18
  9
$DIMEXO
 40
0.0625
  9
$DIMDLI
 40
0.38
  9
$DIMRND
 40
0.0
  9
$DIMDLE
 40
0.0
  9
$DIMEXE
 40
0.18
  9
$DIMTP
 40
0.0
  9
$DIMTM
 40
0.0
  9
$DIMTXT
 40
0.18
  9
$DIMCEN
 40
0.09
  9
$DIMTSZ
 40
0.0
  9
$DIMTOL
 70
     0
  9
$DIMLIM
 70
     0
  9
$DIMTIH
 70
     1
  9
$DIMTOH
 70
     1
  9
$DIMSE1
 70
     0
  9
$DIMSE2
 70
     0
  9
$DIMTAD
 70
     0
  9
$DIMZIN
 70
     0
  9
$DIMBLK
  1

  9
$DIMASO
 70
     1
  9
$DIMSHO
 70
     1
  9
$DIMPOST
  1

  9
$DIMAPOST
  1

  9
$DIMALT
 70
     0
  9
$DIMALTD
 70
     2
  9
$DIMALTF
 40
25.4
  9
$DIMLFAC
 40
1.0
  9
$DIMTOFL
 70
     0
  9
$DIMTVP
 40
0.0
  9
$DIMTIX
 70
     0
  9
$DIMSOXD
 70
     0
  9
$DIMSAH
 70
     0
  9
$DIMBLK1
  1

  9
$DIMBLK2
  1

  9
$DIMSTYLE
  2
Standard
  9
$DIMCLRD
 70
     0
  9
$DIMCLRE
 70
     0
  9
$DIMCLRT
 70
     0
  9
$DIMTFAC
 40
1.0
  9
$DIMGAP
 40
0.09
  9
$DIMJUST
 70
     0
  9
$DIMSD1
 70
     0
  9
$DIMSD2
 70
     0
  9
$DIMTOLJ
 70
     1
  9
$DIMTZIN
 70
     0
  9
$DIMALTZ
 70
     0
  9
$DIMALTTZ
 70
     0
  9
$DIMUPT
 70
     0
  9
$DIMDEC
 70
     4
  9
$DIMTDEC
 70
     4
  9
$DIMALTU
 70
     2
  9
$DIMALTTD
 70
     2
  9
$DIMTXSTY
  7
Standard
  9
$DIMAUNIT
 70
     0
  9
$DIMADEC
 70
     0
  9
$DIMALTRND
 40
0.0
  9
$DIMAZIN
 70
     0
  9
$DIMDSEP
 70
    46
  9
$DIMATFIT
 70
     3
  9
$DIMFRAC
 70
     0
  9
$DIMLDRBLK
  1

  9
$DIMLUNIT
 70
     2
  9
$DIMLWD
 70
    -2
  9
$DIMLWE
 70
    -2
  9
$DIMTMOVE
 70
     0
  9
$DIMFXL
 40
1.0
  9
$DIMFXLON
 70
     0
  9
$DIMJOGANG
 40
0.7853981633974483
  9
$DIMTFILL
 70
     0
  9
$DIMTFILLCLR
 70
     0
  9
$DIMARCSYM
 70
     0
  9
$DIMLTYPE
  6

  9
$DIMLTEX1
  6

  9
$DIMLTEX2
  6

  9
$DIMTXTDIRECTION
 70
     0
  9
$LUNITS
 70
     2
  9
$LUPREC
 70
     4
  9
$SKETCHINC
 40
0.1
  9
$FILLETRAD
 40
0.5
  9
$AUNITS
 70
     0
  9
$AUPREC
 70
     0
  9
$MENU
  1
.
  9
$ELEVATION
 40
0.0
  9
$PELEVATION
 40
0.0
  9
$THICKNESS
 40
0.0
  9
$LIMCHECK
 70
     0
  9
$CHAMFERA
 40
0.5
  9
$CHAMFERB
 40
0.5
  9
$CHAMFERC
 40
1.0
  9
$CHAMFERD
 40
0.0
  9
$SKPOLY
 70
     0
  9
$TDCREATE
 40
2458782.461641389
  9
$TDUCREATE
 40
2458781.919974722
  9
$TDUPDATE
 40
2458782.461641551
  9
$TDUUPDATE
 40
2458781.919974884
  9
$TDINDWG
 40
0.0000000116
  9
$TDUSRTIMER
 40
0.0000000116
  9
$USRTIMER
 70
     1
  9
$ANGBASE
 50
0.0
  9
$ANGDIR
 70
     0
  9
$PDMODE
 70
     0
  9
$PDSIZE
 40
0.0
  9
$PLINEWID
 40
0.0
  9
$SPLFRAME
 70
     0
  9
$SPLINETYPE
 70
     6
  9
$SPLINESEGS
 70
     8
  9
$HANDSEED
  5
23A
  9
$SURFTAB1
 70
     6
  9
$SURFTAB2
 70
     6
  9
$SURFTYPE
 70
     6
  9
$SURFU
 70
     6
  9
$SURFV
 70
     6
  9
$UCSBASE
  2

  9
$UCSNAME
  2

  9
$UCSORG
 10
0.0
 20
0.0
 30
0.0
  9
$UCSXDIR
 10
1.0
 20
0.0
 30
0.0
  9
$UCSYDIR
 10
0.0
 20
1.0
 30
0.0
  9
$UCSORTHOREF
  2

  9
$UCSORTHOVIEW
 70
     0
  9
$UCSORGTOP
 10
0.0
 20
0.0
 30
0.0
  9
$UCSORGBOTTOM
 10
0.0
 20
0.0
 30
0.0
  9
$UCSORGLEFT
 10
0.0
 20
0.0
 30
0.0
  9
$UCSORGRIGHT
 10
0.0
 20
0.0
 30
0.0
  9
$UCSORGFRONT
 10
0.0
 20
0.0
 30
0.0
  9
$UCSORGBACK
 10
0.0
 20
0.0
 30
0.0
  9
$PUCSBASE
  2

  9
$PUCSNAME
  2

  9
$PUCSORG
 10
0.0
 20
0.0
 30
0.0
  9
$PUCSXDIR
 10
1.0
 20
0.0
 30
0.0
  9
$PUCSYDIR
 10
0.0
 20
1.0
 30
0.0
  9
$PUCSORTHOREF
  2

  9
$PUCSORTHOVIEW
 70
     0
  9
$PUCSORGTOP
 10
0.0
 20
0.0
 30
0.0
  9
$PUCSORGBOTTOM
 10
0.0
 20
0.0
 30
0.0
  9
$PUCSORGLEFT
 10
0.0
 20
0.0
 30
0.0
  9
$PUCSORGRIGHT
 10
0.0
 20
0.0
 30
0.0
  9
$PUCSORGFRONT
 10
0.0
 20
0.0
 30
0.0
  9
$PUCSORGBACK
 10
0.0
 20
0.0
 30
0.0
  9
$USERI1
 70
     0
  9
$USERI2
 70
     0
  9
$USERI3
 70
     0
  9
$USERI4
 70
     0
  9
$USERI5
 70
     0
  9
$USERR1
 40
0.0
  9
$USERR2
 40
0.0
  9
$USERR3
 40
0.0
  9
$USERR4
 40
0.0
  9
$USERR5
 40
0.0
  9
$WORLDVIEW
 70
     1
  9
$SHADEDGE
 70
     3
  9
$SHADEDIF
 70
    70
  9
$TILEMODE
 70
     1
  9
$MAXACTVP
 70
    64
  9
$PINSBASE
 10
0.0
 20
0.0
 30
0.0
  9
$PLIMCHECK
 70
     0
  9
$PEXTMIN
 10
1.000000000000000E+20
 20
1.000000000000000E+20
 30
1.000000000000000E+20
  9
$PEXTMAX
 10
-1.000000000000000E+20
 20
-1.000000000000000E+20
 30
-1.000000000000000E+20
  9
$PLIMMIN
 10
0.0
 20
0.0
  9
$PLIMMAX
 10
12.0
 20
9.0
  9
$UNITMODE
 70
     0
  9
$VISRETAIN
 70
     1
  9
$PLINEGEN
 70
     0
  9
$PSLTSCALE
 70
     1
  9
$TREEDEPTH
 70
  3020
  9
$CMLSTYLE
  2
Standard
  9
$CMLJUST
 70
     0
  9
$CMLSCALE
 40
1.0
  9
$PROXYGRAPHICS
 70
     1
  9
$MEASUREMENT
 70
     0
  9
$CELWEIGHT
370
    -1
  9
$ENDCAPS
280
     0
  9
$JOINSTYLE
280
     0
  9
$LWDISPLAY
290
     1
  9
$INSUNITS
 70
     1
  9
$HYPERLINKBASE
  1

  9
$STYLESHEET
  1

  9
$XEDIT
290
     1
  9
$CEPSNTYPE
380
     0
  9
$PSTYLEMODE
290
     1
  9
$FINGERPRINTGUID
  2
{6E6D201C-8622-4609-946D-0F795F11527E}
  9
$VERSIONGUID
  2
{FAEB1C32-E019-11D5-929B-00C0DF256EC4}
  9
$EXTNAMES
290
     1
  9
$PSVPSCALE
 40
0.0
  9
$OLESTARTUP
290
     0
  9
$SORTENTS
280
   127
  9
$INDEXCTL
280
     0
  9
$HIDETEXT
280
     1
  9
$XCLIPFRAME
280
     2
  9
$HALOGAP
280
     0
  9
$OBSCOLOR
 70
   257
  9
$OBSLTYPE
280
     0
  9
$INTERSECTIONDISPLAY
280
     0
  9
$INTERSECTIONCOLOR
 70
   257
  9
$DIMASSOC
280
     2
  9
$PROJECTNAME
  1

  9
$CAMERADISPLAY
290
     0
  9
$LENSLENGTH
 40
50.0
  9
$CAMERAHEIGHT
 40
0.0
  9
$STEPSPERSEC
 40
2.0
  9
$STEPSIZE
 40
6.0
  9
$3DDWFPREC
 40
2.0
  9
$PSOLWIDTH
 40
0.25
  9
$PSOLHEIGHT
 40
4.0
  9
$LOFTANG1
 40
1.570796326794897
  9
$LOFTANG2
 40
1.570796326794897
  9
$LOFTMAG1
 40
0.0
  9
$LOFTMAG2
 40
0.0
  9
$LOFTPARAM
 70
     7
  9
$LOFTNORMALS
280
     1
  9
$LATITUDE
 40
37.795
  9
$LONGITUDE
 40
-122.394
  9
$NORTHDIRECTION
 40
0.0
  9
$TIMEZONE
 70
 -8000
  9
$LIGHTGLYPHDISPLAY
280
     1
  9
$TILEMODELIGHTSYNCH
280
     1
  9
$CMATERIAL
347
3C
  9
$SOLIDHIST
280
     1
  9
$SHOWHIST
280
     1
  9
$DWFFRAME
280
     2
  9
$DGNFRAME
280
     2
  9
$REALWORLDSCALE
290
     1
  9
$INTERFERECOLOR
 62
   256
  9
$CSHADOW
280
     0
  9
$SHADOWPLANELOCATION
 40
0.0
  0
ENDSEC
  0
SECTION
  2
CLASSES
  0
CLASS
  1
ACDBDICTIONARYWDFLT
  2
AcDbDictionaryWithDefault
  3
ObjectDBX Classes
 90
        0
 91
        4
280
     0
281
     0
  0
CLASS
  1
VISUALSTYLE
  2
AcDbVisualStyle
  3
ObjectDBX Classes
 90
     4095
 91
        4
280
     0
281
     0
  0
CLASS
  1
MATERIAL
  2
AcDbMaterial
  3
ObjectDBX Classes
 90
     1153
 91
        4
280
     0
281
     0
  0
CLASS
  1
SUN
  2
AcDbSun
  3
SCENEOE
 90
     1024
 91
        4
280
     0
281
     0
  0
ENDSEC
  0
SECTION
  2
TABLES
  0
TABLE
  2
VPORT
  5
8
330
0
100
AcDbSymbolTable
 70
     1
  0
VPORT
  5
29
330
8
100
AcDbSymbolTableRecord
100
AcDbViewportTableRecord
  2
*Active
 70
     0
 10
0.0
 20
0.0
 11
1.0
 21
1.0
 12
0.0
 22
0.0
 13
0.0
 23
0.0
 14
0.5
 24
0.5
 15
0.5
 25
0.5
 16
0.0
 26
0.0
 36
1.0
 17
21.93732083333334
 27
5.677133187778142
 37
0.0
 40
11.69291359777852
 41
0.707070705477326
 42
50.0
 43
0.0
 44
0.0
 50
0.0
 51
0.0
 71
     0
 72
   100
 73
     1
 74
     3
 75
     0
 76
     0
 77
     0
 78
     0
281
     0
 65
     1
110
0.0
120
0.0
130
0.0
111
1.0
121
0.0
131
0.0
112
0.0
122
1.0
132
0.0
 79
     0
146
0.0
 60
     3
 61
     5
292
     1
282
     1
141
0.0
142
0.0
 63
   250
361
3F
  0
ENDTAB
  0
TABLE
  2
LTYPE
  5
5
330
0
100
AcDbSymbolTable
 70
    35
  0
LTYPE
  5
14
330
5
100
AcDbSymbolTableRecord
100
AcDbLinetypeTableRecord
  2
ByBlock
 70
     0
  3

 72
    65
 73
     0
 40
0.0
  0
LTYPE
  5
15
330
5
100
AcDbSymbolTableRecord
100
AcDbLinetypeTableRecord
  2
ByLayer
 70
     0
  3

 72
    65
 73
     0
 40
0.0
  0
LTYPE
  5
16
330
5
100
AcDbSymbolTableRecord
100
AcDbLinetypeTableRecord
  2
Continuous
 70
     0
  3
Solid line
 72
    65
 73
     0
 40
0.0
  0
LTYPE
  5
D3
330
5
100
AcDbSymbolTableRecord
100
AcDbLinetypeTableRecord
  2
AI-Linetype-1
 70
     0
  3
Adobe Illustrator Linetype No. 1
 72
    65
 73
     2
 40
0.0215105269518163
 49
0.01564402712716
 74
     0
 49
-0.0058664998246564
 74
     0
  0
LTYPE
  5
D6
330
5
100
AcDbSymbolTableRecord
100
AcDbLinetypeTableRecord
  2
AI-Linetype-2
 70
     0
  3
Adobe Illustrator Linetype No. 2
 72
    65
 73
     2
 40
0.0215105269518163
 49
0.01564402712716
 74
     0
 49
-0.0058664998246564
 74
     0
  0
LTYPE
  5
E4
330
5
100
AcDbSymbolTableRecord
100
AcDbLinetypeTableRecord
  2
AI-Linetype-3
 70
     0
  3
Adobe Illustrator Linetype No. 3
 72
    65
 73
     2
 40
0.0469320813814799
 49
0.0312880542543199
 74
     0
 49
-0.01564402712716
 74
     0
  0
LTYPE
  5
E7
330
5
100
AcDbSymbolTableRecord
100
AcDbLinetypeTableRecord
  2
AI-Linetype-4
 70
     0
  3
Adobe Illustrator Linetype No. 4
 72
    65
 73
     2
 40
0.035198972456985
 49
0.0234659728076723
 74
     0
 49
-0.0117329996493128
 74
     0
  0
LTYPE
  5
ED
330
5
100
AcDbSymbolTableRecord
100
AcDbLinetypeTableRecord
  2
AI-Linetype-5
 70
     0
  3
Adobe Illustrator Linetype No. 5
 72
    65
 73
     2
 40
0.035198972456985
 49
0.0234659728076723
 74
     0
 49
-0.0117329996493128
 74
     0
  0
LTYPE
  5
F3
330
5
100
AcDbSymbolTableRecord
100
AcDbLinetypeTableRecord
  2
AI-Linetype-6
 70
     0
  3
Adobe Illustrator Linetype No. 6
 72
    65
 73
     2
 40
0.035198972456985
 49
0.0234659728076723
 74
     0
 49
-0.0117329996493128
 74
     0
  0
LTYPE
  5
FB
330
5
100
AcDbSymbolTableRecord
100
AcDbLinetypeTableRecord
  2
AI-Linetype-7
 70
     0
  3
Adobe Illustrator Linetype No. 7
 72
    65
 73
     2
 40
0.035198972456985
 49
0.0234659728076723
 74
     0
 49
-0.0117329996493128
 74
     0
  0
LTYPE
  5
102
330
5
100
AcDbSymbolTableRecord
100
AcDbLinetypeTableRecord
  2
AI-Linetype-8
 70
     0
  3
Adobe Illustrator Linetype No. 8
 72
    65
 73
     2
 40
0.035198972456985
 49
0.0234659728076723
 74
     0
 49
-0.0117329996493128
 74
     0
  0
LTYPE
  5
108
330
5
100
AcDbSymbolTableRecord
100
AcDbLinetypeTableRecord
  2
AI-Linetype-9
 70
     0
  3
Adobe Illustrator Linetype No. 9
 72
    65
 73
     2
 40
0.035198972456985
 49
0.0234659728076723
 74
     0
 49
-0.0117329996493128
 74
     0
  0
LTYPE
  5
10E
330
5
100
AcDbSymbolTableRecord
100
AcDbLinetypeTableRecord
  2
AI-Linetype-10
 70
     0
  3
Adobe Illustrator Linetype No. 10
 72
    65
 73
     2
 40
0.035198972456985
 49
0.0234659728076723
 74
     0
 49
-0.0117329996493128
 74
     0
  0
LTYPE
  5
110
330
5
100
AcDbSymbolTableRecord
100
AcDbLinetypeTableRecord
  2
AI-Linetype-11
 70
     0
  3
Adobe Illustrator Linetype No. 11
 72
    65
 73
     2
 40
0.035198972456985
 49
0.0234659728076723
 74
     0
 49
-0.0117329996493128
 74
     0
  0
LTYPE
  5
112
330
5
100
AcDbSymbolTableRecord
100
AcDbLinetypeTableRecord
  2
AI-Linetype-12
 70
     0
  3
Adobe Illustrator Linetype No. 12
 72
    65
 73
     2
 40
0.035198972456985
 49
0.0234659728076723
 74
     0
 49
-0.0117329996493128
 74
     0
  0
LTYPE
  5
118
330
5
100
AcDbSymbolTableRecord
100
AcDbLinetypeTableRecord
  2
AI-Linetype-13
 70
     0
  3
Adobe Illustrator Linetype No. 13
 72
    65
 73
     2
 40
0.035198972456985
 49
0.0234659728076723
 74
     0
 49
-0.0117329996493128
 74
     0
  0
LTYPE
  5
11E
330
5
100
AcDbSymbolTableRecord
100
AcDbLinetypeTableRecord
  2
AI-Linetype-14
 70
     0
  3
Adobe Illustrator Linetype No. 14
 72
    65
 73
     2
 40
0.035198972456985
 49
0.0234659728076723
 74
     0
 49
-0.0117329996493128
 74
     0
  0
LTYPE
  5
121
330
5
100
AcDbSymbolTableRecord
100
AcDbLinetypeTableRecord
  2
AI-Linetype-15
 70
     0
  3
Adobe Illustrator Linetype No. 15
 72
    65
 73
     2
 40
0.035198972456985
 49
0.0234659728076723
 74
     0
 49
-0.0117329996493128
 74
     0
  0
LTYPE
  5
125
330
5
100
AcDbSymbolTableRecord
100
AcDbLinetypeTableRecord
  2
AI-Linetype-16
 70
     0
  3
Adobe Illustrator Linetype No. 16
 72
    65
 73
     2
 40
0.035198972456985
 49
0.0234659728076723
 74
     0
 49
-0.0117329996493128
 74
     0
  0
LTYPE
  5
129
330
5
100
AcDbSymbolTableRecord
100
AcDbLinetypeTableRecord
  2
AI-Linetype-17
 70
     0
  3
Adobe Illustrator Linetype No. 17
 72
    65
 73
     2
 40
0.035198972456985
 49
0.0234659728076723
 74
     0
 49
-0.0117329996493128
 74
     0
  0
LTYPE
  5
12D
330
5
100
AcDbSymbolTableRecord
100
AcDbLinetypeTableRecord
  2
AI-Linetype-18
 70
     0
  3
Adobe Illustrator Linetype No. 18
 72
    65
 73
     2
 40
0.035198972456985
 49
0.0234659728076723
 74
     0
 49
-0.0117329996493128
 74
     0
  0
LTYPE
  5
132
330
5
100
AcDbSymbolTableRecord
100
AcDbLinetypeTableRecord
  2
AI-Linetype-19
 70
     0
  3
Adobe Illustrator Linetype No. 19
 72
    65
 73
     2
 40
0.035198972456985
 49
0.0234659728076723
 74
     0
 49
-0.0117329996493128
 74
     0
  0
LTYPE
  5
139
330
5
100
AcDbSymbolTableRecord
100
AcDbLinetypeTableRecord
  2
AI-Linetype-20
 70
     0
  3
Adobe Illustrator Linetype No. 20
 72
    65
 73
     2
 40
0.035198972456985
 49
0.0234659728076723
 74
     0
 49
-0.0117329996493128
 74
     0
  0
LTYPE
  5
160
330
5
100
AcDbSymbolTableRecord
100
AcDbLinetypeTableRecord
  2
AI-Linetype-21
 70
     0
  3
Adobe Illustrator Linetype No. 21
 72
    65
 73
     2
 40
0.0234660274452633
 49
0.01564402712716
 74
     0
 49
-0.0078220003181034
 74
     0
  0
LTYPE
  5
167
330
5
100
AcDbSymbolTableRecord
100
AcDbLinetypeTableRecord
  2
AI-Linetype-22
 70
     0
  3
Adobe Illustrator Linetype No. 22
 72
    65
 73
     2
 40
0.0234660274452633
 49
0.01564402712716
 74
     0
 49
-0.0078220003181034
 74
     0
  0
LTYPE
  5
16E
330
5
100
AcDbSymbolTableRecord
100
AcDbLinetypeTableRecord
  2
AI-Linetype-23
 70
     0
  3
Adobe Illustrator Linetype No. 23
 72
    65
 73
     2
 40
0.0215105269518163
 49
0.01564402712716
 74
     0
 49
-0.0058664998246564
 74
     0
  0
LTYPE
  5
171
330
5
100
AcDbSymbolTableRecord
100
AcDbLinetypeTableRecord
  2
AI-Linetype-24
 70
     0
  3
Adobe Illustrator Linetype No. 24
 72
    65
 73
     2
 40
0.0215105269518163
 49
0.01564402712716
 74
     0
 49
-0.0058664998246564
 74
     0
  0
LTYPE
  5
193
330
5
100
AcDbSymbolTableRecord
100
AcDbLinetypeTableRecord
  2
AI-Linetype-25
 70
     0
  3
Adobe Illustrator Linetype No. 25
 72
    65
 73
     2
 40
0.0234660274452633
 49
0.01564402712716
 74
     0
 49
-0.0078220003181034
 74
     0
  0
LTYPE
  5
19A
330
5
100
AcDbSymbolTableRecord
100
AcDbLinetypeTableRecord
  2
AI-Linetype-26
 70
     0
  3
Adobe Illustrator Linetype No. 26
 72
    65
 73
     2
 40
0.0234660274452633
 49
0.01564402712716
 74
     0
 49
-0.0078220003181034
 74
     0
  0
LTYPE
  5
1A1
330
5
100
AcDbSymbolTableRecord
100
AcDbLinetypeTableRecord
  2
AI-Linetype-27
 70
     0
  3
Adobe Illustrator Linetype No. 27
 72
    65
 73
     2
 40
0.0215105269518163
 49
0.01564402712716
 74
     0
 49
-0.0058664998246564
 74
     0
  0
LTYPE
  5
1A4
330
5
100
AcDbSymbolTableRecord
100
AcDbLinetypeTableRecord
  2
AI-Linetype-28
 70
     0
  3
Adobe Illustrator Linetype No. 28
 72
    65
 73
     2
 40
0.0215105269518163
 49
0.01564402712716
 74
     0
 49
-0.0058664998246564
 74
     0
  0
LTYPE
  5
1C6
330
5
100
AcDbSymbolTableRecord
100
AcDbLinetypeTableRecord
  2
AI-Linetype-29
 70
     0
  3
Adobe Illustrator Linetype No. 29
 72
    65
 73
     2
 40
0.0234660274452633
 49
0.01564402712716
 74
     0
 49
-0.0078220003181034
 74
     0
  0
LTYPE
  5
1CD
330
5
100
AcDbSymbolTableRecord
100
AcDbLinetypeTableRecord
  2
AI-Linetype-30
 70
     0
  3
Adobe Illustrator Linetype No. 30
 72
    65
 73
     2
 40
0.0234660274452633
 49
0.01564402712716
 74
     0
 49
-0.0078220003181034
 74
     0
  0
LTYPE
  5
1D4
330
5
100
AcDbSymbolTableRecord
100
AcDbLinetypeTableRecord
  2
AI-Linetype-31
 70
     0
  3
Adobe Illustrator Linetype No. 31
 72
    65
 73
     2
 40
0.0215105269518163
 49
0.01564402712716
 74
     0
 49
-0.0058664998246564
 74
     0
  0
LTYPE
  5
1D7
330
5
100
AcDbSymbolTableRecord
100
AcDbLinetypeTableRecord
  2
AI-Linetype-32
 70
     0
  3
Adobe Illustrator Linetype No. 32
 72
    65
 73
     2
 40
0.0215105269518163
 49
0.01564402712716
 74
     0
 49
-0.0058664998246564
 74
     0
  0
LTYPE
  5
1F9
330
5
100
AcDbSymbolTableRecord
100
AcDbLinetypeTableRecord
  2
AI-Linetype-33
 70
     0
  3
Adobe Illustrator Linetype No. 33
 72
    65
 73
     2
 40
0.0234660274452633
 49
0.01564402712716
 74
     0
 49
-0.0078220003181034
 74
     0
  0
LTYPE
  5
200
330
5
100
AcDbSymbolTableRecord
100
AcDbLinetypeTableRecord
  2
AI-Linetype-34
 70
     0
  3
Adobe Illustrator Linetype No. 34
 72
    65
 73
     2
 40
0.0234660274452633
 49
0.01564402712716
 74
     0
 49
-0.0078220003181034
 74
     0
  0
ENDTAB
  0
TABLE
  2
LAYER
  5
2
330
0
100
AcDbSymbolTable
 70
     4
  0
LAYER
  5
10
330
2
100
AcDbSymbolTableRecord
100
AcDbLayerTableRecord
  2
0
 70
     0
 62
     7
  6
Continuous
370
    -3
390
F
347
3E
  0
LAYER
  5
40
330
2
100
AcDbSymbolTableRecord
100
AcDbLayerTableRecord
  2
WOOD
 70
     0
 62
     7
  6
Continuous
370
    -3
390
F
347
3E
  0
LAYER
  5
CD
330
2
100
AcDbSymbolTableRecord
100
AcDbLayerTableRecord
  2
Layer 2
 70
     0
 62
     7
  6
Continuous
370
    -3
390
F
347
3E
  0
LAYER
  5
207
330
2
100
AcDbSymbolTableRecord
100
AcDbLayerTableRecord
  2
Callouts
 70
     0
 62
     7
  6
Continuous
370
    -3
390
F
347
3E
  0
ENDTAB
  0
TABLE
  2
STYLE
  5
3
330
0
100
AcDbSymbolTable
 70
     1
  0
STYLE
  5
11
330
3
100
AcDbSymbolTableRecord
100
AcDbTextStyleTableRecord
  2
Standard
 70
     0
 40
0.0
 41
1.0
 50
0.0
 71
     0
 42
0.2
  3
txt
  4

  0
ENDTAB
  0
TABLE
  2
VIEW
  5
6
330
0
100
AcDbSymbolTable
 70
     0
  0
ENDTAB
  0
TABLE
  2
UCS
  5
7
330
0
100
AcDbSymbolTable
 70
     0
  0
ENDTAB
  0
TABLE
  2
APPID
  5
9
330
0
100
AcDbSymbolTable
 70
     1
  0
APPID
  5
12
330
9
100
AcDbSymbolTableRecord
100
AcDbRegAppTableRecord
  2
ACAD
 70
     0
  0
ENDTAB
  0
TABLE
  2
DIMSTYLE
  5
A
330
0
100
AcDbSymbolTable
 70
     1
100
AcDbDimStyleTable
  0
DIMSTYLE
105
27
330
A
100
AcDbSymbolTableRecord
100
AcDbDimStyleTableRecord
  2
Standard
 70
     0
178
     0
340
11
  0
ENDTAB
  0
TABLE
  2
BLOCK_RECORD
  5
1
330
0
100
AcDbSymbolTable
 70
    44
  0
BLOCK_RECORD
  5
1F
330
1
100
AcDbSymbolTableRecord
100
AcDbBlockTableRecord
  2
*Model_Space
340
22
 70
     0
280
     1
281
     0
  0
BLOCK_RECORD
  5
1B
330
1
100
AcDbSymbolTableRecord
100
AcDbBlockTableRecord
  2
*Paper_Space
340
1E
 70
     0
280
     1
281
     0
  0
BLOCK_RECORD
  5
23
330
1
100
AcDbSymbolTableRecord
100
AcDbBlockTableRecord
  2
*Paper_Space0
340
26
 70
     0
280
     1
281
     0
  0
BLOCK_RECORD
  5
41
330
1
100
AcDbSymbolTableRecord
100
AcDbBlockTableRecord
  2
block 2
340
0
102
{BLKREFS
331
42
102
}
 70
     0
280
     1
281
     0
  0
BLOCK_RECORD
  5
5D
330
1
100
AcDbSymbolTableRecord
100
AcDbBlockTableRecord
  2
block 3
340
0
102
{BLKREFS
331
5E
102
}
 70
     0
280
     1
281
     0
  0
BLOCK_RECORD
  5
CE
330
1
100
AcDbSymbolTableRecord
100
AcDbBlockTableRecord
  2
block 4
340
0
102
{BLKREFS
331
CF
102
}
 70
     0
280
     1
281
     0
  0
BLOCK_RECORD
  5
D7
330
1
100
AcDbSymbolTableRecord
100
AcDbBlockTableRecord
  2
block 5
340
0
102
{BLKREFS
331
D8
102
}
 70
     0
280
     1
281
     0
  0
BLOCK_RECORD
  5
DB
330
1
100
AcDbSymbolTableRecord
100
AcDbBlockTableRecord
  2
block 6
340
0
102
{BLKREFS
331
DC
102
}
 70
     0
280
     1
281
     0
  0
BLOCK_RECORD
  5
DF
330
1
100
AcDbSymbolTableRecord
100
AcDbBlockTableRecord
  2
block 7
340
0
102
{BLKREFS
331
E0
102
}
 70
     0
280
     1
281
     0
  0
BLOCK_RECORD
  5
E8
330
1
100
AcDbSymbolTableRecord
100
AcDbBlockTableRecord
  2
block 8
340
0
102
{BLKREFS
331
E9
102
}
 70
     0
280
     1
281
     0
  0
BLOCK_RECORD
  5
EE
330
1
100
AcDbSymbolTableRecord
100
AcDbBlockTableRecord
  2
block 9
340
0
102
{BLKREFS
331
EF
102
}
 70
     0
280
     1
281
     0
  0
BLOCK_RECORD
  5
F4
330
1
100
AcDbSymbolTableRecord
100
AcDbBlockTableRecord
  2
block 10
340
0
102
{BLKREFS
331
F5
102
}
 70
     0
280
     1
281
     0
  0
BLOCK_RECORD
  5
FD
330
1
100
AcDbSymbolTableRecord
100
AcDbBlockTableRecord
  2
block 11
340
0
102
{BLKREFS
331
FE
102
}
 70
     0
280
     1
281
     0
  0
BLOCK_RECORD
  5
103
330
1
100
AcDbSymbolTableRecord
100
AcDbBlockTableRecord
  2
block 12
340
0
102
{BLKREFS
331
104
102
}
 70
     0
280
     1
281
     0
  0
BLOCK_RECORD
  5
109
330
1
100
AcDbSymbolTableRecord
100
AcDbBlockTableRecord
  2
block 13
340
0
102
{BLKREFS
331
10A
102
}
 70
     0
280
     1
281
     0
  0
BLOCK_RECORD
  5
113
330
1
100
AcDbSymbolTableRecord
100
AcDbBlockTableRecord
  2
block 14
340
0
102
{BLKREFS
331
114
102
}
 70
     0
280
     1
281
     0
  0
BLOCK_RECORD
  5
119
330
1
100
AcDbSymbolTableRecord
100
AcDbBlockTableRecord
  2
block 15
340
0
102
{BLKREFS
331
11A
102
}
 70
     0
280
     1
281
     0
  0
BLOCK_RECORD
  5
13F
330
1
100
AcDbSymbolTableRecord
100
AcDbBlockTableRecord
  2
block 16
340
0
102
{BLKREFS
331
140
102
}
 70
     0
280
     1
281
     0
  0
BLOCK_RECORD
  5
143
330
1
100
AcDbSymbolTableRecord
100
AcDbBlockTableRecord
  2
block 17
340
0
102
{BLKREFS
331
144
102
}
 70
     0
280
     1
281
     0
  0
BLOCK_RECORD
  5
151
330
1
100
AcDbSymbolTableRecord
100
AcDbBlockTableRecord
  2
block 18
340
0
102
{BLKREFS
331
152
102
}
 70
     0
280
     1
281
     0
  0
BLOCK_RECORD
  5
157
330
1
100
AcDbSymbolTableRecord
100
AcDbBlockTableRecord
  2
block 19
340
0
102
{BLKREFS
331
158
102
}
 70
     0
280
     1
281
     0
  0
BLOCK_RECORD
  5
15B
330
1
100
AcDbSymbolTableRecord
100
AcDbBlockTableRecord
  2
block 20
340
0
102
{BLKREFS
331
15C
102
}
 70
     0
280
     1
281
     0
  0
BLOCK_RECORD
  5
162
330
1
100
AcDbSymbolTableRecord
100
AcDbBlockTableRecord
  2
block 21
340
0
102
{BLKREFS
331
163
102
}
 70
     0
280
     1
281
     0
  0
BLOCK_RECORD
  5
169
330
1
100
AcDbSymbolTableRecord
100
AcDbBlockTableRecord
  2
block 22
340
0
102
{BLKREFS
331
16A
102
}
 70
     0
280
     1
281
     0
  0
BLOCK_RECORD
  5
172
330
1
100
AcDbSymbolTableRecord
100
AcDbBlockTableRecord
  2
block 23
340
0
102
{BLKREFS
331
173
102
}
 70
     0
280
     1
281
     0
  0
BLOCK_RECORD
  5
176
330
1
100
AcDbSymbolTableRecord
100
AcDbBlockTableRecord
  2
block 24
340
0
102
{BLKREFS
331
177
102
}
 70
     0
280
     1
281
     0
  0
BLOCK_RECORD
  5
184
330
1
100
AcDbSymbolTableRecord
100
AcDbBlockTableRecord
  2
block 25
340
0
102
{BLKREFS
331
185
102
}
 70
     0
280
     1
281
     0
  0
BLOCK_RECORD
  5
18A
330
1
100
AcDbSymbolTableRecord
100
AcDbBlockTableRecord
  2
block 26
340
0
102
{BLKREFS
331
18B
102
}
 70
     0
280
     1
281
     0
  0
BLOCK_RECORD
  5
18E
330
1
100
AcDbSymbolTableRecord
100
AcDbBlockTableRecord
  2
block 27
340
0
102
{BLKREFS
331
18F
102
}
 70
     0
280
     1
281
     0
  0
BLOCK_RECORD
  5
195
330
1
100
AcDbSymbolTableRecord
100
AcDbBlockTableRecord
  2
block 28
340
0
102
{BLKREFS
331
196
102
}
 70
     0
280
     1
281
     0
  0
BLOCK_RECORD
  5
19C
330
1
100
AcDbSymbolTableRecord
100
AcDbBlockTableRecord
  2
block 29
340
0
102
{BLKREFS
331
19D
102
}
 70
     0
280
     1
281
     0
  0
BLOCK_RECORD
  5
1A5
330
1
100
AcDbSymbolTableRecord
100
AcDbBlockTableRecord
  2
block 30
340
0
102
{BLKREFS
331
1A6
102
}
 70
     0
280
     1
281
     0
  0
BLOCK_RECORD
  5
1A9
330
1
100
AcDbSymbolTableRecord
100
AcDbBlockTableRecord
  2
block 31
340
0
102
{BLKREFS
331
1AA
102
}
 70
     0
280
     1
281
     0
  0
BLOCK_RECORD
  5
1B7
330
1
100
AcDbSymbolTableRecord
100
AcDbBlockTableRecord
  2
block 32
340
0
102
{BLKREFS
331
1B8
102
}
 70
     0
280
     1
281
     0
  0
BLOCK_RECORD
  5
1BD
330
1
100
AcDbSymbolTableRecord
100
AcDbBlockTableRecord
  2
block 33
340
0
102
{BLKREFS
331
1BE
102
}
 70
     0
280
     1
281
     0
  0
BLOCK_RECORD
  5
1C1
330
1
100
AcDbSymbolTableRecord
100
AcDbBlockTableRecord
  2
block 34
340
0
102
{BLKREFS
331
1C2
102
}
 70
     0
280
     1
281
     0
  0
BLOCK_RECORD
  5
1C8
330
1
100
AcDbSymbolTableRecord
100
AcDbBlockTableRecord
  2
block 35
340
0
102
{BLKREFS
331
1C9
102
}
 70
     0
280
     1
281
     0
  0
BLOCK_RECORD
  5
1CF
330
1
100
AcDbSymbolTableRecord
100
AcDbBlockTableRecord
  2
block 36
340
0
102
{BLKREFS
331
1D0
102
}
 70
     0
280
     1
281
     0
  0
BLOCK_RECORD
  5
1D8
330
1
100
AcDbSymbolTableRecord
100
AcDbBlockTableRecord
  2
block 37
340
0
102
{BLKREFS
331
1D9
102
}
 70
     0
280
     1
281
     0
  0
BLOCK_RECORD
  5
1DC
330
1
100
AcDbSymbolTableRecord
100
AcDbBlockTableRecord
  2
block 38
340
0
102
{BLKREFS
331
1DD
102
}
 70
     0
280
     1
281
     0
  0
BLOCK_RECORD
  5
1EA
330
1
100
AcDbSymbolTableRecord
100
AcDbBlockTableRecord
  2
block 39
340
0
102
{BLKREFS
331
1EB
102
}
 70
     0
280
     1
281
     0
  0
BLOCK_RECORD
  5
1F0
330
1
100
AcDbSymbolTableRecord
100
AcDbBlockTableRecord
  2
block 40
340
0
102
{BLKREFS
331
1F1
102
}
 70
     0
280
     1
281
     0
  0
BLOCK_RECORD
  5
1F4
330
1
100
AcDbSymbolTableRecord
100
AcDbBlockTableRecord
  2
block 41
340
0
102
{BLKREFS
331
1F5
102
}
 70
     0
280
     1
281
     0
  0
BLOCK_RECORD
  5
1FB
330
1
100
AcDbSymbolTableRecord
100
AcDbBlockTableRecord
  2
block 42
340
0
102
{BLKREFS
331
1FC
102
}
 70
     0
280
     1
281
     0
  0
BLOCK_RECORD
  5
210
330
1
100
AcDbSymbolTableRecord
100
AcDbBlockTableRecord
  2
block 43
340
0
102
{BLKREFS
331
211
102
}
 70
     0
280
     1
281
     0
  0
BLOCK_RECORD
  5
220
330
1
100
AcDbSymbolTableRecord
100
AcDbBlockTableRecord
  2
block 44
340
0
102
{BLKREFS
331
221
102
}
 70
     0
280
     1
281
     0
  0
ENDTAB
  0
ENDSEC
  0
SECTION
  2
BLOCKS
  0
BLOCK
  5
20
330
1F
100
AcDbEntity
  8
0
100
AcDbBlockBegin
  2
*Model_Space
 70
     0
 10
0.0
 20
0.0
 30
0.0
  3
*Model_Space
  1

  0
ENDBLK
  5
21
330
1F
100
AcDbEntity
  8
0
100
AcDbBlockEnd
  0
BLOCK
  5
1C
330
1B
100
AcDbEntity
 67
     1
  8
0
100
AcDbBlockBegin
  2
*Paper_Space
 70
     0
 10
0.0
 20
0.0
 30
0.0
  3
*Paper_Space
  1

  0
ENDBLK
  5
1D
330
1B
100
AcDbEntity
 67
     1
  8
0
100
AcDbBlockEnd
  0
BLOCK
  5
24
330
23
100
AcDbEntity
  8
0
100
AcDbBlockBegin
  2
*Paper_Space0
 70
     0
 10
0.0
 20
0.0
 30
0.0
  3
*Paper_Space0
  1

  0
ENDBLK
  5
25
330
23
100
AcDbEntity
  8
0
100
AcDbBlockEnd
  0
BLOCK
  5
43
330
41
100
AcDbEntity
  8
0
100
AcDbBlockBegin
  2
block 2
 70
     0
 10
0.0
 20
0.0
 30
0.0
  3
block 2
  1

  0
POLYLINE
  5
45
330
41
100
AcDbEntity
  8
WOOD
 62
   250
420
  2301728
370
    15
100
AcDb2dPolyline
 66
     1
 10
0.0
 20
0.0
 30
0.0
  0
VERTEX
  5
46
330
45
100
AcDbEntity
  8
WOOD
 62
   250
420
  2301728
370
    15
100
AcDbVertex
100
AcDb2dVertex
 10
21.53287916666666
 20
4.356767945494337
 30
0.0
  0
VERTEX
  5
47
330
45
100
AcDbEntity
  8
WOOD
 62
   250
420
  2301728
370
    15
100
AcDbVertex
100
AcDb2dVertex
 10
21.81740000000001
 20
4.197254060635108
 30
0.0
  0
VERTEX
  5
48
330
45
100
AcDbEntity
  8
WOOD
 62
   250
420
  2301728
370
    15
100
AcDbVertex
100
AcDb2dVertex
 10
21.9509263888889
 20
4.231259615331611
 30
0.0
  0
VERTEX
  5
49
330
45
100
AcDbEntity
  8
WOOD
 62
   250
420
  2301728
370
    15
100
AcDbVertex
100
AcDb2dVertex
 10
22.01296666666667
 20
4.192997116298203
 30
0.0
  0
VERTEX
  5
4A
330
45
100
AcDbEntity
  8
WOOD
 62
   250
420
  2301728
370
    15
100
AcDbVertex
100
AcDb2dVertex
 10
22.0412111111111
 20
4.277177669727179
 30
0.0
  0
VERTEX
  5
4B
330
45
100
AcDbEntity
  8
WOOD
 62
   250
420
  2301728
370
    15
100
AcDbVertex
100
AcDb2dVertex
 10
22.07271805555557
 20
4.262277777777777
 30
0.0
  0
VERTEX
  5
4C
330
45
100
AcDbEntity
  8
WOOD
 62
   250
420
  2301728
370
    15
100
AcDbVertex
100
AcDb2dVertex
 10
22.24858888888889
 20
4.30706944444445
 30
0.0
  0
VERTEX
  5
4D
330
45
100
AcDbEntity
  8
WOOD
 62
   250
420
  2301728
370
    15
100
AcDbVertex
100
AcDb2dVertex
 10
22.24858888888889
 20
6.306556785127415
 30
0.0
  0
VERTEX
  5
4E
330
45
100
AcDbEntity
  8
WOOD
 62
   250
420
  2301728
370
    15
100
AcDbVertex
100
AcDb2dVertex
 10
21.94004444444444
 20
6.403002616024322
 30
0.0
  0
VERTEX
  5
4F
330
45
100
AcDbEntity
  8
WOOD
 62
   250
420
  2301728
370
    15
100
AcDbVertex
100
AcDb2dVertex
 10
21.53287916666666
 20
6.329692895654059
 30
0.0
  0
VERTEX
  5
50
330
45
100
AcDbEntity
  8
WOOD
 62
   250
420
  2301728
370
    15
100
AcDbVertex
100
AcDb2dVertex
 10
21.53287916666666
 20
4.356767945494337
 30
0.0
  0
SEQEND
  5
52
330
45
100
AcDbEntity
  8
WOOD
 62
   250
420
  2301728
370
    15
  0
HATCH
  5
51
330
41
100
AcDbEntity
  8
WOOD
 62
    43
420
 15510365
100
AcDbHatch
 10
0.0
 20
0.0
 30
0.0
210
0.0
220
0.0
230
1.0
  2
SOLID
 70
     1
 71
     0
 91
        1
 92
        1
 93
       10
 72
     1
 10
21.53287916666666
 20
4.356767945494337
 11
21.81740000000001
 21
4.197254060635108
 72
     1
 10
21.81740000000001
 20
4.197254060635108
 11
21.9509263888889
 21
4.231259615331611
 72
     1
 10
21.9509263888889
 20
4.231259615331611
 11
22.01296666666667
 21
4.192997116298203
 72
     1
 10
22.01296666666667
 20
4.192997116298203
 11
22.0412111111111
 21
4.277177669727179
 72
     1
 10
22.0412111111111
 20
4.277177669727179
 11
22.07271805555557
 21
4.262277777777777
 72
     1
 10
22.07271805555557
 20
4.262277777777777
 11
22.24858888888889
 21
4.30706944444445
 72
     1
 10
22.24858888888889
 20
4.30706944444445
 11
22.24858888888889
 21
6.306556785127415
 72
     1
 10
22.24858888888889
 20
6.306556785127415
 11
21.94004444444444
 21
6.403002616024322
 72
     1
 10
21.94004444444444
 20
6.403002616024322
 11
21.53287916666666
 21
6.329692895654059
 72
     1
 10
21.53287916666666
 20
6.329692895654059
 11
21.53287916666666
 21
4.356767945494337
 97
        0
 75
     2
 76
     1
 98
        0
  0
POLYLINE
  5
53
330
41
100
AcDbEntity
  8
WOOD
 62
   250
420
  2301728
370
    15
100
AcDb2dPolyline
 66
     1
 10
0.0
 20
0.0
 30
0.0
  0
VERTEX
  5
54
330
53
100
AcDbEntity
  8
WOOD
 62
   250
420
  2301728
370
    15
100
AcDbVertex
100
AcDb2dVertex
 10
22.0412111111111
 20
4.277177669727179
 30
0.0
  0
VERTEX
  5
55
330
53
100
AcDbEntity
  8
WOOD
 62
   250
420
  2301728
370
    15
100
AcDbVertex
100
AcDb2dVertex
 10
22.04620972222223
 20
4.292076280461919
 30
0.0
  0
VERTEX
  5
56
330
53
100
AcDbEntity
  8
WOOD
 62
   250
420
  2301728
370
    15
100
AcDbVertex
100
AcDb2dVertex
 10
22.07271805555557
 20
4.262277777777777
 30
0.0
  0
SEQEND
  5
57
330
53
100
AcDbEntity
  8
WOOD
 62
   250
420
  2301728
370
    15
  0
POLYLINE
  5
58
330
41
100
AcDbEntity
  8
WOOD
 62
   250
420
  2301728
370
    15
100
AcDb2dPolyline
 66
     1
 10
0.0
 20
0.0
 30
0.0
  0
VERTEX
  5
59
330
58
100
AcDbEntity
  8
WOOD
 62
   250
420
  2301728
370
    15
100
AcDbVertex
100
AcDb2dVertex
 10
21.9509263888889
 20
4.231259615331611
 30
0.0
  0
VERTEX
  5
5A
330
58
100
AcDbEntity
  8
WOOD
 62
   250
420
  2301728
370
    15
100
AcDbVertex
100
AcDb2dVertex
 10
21.97833888888888
 20
4.238431837372647
 30
0.0
  0
VERTEX
  5
5B
330
58
100
AcDbEntity
  8
WOOD
 62
   250
420
  2301728
370
    15
100
AcDbVertex
100
AcDb2dVertex
 10
22.01296666666667
 20
4.192997116298203
 30
0.0
  0
SEQEND
  5
5C
330
58
100
AcDbEntity
  8
WOOD
 62
   250
420
  2301728
370
    15
  0
ENDBLK
  5
44
330
41
100
AcDbEntity
  8
0
100
AcDbBlockEnd
  0
BLOCK
  5
5F
330
5D
100
AcDbEntity
  8
0
100
AcDbBlockBegin
  2
block 3
 70
     0
 10
0.0
 20
0.0
 30
0.0
  3
block 3
  1

  0
POLYLINE
  5
61
330
5D
100
AcDbEntity
  8
WOOD
 62
   250
420
  2301728
370
    15
100
AcDb2dPolyline
 66
     1
 10
0.0
 20
0.0
 30
0.0
  0
VERTEX
  5
62
330
61
100
AcDbEntity
  8
WOOD
 62
   250
420
  2301728
370
    15
100
AcDbVertex
100
AcDb2dVertex
 10
23.40671944444446
 20
6.607184555310696
 30
0.0
  0
VERTEX
  5
63
330
61
100
AcDbEntity
  8
WOOD
 62
   250
420
  2301728
370
    15
100
AcDbVertex
100
AcDb2dVertex
 10
23.29091527777778
 20
6.714448441489871
 30
0.0
  0
VERTEX
  5
64
330
61
100
AcDbEntity
  8
WOOD
 62
   250
420
  2301728
370
    15
100
AcDbVertex
100
AcDb2dVertex
 10
23.51783194444445
 20
6.762647051383383
 30
0.0
  0
VERTEX
  5
65
330
61
100
AcDbEntity
  8
WOOD
 62
   250
420
  2301728
370
    15
100
AcDbVertex
100
AcDb2dVertex
 10
23.40671944444446
 20
6.867266493184919
 30
0.0
  0
VERTEX
  5
66
330
61
100
AcDbEntity
  8
WOOD
 62
   250
420
  2301728
370
    15
100
AcDbVertex
100
AcDb2dVertex
 10
23.40657083333334
 20
6.867266493184919
 30
0.0
  0
VERTEX
  5
67
330
61
100
AcDbEntity
  8
WOOD
 62
   250
420
  2301728
370
    15
100
AcDbVertex
100
AcDb2dVertex
 10
23.40657083333334
 20
7.44712897853636
 30
0.0
  0
VERTEX
  5
68
330
61
100
AcDbEntity
  8
WOOD
 62
   250
420
  2301728
370
    15
100
AcDbVertex
100
AcDb2dVertex
 10
20.91547222222223
 20
8.300799790304154
 30
0.0
  0
VERTEX
  5
69
330
61
100
AcDbEntity
  8
WOOD
 62
   250
420
  2301728
370
    15
100
AcDbVertex
100
AcDb2dVertex
 10
20.61216111111111
 20
8.244805555555558
 30
0.0
  0
VERTEX
  5
6A
330
61
100
AcDbEntity
  8
WOOD
 62
   250
420
  2301728
370
    15
100
AcDbVertex
100
AcDb2dVertex
 10
20.61216111111111
 20
6.682972222222221
 30
0.0
  0
VERTEX
  5
6B
330
61
100
AcDbEntity
  8
WOOD
 62
   250
420
  2301728
370
    15
100
AcDbVertex
100
AcDb2dVertex
 10
22.9348263888889
 20
5.786887353810926
 30
0.0
  0
VERTEX
  5
6C
330
61
100
AcDbEntity
  8
WOOD
 62
   250
420
  2301728
370
    15
100
AcDbVertex
100
AcDb2dVertex
 10
23.40657083333334
 20
5.885298462435963
 30
0.0
  0
VERTEX
  5
6D
330
61
100
AcDbEntity
  8
WOOD
 62
   250
420
  2301728
370
    15
100
AcDbVertex
100
AcDb2dVertex
 10
23.40657083333334
 20
6.607181777532989
 30
0.0
  0
VERTEX
  5
6E
330
61
100
AcDbEntity
  8
WOOD
 62
   250
420
  2301728
370
    15
100
AcDbVertex
100
AcDb2dVertex
 10
23.40671944444446
 20
6.607184555310696
 30
0.0
  0
SEQEND
  5
70
330
61
100
AcDbEntity
  8
WOOD
 62
   250
420
  2301728
370
    15
  0
HATCH
  5
6F
330
5D
100
AcDbEntity
  8
WOOD
 62
    43
420
 15510365
100
AcDbHatch
 10
0.0
 20
0.0
 30
0.0
210
0.0
220
0.0
230
1.0
  2
SOLID
 70
     1
 71
     0
 91
        1
 92
        1
 93
       12
 72
     1
 10
23.40671944444446
 20
6.607184555310696
 11
23.29091527777778
 21
6.714448441489871
 72
     1
 10
23.29091527777778
 20
6.714448441489871
 11
23.51783194444445
 21
6.762647051383383
 72
     1
 10
23.51783194444445
 20
6.762647051383383
 11
23.40671944444446
 21
6.867266493184919
 72
     1
 10
23.40671944444446
 20
6.867266493184919
 11
23.40657083333334
 21
6.867266493184919
 72
     1
 10
23.40657083333334
 20
6.867266493184919
 11
23.40657083333334
 21
7.44712897853636
 72
     1
 10
23.40657083333334
 20
7.44712897853636
 11
20.91547222222223
 21
8.300799790304154
 72
     1
 10
20.91547222222223
 20
8.300799790304154
 11
20.61216111111111
 21
8.244805555555558
 72
     1
 10
20.61216111111111
 20
8.244805555555558
 11
20.61216111111111
 21
6.682972222222221
 72
     1
 10
20.61216111111111
 20
6.682972222222221
 11
22.9348263888889
 21
5.786887353810926
 72
     1
 10
22.9348263888889
 20
5.786887353810926
 11
23.40657083333334
 21
5.885298462435963
 72
     1
 10
23.40657083333334
 20
5.885298462435963
 11
23.40657083333334
 21
6.607181777532989
 72
     1
 10
23.40657083333334
 20
6.607181777532989
 11
23.40671944444446
 21
6.607184555310696
 97
        0
 75
     2
 76
     1
 98
        0
  0
POLYLINE
  5
71
330
5D
100
AcDbEntity
  8
WOOD
 62
   250
420
  2301728
370
    15
100
AcDb2dPolyline
 66
     1
 10
0.0
 20
0.0
 30
0.0
  0
VERTEX
  5
72
330
71
100
AcDbEntity
  8
WOOD
 62
   250
420
  2301728
370
    15
100
AcDbVertex
100
AcDb2dVertex
 10
22.9348263888889
 20
7.348719258800176
 30
0.0
  0
VERTEX
  5
73
330
71
100
AcDbEntity
  8
WOOD
 62
   250
420
  2301728
370
    15
100
AcDbVertex
100
AcDb2dVertex
 10
20.61216111111111
 20
8.244805555555558
 30
0.0
  0
SEQEND
  5
74
330
71
100
AcDbEntity
  8
WOOD
 62
   250
420
  2301728
370
    15
  0
SPLINE
  5
75
330
5D
100
AcDbEntity
  8
WOOD
 62
   250
420
  2301728
370
     9
100
AcDbSpline
210
0.0
220
0.0
230
1.0
 70
     8
 71
     3
 72
    14
 73
    10
 74
     0
 42
0.0000000001
 43
0.0000000001
 12
1.0
 22
0.0
 32
0.0
 13
1.0
 23
0.0
 33
0.0
 40
0.0
 40
0.0
 40
0.0
 40
0.0
 40
1.0
 40
1.0
 40
1.0
 40
2.0
 40
2.0
 40
2.0
 40
3.0
 40
3.0
 40
3.0
 40
3.0
 10
22.92989861111111
 20
6.639498443383268
 30
0.0
 10
22.93089861111111
 20
6.627197054805138
 30
0.0
 10
23.02317222222223
 20
6.552891501126699
 30
0.0
 10
23.02525833333334
 20
6.526172057357244
 30
0.0
 10
23.02910277777778
 20
6.476933169712234
 30
0.0
 10
23.03420694444445
 20
6.432555555555559
 30
0.0
 10
23.02068472222224
 20
6.353119283951147
 30
0.0
 10
22.99982638888888
 20
6.230574842602437
 30
0.0
 10
23.01323055555556
 20
6.120398456496837
 30
0.0
 10
22.9348263888889
 20
6.051638888888887
 30
0.0
  0
SPLINE
  5
76
330
5D
100
AcDbEntity
  8
WOOD
 62
   250
420
  2301728
370
     9
100
AcDbSpline
210
0.0
220
0.0
230
1.0
 70
     8
 71
     3
 72
    11
 73
     7
 74
     0
 42
0.0000000001
 43
0.0000000001
 12
1.0
 22
0.0
 32
0.0
 13
1.0
 23
0.0
 33
0.0
 40
0.0
 40
0.0
 40
0.0
 40
0.0
 40
1.0
 40
1.0
 40
1.0
 40
2.0
 40
2.0
 40
2.0
 40
2.0
 10
22.9348263888889
 20
6.855030382382918
 30
0.0
 10
22.95162083333333
 20
6.82989149412909
 30
0.0
 10
22.96836805555555
 20
6.805388888888892
 30
0.0
 10
22.98272083333334
 20
6.779619273176851
 30
0.0
 10
22.98272083333334
 20
6.779619273176851
 30
0.0
 10
23.08392638888889
 20
6.673169275866004
 30
0.0
 10
23.08392638888889
 20
6.673169275866004
 30
0.0
  0
SPLINE
  5
77
330
5D
100
AcDbEntity
  8
WOOD
 62
   250
420
  2301728
370
     9
100
AcDbSpline
210
0.0
220
0.0
230
1.0
 70
     8
 71
     3
 72
    11
 73
     7
 74
     0
 42
0.0000000001
 43
0.0000000001
 12
1.0
 22
0.0
 32
0.0
 13
1.0
 23
0.0
 33
0.0
 40
0.0
 40
0.0
 40
0.0
 40
0.0
 40
1.0
 40
1.0
 40
1.0
 40
2.0
 40
2.0
 40
2.0
 40
2.0
 10
23.12027916666668
 20
6.546361111111107
 30
0.0
 10
23.12020833333334
 20
6.536198445992845
 30
0.0
 10
23.1200361111111
 20
6.525676224036437
 30
0.0
 10
23.11976388888888
 20
6.514773446534086
 30
0.0
 10
23.11194166666665
 20
6.201894287771412
 30
0.0
 10
23.01844583333334
 20
5.941160961024758
 30
0.0
 10
22.9348263888889
 20
5.904658184169117
 30
0.0
  0
SPLINE
  5
78
330
5D
100
AcDbEntity
  8
WOOD
 62
   250
420
  2301728
370
     9
100
AcDbSpline
210
0.0
220
0.0
230
1.0
 70
     8
 71
     3
 72
     8
 73
     4
 74
     0
 42
0.0000000001
 43
0.0000000001
 12
1.0
 22
0.0
 32
0.0
 13
1.0
 23
0.0
 33
0.0
 40
0.0
 40
0.0
 40
0.0
 40
0.0
 40
1.0
 40
1.0
 40
1.0
 40
1.0
 10
22.9348263888889
 20
7.009348434040071
 30
0.0
 10
22.99749027777776
 20
6.912158158717526
 30
0.0
 10
23.04826805555556
 20
6.866955382081667
 30
0.0
 10
23.08075
 20
6.79804566160025
 30
0.0
  0
SPLINE
  5
79
330
5D
100
AcDbEntity
  8
WOOD
 62
   250
420
  2301728
370
     9
100
AcDbSpline
210
0.0
220
0.0
230
1.0
 70
     8
 71
     3
 72
    11
 73
     7
 74
     0
 42
0.0000000001
 43
0.0000000001
 12
1.0
 22
0.0
 32
0.0
 13
1.0
 23
0.0
 33
0.0
 40
0.0
 40
0.0
 40
0.0
 40
0.0
 40
1.0
 40
1.0
 40
1.0
 40
2.0
 40
2.0
 40
2.0
 40
2.0
 10
23.21071944444444
 20
6.565567889695355
 30
0.0
 10
23.21037777777777
 20
6.520148446398302
 30
0.0
 10
23.20627222222222
 20
6.475034558649086
 30
0.0
 10
23.19798333333334
 20
6.431241504199837
 30
0.0
 10
23.14322916666666
 20
6.141924844841924
 30
0.0
 10
23.06877916666667
 20
5.837480408088393
 30
0.0
 10
22.98215694444444
 20
5.796760964672608
 30
0.0
  0
SPLINE
  5
7A
330
5D
100
AcDbEntity
  8
WOOD
 62
   250
420
  2301728
370
     9
100
AcDbSpline
210
0.0
220
0.0
230
1.0
 70
     8
 71
     3
 72
    11
 73
     7
 74
     0
 42
0.0000000001
 43
0.0000000001
 12
1.0
 22
0.0
 32
0.0
 13
1.0
 23
0.0
 33
0.0
 40
0.0
 40
0.0
 40
0.0
 40
0.0
 40
1.0
 40
1.0
 40
1.0
 40
2.0
 40
2.0
 40
2.0
 40
2.0
 10
22.9348263888889
 20
7.17964426307137
 30
0.0
 10
23.0417875
 20
7.116578986886755
 30
0.0
 10
23.12900555555555
 20
6.979203990357139
 30
0.0
 10
23.17510416666667
 20
6.81958038327846
 30
0.0
 10
23.17510416666667
 20
6.81958038327846
 30
0.0
 10
23.26577361111112
 20
6.711063719353155
 30
0.0
 10
23.26577361111112
 20
6.711063719353155
 30
0.0
  0
SPLINE
  5
7B
330
5D
100
AcDbEntity
  8
WOOD
 62
   250
420
  2301728
370
     9
100
AcDbSpline
210
0.0
220
0.0
230
1.0
 70
     8
 71
     3
 72
    11
 73
     7
 74
     0
 42
0.0000000001
 43
0.0000000001
 12
1.0
 22
0.0
 32
0.0
 13
1.0
 23
0.0
 33
0.0
 40
0.0
 40
0.0
 40
0.0
 40
0.0
 40
1.0
 40
1.0
 40
1.0
 40
2.0
 40
2.0
 40
2.0
 40
2.0
 10
23.29178055555556
 20
6.582794278149069
 30
0.0
 10
23.27722499999999
 20
6.355469283891781
 30
0.0
 10
23.23595277777779
 20
6.077927624236407
 30
0.0
 10
23.21074166666666
 20
6.003737348332834
 30
0.0
 10
23.17973194444443
 20
5.912480406193733
 30
0.0
 10
23.14599583333332
 20
5.849288741123423
 30
0.0
 10
23.10419861111111
 20
5.82221929736281
 30
0.0
  0
SPLINE
  5
7C
330
5D
100
AcDbEntity
  8
WOOD
 62
   250
420
  2301728
370
     9
100
AcDbSpline
210
0.0
220
0.0
230
1.0
 70
     8
 71
     3
 72
     8
 73
     4
 74
     0
 42
0.0000000001
 43
0.0000000001
 12
1.0
 22
0.0
 32
0.0
 13
1.0
 23
0.0
 33
0.0
 40
0.0
 40
0.0
 40
0.0
 40
0.0
 40
1.0
 40
1.0
 40
1.0
 40
1.0
 10
22.96377916666668
 20
7.354759536425363
 30
0.0
 10
23.0519875
 20
7.318960926218601
 30
0.0
 10
23.23083888888889
 20
7.061499999999998
 30
0.0
 10
23.28267916666666
 20
6.840937327183383
 30
0.0
  0
SPLINE
  5
7D
330
5D
100
AcDbEntity
  8
WOOD
 62
   250
420
  2301728
370
     9
100
AcDbSpline
210
0.0
220
0.0
230
1.0
 70
     8
 71
     3
 72
    11
 73
     7
 74
     0
 42
0.0000000001
 43
0.0000000001
 12
1.0
 22
0.0
 32
0.0
 13
1.0
 23
0.0
 33
0.0
 40
0.0
 40
0.0
 40
0.0
 40
0.0
 40
1.0
 40
1.0
 40
1.0
 40
2.0
 40
2.0
 40
2.0
 40
2.0
 10
23.37890972222224
 20
6.601308166570258
 30
0.0
 10
23.37849444444444
 20
6.469262336572683
 30
0.0
 10
23.36569166666666
 20
6.3229873402679
 30
0.0
 10
23.33356527777778
 20
6.201894287771412
 30
0.0
 10
23.26577361111112
 20
5.946375000000002
 30
0.0
 10
23.25964999999999
 20
5.876297073774468
 30
0.0
 10
23.23142361111111
 20
5.848760963358978
 30
0.0
  0
SPLINE
  5
7E
330
5D
100
AcDbEntity
  8
WOOD
 62
   250
420
  2301728
370
     9
100
AcDbSpline
210
0.0
220
0.0
230
1.0
 70
     8
 71
     3
 72
    11
 73
     7
 74
     0
 42
0.0000000001
 43
0.0000000001
 12
1.0
 22
0.0
 32
0.0
 13
1.0
 23
0.0
 33
0.0
 40
0.0
 40
0.0
 40
0.0
 40
0.0
 40
1.0
 40
1.0
 40
1.0
 40
2.0
 40
2.0
 40
2.0
 40
2.0
 10
23.08392638888889
 20
7.379823424681085
 30
0.0
 10
23.19537638888889
 20
7.320440092847901
 30
0.0
 10
23.30488472222222
 20
7.044062322052014
 30
0.0
 10
23.34399444444443
 20
6.934555555555562
 30
0.0
 10
23.35066944444444
 20
6.915865103068326
 30
0.0
 10
23.3567361111111
 20
6.88965677039707
 30
0.0
 10
23.36187222222222
 20
6.85777066009147
 30
0.0
  0
SPLINE
  5
7F
330
5D
100
AcDbEntity
  8
WOOD
 62
   250
420
  2301728
370
     9
100
AcDbSpline
210
0.0
220
0.0
230
1.0
 70
     8
 71
     3
 72
     8
 73
     4
 74
     0
 42
0.0000000001
 43
0.0000000001
 12
1.0
 22
0.0
 32
0.0
 13
1.0
 23
0.0
 33
0.0
 40
0.0
 40
0.0
 40
0.0
 40
0.0
 40
1.0
 40
1.0
 40
1.0
 40
1.0
 10
23.21074166666666
 20
7.406277777777783
 30
0.0
 10
23.26838194444445
 20
7.343905370032896
 30
0.0
 10
23.38831944444445
 20
7.201447040298363
 30
0.0
 10
23.40657083333334
 20
6.95327899101206
 30
0.0
  0
SPLINE
  5
80
330
5D
100
AcDbEntity
  8
WOOD
 62
   250
420
  2301728
370
     9
100
AcDbSpline
210
0.0
220
0.0
230
1.0
 70
     8
 71
     3
 72
     8
 73
     4
 74
     0
 42
0.0000000001
 43
0.0000000001
 12
1.0
 22
0.0
 32
0.0
 13
1.0
 23
0.0
 33
0.0
 40
0.0
 40
0.0
 40
0.0
 40
0.0
 40
1.0
 40
1.0
 40
1.0
 40
1.0
 10
23.40657083333334
 20
6.227320676017976
 30
0.0
 10
23.40657083333334
 20
6.227320676017976
 30
0.0
 10
23.37957777777779
 20
5.972706793561176
 30
0.0
 10
23.3187638888889
 20
5.86698040734316
 30
0.0
  0
SPLINE
  5
81
330
5D
100
AcDbEntity
  8
WOOD
 62
   250
420
  2301728
370
     9
100
AcDbSpline
210
0.0
220
0.0
230
1.0
 70
     8
 71
     3
 72
     8
 73
     4
 74
     0
 42
0.0000000001
 43
0.0000000001
 12
1.0
 22
0.0
 32
0.0
 13
1.0
 23
0.0
 33
0.0
 40
0.0
 40
0.0
 40
0.0
 40
0.0
 40
1.0
 40
1.0
 40
1.0
 40
1.0
 10
23.30865555555556
 20
7.426703979052339
 30
0.0
 10
23.30865555555556
 20
7.426703979052339
 30
0.0
 10
23.40657083333334
 20
7.39083731329174
 30
0.0
 10
23.40657083333334
 20
7.237005372733417
 30
0.0
  0
SPLINE
  5
82
330
5D
100
AcDbEntity
  8
WOOD
 62
   250
420
  2301728
370
     9
100
AcDbSpline
210
0.0
220
0.0
230
1.0
 70
     8
 71
     3
 72
    11
 73
     7
 74
     0
 42
0.0000000001
 43
0.0000000001
 12
1.0
 22
0.0
 32
0.0
 13
1.0
 23
0.0
 33
0.0
 40
0.0
 40
0.0
 40
0.0
 40
0.0
 40
1.0
 40
1.0
 40
1.0
 40
2.0
 40
2.0
 40
2.0
 40
2.0
 10
22.85603333333334
 20
6.624912332640633
 30
0.0
 10
22.89683611111112
 20
6.58848872244966
 30
0.0
 10
22.9499611111111
 20
6.553915112211952
 30
0.0
 10
22.97811805555557
 20
6.516152777777783
 30
0.0
 10
22.97811805555557
 20
6.516152777777783
 30
0.0
 10
22.99884861111112
 20
6.331934562264096
 30
0.0
 10
22.9348263888889
 20
6.169629010808724
 30
0.0
  0
SPLINE
  5
83
330
5D
100
AcDbEntity
  8
WOOD
 62
   250
420
  2301728
370
     9
100
AcDbSpline
210
0.0
220
0.0
230
1.0
 70
     8
 71
     3
 72
     8
 73
     4
 74
     0
 42
0.0000000001
 43
0.0000000001
 12
1.0
 22
0.0
 32
0.0
 13
1.0
 23
0.0
 33
0.0
 40
0.0
 40
0.0
 40
0.0
 40
0.0
 40
1.0
 40
1.0
 40
1.0
 40
1.0
 10
23.08392638888889
 20
6.537958333333336
 30
0.0
 10
23.0663138888889
 20
6.344363728616776
 30
0.0
 10
23.06928888888888
 20
6.105416666666668
 30
0.0
 10
22.9348263888889
 20
5.983526237732298
 30
0.0
  0
SPLINE
  5
84
330
5D
100
AcDbEntity
  8
WOOD
 62
   250
420
  2301728
370
     9
100
AcDbSpline
210
0.0
220
0.0
230
1.0
 70
     8
 71
     3
 72
     8
 73
     4
 74
     0
 42
0.0000000001
 43
0.0000000001
 12
1.0
 22
0.0
 32
0.0
 13
1.0
 23
0.0
 33
0.0
 40
0.0
 40
0.0
 40
0.0
 40
0.0
 40
1.0
 40
1.0
 40
1.0
 40
1.0
 10
22.9348263888889
 20
6.951209546619894
 30
0.0
 10
22.9348263888889
 20
6.951209546619894
 30
0.0
 10
22.99101944444444
 20
6.883199826115742
 30
0.0
 10
23.03470972222224
 20
6.788265106291773
 30
0.0
  0
SPLINE
  5
85
330
5D
100
AcDbEntity
  8
WOOD
 62
   250
420
  2301728
370
     9
100
AcDbSpline
210
0.0
220
0.0
230
1.0
 70
     8
 71
     3
 72
    11
 73
     7
 74
     0
 42
0.0000000001
 43
0.0000000001
 12
1.0
 22
0.0
 32
0.0
 13
1.0
 23
0.0
 33
0.0
 40
0.0
 40
0.0
 40
0.0
 40
0.0
 40
1.0
 40
1.0
 40
1.0
 40
2.0
 40
2.0
 40
2.0
 40
2.0
 10
23.15585833333332
 20
6.553915112211952
 30
0.0
 10
23.14800694444446
 20
6.344892895270075
 30
0.0
 10
23.10233611111112
 20
6.079295679757402
 30
0.0
 10
23.04456944444445
 20
5.98423179327003
 30
0.0
 10
22.97245000000001
 20
5.86554846293489
 30
0.0
 10
22.9348263888889
 20
5.824252630644777
 30
0.0
 10
22.9348263888889
 20
5.824252630644777
 30
0.0
  0
SPLINE
  5
86
330
5D
100
AcDbEntity
  8
WOOD
 62
   250
420
  2301728
370
     9
100
AcDbSpline
210
0.0
220
0.0
230
1.0
 70
     8
 71
     3
 72
     8
 73
     4
 74
     0
 42
0.0000000001
 43
0.0000000001
 12
1.0
 22
0.0
 32
0.0
 13
1.0
 23
0.0
 33
0.0
 40
0.0
 40
0.0
 40
0.0
 40
0.0
 40
1.0
 40
1.0
 40
1.0
 40
1.0
 10
22.9348263888889
 20
7.099467876207907
 30
0.0
 10
22.98534166666667
 20
7.032092877909943
 30
0.0
 10
23.08577638888889
 20
6.947258157830825
 30
0.0
 10
23.13174861111111
 20
6.809015105767584
 30
0.0
  0
SPLINE
  5
87
330
5D
100
AcDbEntity
  8
WOOD
 62
   250
420
  2301728
370
     9
100
AcDbSpline
210
0.0
220
0.0
230
1.0
 70
     8
 71
     3
 72
    11
 73
     7
 74
     0
 42
0.0000000001
 43
0.0000000001
 12
1.0
 22
0.0
 32
0.0
 13
1.0
 23
0.0
 33
0.0
 40
0.0
 40
0.0
 40
0.0
 40
0.0
 40
1.0
 40
1.0
 40
1.0
 40
2.0
 40
2.0
 40
2.0
 40
2.0
 10
23.24779305555555
 20
6.573449833940685
 30
0.0
 10
23.22822499999999
 20
6.356109561653384
 30
0.0
 10
23.22224583333334
 20
6.176801232849761
 30
0.0
 10
23.17069861111112
 20
6.047151236124995
 30
0.0
 10
23.11715694444446
 20
5.912480406193733
 30
0.0
 10
23.08423055555555
 20
5.848448463366872
 30
0.0
 10
23.04594027777777
 20
5.810066519892037
 30
0.0
  0
SPLINE
  5
88
330
5D
100
AcDbEntity
  8
WOOD
 62
   250
420
  2301728
370
     9
100
AcDbSpline
210
0.0
220
0.0
230
1.0
 70
     8
 71
     3
 72
    11
 73
     7
 74
     0
 42
0.0000000001
 43
0.0000000001
 12
1.0
 22
0.0
 32
0.0
 13
1.0
 23
0.0
 33
0.0
 40
0.0
 40
0.0
 40
0.0
 40
0.0
 40
1.0
 40
1.0
 40
1.0
 40
2.0
 40
2.0
 40
2.0
 40
2.0
 10
22.9348263888889
 20
7.291108149144444
 30
0.0
 10
22.98613749999999
 20
7.248085928009054
 30
0.0
 10
23.13241666666666
 20
7.124833333333337
 30
0.0
 10
23.15705277777778
 20
7.029041666666672
 30
0.0
 10
23.17136111111111
 20
6.973405379392513
 30
0.0
 10
23.20770416666667
 20
6.914460936437131
 30
0.0
 10
23.23144305555555
 20
6.829991494126564
 30
0.0
  0
SPLINE
  5
89
330
5D
100
AcDbEntity
  8
WOOD
 62
   250
420
  2301728
370
     9
100
AcDbSpline
210
0.0
220
0.0
230
1.0
 70
     8
 71
     3
 72
    11
 73
     7
 74
     0
 42
0.0000000001
 43
0.0000000001
 12
1.0
 22
0.0
 32
0.0
 13
1.0
 23
0.0
 33
0.0
 40
0.0
 40
0.0
 40
0.0
 40
0.0
 40
1.0
 40
1.0
 40
1.0
 40
2.0
 40
2.0
 40
2.0
 40
2.0
 10
23.33925555555556
 20
6.592881777894237
 30
0.0
 10
23.33821944444445
 20
6.531198446119156
 30
0.0
 10
23.3323138888889
 20
6.463922058929811
 30
0.0
 10
23.3187638888889
 20
6.391577616312942
 30
0.0
 10
23.26968472222223
 20
6.129540122932566
 30
0.0
 10
23.26921805555556
 20
5.955254016224292
 30
0.0
 10
23.17069861111112
 20
5.83609151923459
 30
0.0
  0
SPLINE
  5
8A
330
5D
100
AcDbEntity
  8
WOOD
 62
   250
420
  2301728
370
     9
100
AcDbSpline
210
0.0
220
0.0
230
1.0
 70
     8
 71
     3
 72
    11
 73
     7
 74
     0
 42
0.0000000001
 43
0.0000000001
 12
1.0
 22
0.0
 32
0.0
 13
1.0
 23
0.0
 33
0.0
 40
0.0
 40
0.0
 40
0.0
 40
0.0
 40
1.0
 40
1.0
 40
1.0
 40
2.0
 40
2.0
 40
2.0
 40
2.0
 10
23.04594027777777
 20
7.371898424881287
 30
0.0
 10
23.1015125
 20
7.322395648354055
 30
0.0
 10
23.27750694444444
 20
7.057391488381957
 30
0.0
 10
23.29706250000001
 20
6.95327899101206
 30
0.0
 10
23.30270416666667
 20
6.923241491770871
 30
0.0
 10
23.31370972222223
 20
6.89383871473587
 30
0.0
 10
23.32145416666668
 20
6.84918055555555
 30
0.0
  0
SPLINE
  5
8B
330
5D
100
AcDbEntity
  8
WOOD
 62
   250
420
  2301728
370
     9
100
AcDbSpline
210
0.0
220
0.0
230
1.0
 70
     8
 71
     3
 72
    11
 73
     7
 74
     0
 42
0.0000000001
 43
0.0000000001
 12
1.0
 22
0.0
 32
0.0
 13
1.0
 23
0.0
 33
0.0
 40
0.0
 40
0.0
 40
0.0
 40
0.0
 40
1.0
 40
1.0
 40
1.0
 40
2.0
 40
2.0
 40
2.0
 40
2.0
 10
23.15705277777778
 20
7.3950775909624
 30
0.0
 10
23.23057499999999
 20
7.330217870378672
 30
0.0
 10
23.28309583333334
 20
7.228531761836368
 30
0.0
 10
23.30865555555556
 20
7.165955374528291
 30
0.0
 10
23.32993333333333
 20
7.113867875844132
 30
0.0
 10
23.38362916666668
 20
6.966938712889209
 30
0.0
 10
23.40103333333334
 20
6.867267882073772
 30
0.0
  0
SPLINE
  5
8C
330
5D
100
AcDbEntity
  8
WOOD
 62
   250
420
  2301728
370
     9
100
AcDbSpline
210
0.0
220
0.0
230
1.0
 70
     8
 71
     3
 72
     8
 73
     4
 74
     0
 42
0.0000000001
 43
0.0000000001
 12
1.0
 22
0.0
 32
0.0
 13
1.0
 23
0.0
 33
0.0
 40
0.0
 40
0.0
 40
0.0
 40
0.0
 40
1.0
 40
1.0
 40
1.0
 40
1.0
 10
23.28181111111111
 20
5.859272074204555
 30
0.0
 10
23.30488472222222
 20
5.928124999999997
 30
0.0
 10
23.40657083333334
 20
6.282069444444446
 30
0.0
 10
23.40657083333334
 20
6.348556784066406
 30
0.0
  0
SPLINE
  5
8D
330
5D
100
AcDbEntity
  8
WOOD
 62
   250
420
  2301728
370
     9
100
AcDbSpline
210
0.0
220
0.0
230
1.0
 70
     8
 71
     3
 72
     8
 73
     4
 74
     0
 42
0.0000000001
 43
0.0000000001
 12
1.0
 22
0.0
 32
0.0
 13
1.0
 23
0.0
 33
0.0
 40
0.0
 40
0.0
 40
0.0
 40
0.0
 40
1.0
 40
1.0
 40
1.0
 40
1.0
 10
23.26810416666666
 20
7.418244257043827
 30
0.0
 10
23.29966944444444
 20
7.384319444444448
 30
0.0
 10
23.38701527777776
 20
7.283937315992262
 30
0.0
 10
23.40657083333334
 20
7.158784541376108
 30
0.0
  0
SPLINE
  5
8E
330
5D
100
AcDbEntity
  8
WOOD
 62
   250
420
  2301728
370
     9
100
AcDbSpline
210
0.0
220
0.0
230
1.0
 70
     8
 71
     3
 72
     8
 73
     4
 74
     0
 42
0.0000000001
 43
0.0000000001
 12
1.0
 22
0.0
 32
0.0
 13
1.0
 23
0.0
 33
0.0
 40
0.0
 40
0.0
 40
0.0
 40
0.0
 40
1.0
 40
1.0
 40
1.0
 40
1.0
 10
23.36266805555556
 20
5.876138888888893
 30
0.0
 10
23.36266805555556
 20
5.876138888888893
 30
0.0
 10
23.40657083333334
 20
5.922258183724503
 30
0.0
 10
23.40657083333334
 20
6.007322070464498
 30
0.0
  0
SPLINE
  5
8F
330
5D
100
AcDbEntity
  8
WOOD
 62
   250
420
  2301728
370
     9
100
AcDbSpline
210
0.0
220
0.0
230
1.0
 70
     8
 71
     3
 72
     8
 73
     4
 74
     0
 42
0.0000000001
 43
0.0000000001
 12
1.0
 22
0.0
 32
0.0
 13
1.0
 23
0.0
 33
0.0
 40
0.0
 40
0.0
 40
0.0
 40
0.0
 40
1.0
 40
1.0
 40
1.0
 40
1.0
 10
23.36721944444444
 20
7.438920645410386
 30
0.0
 10
23.36721944444444
 20
7.438920645410386
 30
0.0
 10
23.39874861111111
 20
7.418347222222224
 30
0.0
 10
23.40657083333334
 20
7.379823424681085
 30
0.0
  0
POLYLINE
  5
90
330
5D
100
AcDbEntity
  8
WOOD
 62
   250
420
  2301728
370
    15
100
AcDb2dPolyline
 66
     1
 10
0.0
 20
0.0
 30
0.0
  0
VERTEX
  5
91
330
90
100
AcDbEntity
  8
WOOD
 62
   250
420
  2301728
370
    15
100
AcDbVertex
100
AcDb2dVertex
 10
23.40657083333334
 20
7.44712897853636
 30
0.0
  0
VERTEX
  5
92
330
90
100
AcDbEntity
  8
WOOD
 62
   250
420
  2301728
370
    15
100
AcDbVertex
100
AcDb2dVertex
 10
22.9348263888889
 20
7.348719258800176
 30
0.0
  0
VERTEX
  5
93
330
90
100
AcDbEntity
  8
WOOD
 62
   250
420
  2301728
370
    15
100
AcDbVertex
100
AcDb2dVertex
 10
22.9348263888889
 20
6.767033162383692
 30
0.0
  0
VERTEX
  5
94
330
90
100
AcDbEntity
  8
WOOD
 62
   250
420
  2301728
370
    15
100
AcDbVertex
100
AcDb2dVertex
 10
23.04594027777777
 20
6.662413720582157
 30
0.0
  0
VERTEX
  5
95
330
90
100
AcDbEntity
  8
WOOD
 62
   250
420
  2301728
370
    15
100
AcDbVertex
100
AcDb2dVertex
 10
22.81600972222223
 20
6.617008166173642
 30
0.0
  0
VERTEX
  5
96
330
90
100
AcDbEntity
  8
WOOD
 62
   250
420
  2301728
370
    15
100
AcDbVertex
100
AcDb2dVertex
 10
22.9348263888889
 20
6.506955391176032
 30
0.0
  0
VERTEX
  5
97
330
90
100
AcDbEntity
  8
WOOD
 62
   250
420
  2301728
370
    15
100
AcDbVertex
100
AcDb2dVertex
 10
22.9348263888889
 20
6.488199836094282
 30
0.0
  0
VERTEX
  5
98
330
90
100
AcDbEntity
  8
WOOD
 62
   250
420
  2301728
370
    15
100
AcDbVertex
100
AcDb2dVertex
 10
22.9348263888889
 20
5.786887353810926
 30
0.0
  0
SEQEND
  5
99
330
90
100
AcDbEntity
  8
WOOD
 62
   250
420
  2301728
370
    15
  0
POLYLINE
  5
9A
330
5D
100
AcDbEntity
  8
WOOD
 62
   250
420
  2301728
370
    15
100
AcDb2dPolyline
 66
     1
 10
0.0
 20
0.0
 30
0.0
  0
VERTEX
  5
9B
330
9A
100
AcDbEntity
  8
WOOD
 62
   250
420
  2301728
370
    15
100
AcDbVertex
100
AcDb2dVertex
 10
22.9348263888889
 20
6.767033162383692
 30
0.0
  0
VERTEX
  5
9C
330
9A
100
AcDbEntity
  8
WOOD
 62
   250
420
  2301728
370
    15
100
AcDbVertex
100
AcDb2dVertex
 10
23.40657083333334
 20
6.867266493184919
 30
0.0
  0
SEQEND
  5
9D
330
9A
100
AcDbEntity
  8
WOOD
 62
   250
420
  2301728
370
    15
  0
POLYLINE
  5
9E
330
5D
100
AcDbEntity
  8
WOOD
 62
   250
420
  2301728
370
    15
100
AcDb2dPolyline
 66
     1
 10
0.0
 20
0.0
 30
0.0
  0
VERTEX
  5
9F
330
9E
100
AcDbEntity
  8
WOOD
 62
   250
420
  2301728
370
    15
100
AcDbVertex
100
AcDb2dVertex
 10
23.04594027777777
 20
6.662413720582157
 30
0.0
  0
VERTEX
  5
A0
330
9E
100
AcDbEntity
  8
WOOD
 62
   250
420
  2301728
370
    15
100
AcDbVertex
100
AcDb2dVertex
 10
23.51783194444445
 20
6.762647051383383
 30
0.0
  0
SEQEND
  5
A1
330
9E
100
AcDbEntity
  8
WOOD
 62
   250
420
  2301728
370
    15
  0
POLYLINE
  5
A2
330
5D
100
AcDbEntity
  8
WOOD
 62
   250
420
  2301728
370
    15
100
AcDb2dPolyline
 66
     1
 10
0.0
 20
0.0
 30
0.0
  0
VERTEX
  5
A3
330
A2
100
AcDbEntity
  8
WOOD
 62
   250
420
  2301728
370
    15
100
AcDbVertex
100
AcDb2dVertex
 10
22.9348263888889
 20
6.506955391176032
 30
0.0
  0
VERTEX
  5
A4
330
A2
100
AcDbEntity
  8
WOOD
 62
   250
420
  2301728
370
    15
100
AcDbVertex
100
AcDb2dVertex
 10
23.40657083333334
 20
6.607181777532989
 30
0.0
  0
SEQEND
  5
A5
330
A2
100
AcDbEntity
  8
WOOD
 62
   250
420
  2301728
370
    15
  0
SPLINE
  5
A6
330
5D
100
AcDbEntity
  8
WOOD
 62
   250
420
  2301728
370
     9
100
AcDbSpline
210
0.0
220
0.0
230
1.0
 70
     8
 71
     3
 72
     8
 73
     4
 74
     0
 42
0.0000000001
 43
0.0000000001
 12
1.0
 22
0.0
 32
0.0
 13
1.0
 23
0.0
 33
0.0
 40
0.0
 40
0.0
 40
0.0
 40
0.0
 40
1.0
 40
1.0
 40
1.0
 40
1.0
 10
23.08392638888889
 20
6.537958333333336
 30
0.0
 10
23.08392638888889
 20
6.537958333333336
 30
0.0
 10
23.0034736111111
 20
6.621709554943764
 30
0.0
 10
22.98991666666666
 20
6.65135122086162
 30
0.0
  0
SPLINE
  5
A7
330
5D
100
AcDbEntity
  8
WOOD
 62
   250
420
  2301728
370
     9
100
AcDbSpline
210
0.0
220
0.0
230
1.0
 70
     8
 71
     3
 72
     8
 73
     4
 74
     0
 42
0.0000000001
 43
0.0000000001
 12
1.0
 22
0.0
 32
0.0
 13
1.0
 23
0.0
 33
0.0
 40
0.0
 40
0.0
 40
0.0
 40
0.0
 40
1.0
 40
1.0
 40
1.0
 40
1.0
 10
23.12027916666668
 20
6.546361111111107
 30
0.0
 10
23.1064013888889
 20
6.591038722385242
 30
0.0
 10
23.03856944444444
 20
6.64880955425916
 30
0.0
 10
23.03692222222222
 20
6.660633165071582
 30
0.0
  0
SPLINE
  5
A8
330
5D
100
AcDbEntity
  8
WOOD
 62
   250
420
  2301728
370
     9
100
AcDbSpline
210
0.0
220
0.0
230
1.0
 70
     8
 71
     3
 72
     8
 73
     4
 74
     0
 42
0.0000000001
 43
0.0000000001
 12
1.0
 22
0.0
 32
0.0
 13
1.0
 23
0.0
 33
0.0
 40
0.0
 40
0.0
 40
0.0
 40
0.0
 40
1.0
 40
1.0
 40
1.0
 40
1.0
 10
23.15585833333332
 20
6.553915112211952
 30
0.0
 10
23.15585833333332
 20
6.553915112211952
 30
0.0
 10
23.10555416666668
 20
6.650867887540496
 30
0.0
 10
23.0786
 20
6.669351220406901
 30
0.0
  0
SPLINE
  5
A9
330
5D
100
AcDbEntity
  8
WOOD
 62
   250
420
  2301728
370
     9
100
AcDbSpline
210
0.0
220
0.0
230
1.0
 70
     8
 71
     3
 72
     8
 73
     4
 74
     0
 42
0.0000000001
 43
0.0000000001
 12
1.0
 22
0.0
 32
0.0
 13
1.0
 23
0.0
 33
0.0
 40
0.0
 40
0.0
 40
0.0
 40
0.0
 40
1.0
 40
1.0
 40
1.0
 40
1.0
 10
23.21071944444444
 20
6.565567889695355
 30
0.0
 10
23.21071944444444
 20
6.565567889695355
 30
0.0
 10
23.14731805555556
 20
6.633358165760606
 30
0.0
 10
23.13174861111111
 20
6.680640109010609
 30
0.0
  0
SPLINE
  5
AA
330
5D
100
AcDbEntity
  8
WOOD
 62
   250
420
  2301728
370
     9
100
AcDbSpline
210
0.0
220
0.0
230
1.0
 70
     8
 71
     3
 72
     8
 73
     4
 74
     0
 42
0.0000000001
 43
0.0000000001
 12
1.0
 22
0.0
 32
0.0
 13
1.0
 23
0.0
 33
0.0
 40
0.0
 40
0.0
 40
0.0
 40
0.0
 40
1.0
 40
1.0
 40
1.0
 40
1.0
 10
23.24779305555555
 20
6.573449833940685
 30
0.0
 10
23.24779305555555
 20
6.573449833940685
 30
0.0
 10
23.17730972222221
 20
6.667503998231344
 30
0.0
 10
23.17069861111112
 20
6.688913719912711
 30
0.0
  0
SPLINE
  5
AB
330
5D
100
AcDbEntity
  8
WOOD
 62
   250
420
  2301728
370
     9
100
AcDbSpline
210
0.0
220
0.0
230
1.0
 70
     8
 71
     3
 72
     8
 73
     4
 74
     0
 42
0.0000000001
 43
0.0000000001
 12
1.0
 22
0.0
 32
0.0
 13
1.0
 23
0.0
 33
0.0
 40
0.0
 40
0.0
 40
0.0
 40
0.0
 40
1.0
 40
1.0
 40
1.0
 40
1.0
 10
23.29178055555556
 20
6.582794278149069
 30
0.0
 10
23.29178055555556
 20
6.582794278149069
 30
0.0
 10
23.21821111111111
 20
6.67222899811198
 30
0.0
 10
23.20483888888889
 20
6.696165108618414
 30
0.0
  0
SPLINE
  5
AC
330
5D
100
AcDbEntity
  8
WOOD
 62
   250
420
  2301728
370
     9
100
AcDbSpline
210
0.0
220
0.0
230
1.0
 70
     8
 71
     3
 72
     8
 73
     4
 74
     0
 42
0.0000000001
 43
0.0000000001
 12
1.0
 22
0.0
 32
0.0
 13
1.0
 23
0.0
 33
0.0
 40
0.0
 40
0.0
 40
0.0
 40
0.0
 40
1.0
 40
1.0
 40
1.0
 40
1.0
 10
23.33925555555556
 20
6.592881777894237
 30
0.0
 10
23.33925555555556
 20
6.592881777894237
 30
0.0
 10
23.25283194444445
 20
6.685787331102802
 30
0.0
 10
23.24365972222222
 20
6.70441094174344
 30
0.0
  0
POLYLINE
  5
AD
330
5D
100
AcDbEntity
  8
WOOD
 62
   250
420
  2301728
370
     9
100
AcDb2dPolyline
 66
     1
 10
0.0
 20
0.0
 30
0.0
  0
VERTEX
  5
AE
330
AD
100
AcDbEntity
  8
WOOD
 62
   250
420
  2301728
370
     9
100
AcDbVertex
100
AcDb2dVertex
 10
23.37890972222224
 20
6.601308166570258
 30
0.0
  0
VERTEX
  5
AF
330
AD
100
AcDbEntity
  8
WOOD
 62
   250
420
  2301728
370
     9
100
AcDbVertex
100
AcDb2dVertex
 10
23.27497916666668
 20
6.711063719353155
 30
0.0
  0
SEQEND
  5
B0
330
AD
100
AcDbEntity
  8
WOOD
 62
   250
420
  2301728
370
     9
  0
POLYLINE
  5
B1
330
5D
100
AcDbEntity
  8
WOOD
 62
   250
420
  2301728
370
     9
100
AcDb2dPolyline
 66
     1
 10
0.0
 20
0.0
 30
0.0
  0
VERTEX
  5
B2
330
B1
100
AcDbEntity
  8
WOOD
 62
   250
420
  2301728
370
     9
100
AcDbVertex
100
AcDb2dVertex
 10
23.03470972222224
 20
6.788265106291773
 30
0.0
  0
VERTEX
  5
B3
330
B1
100
AcDbEntity
  8
WOOD
 62
   250
420
  2301728
370
     9
100
AcDbVertex
100
AcDb2dVertex
 10
23.12322916666666
 20
6.680640109010609
 30
0.0
  0
SEQEND
  5
B4
330
B1
100
AcDbEntity
  8
WOOD
 62
   250
420
  2301728
370
     9
  0
POLYLINE
  5
B5
330
5D
100
AcDbEntity
  8
WOOD
 62
   250
420
  2301728
370
     9
100
AcDb2dPolyline
 66
     1
 10
0.0
 20
0.0
 30
0.0
  0
VERTEX
  5
B6
330
B5
100
AcDbEntity
  8
WOOD
 62
   250
420
  2301728
370
     9
100
AcDbVertex
100
AcDb2dVertex
 10
23.08075
 20
6.79804566160025
 30
0.0
  0
VERTEX
  5
B7
330
B5
100
AcDbEntity
  8
WOOD
 62
   250
420
  2301728
370
     9
100
AcDbVertex
100
AcDb2dVertex
 10
23.17510416666667
 20
6.689849831000174
 30
0.0
  0
SEQEND
  5
B8
330
B5
100
AcDbEntity
  8
WOOD
 62
   250
420
  2301728
370
     9
  0
POLYLINE
  5
B9
330
5D
100
AcDbEntity
  8
WOOD
 62
   250
420
  2301728
370
     9
100
AcDb2dPolyline
 66
     1
 10
0.0
 20
0.0
 30
0.0
  0
VERTEX
  5
BA
330
B9
100
AcDbEntity
  8
WOOD
 62
   250
420
  2301728
370
     9
100
AcDbVertex
100
AcDb2dVertex
 10
23.13174861111111
 20
6.809015105767584
 30
0.0
  0
VERTEX
  5
BB
330
B9
100
AcDbEntity
  8
WOOD
 62
   250
420
  2301728
370
     9
100
AcDbVertex
100
AcDb2dVertex
 10
23.21449722222223
 20
6.698216497455481
 30
0.0
  0
SEQEND
  5
BC
330
B9
100
AcDbEntity
  8
WOOD
 62
   250
420
  2301728
370
     9
  0
POLYLINE
  5
BD
330
5D
100
AcDbEntity
  8
WOOD
 62
   250
420
  2301728
370
     9
100
AcDb2dPolyline
 66
     1
 10
0.0
 20
0.0
 30
0.0
  0
VERTEX
  5
BE
330
BD
100
AcDbEntity
  8
WOOD
 62
   250
420
  2301728
370
     9
100
AcDbVertex
100
AcDb2dVertex
 10
23.23144305555555
 20
6.829991494126564
 30
0.0
  0
VERTEX
  5
BF
330
BD
100
AcDbEntity
  8
WOOD
 62
   250
420
  2301728
370
     9
100
AcDbVertex
100
AcDb2dVertex
 10
23.31692222222222
 20
6.719972222222218
 30
0.0
  0
SEQEND
  5
C0
330
BD
100
AcDbEntity
  8
WOOD
 62
   250
420
  2301728
370
     9
  0
POLYLINE
  5
C1
330
5D
100
AcDbEntity
  8
WOOD
 62
   250
420
  2301728
370
     9
100
AcDb2dPolyline
 66
     1
 10
0.0
 20
0.0
 30
0.0
  0
VERTEX
  5
C2
330
C1
100
AcDbEntity
  8
WOOD
 62
   250
420
  2301728
370
     9
100
AcDbVertex
100
AcDb2dVertex
 10
23.28188611111111
 20
6.844252604877409
 30
0.0
  0
VERTEX
  5
C3
330
C1
100
AcDbEntity
  8
WOOD
 62
   250
420
  2301728
370
     9
100
AcDbVertex
100
AcDb2dVertex
 10
23.37071944444445
 20
6.731183163289339
 30
0.0
  0
SEQEND
  5
C4
330
C1
100
AcDbEntity
  8
WOOD
 62
   250
420
  2301728
370
     9
  0
POLYLINE
  5
C5
330
5D
100
AcDbEntity
  8
WOOD
 62
   250
420
  2301728
370
     9
100
AcDb2dPolyline
 66
     1
 10
0.0
 20
0.0
 30
0.0
  0
VERTEX
  5
C6
330
C5
100
AcDbEntity
  8
WOOD
 62
   250
420
  2301728
370
     9
100
AcDbVertex
100
AcDb2dVertex
 10
23.32145416666668
 20
6.84918055555555
 30
0.0
  0
VERTEX
  5
C7
330
C5
100
AcDbEntity
  8
WOOD
 62
   250
420
  2301728
370
     9
100
AcDbVertex
100
AcDb2dVertex
 10
23.4176513888889
 20
6.743947051855785
 30
0.0
  0
SEQEND
  5
C8
330
C5
100
AcDbEntity
  8
WOOD
 62
   250
420
  2301728
370
     9
  0
POLYLINE
  5
C9
330
5D
100
AcDbEntity
  8
WOOD
 62
   250
420
  2301728
370
     9
100
AcDb2dPolyline
 66
     1
 10
0.0
 20
0.0
 30
0.0
  0
VERTEX
  5
CA
330
C9
100
AcDbEntity
  8
WOOD
 62
   250
420
  2301728
370
     9
100
AcDbVertex
100
AcDb2dVertex
 10
23.37890972222224
 20
6.85777066009147
 30
0.0
  0
VERTEX
  5
CB
330
C9
100
AcDbEntity
  8
WOOD
 62
   250
420
  2301728
370
     9
100
AcDbVertex
100
AcDb2dVertex
 10
23.48348611111111
 20
6.754648440474334
 30
0.0
  0
SEQEND
  5
CC
330
C9
100
AcDbEntity
  8
WOOD
 62
   250
420
  2301728
370
     9
  0
ENDBLK
  5
60
330
5D
100
AcDbEntity
  8
0
100
AcDbBlockEnd
  0
BLOCK
  5
D0
330
CE
100
AcDbEntity
  8
0
100
AcDbBlockBegin
  2
block 4
 70
     0
 10
0.0
 20
0.0
 30
0.0
  3
block 4
  1

  0
SPLINE
  5
D2
330
CE
100
AcDbEntity
  8
Layer 2
  6
AI-Linetype-1
 62
   250
420
  2301728
370
     5
100
AcDbSpline
210
0.0
220
0.0
230
1.0
 70
     8
 71
     3
 72
    23
 73
    19
 74
     0
 42
0.0000000001
 43
0.0000000001
 12
1.0
 22
0.0
 32
0.0
 13
1.0
 23
0.0
 33
0.0
 40
0.0
 40
0.0
 40
0.0
 40
0.0
 40
1.0
 40
1.0
 40
1.0
 40
2.0
 40
2.0
 40
2.0
 40
3.0
 40
3.0
 40
3.0
 40
4.0
 40
4.0
 40
4.0
 40
5.0
 40
5.0
 40
5.0
 40
6.0
 40
6.0
 40
6.0
 40
6.0
 10
21.9819
 20
5.785902777777778
 30
0.0
 10
21.9819
 20
5.785902777777778
 30
0.0
 10
22.06895277777777
 20
5.802931797850053
 30
0.0
 10
22.06895277777777
 20
5.802931797850053
 30
0.0
 10
22.06895277777777
 20
5.802931797850053
 30
0.0
 10
22.0689486111111
 20
5.802942908960883
 30
0.0
 10
22.0689486111111
 20
5.802942908960883
 30
0.0
 10
22.0689486111111
 20
5.802942908960883
 30
0.0
 10
22.08500416666667
 20
5.802919297850369
 30
0.0
 10
22.08500416666667
 20
5.802919297850369
 30
0.0
 10
22.10773194444444
 20
5.801742908991198
 30
0.0
 10
22.11687500000001
 20
5.759750000000003
 30
0.0
 10
22.09732083333334
 20
5.74645263261017
 30
0.0
 10
22.09732083333334
 20
5.74645263261017
 30
0.0
 10
22.08137638888888
 20
5.738059577266641
 30
0.0
 10
22.08137638888888
 20
5.738059577266641
 30
0.0
 10
22.08137638888888
 20
5.738059577266641
 30
0.0
 10
21.9819
 20
5.718744299976808
 30
0.0
 10
21.9819
 20
5.718744299976808
 30
0.0
  0
HATCH
  5
D4
330
CE
100
AcDbEntity
  8
Layer 2
 62
   254
420
 16376262
100
AcDbHatch
 10
0.0
 20
0.0
 30
0.0
210
0.0
220
0.0
230
1.0
  2
SOLID
 70
     1
 71
     0
 91
        1
 92
        1
 93
        2
 72
     4
 94
        3
 73
     0
 74
     0
 95
       23
 96
       19
 40
0.0
 40
0.0
 40
0.0
 40
0.0
 40
0.0138888888888889
 40
0.0138888888888889
 40
0.0138888888888889
 40
0.0277777777777778
 40
0.0277777777777778
 40
0.0277777777777778
 40
0.0416666666666667
 40
0.0416666666666667
 40
0.0416666666666667
 40
0.0555555555555556
 40
0.0555555555555556
 40
0.0555555555555556
 40
0.0694444444444444
 40
0.0694444444444444
 40
0.0694444444444444
 40
0.0833333333333333
 40
0.0833333333333333
 40
0.0833333333333333
 40
0.0833333333333333
 10
21.9819
 20
5.785902777777778
 10
21.9819
 20
5.785902777777778
 10
22.06895277777777
 20
5.802931797850053
 10
22.06895277777777
 20
5.802931797850053
 10
22.06895277777777
 20
5.802931797850053
 10
22.0689486111111
 20
5.802942908960883
 10
22.0689486111111
 20
5.802942908960883
 10
22.0689486111111
 20
5.802942908960883
 10
22.08500416666667
 20
5.802919297850369
 10
22.08500416666667
 20
5.802919297850369
 10
22.10773194444444
 20
5.801742908991198
 10
22.11687500000001
 20
5.759750000000003
 10
22.09732083333334
 20
5.74645263261017
 10
22.09732083333334
 20
5.74645263261017
 10
22.08137638888888
 20
5.738059577266641
 10
22.08137638888888
 20
5.738059577266641
 10
22.08137638888888
 20
5.738059577266641
 10
21.9819
 20
5.718744299976808
 10
21.9819
 20
5.718744299976808
 97
        0
 72
     1
 10
21.9819
 20
5.718744299976808
 11
21.9819
 21
5.785902777777778
 97
        0
 75
     2
 76
     1
 98
        0
  0
SPLINE
  5
D5
330
CE
100
AcDbEntity
  8
Layer 2
  6
AI-Linetype-2
 62
   250
420
  2301728
370
     5
100
AcDbSpline
210
0.0
220
0.0
230
1.0
 70
     8
 71
     3
 72
    14
 73
    10
 74
     0
 42
0.0000000001
 43
0.0000000001
 12
1.0
 22
0.0
 32
0.0
 13
1.0
 23
0.0
 33
0.0
 40
0.0
 40
0.0
 40
0.0
 40
0.0
 40
1.0
 40
1.0
 40
1.0
 40
2.0
 40
2.0
 40
2.0
 40
3.0
 40
3.0
 40
3.0
 40
3.0
 10
22.08135138888888
 20
5.738212355040559
 30
0.0
 10
22.0835486111111
 20
5.73856944444444
 30
0.0
 10
22.08568055555555
 20
5.739559577228747
 30
0.0
 10
22.08765138888889
 20
5.741240132741849
 30
0.0
 10
22.09676666666665
 20
5.749004021434605
 30
0.0
 10
22.09898611111112
 20
5.768540132052193
 30
0.0
 10
22.09260833333332
 20
5.784876242750619
 30
0.0
 10
22.08720694444444
 20
5.798712353512201
 30
0.0
 10
22.07802916666666
 20
5.804677631139283
 30
0.0
 10
22.0689486111111
 20
5.802942908960883
 30
0.0
  0
ENDBLK
  5
D1
330
CE
100
AcDbEntity
  8
0
100
AcDbBlockEnd
  0
BLOCK
  5
D9
330
D7
100
AcDbEntity
  8
0
100
AcDbBlockBegin
  2
block 5
 70
     0
 10
0.0
 20
0.0
 30
0.0
  3
block 5
  1

  0
INSERT
  5
DC
330
D7
100
AcDbEntity
  8
Layer 2
100
AcDbBlockReference
  2
block 6
 10
0.0
 20
0.0
 30
0.0
  0
ENDBLK
  5
DA
330
D7
100
AcDbEntity
  8
0
100
AcDbBlockEnd
  0
BLOCK
  5
DD
330
DB
100
AcDbEntity
  8
0
100
AcDbBlockBegin
  2
block 6
 70
     0
 10
0.0
 20
0.0
 30
0.0
  3
block 6
  1

  0
INSERT
  5
E0
330
DB
100
AcDbEntity
  8
Layer 2
100
AcDbBlockReference
  2
block 7
 10
0.0
 20
0.0
 30
0.0
  0
SPLINE
  5
E6
330
DB
100
AcDbEntity
  8
Layer 2
  6
AI-Linetype-4
 62
   250
420
  2301728
370
     9
100
AcDbSpline
210
0.0
220
0.0
230
1.0
 70
     8
 71
     3
 72
    17
 73
    13
 74
     0
 42
0.0000000001
 43
0.0000000001
 12
1.0
 22
0.0
 32
0.0
 13
1.0
 23
0.0
 33
0.0
 40
0.0
 40
0.0
 40
0.0
 40
0.0
 40
1.0
 40
1.0
 40
1.0
 40
2.0
 40
2.0
 40
2.0
 40
3.0
 40
3.0
 40
3.0
 40
4.0
 40
4.0
 40
4.0
 40
4.0
 10
21.81427361111112
 20
6.29446511876621
 30
0.0
 10
21.81495
 20
6.294847222222225
 30
0.0
 10
21.81580833333333
 20
6.294933174309941
 30
0.0
 10
21.8167986111111
 20
6.29465122987262
 30
0.0
 10
21.8167986111111
 20
6.29465122987262
 30
0.0
 10
21.82865833333333
 20
6.291288729957563
 30
0.0
 10
21.82865833333333
 20
6.291288729957563
 30
0.0
 10
21.83172916666667
 20
6.290416666666665
 30
0.0
 10
21.83492083333335
 20
6.286366507859687
 30
0.0
 10
21.83578611111112
 20
6.282238730186186
 30
0.0
 10
21.83578611111112
 20
6.282238730186186
 30
0.0
 10
21.84561527777777
 20
6.235412342480231
 30
0.0
 10
21.84561527777777
 20
6.235412342480231
 30
0.0
  0
INSERT
  5
E9
330
DB
100
AcDbEntity
  8
Layer 2
100
AcDbBlockReference
  2
block 8
 10
0.0
 20
0.0
 30
0.0
  0
INSERT
  5
EF
330
DB
100
AcDbEntity
  8
Layer 2
100
AcDbBlockReference
  2
block 9
 10
0.0
 20
0.0
 30
0.0
  0
INSERT
  5
F5
330
DB
100
AcDbEntity
  8
Layer 2
100
AcDbBlockReference
  2
block 10
 10
0.0
 20
0.0
 30
0.0
  0
INSERT
  5
FE
330
DB
100
AcDbEntity
  8
Layer 2
100
AcDbBlockReference
  2
block 11
 10
0.0
 20
0.0
 30
0.0
  0
INSERT
  5
104
330
DB
100
AcDbEntity
  8
Layer 2
100
AcDbBlockReference
  2
block 12
 10
0.0
 20
0.0
 30
0.0
  0
INSERT
  5
10A
330
DB
100
AcDbEntity
  8
Layer 2
100
AcDbBlockReference
  2
block 13
 10
0.0
 20
0.0
 30
0.0
  0
SPLINE
  5
10F
330
DB
100
AcDbEntity
  8
Layer 2
  6
AI-Linetype-11
 62
   250
420
  2301728
370
     9
100
AcDbSpline
210
0.0
220
0.0
230
1.0
 70
     8
 71
     3
 72
     8
 73
     4
 74
     0
 42
0.0000000001
 43
0.0000000001
 12
1.0
 22
0.0
 32
0.0
 13
1.0
 23
0.0
 33
0.0
 40
0.0
 40
0.0
 40
0.0
 40
0.0
 40
1.0
 40
1.0
 40
1.0
 40
1.0
 10
21.8091861111111
 20
7.002681767541818
 30
0.0
 10
21.8091861111111
 20
7.000794267589501
 30
0.0
 10
21.81015555555556
 20
6.998903989859476
 30
0.0
 10
21.81210416666666
 20
6.997059545461625
 30
0.0
  0
SPLINE
  5
111
330
DB
100
AcDbEntity
  8
Layer 2
  6
AI-Linetype-12
 62
   250
420
  2301728
370
     9
100
AcDbSpline
210
0.0
220
0.0
230
1.0
 70
     8
 71
     3
 72
    11
 73
     7
 74
     0
 42
0.0000000001
 43
0.0000000001
 12
1.0
 22
0.0
 32
0.0
 13
1.0
 23
0.0
 33
0.0
 40
0.0
 40
0.0
 40
0.0
 40
0.0
 40
1.0
 40
1.0
 40
1.0
 40
2.0
 40
2.0
 40
2.0
 40
2.0
 10
21.86384444444444
 20
6.982385934721201
 30
0.0
 10
21.90820833333333
 20
6.977963712610694
 30
0.0
 10
21.95836527777778
 20
6.983463712471752
 30
0.0
 10
21.97587222222223
 20
6.994672045521939
 30
0.0
 10
21.97987916666665
 20
6.997238712123766
 30
0.0
 10
21.9819
 20
6.999956767610658
 30
0.0
 10
21.9819
 20
7.002681767541818
 30
0.0
  0
INSERT
  5
114
330
DB
100
AcDbEntity
  8
Layer 2
100
AcDbBlockReference
  2
block 14
 10
0.0
 20
0.0
 30
0.0
  0
INSERT
  5
11A
330
DB
100
AcDbEntity
  8
Layer 2
100
AcDbBlockReference
  2
block 15
 10
0.0
 20
0.0
 30
0.0
  0
POLYLINE
  5
11F
330
DB
100
AcDbEntity
  8
Layer 2
  6
AI-Linetype-15
 62
   250
420
  2301728
370
     9
100
AcDb2dPolyline
 66
     1
 10
0.0
 20
0.0
 30
0.0
  0
VERTEX
  5
120
330
11F
100
AcDbEntity
  8
Layer 2
  6
AI-Linetype-15
 62
   250
420
  2301728
370
     9
100
AcDbVertex
100
AcDb2dVertex
 10
21.8408263888889
 20
6.833872049584088
 30
0.0
  0
VERTEX
  5
234
330
11F
100
AcDbEntity
  8
0
100
AcDbVertex
100
AcDb2dVertex
 10
21.8408263888889
 20
6.833872049584088
 30
0.0
  0
SEQEND
  5
122
330
11F
100
AcDbEntity
  8
Layer 2
  6
AI-Linetype-15
 62
   250
420
  2301728
370
     9
  0
POLYLINE
  5
123
330
DB
100
AcDbEntity
  8
Layer 2
  6
AI-Linetype-16
 62
   250
420
  2301728
370
     9
100
AcDb2dPolyline
 66
     1
 10
0.0
 20
0.0
 30
0.0
  0
VERTEX
  5
124
330
123
100
AcDbEntity
  8
Layer 2
  6
AI-Linetype-16
 62
   250
420
  2301728
370
     9
100
AcDbVertex
100
AcDb2dVertex
 10
21.8408263888889
 20
6.896560936889323
 30
0.0
  0
VERTEX
  5
235
330
123
100
AcDbEntity
  8
0
100
AcDbVertex
100
AcDb2dVertex
 10
21.8408263888889
 20
6.896560936889323
 30
0.0
  0
SEQEND
  5
126
330
123
100
AcDbEntity
  8
Layer 2
  6
AI-Linetype-16
 62
   250
420
  2301728
370
     9
  0
POLYLINE
  5
127
330
DB
100
AcDbEntity
  8
Layer 2
  6
AI-Linetype-17
 62
   250
420
  2301728
370
     9
100
AcDb2dPolyline
 66
     1
 10
0.0
 20
0.0
 30
0.0
  0
VERTEX
  5
128
330
127
100
AcDbEntity
  8
Layer 2
  6
AI-Linetype-17
 62
   250
420
  2301728
370
     9
100
AcDbVertex
100
AcDb2dVertex
 10
21.83652500000001
 20
6.837722222222219
 30
0.0
  0
VERTEX
  5
236
330
127
100
AcDbEntity
  8
0
100
AcDbVertex
100
AcDb2dVertex
 10
21.83652500000001
 20
6.837722222222219
 30
0.0
  0
SEQEND
  5
12A
330
127
100
AcDbEntity
  8
Layer 2
  6
AI-Linetype-17
 62
   250
420
  2301728
370
     9
  0
POLYLINE
  5
12B
330
DB
100
AcDbEntity
  8
Layer 2
  6
AI-Linetype-18
 62
   250
420
  2301728
370
     9
100
AcDb2dPolyline
 66
     1
 10
0.0
 20
0.0
 30
0.0
  0
VERTEX
  5
12C
330
12B
100
AcDbEntity
  8
Layer 2
  6
AI-Linetype-18
 62
   250
420
  2301728
370
     9
100
AcDbVertex
100
AcDb2dVertex
 10
21.83652500000001
 20
6.897347222222227
 30
0.0
  0
VERTEX
  5
237
330
12B
100
AcDbEntity
  8
0
100
AcDbVertex
100
AcDb2dVertex
 10
21.83652500000001
 20
6.897347222222227
 30
0.0
  0
SEQEND
  5
12E
330
12B
100
AcDbEntity
  8
Layer 2
  6
AI-Linetype-18
 62
   250
420
  2301728
370
     9
  0
ENDBLK
  5
DE
330
DB
100
AcDbEntity
  8
0
100
AcDbBlockEnd
  0
BLOCK
  5
E1
330
DF
100
AcDbEntity
  8
0
100
AcDbBlockBegin
  2
block 7
 70
     0
 10
0.0
 20
0.0
 30
0.0
  3
block 7
  1

  0
SPLINE
  5
E3
330
DF
100
AcDbEntity
  8
Layer 2
  6
AI-Linetype-3
 62
   250
420
  2301728
370
     9
100
AcDbSpline
210
0.0
220
0.0
230
1.0
 70
    11
 71
     3
 72
    62
 73
    58
 74
     0
 42
0.0000000001
 43
0.0000000001
 12
1.0
 22
0.0
 32
0.0
 13
1.0
 23
0.0
 33
0.0
 40
0.0
 40
0.0
 40
0.0
 40
0.0
 40
1.0
 40
1.0
 40
1.0
 40
2.0
 40
2.0
 40
2.0
 40
3.0
 40
3.0
 40
3.0
 40
4.0
 40
4.0
 40
4.0
 40
5.0
 40
5.0
 40
5.0
 40
6.0
 40
6.0
 40
6.0
 40
7.0
 40
7.0
 40
7.0
 40
8.0
 40
8.0
 40
8.0
 40
9.0
 40
9.0
 40
9.0
 40
10.0
 40
10.0
 40
10.0
 40
11.0
 40
11.0
 40
11.0
 40
12.0
 40
12.0
 40
12.0
 40
13.0
 40
13.0
 40
13.0
 40
14.0
 40
14.0
 40
14.0
 40
15.0
 40
15.0
 40
15.0
 40
16.0
 40
16.0
 40
16.0
 40
17.0
 40
17.0
 40
17.0
 40
18.0
 40
18.0
 40
18.0
 40
19.0
 40
19.0
 40
19.0
 40
19.0
 10
21.97898333333334
 20
7.008303989622012
 30
0.0
 10
21.97825416666668
 20
7.008995656271205
 30
0.0
 10
21.97689166666666
 20
7.009634545143954
 30
0.0
 10
21.97500694444446
 20
7.010167878463815
 30
0.0
 10
21.97500694444446
 20
7.010167878463815
 30
0.0
 10
21.93411527777779
 20
7.021765100393067
 30
0.0
 10
21.93411527777779
 20
7.021765100393067
 30
0.0
 10
21.93223194444444
 20
7.022299822601781
 30
0.0
 10
21.92987777777777
 20
7.022713711480214
 30
0.0
 10
21.92724305555556
 20
7.022977600362436
 30
0.0
 10
21.91075277777776
 20
7.024620655876484
 30
0.0
 10
21.89265972222223
 20
7.024942878090567
 30
0.0
 10
21.87542083333334
 20
7.023899822561361
 30
0.0
 10
21.86923472222222
 20
7.017912322712618
 30
0.0
 10
21.86321249999999
 20
7.01174426731288
 30
0.0
 10
21.85750138888887
 20
7.005423434139225
 30
0.0
 10
21.85352361111111
 20
7.001019267583817
 30
0.0
 10
21.84969166666666
 20
6.996537323252596
 30
0.0
 10
21.84605694444445
 20
6.991984545589831
 30
0.0
 10
21.84605694444445
 20
6.991984545589831
 30
0.0
 10
21.83443333333333
 20
6.995280378839905
 30
0.0
 10
21.83443333333333
 20
6.995280378839905
 30
0.0
 10
21.83436944444444
 20
6.995381767726232
 30
0.0
 10
21.82904722222222
 20
7.004451211941563
 30
0.0
 10
21.82726527777777
 20
7.008787322943135
 30
0.0
 10
21.82306666666667
 20
7.009241489598328
 30
0.0
 10
21.81877361111111
 20
7.009705378475498
 30
0.0
 10
21.81443472222223
 20
7.010172045130376
 30
0.0
 10
21.81094305555555
 20
7.007758156302467
 30
0.0
 10
21.8091861111111
 20
7.005222222222224
 30
0.0
 10
21.8091861111111
 20
7.002681767541818
 30
0.0
 10
21.8091861111111
 20
7.002681767541818
 30
0.0
 10
21.8091861111111
 20
5.628674857807709
 30
0.0
 10
21.8091861111111
 20
5.628674857807709
 30
0.0
 10
21.8091861111111
 20
5.626776246744561
 30
0.0
 10
21.81016805555555
 20
5.624885969014536
 30
0.0
 10
21.81210416666666
 20
5.623051246838663
 30
0.0
 10
21.81210416666666
 20
5.623051246838663
 30
0.0
 10
21.81607916666667
 20
5.62118735799686
 30
0.0
 10
21.81607916666667
 20
5.62118735799686
 30
0.0
 10
21.81607916666667
 20
5.62118735799686
 30
0.0
 10
21.84265972222223
 20
5.612555555555559
 30
0.0
 10
21.84265972222223
 20
5.612555555555559
 30
0.0
 10
21.84454305555555
 20
5.612020691561762
 30
0.0
 10
21.86120972222223
 20
5.60864152498046
 30
0.0
 10
21.86384444444444
 20
5.608379024987092
 30
0.0
 10
21.90820833333333
 20
5.60395541398773
 30
0.0
 10
21.95836527777778
 20
5.609456802737642
 30
0.0
 10
21.97587222222223
 20
5.62066513578783
 30
0.0
 10
21.97985416666668
 20
5.623215135723411
 30
0.0
 10
21.9819
 20
5.625931802321449
 30
0.0
 10
21.9819
 20
5.628674857807709
 30
0.0
 10
21.9819
 20
5.628674857807709
 30
0.0
 10
21.9819
 20
7.002681767541818
 30
0.0
 10
21.9819
 20
7.002681767541818
 30
0.0
 10
21.9819
 20
7.004567878605283
 30
0.0
 10
21.98093194444444
 20
7.006458333333335
 30
0.0
 10
21.97898333333334
 20
7.008303989622012
 30
0.0
  0
HATCH
  5
E5
330
DF
100
AcDbEntity
  8
Layer 2
 62
   254
420
 16376262
100
AcDbHatch
 10
0.0
 20
0.0
 30
0.0
210
0.0
220
0.0
230
1.0
  2
SOLID
 70
     1
 71
     0
 91
        1
 92
        1
 93
        1
 72
     4
 94
        3
 73
     0
 74
     1
 95
       62
 96
       58
 40
0.0
 40
0.0
 40
0.0
 40
0.0
 40
1.0
 40
1.0
 40
1.0
 40
2.0
 40
2.0
 40
2.0
 40
3.0
 40
3.0
 40
3.0
 40
4.0
 40
4.0
 40
4.0
 40
5.0
 40
5.0
 40
5.0
 40
6.0
 40
6.0
 40
6.0
 40
7.0
 40
7.0
 40
7.0
 40
8.0
 40
8.0
 40
8.0
 40
9.0
 40
9.0
 40
9.0
 40
10.0
 40
10.0
 40
10.0
 40
11.0
 40
11.0
 40
11.0
 40
12.0
 40
12.0
 40
12.0
 40
13.0
 40
13.0
 40
13.0
 40
14.0
 40
14.0
 40
14.0
 40
15.0
 40
15.0
 40
15.0
 40
16.0
 40
16.0
 40
16.0
 40
17.0
 40
17.0
 40
17.0
 40
18.0
 40
18.0
 40
18.0
 40
19.0
 40
19.0
 40
19.0
 40
19.0
 10
21.97898333333334
 20
7.008303989622012
 10
21.97825416666668
 20
7.008995656271205
 10
21.97689166666666
 20
7.009634545143954
 10
21.97500694444446
 20
7.010167878463815
 10
21.97500694444446
 20
7.010167878463815
 10
21.93411527777779
 20
7.021765100393067
 10
21.93411527777779
 20
7.021765100393067
 10
21.93223194444444
 20
7.022299822601781
 10
21.92987777777777
 20
7.022713711480214
 10
21.92724305555556
 20
7.022977600362436
 10
21.91075277777776
 20
7.024620655876484
 10
21.89265972222223
 20
7.024942878090567
 10
21.87542083333334
 20
7.023899822561361
 10
21.86923472222222
 20
7.017912322712618
 10
21.86321249999999
 20
7.01174426731288
 10
21.85750138888887
 20
7.005423434139225
 10
21.85352361111111
 20
7.001019267583817
 10
21.84969166666666
 20
6.996537323252596
 10
21.84605694444445
 20
6.991984545589831
 10
21.84605694444445
 20
6.991984545589831
 10
21.83443333333333
 20
6.995280378839905
 10
21.83443333333333
 20
6.995280378839905
 10
21.83436944444444
 20
6.995381767726232
 10
21.82904722222222
 20
7.004451211941563
 10
21.82726527777777
 20
7.008787322943135
 10
21.82306666666667
 20
7.009241489598328
 10
21.81877361111111
 20
7.009705378475498
 10
21.81443472222223
 20
7.010172045130376
 10
21.81094305555555
 20
7.007758156302467
 10
21.8091861111111
 20
7.005222222222224
 10
21.8091861111111
 20
7.002681767541818
 10
21.8091861111111
 20
7.002681767541818
 10
21.8091861111111
 20
5.628674857807709
 10
21.8091861111111
 20
5.628674857807709
 10
21.8091861111111
 20
5.626776246744561
 10
21.81016805555555
 20
5.624885969014536
 10
21.81210416666666
 20
5.623051246838663
 10
21.81210416666666
 20
5.623051246838663
 10
21.81607916666667
 20
5.62118735799686
 10
21.81607916666667
 20
5.62118735799686
 10
21.81607916666667
 20
5.62118735799686
 10
21.84265972222223
 20
5.612555555555559
 10
21.84265972222223
 20
5.612555555555559
 10
21.84454305555555
 20
5.612020691561762
 10
21.86120972222223
 20
5.60864152498046
 10
21.86384444444444
 20
5.608379024987092
 10
21.90820833333333
 20
5.60395541398773
 10
21.95836527777778
 20
5.609456802737642
 10
21.97587222222223
 20
5.62066513578783
 10
21.97985416666668
 20
5.623215135723411
 10
21.9819
 20
5.625931802321449
 10
21.9819
 20
5.628674857807709
 10
21.9819
 20
5.628674857807709
 10
21.9819
 20
7.002681767541818
 10
21.9819
 20
7.002681767541818
 10
21.9819
 20
7.004567878605283
 10
21.98093194444444
 20
7.006458333333335
 10
21.97898333333334
 20
7.008303989622012
 97
        0
 97
        0
 75
     2
 76
     1
 98
        0
  0
ENDBLK
  5
E2
330
DF
100
AcDbEntity
  8
0
100
AcDbBlockEnd
  0
BLOCK
  5
EA
330
E8
100
AcDbEntity
  8
0
100
AcDbBlockBegin
  2
block 8
 70
     0
 10
0.0
 20
0.0
 30
0.0
  3
block 8
  1

  0
SPLINE
  5
EC
330
E8
100
AcDbEntity
  8
Layer 2
  6
AI-Linetype-5
 62
   250
420
  2301728
370
     9
100
AcDbSpline
210
0.0
220
0.0
230
1.0
 70
     8
 71
     3
 72
     8
 73
     4
 74
     0
 42
0.0000000001
 43
0.0000000001
 12
1.0
 22
0.0
 32
0.0
 13
1.0
 23
0.0
 33
0.0
 40
0.0
 40
0.0
 40
0.0
 40
0.0
 40
1.0
 40
1.0
 40
1.0
 40
1.0
 10
21.9655263888889
 20
7.007397045200478
 30
0.0
 10
21.96535694444444
 20
7.007556767418666
 30
0.0
 10
21.96504166666667
 20
7.007703989637169
 30
0.0
 10
21.96460833333334
 20
7.007827600745157
 30
0.0
  0
ENDBLK
  5
EB
330
E8
100
AcDbEntity
  8
0
100
AcDbBlockEnd
  0
BLOCK
  5
F0
330
EE
100
AcDbEntity
  8
0
100
AcDbBlockBegin
  2
block 9
 70
     0
 10
0.0
 20
0.0
 30
0.0
  3
block 9
  1

  0
SPLINE
  5
F2
330
EE
100
AcDbEntity
  8
Layer 2
  6
AI-Linetype-6
 62
   250
420
  2301728
370
     9
100
AcDbSpline
210
0.0
220
0.0
230
1.0
 70
     8
 71
     3
 72
     8
 73
     4
 74
     0
 42
0.0000000001
 43
0.0000000001
 12
1.0
 22
0.0
 32
0.0
 13
1.0
 23
0.0
 33
0.0
 40
0.0
 40
0.0
 40
0.0
 40
0.0
 40
1.0
 40
1.0
 40
1.0
 40
1.0
 10
21.85697083333333
 20
6.98359843469057
 30
0.0
 10
21.85885555555556
 20
6.983065101370711
 30
0.0
 10
21.86120972222223
 20
6.982649823603424
 30
0.0
 10
21.86384444444444
 20
6.982385934721201
 30
0.0
  0
ENDBLK
  5
F1
330
EE
100
AcDbEntity
  8
0
100
AcDbBlockEnd
  0
BLOCK
  5
F6
330
F4
100
AcDbEntity
  8
0
100
AcDbBlockBegin
  2
block 10
 70
     0
 10
0.0
 20
0.0
 30
0.0
  3
block 10
  1

  0
POLYLINE
  5
F8
330
F4
100
AcDbEntity
  8
Layer 2
  6
AI-Linetype-7
 62
   250
420
  2301728
370
     9
100
AcDb2dPolyline
 66
     1
 10
0.0
 20
0.0
 30
0.0
  0
VERTEX
  5
F9
330
F8
100
AcDbEntity
  8
Layer 2
  6
AI-Linetype-7
 62
   250
420
  2301728
370
     9
100
AcDbVertex
100
AcDb2dVertex
 10
21.81607916666667
 20
6.995194444444451
 30
0.0
  0
VERTEX
  5
FA
330
F8
100
AcDbEntity
  8
Layer 2
  6
AI-Linetype-7
 62
   250
420
  2301728
370
     9
100
AcDbVertex
100
AcDb2dVertex
 10
21.85697083333333
 20
6.98359843469057
 30
0.0
  0
SEQEND
  5
FC
330
F8
100
AcDbEntity
  8
Layer 2
  6
AI-Linetype-7
 62
   250
420
  2301728
370
     9
  0
ENDBLK
  5
F7
330
F4
100
AcDbEntity
  8
0
100
AcDbBlockEnd
  0
BLOCK
  5
FF
330
FD
100
AcDbEntity
  8
0
100
AcDbBlockBegin
  2
block 11
 70
     0
 10
0.0
 20
0.0
 30
0.0
  3
block 11
  1

  0
SPLINE
  5
101
330
FD
100
AcDbEntity
  8
Layer 2
  6
AI-Linetype-8
 62
   250
420
  2301728
370
     9
100
AcDbSpline
210
0.0
220
0.0
230
1.0
 70
     8
 71
     3
 72
     8
 73
     4
 74
     0
 42
0.0000000001
 43
0.0000000001
 12
1.0
 22
0.0
 32
0.0
 13
1.0
 23
0.0
 33
0.0
 40
0.0
 40
0.0
 40
0.0
 40
0.0
 40
1.0
 40
1.0
 40
1.0
 40
1.0
 10
21.81210416666666
 20
6.997059545461625
 30
0.0
 10
21.81283333333332
 20
6.996367878812432
 30
0.0
 10
21.81419444444444
 20
6.995728989939683
 30
0.0
 10
21.81607916666667
 20
6.995194444444451
 30
0.0
  0
ENDBLK
  5
100
330
FD
100
AcDbEntity
  8
0
100
AcDbBlockEnd
  0
BLOCK
  5
105
330
103
100
AcDbEntity
  8
0
100
AcDbBlockBegin
  2
block 12
 70
     0
 10
0.0
 20
0.0
 30
0.0
  3
block 12
  1

  0
SPLINE
  5
107
330
103
100
AcDbEntity
  8
Layer 2
  6
AI-Linetype-9
 62
   250
420
  2301728
370
     9
100
AcDbSpline
210
0.0
220
0.0
230
1.0
 70
     8
 71
     3
 72
     8
 73
     4
 74
     0
 42
0.0000000001
 43
0.0000000001
 12
1.0
 22
0.0
 32
0.0
 13
1.0
 23
0.0
 33
0.0
 40
0.0
 40
0.0
 40
0.0
 40
0.0
 40
1.0
 40
1.0
 40
1.0
 40
1.0
 10
21.81210416666666
 20
5.623051246838663
 30
0.0
 10
21.81283333333332
 20
5.622359580189468
 30
0.0
 10
21.81419444444444
 20
5.621722222222224
 30
0.0
 10
21.81607916666667
 20
5.62118735799686
 30
0.0
  0
ENDBLK
  5
106
330
103
100
AcDbEntity
  8
0
100
AcDbBlockEnd
  0
BLOCK
  5
10B
330
109
100
AcDbEntity
  8
0
100
AcDbBlockBegin
  2
block 13
 70
     0
 10
0.0
 20
0.0
 30
0.0
  3
block 13
  1

  0
SPLINE
  5
10D
330
109
100
AcDbEntity
  8
Layer 2
  6
AI-Linetype-10
 62
   250
420
  2301728
370
     9
100
AcDbSpline
210
0.0
220
0.0
230
1.0
 70
     8
 71
     3
 72
     8
 73
     4
 74
     0
 42
0.0000000001
 43
0.0000000001
 12
1.0
 22
0.0
 32
0.0
 13
1.0
 23
0.0
 33
0.0
 40
0.0
 40
0.0
 40
0.0
 40
0.0
 40
1.0
 40
1.0
 40
1.0
 40
1.0
 10
21.8793888888889
 20
7.020520655980059
 30
0.0
 10
21.87808472222223
 20
7.021626211507686
 30
0.0
 10
21.87675833333333
 20
7.022756767034681
 30
0.0
 10
21.87542083333334
 20
7.023899822561361
 30
0.0
  0
ENDBLK
  5
10C
330
109
100
AcDbEntity
  8
0
100
AcDbBlockEnd
  0
BLOCK
  5
115
330
113
100
AcDbEntity
  8
0
100
AcDbBlockBegin
  2
block 14
 70
     0
 10
0.0
 20
0.0
 30
0.0
  3
block 14
  1

  0
SPLINE
  5
117
330
113
100
AcDbEntity
  8
Layer 2
  6
AI-Linetype-13
 62
   250
420
  2301728
370
     9
100
AcDbSpline
210
0.0
220
0.0
230
1.0
 70
     8
 71
     3
 72
    41
 73
    37
 74
     0
 42
0.0000000001
 43
0.0000000001
 12
1.0
 22
0.0
 32
0.0
 13
1.0
 23
0.0
 33
0.0
 40
0.0
 40
0.0
 40
0.0
 40
0.0
 40
1.0
 40
1.0
 40
1.0
 40
2.0
 40
2.0
 40
2.0
 40
3.0
 40
3.0
 40
3.0
 40
4.0
 40
4.0
 40
4.0
 40
5.0
 40
5.0
 40
5.0
 40
6.0
 40
6.0
 40
6.0
 40
7.0
 40
7.0
 40
7.0
 40
8.0
 40
8.0
 40
8.0
 40
9.0
 40
9.0
 40
9.0
 40
10.0
 40
10.0
 40
10.0
 40
11.0
 40
11.0
 40
11.0
 40
12.0
 40
12.0
 40
12.0
 40
12.0
 10
21.82726527777777
 20
7.008787322943135
 30
0.0
 10
21.82238888888888
 20
7.005306767475505
 30
0.0
 10
21.82179583333333
 20
7.001533156459724
 30
0.0
 10
21.8255611111111
 20
6.997966489883159
 30
0.0
 10
21.82573055555556
 20
6.997806767664971
 30
0.0
 10
21.82604444444445
 20
6.997658156557614
 30
0.0
 10
21.82647916666666
 20
6.99753593433848
 30
0.0
 10
21.82647916666666
 20
6.99753593433848
 30
0.0
 10
21.86737083333333
 20
6.985940101298082
 30
0.0
 10
21.86737083333333
 20
6.985940101298082
 30
0.0
 10
21.86780555555555
 20
6.985816490190094
 30
0.0
 10
21.86834861111111
 20
6.985720656859181
 30
0.0
 10
21.86895694444443
 20
6.985659545749614
 30
0.0
 10
21.90616527777777
 20
6.981949823621107
 30
0.0
 10
21.94823194444444
 20
6.98656371239344
 30
0.0
 10
21.96291527777779
 20
6.995965101044829
 30
0.0
 10
21.96860416666666
 20
6.9996067676195
 30
0.0
 10
21.96951944444443
 20
7.003615100851574
 30
0.0
 10
21.9655263888889
 20
7.007397045200478
 30
0.0
 10
21.9655263888889
 20
7.007397045200478
 30
0.0
 10
21.96460833333334
 20
7.007827600745157
 30
0.0
 10
21.96460833333334
 20
7.007827600745157
 30
0.0
 10
21.96460833333334
 20
7.007827600745157
 30
0.0
 10
21.92371666666668
 20
7.019423433785555
 30
0.0
 10
21.92371666666668
 20
7.019423433785555
 30
0.0
 10
21.92328194444445
 20
7.019547044893543
 30
0.0
 10
21.92273749999999
 20
7.019642878224456
 30
0.0
 10
21.92213055555557
 20
7.019703989334023
 30
0.0
 10
21.90853611111111
 20
7.021059544855334
 30
0.0
 10
21.89363472222223
 20
7.021344267070364
 30
0.0
 10
21.8793888888889
 20
7.020520655980059
 30
0.0
 10
21.87418055555557
 20
7.014608156129421
 30
0.0
 10
21.86909861111111
 20
7.008530378505181
 30
0.0
 10
21.86428055555555
 20
7.002335934217221
 30
0.0
 10
21.86100277777778
 20
6.998120656545931
 30
0.0
 10
21.85783611111111
 20
6.993835934431949
 30
0.0
 10
21.85482499999999
 20
6.98949704565267
 30
0.0
  0
ENDBLK
  5
116
330
113
100
AcDbEntity
  8
0
100
AcDbBlockEnd
  0
BLOCK
  5
11B
330
119
100
AcDbEntity
  8
0
100
AcDbBlockBegin
  2
block 15
 70
     0
 10
0.0
 20
0.0
 30
0.0
  3
block 15
  1

  0
SPLINE
  5
11D
330
119
100
AcDbEntity
  8
Layer 2
  6
AI-Linetype-14
 62
   250
420
  2301728
370
     9
100
AcDbSpline
210
0.0
220
0.0
230
1.0
 70
    11
 71
     3
 72
    35
 73
    31
 74
     0
 42
0.0000000001
 43
0.0000000001
 12
1.0
 22
0.0
 32
0.0
 13
1.0
 23
0.0
 33
0.0
 40
0.0
 40
0.0
 40
0.0
 40
0.0
 40
1.0
 40
1.0
 40
1.0
 40
2.0
 40
2.0
 40
2.0
 40
3.0
 40
3.0
 40
3.0
 40
4.0
 40
4.0
 40
4.0
 40
5.0
 40
5.0
 40
5.0
 40
6.0
 40
6.0
 40
6.0
 40
7.0
 40
7.0
 40
7.0
 40
8.0
 40
8.0
 40
8.0
 40
9.0
 40
9.0
 40
9.0
 40
10.0
 40
10.0
 40
10.0
 40
10.0
 10
21.82263611111112
 20
6.241929008982273
 30
0.0
 10
21.82263611111112
 20
6.241929008982273
 30
0.0
 10
21.81280833333333
 20
6.288755396688227
 30
0.0
 10
21.81280833333333
 20
6.288755396688227
 30
0.0
 10
21.81222222222221
 20
6.291549841062078
 30
0.0
 10
21.81285138888888
 20
6.293663729897566
 30
0.0
 10
21.81427361111112
 20
6.29446511876621
 30
0.0
 10
21.81427361111112
 20
6.29446511876621
 30
0.0
 10
21.82434166666667
 20
6.300117896401186
 30
0.0
 10
21.82434166666667
 20
6.300117896401186
 30
0.0
 10
21.82526250000001
 20
6.300767896384766
 30
0.0
 10
21.82732222222221
 20
6.301266507483281
 30
0.0
 10
21.82843749999999
 20
6.300951229713468
 30
0.0
 10
21.82843749999999
 20
6.300951229713468
 30
0.0
 10
21.84048194444444
 20
6.297535952021967
 30
0.0
 10
21.84048194444444
 20
6.297535952021967
 30
0.0
 10
21.84355277777778
 20
6.296665118710633
 30
0.0
 10
21.84604166666668
 20
6.292338729931038
 30
0.0
 10
21.84604166666668
 20
6.287873452266062
 30
0.0
 10
21.84604166666668
 20
6.287873452266062
 30
0.0
 10
21.84604166666668
 20
6.234573453612533
 30
0.0
 10
21.84604166666668
 20
6.234573453612533
 30
0.0
 10
21.84604166666668
 20
6.234573453612533
 30
0.0
 10
21.8459486111111
 20
6.232099842563912
 30
0.0
 10
21.8459486111111
 20
6.232099842563912
 30
0.0
 10
21.8459486111111
 20
6.232099842563912
 30
0.0
 10
21.82297083333333
 20
6.238616509065953
 30
0.0
 10
21.82297083333333
 20
6.238616509065953
 30
0.0
 10
21.82297083333333
 20
6.238616509065953
 30
0.0
 10
21.82263611111112
 20
6.241929008982273
 30
0.0
 10
21.82263611111112
 20
6.241929008982273
 30
0.0
  0
ENDBLK
  5
11C
330
119
100
AcDbEntity
  8
0
100
AcDbBlockEnd
  0
BLOCK
  5
141
330
13F
100
AcDbEntity
  8
0
100
AcDbBlockBegin
  2
block 16
 70
     0
 10
0.0
 20
0.0
 30
0.0
  3
block 16
  1

  0
INSERT
  5
144
330
13F
100
AcDbEntity
  8
Layer 2
100
AcDbBlockReference
  2
block 17
 10
0.0
 20
0.0
 30
0.0
  0
INSERT
  5
158
330
13F
100
AcDbEntity
  8
Layer 2
100
AcDbBlockReference
  2
block 19
 10
0.0
 20
0.0
 30
0.0
  0
SPLINE
  5
168
330
13F
100
AcDbEntity
  8
Layer 2
 62
   250
420
  2301728
370
     9
100
AcDbSpline
210
0.0
220
0.0
230
1.0
 70
    11
 71
     3
 72
    20
 73
    16
 74
     0
 42
0.0000000001
 43
0.0000000001
 12
1.0
 22
0.0
 32
0.0
 13
1.0
 23
0.0
 33
0.0
 40
0.0
 40
0.0
 40
0.0
 40
0.0
 40
1.0
 40
1.0
 40
1.0
 40
2.0
 40
2.0
 40
2.0
 40
3.0
 40
3.0
 40
3.0
 40
4.0
 40
4.0
 40
4.0
 40
5.0
 40
5.0
 40
5.0
 40
5.0
 10
21.64830416666667
 20
5.722933188759876
 30
0.0
 10
21.63700555555556
 20
5.714341522310254
 30
0.0
 10
21.63425416666668
 20
5.69272485618967
 30
0.0
 10
21.64215833333333
 20
5.674651245535137
 30
0.0
 10
21.65006388888888
 20
5.65657624599175
 30
0.0
 10
21.66563194444443
 20
5.648888888888892
 30
0.0
 10
21.67693055555555
 20
5.657481801524429
 30
0.0
 10
21.68822777777778
 20
5.666072079085198
 30
0.0
 10
21.69097916666667
 20
5.687688745205782
 30
0.0
 10
21.68307499999999
 20
5.705763888888883
 30
0.0
 10
21.67516944444444
 20
5.723837355403703
 30
0.0
 10
21.65960277777779
 20
5.7315248552095
 30
0.0
 10
21.64830416666667
 20
5.722933188759876
 30
0.0
 10
21.64830416666667
 20
5.722933188759876
 30
0.0
 10
21.64830416666667
 20
5.722933188759876
 30
0.0
 10
21.64830416666667
 20
5.722933188759876
 30
0.0
  0
ENDBLK
  5
142
330
13F
100
AcDbEntity
  8
0
100
AcDbBlockEnd
  0
BLOCK
  5
145
330
143
100
AcDbEntity
  8
0
100
AcDbBlockBegin
  2
block 17
 70
     0
 10
0.0
 20
0.0
 30
0.0
  3
block 17
  1

  0
SPLINE
  5
147
330
143
100
AcDbEntity
  8
Layer 2
 62
   250
420
  2301728
370
     9
100
AcDbSpline
210
0.0
220
0.0
230
1.0
 70
    11
 71
     3
 72
    20
 73
    16
 74
     0
 42
0.0000000001
 43
0.0000000001
 12
1.0
 22
0.0
 32
0.0
 13
1.0
 23
0.0
 33
0.0
 40
0.0
 40
0.0
 40
0.0
 40
0.0
 40
1.0
 40
1.0
 40
1.0
 40
2.0
 40
2.0
 40
2.0
 40
3.0
 40
3.0
 40
3.0
 40
4.0
 40
4.0
 40
4.0
 40
5.0
 40
5.0
 40
5.0
 40
5.0
 10
21.64830416666667
 20
5.722933188759876
 30
0.0
 10
21.63700555555556
 20
5.714341522310254
 30
0.0
 10
21.63425416666668
 20
5.69272485618967
 30
0.0
 10
21.64215833333333
 20
5.674651245535137
 30
0.0
 10
21.65006388888888
 20
5.65657624599175
 30
0.0
 10
21.66563194444443
 20
5.648888888888892
 30
0.0
 10
21.67693055555555
 20
5.657481801524429
 30
0.0
 10
21.68822777777778
 20
5.666072079085198
 30
0.0
 10
21.69097916666667
 20
5.687688745205782
 30
0.0
 10
21.68307499999999
 20
5.705763888888883
 30
0.0
 10
21.67516944444444
 20
5.723837355403703
 30
0.0
 10
21.65960277777779
 20
5.7315248552095
 30
0.0
 10
21.64830416666667
 20
5.722933188759876
 30
0.0
 10
21.64830416666667
 20
5.722933188759876
 30
0.0
 10
21.64830416666667
 20
5.722933188759876
 30
0.0
 10
21.64830416666667
 20
5.722933188759876
 30
0.0
  0
HATCH
  5
148
330
143
100
AcDbEntity
  8
Layer 2
 62
    42
420
 15043866
100
AcDbHatch
 10
0.0
 20
0.0
 30
0.0
210
0.0
220
0.0
230
1.0
  2
SOLID
 70
     1
 71
     0
 91
        1
 92
        1
 93
        1
 72
     4
 94
        3
 73
     0
 74
     1
 95
       20
 96
       16
 40
0.0
 40
0.0
 40
0.0
 40
0.0
 40
1.0
 40
1.0
 40
1.0
 40
2.0
 40
2.0
 40
2.0
 40
3.0
 40
3.0
 40
3.0
 40
4.0
 40
4.0
 40
4.0
 40
5.0
 40
5.0
 40
5.0
 40
5.0
 10
21.64830416666667
 20
5.722933188759876
 10
21.63700555555556
 20
5.714341522310254
 10
21.63425416666668
 20
5.69272485618967
 10
21.64215833333333
 20
5.674651245535137
 10
21.65006388888888
 20
5.65657624599175
 10
21.66563194444443
 20
5.648888888888892
 10
21.67693055555555
 20
5.657481801524429
 10
21.68822777777778
 20
5.666072079085198
 10
21.69097916666667
 20
5.687688745205782
 10
21.68307499999999
 20
5.705763888888883
 10
21.67516944444444
 20
5.723837355403703
 10
21.65960277777779
 20
5.7315248552095
 10
21.64830416666667
 20
5.722933188759876
 10
21.64830416666667
 20
5.722933188759876
 10
21.64830416666667
 20
5.722933188759876
 10
21.64830416666667
 20
5.722933188759876
 97
        0
 97
        0
 75
     2
 76
     1
 98
        0
  0
POLYLINE
  5
149
330
143
100
AcDbEntity
  8
Layer 2
 62
   250
420
  2301728
370
     5
100
AcDb2dPolyline
 66
     1
 10
0.0
 20
0.0
 30
0.0
  0
VERTEX
  5
14A
330
149
100
AcDbEntity
  8
Layer 2
 62
   250
420
  2301728
370
     5
100
AcDbVertex
100
AcDb2dVertex
 10
21.69242500000001
 20
5.730217910798071
 30
0.0
  0
VERTEX
  5
14B
330
149
100
AcDbEntity
  8
Layer 2
 62
   250
420
  2301728
370
     5
100
AcDbVertex
100
AcDb2dVertex
 10
21.65971111111111
 20
5.716390133369613
 30
0.0
  0
VERTEX
  5
14C
330
149
100
AcDbEntity
  8
Layer 2
 62
   250
420
  2301728
370
     5
100
AcDbVertex
100
AcDb2dVertex
 10
21.67001250000001
 20
5.661280412539579
 30
0.0
  0
VERTEX
  5
14D
330
149
100
AcDbEntity
  8
Layer 2
 62
   250
420
  2301728
370
     5
100
AcDbVertex
100
AcDb2dVertex
 10
21.70751249999999
 20
5.664884579115196
 30
0.0
  0
VERTEX
  5
14E
330
149
100
AcDbEntity
  8
Layer 2
 62
   250
420
  2301728
370
     5
100
AcDbVertex
100
AcDb2dVertex
 10
21.69242500000001
 20
5.730217910798071
 30
0.0
  0
SEQEND
  5
150
330
149
100
AcDbEntity
  8
Layer 2
 62
   250
420
  2301728
370
     5
  0
HATCH
  5
14F
330
143
100
AcDbEntity
  8
Layer 2
 62
   254
420
 13358815
100
AcDbHatch
 10
0.0
 20
0.0
 30
0.0
210
0.0
220
0.0
230
1.0
  2
SOLID
 70
     1
 71
     0
 91
        1
 92
        1
 93
        4
 72
     1
 10
21.69242500000001
 20
5.730217910798071
 11
21.65971111111111
 21
5.716390133369613
 72
     1
 10
21.65971111111111
 20
5.716390133369613
 11
21.67001250000001
 21
5.661280412539579
 72
     1
 10
21.67001250000001
 20
5.661280412539579
 11
21.70751249999999
 21
5.664884579115196
 72
     1
 10
21.70751249999999
 20
5.664884579115196
 11
21.69242500000001
 21
5.730217910798071
 97
        0
 75
     2
 76
     1
 98
        0
  0
INSERT
  5
152
330
143
100
AcDbEntity
  8
Layer 2
100
AcDbBlockReference
  2
block 18
 10
0.0
 20
0.0
 30
0.0
  0
ENDBLK
  5
146
330
143
100
AcDbEntity
  8
0
100
AcDbBlockEnd
  0
BLOCK
  5
153
330
151
100
AcDbEntity
  8
0
100
AcDbBlockBegin
  2
block 18
 70
     0
 10
0.0
 20
0.0
 30
0.0
  3
block 18
  1

  0
SPLINE
  5
155
330
151
100
AcDbEntity
  8
Layer 2
 62
   250
420
  2301728
370
     5
100
AcDbSpline
210
0.0
220
0.0
230
1.0
 70
    11
 71
     3
 72
    20
 73
    16
 74
     0
 42
0.0000000001
 43
0.0000000001
 12
1.0
 22
0.0
 32
0.0
 13
1.0
 23
0.0
 33
0.0
 40
0.0
 40
0.0
 40
0.0
 40
0.0
 40
1.0
 40
1.0
 40
1.0
 40
2.0
 40
2.0
 40
2.0
 40
3.0
 40
3.0
 40
3.0
 40
4.0
 40
4.0
 40
4.0
 40
5.0
 40
5.0
 40
5.0
 40
5.0
 10
21.65971111111111
 20
5.716390133369613
 30
0.0
 10
21.6511125
 20
5.710137355749794
 30
0.0
 10
21.64806805555557
 20
5.693252633954115
 30
0.0
 10
21.65291388888889
 20
5.678677634322311
 30
0.0
 10
21.65775833333333
 20
5.664105412468214
 30
0.0
 10
21.66865694444444
 20
5.657359579305294
 30
0.0
 10
21.67725555555555
 20
5.663613745813968
 30
0.0
 10
21.68585555555556
 20
5.669867912322641
 30
0.0
 10
21.68889861111112
 20
5.686749999999998
 30
0.0
 10
21.68405416666666
 20
5.701324855972416
 30
0.0
 10
21.67920972222221
 20
5.715898466715367
 30
0.0
 10
21.6683111111111
 20
5.722642910989432
 30
0.0
 10
21.65971111111111
 20
5.716390133369613
 30
0.0
 10
21.65971111111111
 20
5.716390133369613
 30
0.0
 10
21.65971111111111
 20
5.716390133369613
 30
0.0
 10
21.65971111111111
 20
5.716390133369613
 30
0.0
  0
HATCH
  5
156
330
151
100
AcDbEntity
  8
Layer 2
 62
   254
420
 13358815
100
AcDbHatch
 10
0.0
 20
0.0
 30
0.0
210
0.0
220
0.0
230
1.0
  2
SOLID
 70
     1
 71
     0
 91
        1
 92
        1
 93
        1
 72
     4
 94
        3
 73
     0
 74
     1
 95
       20
 96
       16
 40
0.0
 40
0.0
 40
0.0
 40
0.0
 40
1.0
 40
1.0
 40
1.0
 40
2.0
 40
2.0
 40
2.0
 40
3.0
 40
3.0
 40
3.0
 40
4.0
 40
4.0
 40
4.0
 40
5.0
 40
5.0
 40
5.0
 40
5.0
 10
21.65971111111111
 20
5.716390133369613
 10
21.6511125
 20
5.710137355749794
 10
21.64806805555557
 20
5.693252633954115
 10
21.65291388888889
 20
5.678677634322311
 10
21.65775833333333
 20
5.664105412468214
 10
21.66865694444444
 20
5.657359579305294
 10
21.67725555555555
 20
5.663613745813968
 10
21.68585555555556
 20
5.669867912322641
 10
21.68889861111112
 20
5.686749999999998
 10
21.68405416666666
 20
5.701324855972416
 10
21.67920972222221
 20
5.715898466715367
 10
21.6683111111111
 20
5.722642910989432
 10
21.65971111111111
 20
5.716390133369613
 10
21.65971111111111
 20
5.716390133369613
 10
21.65971111111111
 20
5.716390133369613
 10
21.65971111111111
 20
5.716390133369613
 97
        0
 97
        0
 75
     2
 76
     1
 98
        0
  0
ENDBLK
  5
154
330
151
100
AcDbEntity
  8
0
100
AcDbBlockEnd
  0
BLOCK
  5
159
330
157
100
AcDbEntity
  8
0
100
AcDbBlockBegin
  2
block 19
 70
     0
 10
0.0
 20
0.0
 30
0.0
  3
block 19
  1

  0
INSERT
  5
15C
330
157
100
AcDbEntity
  8
Layer 2
100
AcDbBlockReference
  2
block 20
 10
0.0
 20
0.0
 30
0.0
  0
INSERT
  5
163
330
157
100
AcDbEntity
  8
Layer 2
100
AcDbBlockReference
  2
block 21
 10
0.0
 20
0.0
 30
0.0
  0
ENDBLK
  5
15A
330
157
100
AcDbEntity
  8
0
100
AcDbBlockEnd
  0
BLOCK
  5
15D
330
15B
100
AcDbEntity
  8
0
100
AcDbBlockBegin
  2
block 20
 70
     0
 10
0.0
 20
0.0
 30
0.0
  3
block 20
  1

  0
SPLINE
  5
15F
330
15B
100
AcDbEntity
  8
Layer 2
  6
AI-Linetype-21
 62
   250
420
  2301728
370
     5
100
AcDbSpline
210
0.0
220
0.0
230
1.0
 70
    11
 71
     3
 72
    26
 73
    22
 74
     0
 42
0.0000000001
 43
0.0000000001
 12
1.0
 22
0.0
 32
0.0
 13
1.0
 23
0.0
 33
0.0
 40
0.0
 40
0.0
 40
0.0
 40
0.0
 40
1.0
 40
1.0
 40
1.0
 40
2.0
 40
2.0
 40
2.0
 40
3.0
 40
3.0
 40
3.0
 40
4.0
 40
4.0
 40
4.0
 40
5.0
 40
5.0
 40
5.0
 40
6.0
 40
6.0
 40
6.0
 40
7.0
 40
7.0
 40
7.0
 40
7.0
 10
21.84231250000001
 20
5.757665132326919
 30
0.0
 10
21.8490638888889
 20
5.754594299071161
 30
0.0
 10
21.8551875
 20
5.748038743681213
 30
0.0
 10
21.85898888888889
 20
5.738829021691648
 30
0.0
 10
21.86585972222221
 20
5.722188744334239
 30
0.0
 10
21.86273194444445
 20
5.702748467047564
 30
0.0
 10
21.85217361111111
 20
5.693583333333335
 30
0.0
 10
21.85217361111111
 20
5.693583333333335
 30
0.0
 10
21.67891666666666
 20
5.659210968147414
 30
0.0
 10
21.67891666666666
 20
5.659210968147414
 30
0.0
 10
21.68072361111111
 20
5.65968055555556
 30
0.0
 10
21.69078194444445
 20
5.673909578887206
 30
0.0
 10
21.68652916666666
 20
5.694738745027684
 30
0.0
 10
21.68142222222223
 20
5.71975679995123
 30
0.0
 10
21.66500138888889
 20
5.725198466480429
 30
0.0
 10
21.66500138888889
 20
5.725198466480429
 30
0.0
 10
21.66500138888889
 20
5.725198466480429
 30
0.0
 10
21.84231388888889
 20
5.757656798993795
 30
0.0
 10
21.84231388888889
 20
5.757656798993795
 30
0.0
 10
21.84231388888889
 20
5.757656798993795
 30
0.0
 10
21.84231250000001
 20
5.757665132326919
 30
0.0
 10
21.84231250000001
 20
5.757665132326919
 30
0.0
  0
HATCH
  5
161
330
15B
100
AcDbEntity
  8
Layer 2
 62
   254
420
 16376262
100
AcDbHatch
 10
0.0
 20
0.0
 30
0.0
210
0.0
220
0.0
230
1.0
  2
SOLID
 70
     1
 71
     0
 91
        1
 92
        1
 93
        1
 72
     4
 94
        3
 73
     0
 74
     1
 95
       26
 96
       22
 40
0.0
 40
0.0
 40
0.0
 40
0.0
 40
1.0
 40
1.0
 40
1.0
 40
2.0
 40
2.0
 40
2.0
 40
3.0
 40
3.0
 40
3.0
 40
4.0
 40
4.0
 40
4.0
 40
5.0
 40
5.0
 40
5.0
 40
6.0
 40
6.0
 40
6.0
 40
7.0
 40
7.0
 40
7.0
 40
7.0
 10
21.84231250000001
 20
5.757665132326919
 10
21.8490638888889
 20
5.754594299071161
 10
21.8551875
 20
5.748038743681213
 10
21.85898888888889
 20
5.738829021691648
 10
21.86585972222221
 20
5.722188744334239
 10
21.86273194444445
 20
5.702748467047564
 10
21.85217361111111
 20
5.693583333333335
 10
21.85217361111111
 20
5.693583333333335
 10
21.67891666666666
 20
5.659210968147414
 10
21.67891666666666
 20
5.659210968147414
 10
21.68072361111111
 20
5.65968055555556
 10
21.69078194444445
 20
5.673909578887206
 10
21.68652916666666
 20
5.694738745027684
 10
21.68142222222223
 20
5.71975679995123
 10
21.66500138888889
 20
5.725198466480429
 10
21.66500138888889
 20
5.725198466480429
 10
21.66500138888889
 20
5.725198466480429
 10
21.84231388888889
 20
5.757656798993795
 10
21.84231388888889
 20
5.757656798993795
 10
21.84231388888889
 20
5.757656798993795
 10
21.84231250000001
 20
5.757665132326919
 10
21.84231250000001
 20
5.757665132326919
 97
        0
 97
        0
 75
     2
 76
     1
 98
        0
  0
ENDBLK
  5
15E
330
15B
100
AcDbEntity
  8
0
100
AcDbBlockEnd
  0
BLOCK
  5
164
330
162
100
AcDbEntity
  8
0
100
AcDbBlockBegin
  2
block 21
 70
     0
 10
0.0
 20
0.0
 30
0.0
  3
block 21
  1

  0
SPLINE
  5
166
330
162
100
AcDbEntity
  8
Layer 2
  6
AI-Linetype-22
 62
   250
420
  2301728
370
     9
100
AcDbSpline
210
0.0
220
0.0
230
1.0
 70
     8
 71
     3
 72
    20
 73
    16
 74
     0
 42
0.0000000001
 43
0.0000000001
 12
1.0
 22
0.0
 32
0.0
 13
1.0
 23
0.0
 33
0.0
 40
0.0
 40
0.0
 40
0.0
 40
0.0
 40
1.0
 40
1.0
 40
1.0
 40
2.0
 40
2.0
 40
2.0
 40
3.0
 40
3.0
 40
3.0
 40
4.0
 40
4.0
 40
4.0
 40
5.0
 40
5.0
 40
5.0
 40
5.0
 10
21.83326944444444
 20
5.689415134051059
 30
0.0
 10
21.83879305555554
 20
5.687734578537957
 30
0.0
 10
21.84457222222222
 20
5.688365134077584
 30
0.0
 10
21.84973194444445
 20
5.691733189548055
 30
0.0
 10
21.86221944444444
 20
5.699881800453315
 30
0.0
 10
21.86636388888888
 20
5.720966522142892
 30
0.0
 10
21.85898888888889
 20
5.738829021691648
 30
0.0
 10
21.85161527777778
 20
5.756690132351549
 30
0.0
 10
21.83551388888888
 20
5.76456513215261
 30
0.0
 10
21.82302638888889
 20
5.75641666666666
 30
0.0
 10
21.82302638888889
 20
5.75641666666666
 30
0.0
 10
21.82302638888889
 20
5.75641666666666
 30
0.0
 10
21.82302638888889
 20
5.75641666666666
 30
0.0
 10
21.82198333333334
 20
5.755736111111117
 30
0.0
 10
21.82100000000001
 20
5.75496652128398
 30
0.0
 10
21.82007499999999
 20
5.754116521305453
 30
0.0
  0
ENDBLK
  5
165
330
162
100
AcDbEntity
  8
0
100
AcDbBlockEnd
  0
BLOCK
  5
16B
330
169
100
AcDbEntity
  8
0
100
AcDbBlockBegin
  2
block 22
 70
     0
 10
0.0
 20
0.0
 30
0.0
  3
block 22
  1

  0
SPLINE
  5
16D
330
169
100
AcDbEntity
  8
Layer 2
  6
AI-Linetype-23
 62
   250
420
  2301728
370
     5
100
AcDbSpline
210
0.0
220
0.0
230
1.0
 70
     8
 71
     3
 72
    23
 73
    19
 74
     0
 42
0.0000000001
 43
0.0000000001
 12
1.0
 22
0.0
 32
0.0
 13
1.0
 23
0.0
 33
0.0
 40
0.0
 40
0.0
 40
0.0
 40
0.0
 40
1.0
 40
1.0
 40
1.0
 40
2.0
 40
2.0
 40
2.0
 40
3.0
 40
3.0
 40
3.0
 40
4.0
 40
4.0
 40
4.0
 40
5.0
 40
5.0
 40
5.0
 40
6.0
 40
6.0
 40
6.0
 40
6.0
 10
21.9819
 20
6.054713735933951
 30
0.0
 10
21.9819
 20
6.054713735933951
 30
0.0
 10
22.06895277777777
 20
6.071742902170424
 30
0.0
 10
22.06895277777777
 20
6.071742902170424
 30
0.0
 10
22.06895277777777
 20
6.071742902170424
 30
0.0
 10
22.0689486111111
 20
6.071752624392401
 30
0.0
 10
22.0689486111111
 20
6.071752624392401
 30
0.0
 10
22.0689486111111
 20
6.071752624392401
 30
0.0
 10
22.08500416666667
 20
6.07173040217074
 30
0.0
 10
22.08500416666667
 20
6.07173040217074
 30
0.0
 10
22.10773194444444
 20
6.070554013311569
 30
0.0
 10
22.11687500000001
 20
6.028559569927993
 30
0.0
 10
22.09732083333334
 20
6.015263888888891
 30
0.0
 10
22.09732083333334
 20
6.015263888888891
 30
0.0
 10
22.08137638888888
 20
6.006870681587012
 30
0.0
 10
22.08137638888888
 20
6.006870681587012
 30
0.0
 10
22.08137638888888
 20
6.006870681587012
 30
0.0
 10
21.9819
 20
5.987555555555559
 30
0.0
 10
21.9819
 20
5.987555555555559
 30
0.0
  0
HATCH
  5
16F
330
169
100
AcDbEntity
  8
Layer 2
 62
   254
420
 16376262
100
AcDbHatch
 10
0.0
 20
0.0
 30
0.0
210
0.0
220
0.0
230
1.0
  2
SOLID
 70
     1
 71
     0
 91
        1
 92
        1
 93
        2
 72
     4
 94
        3
 73
     0
 74
     0
 95
       23
 96
       19
 40
0.0
 40
0.0
 40
0.0
 40
0.0
 40
0.0138888888888889
 40
0.0138888888888889
 40
0.0138888888888889
 40
0.0277777777777778
 40
0.0277777777777778
 40
0.0277777777777778
 40
0.0416666666666667
 40
0.0416666666666667
 40
0.0416666666666667
 40
0.0555555555555556
 40
0.0555555555555556
 40
0.0555555555555556
 40
0.0694444444444444
 40
0.0694444444444444
 40
0.0694444444444444
 40
0.0833333333333333
 40
0.0833333333333333
 40
0.0833333333333333
 40
0.0833333333333333
 10
21.9819
 20
6.054713735933951
 10
21.9819
 20
6.054713735933951
 10
22.06895277777777
 20
6.071742902170424
 10
22.06895277777777
 20
6.071742902170424
 10
22.06895277777777
 20
6.071742902170424
 10
22.0689486111111
 20
6.071752624392401
 10
22.0689486111111
 20
6.071752624392401
 10
22.0689486111111
 20
6.071752624392401
 10
22.08500416666667
 20
6.07173040217074
 10
22.08500416666667
 20
6.07173040217074
 10
22.10773194444444
 20
6.070554013311569
 10
22.11687500000001
 20
6.028559569927993
 10
22.09732083333334
 20
6.015263888888891
 10
22.09732083333334
 20
6.015263888888891
 10
22.08137638888888
 20
6.006870681587012
 10
22.08137638888888
 20
6.006870681587012
 10
22.08137638888888
 20
6.006870681587012
 10
21.9819
 20
5.987555555555559
 10
21.9819
 20
5.987555555555559
 97
        0
 72
     1
 10
21.9819
 20
5.987555555555559
 11
21.9819
 21
6.054713735933951
 97
        0
 75
     2
 76
     1
 98
        0
  0
SPLINE
  5
170
330
169
100
AcDbEntity
  8
Layer 2
  6
AI-Linetype-24
 62
   250
420
  2301728
370
     5
100
AcDbSpline
210
0.0
220
0.0
230
1.0
 70
     8
 71
     3
 72
    14
 73
    10
 74
     0
 42
0.0000000001
 43
0.0000000001
 12
1.0
 22
0.0
 32
0.0
 13
1.0
 23
0.0
 33
0.0
 40
0.0
 40
0.0
 40
0.0
 40
0.0
 40
1.0
 40
1.0
 40
1.0
 40
2.0
 40
2.0
 40
2.0
 40
3.0
 40
3.0
 40
3.0
 40
3.0
 10
22.08135138888888
 20
6.007023459360931
 30
0.0
 10
22.0835486111111
 20
6.007380403796358
 30
0.0
 10
22.08568055555555
 20
6.008370681549119
 30
0.0
 10
22.08765138888889
 20
6.01005123706222
 30
0.0
 10
22.09676666666665
 20
6.01781651464383
 30
0.0
 10
22.09898611111112
 20
6.037351236372564
 30
0.0
 10
22.09260833333332
 20
6.053687347070991
 30
0.0
 10
22.08720694444444
 20
6.067523457832572
 30
0.0
 10
22.07802916666666
 20
6.073488735459654
 30
0.0
 10
22.0689486111111
 20
6.071752624392401
 30
0.0
  0
ENDBLK
  5
16C
330
169
100
AcDbEntity
  8
0
100
AcDbBlockEnd
  0
BLOCK
  5
174
330
172
100
AcDbEntity
  8
0
100
AcDbBlockBegin
  2
block 23
 70
     0
 10
0.0
 20
0.0
 30
0.0
  3
block 23
  1

  0
INSERT
  5
177
330
172
100
AcDbEntity
  8
Layer 2
100
AcDbBlockReference
  2
block 24
 10
0.0
 20
0.0
 30
0.0
  0
INSERT
  5
18B
330
172
100
AcDbEntity
  8
Layer 2
100
AcDbBlockReference
  2
block 26
 10
0.0
 20
0.0
 30
0.0
  0
SPLINE
  5
19B
330
172
100
AcDbEntity
  8
Layer 2
 62
   250
420
  2301728
370
     9
100
AcDbSpline
210
0.0
220
0.0
230
1.0
 70
    11
 71
     3
 72
    20
 73
    16
 74
     0
 42
0.0000000001
 43
0.0000000001
 12
1.0
 22
0.0
 32
0.0
 13
1.0
 23
0.0
 33
0.0
 40
0.0
 40
0.0
 40
0.0
 40
0.0
 40
1.0
 40
1.0
 40
1.0
 40
2.0
 40
2.0
 40
2.0
 40
3.0
 40
3.0
 40
3.0
 40
4.0
 40
4.0
 40
4.0
 40
5.0
 40
5.0
 40
5.0
 40
5.0
 10
21.64830416666667
 20
5.991744293080248
 30
0.0
 10
21.63700555555556
 20
5.983152777777781
 30
0.0
 10
21.63425416666668
 20
5.961535960510042
 30
0.0
 10
21.64215833333333
 20
5.943460960966655
 30
0.0
 10
21.65006388888888
 20
5.925387350312121
 30
0.0
 10
21.66563194444443
 20
5.917699850506324
 30
0.0
 10
21.67693055555555
 20
5.926291666666669
 30
0.0
 10
21.68822777777778
 20
5.934883183405569
 30
0.0
 10
21.69097916666667
 20
5.956500000000005
 30
0.0
 10
21.68307499999999
 20
5.974574849069541
 30
0.0
 10
21.67516944444444
 20
5.992648459724074
 30
0.0
 10
21.65960277777779
 20
6.000335959529871
 30
0.0
 10
21.64830416666667
 20
5.991744293080248
 30
0.0
 10
21.64830416666667
 20
5.991744293080248
 30
0.0
 10
21.64830416666667
 20
5.991744293080248
 30
0.0
 10
21.64830416666667
 20
5.991744293080248
 30
0.0
  0
ENDBLK
  5
175
330
172
100
AcDbEntity
  8
0
100
AcDbBlockEnd
  0
BLOCK
  5
178
330
176
100
AcDbEntity
  8
0
100
AcDbBlockBegin
  2
block 24
 70
     0
 10
0.0
 20
0.0
 30
0.0
  3
block 24
  1

  0
SPLINE
  5
17A
330
176
100
AcDbEntity
  8
Layer 2
 62
   250
420
  2301728
370
     9
100
AcDbSpline
210
0.0
220
0.0
230
1.0
 70
    11
 71
     3
 72
    20
 73
    16
 74
     0
 42
0.0000000001
 43
0.0000000001
 12
1.0
 22
0.0
 32
0.0
 13
1.0
 23
0.0
 33
0.0
 40
0.0
 40
0.0
 40
0.0
 40
0.0
 40
1.0
 40
1.0
 40
1.0
 40
2.0
 40
2.0
 40
2.0
 40
3.0
 40
3.0
 40
3.0
 40
4.0
 40
4.0
 40
4.0
 40
5.0
 40
5.0
 40
5.0
 40
5.0
 10
21.64830416666667
 20
5.991744293080248
 30
0.0
 10
21.63700555555556
 20
5.983152777777781
 30
0.0
 10
21.63425416666668
 20
5.961535960510042
 30
0.0
 10
21.64215833333333
 20
5.943460960966655
 30
0.0
 10
21.65006388888888
 20
5.925387350312121
 30
0.0
 10
21.66563194444443
 20
5.917699850506324
 30
0.0
 10
21.67693055555555
 20
5.926291666666669
 30
0.0
 10
21.68822777777778
 20
5.934883183405569
 30
0.0
 10
21.69097916666667
 20
5.956500000000005
 30
0.0
 10
21.68307499999999
 20
5.974574849069541
 30
0.0
 10
21.67516944444444
 20
5.992648459724074
 30
0.0
 10
21.65960277777779
 20
6.000335959529871
 30
0.0
 10
21.64830416666667
 20
5.991744293080248
 30
0.0
 10
21.64830416666667
 20
5.991744293080248
 30
0.0
 10
21.64830416666667
 20
5.991744293080248
 30
0.0
 10
21.64830416666667
 20
5.991744293080248
 30
0.0
  0
HATCH
  5
17B
330
176
100
AcDbEntity
  8
Layer 2
 62
    42
420
 15043866
100
AcDbHatch
 10
0.0
 20
0.0
 30
0.0
210
0.0
220
0.0
230
1.0
  2
SOLID
 70
     1
 71
     0
 91
        1
 92
        1
 93
        1
 72
     4
 94
        3
 73
     0
 74
     1
 95
       20
 96
       16
 40
0.0
 40
0.0
 40
0.0
 40
0.0
 40
1.0
 40
1.0
 40
1.0
 40
2.0
 40
2.0
 40
2.0
 40
3.0
 40
3.0
 40
3.0
 40
4.0
 40
4.0
 40
4.0
 40
5.0
 40
5.0
 40
5.0
 40
5.0
 10
21.64830416666667
 20
5.991744293080248
 10
21.63700555555556
 20
5.983152777777781
 10
21.63425416666668
 20
5.961535960510042
 10
21.64215833333333
 20
5.943460960966655
 10
21.65006388888888
 20
5.925387350312121
 10
21.66563194444443
 20
5.917699850506324
 10
21.67693055555555
 20
5.926291666666669
 10
21.68822777777778
 20
5.934883183405569
 10
21.69097916666667
 20
5.956500000000005
 10
21.68307499999999
 20
5.974574849069541
 10
21.67516944444444
 20
5.992648459724074
 10
21.65960277777779
 20
6.000335959529871
 10
21.64830416666667
 20
5.991744293080248
 10
21.64830416666667
 20
5.991744293080248
 10
21.64830416666667
 20
5.991744293080248
 10
21.64830416666667
 20
5.991744293080248
 97
        0
 97
        0
 75
     2
 76
     1
 98
        0
  0
POLYLINE
  5
17C
330
176
100
AcDbEntity
  8
Layer 2
 62
   250
420
  2301728
370
     5
100
AcDb2dPolyline
 66
     1
 10
0.0
 20
0.0
 30
0.0
  0
VERTEX
  5
17D
330
17C
100
AcDbEntity
  8
Layer 2
 62
   250
420
  2301728
370
     5
100
AcDbVertex
100
AcDb2dVertex
 10
21.69242500000001
 20
5.999030404007296
 30
0.0
  0
VERTEX
  5
17E
330
17C
100
AcDbEntity
  8
Layer 2
 62
   250
420
  2301728
370
     5
100
AcDbVertex
100
AcDb2dVertex
 10
21.65971111111111
 20
5.985201237689984
 30
0.0
  0
VERTEX
  5
17F
330
17C
100
AcDbEntity
  8
Layer 2
 62
   250
420
  2301728
370
     5
100
AcDbVertex
100
AcDb2dVertex
 10
21.67001250000001
 20
5.930090127971097
 30
0.0
  0
VERTEX
  5
180
330
17C
100
AcDbEntity
  8
Layer 2
 62
   250
420
  2301728
370
     5
100
AcDbVertex
100
AcDb2dVertex
 10
21.70751249999999
 20
5.933694444444439
 30
0.0
  0
VERTEX
  5
181
330
17C
100
AcDbEntity
  8
Layer 2
 62
   250
420
  2301728
370
     5
100
AcDbVertex
100
AcDb2dVertex
 10
21.69242500000001
 20
5.999030404007296
 30
0.0
  0
SEQEND
  5
183
330
17C
100
AcDbEntity
  8
Layer 2
 62
   250
420
  2301728
370
     5
  0
HATCH
  5
182
330
176
100
AcDbEntity
  8
Layer 2
 62
   254
420
 13358815
100
AcDbHatch
 10
0.0
 20
0.0
 30
0.0
210
0.0
220
0.0
230
1.0
  2
SOLID
 70
     1
 71
     0
 91
        1
 92
        1
 93
        4
 72
     1
 10
21.69242500000001
 20
5.999030404007296
 11
21.65971111111111
 21
5.985201237689984
 72
     1
 10
21.65971111111111
 20
5.985201237689984
 11
21.67001250000001
 21
5.930090127971097
 72
     1
 10
21.67001250000001
 20
5.930090127971097
 11
21.70751249999999
 21
5.933694444444439
 72
     1
 10
21.70751249999999
 20
5.933694444444439
 11
21.69242500000001
 21
5.999030404007296
 97
        0
 75
     2
 76
     1
 98
        0
  0
INSERT
  5
185
330
176
100
AcDbEntity
  8
Layer 2
100
AcDbBlockReference
  2
block 25
 10
0.0
 20
0.0
 30
0.0
  0
ENDBLK
  5
179
330
176
100
AcDbEntity
  8
0
100
AcDbBlockEnd
  0
BLOCK
  5
186
330
184
100
AcDbEntity
  8
0
100
AcDbBlockBegin
  2
block 25
 70
     0
 10
0.0
 20
0.0
 30
0.0
  3
block 25
  1

  0
SPLINE
  5
188
330
184
100
AcDbEntity
  8
Layer 2
 62
   250
420
  2301728
370
     5
100
AcDbSpline
210
0.0
220
0.0
230
1.0
 70
    11
 71
     3
 72
    20
 73
    16
 74
     0
 42
0.0000000001
 43
0.0000000001
 12
1.0
 22
0.0
 32
0.0
 13
1.0
 23
0.0
 33
0.0
 40
0.0
 40
0.0
 40
0.0
 40
0.0
 40
1.0
 40
1.0
 40
1.0
 40
2.0
 40
2.0
 40
2.0
 40
3.0
 40
3.0
 40
3.0
 40
4.0
 40
4.0
 40
4.0
 40
5.0
 40
5.0
 40
5.0
 40
5.0
 10
21.65971111111111
 20
5.985201237689984
 30
0.0
 10
21.6511125
 20
5.97894707118131
 30
0.0
 10
21.64806805555557
 20
5.962063738274487
 30
0.0
 10
21.65291388888889
 20
5.947488738642682
 30
0.0
 10
21.65775833333333
 20
5.932916666666667
 30
0.0
 10
21.66865694444444
 20
5.926170683625665
 30
0.0
 10
21.67725555555555
 20
5.932424850134339
 30
0.0
 10
21.68585555555556
 20
5.938677627754158
 30
0.0
 10
21.68889861111112
 20
5.955560960660983
 30
0.0
 10
21.68405416666666
 20
5.970135960292787
 30
0.0
 10
21.67920972222221
 20
5.984709571035737
 30
0.0
 10
21.6683111111111
 20
5.991454015309803
 30
0.0
 10
21.65971111111111
 20
5.985201237689984
 30
0.0
 10
21.65971111111111
 20
5.985201237689984
 30
0.0
 10
21.65971111111111
 20
5.985201237689984
 30
0.0
 10
21.65971111111111
 20
5.985201237689984
 30
0.0
  0
HATCH
  5
189
330
184
100
AcDbEntity
  8
Layer 2
 62
   254
420
 13358815
100
AcDbHatch
 10
0.0
 20
0.0
 30
0.0
210
0.0
220
0.0
230
1.0
  2
SOLID
 70
     1
 71
     0
 91
        1
 92
        1
 93
        1
 72
     4
 94
        3
 73
     0
 74
     1
 95
       20
 96
       16
 40
0.0
 40
0.0
 40
0.0
 40
0.0
 40
1.0
 40
1.0
 40
1.0
 40
2.0
 40
2.0
 40
2.0
 40
3.0
 40
3.0
 40
3.0
 40
4.0
 40
4.0
 40
4.0
 40
5.0
 40
5.0
 40
5.0
 40
5.0
 10
21.65971111111111
 20
5.985201237689984
 10
21.6511125
 20
5.97894707118131
 10
21.64806805555557
 20
5.962063738274487
 10
21.65291388888889
 20
5.947488738642682
 10
21.65775833333333
 20
5.932916666666667
 10
21.66865694444444
 20
5.926170683625665
 10
21.67725555555555
 20
5.932424850134339
 10
21.68585555555556
 20
5.938677627754158
 10
21.68889861111112
 20
5.955560960660983
 10
21.68405416666666
 20
5.970135960292787
 10
21.67920972222221
 20
5.984709571035737
 10
21.6683111111111
 20
5.991454015309803
 10
21.65971111111111
 20
5.985201237689984
 10
21.65971111111111
 20
5.985201237689984
 10
21.65971111111111
 20
5.985201237689984
 10
21.65971111111111
 20
5.985201237689984
 97
        0
 97
        0
 75
     2
 76
     1
 98
        0
  0
ENDBLK
  5
187
330
184
100
AcDbEntity
  8
0
100
AcDbBlockEnd
  0
BLOCK
  5
18C
330
18A
100
AcDbEntity
  8
0
100
AcDbBlockBegin
  2
block 26
 70
     0
 10
0.0
 20
0.0
 30
0.0
  3
block 26
  1

  0
INSERT
  5
18F
330
18A
100
AcDbEntity
  8
Layer 2
100
AcDbBlockReference
  2
block 27
 10
0.0
 20
0.0
 30
0.0
  0
INSERT
  5
196
330
18A
100
AcDbEntity
  8
Layer 2
100
AcDbBlockReference
  2
block 28
 10
0.0
 20
0.0
 30
0.0
  0
ENDBLK
  5
18D
330
18A
100
AcDbEntity
  8
0
100
AcDbBlockEnd
  0
BLOCK
  5
190
330
18E
100
AcDbEntity
  8
0
100
AcDbBlockBegin
  2
block 27
 70
     0
 10
0.0
 20
0.0
 30
0.0
  3
block 27
  1

  0
SPLINE
  5
192
330
18E
100
AcDbEntity
  8
Layer 2
  6
AI-Linetype-25
 62
   250
420
  2301728
370
     5
100
AcDbSpline
210
0.0
220
0.0
230
1.0
 70
    11
 71
     3
 72
    26
 73
    22
 74
     0
 42
0.0000000001
 43
0.0000000001
 12
1.0
 22
0.0
 32
0.0
 13
1.0
 23
0.0
 33
0.0
 40
0.0
 40
0.0
 40
0.0
 40
0.0
 40
1.0
 40
1.0
 40
1.0
 40
2.0
 40
2.0
 40
2.0
 40
3.0
 40
3.0
 40
3.0
 40
4.0
 40
4.0
 40
4.0
 40
5.0
 40
5.0
 40
5.0
 40
6.0
 40
6.0
 40
6.0
 40
7.0
 40
7.0
 40
7.0
 40
7.0
 10
21.84231250000001
 20
6.02647623664729
 30
0.0
 10
21.8490638888889
 20
6.023404014502678
 30
0.0
 10
21.8551875
 20
6.016849848001584
 30
0.0
 10
21.85898888888889
 20
6.007640126012019
 30
0.0
 10
21.86585972222221
 20
5.990998459765756
 30
0.0
 10
21.86273194444445
 20
5.971559571367934
 30
0.0
 10
21.85217361111111
 20
5.962394293821691
 30
0.0
 10
21.85217361111111
 20
5.962394293821691
 30
0.0
 10
21.67891666666666
 20
5.928022072467784
 30
0.0
 10
21.67891666666666
 20
5.928022072467784
 30
0.0
 10
21.68072361111111
 20
5.928492905789223
 30
0.0
 10
21.69078194444445
 20
5.942720683207577
 30
0.0
 10
21.68652916666666
 20
5.963549849348055
 30
0.0
 10
21.68142222222223
 20
5.988566515382748
 30
0.0
 10
21.66500138888889
 20
5.9940095708008
 30
0.0
 10
21.66500138888889
 20
5.9940095708008
 30
0.0
 10
21.66500138888889
 20
5.9940095708008
 30
0.0
 10
21.84231388888889
 20
6.026467903314167
 30
0.0
 10
21.84231388888889
 20
6.026467903314167
 30
0.0
 10
21.84231388888889
 20
6.026467903314167
 30
0.0
 10
21.84231250000001
 20
6.02647623664729
 30
0.0
 10
21.84231250000001
 20
6.02647623664729
 30
0.0
  0
HATCH
  5
194
330
18E
100
AcDbEntity
  8
Layer 2
 62
   254
420
 16376262
100
AcDbHatch
 10
0.0
 20
0.0
 30
0.0
210
0.0
220
0.0
230
1.0
  2
SOLID
 70
     1
 71
     0
 91
        1
 92
        1
 93
        1
 72
     4
 94
        3
 73
     0
 74
     1
 95
       26
 96
       22
 40
0.0
 40
0.0
 40
0.0
 40
0.0
 40
1.0
 40
1.0
 40
1.0
 40
2.0
 40
2.0
 40
2.0
 40
3.0
 40
3.0
 40
3.0
 40
4.0
 40
4.0
 40
4.0
 40
5.0
 40
5.0
 40
5.0
 40
6.0
 40
6.0
 40
6.0
 40
7.0
 40
7.0
 40
7.0
 40
7.0
 10
21.84231250000001
 20
6.02647623664729
 10
21.8490638888889
 20
6.023404014502678
 10
21.8551875
 20
6.016849848001584
 10
21.85898888888889
 20
6.007640126012019
 10
21.86585972222221
 20
5.990998459765756
 10
21.86273194444445
 20
5.971559571367934
 10
21.85217361111111
 20
5.962394293821691
 10
21.85217361111111
 20
5.962394293821691
 10
21.67891666666666
 20
5.928022072467784
 10
21.67891666666666
 20
5.928022072467784
 10
21.68072361111111
 20
5.928492905789223
 10
21.69078194444445
 20
5.942720683207577
 10
21.68652916666666
 20
5.963549849348055
 10
21.68142222222223
 20
5.988566515382748
 10
21.66500138888889
 20
5.9940095708008
 10
21.66500138888889
 20
5.9940095708008
 10
21.66500138888889
 20
5.9940095708008
 10
21.84231388888889
 20
6.026467903314167
 10
21.84231388888889
 20
6.026467903314167
 10
21.84231388888889
 20
6.026467903314167
 10
21.84231250000001
 20
6.02647623664729
 10
21.84231250000001
 20
6.02647623664729
 97
        0
 97
        0
 75
     2
 76
     1
 98
        0
  0
ENDBLK
  5
191
330
18E
100
AcDbEntity
  8
0
100
AcDbBlockEnd
  0
BLOCK
  5
197
330
195
100
AcDbEntity
  8
0
100
AcDbBlockBegin
  2
block 28
 70
     0
 10
0.0
 20
0.0
 30
0.0
  3
block 28
  1

  0
SPLINE
  5
199
330
195
100
AcDbEntity
  8
Layer 2
  6
AI-Linetype-26
 62
   250
420
  2301728
370
     9
100
AcDbSpline
210
0.0
220
0.0
230
1.0
 70
     8
 71
     3
 72
    20
 73
    16
 74
     0
 42
0.0000000001
 43
0.0000000001
 12
1.0
 22
0.0
 32
0.0
 13
1.0
 23
0.0
 33
0.0
 40
0.0
 40
0.0
 40
0.0
 40
0.0
 40
1.0
 40
1.0
 40
1.0
 40
2.0
 40
2.0
 40
2.0
 40
3.0
 40
3.0
 40
3.0
 40
4.0
 40
4.0
 40
4.0
 40
5.0
 40
5.0
 40
5.0
 40
5.0
 10
21.83326944444444
 20
5.95822623837143
 30
0.0
 10
21.83879305555554
 20
5.956545682858328
 30
0.0
 10
21.84457222222222
 20
5.957176238397955
 30
0.0
 10
21.84973194444445
 20
5.960544293868426
 30
0.0
 10
21.86221944444444
 20
5.968691515884832
 30
0.0
 10
21.86636388888888
 20
5.989777777777779
 30
0.0
 10
21.85898888888889
 20
6.007640126012019
 30
0.0
 10
21.85161527777778
 20
6.025501236671921
 30
0.0
 10
21.83551388888888
 20
6.033377625361835
 30
0.0
 10
21.82302638888889
 20
6.025227625567721
 30
0.0
 10
21.82302638888889
 20
6.025227625567721
 30
0.0
 10
21.82302638888889
 20
6.025227625567721
 30
0.0
 10
21.82302638888889
 20
6.025227625567721
 30
0.0
 10
21.82198333333334
 20
6.024547070029358
 30
0.0
 10
21.82100000000001
 20
6.023777777777771
 30
0.0
 10
21.82007499999999
 20
6.02292623673697
 30
0.0
  0
ENDBLK
  5
198
330
195
100
AcDbEntity
  8
0
100
AcDbBlockEnd
  0
BLOCK
  5
19E
330
19C
100
AcDbEntity
  8
0
100
AcDbBlockBegin
  2
block 29
 70
     0
 10
0.0
 20
0.0
 30
0.0
  3
block 29
  1

  0
SPLINE
  5
1A0
330
19C
100
AcDbEntity
  8
Layer 2
  6
AI-Linetype-27
 62
   250
420
  2301728
370
     5
100
AcDbSpline
210
0.0
220
0.0
230
1.0
 70
     8
 71
     3
 72
    23
 73
    19
 74
     0
 42
0.0000000001
 43
0.0000000001
 12
1.0
 22
0.0
 32
0.0
 13
1.0
 23
0.0
 33
0.0
 40
0.0
 40
0.0
 40
0.0
 40
0.0
 40
1.0
 40
1.0
 40
1.0
 40
2.0
 40
2.0
 40
2.0
 40
3.0
 40
3.0
 40
3.0
 40
4.0
 40
4.0
 40
4.0
 40
5.0
 40
5.0
 40
5.0
 40
6.0
 40
6.0
 40
6.0
 40
6.0
 10
21.9819
 20
6.669724831508574
 30
0.0
 10
21.9819
 20
6.669724831508574
 30
0.0
 10
22.06895277777777
 20
6.686753997745048
 30
0.0
 10
22.06895277777777
 20
6.686753997745048
 30
0.0
 10
22.06895277777777
 20
6.686753997745048
 30
0.0
 10
22.0689486111111
 20
6.686765108855878
 30
0.0
 10
22.0689486111111
 20
6.686765108855878
 30
0.0
 10
22.0689486111111
 20
6.686765108855878
 30
0.0
 10
22.08500416666667
 20
6.686742886634217
 30
0.0
 10
22.08500416666667
 20
6.686742886634217
 30
0.0
 10
22.10773194444444
 20
6.685565108886193
 30
0.0
 10
22.11687500000001
 20
6.643572054391471
 30
0.0
 10
22.09732083333334
 20
6.630274832505165
 30
0.0
 10
22.09732083333334
 20
6.630274832505165
 30
0.0
 10
22.08137638888888
 20
6.621883166050489
 30
0.0
 10
22.08137638888888
 20
6.621883166050489
 30
0.0
 10
22.08137638888888
 20
6.621883166050489
 30
0.0
 10
21.9819
 20
6.602567888760657
 30
0.0
 10
21.9819
 20
6.602567888760657
 30
0.0
  0
HATCH
  5
1A2
330
19C
100
AcDbEntity
  8
Layer 2
 62
   254
420
 16376262
100
AcDbHatch
 10
0.0
 20
0.0
 30
0.0
210
0.0
220
0.0
230
1.0
  2
SOLID
 70
     1
 71
     0
 91
        1
 92
        1
 93
        2
 72
     4
 94
        3
 73
     0
 74
     0
 95
       23
 96
       19
 40
0.0
 40
0.0
 40
0.0
 40
0.0
 40
0.0138888888888889
 40
0.0138888888888889
 40
0.0138888888888889
 40
0.0277777777777778
 40
0.0277777777777778
 40
0.0277777777777778
 40
0.0416666666666667
 40
0.0416666666666667
 40
0.0416666666666667
 40
0.0555555555555556
 40
0.0555555555555556
 40
0.0555555555555556
 40
0.0694444444444444
 40
0.0694444444444444
 40
0.0694444444444444
 40
0.0833333333333333
 40
0.0833333333333333
 40
0.0833333333333333
 40
0.0833333333333333
 10
21.9819
 20
6.669724831508574
 10
21.9819
 20
6.669724831508574
 10
22.06895277777777
 20
6.686753997745048
 10
22.06895277777777
 20
6.686753997745048
 10
22.06895277777777
 20
6.686753997745048
 10
22.0689486111111
 20
6.686765108855878
 10
22.0689486111111
 20
6.686765108855878
 10
22.0689486111111
 20
6.686765108855878
 10
22.08500416666667
 20
6.686742886634217
 10
22.08500416666667
 20
6.686742886634217
 10
22.10773194444444
 20
6.685565108886193
 10
22.11687500000001
 20
6.643572054391471
 10
22.09732083333334
 20
6.630274832505165
 10
22.09732083333334
 20
6.630274832505165
 10
22.08137638888888
 20
6.621883166050489
 10
22.08137638888888
 20
6.621883166050489
 10
22.08137638888888
 20
6.621883166050489
 10
21.9819
 20
6.602567888760657
 10
21.9819
 20
6.602567888760657
 97
        0
 72
     1
 10
21.9819
 20
6.602567888760657
 11
21.9819
 21
6.669724831508574
 97
        0
 75
     2
 76
     1
 98
        0
  0
SPLINE
  5
1A3
330
19C
100
AcDbEntity
  8
Layer 2
  6
AI-Linetype-28
 62
   250
420
  2301728
370
     5
100
AcDbSpline
210
0.0
220
0.0
230
1.0
 70
     8
 71
     3
 72
    14
 73
    10
 74
     0
 42
0.0000000001
 43
0.0000000001
 12
1.0
 22
0.0
 32
0.0
 13
1.0
 23
0.0
 33
0.0
 40
0.0
 40
0.0
 40
0.0
 40
0.0
 40
1.0
 40
1.0
 40
1.0
 40
2.0
 40
2.0
 40
2.0
 40
3.0
 40
3.0
 40
3.0
 40
3.0
 10
22.08135138888888
 20
6.622034554935554
 30
0.0
 10
22.0835486111111
 20
6.622391499370981
 30
0.0
 10
22.08568055555555
 20
6.623383166012596
 30
0.0
 10
22.08765138888889
 20
6.625063721525698
 30
0.0
 10
22.09676666666665
 20
6.632827610218454
 30
0.0
 10
22.09898611111112
 20
6.652363720836042
 30
0.0
 10
22.09260833333332
 20
6.668698442645614
 30
0.0
 10
22.08720694444444
 20
6.682534553407195
 30
0.0
 10
22.07802916666666
 20
6.688500000000001
 30
0.0
 10
22.0689486111111
 20
6.686765108855878
 30
0.0
  0
ENDBLK
  5
19F
330
19C
100
AcDbEntity
  8
0
100
AcDbBlockEnd
  0
BLOCK
  5
1A7
330
1A5
100
AcDbEntity
  8
0
100
AcDbBlockBegin
  2
block 30
 70
     0
 10
0.0
 20
0.0
 30
0.0
  3
block 30
  1

  0
INSERT
  5
1AA
330
1A5
100
AcDbEntity
  8
Layer 2
100
AcDbBlockReference
  2
block 31
 10
0.0
 20
0.0
 30
0.0
  0
INSERT
  5
1BE
330
1A5
100
AcDbEntity
  8
Layer 2
100
AcDbBlockReference
  2
block 33
 10
0.0
 20
0.0
 30
0.0
  0
SPLINE
  5
1CE
330
1A5
100
AcDbEntity
  8
Layer 2
 62
   250
420
  2301728
370
     9
100
AcDbSpline
210
0.0
220
0.0
230
1.0
 70
    11
 71
     3
 72
    20
 73
    16
 74
     0
 42
0.0000000001
 43
0.0000000001
 12
1.0
 22
0.0
 32
0.0
 13
1.0
 23
0.0
 33
0.0
 40
0.0
 40
0.0
 40
0.0
 40
0.0
 40
1.0
 40
1.0
 40
1.0
 40
2.0
 40
2.0
 40
2.0
 40
3.0
 40
3.0
 40
3.0
 40
4.0
 40
4.0
 40
4.0
 40
5.0
 40
5.0
 40
5.0
 40
5.0
 10
21.64830416666667
 20
6.606755388654872
 30
0.0
 10
21.63700555555556
 20
6.598165111094103
 30
0.0
 10
21.63425416666668
 20
6.576548444973518
 30
0.0
 10
21.64215833333333
 20
6.558473445430131
 30
0.0
 10
21.65006388888888
 20
6.540398445886744
 30
0.0
 10
21.66563194444443
 20
6.532710946080947
 30
0.0
 10
21.67693055555555
 20
6.541304001419424
 30
0.0
 10
21.68822777777778
 20
6.549895667869047
 30
0.0
 10
21.69097916666667
 20
6.571512333989631
 30
0.0
 10
21.68307499999999
 20
6.589587333533018
 30
0.0
 10
21.67516944444444
 20
6.60766094418755
 30
0.0
 10
21.65960277777779
 20
6.615347222222226
 30
0.0
 10
21.64830416666667
 20
6.606755388654872
 30
0.0
 10
21.64830416666667
 20
6.606755388654872
 30
0.0
 10
21.64830416666667
 20
6.606755388654872
 30
0.0
 10
21.64830416666667
 20
6.606755388654872
 30
0.0
  0
ENDBLK
  5
1A8
330
1A5
100
AcDbEntity
  8
0
100
AcDbBlockEnd
  0
BLOCK
  5
1AB
330
1A9
100
AcDbEntity
  8
0
100
AcDbBlockBegin
  2
block 31
 70
     0
 10
0.0
 20
0.0
 30
0.0
  3
block 31
  1

  0
SPLINE
  5
1AD
330
1A9
100
AcDbEntity
  8
Layer 2
 62
   250
420
  2301728
370
     9
100
AcDbSpline
210
0.0
220
0.0
230
1.0
 70
    11
 71
     3
 72
    20
 73
    16
 74
     0
 42
0.0000000001
 43
0.0000000001
 12
1.0
 22
0.0
 32
0.0
 13
1.0
 23
0.0
 33
0.0
 40
0.0
 40
0.0
 40
0.0
 40
0.0
 40
1.0
 40
1.0
 40
1.0
 40
2.0
 40
2.0
 40
2.0
 40
3.0
 40
3.0
 40
3.0
 40
4.0
 40
4.0
 40
4.0
 40
5.0
 40
5.0
 40
5.0
 40
5.0
 10
21.64830416666667
 20
6.606755388654872
 30
0.0
 10
21.63700555555556
 20
6.598165111094103
 30
0.0
 10
21.63425416666668
 20
6.576548444973518
 30
0.0
 10
21.64215833333333
 20
6.558473445430131
 30
0.0
 10
21.65006388888888
 20
6.540398445886744
 30
0.0
 10
21.66563194444443
 20
6.532710946080947
 30
0.0
 10
21.67693055555555
 20
6.541304001419424
 30
0.0
 10
21.68822777777778
 20
6.549895667869047
 30
0.0
 10
21.69097916666667
 20
6.571512333989631
 30
0.0
 10
21.68307499999999
 20
6.589587333533018
 30
0.0
 10
21.67516944444444
 20
6.60766094418755
 30
0.0
 10
21.65960277777779
 20
6.615347222222226
 30
0.0
 10
21.64830416666667
 20
6.606755388654872
 30
0.0
 10
21.64830416666667
 20
6.606755388654872
 30
0.0
 10
21.64830416666667
 20
6.606755388654872
 30
0.0
 10
21.64830416666667
 20
6.606755388654872
 30
0.0
  0
HATCH
  5
1AE
330
1A9
100
AcDbEntity
  8
Layer 2
 62
    42
420
 15043866
100
AcDbHatch
 10
0.0
 20
0.0
 30
0.0
210
0.0
220
0.0
230
1.0
  2
SOLID
 70
     1
 71
     0
 91
        1
 92
        1
 93
        1
 72
     4
 94
        3
 73
     0
 74
     1
 95
       20
 96
       16
 40
0.0
 40
0.0
 40
0.0
 40
0.0
 40
1.0
 40
1.0
 40
1.0
 40
2.0
 40
2.0
 40
2.0
 40
3.0
 40
3.0
 40
3.0
 40
4.0
 40
4.0
 40
4.0
 40
5.0
 40
5.0
 40
5.0
 40
5.0
 10
21.64830416666667
 20
6.606755388654872
 10
21.63700555555556
 20
6.598165111094103
 10
21.63425416666668
 20
6.576548444973518
 10
21.64215833333333
 20
6.558473445430131
 10
21.65006388888888
 20
6.540398445886744
 10
21.66563194444443
 20
6.532710946080947
 10
21.67693055555555
 20
6.541304001419424
 10
21.68822777777778
 20
6.549895667869047
 10
21.69097916666667
 20
6.571512333989631
 10
21.68307499999999
 20
6.589587333533018
 10
21.67516944444444
 20
6.60766094418755
 10
21.65960277777779
 20
6.615347222222226
 10
21.64830416666667
 20
6.606755388654872
 10
21.64830416666667
 20
6.606755388654872
 10
21.64830416666667
 20
6.606755388654872
 10
21.64830416666667
 20
6.606755388654872
 97
        0
 97
        0
 75
     2
 76
     1
 98
        0
  0
POLYLINE
  5
1AF
330
1A9
100
AcDbEntity
  8
Layer 2
 62
   250
420
  2301728
370
     5
100
AcDb2dPolyline
 66
     1
 10
0.0
 20
0.0
 30
0.0
  0
VERTEX
  5
1B0
330
1AF
100
AcDbEntity
  8
Layer 2
 62
   250
420
  2301728
370
     5
100
AcDbVertex
100
AcDb2dVertex
 10
21.69242500000001
 20
6.61404166666667
 30
0.0
  0
VERTEX
  5
1B1
330
1AF
100
AcDbEntity
  8
Layer 2
 62
   250
420
  2301728
370
     5
100
AcDbVertex
100
AcDb2dVertex
 10
21.65971111111111
 20
6.600212333264608
 30
0.0
  0
VERTEX
  5
1B2
330
1AF
100
AcDbEntity
  8
Layer 2
 62
   250
420
  2301728
370
     5
100
AcDbVertex
100
AcDb2dVertex
 10
21.67001250000001
 20
6.545102612434574
 30
0.0
  0
VERTEX
  5
1B3
330
1AF
100
AcDbEntity
  8
Layer 2
 62
   250
420
  2301728
370
     5
100
AcDbVertex
100
AcDb2dVertex
 10
21.70751249999999
 20
6.548706779010192
 30
0.0
  0
VERTEX
  5
1B4
330
1AF
100
AcDbEntity
  8
Layer 2
 62
   250
420
  2301728
370
     5
100
AcDbVertex
100
AcDb2dVertex
 10
21.69242500000001
 20
6.61404166666667
 30
0.0
  0
SEQEND
  5
1B6
330
1AF
100
AcDbEntity
  8
Layer 2
 62
   250
420
  2301728
370
     5
  0
HATCH
  5
1B5
330
1A9
100
AcDbEntity
  8
Layer 2
 62
   254
420
 13358815
100
AcDbHatch
 10
0.0
 20
0.0
 30
0.0
210
0.0
220
0.0
230
1.0
  2
SOLID
 70
     1
 71
     0
 91
        1
 92
        1
 93
        4
 72
     1
 10
21.69242500000001
 20
6.61404166666667
 11
21.65971111111111
 21
6.600212333264608
 72
     1
 10
21.65971111111111
 20
6.600212333264608
 11
21.67001250000001
 21
6.545102612434574
 72
     1
 10
21.67001250000001
 20
6.545102612434574
 11
21.70751249999999
 21
6.548706779010192
 72
     1
 10
21.70751249999999
 20
6.548706779010192
 11
21.69242500000001
 21
6.61404166666667
 97
        0
 75
     2
 76
     1
 98
        0
  0
INSERT
  5
1B8
330
1A9
100
AcDbEntity
  8
Layer 2
100
AcDbBlockReference
  2
block 32
 10
0.0
 20
0.0
 30
0.0
  0
ENDBLK
  5
1AC
330
1A9
100
AcDbEntity
  8
0
100
AcDbBlockEnd
  0
BLOCK
  5
1B9
330
1B7
100
AcDbEntity
  8
0
100
AcDbBlockBegin
  2
block 32
 70
     0
 10
0.0
 20
0.0
 30
0.0
  3
block 32
  1

  0
SPLINE
  5
1BB
330
1B7
100
AcDbEntity
  8
Layer 2
 62
   250
420
  2301728
370
     5
100
AcDbSpline
210
0.0
220
0.0
230
1.0
 70
    11
 71
     3
 72
    20
 73
    16
 74
     0
 42
0.0000000001
 43
0.0000000001
 12
1.0
 22
0.0
 32
0.0
 13
1.0
 23
0.0
 33
0.0
 40
0.0
 40
0.0
 40
0.0
 40
0.0
 40
1.0
 40
1.0
 40
1.0
 40
2.0
 40
2.0
 40
2.0
 40
3.0
 40
3.0
 40
3.0
 40
4.0
 40
4.0
 40
4.0
 40
5.0
 40
5.0
 40
5.0
 40
5.0
 10
21.65971111111111
 20
6.600212333264608
 30
0.0
 10
21.6511125
 20
6.593959555644788
 30
0.0
 10
21.64806805555557
 20
6.57707483384911
 30
0.0
 10
21.65291388888889
 20
6.562501223106159
 30
0.0
 10
21.65775833333333
 20
6.547929001252062
 30
0.0
 10
21.66865694444444
 20
6.541183168089143
 30
0.0
 10
21.67725555555555
 20
6.547437334597817
 30
0.0
 10
21.68585555555556
 20
6.553690112217636
 30
0.0
 10
21.68889861111112
 20
6.57057344512446
 30
0.0
 10
21.68405416666666
 20
6.58514705586741
 30
0.0
 10
21.67920972222221
 20
6.599720666610361
 30
0.0
 10
21.6683111111111
 20
6.606466499773281
 30
0.0
 10
21.65971111111111
 20
6.600212333264608
 30
0.0
 10
21.65971111111111
 20
6.600212333264608
 30
0.0
 10
21.65971111111111
 20
6.600212333264608
 30
0.0
 10
21.65971111111111
 20
6.600212333264608
 30
0.0
  0
HATCH
  5
1BC
330
1B7
100
AcDbEntity
  8
Layer 2
 62
   254
420
 13358815
100
AcDbHatch
 10
0.0
 20
0.0
 30
0.0
210
0.0
220
0.0
230
1.0
  2
SOLID
 70
     1
 71
     0
 91
        1
 92
        1
 93
        1
 72
     4
 94
        3
 73
     0
 74
     1
 95
       20
 96
       16
 40
0.0
 40
0.0
 40
0.0
 40
0.0
 40
1.0
 40
1.0
 40
1.0
 40
2.0
 40
2.0
 40
2.0
 40
3.0
 40
3.0
 40
3.0
 40
4.0
 40
4.0
 40
4.0
 40
5.0
 40
5.0
 40
5.0
 40
5.0
 10
21.65971111111111
 20
6.600212333264608
 10
21.6511125
 20
6.593959555644788
 10
21.64806805555557
 20
6.57707483384911
 10
21.65291388888889
 20
6.562501223106159
 10
21.65775833333333
 20
6.547929001252062
 10
21.66865694444444
 20
6.541183168089143
 10
21.67725555555555
 20
6.547437334597817
 10
21.68585555555556
 20
6.553690112217636
 10
21.68889861111112
 20
6.57057344512446
 10
21.68405416666666
 20
6.58514705586741
 10
21.67920972222221
 20
6.599720666610361
 10
21.6683111111111
 20
6.606466499773281
 10
21.65971111111111
 20
6.600212333264608
 10
21.65971111111111
 20
6.600212333264608
 10
21.65971111111111
 20
6.600212333264608
 10
21.65971111111111
 20
6.600212333264608
 97
        0
 97
        0
 75
     2
 76
     1
 98
        0
  0
ENDBLK
  5
1BA
330
1B7
100
AcDbEntity
  8
0
100
AcDbBlockEnd
  0
BLOCK
  5
1BF
330
1BD
100
AcDbEntity
  8
0
100
AcDbBlockBegin
  2
block 33
 70
     0
 10
0.0
 20
0.0
 30
0.0
  3
block 33
  1

  0
INSERT
  5
1C2
330
1BD
100
AcDbEntity
  8
Layer 2
100
AcDbBlockReference
  2
block 34
 10
0.0
 20
0.0
 30
0.0
  0
INSERT
  5
1C9
330
1BD
100
AcDbEntity
  8
Layer 2
100
AcDbBlockReference
  2
block 35
 10
0.0
 20
0.0
 30
0.0
  0
ENDBLK
  5
1C0
330
1BD
100
AcDbEntity
  8
0
100
AcDbBlockEnd
  0
BLOCK
  5
1C3
330
1C1
100
AcDbEntity
  8
0
100
AcDbBlockBegin
  2
block 34
 70
     0
 10
0.0
 20
0.0
 30
0.0
  3
block 34
  1

  0
SPLINE
  5
1C5
330
1C1
100
AcDbEntity
  8
Layer 2
  6
AI-Linetype-29
 62
   250
420
  2301728
370
     5
100
AcDbSpline
210
0.0
220
0.0
230
1.0
 70
    11
 71
     3
 72
    26
 73
    22
 74
     0
 42
0.0000000001
 43
0.0000000001
 12
1.0
 22
0.0
 32
0.0
 13
1.0
 23
0.0
 33
0.0
 40
0.0
 40
0.0
 40
0.0
 40
0.0
 40
1.0
 40
1.0
 40
1.0
 40
2.0
 40
2.0
 40
2.0
 40
3.0
 40
3.0
 40
3.0
 40
4.0
 40
4.0
 40
4.0
 40
5.0
 40
5.0
 40
5.0
 40
6.0
 40
6.0
 40
6.0
 40
7.0
 40
7.0
 40
7.0
 40
7.0
 10
21.84231250000001
 20
6.641488721110767
 30
0.0
 10
21.8490638888889
 20
6.638416666666672
 30
0.0
 10
21.8551875
 20
6.631861111111107
 30
0.0
 10
21.85898888888889
 20
6.622651221586643
 30
0.0
 10
21.86585972222221
 20
6.606010944229233
 30
0.0
 10
21.86273194444445
 20
6.586572055831412
 30
0.0
 10
21.85217361111111
 20
6.577406778285169
 30
0.0
 10
21.85217361111111
 20
6.577406778285169
 30
0.0
 10
21.67891666666666
 20
6.543034556931262
 30
0.0
 10
21.67891666666666
 20
6.543034556931262
 30
0.0
 10
21.68072361111111
 20
6.543504001363847
 30
0.0
 10
21.69078194444445
 20
6.557733167671055
 30
0.0
 10
21.68652916666666
 20
6.578560944922678
 30
0.0
 10
21.68142222222223
 20
6.603578999846225
 30
0.0
 10
21.66500138888889
 20
6.609020666375423
 30
0.0
 10
21.66500138888889
 20
6.609020666375423
 30
0.0
 10
21.66500138888889
 20
6.609020666375423
 30
0.0
 10
21.84231388888889
 20
6.641480387777644
 30
0.0
 10
21.84231388888889
 20
6.641480387777644
 30
0.0
 10
21.84231388888889
 20
6.641480387777644
 30
0.0
 10
21.84231250000001
 20
6.641488721110767
 30
0.0
 10
21.84231250000001
 20
6.641488721110767
 30
0.0
  0
HATCH
  5
1C7
330
1C1
100
AcDbEntity
  8
Layer 2
 62
   254
420
 16376262
100
AcDbHatch
 10
0.0
 20
0.0
 30
0.0
210
0.0
220
0.0
230
1.0
  2
SOLID
 70
     1
 71
     0
 91
        1
 92
        1
 93
        1
 72
     4
 94
        3
 73
     0
 74
     1
 95
       26
 96
       22
 40
0.0
 40
0.0
 40
0.0
 40
0.0
 40
1.0
 40
1.0
 40
1.0
 40
2.0
 40
2.0
 40
2.0
 40
3.0
 40
3.0
 40
3.0
 40
4.0
 40
4.0
 40
4.0
 40
5.0
 40
5.0
 40
5.0
 40
6.0
 40
6.0
 40
6.0
 40
7.0
 40
7.0
 40
7.0
 40
7.0
 10
21.84231250000001
 20
6.641488721110767
 10
21.8490638888889
 20
6.638416666666672
 10
21.8551875
 20
6.631861111111107
 10
21.85898888888889
 20
6.622651221586643
 10
21.86585972222221
 20
6.606010944229233
 10
21.86273194444445
 20
6.586572055831412
 10
21.85217361111111
 20
6.577406778285169
 10
21.85217361111111
 20
6.577406778285169
 10
21.67891666666666
 20
6.543034556931262
 10
21.67891666666666
 20
6.543034556931262
 10
21.68072361111111
 20
6.543504001363847
 10
21.69078194444445
 20
6.557733167671055
 10
21.68652916666666
 20
6.578560944922678
 10
21.68142222222223
 20
6.603578999846225
 10
21.66500138888889
 20
6.609020666375423
 10
21.66500138888889
 20
6.609020666375423
 10
21.66500138888889
 20
6.609020666375423
 10
21.84231388888889
 20
6.641480387777644
 10
21.84231388888889
 20
6.641480387777644
 10
21.84231388888889
 20
6.641480387777644
 10
21.84231250000001
 20
6.641488721110767
 10
21.84231250000001
 20
6.641488721110767
 97
        0
 97
        0
 75
     2
 76
     1
 98
        0
  0
ENDBLK
  5
1C4
330
1C1
100
AcDbEntity
  8
0
100
AcDbBlockEnd
  0
BLOCK
  5
1CA
330
1C8
100
AcDbEntity
  8
0
100
AcDbBlockBegin
  2
block 35
 70
     0
 10
0.0
 20
0.0
 30
0.0
  3
block 35
  1

  0
SPLINE
  5
1CC
330
1C8
100
AcDbEntity
  8
Layer 2
  6
AI-Linetype-30
 62
   250
420
  2301728
370
     9
100
AcDbSpline
210
0.0
220
0.0
230
1.0
 70
     8
 71
     3
 72
    20
 73
    16
 74
     0
 42
0.0000000001
 43
0.0000000001
 12
1.0
 22
0.0
 32
0.0
 13
1.0
 23
0.0
 33
0.0
 40
0.0
 40
0.0
 40
0.0
 40
0.0
 40
1.0
 40
1.0
 40
1.0
 40
2.0
 40
2.0
 40
2.0
 40
3.0
 40
3.0
 40
3.0
 40
4.0
 40
4.0
 40
4.0
 40
5.0
 40
5.0
 40
5.0
 40
5.0
 10
21.83326944444444
 20
6.573237333946054
 30
0.0
 10
21.83879305555554
 20
6.571558167321806
 30
0.0
 10
21.84457222222222
 20
6.572188722861433
 30
0.0
 10
21.84973194444445
 20
6.57555555555555
 30
0.0
 10
21.86221944444444
 20
6.58370400034831
 30
0.0
 10
21.86636388888888
 20
6.604790110926741
 30
0.0
 10
21.85898888888889
 20
6.622651221586643
 30
0.0
 10
21.85161527777778
 20
6.640513888888891
 30
0.0
 10
21.83551388888888
 20
6.648388888888891
 30
0.0
 10
21.82302638888889
 20
6.640240110031199
 30
0.0
 10
21.82302638888889
 20
6.640240110031199
 30
0.0
 10
21.82302638888889
 20
6.640240110031199
 30
0.0
 10
21.82302638888889
 20
6.640240110031199
 30
0.0
 10
21.82198333333334
 20
6.639559554492835
 30
0.0
 10
21.82100000000001
 20
6.638790110067829
 30
0.0
 10
21.82007499999999
 20
6.637938721200448
 30
0.0
  0
ENDBLK
  5
1CB
330
1C8
100
AcDbEntity
  8
0
100
AcDbBlockEnd
  0
BLOCK
  5
1D1
330
1CF
100
AcDbEntity
  8
0
100
AcDbBlockBegin
  2
block 36
 70
     0
 10
0.0
 20
0.0
 30
0.0
  3
block 36
  1

  0
SPLINE
  5
1D3
330
1CF
100
AcDbEntity
  8
Layer 2
  6
AI-Linetype-31
 62
   250
420
  2301728
370
     5
100
AcDbSpline
210
0.0
220
0.0
230
1.0
 70
     8
 71
     3
 72
    23
 73
    19
 74
     0
 42
0.0000000001
 43
0.0000000001
 12
1.0
 22
0.0
 32
0.0
 13
1.0
 23
0.0
 33
0.0
 40
0.0
 40
0.0
 40
0.0
 40
0.0
 40
1.0
 40
1.0
 40
1.0
 40
2.0
 40
2.0
 40
2.0
 40
3.0
 40
3.0
 40
3.0
 40
4.0
 40
4.0
 40
4.0
 40
5.0
 40
5.0
 40
5.0
 40
6.0
 40
6.0
 40
6.0
 40
6.0
 10
21.9819
 20
6.940678991330363
 30
0.0
 10
21.9819
 20
6.940678991330363
 30
0.0
 10
22.06895277777777
 20
6.957708333333332
 30
0.0
 10
22.06895277777777
 20
6.957708333333332
 30
0.0
 10
22.06895277777777
 20
6.957708333333332
 30
0.0
 10
22.0689486111111
 20
6.957719268677667
 30
0.0
 10
22.0689486111111
 20
6.957719268677667
 30
0.0
 10
22.0689486111111
 20
6.957719268677667
 30
0.0
 10
22.08500416666667
 20
6.957695657567152
 30
0.0
 10
22.08500416666667
 20
6.957695657567152
 30
0.0
 10
22.10773194444444
 20
6.956520657596835
 30
0.0
 10
22.11687500000001
 20
6.91452621421326
 30
0.0
 10
22.09732083333334
 20
6.901230381215807
 30
0.0
 10
22.09732083333334
 20
6.901230381215807
 30
0.0
 10
22.08137638888888
 20
6.892837325872279
 30
0.0
 10
22.08137638888888
 20
6.892837325872279
 30
0.0
 10
22.08137638888888
 20
6.892837325872279
 30
0.0
 10
21.9819
 20
6.873520659693591
 30
0.0
 10
21.9819
 20
6.873520659693591
 30
0.0
  0
HATCH
  5
1D5
330
1CF
100
AcDbEntity
  8
Layer 2
 62
   254
420
 16376262
100
AcDbHatch
 10
0.0
 20
0.0
 30
0.0
210
0.0
220
0.0
230
1.0
  2
SOLID
 70
     1
 71
     0
 91
        1
 92
        1
 93
        2
 72
     4
 94
        3
 73
     0
 74
     0
 95
       23
 96
       19
 40
0.0
 40
0.0
 40
0.0
 40
0.0
 40
0.0138888888888889
 40
0.0138888888888889
 40
0.0138888888888889
 40
0.0277777777777778
 40
0.0277777777777778
 40
0.0277777777777778
 40
0.0416666666666667
 40
0.0416666666666667
 40
0.0416666666666667
 40
0.0555555555555556
 40
0.0555555555555556
 40
0.0555555555555556
 40
0.0694444444444444
 40
0.0694444444444444
 40
0.0694444444444444
 40
0.0833333333333333
 40
0.0833333333333333
 40
0.0833333333333333
 40
0.0833333333333333
 10
21.9819
 20
6.940678991330363
 10
21.9819
 20
6.940678991330363
 10
22.06895277777777
 20
6.957708333333332
 10
22.06895277777777
 20
6.957708333333332
 10
22.06895277777777
 20
6.957708333333332
 10
22.0689486111111
 20
6.957719268677667
 10
22.0689486111111
 20
6.957719268677667
 10
22.0689486111111
 20
6.957719268677667
 10
22.08500416666667
 20
6.957695657567152
 10
22.08500416666667
 20
6.957695657567152
 10
22.10773194444444
 20
6.956520657596835
 10
22.11687500000001
 20
6.91452621421326
 10
22.09732083333334
 20
6.901230381215807
 10
22.09732083333334
 20
6.901230381215807
 10
22.08137638888888
 20
6.892837325872279
 10
22.08137638888888
 20
6.892837325872279
 10
22.08137638888888
 20
6.892837325872279
 10
21.9819
 20
6.873520659693591
 10
21.9819
 20
6.873520659693591
 97
        0
 72
     1
 10
21.9819
 20
6.873520659693591
 11
21.9819
 21
6.940678991330363
 97
        0
 75
     2
 76
     1
 98
        0
  0
SPLINE
  5
1D6
330
1CF
100
AcDbEntity
  8
Layer 2
  6
AI-Linetype-32
 62
   250
420
  2301728
370
     5
100
AcDbSpline
210
0.0
220
0.0
230
1.0
 70
     8
 71
     3
 72
    14
 73
    10
 74
     0
 42
0.0000000001
 43
0.0000000001
 12
1.0
 22
0.0
 32
0.0
 13
1.0
 23
0.0
 33
0.0
 40
0.0
 40
0.0
 40
0.0
 40
0.0
 40
1.0
 40
1.0
 40
1.0
 40
2.0
 40
2.0
 40
2.0
 40
3.0
 40
3.0
 40
3.0
 40
3.0
 10
22.08135138888888
 20
6.892990103646197
 30
0.0
 10
22.0835486111111
 20
6.89334565919277
 30
0.0
 10
22.08568055555555
 20
6.894337325834385
 30
0.0
 10
22.08765138888889
 20
6.896017881347486
 30
0.0
 10
22.09676666666665
 20
6.903781770040243
 30
0.0
 10
22.09898611111112
 20
6.92331788065783
 30
0.0
 10
22.09260833333332
 20
6.939652777777773
 30
0.0
 10
22.08720694444444
 20
6.953490102117838
 30
0.0
 10
22.07802916666666
 20
6.95945537974492
 30
0.0
 10
22.0689486111111
 20
6.957719268677667
 30
0.0
  0
ENDBLK
  5
1D2
330
1CF
100
AcDbEntity
  8
0
100
AcDbBlockEnd
  0
BLOCK
  5
1DA
330
1D8
100
AcDbEntity
  8
0
100
AcDbBlockBegin
  2
block 37
 70
     0
 10
0.0
 20
0.0
 30
0.0
  3
block 37
  1

  0
INSERT
  5
1DD
330
1D8
100
AcDbEntity
  8
Layer 2
100
AcDbBlockReference
  2
block 38
 10
0.0
 20
0.0
 30
0.0
  0
INSERT
  5
1F1
330
1D8
100
AcDbEntity
  8
Layer 2
100
AcDbBlockReference
  2
block 40
 10
0.0
 20
0.0
 30
0.0
  0
SPLINE
  5
201
330
1D8
100
AcDbEntity
  8
Layer 2
 62
   250
420
  2301728
370
     9
100
AcDbSpline
210
0.0
220
0.0
230
1.0
 70
    11
 71
     3
 72
    20
 73
    16
 74
     0
 42
0.0000000001
 43
0.0000000001
 12
1.0
 22
0.0
 32
0.0
 13
1.0
 23
0.0
 33
0.0
 40
0.0
 40
0.0
 40
0.0
 40
0.0
 40
1.0
 40
1.0
 40
1.0
 40
2.0
 40
2.0
 40
2.0
 40
3.0
 40
3.0
 40
3.0
 40
4.0
 40
4.0
 40
4.0
 40
5.0
 40
5.0
 40
5.0
 40
5.0
 10
21.64830416666667
 20
6.877710937365514
 30
0.0
 10
21.63700555555556
 20
6.869119270915891
 30
0.0
 10
21.63425416666668
 20
6.847502604795308
 30
0.0
 10
21.64215833333333
 20
6.82942760525192
 30
0.0
 10
21.65006388888888
 20
6.811353994597387
 30
0.0
 10
21.66563194444443
 20
6.80366666666666
 30
0.0
 10
21.67693055555555
 20
6.812258161241212
 30
0.0
 10
21.68822777777778
 20
6.820849827690836
 30
0.0
 10
21.69097916666667
 20
6.842465104922566
 30
0.0
 10
21.68307499999999
 20
6.860540104465953
 30
0.0
 10
21.67516944444444
 20
6.878613715120486
 30
0.0
 10
21.65960277777779
 20
6.886301214926283
 30
0.0
 10
21.64830416666667
 20
6.877710937365514
 30
0.0
 10
21.64830416666667
 20
6.877710937365514
 30
0.0
 10
21.64830416666667
 20
6.877710937365514
 30
0.0
 10
21.64830416666667
 20
6.877710937365514
 30
0.0
  0
ENDBLK
  5
1DB
330
1D8
100
AcDbEntity
  8
0
100
AcDbBlockEnd
  0
BLOCK
  5
1DE
330
1DC
100
AcDbEntity
  8
0
100
AcDbBlockBegin
  2
block 38
 70
     0
 10
0.0
 20
0.0
 30
0.0
  3
block 38
  1

  0
SPLINE
  5
1E0
330
1DC
100
AcDbEntity
  8
Layer 2
 62
   250
420
  2301728
370
     9
100
AcDbSpline
210
0.0
220
0.0
230
1.0
 70
    11
 71
     3
 72
    20
 73
    16
 74
     0
 42
0.0000000001
 43
0.0000000001
 12
1.0
 22
0.0
 32
0.0
 13
1.0
 23
0.0
 33
0.0
 40
0.0
 40
0.0
 40
0.0
 40
0.0
 40
1.0
 40
1.0
 40
1.0
 40
2.0
 40
2.0
 40
2.0
 40
3.0
 40
3.0
 40
3.0
 40
4.0
 40
4.0
 40
4.0
 40
5.0
 40
5.0
 40
5.0
 40
5.0
 10
21.64830416666667
 20
6.877710937365514
 30
0.0
 10
21.63700555555556
 20
6.869119270915891
 30
0.0
 10
21.63425416666668
 20
6.847502604795308
 30
0.0
 10
21.64215833333333
 20
6.82942760525192
 30
0.0
 10
21.65006388888888
 20
6.811353994597387
 30
0.0
 10
21.66563194444443
 20
6.80366666666666
 30
0.0
 10
21.67693055555555
 20
6.812258161241212
 30
0.0
 10
21.68822777777778
 20
6.820849827690836
 30
0.0
 10
21.69097916666667
 20
6.842465104922566
 30
0.0
 10
21.68307499999999
 20
6.860540104465953
 30
0.0
 10
21.67516944444444
 20
6.878613715120486
 30
0.0
 10
21.65960277777779
 20
6.886301214926283
 30
0.0
 10
21.64830416666667
 20
6.877710937365514
 30
0.0
 10
21.64830416666667
 20
6.877710937365514
 30
0.0
 10
21.64830416666667
 20
6.877710937365514
 30
0.0
 10
21.64830416666667
 20
6.877710937365514
 30
0.0
  0
HATCH
  5
1E1
330
1DC
100
AcDbEntity
  8
Layer 2
 62
    42
420
 15043866
100
AcDbHatch
 10
0.0
 20
0.0
 30
0.0
210
0.0
220
0.0
230
1.0
  2
SOLID
 70
     1
 71
     0
 91
        1
 92
        1
 93
        1
 72
     4
 94
        3
 73
     0
 74
     1
 95
       20
 96
       16
 40
0.0
 40
0.0
 40
0.0
 40
0.0
 40
1.0
 40
1.0
 40
1.0
 40
2.0
 40
2.0
 40
2.0
 40
3.0
 40
3.0
 40
3.0
 40
4.0
 40
4.0
 40
4.0
 40
5.0
 40
5.0
 40
5.0
 40
5.0
 10
21.64830416666667
 20
6.877710937365514
 10
21.63700555555556
 20
6.869119270915891
 10
21.63425416666668
 20
6.847502604795308
 10
21.64215833333333
 20
6.82942760525192
 10
21.65006388888888
 20
6.811353994597387
 10
21.66563194444443
 20
6.80366666666666
 10
21.67693055555555
 20
6.812258161241212
 10
21.68822777777778
 20
6.820849827690836
 10
21.69097916666667
 20
6.842465104922566
 10
21.68307499999999
 20
6.860540104465953
 10
21.67516944444444
 20
6.878613715120486
 10
21.65960277777779
 20
6.886301214926283
 10
21.64830416666667
 20
6.877710937365514
 10
21.64830416666667
 20
6.877710937365514
 10
21.64830416666667
 20
6.877710937365514
 10
21.64830416666667
 20
6.877710937365514
 97
        0
 97
        0
 75
     2
 76
     1
 98
        0
  0
POLYLINE
  5
1E2
330
1DC
100
AcDbEntity
  8
Layer 2
 62
   250
420
  2301728
370
     5
100
AcDb2dPolyline
 66
     1
 10
0.0
 20
0.0
 30
0.0
  0
VERTEX
  5
1E3
330
1E2
100
AcDbEntity
  8
Layer 2
 62
   250
420
  2301728
370
     5
100
AcDbVertex
100
AcDb2dVertex
 10
21.69242500000001
 20
6.884995659403709
 30
0.0
  0
VERTEX
  5
1E4
330
1E2
100
AcDbEntity
  8
Layer 2
 62
   250
420
  2301728
370
     5
100
AcDbVertex
100
AcDb2dVertex
 10
21.65971111111111
 20
6.87116788197525
 30
0.0
  0
VERTEX
  5
1E5
330
1E2
100
AcDbEntity
  8
Layer 2
 62
   250
420
  2301728
370
     5
100
AcDbVertex
100
AcDb2dVertex
 10
21.67001250000001
 20
6.816056772256363
 30
0.0
  0
VERTEX
  5
1E6
330
1E2
100
AcDbEntity
  8
Layer 2
 62
   250
420
  2301728
370
     5
100
AcDbVertex
100
AcDb2dVertex
 10
21.70751249999999
 20
6.81966093883198
 30
0.0
  0
VERTEX
  5
1E7
330
1E2
100
AcDbEntity
  8
Layer 2
 62
   250
420
  2301728
370
     5
100
AcDbVertex
100
AcDb2dVertex
 10
21.69242500000001
 20
6.884995659403709
 30
0.0
  0
SEQEND
  5
1E9
330
1E2
100
AcDbEntity
  8
Layer 2
 62
   250
420
  2301728
370
     5
  0
HATCH
  5
1E8
330
1DC
100
AcDbEntity
  8
Layer 2
 62
   254
420
 13358815
100
AcDbHatch
 10
0.0
 20
0.0
 30
0.0
210
0.0
220
0.0
230
1.0
  2
SOLID
 70
     1
 71
     0
 91
        1
 92
        1
 93
        4
 72
     1
 10
21.69242500000001
 20
6.884995659403709
 11
21.65971111111111
 21
6.87116788197525
 72
     1
 10
21.65971111111111
 20
6.87116788197525
 11
21.67001250000001
 21
6.816056772256363
 72
     1
 10
21.67001250000001
 20
6.816056772256363
 11
21.70751249999999
 21
6.81966093883198
 72
     1
 10
21.70751249999999
 20
6.81966093883198
 11
21.69242500000001
 21
6.884995659403709
 97
        0
 75
     2
 76
     1
 98
        0
  0
INSERT
  5
1EB
330
1DC
100
AcDbEntity
  8
Layer 2
100
AcDbBlockReference
  2
block 39
 10
0.0
 20
0.0
 30
0.0
  0
ENDBLK
  5
1DF
330
1DC
100
AcDbEntity
  8
0
100
AcDbBlockEnd
  0
BLOCK
  5
1EC
330
1EA
100
AcDbEntity
  8
0
100
AcDbBlockBegin
  2
block 39
 70
     0
 10
0.0
 20
0.0
 30
0.0
  3
block 39
  1

  0
SPLINE
  5
1EE
330
1EA
100
AcDbEntity
  8
Layer 2
 62
   250
420
  2301728
370
     5
100
AcDbSpline
210
0.0
220
0.0
230
1.0
 70
    11
 71
     3
 72
    20
 73
    16
 74
     0
 42
0.0000000001
 43
0.0000000001
 12
1.0
 22
0.0
 32
0.0
 13
1.0
 23
0.0
 33
0.0
 40
0.0
 40
0.0
 40
0.0
 40
0.0
 40
1.0
 40
1.0
 40
1.0
 40
2.0
 40
2.0
 40
2.0
 40
3.0
 40
3.0
 40
3.0
 40
4.0
 40
4.0
 40
4.0
 40
5.0
 40
5.0
 40
5.0
 40
5.0
 10
21.65971111111111
 20
6.87116788197525
 30
0.0
 10
21.6511125
 20
6.864913715466577
 30
0.0
 10
21.64806805555557
 20
6.848030382559752
 30
0.0
 10
21.65291388888889
 20
6.833455382927948
 30
0.0
 10
21.65775833333333
 20
6.818881772184997
 30
0.0
 10
21.66865694444444
 20
6.812137327910932
 30
0.0
 10
21.67725555555555
 20
6.818391494419605
 30
0.0
 10
21.68585555555556
 20
6.824644272039424
 30
0.0
 10
21.68889861111112
 20
6.841527777777779
 30
0.0
 10
21.68405416666666
 20
6.856102604578053
 30
0.0
 10
21.67920972222221
 20
6.870676215321004
 30
0.0
 10
21.6683111111111
 20
6.877420659595069
 30
0.0
 10
21.65971111111111
 20
6.87116788197525
 30
0.0
 10
21.65971111111111
 20
6.87116788197525
 30
0.0
 10
21.65971111111111
 20
6.87116788197525
 30
0.0
 10
21.65971111111111
 20
6.87116788197525
 30
0.0
  0
HATCH
  5
1EF
330
1EA
100
AcDbEntity
  8
Layer 2
 62
   254
420
 13358815
100
AcDbHatch
 10
0.0
 20
0.0
 30
0.0
210
0.0
220
0.0
230
1.0
  2
SOLID
 70
     1
 71
     0
 91
        1
 92
        1
 93
        1
 72
     4
 94
        3
 73
     0
 74
     1
 95
       20
 96
       16
 40
0.0
 40
0.0
 40
0.0
 40
0.0
 40
1.0
 40
1.0
 40
1.0
 40
2.0
 40
2.0
 40
2.0
 40
3.0
 40
3.0
 40
3.0
 40
4.0
 40
4.0
 40
4.0
 40
5.0
 40
5.0
 40
5.0
 40
5.0
 10
21.65971111111111
 20
6.87116788197525
 10
21.6511125
 20
6.864913715466577
 10
21.64806805555557
 20
6.848030382559752
 10
21.65291388888889
 20
6.833455382927948
 10
21.65775833333333
 20
6.818881772184997
 10
21.66865694444444
 20
6.812137327910932
 10
21.67725555555555
 20
6.818391494419605
 10
21.68585555555556
 20
6.824644272039424
 10
21.68889861111112
 20
6.841527777777779
 10
21.68405416666666
 20
6.856102604578053
 10
21.67920972222221
 20
6.870676215321004
 10
21.6683111111111
 20
6.877420659595069
 10
21.65971111111111
 20
6.87116788197525
 10
21.65971111111111
 20
6.87116788197525
 10
21.65971111111111
 20
6.87116788197525
 10
21.65971111111111
 20
6.87116788197525
 97
        0
 97
        0
 75
     2
 76
     1
 98
        0
  0
ENDBLK
  5
1ED
330
1EA
100
AcDbEntity
  8
0
100
AcDbBlockEnd
  0
BLOCK
  5
1F2
330
1F0
100
AcDbEntity
  8
0
100
AcDbBlockBegin
  2
block 40
 70
     0
 10
0.0
 20
0.0
 30
0.0
  3
block 40
  1

  0
INSERT
  5
1F5
330
1F0
100
AcDbEntity
  8
Layer 2
100
AcDbBlockReference
  2
block 41
 10
0.0
 20
0.0
 30
0.0
  0
INSERT
  5
1FC
330
1F0
100
AcDbEntity
  8
Layer 2
100
AcDbBlockReference
  2
block 42
 10
0.0
 20
0.0
 30
0.0
  0
ENDBLK
  5
1F3
330
1F0
100
AcDbEntity
  8
0
100
AcDbBlockEnd
  0
BLOCK
  5
1F6
330
1F4
100
AcDbEntity
  8
0
100
AcDbBlockBegin
  2
block 41
 70
     0
 10
0.0
 20
0.0
 30
0.0
  3
block 41
  1

  0
SPLINE
  5
1F8
330
1F4
100
AcDbEntity
  8
Layer 2
  6
AI-Linetype-33
 62
   250
420
  2301728
370
     5
100
AcDbSpline
210
0.0
220
0.0
230
1.0
 70
    11
 71
     3
 72
    26
 73
    22
 74
     0
 42
0.0000000001
 43
0.0000000001
 12
1.0
 22
0.0
 32
0.0
 13
1.0
 23
0.0
 33
0.0
 40
0.0
 40
0.0
 40
0.0
 40
0.0
 40
1.0
 40
1.0
 40
1.0
 40
2.0
 40
2.0
 40
2.0
 40
3.0
 40
3.0
 40
3.0
 40
4.0
 40
4.0
 40
4.0
 40
5.0
 40
5.0
 40
5.0
 40
6.0
 40
6.0
 40
6.0
 40
7.0
 40
7.0
 40
7.0
 40
7.0
 10
21.84231250000001
 20
6.912442880932556
 30
0.0
 10
21.8490638888889
 20
6.909370658787944
 30
0.0
 10
21.8551875
 20
6.90281649228685
 30
0.0
 10
21.85898888888889
 20
6.893606770297285
 30
0.0
 10
21.86585972222221
 20
6.876965104051022
 30
0.0
 10
21.86273194444445
 20
6.857526215653201
 30
0.0
 10
21.85217361111111
 20
6.848361111111116
 30
0.0
 10
21.85217361111111
 20
6.848361111111116
 30
0.0
 10
21.67891666666666
 20
6.813988716753051
 30
0.0
 10
21.67891666666666
 20
6.813988716753051
 30
0.0
 10
21.68072361111111
 20
6.814458333333327
 30
0.0
 10
21.69078194444445
 20
6.828685938603989
 30
0.0
 10
21.68652916666666
 20
6.849516493633321
 30
0.0
 10
21.68142222222223
 20
6.874533159668013
 30
0.0
 10
21.66500138888889
 20
6.879974826197213
 30
0.0
 10
21.66500138888889
 20
6.879974826197213
 30
0.0
 10
21.66500138888889
 20
6.879974826197213
 30
0.0
 10
21.84231388888889
 20
6.912434547599433
 30
0.0
 10
21.84231388888889
 20
6.912434547599433
 30
0.0
 10
21.84231388888889
 20
6.912434547599433
 30
0.0
 10
21.84231250000001
 20
6.912442880932556
 30
0.0
 10
21.84231250000001
 20
6.912442880932556
 30
0.0
  0
HATCH
  5
1FA
330
1F4
100
AcDbEntity
  8
Layer 2
 62
   254
420
 16376262
100
AcDbHatch
 10
0.0
 20
0.0
 30
0.0
210
0.0
220
0.0
230
1.0
  2
SOLID
 70
     1
 71
     0
 91
        1
 92
        1
 93
        1
 72
     4
 94
        3
 73
     0
 74
     1
 95
       26
 96
       22
 40
0.0
 40
0.0
 40
0.0
 40
0.0
 40
1.0
 40
1.0
 40
1.0
 40
2.0
 40
2.0
 40
2.0
 40
3.0
 40
3.0
 40
3.0
 40
4.0
 40
4.0
 40
4.0
 40
5.0
 40
5.0
 40
5.0
 40
6.0
 40
6.0
 40
6.0
 40
7.0
 40
7.0
 40
7.0
 40
7.0
 10
21.84231250000001
 20
6.912442880932556
 10
21.8490638888889
 20
6.909370658787944
 10
21.8551875
 20
6.90281649228685
 10
21.85898888888889
 20
6.893606770297285
 10
21.86585972222221
 20
6.876965104051022
 10
21.86273194444445
 20
6.857526215653201
 10
21.85217361111111
 20
6.848361111111116
 10
21.85217361111111
 20
6.848361111111116
 10
21.67891666666666
 20
6.813988716753051
 10
21.67891666666666
 20
6.813988716753051
 10
21.68072361111111
 20
6.814458333333327
 10
21.69078194444445
 20
6.828685938603989
 10
21.68652916666666
 20
6.849516493633321
 10
21.68142222222223
 20
6.874533159668013
 10
21.66500138888889
 20
6.879974826197213
 10
21.66500138888889
 20
6.879974826197213
 10
21.66500138888889
 20
6.879974826197213
 10
21.84231388888889
 20
6.912434547599433
 10
21.84231388888889
 20
6.912434547599433
 10
21.84231388888889
 20
6.912434547599433
 10
21.84231250000001
 20
6.912442880932556
 10
21.84231250000001
 20
6.912442880932556
 97
        0
 97
        0
 75
     2
 76
     1
 98
        0
  0
ENDBLK
  5
1F7
330
1F4
100
AcDbEntity
  8
0
100
AcDbBlockEnd
  0
BLOCK
  5
1FD
330
1FB
100
AcDbEntity
  8
0
100
AcDbBlockBegin
  2
block 42
 70
     0
 10
0.0
 20
0.0
 30
0.0
  3
block 42
  1

  0
SPLINE
  5
1FF
330
1FB
100
AcDbEntity
  8
Layer 2
  6
AI-Linetype-34
 62
   250
420
  2301728
370
     9
100
AcDbSpline
210
0.0
220
0.0
230
1.0
 70
     8
 71
     3
 72
    20
 73
    16
 74
     0
 42
0.0000000001
 43
0.0000000001
 12
1.0
 22
0.0
 32
0.0
 13
1.0
 23
0.0
 33
0.0
 40
0.0
 40
0.0
 40
0.0
 40
0.0
 40
1.0
 40
1.0
 40
1.0
 40
2.0
 40
2.0
 40
2.0
 40
3.0
 40
3.0
 40
3.0
 40
4.0
 40
4.0
 40
4.0
 40
5.0
 40
5.0
 40
5.0
 40
5.0
 10
21.83326944444444
 20
6.844191493767842
 30
0.0
 10
21.83879305555554
 20
6.842512327143595
 30
0.0
 10
21.84457222222222
 20
6.843142882683221
 30
0.0
 10
21.84973194444445
 20
6.846510938153692
 30
0.0
 10
21.86221944444444
 20
6.854658160170098
 30
0.0
 10
21.86636388888888
 20
6.875744270748529
 30
0.0
 10
21.85898888888889
 20
6.893606770297285
 30
0.0
 10
21.85161527777778
 20
6.911467880957186
 30
0.0
 10
21.83551388888888
 20
6.919342880758247
 30
0.0
 10
21.82302638888889
 20
6.91119444444444
 30
0.0
 10
21.82302638888889
 20
6.91119444444444
 30
0.0
 10
21.82302638888889
 20
6.91119444444444
 30
0.0
 10
21.82302638888889
 20
6.91119444444444
 30
0.0
 10
21.82198333333334
 20
6.910513888888886
 30
0.0
 10
21.82100000000001
 20
6.909742881000764
 30
0.0
 10
21.82007499999999
 20
6.908892881022236
 30
0.0
  0
ENDBLK
  5
1FE
330
1FB
100
AcDbEntity
  8
0
100
AcDbBlockEnd
  0
BLOCK
  5
212
330
210
100
AcDbEntity
  8
0
100
AcDbBlockBegin
  2
block 43
 70
     0
 10
0.0
 20
0.0
 30
0.0
  3
block 43
  1

  0
POLYLINE
  5
214
330
210
100
AcDbEntity
  8
Callouts
 62
   250
420
  2301728
370
    25
100
AcDb2dPolyline
 66
     1
 10
0.0
 20
0.0
 30
0.0
  0
VERTEX
  5
215
330
214
100
AcDbEntity
  8
Callouts
 62
   250
420
  2301728
370
    25
100
AcDbVertex
100
AcDb2dVertex
 10
20.97894999999999
 20
6.446413726038776
 30
0.0
  0
VERTEX
  5
216
330
214
100
AcDbEntity
  8
Callouts
 62
   250
420
  2301728
370
    25
100
AcDbVertex
100
AcDb2dVertex
 10
20.75051666666667
 20
6.007026237138638
 30
0.0
  0
SEQEND
  5
217
330
214
100
AcDbEntity
  8
Callouts
 62
   250
420
  2301728
370
    25
  0
POLYLINE
  5
218
330
210
100
AcDbEntity
  8
Callouts
370
     0
100
AcDb2dPolyline
 66
     1
 10
0.0
 20
0.0
 30
0.0
  0
VERTEX
  5
219
330
218
100
AcDbEntity
  8
Callouts
370
     0
100
AcDbVertex
100
AcDb2dVertex
 10
20.99820833333332
 20
6.386840116432621
 30
0.0
  0
VERTEX
  5
21A
330
218
100
AcDbEntity
  8
Callouts
370
     0
100
AcDbVertex
100
AcDb2dVertex
 10
20.92277638888888
 20
6.424312337708216
 30
0.0
  0
VERTEX
  5
21B
330
218
100
AcDbEntity
  8
Callouts
370
     0
100
AcDbVertex
100
AcDb2dVertex
 10
21.0122361111111
 20
6.514458333333335
 30
0.0
  0
VERTEX
  5
21C
330
218
100
AcDbEntity
  8
Callouts
370
     0
100
AcDbVertex
100
AcDb2dVertex
 10
20.99820833333332
 20
6.386840116432621
 30
0.0
  0
SEQEND
  5
21E
330
218
100
AcDbEntity
  8
Callouts
370
     0
  0
HATCH
  5
21D
330
210
100
AcDbEntity
  8
Callouts
 62
   250
420
  2301728
100
AcDbHatch
 10
0.0
 20
0.0
 30
0.0
210
0.0
220
0.0
230
1.0
  2
SOLID
 70
     1
 71
     0
 91
        1
 92
        1
 93
        3
 72
     1
 10
20.99820833333332
 20
6.386840116432621
 11
20.92277638888888
 21
6.424312337708216
 72
     1
 10
20.92277638888888
 20
6.424312337708216
 11
21.0122361111111
 21
6.514458333333335
 72
     1
 10
21.0122361111111
 20
6.514458333333335
 11
20.99820833333332
 21
6.386840116432621
 97
        0
 75
     2
 76
     1
 98
        0
  0
ENDBLK
  5
213
330
210
100
AcDbEntity
  8
0
100
AcDbBlockEnd
  0
BLOCK
  5
222
330
220
100
AcDbEntity
  8
0
100
AcDbBlockBegin
  2
block 44
 70
     0
 10
0.0
 20
0.0
 30
0.0
  3
block 44
  1

  0
POLYLINE
  5
224
330
220
100
AcDbEntity
  8
Callouts
 62
   250
420
  2301728
370
    25
100
AcDb2dPolyline
 66
     1
 10
0.0
 20
0.0
 30
0.0
  0
VERTEX
  5
225
330
224
100
AcDbEntity
  8
Callouts
 62
   250
420
  2301728
370
    25
100
AcDbVertex
100
AcDb2dVertex
 10
21.46049305555556
 20
5.14694014775513
 30
0.0
  0
VERTEX
  5
226
330
224
100
AcDbEntity
  8
Callouts
 62
   250
420
  2301728
370
    25
100
AcDbVertex
100
AcDb2dVertex
 10
21.18829583333334
 20
4.96999293000297
 30
0.0
  0
SEQEND
  5
227
330
224
100
AcDbEntity
  8
Callouts
 62
   250
420
  2301728
370
    25
  0
POLYLINE
  5
228
330
220
100
AcDbEntity
  8
Callouts
370
     0
100
AcDb2dPolyline
 66
     1
 10
0.0
 20
0.0
 30
0.0
  0
VERTEX
  5
229
330
228
100
AcDbEntity
  8
Callouts
370
     0
100
AcDbVertex
100
AcDb2dVertex
 10
21.44791527777778
 20
5.085606815971206
 30
0.0
  0
VERTEX
  5
22A
330
228
100
AcDbEntity
  8
Callouts
370
     0
100
AcDbVertex
100
AcDb2dVertex
 10
21.40071805555554
 20
5.155369314208857
 30
0.0
  0
VERTEX
  5
22B
330
228
100
AcDbEntity
  8
Callouts
370
     0
100
AcDbVertex
100
AcDb2dVertex
 10
21.52297222222223
 20
5.189767924450987
 30
0.0
  0
VERTEX
  5
22C
330
228
100
AcDbEntity
  8
Callouts
370
     0
100
AcDbVertex
100
AcDb2dVertex
 10
21.44791527777778
 20
5.085606815971206
 30
0.0
  0
SEQEND
  5
22E
330
228
100
AcDbEntity
  8
Callouts
370
     0
  0
HATCH
  5
22D
330
220
100
AcDbEntity
  8
Callouts
 62
   250
420
  2301728
100
AcDbHatch
 10
0.0
 20
0.0
 30
0.0
210
0.0
220
0.0
230
1.0
  2
SOLID
 70
     1
 71
     0
 91
        1
 92
        1
 93
        3
 72
     1
 10
21.44791527777778
 20
5.085606815971206
 11
21.40071805555554
 21
5.155369314208857
 72
     1
 10
21.40071805555554
 20
5.155369314208857
 11
21.52297222222223
 21
5.189767924450987
 72
     1
 10
21.52297222222223
 20
5.189767924450987
 11
21.44791527777778
 21
5.085606815971206
 97
        0
 75
     2
 76
     1
 98
        0
  0
ENDBLK
  5
223
330
220
100
AcDbEntity
  8
0
100
AcDbBlockEnd
  0
ENDSEC
  0
SECTION
  2
ENTITIES
  0
INSERT
  5
42
330
1F
100
AcDbEntity
  8
WOOD
100
AcDbBlockReference
  2
block 2
 10
0.0
 20
0.0
 30
0.0
  0
INSERT
  5
5E
330
1F
100
AcDbEntity
  8
WOOD
100
AcDbBlockReference
  2
block 3
 10
0.0
 20
0.0
 30
0.0
  0
INSERT
  5
CF
330
1F
100
AcDbEntity
  8
Layer 2
100
AcDbBlockReference
  2
block 4
 10
0.0
 20
0.0
 30
0.0
  0
INSERT
  5
D8
330
1F
100
AcDbEntity
  8
Layer 2
100
AcDbBlockReference
  2
block 5
 10
0.0
 20
0.0
 30
0.0
  0
POLYLINE
  5
12F
330
1F
100
AcDbEntity
  8
Layer 2
  6
AI-Linetype-19
 62
   250
420
  2301728
370
     9
100
AcDb2dPolyline
 66
     1
 10
0.0
 20
0.0
 30
0.0
  0
VERTEX
  5
130
330
12F
100
AcDbEntity
  8
Layer 2
  6
AI-Linetype-19
 62
   250
420
  2301728
370
     9
100
AcDbVertex
100
AcDb2dVertex
 10
22.24858888888889
 20
6.306556785127415
 30
0.0
  0
VERTEX
  5
131
330
12F
100
AcDbEntity
  8
Layer 2
  6
AI-Linetype-19
 62
   250
420
  2301728
370
     9
100
AcDbVertex
100
AcDb2dVertex
 10
21.81935555555555
 20
6.217236111111106
 30
0.0
  0
SEQEND
  5
133
330
12F
100
AcDbEntity
  8
Layer 2
  6
AI-Linetype-19
 62
   250
420
  2301728
370
     9
  0
POLYLINE
  5
134
330
1F
100
AcDbEntity
  8
Layer 2
  6
AI-Linetype-20
 62
   250
420
  2301728
370
     9
100
AcDb2dPolyline
 66
     1
 10
0.0
 20
0.0
 30
0.0
  0
VERTEX
  5
135
330
134
100
AcDbEntity
  8
Layer 2
  6
AI-Linetype-20
 62
   250
420
  2301728
370
     9
100
AcDbVertex
100
AcDb2dVertex
 10
21.53287916666666
 20
6.329692895654059
 30
0.0
  0
VERTEX
  5
136
330
134
100
AcDbEntity
  8
Layer 2
  6
AI-Linetype-20
 62
   250
420
  2301728
370
     9
100
AcDbVertex
100
AcDb2dVertex
 10
21.94004444444444
 20
6.403002616024322
 30
0.0
  0
VERTEX
  5
137
330
134
100
AcDbEntity
  8
Layer 2
  6
AI-Linetype-20
 62
   250
420
  2301728
370
     9
100
AcDbVertex
100
AcDb2dVertex
 10
22.24858888888889
 20
6.306556785127415
 30
0.0
  0
VERTEX
  5
138
330
134
100
AcDbEntity
  8
Layer 2
  6
AI-Linetype-20
 62
   250
420
  2301728
370
     9
100
AcDbVertex
100
AcDb2dVertex
 10
22.24858888888889
 20
6.051638888888887
 30
0.0
  0
SEQEND
  5
13A
330
134
100
AcDbEntity
  8
Layer 2
  6
AI-Linetype-20
 62
   250
420
  2301728
370
     9
  0
POLYLINE
  5
13B
330
1F
100
AcDbEntity
  8
Layer 2
 62
   250
420
  2301728
370
    15
100
AcDb2dPolyline
 66
     1
 10
0.0
 20
0.0
 30
0.0
  0
VERTEX
  5
13C
330
13B
100
AcDbEntity
  8
Layer 2
 62
   250
420
  2301728
370
    15
100
AcDbVertex
100
AcDb2dVertex
 10
20.61216111111111
 20
6.682972222222221
 30
0.0
  0
VERTEX
  5
13D
330
13B
100
AcDbEntity
  8
Layer 2
 62
   250
420
  2301728
370
    15
100
AcDbVertex
100
AcDb2dVertex
 10
22.9348263888889
 20
5.786887353810926
 30
0.0
  0
SEQEND
  5
13E
330
13B
100
AcDbEntity
  8
Layer 2
 62
   250
420
  2301728
370
    15
  0
INSERT
  5
140
330
1F
100
AcDbEntity
  8
Layer 2
100
AcDbBlockReference
  2
block 16
 10
0.0
 20
0.0
 30
0.0
  0
INSERT
  5
16A
330
1F
100
AcDbEntity
  8
Layer 2
100
AcDbBlockReference
  2
block 22
 10
0.0
 20
0.0
 30
0.0
  0
INSERT
  5
173
330
1F
100
AcDbEntity
  8
Layer 2
100
AcDbBlockReference
  2
block 23
 10
0.0
 20
0.0
 30
0.0
  0
INSERT
  5
19D
330
1F
100
AcDbEntity
  8
Layer 2
100
AcDbBlockReference
  2
block 29
 10
0.0
 20
0.0
 30
0.0
  0
INSERT
  5
1A6
330
1F
100
AcDbEntity
  8
Layer 2
100
AcDbBlockReference
  2
block 30
 10
0.0
 20
0.0
 30
0.0
  0
INSERT
  5
1D0
330
1F
100
AcDbEntity
  8
Layer 2
100
AcDbBlockReference
  2
block 36
 10
0.0
 20
0.0
 30
0.0
  0
INSERT
  5
1D9
330
1F
100
AcDbEntity
  8
Layer 2
100
AcDbBlockReference
  2
block 37
 10
0.0
 20
0.0
 30
0.0
  0
SPLINE
  5
202
330
1F
100
AcDbEntity
  8
Layer 2
 62
   250
420
  2301984
370
    15
100
AcDbSpline
210
0.0
220
0.0
230
1.0
 70
     8
 71
     3
 72
    17
 73
    13
 74
     0
 42
0.0000000001
 43
0.0000000001
 12
1.0
 22
0.0
 32
0.0
 13
1.0
 23
0.0
 33
0.0
 40
0.0
 40
0.0
 40
0.0
 40
0.0
 40
1.0
 40
1.0
 40
1.0
 40
2.0
 40
2.0
 40
2.0
 40
3.0
 40
3.0
 40
3.0
 40
4.0
 40
4.0
 40
4.0
 40
4.0
 10
21.98268055555556
 20
6.327740117925613
 30
0.0
 10
21.98604722222222
 20
6.325273451321259
 30
0.0
 10
21.98787777777779
 20
6.32262206249935
 30
0.0
 10
21.98787777777779
 20
6.319859562569136
 30
0.0
 10
21.98787777777779
 20
6.306736111111111
 30
0.0
 10
21.94653888888888
 20
6.296097222222228
 30
0.0
 10
21.89554305555556
 20
6.296097222222228
 30
0.0
 10
21.84454861111112
 20
6.296097222222228
 30
0.0
 10
21.80320972222221
 20
6.306736111111111
 30
0.0
 10
21.80320972222221
 20
6.319859562569136
 30
0.0
 10
21.80320972222221
 20
6.322509562502192
 30
0.0
 10
21.80489444444445
 20
6.32505817354892
 30
0.0
 10
21.80800416666665
 20
6.327438729044338
 30
0.0
  0
POLYLINE
  5
203
330
1F
100
AcDbEntity
  8
Layer 2
 62
   250
420
  2301728
370
    15
100
AcDb2dPolyline
 66
     1
 10
0.0
 20
0.0
 30
0.0
  0
VERTEX
  5
204
330
203
100
AcDbEntity
  8
Layer 2
 62
   250
420
  2301728
370
    15
100
AcDbVertex
100
AcDb2dVertex
 10
21.81935555555555
 20
6.217236111111106
 30
0.0
  0
VERTEX
  5
205
330
203
100
AcDbEntity
  8
Layer 2
 62
   250
420
  2301728
370
    15
100
AcDbVertex
100
AcDb2dVertex
 10
21.81935555555555
 20
4.197254060635108
 30
0.0
  0
SEQEND
  5
206
330
203
100
AcDbEntity
  8
Layer 2
 62
   250
420
  2301728
370
    15
  0
MTEXT
  5
208
330
1F
100
AcDbEntity
  8
Callouts
 62
   250
420
  2301728
100
AcDbMText
 10
21.96057261903883
 20
8.129460975924303
 30
0.0
 40
0.1138585907354974
 41
0.0
 46
0.0
 71
     7
 72
     1
  1
\fHelvetica LT Std Condensed|b0|i0|c0|p34;\W0.875557;Lateral
 11
0.9578133538266133
 21
-0.287390986691328
 31
0.0
 73
     1
 44
1.0
  0
POLYLINE
  5
209
330
1F
100
AcDbEntity
  8
Callouts
 62
   250
420
  2301728
370
    20
100
AcDb2dPolyline
 66
     1
 10
0.0
 20
0.0
 30
0.0
  0
VERTEX
  5
20A
330
209
100
AcDbEntity
  8
Callouts
 62
   250
420
  2301728
370
    20
100
AcDbVertex
100
AcDb2dVertex
 10
21.43933749999999
 20
8.244805555555558
 30
0.0
  0
VERTEX
  5
20B
330
209
100
AcDbEntity
  8
Callouts
 62
   250
420
  2301728
370
    20
100
AcDbVertex
100
AcDb2dVertex
 10
22.85603333333334
 20
7.774116470275961
 30
0.0
  0
SEQEND
  5
20C
330
209
100
AcDbEntity
  8
Callouts
 62
   250
420
  2301728
370
    20
  0
MTEXT
  5
20D
330
1F
100
AcDbEntity
  8
Callouts
 62
   250
420
  2301728
100
AcDbMText
 10
21.21855672200521
 20
3.635058297051323
 30
0.0
 40
0.118
 41
0.0
 46
0.0
 71
     7
 72
     1
  1
\fHelvetica Neue LT Std 55 Roman|b0|i0|c0|p34;\W1;SIMPSON Strong-Tie\H0.068794;®\H0.118; ^C
 73
     1
 44
1.0
  0
MTEXT
  5
20E
330
1F
100
AcDbEntity
  8
Callouts
 62
   250
420
  2301728
100
AcDbMText
 10
20.8160163031684
 20
3.435052871704102
 30
0.0
 40
0.118
 41
0.0
 46
0.0
 71
     7
 72
     1
  1
\fHelvetica Neue LT Std 55 Roman|b0|i0|c0|p34;\W1;CBT2Z Beam-to-Post Installation
 73
     1
 44
1.0
  0
MTEXT
  5
20F
330
1F
100
AcDbEntity
  8
Callouts
 62
   250
420
  2301728
100
AcDbMText
 10
20.61215718587239
 20
5.836094829771254
 30
0.0
 40
0.118
 41
0.0
 46
0.0
 71
     7
 72
     1
  1
\fHelvetica Neue LT Std 57 Condensed|b0|i0|c0|p34;\W1;Beam
 73
     1
 44
1.0
  0
INSERT
  5
211
330
1F
100
AcDbEntity
  8
Callouts
100
AcDbBlockReference
  2
block 43
 10
0.0
 20
0.0
 30
0.0
  0
MTEXT
  5
21F
330
1F
100
AcDbEntity
  8
Callouts
 62
   250
420
  2301728
100
AcDbMText
 10
20.87292310926649
 20
4.916793982187906
 30
0.0
 40
0.118
 41
0.0
 46
0.0
 71
     7
 72
     1
  1
\fHelvetica Neue LT Std 57 Condensed|b0|i0|c0|p34;\W1;Post
 73
     1
 44
1.0
  0
INSERT
  5
221
330
1F
100
AcDbEntity
  8
Callouts
100
AcDbBlockReference
  2
block 44
 10
0.0
 20
0.0
 30
0.0
  0
MTEXT
  5
22F
330
1F
100
AcDbEntity
  8
Callouts
 62
   250
420
  2236191
100
AcDbMText
 10
22.66017150878906
 20
5.085611528820461
 30
0.0
 40
0.118
 41
0.0
 46
0.0
 71
     7
 72
     1
  1
\fHelvetica Neue LT Std 57 Condensed|b0|i0|c0|p34;\W1;CBT2Z-KT
 73
     1
 44
1.0
  0
POLYLINE
  5
230
330
1F
100
AcDbEntity
  8
Callouts
 62
   250
420
  2236191
370
    18
100
AcDb2dPolyline
 66
     1
 10
0.0
 20
0.0
 30
0.0
  0
VERTEX
  5
231
330
230
100
AcDbEntity
  8
Callouts
 62
   250
420
  2236191
370
    18
100
AcDbVertex
100
AcDb2dVertex
 10
22.93172534064037
 20
5.316399798342344
 30
0.0
  0
VERTEX
  5
232
330
230
100
AcDbEntity
  8
Callouts
 62
   250
420
  2236191
370
    18
100
AcDbVertex
100
AcDb2dVertex
 10
21.9819
 20
5.928022072467784
 30
0.0
  0
SEQEND
  5
233
330
230
100
AcDbEntity
  8
Callouts
 62
   250
420
  2236191
370
    18
  0
ENDSEC
  0
SECTION
  2
OBJECTS
  0
DICTIONARY
  5
C
330
0
100
AcDbDictionary
281
     1
  3
ACAD_GROUP
350
D
  3
ACAD_LAYOUT
350
1A
  3
ACAD_MATERIAL
350
3B
  3
ACAD_MLEADERSTYLE
350
239
  3
ACAD_MLINESTYLE
350
17
  3
ACAD_PLOTSETTINGS
350
19
  3
ACAD_PLOTSTYLENAME
350
E
  3
ACAD_TABLESTYLE
350
238
  3
ACAD_VISUALSTYLE
350
2A
  0
SUN
  5
3F
330
29
100
AcDbSun
 90
        1
290
     0
 63
     7
421
 16777215
 40
1.0
291
     1
 91
  2455826
 92
 54000000
292
     0
 70
     2
 71
   256
280
     1
  0
DICTIONARY
  5
D
102
{ACAD_REACTORS
330
C
102
}
330
C
100
AcDbDictionary
281
     1
  0
DICTIONARY
  5
1A
102
{ACAD_REACTORS
330
C
102
}
330
C
100
AcDbDictionary
281
     1
  3
Layout1
350
1E
  3
Layout2
350
26
  3
Model
350
22
  0
DICTIONARY
  5
3B
102
{ACAD_REACTORS
330
C
102
}
330
C
100
AcDbDictionary
281
     1
  3
ByBlock
350
3D
  3
ByLayer
350
3C
  3
Global
350
3E
  0
DICTIONARY
  5
239
102
{ACAD_REACTORS
330
C
102
}
330
C
100
AcDbDictionary
281
     1
  0
DICTIONARY
  5
17
102
{ACAD_REACTORS
330
C
102
}
330
C
100
AcDbDictionary
281
     1
  3
Standard
350
18
  0
DICTIONARY
  5
19
102
{ACAD_REACTORS
330
C
102
}
330
C
100
AcDbDictionary
281
     1
  0
ACDBDICTIONARYWDFLT
  5
E
102
{ACAD_REACTORS
330
C
102
}
330
C
100
AcDbDictionary
281
     1
  3
Normal
350
F
100
AcDbDictionaryWithDefault
340
F
  0
DICTIONARY
  5
238
102
{ACAD_REACTORS
330
C
102
}
330
C
100
AcDbDictionary
281
     1
  0
DICTIONARY
  5
2A
102
{ACAD_REACTORS
330
C
102
}
330
C
100
AcDbDictionary
281
     1
  3
2dWireframe
350
2F
  3
3D Hidden
350
31
  3
3dWireframe
350
30
  3
Basic
350
32
  3
Brighten
350
36
  3
ColorChange
350
3A
  3
Conceptual
350
34
  3
Dim
350
35
  3
Facepattern
350
39
  3
Flat
350
2B
  3
FlatWithEdges
350
2C
  3
Gouraud
350
2D
  3
GouraudWithEdges
350
2E
  3
Linepattern
350
38
  3
Realistic
350
33
  3
Thicken
350
37
  0
LAYOUT
  5
1E
102
{ACAD_REACTORS
330
1A
102
}
330
1A
100
AcDbPlotSettings
  1

  2
none_device
  4

  6

 40
0.0
 41
0.0
 42
0.0
 43
0.0
 44
0.0
 45
0.0
 46
0.0
 47
0.0
 48
0.0
 49
0.0
140
0.0
141
0.0
142
1.0
143
1.0
 70
   688
 72
     0
 73
     0
 74
     5
  7

 75
    16
 76
     0
 77
     2
 78
   300
147
1.0
148
0.0
149
0.0
100
AcDbLayout
  1
Layout1
 70
     1
 71
     1
 10
0.0
 20
0.0
 11
12.0
 21
9.0
 12
0.0
 22
0.0
 32
0.0
 14
1.000000000000000E+20
 24
1.000000000000000E+20
 34
1.000000000000000E+20
 15
-1.000000000000000E+20
 25
-1.000000000000000E+20
 35
-1.000000000000000E+20
146
0.0
 13
0.0
 23
0.0
 33
0.0
 16
1.0
 26
0.0
 36
0.0
 17
0.0
 27
1.0
 37
0.0
 76
     0
330
1B
  0
LAYOUT
  5
26
102
{ACAD_REACTORS
330
1A
102
}
330
1A
100
AcDbPlotSettings
  1

  2
none_device
  4

  6

 40
0.0
 41
0.0
 42
0.0
 43
0.0
 44
0.0
 45
0.0
 46
0.0
 47
0.0
 48
0.0
 49
0.0
140
0.0
141
0.0
142
1.0
143
1.0
 70
   688
 72
     0
 73
     0
 74
     5
  7

 75
    16
 76
     0
 77
     2
 78
   300
147
1.0
148
0.0
149
0.0
100
AcDbLayout
  1
Layout2
 70
     1
 71
     2
 10
0.0
 20
0.0
 11
0.0
 21
0.0
 12
0.0
 22
0.0
 32
0.0
 14
0.0
 24
0.0
 34
0.0
 15
0.0
 25
0.0
 35
0.0
146
0.0
 13
0.0
 23
0.0
 33
0.0
 16
1.0
 26
0.0
 36
0.0
 17
0.0
 27
1.0
 37
0.0
 76
     0
330
23
  0
LAYOUT
  5
22
102
{ACAD_REACTORS
330
1A
102
}
330
1A
100
AcDbPlotSettings
  1

  2
none_device
  4

  6

 40
0.0
 41
0.0
 42
0.0
 43
0.0
 44
0.0
 45
0.0
 46
0.0
 47
0.0
 48
0.0
 49
0.0
140
0.0
141
0.0
142
1.0
143
1.0
 70
  1712
 72
     0
 73
     0
 74
     0
  7

 75
     0
 76
     0
 77
     2
 78
   300
147
1.0
148
0.0
149
0.0
100
AcDbLayout
  1
Model
 70
     1
 71
     0
 10
0.0
 20
0.0
 11
12.0
 21
9.0
 12
0.0
 22
0.0
 32
0.0
 14
1.000000000000000E+20
 24
1.000000000000000E+20
 34
1.000000000000000E+20
 15
-1.000000000000000E+20
 25
-1.000000000000000E+20
 35
-1.000000000000000E+20
146
0.0
 13
0.0
 23
0.0
 33
0.0
 16
1.0
 26
0.0
 36
0.0
 17
0.0
 27
1.0
 37
0.0
 76
     0
330
1F
331
29
  0
MATERIAL
  5
3D
102
{ACAD_REACTORS
330
3B
102
}
330
3B
100
AcDbMaterial
  1
ByBlock
 72
     1
 94
      127
  0
MATERIAL
  5
3C
102
{ACAD_REACTORS
330
3B
102
}
330
3B
100
AcDbMaterial
  1
ByLayer
 72
     1
 94
      127
  0
MATERIAL
  5
3E
102
{ACAD_REACTORS
330
3B
102
}
330
3B
100
AcDbMaterial
  1
Global
 72
     1
 94
      127
  0
MLINESTYLE
  5
18
102
{ACAD_REACTORS
330
17
102
}
330
17
100
AcDbMlineStyle
  2
Standard
 70
     0
  3

 62
   256
 51
90.0
 52
90.0
 71
     2
 49
0.5
 62
   256
  6
BYLAYER
 49
-0.5
 62
   256
  6
BYLAYER
  0
ACDBPLACEHOLDER
  5
F
102
{ACAD_REACTORS
330
E
102
}
330
E
  0
VISUALSTYLE
  5
2F
102
{ACAD_REACTORS
330
2A
102
}
330
2A
100
AcDbVisualStyle
  2
2dWireframe
 70
     4
177
     2
291
     0
 71
     0
176
     1
 72
     2
176
     1
 73
     0
176
     1
 90
        0
176
     1
 40
-0.6
176
     1
 41
-30.0
176
     1
 62
     5
 63
     7
421
 16777215
176
     1
 74
     1
176
     1
 91
        4
176
     1
 64
     7
176
     1
 65
   257
176
     1
 75
     1
176
     1
175
     1
176
     1
 42
1.0
176
     1
 92
        0
176
     1
 66
   257
176
     1
 43
1.0
176
     1
 76
     1
176
     1
 77
     6
176
     1
 78
     2
176
     1
 67
     7
176
     1
 79
     5
176
     1
170
     0
176
     1
171
     0
176
     1
290
     0
176
     1
 93
        1
176
     1
 44
0.0
176
     1
173
     0
176
     1
  0
VISUALSTYLE
  5
31
102
{ACAD_REACTORS
330
2A
102
}
330
2A
100
AcDbVisualStyle
  2
3D Hidden
 70
     6
177
     2
291
     0
 71
     1
176
     1
 72
     2
176
     1
 73
     2
176
     1
 90
        0
176
     1
 40
-0.6
176
     1
 41
-30.0
176
     1
 62
     5
 63
     7
421
 16777215
176
     1
 74
     2
176
     1
 91
        2
176
     1
 64
     7
176
     1
 65
   257
176
     1
 75
     2
176
     1
175
     1
176
     1
 42
40.0
176
     1
 92
        0
176
     1
 66
   257
176
     1
 43
1.0
176
     1
 76
     1
176
     1
 77
     6
176
     1
 78
     2
176
     1
 67
     7
176
     1
 79
     3
176
     1
170
     0
176
     1
171
     0
176
     1
290
     0
176
     1
 93
        1
176
     1
 44
0.0
176
     1
173
     0
176
     1
  0
VISUALSTYLE
  5
30
102
{ACAD_REACTORS
330
2A
102
}
330
2A
100
AcDbVisualStyle
  2
3dWireframe
 70
     5
177
     2
291
     0
 71
     0
176
     1
 72
     2
176
     1
 73
     0
176
     1
 90
        0
176
     1
 40
-0.6
176
     1
 41
-30.0
176
     1
 62
     5
 63
     7
421
 16777215
176
     1
 74
     1
176
     1
 91
        4
176
     1
 64
     7
176
     1
 65
   257
176
     1
 75
     1
176
     1
175
     1
176
     1
 42
1.0
176
     1
 92
        0
176
     1
 66
   257
176
     1
 43
1.0
176
     1
 76
     1
176
     1
 77
     6
176
     1
 78
     2
176
     1
 67
     7
176
     1
 79
     5
176
     1
170
     0
176
     1
171
     0
176
     1
290
     0
176
     1
 93
        1
176
     1
 44
0.0
176
     1
173
     0
176
     1
  0
VISUALSTYLE
  5
32
102
{ACAD_REACTORS
330
2A
102
}
330
2A
100
AcDbVisualStyle
  2
Basic
 70
     7
177
     2
291
     1
 71
     1
176
     1
 72
     0
176
     1
 73
     1
176
     1
 90
        0
176
     1
 40
-0.6
176
     1
 41
-30.0
176
     1
 62
     5
 63
     7
421
 16777215
176
     1
 74
     0
176
     1
 91
        4
176
     1
 64
     7
176
     1
 65
   257
176
     1
 75
     1
176
     1
175
     1
176
     1
 42
1.0
176
     1
 92
        8
176
     1
 66
     7
176
     1
 43
1.0
176
     1
 76
     1
176
     1
 77
     6
176
     1
 78
     2
176
     1
 67
     7
176
     1
 79
     5
176
     1
170
     0
176
     1
171
     0
176
     1
290
     0
176
     1
 93
        1
176
     1
 44
0.0
176
     1
173
     0
176
     1
  0
VISUALSTYLE
  5
36
102
{ACAD_REACTORS
330
2A
102
}
330
2A
100
AcDbVisualStyle
  2
Brighten
 70
    12
177
     2
291
     1
 71
     2
176
     1
 72
     2
176
     1
 73
     0
176
     1
 90
        0
176
     1
 40
-0.6
176
     1
 41
-30.0
176
     1
 62
     5
 63
     7
421
 16777215
176
     1
 74
     1
176
     1
 91
        4
176
     1
 64
     7
176
     1
 65
   257
176
     1
 75
     1
176
     1
175
     1
176
     1
 42
1.0
176
     1
 92
        8
176
     1
 66
     7
176
     1
 43
1.0
176
     1
 76
     1
176
     1
 77
     6
176
     1
 78
     2
176
     1
 67
     7
176
     1
 79
     5
176
     1
170
     0
176
     1
171
     0
176
     1
290
     0
176
     1
 93
        1
176
     1
 44
50.0
176
     1
173
     0
176
     1
  0
VISUALSTYLE
  5
3A
102
{ACAD_REACTORS
330
2A
102
}
330
2A
100
AcDbVisualStyle
  2
ColorChange
 70
    16
177
     2
291
     1
 71
     2
176
     1
 72
     2
176
     1
 73
     3
176
     1
 90
        0
176
     1
 40
-0.6
176
     1
 41
-30.0
176
     1
 62
     5
 63
     8
421
  8421504
176
     1
 74
     1
176
     1
 91
        4
176
     1
 64
     7
176
     1
 65
   257
176
     1
 75
     1
176
     1
175
     1
176
     1
 42
1.0
176
     1
 92
        8
176
     1
 66
     8
424
  8421504
176
     1
 43
1.0
176
     1
 76
     1
176
     1
 77
     6
176
     1
 78
     2
176
     1
 67
     7
176
     1
 79
     5
176
     1
170
     0
176
     1
171
     0
176
     1
290
     0
176
     1
 93
        1
176
     1
 44
0.0
176
     1
173
     0
176
     1
  0
VISUALSTYLE
  5
34
102
{ACAD_REACTORS
330
2A
102
}
330
2A
100
AcDbVisualStyle
  2
Conceptual
 70
     9
177
     2
291
     0
 71
     3
176
     1
 72
     2
176
     1
 73
     0
176
     1
 90
        0
176
     1
 40
-0.6
176
     1
 41
-30.0
176
     1
 62
     5
 63
     7
421
 16777215
176
     1
 74
     2
176
     1
 91
        2
176
     1
 64
     7
176
     1
 65
   257
176
     1
 75
     1
176
     1
175
     1
176
     1
 42
40.0
176
     1
 92
        8
176
     1
 66
     7
176
     1
 43
1.0
176
     1
 76
     1
176
     1
 77
     6
176
     1
 78
     2
176
     1
 67
     7
176
     1
 79
     3
176
     1
170
     0
176
     1
171
     0
176
     1
290
     0
176
     1
 93
        1
176
     1
 44
0.0
176
     1
173
     0
176
     1
  0
VISUALSTYLE
  5
35
102
{ACAD_REACTORS
330
2A
102
}
330
2A
100
AcDbVisualStyle
  2
Dim
 70
    11
177
     2
291
     1
 71
     2
176
     1
 72
     2
176
     1
 73
     0
176
     1
 90
        0
176
     1
 40
-0.6
176
     1
 41
-30.0
176
     1
 62
     5
 63
     7
421
 16777215
176
     1
 74
     1
176
     1
 91
        4
176
     1
 64
     7
176
     1
 65
   257
176
     1
 75
     1
176
     1
175
     1
176
     1
 42
1.0
176
     1
 92
        8
176
     1
 66
     7
176
     1
 43
1.0
176
     1
 76
     1
176
     1
 77
     6
176
     1
 78
     2
176
     1
 67
     7
176
     1
 79
     5
176
     1
170
     0
176
     1
171
     0
176
     1
290
     0
176
     1
 93
        1
176
     1
 44
-50.0
176
     1
173
     0
176
     1
  0
VISUALSTYLE
  5
39
102
{ACAD_REACTORS
330
2A
102
}
330
2A
100
AcDbVisualStyle
  2
Facepattern
 70
    15
177
     2
291
     1
 71
     2
176
     1
 72
     2
176
     1
 73
     0
176
     1
 90
        0
176
     1
 40
-0.6
176
     1
 41
-30.0
176
     1
 62
     5
 63
     7
421
 16777215
176
     1
 74
     1
176
     1
 91
        4
176
     1
 64
     7
176
     1
 65
   257
176
     1
 75
     1
176
     1
175
     1
176
     1
 42
1.0
176
     1
 92
        8
176
     1
 66
     7
176
     1
 43
1.0
176
     1
 76
     1
176
     1
 77
     6
176
     1
 78
     2
176
     1
 67
     7
176
     1
 79
     5
176
     1
170
     0
176
     1
171
     0
176
     1
290
     0
176
     1
 93
        1
176
     1
 44
0.0
176
     1
173
     0
176
     1
  0
VISUALSTYLE
  5
2B
102
{ACAD_REACTORS
330
2A
102
}
330
2A
100
AcDbVisualStyle
  2
Flat
 70
     0
177
     2
291
     1
 71
     2
176
     1
 72
     1
176
     1
 73
     1
176
     1
 90
        2
176
     1
 40
-0.6
176
     1
 41
30.0
176
     1
 62
     5
 63
     7
421
 16777215
176
     1
 74
     0
176
     1
 91
        4
176
     1
 64
     7
176
     1
 65
   257
176
     1
 75
     1
176
     1
175
     1
176
     1
 42
1.0
176
     1
 92
        8
176
     1
 66
     7
176
     1
 43
1.0
176
     1
 76
     1
176
     1
 77
     6
176
     1
 78
     2
176
     1
 67
     7
176
     1
 79
     5
176
     1
170
     0
176
     1
171
     0
176
     1
290
     0
176
     1
 93
       13
176
     1
 44
0.0
176
     1
173
     0
176
     1
  0
VISUALSTYLE
  5
2C
102
{ACAD_REACTORS
330
2A
102
}
330
2A
100
AcDbVisualStyle
  2
FlatWithEdges
 70
     1
177
     2
291
     1
 71
     2
176
     1
 72
     1
176
     1
 73
     1
176
     1
 90
        2
176
     1
 40
-0.6
176
     1
 41
30.0
176
     1
 62
     5
 63
     7
421
 16777215
176
     1
 74
     1
176
     1
 91
        4
176
     1
 64
     7
176
     1
 65
   257
176
     1
 75
     1
176
     1
175
     1
176
     1
 42
1.0
176
     1
 92
        0
176
     1
 66
   257
176
     1
 43
1.0
176
     1
 76
     1
176
     1
 77
     6
176
     1
 78
     2
176
     1
 67
     7
176
     1
 79
     5
176
     1
170
     0
176
     1
171
     0
176
     1
290
     0
176
     1
 93
       13
176
     1
 44
0.0
176
     1
173
     0
176
     1
  0
VISUALSTYLE
  5
2D
102
{ACAD_REACTORS
330
2A
102
}
330
2A
100
AcDbVisualStyle
  2
Gouraud
 70
     2
177
     2
291
     1
 71
     2
176
     1
 72
     2
176
     1
 73
     1
176
     1
 90
        2
176
     1
 40
-0.6
176
     1
 41
30.0
176
     1
 62
     5
 63
     7
421
 16777215
176
     1
 74
     0
176
     1
 91
        4
176
     1
 64
     7
176
     1
 65
   257
176
     1
 75
     1
176
     1
175
     1
176
     1
 42
1.0
176
     1
 92
        0
176
     1
 66
     7
176
     1
 43
1.0
176
     1
 76
     1
176
     1
 77
     6
176
     1
 78
     2
176
     1
 67
     7
176
     1
 79
     5
176
     1
170
     0
176
     1
171
     0
176
     1
290
     0
176
     1
 93
       13
176
     1
 44
0.0
176
     1
173
     0
176
     1
  0
VISUALSTYLE
  5
2E
102
{ACAD_REACTORS
330
2A
102
}
330
2A
100
AcDbVisualStyle
  2
GouraudWithEdges
 70
     3
177
     2
291
     1
 71
     2
176
     1
 72
     2
176
     1
 73
     1
176
     1
 90
        2
176
     1
 40
-0.6
176
     1
 41
30.0
176
     1
 62
     5
 63
     7
421
 16777215
176
     1
 74
     1
176
     1
 91
        4
176
     1
 64
     7
176
     1
 65
   257
176
     1
 75
     1
176
     1
175
     1
176
     1
 42
1.0
176
     1
 92
        0
176
     1
 66
   257
176
     1
 43
1.0
176
     1
 76
     1
176
     1
 77
     6
176
     1
 78
     2
176
     1
 67
     7
176
     1
 79
     5
176
     1
170
     0
176
     1
171
     0
176
     1
290
     0
176
     1
 93
       13
176
     1
 44
0.0
176
     1
173
     0
176
     1
  0
VISUALSTYLE
  5
38
102
{ACAD_REACTORS
330
2A
102
}
330
2A
100
AcDbVisualStyle
  2
Linepattern
 70
    14
177
     2
291
     1
 71
     2
176
     1
 72
     2
176
     1
 73
     0
176
     1
 90
        0
176
     1
 40
-0.6
176
     1
 41
-30.0
176
     1
 62
     5
 63
     7
421
 16777215
176
     1
 74
     1
176
     1
 91
        4
176
     1
 64
     7
176
     1
 65
   257
176
     1
 75
     7
176
     1
175
     7
176
     1
 42
1.0
176
     1
 92
        8
176
     1
 66
     7
176
     1
 43
1.0
176
     1
 76
     1
176
     1
 77
     6
176
     1
 78
     2
176
     1
 67
     7
176
     1
 79
     5
176
     1
170
     0
176
     1
171
     0
176
     1
290
     0
176
     1
 93
        1
176
     1
 44
0.0
176
     1
173
     0
176
     1
  0
VISUALSTYLE
  5
33
102
{ACAD_REACTORS
330
2A
102
}
330
2A
100
AcDbVisualStyle
  2
Realistic
 70
     8
177
     2
291
     0
 71
     2
176
     1
 72
     2
176
     1
 73
     0
176
     1
 90
        0
176
     1
 40
-0.6
176
     1
 41
-30.0
176
     1
 62
     5
 63
     7
421
 16777215
176
     1
 74
     1
176
     1
 91
        0
176
     1
 64
     7
176
     1
 65
   257
176
     1
 75
     1
176
     1
175
     1
176
     1
 42
1.0
176
     1
 92
        8
176
     1
 66
     8
424
  7895160
176
     1
 43
1.0
176
     1
 76
     1
176
     1
 77
     6
176
     1
 78
     2
176
     1
 67
     7
176
     1
 79
     5
176
     1
170
     0
176
     1
171
     0
176
     1
290
     0
176
     1
 93
       13
176
     1
 44
0.0
176
     1
173
     0
176
     1
  0
VISUALSTYLE
  5
37
102
{ACAD_REACTORS
330
2A
102
}
330
2A
100
AcDbVisualStyle
  2
Thicken
 70
    13
177
     2
291
     1
 71
     2
176
     1
 72
     2
176
     1
 73
     0
176
     1
 90
        0
176
     1
 40
-0.6
176
     1
 41
-30.0
176
     1
 62
     5
 63
     7
421
 16777215
176
     1
 74
     1
176
     1
 91
        4
176
     1
 64
     7
176
     1
 65
   257
176
     1
 75
     1
176
     1
175
     1
176
     1
 42
1.0
176
     1
 92
       12
176
     1
 66
     7
176
     1
 43
1.0
176
     1
 76
     1
176
     1
 77
     6
176
     1
 78
     2
176
     1
 67
     7
176
     1
 79
     5
176
     1
170
     0
176
     1
171
     0
176
     1
290
     0
176
     1
 93
        1
176
     1
 44
0.0
176
     1
173
     0
176
     1
  0
ENDSEC
  0
EOF
