  0
SECTION
  2
HEADER
  9
$ACADVER
  1
AC1024
  9
$ACADMAINTVER
 70
     6
  9
$DWGCODEPAGE
  3
ANSI_1252
  9
$INSBASE
 10
0.0
 20
0.0
 30
0.0
  9
$EXTMIN
 10
1.000000000000000E+20
 20
1.000000000000000E+20
 30
1.000000000000000E+20
  9
$EXTMAX
 10
-1.000000000000000E+20
 20
-1.000000000000000E+20
 30
-1.000000000000000E+20
  9
$LIMMIN
 10
0.0
 20
0.0
  9
$LIMMAX
 10
12.0
 20
9.0
  9
$ORTHOMODE
 70
     0
  9
$REGENMODE
 70
     1
  9
$FILLMODE
 70
     1
  9
$QTEXTMODE
 70
     0
  9
$MIRRTEXT
 70
     1
  9
$LTSCALE
 40
1.0
  9
$ATTMODE
 70
     1
  9
$TEXTSIZE
 40
0.2
  9
$TRACEWID
 40
0.05
  9
$TEXTSTYLE
  7
Standard
  9
$CLAYER
  8
0
  9
$CELTYPE
  6
ByLayer
  9
$CECOLOR
 62
   256
  9
$CELTSCALE
 40
1.0
  9
$DISPSILH
 70
     0
  9
$DIMSCALE
 40
1.0
  9
$DIMASZ
 40
0.18
  9
$DIMEXO
 40
0.0625
  9
$DIMDLI
 40
0.38
  9
$DIMRND
 40
0.0
  9
$DIMDLE
 40
0.0
  9
$DIMEXE
 40
0.18
  9
$DIMTP
 40
0.0
  9
$DIMTM
 40
0.0
  9
$DIMTXT
 40
0.18
  9
$DIMCEN
 40
0.09
  9
$DIMTSZ
 40
0.0
  9
$DIMTOL
 70
     0
  9
$DIMLIM
 70
     0
  9
$DIMTIH
 70
     1
  9
$DIMTOH
 70
     1
  9
$DIMSE1
 70
     0
  9
$DIMSE2
 70
     0
  9
$DIMTAD
 70
     0
  9
$DIMZIN
 70
     0
  9
$DIMBLK
  1

  9
$DIMASO
 70
     1
  9
$DIMSHO
 70
     1
  9
$DIMPOST
  1

  9
$DIMAPOST
  1

  9
$DIMALT
 70
     0
  9
$DIMALTD
 70
     2
  9
$DIMALTF
 40
25.4
  9
$DIMLFAC
 40
1.0
  9
$DIMTOFL
 70
     0
  9
$DIMTVP
 40
0.0
  9
$DIMTIX
 70
     0
  9
$DIMSOXD
 70
     0
  9
$DIMSAH
 70
     0
  9
$DIMBLK1
  1

  9
$DIMBLK2
  1

  9
$DIMSTYLE
  2
Standard
  9
$DIMCLRD
 70
     0
  9
$DIMCLRE
 70
     0
  9
$DIMCLRT
 70
     0
  9
$DIMTFAC
 40
1.0
  9
$DIMGAP
 40
0.09
  9
$DIMJUST
 70
     0
  9
$DIMSD1
 70
     0
  9
$DIMSD2
 70
     0
  9
$DIMTOLJ
 70
     1
  9
$DIMTZIN
 70
     0
  9
$DIMALTZ
 70
     0
  9
$DIMALTTZ
 70
     0
  9
$DIMUPT
 70
     0
  9
$DIMDEC
 70
     4
  9
$DIMTDEC
 70
     4
  9
$DIMALTU
 70
     2
  9
$DIMALTTD
 70
     2
  9
$DIMTXSTY
  7
Standard
  9
$DIMAUNIT
 70
     0
  9
$DIMADEC
 70
     0
  9
$DIMALTRND
 40
0.0
  9
$DIMAZIN
 70
     0
  9
$DIMDSEP
 70
    46
  9
$DIMATFIT
 70
     3
  9
$DIMFRAC
 70
     0
  9
$DIMLDRBLK
  1

  9
$DIMLUNIT
 70
     2
  9
$DIMLWD
 70
    -2
  9
$DIMLWE
 70
    -2
  9
$DIMTMOVE
 70
     0
  9
$DIMFXL
 40
1.0
  9
$DIMFXLON
 70
     0
  9
$DIMJOGANG
 40
0.7853981633974483
  9
$DIMTFILL
 70
     0
  9
$DIMTFILLCLR
 70
     0
  9
$DIMARCSYM
 70
     0
  9
$DIMLTYPE
  6

  9
$DIMLTEX1
  6

  9
$DIMLTEX2
  6

  9
$DIMTXTDIRECTION
 70
     0
  9
$LUNITS
 70
     2
  9
$LUPREC
 70
     4
  9
$SKETCHINC
 40
0.1
  9
$FILLETRAD
 40
0.5
  9
$AUNITS
 70
     0
  9
$AUPREC
 70
     0
  9
$MENU
  1
.
  9
$ELEVATION
 40
0.0
  9
$PELEVATION
 40
0.0
  9
$THICKNESS
 40
0.0
  9
$LIMCHECK
 70
     0
  9
$CHAMFERA
 40
0.5
  9
$CHAMFERB
 40
0.5
  9
$CHAMFERC
 40
1.0
  9
$CHAMFERD
 40
0.0
  9
$SKPOLY
 70
     0
  9
$TDCREATE
 40
2458782.471838403
  9
$TDUCREATE
 40
2458781.930171736
  9
$TDUPDATE
 40
2458782.471838576
  9
$TDUUPDATE
 40
2458781.93017191
  9
$TDINDWG
 40
0.0000000116
  9
$TDUSRTIMER
 40
0.0000000116
  9
$USRTIMER
 70
     1
  9
$ANGBASE
 50
0.0
  9
$ANGDIR
 70
     0
  9
$PDMODE
 70
     0
  9
$PDSIZE
 40
0.0
  9
$PLINEWID
 40
0.0
  9
$SPLFRAME
 70
     0
  9
$SPLINETYPE
 70
     6
  9
$SPLINESEGS
 70
     8
  9
$HANDSEED
  5
210
  9
$SURFTAB1
 70
     6
  9
$SURFTAB2
 70
     6
  9
$SURFTYPE
 70
     6
  9
$SURFU
 70
     6
  9
$SURFV
 70
     6
  9
$UCSBASE
  2

  9
$UCSNAME
  2

  9
$UCSORG
 10
0.0
 20
0.0
 30
0.0
  9
$UCSXDIR
 10
1.0
 20
0.0
 30
0.0
  9
$UCSYDIR
 10
0.0
 20
1.0
 30
0.0
  9
$UCSORTHOREF
  2

  9
$UCSORTHOVIEW
 70
     0
  9
$UCSORGTOP
 10
0.0
 20
0.0
 30
0.0
  9
$UCSORGBOTTOM
 10
0.0
 20
0.0
 30
0.0
  9
$UCSORGLEFT
 10
0.0
 20
0.0
 30
0.0
  9
$UCSORGRIGHT
 10
0.0
 20
0.0
 30
0.0
  9
$UCSORGFRONT
 10
0.0
 20
0.0
 30
0.0
  9
$UCSORGBACK
 10
0.0
 20
0.0
 30
0.0
  9
$PUCSBASE
  2

  9
$PUCSNAME
  2

  9
$PUCSORG
 10
0.0
 20
0.0
 30
0.0
  9
$PUCSXDIR
 10
1.0
 20
0.0
 30
0.0
  9
$PUCSYDIR
 10
0.0
 20
1.0
 30
0.0
  9
$PUCSORTHOREF
  2

  9
$PUCSORTHOVIEW
 70
     0
  9
$PUCSORGTOP
 10
0.0
 20
0.0
 30
0.0
  9
$PUCSORGBOTTOM
 10
0.0
 20
0.0
 30
0.0
  9
$PUCSORGLEFT
 10
0.0
 20
0.0
 30
0.0
  9
$PUCSORGRIGHT
 10
0.0
 20
0.0
 30
0.0
  9
$PUCSORGFRONT
 10
0.0
 20
0.0
 30
0.0
  9
$PUCSORGBACK
 10
0.0
 20
0.0
 30
0.0
  9
$USERI1
 70
     0
  9
$USERI2
 70
     0
  9
$USERI3
 70
     0
  9
$USERI4
 70
     0
  9
$USERI5
 70
     0
  9
$USERR1
 40
0.0
  9
$USERR2
 40
0.0
  9
$USERR3
 40
0.0
  9
$USERR4
 40
0.0
  9
$USERR5
 40
0.0
  9
$WORLDVIEW
 70
     1
  9
$SHADEDGE
 70
     3
  9
$SHADEDIF
 70
    70
  9
$TILEMODE
 70
     1
  9
$MAXACTVP
 70
    64
  9
$PINSBASE
 10
0.0
 20
0.0
 30
0.0
  9
$PLIMCHECK
 70
     0
  9
$PEXTMIN
 10
1.000000000000000E+20
 20
1.000000000000000E+20
 30
1.000000000000000E+20
  9
$PEXTMAX
 10
-1.000000000000000E+20
 20
-1.000000000000000E+20
 30
-1.000000000000000E+20
  9
$PLIMMIN
 10
0.0
 20
0.0
  9
$PLIMMAX
 10
12.0
 20
9.0
  9
$UNITMODE
 70
     0
  9
$VISRETAIN
 70
     1
  9
$PLINEGEN
 70
     0
  9
$PSLTSCALE
 70
     1
  9
$TREEDEPTH
 70
  3020
  9
$CMLSTYLE
  2
Standard
  9
$CMLJUST
 70
     0
  9
$CMLSCALE
 40
1.0
  9
$PROXYGRAPHICS
 70
     1
  9
$MEASUREMENT
 70
     0
  9
$CELWEIGHT
370
    -1
  9
$ENDCAPS
280
     0
  9
$JOINSTYLE
280
     0
  9
$LWDISPLAY
290
     1
  9
$INSUNITS
 70
     0
  9
$HYPERLINKBASE
  1

  9
$STYLESHEET
  1

  9
$XEDIT
290
     1
  9
$CEPSNTYPE
380
     0
  9
$PSTYLEMODE
290
     1
  9
$FINGERPRINTGUID
  2
{72B92B56-E165-48B1-901D-6589420DD74A}
  9
$VERSIONGUID
  2
{FAEB1C32-E019-11D5-929B-00C0DF256EC4}
  9
$EXTNAMES
290
     1
  9
$PSVPSCALE
 40
0.0
  9
$OLESTARTUP
290
     0
  9
$SORTENTS
280
   127
  9
$INDEXCTL
280
     0
  9
$HIDETEXT
280
     1
  9
$XCLIPFRAME
280
     2
  9
$HALOGAP
280
     0
  9
$OBSCOLOR
 70
   257
  9
$OBSLTYPE
280
     0
  9
$INTERSECTIONDISPLAY
280
     0
  9
$INTERSECTIONCOLOR
 70
   257
  9
$DIMASSOC
280
     2
  9
$PROJECTNAME
  1

  9
$CAMERADISPLAY
290
     0
  9
$LENSLENGTH
 40
50.0
  9
$CAMERAHEIGHT
 40
0.0
  9
$STEPSPERSEC
 40
2.0
  9
$STEPSIZE
 40
6.0
  9
$3DDWFPREC
 40
2.0
  9
$PSOLWIDTH
 40
0.25
  9
$PSOLHEIGHT
 40
4.0
  9
$LOFTANG1
 40
1.570796326794897
  9
$LOFTANG2
 40
1.570796326794897
  9
$LOFTMAG1
 40
0.0
  9
$LOFTMAG2
 40
0.0
  9
$LOFTPARAM
 70
     7
  9
$LOFTNORMALS
280
     1
  9
$LATITUDE
 40
37.795
  9
$LONGITUDE
 40
-122.394
  9
$NORTHDIRECTION
 40
0.0
  9
$TIMEZONE
 70
 -8000
  9
$LIGHTGLYPHDISPLAY
280
     1
  9
$TILEMODELIGHTSYNCH
280
     1
  9
$CMATERIAL
347
3C
  9
$SOLIDHIST
280
     1
  9
$SHOWHIST
280
     1
  9
$DWFFRAME
280
     2
  9
$DGNFRAME
280
     2
  9
$REALWORLDSCALE
290
     1
  9
$INTERFERECOLOR
 62
   256
  9
$CSHADOW
280
     0
  9
$SHADOWPLANELOCATION
 40
0.0
  0
ENDSEC
  0
SECTION
  2
CLASSES
  0
CLASS
  1
ACDBDICTIONARYWDFLT
  2
AcDbDictionaryWithDefault
  3
ObjectDBX Classes
 90
        0
 91
        4
280
     0
281
     0
  0
CLASS
  1
VISUALSTYLE
  2
AcDbVisualStyle
  3
ObjectDBX Classes
 90
     4095
 91
        4
280
     0
281
     0
  0
CLASS
  1
MATERIAL
  2
AcDbMaterial
  3
ObjectDBX Classes
 90
     1153
 91
        4
280
     0
281
     0
  0
CLASS
  1
SUN
  2
AcDbSun
  3
SCENEOE
 90
     1024
 91
        4
280
     0
281
     0
  0
ENDSEC
  0
SECTION
  2
TABLES
  0
TABLE
  2
VPORT
  5
8
330
0
100
AcDbSymbolTable
 70
     1
  0
VPORT
  5
29
330
8
100
AcDbSymbolTableRecord
100
AcDbViewportTableRecord
  2
*Active
 70
     0
 10
0.0
 20
0.0
 11
1.0
 21
1.0
 12
0.0
 22
0.0
 13
0.0
 23
0.0
 14
0.5
 24
0.5
 15
0.5
 25
0.5
 16
0.0
 26
0.0
 36
1.0
 17
100.1830981633393
 27
158.6762970936834
 37
0.0
 40
841.8897637795271
 41
0.7070707070707065
 42
50.0
 43
0.0
 44
0.0
 50
0.0
 51
0.0
 71
     0
 72
   100
 73
     1
 74
     3
 75
     0
 76
     0
 77
     0
 78
     0
281
     0
 65
     1
110
0.0
120
0.0
130
0.0
111
1.0
121
0.0
131
0.0
112
0.0
122
1.0
132
0.0
 79
     0
146
0.0
 60
     3
 61
     5
292
     1
282
     1
141
0.0
142
0.0
 63
   250
361
3F
  0
ENDTAB
  0
TABLE
  2
LTYPE
  5
5
330
0
100
AcDbSymbolTable
 70
    40
  0
LTYPE
  5
14
330
5
100
AcDbSymbolTableRecord
100
AcDbLinetypeTableRecord
  2
ByBlock
 70
     0
  3

 72
    65
 73
     0
 40
0.0
  0
LTYPE
  5
15
330
5
100
AcDbSymbolTableRecord
100
AcDbLinetypeTableRecord
  2
ByLayer
 70
     0
  3

 72
    65
 73
     0
 40
0.0
  0
LTYPE
  5
16
330
5
100
AcDbSymbolTableRecord
100
AcDbLinetypeTableRecord
  2
Continuous
 70
     0
  3
Solid line
 72
    65
 73
     0
 40
0.0
  0
LTYPE
  5
77
330
5
100
AcDbSymbolTableRecord
100
AcDbLinetypeTableRecord
  2
AI-Linetype-1
 70
     0
  3
Adobe Illustrator Linetype No. 1
 72
    65
 73
     6
 40
27.06979036331177
 49
5.413958072662354
 74
     0
 49
-3.609305381774902
 74
     0
 49
5.413958072662354
 74
     0
 49
-3.609305381774902
 74
     0
 49
5.413958072662354
 74
     0
 49
-3.609305381774902
 74
     0
  0
LTYPE
  5
8D
330
5
100
AcDbSymbolTableRecord
100
AcDbLinetypeTableRecord
  2
AI-Linetype-2
 70
     0
  3
Adobe Illustrator Linetype No. 2
 72
    65
 73
     2
 40
4.511631727218628
 49
2.706979036331177
 74
     0
 49
-1.804652690887451
 74
     0
  0
LTYPE
  5
90
330
5
100
AcDbSymbolTableRecord
100
AcDbLinetypeTableRecord
  2
AI-Linetype-3
 70
     0
  3
Adobe Illustrator Linetype No. 3
 72
    65
 73
     2
 40
4.511631727218628
 49
2.706979036331177
 74
     0
 49
-1.804652690887451
 74
     0
  0
LTYPE
  5
97
330
5
100
AcDbSymbolTableRecord
100
AcDbLinetypeTableRecord
  2
AI-Linetype-4
 70
     0
  3
Adobe Illustrator Linetype No. 4
 72
    65
 73
     2
 40
4.511631727218628
 49
2.706979036331177
 74
     0
 49
-1.804652690887451
 74
     0
  0
LTYPE
  5
9A
330
5
100
AcDbSymbolTableRecord
100
AcDbLinetypeTableRecord
  2
AI-Linetype-5
 70
     0
  3
Adobe Illustrator Linetype No. 5
 72
    65
 73
     2
 40
4.511631727218628
 49
2.706979036331177
 74
     0
 49
-1.804652690887451
 74
     0
  0
LTYPE
  5
A1
330
5
100
AcDbSymbolTableRecord
100
AcDbLinetypeTableRecord
  2
AI-Linetype-6
 70
     0
  3
Adobe Illustrator Linetype No. 6
 72
    65
 73
     2
 40
4.511631727218628
 49
2.706979036331177
 74
     0
 49
-1.804652690887451
 74
     0
  0
LTYPE
  5
A4
330
5
100
AcDbSymbolTableRecord
100
AcDbLinetypeTableRecord
  2
AI-Linetype-7
 70
     0
  3
Adobe Illustrator Linetype No. 7
 72
    65
 73
     2
 40
4.511631727218628
 49
2.706979036331177
 74
     0
 49
-1.804652690887451
 74
     0
  0
LTYPE
  5
AB
330
5
100
AcDbSymbolTableRecord
100
AcDbLinetypeTableRecord
  2
AI-Linetype-8
 70
     0
  3
Adobe Illustrator Linetype No. 8
 72
    65
 73
     2
 40
4.511631727218628
 49
2.706979036331177
 74
     0
 49
-1.804652690887451
 74
     0
  0
LTYPE
  5
AE
330
5
100
AcDbSymbolTableRecord
100
AcDbLinetypeTableRecord
  2
AI-Linetype-9
 70
     0
  3
Adobe Illustrator Linetype No. 9
 72
    65
 73
     2
 40
4.511631727218628
 49
2.706979036331177
 74
     0
 49
-1.804652690887451
 74
     0
  0
LTYPE
  5
B5
330
5
100
AcDbSymbolTableRecord
100
AcDbLinetypeTableRecord
  2
AI-Linetype-10
 70
     0
  3
Adobe Illustrator Linetype No. 10
 72
    65
 73
     2
 40
4.511631727218628
 49
2.706979036331177
 74
     0
 49
-1.804652690887451
 74
     0
  0
LTYPE
  5
B8
330
5
100
AcDbSymbolTableRecord
100
AcDbLinetypeTableRecord
  2
AI-Linetype-11
 70
     0
  3
Adobe Illustrator Linetype No. 11
 72
    65
 73
     2
 40
4.511631727218628
 49
2.706979036331177
 74
     0
 49
-1.804652690887451
 74
     0
  0
LTYPE
  5
C9
330
5
100
AcDbSymbolTableRecord
100
AcDbLinetypeTableRecord
  2
AI-Linetype-12
 70
     0
  3
Adobe Illustrator Linetype No. 12
 72
    65
 73
     2
 40
4.511631727218628
 49
2.706979036331177
 74
     0
 49
-1.804652690887451
 74
     0
  0
LTYPE
  5
CB
330
5
100
AcDbSymbolTableRecord
100
AcDbLinetypeTableRecord
  2
AI-Linetype-13
 70
     0
  3
Adobe Illustrator Linetype No. 13
 72
    65
 73
     2
 40
3.609305381774902
 49
1.804652690887451
 74
     0
 49
-1.804652690887451
 74
     0
  0
LTYPE
  5
CD
330
5
100
AcDbSymbolTableRecord
100
AcDbLinetypeTableRecord
  2
AI-Linetype-14
 70
     0
  3
Adobe Illustrator Linetype No. 14
 72
    65
 73
     2
 40
3.609305381774902
 49
1.804652690887451
 74
     0
 49
-1.804652690887451
 74
     0
  0
LTYPE
  5
CF
330
5
100
AcDbSymbolTableRecord
100
AcDbLinetypeTableRecord
  2
AI-Linetype-15
 70
     0
  3
Adobe Illustrator Linetype No. 15
 72
    65
 73
     2
 40
3.609305381774902
 49
1.804652690887451
 74
     0
 49
-1.804652690887451
 74
     0
  0
LTYPE
  5
D1
330
5
100
AcDbSymbolTableRecord
100
AcDbLinetypeTableRecord
  2
AI-Linetype-16
 70
     0
  3
Adobe Illustrator Linetype No. 16
 72
    65
 73
     2
 40
3.609305381774902
 49
1.804652690887451
 74
     0
 49
-1.804652690887451
 74
     0
  0
LTYPE
  5
102
330
5
100
AcDbSymbolTableRecord
100
AcDbLinetypeTableRecord
  2
AI-Linetype-17
 70
     0
  3
Adobe Illustrator Linetype No. 17
 72
    65
 73
     2
 40
3.609305381774902
 49
1.804652690887451
 74
     0
 49
-1.804652690887451
 74
     0
  0
LTYPE
  5
10A
330
5
100
AcDbSymbolTableRecord
100
AcDbLinetypeTableRecord
  2
AI-Linetype-18
 70
     0
  3
Adobe Illustrator Linetype No. 18
 72
    65
 73
     2
 40
3.609305381774902
 49
1.804652690887451
 74
     0
 49
-1.804652690887451
 74
     0
  0
LTYPE
  5
126
330
5
100
AcDbSymbolTableRecord
100
AcDbLinetypeTableRecord
  2
AI-Linetype-19
 70
     0
  3
Adobe Illustrator Linetype No. 19
 72
    65
 73
     2
 40
3.609305381774902
 49
1.804652690887451
 74
     0
 49
-1.804652690887451
 74
     0
  0
LTYPE
  5
12C
330
5
100
AcDbSymbolTableRecord
100
AcDbLinetypeTableRecord
  2
AI-Linetype-20
 70
     0
  3
Adobe Illustrator Linetype No. 20
 72
    65
 73
     2
 40
1.804652690887451
 49
0.9023263454437256
 74
     0
 49
-0.9023263454437256
 74
     0
  0
LTYPE
  5
12E
330
5
100
AcDbSymbolTableRecord
100
AcDbLinetypeTableRecord
  2
AI-Linetype-21
 70
     0
  3
Adobe Illustrator Linetype No. 21
 72
    65
 73
     2
 40
1.804652690887451
 49
0.9023263454437256
 74
     0
 49
-0.9023263454437256
 74
     0
  0
LTYPE
  5
130
330
5
100
AcDbSymbolTableRecord
100
AcDbLinetypeTableRecord
  2
AI-Linetype-22
 70
     0
  3
Adobe Illustrator Linetype No. 22
 72
    65
 73
     2
 40
1.804652690887451
 49
0.9023263454437256
 74
     0
 49
-0.9023263454437256
 74
     0
  0
LTYPE
  5
132
330
5
100
AcDbSymbolTableRecord
100
AcDbLinetypeTableRecord
  2
AI-Linetype-23
 70
     0
  3
Adobe Illustrator Linetype No. 23
 72
    65
 73
     2
 40
1.804652690887451
 49
0.9023263454437256
 74
     0
 49
-0.9023263454437256
 74
     0
  0
LTYPE
  5
134
330
5
100
AcDbSymbolTableRecord
100
AcDbLinetypeTableRecord
  2
AI-Linetype-24
 70
     0
  3
Adobe Illustrator Linetype No. 24
 72
    65
 73
     2
 40
1.804652690887451
 49
0.9023263454437256
 74
     0
 49
-0.9023263454437256
 74
     0
  0
LTYPE
  5
136
330
5
100
AcDbSymbolTableRecord
100
AcDbLinetypeTableRecord
  2
AI-Linetype-25
 70
     0
  3
Adobe Illustrator Linetype No. 25
 72
    65
 73
     2
 40
3.609305381774902
 49
1.804652690887451
 74
     0
 49
-1.804652690887451
 74
     0
  0
LTYPE
  5
13E
330
5
100
AcDbSymbolTableRecord
100
AcDbLinetypeTableRecord
  2
AI-Linetype-26
 70
     0
  3
Adobe Illustrator Linetype No. 26
 72
    65
 73
     2
 40
3.609305381774902
 49
1.804652690887451
 74
     0
 49
-1.804652690887451
 74
     0
  0
LTYPE
  5
144
330
5
100
AcDbSymbolTableRecord
100
AcDbLinetypeTableRecord
  2
AI-Linetype-27
 70
     0
  3
Adobe Illustrator Linetype No. 27
 72
    65
 73
     2
 40
3.609305381774902
 49
1.804652690887451
 74
     0
 49
-1.804652690887451
 74
     0
  0
LTYPE
  5
148
330
5
100
AcDbSymbolTableRecord
100
AcDbLinetypeTableRecord
  2
AI-Linetype-28
 70
     0
  3
Adobe Illustrator Linetype No. 28
 72
    65
 73
     2
 40
1.804652690887451
 49
0.9023263454437256
 74
     0
 49
-0.9023263454437256
 74
     0
  0
LTYPE
  5
14A
330
5
100
AcDbSymbolTableRecord
100
AcDbLinetypeTableRecord
  2
AI-Linetype-29
 70
     0
  3
Adobe Illustrator Linetype No. 29
 72
    65
 73
     2
 40
3.609305381774902
 49
1.804652690887451
 74
     0
 49
-1.804652690887451
 74
     0
  0
LTYPE
  5
14C
330
5
100
AcDbSymbolTableRecord
100
AcDbLinetypeTableRecord
  2
AI-Linetype-30
 70
     0
  3
Adobe Illustrator Linetype No. 30
 72
    65
 73
     2
 40
3.609305381774902
 49
1.804652690887451
 74
     0
 49
-1.804652690887451
 74
     0
  0
LTYPE
  5
14E
330
5
100
AcDbSymbolTableRecord
100
AcDbLinetypeTableRecord
  2
AI-Linetype-31
 70
     0
  3
Adobe Illustrator Linetype No. 31
 72
    65
 73
     2
 40
3.609305381774902
 49
1.804652690887451
 74
     0
 49
-1.804652690887451
 74
     0
  0
LTYPE
  5
157
330
5
100
AcDbSymbolTableRecord
100
AcDbLinetypeTableRecord
  2
AI-Linetype-32
 70
     0
  3
Adobe Illustrator Linetype No. 32
 72
    65
 73
     2
 40
1.804652690887451
 49
0.9023263454437256
 74
     0
 49
-0.9023263454437256
 74
     0
  0
LTYPE
  5
15C
330
5
100
AcDbSymbolTableRecord
100
AcDbLinetypeTableRecord
  2
AI-Linetype-33
 70
     0
  3
Adobe Illustrator Linetype No. 33
 72
    65
 73
     2
 40
3.609305381774902
 49
1.804652690887451
 74
     0
 49
-1.804652690887451
 74
     0
  0
LTYPE
  5
1B4
330
5
100
AcDbSymbolTableRecord
100
AcDbLinetypeTableRecord
  2
AI-Linetype-34
 70
     0
  3
Adobe Illustrator Linetype No. 34
 72
    65
 73
     2
 40
3.609305381774902
 49
1.804652690887451
 74
     0
 49
-1.804652690887451
 74
     0
  0
LTYPE
  5
1BB
330
5
100
AcDbSymbolTableRecord
100
AcDbLinetypeTableRecord
  2
AI-Linetype-35
 70
     0
  3
Adobe Illustrator Linetype No. 35
 72
    65
 73
     2
 40
4.511631727218628
 49
2.706979036331177
 74
     0
 49
-1.804652690887451
 74
     0
  0
LTYPE
  5
1BE
330
5
100
AcDbSymbolTableRecord
100
AcDbLinetypeTableRecord
  2
AI-Linetype-36
 70
     0
  3
Adobe Illustrator Linetype No. 36
 72
    65
 73
     2
 40
4.511631727218628
 49
2.706979036331177
 74
     0
 49
-1.804652690887451
 74
     0
  0
LTYPE
  5
1C1
330
5
100
AcDbSymbolTableRecord
100
AcDbLinetypeTableRecord
  2
AI-Linetype-37
 70
     0
  3
Adobe Illustrator Linetype No. 37
 72
    65
 73
     2
 40
4.511631727218628
 49
2.706979036331177
 74
     0
 49
-1.804652690887451
 74
     0
  0
LTYPE
  5
1C4
330
5
100
AcDbSymbolTableRecord
100
AcDbLinetypeTableRecord
  2
AI-Linetype-38
 70
     0
  3
Adobe Illustrator Linetype No. 38
 72
    65
 73
     2
 40
4.511631727218628
 49
2.706979036331177
 74
     0
 49
-1.804652690887451
 74
     0
  0
LTYPE
  5
1C7
330
5
100
AcDbSymbolTableRecord
100
AcDbLinetypeTableRecord
  2
AI-Linetype-39
 70
     0
  3
Adobe Illustrator Linetype No. 39
 72
    65
 73
     2
 40
4.511631727218628
 49
2.706979036331177
 74
     0
 49
-1.804652690887451
 74
     0
  0
ENDTAB
  0
TABLE
  2
LAYER
  5
2
330
0
100
AcDbSymbolTable
 70
     5
  0
LAYER
  5
10
330
2
100
AcDbSymbolTableRecord
100
AcDbLayerTableRecord
  2
0
 70
     0
 62
     7
  6
Continuous
370
    -3
390
F
347
3E
  0
LAYER
  5
40
330
2
100
AcDbSymbolTableRecord
100
AcDbLayerTableRecord
  2
Wood
 70
     0
 62
     7
  6
Continuous
370
    -3
390
F
347
3E
  0
LAYER
  5
87
330
2
100
AcDbSymbolTableRecord
100
AcDbLayerTableRecord
  2
5
 70
     0
 62
     7
  6
Continuous
370
    -3
390
F
347
3E
  0
LAYER
  5
1B5
330
2
100
AcDbSymbolTableRecord
100
AcDbLayerTableRecord
  2
Dowel 5
 70
     0
 62
     7
  6
Continuous
370
    -3
390
F
347
3E
  0
LAYER
  5
1C9
330
2
100
AcDbSymbolTableRecord
100
AcDbLayerTableRecord
  2
Name
 70
     0
 62
     7
  6
Continuous
370
    -3
390
F
347
3E
  0
ENDTAB
  0
TABLE
  2
STYLE
  5
3
330
0
100
AcDbSymbolTable
 70
     1
  0
STYLE
  5
11
330
3
100
AcDbSymbolTableRecord
100
AcDbTextStyleTableRecord
  2
Standard
 70
     0
 40
0.0
 41
1.0
 50
0.0
 71
     0
 42
0.2
  3
txt
  4

  0
ENDTAB
  0
TABLE
  2
VIEW
  5
6
330
0
100
AcDbSymbolTable
 70
     0
  0
ENDTAB
  0
TABLE
  2
UCS
  5
7
330
0
100
AcDbSymbolTable
 70
     0
  0
ENDTAB
  0
TABLE
  2
APPID
  5
9
330
0
100
AcDbSymbolTable
 70
     1
  0
APPID
  5
12
330
9
100
AcDbSymbolTableRecord
100
AcDbRegAppTableRecord
  2
ACAD
 70
     0
  0
ENDTAB
  0
TABLE
  2
DIMSTYLE
  5
A
330
0
100
AcDbSymbolTable
 70
     1
100
AcDbDimStyleTable
  0
DIMSTYLE
105
27
330
A
100
AcDbSymbolTableRecord
100
AcDbDimStyleTableRecord
  2
Standard
 70
     0
178
     0
340
11
  0
ENDTAB
  0
TABLE
  2
BLOCK_RECORD
  5
1
330
0
100
AcDbSymbolTable
 70
    12
  0
BLOCK_RECORD
  5
1F
330
1
100
AcDbSymbolTableRecord
100
AcDbBlockTableRecord
  2
*Model_Space
340
22
 70
     0
280
     1
281
     0
  0
BLOCK_RECORD
  5
1B
330
1
100
AcDbSymbolTableRecord
100
AcDbBlockTableRecord
  2
*Paper_Space
340
1E
 70
     0
280
     1
281
     0
  0
BLOCK_RECORD
  5
23
330
1
100
AcDbSymbolTableRecord
100
AcDbBlockTableRecord
  2
*Paper_Space0
340
26
 70
     0
280
     1
281
     0
  0
BLOCK_RECORD
  5
88
330
1
100
AcDbSymbolTableRecord
100
AcDbBlockTableRecord
  2
block 2
340
0
102
{BLKREFS
331
89
102
}
 70
     0
280
     1
281
     0
  0
BLOCK_RECORD
  5
92
330
1
100
AcDbSymbolTableRecord
100
AcDbBlockTableRecord
  2
block 3
340
0
102
{BLKREFS
331
93
102
}
 70
     0
280
     1
281
     0
  0
BLOCK_RECORD
  5
9C
330
1
100
AcDbSymbolTableRecord
100
AcDbBlockTableRecord
  2
block 4
340
0
102
{BLKREFS
331
9D
102
}
 70
     0
280
     1
281
     0
  0
BLOCK_RECORD
  5
A6
330
1
100
AcDbSymbolTableRecord
100
AcDbBlockTableRecord
  2
block 5
340
0
102
{BLKREFS
331
A7
102
}
 70
     0
280
     1
281
     0
  0
BLOCK_RECORD
  5
B0
330
1
100
AcDbSymbolTableRecord
100
AcDbBlockTableRecord
  2
block 6
340
0
102
{BLKREFS
331
B1
102
}
 70
     0
280
     1
281
     0
  0
BLOCK_RECORD
  5
BA
330
1
100
AcDbSymbolTableRecord
100
AcDbBlockTableRecord
  2
block 7
340
0
102
{BLKREFS
331
BB
102
}
 70
     0
280
     1
281
     0
  0
BLOCK_RECORD
  5
BE
330
1
100
AcDbSymbolTableRecord
100
AcDbBlockTableRecord
  2
block 8
340
0
102
{BLKREFS
331
BF
102
}
 70
     0
280
     1
281
     0
  0
BLOCK_RECORD
  5
1B6
330
1
100
AcDbSymbolTableRecord
100
AcDbBlockTableRecord
  2
block 9
340
0
102
{BLKREFS
331
1B7
102
}
 70
     0
280
     1
281
     0
  0
BLOCK_RECORD
  5
1CF
330
1
100
AcDbSymbolTableRecord
100
AcDbBlockTableRecord
  2
block 10
340
0
102
{BLKREFS
331
1D0
102
}
 70
     0
280
     1
281
     0
  0
BLOCK_RECORD
  5
1DF
330
1
100
AcDbSymbolTableRecord
100
AcDbBlockTableRecord
  2
block 11
340
0
102
{BLKREFS
331
1E0
102
}
 70
     0
280
     1
281
     0
  0
BLOCK_RECORD
  5
1EF
330
1
100
AcDbSymbolTableRecord
100
AcDbBlockTableRecord
  2
block 12
340
0
102
{BLKREFS
331
1F0
102
}
 70
     0
280
     1
281
     0
  0
ENDTAB
  0
ENDSEC
  0
SECTION
  2
BLOCKS
  0
BLOCK
  5
20
330
1F
100
AcDbEntity
  8
0
100
AcDbBlockBegin
  2
*Model_Space
 70
     0
 10
0.0
 20
0.0
 30
0.0
  3
*Model_Space
  1

  0
ENDBLK
  5
21
330
1F
100
AcDbEntity
  8
0
100
AcDbBlockEnd
  0
BLOCK
  5
1C
330
1B
100
AcDbEntity
 67
     1
  8
0
100
AcDbBlockBegin
  2
*Paper_Space
 70
     0
 10
0.0
 20
0.0
 30
0.0
  3
*Paper_Space
  1

  0
ENDBLK
  5
1D
330
1B
100
AcDbEntity
 67
     1
  8
0
100
AcDbBlockEnd
  0
BLOCK
  5
24
330
23
100
AcDbEntity
  8
0
100
AcDbBlockBegin
  2
*Paper_Space0
 70
     0
 10
0.0
 20
0.0
 30
0.0
  3
*Paper_Space0
  1

  0
ENDBLK
  5
25
330
23
100
AcDbEntity
  8
0
100
AcDbBlockEnd
  0
BLOCK
  5
8A
330
88
100
AcDbEntity
  8
0
100
AcDbBlockBegin
  2
block 2
 70
     0
 10
0.0
 20
0.0
 30
0.0
  3
block 2
  1

  0
SPLINE
  5
8C
330
88
100
AcDbEntity
  8
5
  6
AI-Linetype-2
 62
   250
420
  2301728
370
    20
100
AcDbSpline
210
0.0
220
0.0
230
1.0
 70
     8
 71
     3
 72
    20
 73
    16
 74
     0
 42
0.0000000001
 43
0.0000000001
 12
1.0
 22
0.0
 32
0.0
 13
1.0
 23
0.0
 33
0.0
 40
0.0
 40
0.0
 40
0.0
 40
0.0
 40
1.0
 40
1.0
 40
1.0
 40
2.0
 40
2.0
 40
2.0
 40
3.0
 40
3.0
 40
3.0
 40
4.0
 40
4.0
 40
4.0
 40
5.0
 40
5.0
 40
5.0
 40
5.0
 10
124.4662316447138
 20
216.3476083282821
 30
0.0
 10
124.4662316447138
 20
216.3476083282821
 30
0.0
 10
133.6596739119268
 20
218.1327631691174
 30
0.0
 10
133.6596739119268
 20
218.1327631691174
 30
0.0
 10
134.1662399257839
 20
218.210009965298
 30
0.0
 10
134.5123723143079
 20
218.6815580562379
 30
0.0
 10
134.4365769007636
 20
219.1866803479352
 30
0.0
 10
134.4365769007636
 20
219.1866803479352
 30
0.0
 10
134.1727366755185
 20
220.9038073952725
 30
0.0
 10
134.1727366755185
 20
220.9038073952725
 30
0.0
 10
134.0947756787282
 20
221.40838829116
 30
0.0
 10
133.6244831842087
 20
221.755242540763
 30
0.0
 10
133.1199022883229
 20
221.6781838703264
 30
0.0
 10
133.1199022883229
 20
221.6781838703264
 30
0.0
 10
124.6044680417981
 20
220.426123541125
 30
0.0
 10
124.6044680417981
 20
220.426123541125
 30
0.0
  0
HATCH
  5
8E
330
88
100
AcDbEntity
  8
5
 62
   254
420
 16376262
100
AcDbHatch
 10
0.0
 20
0.0
 30
0.0
210
0.0
220
0.0
230
1.0
  2
SOLID
 70
     1
 71
     0
 91
        1
 92
        1
 93
        2
 72
     4
 94
        3
 73
     0
 74
     0
 95
       20
 96
       16
 40
0.0
 40
0.0
 40
0.0
 40
0.0
 40
1.0
 40
1.0
 40
1.0
 40
2.0
 40
2.0
 40
2.0
 40
3.0
 40
3.0
 40
3.0
 40
4.0
 40
4.0
 40
4.0
 40
5.0
 40
5.0
 40
5.0
 40
5.0
 10
124.4662316447138
 20
216.3476083282821
 10
124.4662316447138
 20
216.3476083282821
 10
133.6596739119268
 20
218.1327631691174
 10
133.6596739119268
 20
218.1327631691174
 10
134.1662399257839
 20
218.210009965298
 10
134.5123723143079
 20
218.6815580562379
 10
134.4365769007636
 20
219.1866803479352
 10
134.4365769007636
 20
219.1866803479352
 10
134.1727366755185
 20
220.9038073952725
 10
134.1727366755185
 20
220.9038073952725
 10
134.0947756787282
 20
221.40838829116
 10
133.6244831842087
 20
221.755242540763
 10
133.1199022883229
 20
221.6781838703264
 10
133.1199022883229
 20
221.6781838703264
 10
124.6044680417981
 20
220.426123541125
 10
124.6044680417981
 20
220.426123541125
 97
        0
 72
     1
 10
124.6044680417981
 20
220.426123541125
 11
124.4662316447138
 21
216.3476083282821
 97
        0
 75
     2
 76
     1
 98
        0
  0
SPLINE
  5
8F
330
88
100
AcDbEntity
  8
5
  6
AI-Linetype-3
 62
   250
420
  2301728
370
    20
100
AcDbSpline
210
0.0
220
0.0
230
1.0
 70
     8
 71
     3
 72
    14
 73
    10
 74
     0
 42
0.0000000001
 43
0.0000000001
 12
1.0
 22
0.0
 32
0.0
 13
1.0
 23
0.0
 33
0.0
 40
0.0
 40
0.0
 40
0.0
 40
0.0
 40
1.0
 40
1.0
 40
1.0
 40
2.0
 40
2.0
 40
2.0
 40
3.0
 40
3.0
 40
3.0
 40
3.0
 10
133.3855471662719
 20
221.6660926972127
 30
0.0
 10
133.0493403676155
 20
221.4870711490294
 30
0.0
 10
132.8446975515581
 20
221.1091768729257
 30
0.0
 10
132.9046072208002
 20
220.7098072296521
 30
0.0
 10
132.9046072208002
 20
220.7098072296521
 30
0.0
 10
133.1682669807742
 20
218.9926801823131
 30
0.0
 10
133.1682669807742
 20
218.9926801823131
 30
0.0
 10
133.2261963325545
 20
218.6147859062094
 30
0.0
 10
133.5053761057789
 20
218.3245977514944
 30
0.0
 10
133.8551177997106
 20
218.2365306995653
 30
0.0
  0
HATCH
  5
91
330
88
100
AcDbEntity
  8
5
 62
   254
420
 16376262
100
AcDbHatch
 10
0.0
 20
0.0
 30
0.0
210
0.0
220
0.0
230
1.0
  2
SOLID
 70
     1
 71
     0
 91
        1
 92
        1
 93
        2
 72
     4
 94
        3
 73
     0
 74
     0
 95
       14
 96
       10
 40
0.0
 40
0.0
 40
0.0
 40
0.0
 40
1.0
 40
1.0
 40
1.0
 40
2.0
 40
2.0
 40
2.0
 40
3.0
 40
3.0
 40
3.0
 40
3.0
 10
133.3855471662719
 20
221.6660926972127
 10
133.0493403676155
 20
221.4870711490294
 10
132.8446975515581
 20
221.1091768729257
 10
132.9046072208002
 20
220.7098072296521
 10
132.9046072208002
 20
220.7098072296521
 10
133.1682669807742
 20
218.9926801823131
 10
133.1682669807742
 20
218.9926801823131
 10
133.2261963325545
 20
218.6147859062094
 10
133.5053761057789
 20
218.3245977514944
 10
133.8551177997106
 20
218.2365306995653
 97
        0
 72
     1
 10
133.8551177997106
 20
218.2365306995653
 11
133.3855471662719
 21
221.6660926972127
 97
        0
 75
     2
 76
     1
 98
        0
  0
ENDBLK
  5
8B
330
88
100
AcDbEntity
  8
0
100
AcDbBlockEnd
  0
BLOCK
  5
94
330
92
100
AcDbEntity
  8
0
100
AcDbBlockBegin
  2
block 3
 70
     0
 10
0.0
 20
0.0
 30
0.0
  3
block 3
  1

  0
SPLINE
  5
96
330
92
100
AcDbEntity
  8
5
  6
AI-Linetype-4
 62
   250
420
  2301728
370
    20
100
AcDbSpline
210
0.0
220
0.0
230
1.0
 70
     8
 71
     3
 72
    20
 73
    16
 74
     0
 42
0.0000000001
 43
0.0000000001
 12
1.0
 22
0.0
 32
0.0
 13
1.0
 23
0.0
 33
0.0
 40
0.0
 40
0.0
 40
0.0
 40
0.0
 40
1.0
 40
1.0
 40
1.0
 40
2.0
 40
2.0
 40
2.0
 40
3.0
 40
3.0
 40
3.0
 40
4.0
 40
4.0
 40
4.0
 40
5.0
 40
5.0
 40
5.0
 40
5.0
 10
124.4662316447138
 20
204.5839720673848
 30
0.0
 10
124.4662316447138
 20
204.5839720673848
 30
0.0
 10
133.6596739119268
 20
206.3689540563719
 30
0.0
 10
133.6596739119268
 20
206.3689540563719
 30
0.0
 10
134.1662399257839
 20
206.4461931920796
 30
0.0
 10
134.5123723143079
 20
206.9177489434933
 30
0.0
 10
134.4365769007636
 20
207.4228712351905
 30
0.0
 10
134.4365769007636
 20
207.4228712351905
 30
0.0
 10
134.1727366755185
 20
209.1401787477989
 30
0.0
 10
134.1727366755185
 20
209.1401787477989
 30
0.0
 10
134.0947756787282
 20
209.6447596436847
 30
0.0
 10
133.6244831842087
 20
209.9916213461474
 30
0.0
 10
133.1199022883229
 20
209.9143747575818
 30
0.0
 10
133.1199022883229
 20
209.9143747575818
 30
0.0
 10
124.6044680417981
 20
208.6624871771946
 30
0.0
 10
124.6044680417981
 20
208.6624871771946
 30
0.0
  0
HATCH
  5
98
330
92
100
AcDbEntity
  8
5
 62
   254
420
 16376262
100
AcDbHatch
 10
0.0
 20
0.0
 30
0.0
210
0.0
220
0.0
230
1.0
  2
SOLID
 70
     1
 71
     0
 91
        1
 92
        1
 93
        2
 72
     4
 94
        3
 73
     0
 74
     0
 95
       20
 96
       16
 40
0.0
 40
0.0
 40
0.0
 40
0.0
 40
1.0
 40
1.0
 40
1.0
 40
2.0
 40
2.0
 40
2.0
 40
3.0
 40
3.0
 40
3.0
 40
4.0
 40
4.0
 40
4.0
 40
5.0
 40
5.0
 40
5.0
 40
5.0
 10
124.4662316447138
 20
204.5839720673848
 10
124.4662316447138
 20
204.5839720673848
 10
133.6596739119268
 20
206.3689540563719
 10
133.6596739119268
 20
206.3689540563719
 10
134.1662399257839
 20
206.4461931920796
 10
134.5123723143079
 20
206.9177489434933
 10
134.4365769007636
 20
207.4228712351905
 10
134.4365769007636
 20
207.4228712351905
 10
134.1727366755185
 20
209.1401787477989
 10
134.1727366755185
 20
209.1401787477989
 10
134.0947756787282
 20
209.6447596436847
 10
133.6244831842087
 20
209.9916213461474
 10
133.1199022883229
 20
209.9143747575818
 10
133.1199022883229
 20
209.9143747575818
 10
124.6044680417981
 20
208.6624871771946
 10
124.6044680417981
 20
208.6624871771946
 97
        0
 72
     1
 10
124.6044680417981
 20
208.6624871771946
 11
124.4662316447138
 21
204.5839720673848
 97
        0
 75
     2
 76
     1
 98
        0
  0
SPLINE
  5
99
330
92
100
AcDbEntity
  8
5
  6
AI-Linetype-5
 62
   250
420
  2301728
370
    20
100
AcDbSpline
210
0.0
220
0.0
230
1.0
 70
     8
 71
     3
 72
    14
 73
    10
 74
     0
 42
0.0000000001
 43
0.0000000001
 12
1.0
 22
0.0
 32
0.0
 13
1.0
 23
0.0
 33
0.0
 40
0.0
 40
0.0
 40
0.0
 40
0.0
 40
1.0
 40
1.0
 40
1.0
 40
2.0
 40
2.0
 40
2.0
 40
3.0
 40
3.0
 40
3.0
 40
3.0
 10
133.3855471662719
 20
209.902283584468
 30
0.0
 10
133.0493403676155
 20
209.7234425015558
 30
0.0
 10
132.8446975515581
 20
209.345367760181
 30
0.0
 10
132.9046072208002
 20
208.9461785821768
 30
0.0
 10
132.9046072208002
 20
208.9461785821768
 30
0.0
 10
133.1682669807742
 20
207.2290515348404
 30
0.0
 10
133.1682669807742
 20
207.2290515348404
 30
0.0
 10
133.2261963325545
 20
206.8511572587358
 30
0.0
 10
133.5053761057789
 20
206.5609764702131
 30
0.0
 10
133.8551177997106
 20
206.4729020520917
 30
0.0
  0
HATCH
  5
9B
330
92
100
AcDbEntity
  8
5
 62
   254
420
 16376262
100
AcDbHatch
 10
0.0
 20
0.0
 30
0.0
210
0.0
220
0.0
230
1.0
  2
SOLID
 70
     1
 71
     0
 91
        1
 92
        1
 93
        2
 72
     4
 94
        3
 73
     0
 74
     0
 95
       14
 96
       10
 40
0.0
 40
0.0
 40
0.0
 40
0.0
 40
1.0
 40
1.0
 40
1.0
 40
2.0
 40
2.0
 40
2.0
 40
3.0
 40
3.0
 40
3.0
 40
3.0
 10
133.3855471662719
 20
209.902283584468
 10
133.0493403676155
 20
209.7234425015558
 10
132.8446975515581
 20
209.345367760181
 10
132.9046072208002
 20
208.9461785821768
 10
132.9046072208002
 20
208.9461785821768
 10
133.1682669807742
 20
207.2290515348404
 10
133.1682669807742
 20
207.2290515348404
 10
133.2261963325545
 20
206.8511572587358
 10
133.5053761057789
 20
206.5609764702131
 10
133.8551177997106
 20
206.4729020520917
 97
        0
 72
     1
 10
133.8551177997106
 20
206.4729020520917
 11
133.3855471662719
 21
209.902283584468
 97
        0
 75
     2
 76
     1
 98
        0
  0
ENDBLK
  5
95
330
92
100
AcDbEntity
  8
0
100
AcDbBlockEnd
  0
BLOCK
  5
9E
330
9C
100
AcDbEntity
  8
0
100
AcDbBlockBegin
  2
block 4
 70
     0
 10
0.0
 20
0.0
 30
0.0
  3
block 4
  1

  0
SPLINE
  5
A0
330
9C
100
AcDbEntity
  8
5
  6
AI-Linetype-6
 62
   250
420
  2301728
370
    20
100
AcDbSpline
210
0.0
220
0.0
230
1.0
 70
     8
 71
     3
 72
    20
 73
    16
 74
     0
 42
0.0000000001
 43
0.0000000001
 12
1.0
 22
0.0
 32
0.0
 13
1.0
 23
0.0
 33
0.0
 40
0.0
 40
0.0
 40
0.0
 40
0.0
 40
1.0
 40
1.0
 40
1.0
 40
2.0
 40
2.0
 40
2.0
 40
3.0
 40
3.0
 40
3.0
 40
4.0
 40
4.0
 40
4.0
 40
5.0
 40
5.0
 40
5.0
 40
5.0
 10
124.4662316447138
 20
191.8904058818189
 30
0.0
 10
124.4662316447138
 20
191.8904058818189
 30
0.0
 10
133.6596739119268
 20
193.6753878708078
 30
0.0
 10
133.6596739119268
 20
193.6753878708078
 30
0.0
 10
134.1662399257839
 20
193.7526270065155
 30
0.0
 10
134.5123723143079
 20
194.2241827579273
 30
0.0
 10
134.4365769007636
 20
194.7293050496246
 30
0.0
 10
134.4365769007636
 20
194.7293050496246
 30
0.0
 10
134.1727366755185
 20
196.446612562233
 30
0.0
 10
134.1727366755185
 20
196.446612562233
 30
0.0
 10
134.0947756787282
 20
196.9512005815504
 30
0.0
 10
133.6244831842087
 20
197.2980477077244
 30
0.0
 10
133.1199022883229
 20
197.2208085720158
 30
0.0
 10
133.1199022883229
 20
197.2208085720158
 30
0.0
 10
124.6044680417981
 20
195.9689209916287
 30
0.0
 10
124.6044680417981
 20
195.9689209916287
 30
0.0
  0
HATCH
  5
A2
330
9C
100
AcDbEntity
  8
5
 62
   254
420
 16376262
100
AcDbHatch
 10
0.0
 20
0.0
 30
0.0
210
0.0
220
0.0
230
1.0
  2
SOLID
 70
     1
 71
     0
 91
        1
 92
        1
 93
        2
 72
     4
 94
        3
 73
     0
 74
     0
 95
       20
 96
       16
 40
0.0
 40
0.0
 40
0.0
 40
0.0
 40
1.0
 40
1.0
 40
1.0
 40
2.0
 40
2.0
 40
2.0
 40
3.0
 40
3.0
 40
3.0
 40
4.0
 40
4.0
 40
4.0
 40
5.0
 40
5.0
 40
5.0
 40
5.0
 10
124.4662316447138
 20
191.8904058818189
 10
124.4662316447138
 20
191.8904058818189
 10
133.6596739119268
 20
193.6753878708078
 10
133.6596739119268
 20
193.6753878708078
 10
134.1662399257839
 20
193.7526270065155
 10
134.5123723143079
 20
194.2241827579273
 10
134.4365769007636
 20
194.7293050496246
 10
134.4365769007636
 20
194.7293050496246
 10
134.1727366755185
 20
196.446612562233
 10
134.1727366755185
 20
196.446612562233
 10
134.0947756787282
 20
196.9512005815504
 10
133.6244831842087
 20
197.2980477077244
 10
133.1199022883229
 20
197.2208085720158
 10
133.1199022883229
 20
197.2208085720158
 10
124.6044680417981
 20
195.9689209916287
 10
124.6044680417981
 20
195.9689209916287
 97
        0
 72
     1
 10
124.6044680417981
 20
195.9689209916287
 11
124.4662316447138
 21
191.8904058818189
 97
        0
 75
     2
 76
     1
 98
        0
  0
SPLINE
  5
A3
330
9C
100
AcDbEntity
  8
5
  6
AI-Linetype-7
 62
   250
420
  2301728
370
    20
100
AcDbSpline
210
0.0
220
0.0
230
1.0
 70
     8
 71
     3
 72
    14
 73
    10
 74
     0
 42
0.0000000001
 43
0.0000000001
 12
1.0
 22
0.0
 32
0.0
 13
1.0
 23
0.0
 33
0.0
 40
0.0
 40
0.0
 40
0.0
 40
0.0
 40
1.0
 40
1.0
 40
1.0
 40
2.0
 40
2.0
 40
2.0
 40
3.0
 40
3.0
 40
3.0
 40
3.0
 10
133.3855471662719
 20
197.2087173989021
 30
0.0
 10
133.0493403676155
 20
197.0298763159899
 30
0.0
 10
132.8446975515581
 20
196.6518015746169
 30
0.0
 10
132.9046072208002
 20
196.2526123966127
 30
0.0
 10
132.9046072208002
 20
196.2526123966127
 30
0.0
 10
133.1682669807742
 20
194.5354853492736
 30
0.0
 10
133.1682669807742
 20
194.5354853492736
 30
0.0
 10
133.2261963325545
 20
194.1575981260266
 30
0.0
 10
133.5053761057789
 20
193.8674029184549
 30
0.0
 10
133.8551177997106
 20
193.7793358665258
 30
0.0
  0
HATCH
  5
A5
330
9C
100
AcDbEntity
  8
5
 62
   254
420
 16376262
100
AcDbHatch
 10
0.0
 20
0.0
 30
0.0
210
0.0
220
0.0
230
1.0
  2
SOLID
 70
     1
 71
     0
 91
        1
 92
        1
 93
        2
 72
     4
 94
        3
 73
     0
 74
     0
 95
       14
 96
       10
 40
0.0
 40
0.0
 40
0.0
 40
0.0
 40
1.0
 40
1.0
 40
1.0
 40
2.0
 40
2.0
 40
2.0
 40
3.0
 40
3.0
 40
3.0
 40
3.0
 10
133.3855471662719
 20
197.2087173989021
 10
133.0493403676155
 20
197.0298763159899
 10
132.8446975515581
 20
196.6518015746169
 10
132.9046072208002
 20
196.2526123966127
 10
132.9046072208002
 20
196.2526123966127
 10
133.1682669807742
 20
194.5354853492736
 10
133.1682669807742
 20
194.5354853492736
 10
133.2261963325545
 20
194.1575981260266
 10
133.5053761057789
 20
193.8674029184549
 10
133.8551177997106
 20
193.7793358665258
 97
        0
 72
     1
 10
133.8551177997106
 20
193.7793358665258
 11
133.3855471662719
 21
197.2087173989021
 97
        0
 75
     2
 76
     1
 98
        0
  0
ENDBLK
  5
9F
330
9C
100
AcDbEntity
  8
0
100
AcDbBlockEnd
  0
BLOCK
  5
A8
330
A6
100
AcDbEntity
  8
0
100
AcDbBlockBegin
  2
block 5
 70
     0
 10
0.0
 20
0.0
 30
0.0
  3
block 5
  1

  0
SPLINE
  5
AA
330
A6
100
AcDbEntity
  8
5
  6
AI-Linetype-8
 62
   250
420
  2301728
370
    20
100
AcDbSpline
210
0.0
220
0.0
230
1.0
 70
     8
 71
     3
 72
    20
 73
    16
 74
     0
 42
0.0000000001
 43
0.0000000001
 12
1.0
 22
0.0
 32
0.0
 13
1.0
 23
0.0
 33
0.0
 40
0.0
 40
0.0
 40
0.0
 40
0.0
 40
1.0
 40
1.0
 40
1.0
 40
2.0
 40
2.0
 40
2.0
 40
3.0
 40
3.0
 40
3.0
 40
4.0
 40
4.0
 40
4.0
 40
5.0
 40
5.0
 40
5.0
 40
5.0
 10
124.4662316447138
 20
179.025939085237
 30
0.0
 10
124.4662316447138
 20
179.025939085237
 30
0.0
 10
133.6596739119268
 20
180.8111015394952
 30
0.0
 10
133.6596739119268
 20
180.8111015394952
 30
0.0
 10
134.1662399257839
 20
180.8883406752029
 30
0.0
 10
134.5123723143079
 20
181.3598964266166
 30
0.0
 10
134.4365769007636
 20
181.8650187183139
 30
0.0
 10
134.4365769007636
 20
181.8650187183139
 30
0.0
 10
134.1727366755185
 20
183.5821457656511
 30
0.0
 10
134.1727366755185
 20
183.5821457656511
 30
0.0
 10
134.0947756787282
 20
184.086907126808
 30
0.0
 10
133.6244831842087
 20
184.4337613764128
 30
0.0
 10
133.1199022883229
 20
184.3565290459646
 30
0.0
 10
133.1199022883229
 20
184.3565290459646
 30
0.0
 10
124.6044680417981
 20
183.1044541950469
 30
0.0
 10
124.6044680417981
 20
183.1044541950469
 30
0.0
  0
HATCH
  5
AC
330
A6
100
AcDbEntity
  8
5
 62
   254
420
 16376262
100
AcDbHatch
 10
0.0
 20
0.0
 30
0.0
210
0.0
220
0.0
230
1.0
  2
SOLID
 70
     1
 71
     0
 91
        1
 92
        1
 93
        2
 72
     4
 94
        3
 73
     0
 74
     0
 95
       20
 96
       16
 40
0.0
 40
0.0
 40
0.0
 40
0.0
 40
1.0
 40
1.0
 40
1.0
 40
2.0
 40
2.0
 40
2.0
 40
3.0
 40
3.0
 40
3.0
 40
4.0
 40
4.0
 40
4.0
 40
5.0
 40
5.0
 40
5.0
 40
5.0
 10
124.4662316447138
 20
179.025939085237
 10
124.4662316447138
 20
179.025939085237
 10
133.6596739119268
 20
180.8111015394952
 10
133.6596739119268
 20
180.8111015394952
 10
134.1662399257839
 20
180.8883406752029
 10
134.5123723143079
 20
181.3598964266166
 10
134.4365769007636
 20
181.8650187183139
 10
134.4365769007636
 20
181.8650187183139
 10
134.1727366755185
 20
183.5821457656511
 10
134.1727366755185
 20
183.5821457656511
 10
134.0947756787282
 20
184.086907126808
 10
133.6244831842087
 20
184.4337613764128
 10
133.1199022883229
 20
184.3565290459646
 10
133.1199022883229
 20
184.3565290459646
 10
124.6044680417981
 20
183.1044541950469
 10
124.6044680417981
 20
183.1044541950469
 97
        0
 72
     1
 10
124.6044680417981
 20
183.1044541950469
 11
124.4662316447138
 21
179.025939085237
 97
        0
 75
     2
 76
     1
 98
        0
  0
SPLINE
  5
AD
330
A6
100
AcDbEntity
  8
5
  6
AI-Linetype-9
 62
   250
420
  2301728
370
    20
100
AcDbSpline
210
0.0
220
0.0
230
1.0
 70
     8
 71
     3
 72
    14
 73
    10
 74
     0
 42
0.0000000001
 43
0.0000000001
 12
1.0
 22
0.0
 32
0.0
 13
1.0
 23
0.0
 33
0.0
 40
0.0
 40
0.0
 40
0.0
 40
0.0
 40
1.0
 40
1.0
 40
1.0
 40
2.0
 40
2.0
 40
2.0
 40
3.0
 40
3.0
 40
3.0
 40
3.0
 10
133.3855471662719
 20
184.3444310675914
 30
0.0
 10
133.0493403676155
 20
184.1654095194081
 30
0.0
 10
132.8446975515581
 20
183.7875152433044
 30
0.0
 10
132.9046072208002
 20
183.3883260653001
 30
0.0
 10
132.9046072208002
 20
183.3883260653001
 30
0.0
 10
133.1682669807742
 20
181.6712057553868
 30
0.0
 10
133.1682669807742
 20
181.6712057553868
 30
0.0
 10
133.2261963325545
 20
181.2931242765881
 30
0.0
 10
133.5053761057789
 20
181.0029361218731
 30
0.0
 10
133.8551177997106
 20
180.914869069944
 30
0.0
  0
HATCH
  5
AF
330
A6
100
AcDbEntity
  8
5
 62
   254
420
 16376262
100
AcDbHatch
 10
0.0
 20
0.0
 30
0.0
210
0.0
220
0.0
230
1.0
  2
SOLID
 70
     1
 71
     0
 91
        1
 92
        1
 93
        2
 72
     4
 94
        3
 73
     0
 74
     0
 95
       14
 96
       10
 40
0.0
 40
0.0
 40
0.0
 40
0.0
 40
1.0
 40
1.0
 40
1.0
 40
2.0
 40
2.0
 40
2.0
 40
3.0
 40
3.0
 40
3.0
 40
3.0
 10
133.3855471662719
 20
184.3444310675914
 10
133.0493403676155
 20
184.1654095194081
 10
132.8446975515581
 20
183.7875152433044
 10
132.9046072208002
 20
183.3883260653001
 10
132.9046072208002
 20
183.3883260653001
 10
133.1682669807742
 20
181.6712057553868
 10
133.1682669807742
 20
181.6712057553868
 10
133.2261963325545
 20
181.2931242765881
 10
133.5053761057789
 20
181.0029361218731
 10
133.8551177997106
 20
180.914869069944
 97
        0
 72
     1
 10
133.8551177997106
 20
180.914869069944
 11
133.3855471662719
 21
184.3444310675914
 97
        0
 75
     2
 76
     1
 98
        0
  0
ENDBLK
  5
A9
330
A6
100
AcDbEntity
  8
0
100
AcDbBlockEnd
  0
BLOCK
  5
B2
330
B0
100
AcDbEntity
  8
0
100
AcDbBlockBegin
  2
block 6
 70
     0
 10
0.0
 20
0.0
 30
0.0
  3
block 6
  1

  0
SPLINE
  5
B4
330
B0
100
AcDbEntity
  8
5
  6
AI-Linetype-10
 62
   250
420
  2301728
370
    20
100
AcDbSpline
210
0.0
220
0.0
230
1.0
 70
     8
 71
     3
 72
    20
 73
    16
 74
     0
 42
0.0000000001
 43
0.0000000001
 12
1.0
 22
0.0
 32
0.0
 13
1.0
 23
0.0
 33
0.0
 40
0.0
 40
0.0
 40
0.0
 40
0.0
 40
1.0
 40
1.0
 40
1.0
 40
2.0
 40
2.0
 40
2.0
 40
3.0
 40
3.0
 40
3.0
 40
4.0
 40
4.0
 40
4.0
 40
5.0
 40
5.0
 40
5.0
 40
5.0
 10
124.4662316447138
 20
166.1322369148584
 30
0.0
 10
124.4662316447138
 20
166.1322369148584
 30
0.0
 10
133.6596739119268
 20
167.9173993691165
 30
0.0
 10
133.6596739119268
 20
167.9173993691165
 30
0.0
 10
134.1662399257839
 20
167.9946385048243
 30
0.0
 10
134.5123723143079
 20
168.4661942562379
 30
0.0
 10
134.4365769007636
 20
168.9713165479352
 30
0.0
 10
134.4365769007636
 20
168.9713165479352
 30
0.0
 10
134.1727366755185
 20
170.6884435952716
 30
0.0
 10
134.1727366755185
 20
170.6884435952716
 30
0.0
 10
134.0947756787282
 20
171.1932049564293
 30
0.0
 10
133.6244831842087
 20
171.5400592060341
 30
0.0
 10
133.1199022883229
 20
171.4628200703264
 30
0.0
 10
133.1199022883229
 20
171.4628200703264
 30
0.0
 10
124.6044680417981
 20
170.2107520246682
 30
0.0
 10
124.6044680417981
 20
170.2107520246682
 30
0.0
  0
HATCH
  5
B6
330
B0
100
AcDbEntity
  8
5
 62
   254
420
 16376262
100
AcDbHatch
 10
0.0
 20
0.0
 30
0.0
210
0.0
220
0.0
230
1.0
  2
SOLID
 70
     1
 71
     0
 91
        1
 92
        1
 93
        2
 72
     4
 94
        3
 73
     0
 74
     0
 95
       20
 96
       16
 40
0.0
 40
0.0
 40
0.0
 40
0.0
 40
1.0
 40
1.0
 40
1.0
 40
2.0
 40
2.0
 40
2.0
 40
3.0
 40
3.0
 40
3.0
 40
4.0
 40
4.0
 40
4.0
 40
5.0
 40
5.0
 40
5.0
 40
5.0
 10
124.4662316447138
 20
166.1322369148584
 10
124.4662316447138
 20
166.1322369148584
 10
133.6596739119268
 20
167.9173993691165
 10
133.6596739119268
 20
167.9173993691165
 10
134.1662399257839
 20
167.9946385048243
 10
134.5123723143079
 20
168.4661942562379
 10
134.4365769007636
 20
168.9713165479352
 10
134.4365769007636
 20
168.9713165479352
 10
134.1727366755185
 20
170.6884435952716
 10
134.1727366755185
 20
170.6884435952716
 10
134.0947756787282
 20
171.1932049564293
 10
133.6244831842087
 20
171.5400592060341
 10
133.1199022883229
 20
171.4628200703264
 10
133.1199022883229
 20
171.4628200703264
 10
124.6044680417981
 20
170.2107520246682
 10
124.6044680417981
 20
170.2107520246682
 97
        0
 72
     1
 10
124.6044680417981
 20
170.2107520246682
 11
124.4662316447138
 21
166.1322369148584
 97
        0
 75
     2
 76
     1
 98
        0
  0
SPLINE
  5
B7
330
B0
100
AcDbEntity
  8
5
  6
AI-Linetype-11
 62
   250
420
  2301728
370
    20
100
AcDbSpline
210
0.0
220
0.0
230
1.0
 70
     8
 71
     3
 72
    14
 73
    10
 74
     0
 42
0.0000000001
 43
0.0000000001
 12
1.0
 22
0.0
 32
0.0
 13
1.0
 23
0.0
 33
0.0
 40
0.0
 40
0.0
 40
0.0
 40
0.0
 40
1.0
 40
1.0
 40
1.0
 40
2.0
 40
2.0
 40
2.0
 40
3.0
 40
3.0
 40
3.0
 40
3.0
 10
133.3855471662719
 20
171.4507288972127
 30
0.0
 10
133.0493403676155
 20
171.2717073490294
 30
0.0
 10
132.8446975515581
 20
170.8938195380906
 30
0.0
 10
132.9046072208002
 20
170.4946238949215
 30
0.0
 10
132.9046072208002
 20
170.4946238949215
 30
0.0
 10
133.1682669807742
 20
168.7774968475842
 30
0.0
 10
133.1682669807742
 20
168.7774968475842
 30
0.0
 10
133.2261963325545
 20
168.3994221062094
 30
0.0
 10
133.5053761057789
 20
168.1092403463153
 30
0.0
 10
133.8551177997106
 20
168.0211668995653
 30
0.0
  0
HATCH
  5
B9
330
B0
100
AcDbEntity
  8
5
 62
   254
420
 16376262
100
AcDbHatch
 10
0.0
 20
0.0
 30
0.0
210
0.0
220
0.0
230
1.0
  2
SOLID
 70
     1
 71
     0
 91
        1
 92
        1
 93
        2
 72
     4
 94
        3
 73
     0
 74
     0
 95
       14
 96
       10
 40
0.0
 40
0.0
 40
0.0
 40
0.0
 40
1.0
 40
1.0
 40
1.0
 40
2.0
 40
2.0
 40
2.0
 40
3.0
 40
3.0
 40
3.0
 40
3.0
 10
133.3855471662719
 20
171.4507288972127
 10
133.0493403676155
 20
171.2717073490294
 10
132.8446975515581
 20
170.8938195380906
 10
132.9046072208002
 20
170.4946238949215
 10
132.9046072208002
 20
170.4946238949215
 10
133.1682669807742
 20
168.7774968475842
 10
133.1682669807742
 20
168.7774968475842
 10
133.2261963325545
 20
168.3994221062094
 10
133.5053761057789
 20
168.1092403463153
 10
133.8551177997106
 20
168.0211668995653
 97
        0
 72
     1
 10
133.8551177997106
 20
168.0211668995653
 11
133.3855471662719
 21
171.4507288972127
 97
        0
 75
     2
 76
     1
 98
        0
  0
ENDBLK
  5
B3
330
B0
100
AcDbEntity
  8
0
100
AcDbBlockEnd
  0
BLOCK
  5
BC
330
BA
100
AcDbEntity
  8
0
100
AcDbBlockBegin
  2
block 7
 70
     0
 10
0.0
 20
0.0
 30
0.0
  3
block 7
  1

  0
INSERT
  5
BF
330
BA
100
AcDbEntity
  8
5
100
AcDbBlockReference
  2
block 8
 10
0.0
 20
0.0
 30
0.0
  0
ENDBLK
  5
BD
330
BA
100
AcDbEntity
  8
0
100
AcDbBlockEnd
  0
BLOCK
  5
C0
330
BE
100
AcDbEntity
  8
0
100
AcDbBlockBegin
  2
block 8
 70
     0
 10
0.0
 20
0.0
 30
0.0
  3
block 8
  1

  0
SPLINE
  5
C2
330
BE
100
AcDbEntity
  8
5
370
     0
100
AcDbSpline
210
0.0
220
0.0
230
1.0
 70
    11
 71
     3
 72
   173
 73
   169
 74
     0
 42
0.0000000001
 43
0.0000000001
 12
1.0
 22
0.0
 32
0.0
 13
1.0
 23
0.0
 33
0.0
 40
0.0
 40
0.0
 40
0.0
 40
0.0
 40
1.0
 40
1.0
 40
1.0
 40
2.0
 40
2.0
 40
2.0
 40
3.0
 40
3.0
 40
3.0
 40
4.0
 40
4.0
 40
4.0
 40
5.0
 40
5.0
 40
5.0
 40
6.0
 40
6.0
 40
6.0
 40
7.0
 40
7.0
 40
7.0
 40
8.0
 40
8.0
 40
8.0
 40
9.0
 40
9.0
 40
9.0
 40
10.0
 40
10.0
 40
10.0
 40
11.0
 40
11.0
 40
11.0
 40
12.0
 40
12.0
 40
12.0
 40
13.0
 40
13.0
 40
13.0
 40
14.0
 40
14.0
 40
14.0
 40
15.0
 40
15.0
 40
15.0
 40
16.0
 40
16.0
 40
16.0
 40
17.0
 40
17.0
 40
17.0
 40
18.0
 40
18.0
 40
18.0
 40
19.0
 40
19.0
 40
19.0
 40
20.0
 40
20.0
 40
20.0
 40
21.0
 40
21.0
 40
21.0
 40
22.0
 40
22.0
 40
22.0
 40
23.0
 40
23.0
 40
23.0
 40
24.0
 40
24.0
 40
24.0
 40
25.0
 40
25.0
 40
25.0
 40
26.0
 40
26.0
 40
26.0
 40
27.0
 40
27.0
 40
27.0
 40
28.0
 40
28.0
 40
28.0
 40
29.0
 40
29.0
 40
29.0
 40
30.0
 40
30.0
 40
30.0
 40
31.0
 40
31.0
 40
31.0
 40
32.0
 40
32.0
 40
32.0
 40
33.0
 40
33.0
 40
33.0
 40
34.0
 40
34.0
 40
34.0
 40
35.0
 40
35.0
 40
35.0
 40
36.0
 40
36.0
 40
36.0
 40
37.0
 40
37.0
 40
37.0
 40
38.0
 40
38.0
 40
38.0
 40
39.0
 40
39.0
 40
39.0
 40
40.0
 40
40.0
 40
40.0
 40
41.0
 40
41.0
 40
41.0
 40
42.0
 40
42.0
 40
42.0
 40
43.0
 40
43.0
 40
43.0
 40
44.0
 40
44.0
 40
44.0
 40
45.0
 40
45.0
 40
45.0
 40
46.0
 40
46.0
 40
46.0
 40
47.0
 40
47.0
 40
47.0
 40
48.0
 40
48.0
 40
48.0
 40
49.0
 40
49.0
 40
49.0
 40
50.0
 40
50.0
 40
50.0
 40
51.0
 40
51.0
 40
51.0
 40
52.0
 40
52.0
 40
52.0
 40
53.0
 40
53.0
 40
53.0
 40
54.0
 40
54.0
 40
54.0
 40
55.0
 40
55.0
 40
55.0
 40
56.0
 40
56.0
 40
56.0
 40
56.0
 10
110.207133467542
 20
231.5644403082279
 30
0.0
 10
110.207133467542
 20
231.5644403082279
 30
0.0
 10
110.735355327186
 20
231.477267584818
 30
0.0
 10
110.735355327186
 20
231.477267584818
 30
0.0
 10
110.735355327186
 20
231.477267584818
 30
0.0
 10
112.3348190586657
 20
229.6971581581292
 30
0.0
 10
112.3348190586657
 20
229.6971581581292
 30
0.0
 10
112.3348190586657
 20
229.6971581581292
 30
0.0
 10
112.3348190586657
 20
226.7671240288
 30
0.0
 10
112.3348190586657
 20
226.7671240288
 30
0.0
 10
112.3348190586657
 20
226.7671240288
 30
0.0
 10
110.735355327186
 20
224.6109249787114
 30
0.0
 10
110.735355327186
 20
224.6109249787114
 30
0.0
 10
110.735355327186
 20
224.6109249787114
 30
0.0
 10
103.2213226759905
 20
223.5701817646277
 30
0.0
 10
103.2213226759905
 20
223.5701817646277
 30
0.0
 10
103.1179160734673
 20
223.5532180292157
 30
0.0
 10
103.0249764568925
 20
223.5019658924384
 30
0.0
 10
102.9582043051769
 20
223.425809548351
 30
0.0
 10
102.8750098134469
 20
223.3330503993948
 30
0.0
 10
102.8230358142746
 20
223.2193572790766
 30
0.0
 10
102.8073353353584
 20
223.0984455479447
 30
0.0
 10
102.7833334537963
 20
222.958765428697
 30
0.0
 10
102.8185241824021
 20
222.815115073503
 30
0.0
 10
102.9042451879823
 20
222.6988954394001
 30
0.0
 10
103.6266476834226
 20
222.7671113115903
 30
0.0
 10
104.355546928763
 20
222.7436508264454
 30
0.0
 10
105.0714526743104
 20
222.6306795672099
 30
0.0
 10
105.0714526743104
 20
222.6306795672099
 30
0.0
 10
111.3909856709142
 20
221.3248406101484
 30
0.0
 10
111.3909856709142
 20
221.3248406101484
 30
0.0
 10
111.3909856709142
 20
221.3248406101484
 30
0.0
 10
111.3909856709142
 20
222.3865100564326
 30
0.0
 10
111.3909856709142
 20
222.3865100564326
 30
0.0
 10
111.3909856709142
 20
222.3865100564326
 30
0.0
 10
112.8072771483676
 20
224.1781692604218
 30
0.0
 10
112.8072771483676
 20
224.1781692604218
 30
0.0
 10
112.8072771483676
 20
224.1781692604218
 30
0.0
 10
113.4769837835338
 20
224.2640707291066
 30
0.0
 10
113.4769837835338
 20
224.2640707291066
 30
0.0
 10
113.4769837835338
 20
224.2640707291066
 30
0.0
 10
116.1808949974293
 20
223.7428870283493
 30
0.0
 10
116.1808949974293
 20
223.7428870283493
 30
0.0
 10
116.1808949974293
 20
223.7428870283493
 30
0.0
 10
117.6473558213038
 20
221.3508198699183
 30
0.0
 10
117.6473558213038
 20
221.3508198699183
 30
0.0
 10
117.6473558213038
 20
221.3508198699183
 30
0.0
 10
117.6473558213038
 20
218.7138613396291
 30
0.0
 10
117.6473558213038
 20
218.7138613396291
 30
0.0
 10
117.6466339602048
 20
218.1491855087188
 30
0.0
 10
117.783787569133
 20
217.5919087538914
 30
0.0
 10
118.0461840788412
 20
217.0837185525979
 30
0.0
 10
118.2890903388652
 20
216.5322166864225
 30
0.0
 10
118.7887986850728
 20
216.1157028424641
 30
0.0
 10
119.4014782933737
 20
215.9552692171274
 30
0.0
 10
119.6119008039132
 20
216.0501939493297
 30
0.0
 10
119.7873130511216
 20
216.2028675680413
 30
0.0
 10
119.9035326881567
 20
216.3925365671748
 30
0.0
 10
120.201119926478
 20
216.8453239304727
 30
0.0
 10
120.3505451740966
 20
217.3695755408262
 30
0.0
 10
120.3343032993544
 20
217.9005043661818
 30
0.0
 10
120.3343032993544
 20
217.9005043661818
 30
0.0
 10
120.3343032993544
 20
220.5777143720443
 30
0.0
 10
120.3343032993544
 20
220.5777143720443
 30
0.0
 10
120.3343032993544
 20
220.5777143720443
 30
0.0
 10
121.8572497542773
 20
222.4247686937451
 30
0.0
 10
121.8572497542773
 20
222.4247686937451
 30
0.0
 10
121.8572497542773
 20
222.4247686937451
 30
0.0
 10
122.5347163962651
 20
222.5169864468917
 30
0.0
 10
122.5347163962651
 20
222.5169864468917
 30
0.0
 10
122.5347163962651
 20
222.5169864468917
 30
0.0
 10
123.3040353036886
 20
222.368824459938
 30
0.0
 10
123.3040353036886
 20
222.368824459938
 30
0.0
 10
123.3040353036886
 20
222.368824459938
 30
0.0
 10
124.4662316447138
 20
220.5192359041666
 30
0.0
 10
124.4662316447138
 20
220.5192359041666
 30
0.0
 10
124.4662316447138
 20
220.5192359041666
 30
0.0
 10
124.4662316447138
 20
159.5707001503652
 30
0.0
 10
124.4662316447138
 20
159.5707001503652
 30
0.0
 10
124.4662316447138
 20
159.5707001503652
 30
0.0
 10
123.3040353036886
 20
158.4617410640913
 30
0.0
 10
123.3040353036886
 20
158.4617410640913
 30
0.0
 10
123.3040353036886
 20
158.4617410640913
 30
0.0
 10
122.6256708948204
 20
158.2473483229223
 30
0.0
 10
122.6256708948204
 20
158.2473483229223
 30
0.0
 10
122.6256708948204
 20
158.2473483229223
 30
0.0
 10
112.2745436568475
 20
162.8613101520914
 30
0.0
 10
112.2745436568475
 20
162.8613101520914
 30
0.0
 10
112.2745436568475
 20
162.8613101520914
 30
0.0
 10
111.0776979536822
 20
165.1436481639066
 30
0.0
 10
111.0776979536822
 20
165.1436481639066
 30
0.0
 10
111.0776979536822
 20
165.1436481639066
 30
0.0
 10
110.6931264528575
 20
164.5639937155556
 30
0.0
 10
110.6931264528575
 20
164.5639937155556
 30
0.0
 10
110.6931264528575
 20
164.5639937155556
 30
0.0
 10
104.3887525393448
 20
162.7430991377696
 30
0.0
 10
104.3887525393448
 20
162.7430991377696
 30
0.0
 10
104.3887525393448
 20
162.7430991377696
 30
0.0
 10
103.8657641726722
 20
162.9847421347622
 30
0.0
 10
103.8657641726722
 20
162.9847421347622
 30
0.0
 10
103.8657641726722
 20
163.013977508559
 30
0.0
 10
103.8637790546481
 20
163.0432128823541
 30
0.0
 10
103.8592674227757
 20
163.0724545237317
 30
0.0
 10
103.6668914397278
 20
162.9385430255534
 30
0.0
 10
103.5531983165374
 20
162.7268572634384
 30
0.0
 10
103.5531983165374
 20
162.5019975365885
 30
0.0
 10
103.5531983165374
 20
162.5019975365885
 30
0.0
 10
97.43325991397705
 20
160.7341597482828
 30
0.0
 10
97.43325991397705
 20
160.7341597482828
 30
0.0
 10
97.43325991397705
 20
160.7341597482828
 30
0.0
 10
96.91622690137501
 20
160.9842846129814
 30
0.0
 10
96.91622690137501
 20
160.9842846129814
 30
0.0
 10
96.91622690137501
 20
160.9842846129814
 30
0.0
 10
95.18015095679493
 20
162.5254580217334
 30
0.0
 10
95.18015095679493
 20
162.5254580217334
 30
0.0
 10
95.18015095679493
 20
162.5254580217334
 30
0.0
 10
95.18015095679493
 20
165.5866904026043
 30
0.0
 10
95.18015095679493
 20
165.5866904026043
 30
0.0
 10
95.18015095679493
 20
165.5866904026043
 30
0.0
 10
96.91622690137501
 20
168.0949771951364
 30
0.0
 10
96.91622690137501
 20
168.0949771951364
 30
0.0
 10
96.91622690137501
 20
168.0949771951364
 30
0.0
 10
104.6811062846909
 20
170.1856673520906
 30
0.0
 10
104.6811062846909
 20
170.1856673520906
 30
0.0
 10
104.7135900341736
 20
170.1941492197966
 30
0.0
 10
104.7448105267313
 20
170.2071427192623
 30
0.0
 10
104.7726021790668
 20
170.2241064546743
 30
0.0
 10
104.7726021790668
 20
170.2241064546743
 30
0.0
 10
104.4095060459586
 20
170.3800284482531
 30
0.0
 10
104.4095060459586
 20
170.3800284482531
 30
0.0
 10
104.3295599291769
 20
170.4247838352994
 30
0.0
 10
104.2503356734951
 20
170.4709829445073
 30
0.0
 10
104.1716528136358
 20
170.5177234495259
 30
0.0
 10
104.0924285579522
 20
170.565185815627
 30
0.0
 10
104.044424794828
 20
170.6469365830944
 30
0.0
 10
104.044424794828
 20
170.7359059613736
 30
0.0
 10
104.044424794828
 20
170.7359059613736
 30
0.0
 10
104.044424794828
 20
196.222655161735
 30
0.0
 10
104.044424794828
 20
196.222655161735
 30
0.0
 10
104.0574182946211
 20
196.297367783658
 30
0.0
 10
104.1081290368684
 20
196.3610791326118
 30
0.0
 10
104.1801346815564
 20
196.3942776338336
 30
0.0
 10
104.3477869219432
 20
196.4774721234626
 30
0.0
 10
104.5284326621213
 20
196.5352210099736
 30
0.0
 10
104.7148532910969
 20
196.565719640661
 30
0.0
 10
104.683091402715
 20
196.7353569947863
 30
0.0
 10
104.5706615364497
 20
196.8820752595766
 30
0.0
 10
104.4095060459586
 20
196.9640064923151
 30
0.0
 10
104.0222275660153
 20
197.0647061131676
 30
0.0
 10
103.6149174405546
 20
197.0764363557391
 30
0.0
 10
103.2213226759905
 20
196.9990167547621
 30
0.0
 10
103.2213226759905
 20
196.9990167547621
 30
0.0
 10
97.50743114196393
 20
195.8718306761821
 30
0.0
 10
97.50743114196393
 20
195.8718306761821
 30
0.0
 10
97.50743114196393
 20
195.8718306761821
 30
0.0
 10
96.99021766408714
 20
196.0427312871998
 30
0.0
 10
96.99021766408714
 20
196.0427312871998
 30
0.0
 10
96.99021766408714
 20
196.0427312871998
 30
0.0
 10
95.25432218478
 20
197.7423532033154
 30
0.0
 10
95.25432218478
 20
197.7423532033154
 30
0.0
 10
95.25432218478
 20
197.7423532033154
 30
0.0
 10
95.25432218478
 20
227.8365612208672
 30
0.0
 10
95.25432218478
 20
227.8365612208672
 30
0.0
 10
95.25432218478
 20
227.8365612208672
 30
0.0
 10
96.99021766408714
 20
230.0642245180134
 30
0.0
 10
96.99021766408714
 20
230.0642245180134
 30
0.0
 10
96.99021766408714
 20
230.0642245180134
 30
0.0
 10
110.207133467542
 20
231.5644403082279
 30
0.0
 10
110.207133467542
 20
231.5644403082279
 30
0.0
  0
SPLINE
  5
C3
330
BE
100
AcDbEntity
  8
5
370
     0
100
AcDbSpline
210
0.0
220
0.0
230
1.0
 70
    11
 71
     3
 72
    23
 73
    19
 74
     0
 42
0.0000000001
 43
0.0000000001
 12
1.0
 22
0.0
 32
0.0
 13
1.0
 23
0.0
 33
0.0
 40
0.0
 40
0.0
 40
0.0
 40
0.0
 40
1.0
 40
1.0
 40
1.0
 40
2.0
 40
2.0
 40
2.0
 40
3.0
 40
3.0
 40
3.0
 40
4.0
 40
4.0
 40
4.0
 40
5.0
 40
5.0
 40
5.0
 40
6.0
 40
6.0
 40
6.0
 40
6.0
 10
118.5087165784207
 20
207.9150000274221
 30
0.0
 10
118.1456204453134
 20
207.6973589113859
 30
0.0
 10
117.8857504494517
 20
207.3562795504331
 30
0.0
 10
117.7843289649572
 20
206.9625043305386
 30
0.0
 10
117.4744700879455
 20
205.8742987503556
 30
0.0
 10
117.7193614659918
 20
204.7121024093303
 30
0.0
 10
118.4469974544045
 20
203.8160996389142
 30
0.0
 10
118.7003707003714
 20
203.4957664872018
 30
0.0
 10
119.0719487013994
 20
203.275598857379
 30
0.0
 10
119.4884625558807
 20
203.1983597216713
 30
0.0
 10
119.9392648125904
 20
203.5107451046388
 30
0.0
 10
120.2290920440864
 20
203.9869929530814
 30
0.0
 10
120.2875627931571
 20
204.5099813065426
 30
0.0
 10
120.453951776617
 20
205.5287150977583
 30
0.0
 10
120.1563645382994
 20
206.5654807357787
 30
0.0
 10
119.4682504450902
 20
207.3678293277353
 30
0.0
 10
119.2311190738656
 20
207.6551300381252
 30
0.0
 10
118.889498308472
 20
207.8500325300975
 30
0.0
 10
118.5087165784207
 20
207.9150000274221
 30
0.0
  0
SPLINE
  5
C4
330
BE
100
AcDbEntity
  8
5
370
     0
100
AcDbSpline
210
0.0
220
0.0
230
1.0
 70
    11
 71
     3
 72
    23
 73
    19
 74
     0
 42
0.0000000001
 43
0.0000000001
 12
1.0
 22
0.0
 32
0.0
 13
1.0
 23
0.0
 33
0.0
 40
0.0
 40
0.0
 40
0.0
 40
0.0
 40
1.0
 40
1.0
 40
1.0
 40
2.0
 40
2.0
 40
2.0
 40
3.0
 40
3.0
 40
3.0
 40
4.0
 40
4.0
 40
4.0
 40
5.0
 40
5.0
 40
5.0
 40
6.0
 40
6.0
 40
6.0
 40
6.0
 10
118.4262439477898
 20
195.1716254272415
 30
0.0
 10
118.102669709886
 20
194.9220419583544
 30
0.0
 10
117.8682453177862
 20
194.5854742291594
 30
0.0
 10
117.7550935904219
 20
194.2068580919749
 30
0.0
 10
117.4926970807101
 20
193.1256906573344
 30
0.0
 10
117.7505819585494
 20
191.9914664332136
 30
0.0
 10
118.4599909541976
 20
191.1046600947357
 30
0.0
 10
118.7238311861074
 20
190.7543770049942
 30
0.0
 10
119.1226594436484
 20
190.5147191259748
 30
0.0
 10
119.5721984434349
 20
190.4372995249978
 30
0.0
 10
119.9971941658332
 20
190.7635807337811
 30
0.0
 10
120.2608539324683
 20
191.2396481169544
 30
0.0
 10
120.3012781540492
 20
191.7536132068981
 30
0.0
 10
120.4434847906741
 20
192.7891229281386
 30
0.0
 10
120.1108872890254
 20
193.832573121279
 30
0.0
 10
119.3864996755583
 20
194.6244547275546
 30
0.0
 10
119.1486464432346
 20
194.9117554379454
 30
0.0
 10
118.807025677841
 20
195.1066579299186
 30
0.0
 10
118.4262439477898
 20
195.1716254272415
 30
0.0
  0
SPLINE
  5
C5
330
BE
100
AcDbEntity
  8
5
370
     0
100
AcDbSpline
210
0.0
220
0.0
230
1.0
 70
    11
 71
     3
 72
    23
 73
    19
 74
     0
 42
0.0000000001
 43
0.0000000001
 12
1.0
 22
0.0
 32
0.0
 13
1.0
 23
0.0
 33
0.0
 40
0.0
 40
0.0
 40
0.0
 40
0.0
 40
1.0
 40
1.0
 40
1.0
 40
2.0
 40
2.0
 40
2.0
 40
3.0
 40
3.0
 40
3.0
 40
4.0
 40
4.0
 40
4.0
 40
5.0
 40
5.0
 40
5.0
 40
6.0
 40
6.0
 40
6.0
 40
6.0
 10
118.3475610879323
 20
182.4287922228723
 30
0.0
 10
118.0234454542042
 20
182.1826375941218
 30
0.0
 10
117.8045410757441
 20
181.8363247403286
 30
0.0
 10
117.7298284519347
 20
181.4510381200034
 30
0.0
 10
117.5199473372195
 20
180.4128146878429
 30
0.0
 10
117.7642973194415
 20
179.3390463292872
 30
0.0
 10
118.4087388161242
 20
178.4722716358174
 30
0.0
 10
118.6868358047541
 20
178.05593825713
 30
0.0
 10
119.1363748045405
 20
177.7668328940363
 30
0.0
 10
119.6501594421934
 20
177.6738999162517
 30
0.0
 10
120.052957935779
 20
178.0137093838694
 30
0.0
 10
120.2927962861286
 20
178.4912204892044
 30
0.0
 10
120.3155349107656
 20
178.9985150340508
 30
0.0
 10
120.4129861592119
 20
180.0387101824163
 30
0.0
 10
120.0731700465694
 20
181.0736785078479
 30
0.0
 10
119.3689945438928
 20
181.8818019884548
 30
0.0
 10
119.0946873260364
 20
182.1559287341097
 30
0.0
 10
118.7388098039264
 20
182.3470414554067
 30
0.0
 10
118.3475610879323
 20
182.4287922228723
 30
0.0
  0
SPLINE
  5
C6
330
BE
100
AcDbEntity
  8
5
370
     0
100
AcDbSpline
210
0.0
220
0.0
230
1.0
 70
    11
 71
     3
 72
    23
 73
    19
 74
     0
 42
0.0000000001
 43
0.0000000001
 12
1.0
 22
0.0
 32
0.0
 13
1.0
 23
0.0
 33
0.0
 40
0.0
 40
0.0
 40
0.0
 40
0.0
 40
1.0
 40
1.0
 40
1.0
 40
2.0
 40
2.0
 40
2.0
 40
3.0
 40
3.0
 40
3.0
 40
4.0
 40
4.0
 40
4.0
 40
5.0
 40
5.0
 40
5.0
 40
6.0
 40
6.0
 40
6.0
 40
6.0
 10
118.2728484641229
 20
169.6866808795858
 30
0.0
 10
117.9739979688784
 20
169.435292757993
 30
0.0
 10
117.7765689581356
 20
169.0942133970402
 30
0.0
 10
117.7141279730167
 20
168.7226354053983
 30
0.0
 10
117.537452468885
 20
167.7013888250294
 30
0.0
 10
117.7810805900081
 20
166.6546902305836
 30
0.0
 10
118.3950234552321
 20
165.7958496509345
 30
0.0
 10
118.6783539368334
 20
165.3313320450652
 30
0.0
 10
119.16362506105
 20
165.0072164195244
 30
0.0
 10
119.7230674132552
 20
164.9083214513757
 30
0.0
 10
120.1056537960503
 20
165.2663645477414
 30
0.0
 10
120.3213097995613
 20
165.7516356597007
 30
0.0
 10
120.3240167786862
 20
166.2583821388307
 30
0.0
 10
120.3882624165526
 20
167.3095923385936
 30
0.0
 10
120.0179476724479
 20
168.3438452036899
 30
0.0
 10
119.2890484271084
 20
169.1449241380069
 30
0.0
 10
119.0284565701477
 20
169.4320508113633
 30
0.0
 10
118.6686088119859
 20
169.6236985002342
 30
0.0
 10
118.2728484641229
 20
169.6866808795858
 30
0.0
  0
HATCH
  5
C7
330
BE
100
AcDbEntity
  8
5
 62
   254
420
 16376262
100
AcDbHatch
 10
0.0
 20
0.0
 30
0.0
210
0.0
220
0.0
230
1.0
  2
SOLID
 70
     1
 71
     0
 91
        5
 92
        1
 93
        2
 72
     4
 94
        3
 73
     0
 74
     0
 95
      173
 96
      169
 40
0.0
 40
0.0
 40
0.0
 40
0.0
 40
1.0
 40
1.0
 40
1.0
 40
2.0
 40
2.0
 40
2.0
 40
3.0
 40
3.0
 40
3.0
 40
4.0
 40
4.0
 40
4.0
 40
5.0
 40
5.0
 40
5.0
 40
6.0
 40
6.0
 40
6.0
 40
7.0
 40
7.0
 40
7.0
 40
8.0
 40
8.0
 40
8.0
 40
9.0
 40
9.0
 40
9.0
 40
10.0
 40
10.0
 40
10.0
 40
11.0
 40
11.0
 40
11.0
 40
12.0
 40
12.0
 40
12.0
 40
13.0
 40
13.0
 40
13.0
 40
14.0
 40
14.0
 40
14.0
 40
15.0
 40
15.0
 40
15.0
 40
16.0
 40
16.0
 40
16.0
 40
17.0
 40
17.0
 40
17.0
 40
18.0
 40
18.0
 40
18.0
 40
19.0
 40
19.0
 40
19.0
 40
20.0
 40
20.0
 40
20.0
 40
21.0
 40
21.0
 40
21.0
 40
22.0
 40
22.0
 40
22.0
 40
23.0
 40
23.0
 40
23.0
 40
24.0
 40
24.0
 40
24.0
 40
25.0
 40
25.0
 40
25.0
 40
26.0
 40
26.0
 40
26.0
 40
27.0
 40
27.0
 40
27.0
 40
28.0
 40
28.0
 40
28.0
 40
29.0
 40
29.0
 40
29.0
 40
30.0
 40
30.0
 40
30.0
 40
31.0
 40
31.0
 40
31.0
 40
32.0
 40
32.0
 40
32.0
 40
33.0
 40
33.0
 40
33.0
 40
34.0
 40
34.0
 40
34.0
 40
35.0
 40
35.0
 40
35.0
 40
36.0
 40
36.0
 40
36.0
 40
37.0
 40
37.0
 40
37.0
 40
38.0
 40
38.0
 40
38.0
 40
39.0
 40
39.0
 40
39.0
 40
40.0
 40
40.0
 40
40.0
 40
41.0
 40
41.0
 40
41.0
 40
42.0
 40
42.0
 40
42.0
 40
43.0
 40
43.0
 40
43.0
 40
44.0
 40
44.0
 40
44.0
 40
45.0
 40
45.0
 40
45.0
 40
46.0
 40
46.0
 40
46.0
 40
47.0
 40
47.0
 40
47.0
 40
48.0
 40
48.0
 40
48.0
 40
49.0
 40
49.0
 40
49.0
 40
50.0
 40
50.0
 40
50.0
 40
51.0
 40
51.0
 40
51.0
 40
52.0
 40
52.0
 40
52.0
 40
53.0
 40
53.0
 40
53.0
 40
54.0
 40
54.0
 40
54.0
 40
55.0
 40
55.0
 40
55.0
 40
56.0
 40
56.0
 40
56.0
 40
56.0
 10
110.207133467542
 20
231.5644403082279
 10
110.207133467542
 20
231.5644403082279
 10
110.735355327186
 20
231.477267584818
 10
110.735355327186
 20
231.477267584818
 10
110.735355327186
 20
231.477267584818
 10
112.3348190586657
 20
229.6971581581292
 10
112.3348190586657
 20
229.6971581581292
 10
112.3348190586657
 20
229.6971581581292
 10
112.3348190586657
 20
226.7671240288
 10
112.3348190586657
 20
226.7671240288
 10
112.3348190586657
 20
226.7671240288
 10
110.735355327186
 20
224.6109249787114
 10
110.735355327186
 20
224.6109249787114
 10
110.735355327186
 20
224.6109249787114
 10
103.2213226759905
 20
223.5701817646277
 10
103.2213226759905
 20
223.5701817646277
 10
103.1179160734673
 20
223.5532180292157
 10
103.0249764568925
 20
223.5019658924384
 10
102.9582043051769
 20
223.425809548351
 10
102.8750098134469
 20
223.3330503993948
 10
102.8230358142746
 20
223.2193572790766
 10
102.8073353353584
 20
223.0984455479447
 10
102.7833334537963
 20
222.958765428697
 10
102.8185241824021
 20
222.815115073503
 10
102.9042451879823
 20
222.6988954394001
 10
103.6266476834226
 20
222.7671113115903
 10
104.355546928763
 20
222.7436508264454
 10
105.0714526743104
 20
222.6306795672099
 10
105.0714526743104
 20
222.6306795672099
 10
111.3909856709142
 20
221.3248406101484
 10
111.3909856709142
 20
221.3248406101484
 10
111.3909856709142
 20
221.3248406101484
 10
111.3909856709142
 20
222.3865100564326
 10
111.3909856709142
 20
222.3865100564326
 10
111.3909856709142
 20
222.3865100564326
 10
112.8072771483676
 20
224.1781692604218
 10
112.8072771483676
 20
224.1781692604218
 10
112.8072771483676
 20
224.1781692604218
 10
113.4769837835338
 20
224.2640707291066
 10
113.4769837835338
 20
224.2640707291066
 10
113.4769837835338
 20
224.2640707291066
 10
116.1808949974293
 20
223.7428870283493
 10
116.1808949974293
 20
223.7428870283493
 10
116.1808949974293
 20
223.7428870283493
 10
117.6473558213038
 20
221.3508198699183
 10
117.6473558213038
 20
221.3508198699183
 10
117.6473558213038
 20
221.3508198699183
 10
117.6473558213038
 20
218.7138613396291
 10
117.6473558213038
 20
218.7138613396291
 10
117.6466339602048
 20
218.1491855087188
 10
117.783787569133
 20
217.5919087538914
 10
118.0461840788412
 20
217.0837185525979
 10
118.2890903388652
 20
216.5322166864225
 10
118.7887986850728
 20
216.1157028424641
 10
119.4014782933737
 20
215.9552692171274
 10
119.6119008039132
 20
216.0501939493297
 10
119.7873130511216
 20
216.2028675680413
 10
119.9035326881567
 20
216.3925365671748
 10
120.201119926478
 20
216.8453239304727
 10
120.3505451740966
 20
217.3695755408262
 10
120.3343032993544
 20
217.9005043661818
 10
120.3343032993544
 20
217.9005043661818
 10
120.3343032993544
 20
220.5777143720443
 10
120.3343032993544
 20
220.5777143720443
 10
120.3343032993544
 20
220.5777143720443
 10
121.8572497542773
 20
222.4247686937451
 10
121.8572497542773
 20
222.4247686937451
 10
121.8572497542773
 20
222.4247686937451
 10
122.5347163962651
 20
222.5169864468917
 10
122.5347163962651
 20
222.5169864468917
 10
122.5347163962651
 20
222.5169864468917
 10
123.3040353036886
 20
222.368824459938
 10
123.3040353036886
 20
222.368824459938
 10
123.3040353036886
 20
222.368824459938
 10
124.4662316447138
 20
220.5192359041666
 10
124.4662316447138
 20
220.5192359041666
 10
124.4662316447138
 20
220.5192359041666
 10
124.4662316447138
 20
159.5707001503652
 10
124.4662316447138
 20
159.5707001503652
 10
124.4662316447138
 20
159.5707001503652
 10
123.3040353036886
 20
158.4617410640913
 10
123.3040353036886
 20
158.4617410640913
 10
123.3040353036886
 20
158.4617410640913
 10
122.6256708948204
 20
158.2473483229223
 10
122.6256708948204
 20
158.2473483229223
 10
122.6256708948204
 20
158.2473483229223
 10
112.2745436568475
 20
162.8613101520914
 10
112.2745436568475
 20
162.8613101520914
 10
112.2745436568475
 20
162.8613101520914
 10
111.0776979536822
 20
165.1436481639066
 10
111.0776979536822
 20
165.1436481639066
 10
111.0776979536822
 20
165.1436481639066
 10
110.6931264528575
 20
164.5639937155556
 10
110.6931264528575
 20
164.5639937155556
 10
110.6931264528575
 20
164.5639937155556
 10
104.3887525393448
 20
162.7430991377696
 10
104.3887525393448
 20
162.7430991377696
 10
104.3887525393448
 20
162.7430991377696
 10
103.8657641726722
 20
162.9847421347622
 10
103.8657641726722
 20
162.9847421347622
 10
103.8657641726722
 20
163.013977508559
 10
103.8637790546481
 20
163.0432128823541
 10
103.8592674227757
 20
163.0724545237317
 10
103.6668914397278
 20
162.9385430255534
 10
103.5531983165374
 20
162.7268572634384
 10
103.5531983165374
 20
162.5019975365885
 10
103.5531983165374
 20
162.5019975365885
 10
97.43325991397705
 20
160.7341597482828
 10
97.43325991397705
 20
160.7341597482828
 10
97.43325991397705
 20
160.7341597482828
 10
96.91622690137501
 20
160.9842846129814
 10
96.91622690137501
 20
160.9842846129814
 10
96.91622690137501
 20
160.9842846129814
 10
95.18015095679493
 20
162.5254580217334
 10
95.18015095679493
 20
162.5254580217334
 10
95.18015095679493
 20
162.5254580217334
 10
95.18015095679493
 20
165.5866904026043
 10
95.18015095679493
 20
165.5866904026043
 10
95.18015095679493
 20
165.5866904026043
 10
96.91622690137501
 20
168.0949771951364
 10
96.91622690137501
 20
168.0949771951364
 10
96.91622690137501
 20
168.0949771951364
 10
104.6811062846909
 20
170.1856673520906
 10
104.6811062846909
 20
170.1856673520906
 10
104.7135900341736
 20
170.1941492197966
 10
104.7448105267313
 20
170.2071427192623
 10
104.7726021790668
 20
170.2241064546743
 10
104.7726021790668
 20
170.2241064546743
 10
104.4095060459586
 20
170.3800284482531
 10
104.4095060459586
 20
170.3800284482531
 10
104.3295599291769
 20
170.4247838352994
 10
104.2503356734951
 20
170.4709829445073
 10
104.1716528136358
 20
170.5177234495259
 10
104.0924285579522
 20
170.565185815627
 10
104.044424794828
 20
170.6469365830944
 10
104.044424794828
 20
170.7359059613736
 10
104.044424794828
 20
170.7359059613736
 10
104.044424794828
 20
196.222655161735
 10
104.044424794828
 20
196.222655161735
 10
104.0574182946211
 20
196.297367783658
 10
104.1081290368684
 20
196.3610791326118
 10
104.1801346815564
 20
196.3942776338336
 10
104.3477869219432
 20
196.4774721234626
 10
104.5284326621213
 20
196.5352210099736
 10
104.7148532910969
 20
196.565719640661
 10
104.683091402715
 20
196.7353569947863
 10
104.5706615364497
 20
196.8820752595766
 10
104.4095060459586
 20
196.9640064923151
 10
104.0222275660153
 20
197.0647061131676
 10
103.6149174405546
 20
197.0764363557391
 10
103.2213226759905
 20
196.9990167547621
 10
103.2213226759905
 20
196.9990167547621
 10
97.50743114196393
 20
195.8718306761821
 10
97.50743114196393
 20
195.8718306761821
 10
97.50743114196393
 20
195.8718306761821
 10
96.99021766408714
 20
196.0427312871998
 10
96.99021766408714
 20
196.0427312871998
 10
96.99021766408714
 20
196.0427312871998
 10
95.25432218478
 20
197.7423532033154
 10
95.25432218478
 20
197.7423532033154
 10
95.25432218478
 20
197.7423532033154
 10
95.25432218478
 20
227.8365612208672
 10
95.25432218478
 20
227.8365612208672
 10
95.25432218478
 20
227.8365612208672
 10
96.99021766408714
 20
230.0642245180134
 10
96.99021766408714
 20
230.0642245180134
 10
96.99021766408714
 20
230.0642245180134
 10
110.207133467542
 20
231.5644403082279
 10
110.207133467542
 20
231.5644403082279
 97
        0
 72
     1
 10
110.207133467542
 20
231.5644403082279
 11
110.207133467542
 21
231.5644403082279
 97
        0
 92
        1
 93
        2
 72
     4
 94
        3
 73
     0
 74
     0
 95
       23
 96
       19
 40
0.0
 40
0.0
 40
0.0
 40
0.0
 40
1.0
 40
1.0
 40
1.0
 40
2.0
 40
2.0
 40
2.0
 40
3.0
 40
3.0
 40
3.0
 40
4.0
 40
4.0
 40
4.0
 40
5.0
 40
5.0
 40
5.0
 40
6.0
 40
6.0
 40
6.0
 40
6.0
 10
118.5087165784207
 20
207.9150000274221
 10
118.1456204453134
 20
207.6973589113859
 10
117.8857504494517
 20
207.3562795504331
 10
117.7843289649572
 20
206.9625043305386
 10
117.4744700879455
 20
205.8742987503556
 10
117.7193614659918
 20
204.7121024093303
 10
118.4469974544045
 20
203.8160996389142
 10
118.7003707003714
 20
203.4957664872018
 10
119.0719487013994
 20
203.275598857379
 10
119.4884625558807
 20
203.1983597216713
 10
119.9392648125904
 20
203.5107451046388
 10
120.2290920440864
 20
203.9869929530814
 10
120.2875627931571
 20
204.5099813065426
 10
120.453951776617
 20
205.5287150977583
 10
120.1563645382994
 20
206.5654807357787
 10
119.4682504450902
 20
207.3678293277353
 10
119.2311190738656
 20
207.6551300381252
 10
118.889498308472
 20
207.8500325300975
 10
118.5087165784207
 20
207.9150000274221
 97
        0
 72
     1
 10
118.5087165784207
 20
207.9150000274221
 11
118.5087165784207
 21
207.9150000274221
 97
        0
 92
        1
 93
        2
 72
     4
 94
        3
 73
     0
 74
     0
 95
       23
 96
       19
 40
0.0
 40
0.0
 40
0.0
 40
0.0
 40
1.0
 40
1.0
 40
1.0
 40
2.0
 40
2.0
 40
2.0
 40
3.0
 40
3.0
 40
3.0
 40
4.0
 40
4.0
 40
4.0
 40
5.0
 40
5.0
 40
5.0
 40
6.0
 40
6.0
 40
6.0
 40
6.0
 10
118.4262439477898
 20
195.1716254272415
 10
118.102669709886
 20
194.9220419583544
 10
117.8682453177862
 20
194.5854742291594
 10
117.7550935904219
 20
194.2068580919749
 10
117.4926970807101
 20
193.1256906573344
 10
117.7505819585494
 20
191.9914664332136
 10
118.4599909541976
 20
191.1046600947357
 10
118.7238311861074
 20
190.7543770049942
 10
119.1226594436484
 20
190.5147191259748
 10
119.5721984434349
 20
190.4372995249978
 10
119.9971941658332
 20
190.7635807337811
 10
120.2608539324683
 20
191.2396481169544
 10
120.3012781540492
 20
191.7536132068981
 10
120.4434847906741
 20
192.7891229281386
 10
120.1108872890254
 20
193.832573121279
 10
119.3864996755583
 20
194.6244547275546
 10
119.1486464432346
 20
194.9117554379454
 10
118.807025677841
 20
195.1066579299186
 10
118.4262439477898
 20
195.1716254272415
 97
        0
 72
     1
 10
118.4262439477898
 20
195.1716254272415
 11
118.4262439477898
 21
195.1716254272415
 97
        0
 92
        1
 93
        2
 72
     4
 94
        3
 73
     0
 74
     0
 95
       23
 96
       19
 40
0.0
 40
0.0
 40
0.0
 40
0.0
 40
1.0
 40
1.0
 40
1.0
 40
2.0
 40
2.0
 40
2.0
 40
3.0
 40
3.0
 40
3.0
 40
4.0
 40
4.0
 40
4.0
 40
5.0
 40
5.0
 40
5.0
 40
6.0
 40
6.0
 40
6.0
 40
6.0
 10
118.3475610879323
 20
182.4287922228723
 10
118.0234454542042
 20
182.1826375941218
 10
117.8045410757441
 20
181.8363247403286
 10
117.7298284519347
 20
181.4510381200034
 10
117.5199473372195
 20
180.4128146878429
 10
117.7642973194415
 20
179.3390463292872
 10
118.4087388161242
 20
178.4722716358174
 10
118.6868358047541
 20
178.05593825713
 10
119.1363748045405
 20
177.7668328940363
 10
119.6501594421934
 20
177.6738999162517
 10
120.052957935779
 20
178.0137093838694
 10
120.2927962861286
 20
178.4912204892044
 10
120.3155349107656
 20
178.9985150340508
 10
120.4129861592119
 20
180.0387101824163
 10
120.0731700465694
 20
181.0736785078479
 10
119.3689945438928
 20
181.8818019884548
 10
119.0946873260364
 20
182.1559287341097
 10
118.7388098039264
 20
182.3470414554067
 10
118.3475610879323
 20
182.4287922228723
 97
        0
 72
     1
 10
118.3475610879323
 20
182.4287922228723
 11
118.3475610879323
 21
182.4287922228723
 97
        0
 92
        1
 93
        2
 72
     4
 94
        3
 73
     0
 74
     0
 95
       23
 96
       19
 40
0.0
 40
0.0
 40
0.0
 40
0.0
 40
1.0
 40
1.0
 40
1.0
 40
2.0
 40
2.0
 40
2.0
 40
3.0
 40
3.0
 40
3.0
 40
4.0
 40
4.0
 40
4.0
 40
5.0
 40
5.0
 40
5.0
 40
6.0
 40
6.0
 40
6.0
 40
6.0
 10
118.2728484641229
 20
169.6866808795858
 10
117.9739979688784
 20
169.435292757993
 10
117.7765689581356
 20
169.0942133970402
 10
117.7141279730167
 20
168.7226354053983
 10
117.537452468885
 20
167.7013888250294
 10
117.7810805900081
 20
166.6546902305836
 10
118.3950234552321
 20
165.7958496509345
 10
118.6783539368334
 20
165.3313320450652
 10
119.16362506105
 20
165.0072164195244
 10
119.7230674132552
 20
164.9083214513757
 10
120.1056537960503
 20
165.2663645477414
 10
120.3213097995613
 20
165.7516356597007
 10
120.3240167786862
 20
166.2583821388307
 10
120.3882624165526
 20
167.3095923385936
 10
120.0179476724479
 20
168.3438452036899
 10
119.2890484271084
 20
169.1449241380069
 10
119.0284565701477
 20
169.4320508113633
 10
118.6686088119859
 20
169.6236985002342
 10
118.2728484641229
 20
169.6866808795858
 97
        0
 72
     1
 10
118.2728484641229
 20
169.6866808795858
 11
118.2728484641229
 21
169.6866808795858
 97
        0
 75
     2
 76
     1
 98
        0
  0
SPLINE
  5
C8
330
BE
100
AcDbEntity
  8
5
  6
AI-Linetype-12
 62
   250
420
  2301728
370
    20
100
AcDbSpline
210
0.0
220
0.0
230
1.0
 70
    11
 71
     3
 72
   173
 73
   169
 74
     0
 42
0.0000000001
 43
0.0000000001
 12
1.0
 22
0.0
 32
0.0
 13
1.0
 23
0.0
 33
0.0
 40
0.0
 40
0.0
 40
0.0
 40
0.0
 40
1.0
 40
1.0
 40
1.0
 40
2.0
 40
2.0
 40
2.0
 40
3.0
 40
3.0
 40
3.0
 40
4.0
 40
4.0
 40
4.0
 40
5.0
 40
5.0
 40
5.0
 40
6.0
 40
6.0
 40
6.0
 40
7.0
 40
7.0
 40
7.0
 40
8.0
 40
8.0
 40
8.0
 40
9.0
 40
9.0
 40
9.0
 40
10.0
 40
10.0
 40
10.0
 40
11.0
 40
11.0
 40
11.0
 40
12.0
 40
12.0
 40
12.0
 40
13.0
 40
13.0
 40
13.0
 40
14.0
 40
14.0
 40
14.0
 40
15.0
 40
15.0
 40
15.0
 40
16.0
 40
16.0
 40
16.0
 40
17.0
 40
17.0
 40
17.0
 40
18.0
 40
18.0
 40
18.0
 40
19.0
 40
19.0
 40
19.0
 40
20.0
 40
20.0
 40
20.0
 40
21.0
 40
21.0
 40
21.0
 40
22.0
 40
22.0
 40
22.0
 40
23.0
 40
23.0
 40
23.0
 40
24.0
 40
24.0
 40
24.0
 40
25.0
 40
25.0
 40
25.0
 40
26.0
 40
26.0
 40
26.0
 40
27.0
 40
27.0
 40
27.0
 40
28.0
 40
28.0
 40
28.0
 40
29.0
 40
29.0
 40
29.0
 40
30.0
 40
30.0
 40
30.0
 40
31.0
 40
31.0
 40
31.0
 40
32.0
 40
32.0
 40
32.0
 40
33.0
 40
33.0
 40
33.0
 40
34.0
 40
34.0
 40
34.0
 40
35.0
 40
35.0
 40
35.0
 40
36.0
 40
36.0
 40
36.0
 40
37.0
 40
37.0
 40
37.0
 40
38.0
 40
38.0
 40
38.0
 40
39.0
 40
39.0
 40
39.0
 40
40.0
 40
40.0
 40
40.0
 40
41.0
 40
41.0
 40
41.0
 40
42.0
 40
42.0
 40
42.0
 40
43.0
 40
43.0
 40
43.0
 40
44.0
 40
44.0
 40
44.0
 40
45.0
 40
45.0
 40
45.0
 40
46.0
 40
46.0
 40
46.0
 40
47.0
 40
47.0
 40
47.0
 40
48.0
 40
48.0
 40
48.0
 40
49.0
 40
49.0
 40
49.0
 40
50.0
 40
50.0
 40
50.0
 40
51.0
 40
51.0
 40
51.0
 40
52.0
 40
52.0
 40
52.0
 40
53.0
 40
53.0
 40
53.0
 40
54.0
 40
54.0
 40
54.0
 40
55.0
 40
55.0
 40
55.0
 40
56.0
 40
56.0
 40
56.0
 40
56.0
 10
110.207133467542
 20
231.5644403082279
 30
0.0
 10
110.207133467542
 20
231.5644403082279
 30
0.0
 10
111.2637576521083
 20
230.8895001800856
 30
0.0
 10
111.2637576521083
 20
230.8895001800856
 30
0.0
 10
111.2637576521083
 20
230.8895001800856
 30
0.0
 10
112.3348190586657
 20
229.6971581581292
 30
0.0
 10
112.3348190586657
 20
229.6971581581292
 30
0.0
 10
112.3348190586657
 20
229.6971581581292
 30
0.0
 10
112.3348190586657
 20
226.7671240288
 30
0.0
 10
112.3348190586657
 20
226.7671240288
 30
0.0
 10
112.3348190586657
 20
226.7671240288
 30
0.0
 10
110.735355327186
 20
224.6109249787114
 30
0.0
 10
110.735355327186
 20
224.6109249787114
 30
0.0
 10
110.735355327186
 20
224.6109249787114
 30
0.0
 10
103.2213226759905
 20
223.5701817646277
 30
0.0
 10
103.2213226759905
 20
223.5701817646277
 30
0.0
 10
103.1179160734673
 20
223.5532180292157
 30
0.0
 10
103.0249764568925
 20
223.5019658924384
 30
0.0
 10
102.9582043051769
 20
223.425809548351
 30
0.0
 10
102.8750098134469
 20
223.3330503993948
 30
0.0
 10
102.8230358142746
 20
223.2193572790766
 30
0.0
 10
102.8073353353584
 20
223.0984455479447
 30
0.0
 10
102.7833334537963
 20
222.958765428697
 30
0.0
 10
102.8185241824021
 20
222.815115073503
 30
0.0
 10
102.9042451879823
 20
222.6988954394001
 30
0.0
 10
103.6266476834226
 20
222.7671113115903
 30
0.0
 10
104.355546928763
 20
222.7436508264454
 30
0.0
 10
105.0714526743104
 20
222.6306795672099
 30
0.0
 10
105.0714526743104
 20
222.6306795672099
 30
0.0
 10
111.3909856709142
 20
221.3248406101484
 30
0.0
 10
111.3909856709142
 20
221.3248406101484
 30
0.0
 10
111.3909856709142
 20
221.3248406101484
 30
0.0
 10
111.3909856709142
 20
222.3865100564326
 30
0.0
 10
111.3909856709142
 20
222.3865100564326
 30
0.0
 10
111.3909856709142
 20
222.3865100564326
 30
0.0
 10
112.5679801938422
 20
223.8755290020526
 30
0.0
 10
112.5679801938422
 20
223.8755290020526
 30
0.0
 10
112.5679801938422
 20
223.8755290020526
 30
0.0
 10
113.4769837835338
 20
224.2640707291066
 30
0.0
 10
113.4769837835338
 20
224.2640707291066
 30
0.0
 10
113.4769837835338
 20
224.2640707291066
 30
0.0
 10
116.1808949974293
 20
223.7428870283493
 30
0.0
 10
116.1808949974293
 20
223.7428870283493
 30
0.0
 10
116.1808949974293
 20
223.7428870283493
 30
0.0
 10
117.6473558213038
 20
221.3508198699183
 30
0.0
 10
117.6473558213038
 20
221.3508198699183
 30
0.0
 10
117.6473558213038
 20
221.3508198699183
 30
0.0
 10
117.6473558213038
 20
218.7138613396291
 30
0.0
 10
117.6473558213038
 20
218.7138613396291
 30
0.0
 10
117.6466339602048
 20
218.1491855087188
 30
0.0
 10
117.783787569133
 20
217.5919087538914
 30
0.0
 10
118.0461840788412
 20
217.0837185525979
 30
0.0
 10
118.2890903388652
 20
216.5322166864225
 30
0.0
 10
118.7887986850728
 20
216.1157028424641
 30
0.0
 10
119.4014782933737
 20
215.9552692171274
 30
0.0
 10
119.6119008039132
 20
216.0501939493297
 30
0.0
 10
119.7873130511216
 20
216.2028675680413
 30
0.0
 10
119.9035326881567
 20
216.3925365671748
 30
0.0
 10
120.201119926478
 20
216.8453239304727
 30
0.0
 10
120.3505451740966
 20
217.3695755408262
 30
0.0
 10
120.3343032993544
 20
217.9005043661818
 30
0.0
 10
120.3343032993544
 20
217.9005043661818
 30
0.0
 10
120.3343032993544
 20
220.5777143720443
 30
0.0
 10
120.3343032993544
 20
220.5777143720443
 30
0.0
 10
120.3343032993544
 20
220.5777143720443
 30
0.0
 10
121.8572497542773
 20
222.4247686937451
 30
0.0
 10
121.8572497542773
 20
222.4247686937451
 30
0.0
 10
121.8572497542773
 20
222.4247686937451
 30
0.0
 10
122.5347163962651
 20
222.5169864468917
 30
0.0
 10
122.5347163962651
 20
222.5169864468917
 30
0.0
 10
122.5347163962651
 20
222.5169864468917
 30
0.0
 10
123.3040353036886
 20
222.368824459938
 30
0.0
 10
123.3040353036886
 20
222.368824459938
 30
0.0
 10
123.3040353036886
 20
222.368824459938
 30
0.0
 10
124.4662316447138
 20
220.5192359041666
 30
0.0
 10
124.4662316447138
 20
220.5192359041666
 30
0.0
 10
124.4662316447138
 20
220.5192359041666
 30
0.0
 10
124.4662316447138
 20
159.5707001503652
 30
0.0
 10
124.4662316447138
 20
159.5707001503652
 30
0.0
 10
124.4662316447138
 20
159.5707001503652
 30
0.0
 10
123.3040353036886
 20
158.4617410640913
 30
0.0
 10
123.3040353036886
 20
158.4617410640913
 30
0.0
 10
123.3040353036886
 20
158.4617410640913
 30
0.0
 10
122.198329123843
 20
158.4377391831367
 30
0.0
 10
122.198329123843
 20
158.4377391831367
 30
0.0
 10
122.198329123843
 20
158.4377391831367
 30
0.0
 10
112.2745436568475
 20
162.8613101520914
 30
0.0
 10
112.2745436568475
 20
162.8613101520914
 30
0.0
 10
112.2745436568475
 20
162.8613101520914
 30
0.0
 10
111.0776979536822
 20
165.1436481639066
 30
0.0
 10
111.0776979536822
 20
165.1436481639066
 30
0.0
 10
111.0776979536822
 20
165.1436481639066
 30
0.0
 10
110.6931264528575
 20
164.5639937155556
 30
0.0
 10
110.6931264528575
 20
164.5639937155556
 30
0.0
 10
110.6931264528575
 20
164.5639937155556
 30
0.0
 10
104.3887525393448
 20
162.7430991377696
 30
0.0
 10
104.3887525393448
 20
162.7430991377696
 30
0.0
 10
104.3887525393448
 20
162.7430991377696
 30
0.0
 10
103.8657641726722
 20
162.9847421347622
 30
0.0
 10
103.8657641726722
 20
162.9847421347622
 30
0.0
 10
103.8657641726722
 20
163.013977508559
 30
0.0
 10
103.8637790546481
 20
163.0432128823541
 30
0.0
 10
103.8592674227757
 20
163.0724545237317
 30
0.0
 10
103.6668914397278
 20
162.9385430255534
 30
0.0
 10
103.5531983165374
 20
162.7268572634384
 30
0.0
 10
103.5531983165374
 20
162.5019975365885
 30
0.0
 10
103.5531983165374
 20
162.5019975365885
 30
0.0
 10
97.95083432240335
 20
160.8837654573999
 30
0.0
 10
97.95083432240335
 20
160.8837654573999
 30
0.0
 10
97.95083432240335
 20
160.8837654573999
 30
0.0
 10
96.91622690137501
 20
160.9842846129814
 30
0.0
 10
96.91622690137501
 20
160.9842846129814
 30
0.0
 10
96.91622690137501
 20
160.9842846129814
 30
0.0
 10
95.18015095679493
 20
162.5254580217334
 30
0.0
 10
95.18015095679493
 20
162.5254580217334
 30
0.0
 10
95.18015095679493
 20
162.5254580217334
 30
0.0
 10
95.18015095679493
 20
165.5866904026043
 30
0.0
 10
95.18015095679493
 20
165.5866904026043
 30
0.0
 10
95.18015095679493
 20
165.5866904026043
 30
0.0
 10
96.91622690137501
 20
168.0949771951364
 30
0.0
 10
96.91622690137501
 20
168.0949771951364
 30
0.0
 10
96.91622690137501
 20
168.0949771951364
 30
0.0
 10
104.6811062846909
 20
170.1856673520906
 30
0.0
 10
104.6811062846909
 20
170.1856673520906
 30
0.0
 10
104.7135900341736
 20
170.1941492197966
 30
0.0
 10
104.7448105267313
 20
170.2071427192623
 30
0.0
 10
104.7726021790668
 20
170.2241064546743
 30
0.0
 10
104.7726021790668
 20
170.2241064546743
 30
0.0
 10
104.4095060459586
 20
170.3800284482531
 30
0.0
 10
104.4095060459586
 20
170.3800284482531
 30
0.0
 10
104.3295599291769
 20
170.4247838352994
 30
0.0
 10
104.2503356734951
 20
170.4709829445073
 30
0.0
 10
104.1716528136358
 20
170.5177234495259
 30
0.0
 10
104.0924285579522
 20
170.565185815627
 30
0.0
 10
104.044424794828
 20
170.6469365830944
 30
0.0
 10
104.044424794828
 20
170.7359059613736
 30
0.0
 10
104.044424794828
 20
170.7359059613736
 30
0.0
 10
104.044424794828
 20
196.222655161735
 30
0.0
 10
104.044424794828
 20
196.222655161735
 30
0.0
 10
104.0574182946211
 20
196.297367783658
 30
0.0
 10
104.1081290368684
 20
196.3610791326118
 30
0.0
 10
104.1801346815564
 20
196.3942776338336
 30
0.0
 10
104.3477869219432
 20
196.4774721234626
 30
0.0
 10
104.5284326621213
 20
196.5352210099736
 30
0.0
 10
104.7148532910969
 20
196.565719640661
 30
0.0
 10
104.683091402715
 20
196.7353569947863
 30
0.0
 10
104.5706615364497
 20
196.8820752595766
 30
0.0
 10
104.4095060459586
 20
196.9640064923151
 30
0.0
 10
104.0222275660153
 20
197.0647061131676
 30
0.0
 10
103.6149174405546
 20
197.0764363557391
 30
0.0
 10
103.2213226759905
 20
196.9990167547621
 30
0.0
 10
103.2213226759905
 20
196.9990167547621
 30
0.0
 10
97.50743114196393
 20
195.8718306761821
 30
0.0
 10
97.50743114196393
 20
195.8718306761821
 30
0.0
 10
97.50743114196393
 20
195.8718306761821
 30
0.0
 10
96.99021766408714
 20
196.0427312871998
 30
0.0
 10
96.99021766408714
 20
196.0427312871998
 30
0.0
 10
96.99021766408714
 20
196.0427312871998
 30
0.0
 10
95.25432218478
 20
197.7423532033154
 30
0.0
 10
95.25432218478
 20
197.7423532033154
 30
0.0
 10
95.25432218478
 20
197.7423532033154
 30
0.0
 10
95.25432218478
 20
227.8365612208672
 30
0.0
 10
95.25432218478
 20
227.8365612208672
 30
0.0
 10
95.25432218478
 20
227.8365612208672
 30
0.0
 10
96.99021766408714
 20
230.0642245180134
 30
0.0
 10
96.99021766408714
 20
230.0642245180134
 30
0.0
 10
96.99021766408714
 20
230.0642245180134
 30
0.0
 10
110.207133467542
 20
231.5644403082279
 30
0.0
 10
110.207133467542
 20
231.5644403082279
 30
0.0
  0
SPLINE
  5
CA
330
BE
100
AcDbEntity
  8
5
  6
AI-Linetype-13
 62
   250
420
  2301728
370
    15
100
AcDbSpline
210
0.0
220
0.0
230
1.0
 70
    11
 71
     3
 72
    23
 73
    19
 74
     0
 42
0.0000000001
 43
0.0000000001
 12
1.0
 22
0.0
 32
0.0
 13
1.0
 23
0.0
 33
0.0
 40
0.0
 40
0.0
 40
0.0
 40
0.0
 40
1.0
 40
1.0
 40
1.0
 40
2.0
 40
2.0
 40
2.0
 40
3.0
 40
3.0
 40
3.0
 40
4.0
 40
4.0
 40
4.0
 40
5.0
 40
5.0
 40
5.0
 40
6.0
 40
6.0
 40
6.0
 40
6.0
 10
118.5087165784207
 20
207.9150000274221
 30
0.0
 10
118.1456204453134
 20
207.6973589113859
 30
0.0
 10
117.8857504494517
 20
207.3562795504331
 30
0.0
 10
117.7843289649572
 20
206.9625043305386
 30
0.0
 10
117.4744700879455
 20
205.8742987503556
 30
0.0
 10
117.7193614659918
 20
204.7121024093303
 30
0.0
 10
118.4469974544045
 20
203.8160996389142
 30
0.0
 10
118.7003707003714
 20
203.4957664872018
 30
0.0
 10
119.0719487013994
 20
203.275598857379
 30
0.0
 10
119.4884625558807
 20
203.1983597216713
 30
0.0
 10
119.9392648125904
 20
203.5107451046388
 30
0.0
 10
120.2290920440864
 20
203.9869929530814
 30
0.0
 10
120.2875627931571
 20
204.5099813065426
 30
0.0
 10
120.453951776617
 20
205.5287150977583
 30
0.0
 10
120.1563645382994
 20
206.5654807357787
 30
0.0
 10
119.4682504450902
 20
207.3678293277353
 30
0.0
 10
119.2311190738656
 20
207.6551300381252
 30
0.0
 10
118.889498308472
 20
207.8500325300975
 30
0.0
 10
118.5087165784207
 20
207.9150000274221
 30
0.0
  0
SPLINE
  5
CC
330
BE
100
AcDbEntity
  8
5
  6
AI-Linetype-14
 62
   250
420
  2301728
370
    15
100
AcDbSpline
210
0.0
220
0.0
230
1.0
 70
    11
 71
     3
 72
    23
 73
    19
 74
     0
 42
0.0000000001
 43
0.0000000001
 12
1.0
 22
0.0
 32
0.0
 13
1.0
 23
0.0
 33
0.0
 40
0.0
 40
0.0
 40
0.0
 40
0.0
 40
1.0
 40
1.0
 40
1.0
 40
2.0
 40
2.0
 40
2.0
 40
3.0
 40
3.0
 40
3.0
 40
4.0
 40
4.0
 40
4.0
 40
5.0
 40
5.0
 40
5.0
 40
6.0
 40
6.0
 40
6.0
 40
6.0
 10
118.4262439477898
 20
195.1716254272415
 30
0.0
 10
118.102669709886
 20
194.9220419583544
 30
0.0
 10
117.8682453177862
 20
194.5854742291594
 30
0.0
 10
117.7550935904219
 20
194.2068580919749
 30
0.0
 10
117.4926970807101
 20
193.1256906573344
 30
0.0
 10
117.7505819585494
 20
191.9914664332136
 30
0.0
 10
118.4599909541976
 20
191.1046600947357
 30
0.0
 10
118.7238311861074
 20
190.7543770049942
 30
0.0
 10
119.1226594436484
 20
190.5147191259748
 30
0.0
 10
119.5721984434349
 20
190.4372995249978
 30
0.0
 10
119.9971941658332
 20
190.7635807337811
 30
0.0
 10
120.2608539324683
 20
191.2396481169544
 30
0.0
 10
120.3012781540492
 20
191.7536132068981
 30
0.0
 10
120.4434847906741
 20
192.7891229281386
 30
0.0
 10
120.1108872890254
 20
193.832573121279
 30
0.0
 10
119.3864996755583
 20
194.6244547275546
 30
0.0
 10
119.1486464432346
 20
194.9117554379454
 30
0.0
 10
118.807025677841
 20
195.1066579299186
 30
0.0
 10
118.4262439477898
 20
195.1716254272415
 30
0.0
  0
SPLINE
  5
CE
330
BE
100
AcDbEntity
  8
5
  6
AI-Linetype-15
 62
   250
420
  2301728
370
    15
100
AcDbSpline
210
0.0
220
0.0
230
1.0
 70
    11
 71
     3
 72
    23
 73
    19
 74
     0
 42
0.0000000001
 43
0.0000000001
 12
1.0
 22
0.0
 32
0.0
 13
1.0
 23
0.0
 33
0.0
 40
0.0
 40
0.0
 40
0.0
 40
0.0
 40
1.0
 40
1.0
 40
1.0
 40
2.0
 40
2.0
 40
2.0
 40
3.0
 40
3.0
 40
3.0
 40
4.0
 40
4.0
 40
4.0
 40
5.0
 40
5.0
 40
5.0
 40
6.0
 40
6.0
 40
6.0
 40
6.0
 10
118.3475610879323
 20
182.4287922228723
 30
0.0
 10
118.0234454542042
 20
182.1826375941218
 30
0.0
 10
117.8045410757441
 20
181.8363247403286
 30
0.0
 10
117.7298284519347
 20
181.4510381200034
 30
0.0
 10
117.5199473372195
 20
180.4128146878429
 30
0.0
 10
117.7642973194415
 20
179.3390463292872
 30
0.0
 10
118.4087388161242
 20
178.4722716358174
 30
0.0
 10
118.6868358047541
 20
178.05593825713
 30
0.0
 10
119.1363748045405
 20
177.7668328940363
 30
0.0
 10
119.6501594421934
 20
177.6738999162517
 30
0.0
 10
120.052957935779
 20
178.0137093838694
 30
0.0
 10
120.2927962861286
 20
178.4912204892044
 30
0.0
 10
120.3155349107656
 20
178.9985150340508
 30
0.0
 10
120.4129861592119
 20
180.0387101824163
 30
0.0
 10
120.0731700465694
 20
181.0736785078479
 30
0.0
 10
119.3689945438928
 20
181.8818019884548
 30
0.0
 10
119.0946873260364
 20
182.1559287341097
 30
0.0
 10
118.7388098039264
 20
182.3470414554067
 30
0.0
 10
118.3475610879323
 20
182.4287922228723
 30
0.0
  0
SPLINE
  5
D0
330
BE
100
AcDbEntity
  8
5
  6
AI-Linetype-16
 62
   250
420
  2301728
370
    15
100
AcDbSpline
210
0.0
220
0.0
230
1.0
 70
    11
 71
     3
 72
    23
 73
    19
 74
     0
 42
0.0000000001
 43
0.0000000001
 12
1.0
 22
0.0
 32
0.0
 13
1.0
 23
0.0
 33
0.0
 40
0.0
 40
0.0
 40
0.0
 40
0.0
 40
1.0
 40
1.0
 40
1.0
 40
2.0
 40
2.0
 40
2.0
 40
3.0
 40
3.0
 40
3.0
 40
4.0
 40
4.0
 40
4.0
 40
5.0
 40
5.0
 40
5.0
 40
6.0
 40
6.0
 40
6.0
 40
6.0
 10
118.2728484641229
 20
169.6866808795858
 30
0.0
 10
117.9739979688784
 20
169.435292757993
 30
0.0
 10
117.7765689581356
 20
169.0942133970402
 30
0.0
 10
117.7141279730167
 20
168.7226354053983
 30
0.0
 10
117.537452468885
 20
167.7013888250294
 30
0.0
 10
117.7810805900081
 20
166.6546902305836
 30
0.0
 10
118.3950234552321
 20
165.7958496509345
 30
0.0
 10
118.6783539368334
 20
165.3313320450652
 30
0.0
 10
119.16362506105
 20
165.0072164195244
 30
0.0
 10
119.7230674132552
 20
164.9083214513757
 30
0.0
 10
120.1056537960503
 20
165.2663645477414
 30
0.0
 10
120.3213097995613
 20
165.7516356597007
 30
0.0
 10
120.3240167786862
 20
166.2583821388307
 30
0.0
 10
120.3882624165526
 20
167.3095923385936
 30
0.0
 10
120.0179476724479
 20
168.3438452036899
 30
0.0
 10
119.2890484271084
 20
169.1449241380069
 30
0.0
 10
119.0284565701477
 20
169.4320508113633
 30
0.0
 10
118.6686088119859
 20
169.6236985002342
 30
0.0
 10
118.2728484641229
 20
169.6866808795858
 30
0.0
  0
POLYLINE
  5
D2
330
BE
100
AcDbEntity
  8
5
 62
   250
420
  2301728
370
    15
100
AcDb2dPolyline
 66
     1
 10
0.0
 20
0.0
 30
0.0
  0
VERTEX
  5
D3
330
D2
100
AcDbEntity
  8
5
 62
   250
420
  2301728
370
    15
100
AcDbVertex
100
AcDb2dVertex
 10
98.57217626389956
 20
164.0182667380323
 30
0.0
  0
VERTEX
  5
203
330
D2
100
AcDbEntity
  8
0
100
AcDbVertex
100
AcDb2dVertex
 10
98.57217626389956
 20
164.0182667380323
 30
0.0
  0
SEQEND
  5
D4
330
D2
100
AcDbEntity
  8
5
 62
   250
420
  2301728
370
    15
  0
SPLINE
  5
D5
330
BE
100
AcDbEntity
  8
5
 62
   250
420
  2301728
370
    15
100
AcDbSpline
210
0.0
220
0.0
230
1.0
 70
     8
 71
     3
 72
    11
 73
     7
 74
     0
 42
0.0000000001
 43
0.0000000001
 12
1.0
 22
0.0
 32
0.0
 13
1.0
 23
0.0
 33
0.0
 40
0.0
 40
0.0
 40
0.0
 40
0.0
 40
1.0
 40
1.0
 40
1.0
 40
2.0
 40
2.0
 40
2.0
 40
2.0
 10
109.0079417158013
 20
168.4082649044576
 30
0.0
 10
108.8410113365135
 20
168.2249121897858
 30
0.0
 10
108.7233479772767
 20
168.0072710737504
 30
0.0
 10
108.6636139712828
 20
167.7728466875706
 30
0.0
 10
108.5589441118391
 20
167.451798971626
 30
0.0
 10
108.6109181110114
 20
167.1042228609404
 30
0.0
 10
108.8065424690067
 20
166.8230579697411
 30
0.0
  0
POLYLINE
  5
D6
330
BE
100
AcDbEntity
  8
5
 62
   250
420
  2301728
370
    15
100
AcDb2dPolyline
 66
     1
 10
0.0
 20
0.0
 30
0.0
  0
VERTEX
  5
D7
330
D6
100
AcDbEntity
  8
5
 62
   250
420
  2301728
370
    15
100
AcDbVertex
100
AcDb2dVertex
 10
109.8537824592786
 20
228.0951679532718
 30
0.0
  0
VERTEX
  5
204
330
D6
100
AcDbEntity
  8
0
100
AcDbVertex
100
AcDb2dVertex
 10
109.8537824592786
 20
228.0951679532718
 30
0.0
  0
SEQEND
  5
D8
330
D6
100
AcDbEntity
  8
5
 62
   250
420
  2301728
370
    15
  0
POLYLINE
  5
D9
330
BE
100
AcDbEntity
  8
5
 62
   250
420
  2301728
370
    15
100
AcDb2dPolyline
 66
     1
 10
0.0
 20
0.0
 30
0.0
  0
VERTEX
  5
DA
330
D9
100
AcDbEntity
  8
5
 62
   250
420
  2301728
370
    15
100
AcDbVertex
100
AcDb2dVertex
 10
99.82857550778408
 20
217.235128914419
 30
0.0
  0
VERTEX
  5
205
330
D9
100
AcDbEntity
  8
0
100
AcDbVertex
100
AcDb2dVertex
 10
99.82857550778408
 20
217.235128914419
 30
0.0
  0
SEQEND
  5
DB
330
D9
100
AcDbEntity
  8
5
 62
   250
420
  2301728
370
    15
  0
POLYLINE
  5
DC
330
BE
100
AcDbEntity
  8
5
 62
   250
420
  2301728
370
    15
100
AcDb2dPolyline
 66
     1
 10
0.0
 20
0.0
 30
0.0
  0
VERTEX
  5
DD
330
DC
100
AcDbEntity
  8
5
 62
   250
420
  2301728
370
    15
100
AcDbVertex
100
AcDb2dVertex
 10
98.7228647684451
 20
207.578432298229
 30
0.0
  0
VERTEX
  5
206
330
DC
100
AcDbEntity
  8
0
100
AcDbVertex
100
AcDb2dVertex
 10
98.7228647684451
 20
207.578432298229
 30
0.0
  0
SEQEND
  5
DE
330
DC
100
AcDbEntity
  8
5
 62
   250
420
  2301728
370
    15
  0
POLYLINE
  5
DF
330
BE
100
AcDbEntity
  8
5
 62
   250
420
  2301728
370
    15
100
AcDb2dPolyline
 66
     1
 10
0.0
 20
0.0
 30
0.0
  0
VERTEX
  5
E0
330
DF
100
AcDbEntity
  8
5
 62
   250
420
  2301728
370
    15
100
AcDbVertex
100
AcDb2dVertex
 10
99.82352248008738
 20
200.0142304916953
 30
0.0
  0
VERTEX
  5
207
330
DF
100
AcDbEntity
  8
0
100
AcDbVertex
100
AcDb2dVertex
 10
99.82352248008738
 20
200.0142304916953
 30
0.0
  0
SEQEND
  5
E1
330
DF
100
AcDbEntity
  8
5
 62
   250
420
  2301728
370
    15
  0
POLYLINE
  5
E2
330
BE
100
AcDbEntity
  8
5
 62
   250
420
  2301728
370
    15
100
AcDb2dPolyline
 66
     1
 10
0.0
 20
0.0
 30
0.0
  0
VERTEX
  5
E3
330
E2
100
AcDbEntity
  8
5
 62
   250
420
  2301728
370
    15
100
AcDbVertex
100
AcDb2dVertex
 10
99.35304950841146
 20
199.0974669183397
 30
0.0
  0
VERTEX
  5
208
330
E2
100
AcDbEntity
  8
0
100
AcDbVertex
100
AcDb2dVertex
 10
99.35304950841146
 20
199.0974669183397
 30
0.0
  0
SEQEND
  5
E4
330
E2
100
AcDbEntity
  8
5
 62
   250
420
  2301728
370
    15
  0
POLYLINE
  5
E5
330
BE
100
AcDbEntity
  8
5
 62
   250
420
  2301728
370
    15
100
AcDb2dPolyline
 66
     1
 10
0.0
 20
0.0
 30
0.0
  0
VERTEX
  5
E6
330
E5
100
AcDbEntity
  8
5
 62
   250
420
  2301728
370
    15
100
AcDbVertex
100
AcDb2dVertex
 10
98.68911776203731
 20
225.7503826956727
 30
0.0
  0
VERTEX
  5
209
330
E5
100
AcDbEntity
  8
0
100
AcDbVertex
100
AcDb2dVertex
 10
98.68911776203731
 20
225.7503826956727
 30
0.0
  0
SEQEND
  5
E7
330
E5
100
AcDbEntity
  8
5
 62
   250
420
  2301728
370
    15
  0
POLYLINE
  5
E8
330
BE
100
AcDbEntity
  8
5
 62
   250
420
  2301728
370
    15
100
AcDb2dPolyline
 66
     1
 10
0.0
 20
0.0
 30
0.0
  0
VERTEX
  5
E9
330
E8
100
AcDbEntity
  8
5
 62
   250
420
  2301728
370
    15
100
AcDbVertex
100
AcDb2dVertex
 10
99.18864564297382
 20
226.792569631918
 30
0.0
  0
VERTEX
  5
20A
330
E8
100
AcDbEntity
  8
0
100
AcDbVertex
100
AcDb2dVertex
 10
99.18864564297382
 20
226.792569631918
 30
0.0
  0
SEQEND
  5
EA
330
E8
100
AcDbEntity
  8
5
 62
   250
420
  2301728
370
    15
  0
POLYLINE
  5
EB
330
BE
100
AcDbEntity
  8
5
 62
   250
420
  2301728
370
    15
100
AcDb2dPolyline
 66
     1
 10
0.0
 20
0.0
 30
0.0
  0
VERTEX
  5
EC
330
EB
100
AcDbEntity
  8
5
 62
   250
420
  2301728
370
    15
100
AcDbVertex
100
AcDb2dVertex
 10
123.6122699854386
 20
220.3939930065462
 30
0.0
  0
VERTEX
  5
ED
330
EB
100
AcDbEntity
  8
5
 62
   250
420
  2301728
370
    15
100
AcDbVertex
100
AcDb2dVertex
 10
124.4664121099813
 20
220.5192359041666
 30
0.0
  0
SEQEND
  5
EE
330
EB
100
AcDbEntity
  8
5
 62
   250
420
  2301728
370
    15
  0
POLYLINE
  5
EF
330
BE
100
AcDbEntity
  8
5
 62
   250
420
  2301728
370
    15
100
AcDb2dPolyline
 66
     1
 10
0.0
 20
0.0
 30
0.0
  0
VERTEX
  5
F0
330
EF
100
AcDbEntity
  8
5
 62
   250
420
  2301728
370
    15
100
AcDbVertex
100
AcDb2dVertex
 10
124.4665925752524
 20
159.5708806156363
 30
0.0
  0
VERTEX
  5
F1
330
EF
100
AcDbEntity
  8
5
 62
   250
420
  2301728
370
    15
100
AcDbVertex
100
AcDb2dVertex
 10
123.4538214780732
 20
159.7293291229998
 30
0.0
  0
SEQEND
  5
F2
330
EF
100
AcDbEntity
  8
5
 62
   250
420
  2301728
370
    15
  0
POLYLINE
  5
F3
330
BE
100
AcDbEntity
  8
5
 62
   250
420
  2301728
370
    15
100
AcDb2dPolyline
 66
     1
 10
0.0
 20
0.0
 30
0.0
  0
VERTEX
  5
F4
330
F3
100
AcDbEntity
  8
5
 62
   250
420
  2301728
370
    15
100
AcDbVertex
100
AcDb2dVertex
 10
123.3042157689561
 20
222.3690049252091
 30
0.0
  0
VERTEX
  5
F5
330
F3
100
AcDbEntity
  8
5
 62
   250
420
  2301728
370
    15
100
AcDbVertex
100
AcDb2dVertex
 10
122.6258513600915
 20
222.2760653109799
 30
0.0
  0
SEQEND
  5
F6
330
F3
100
AcDbEntity
  8
5
 62
   250
420
  2301728
370
    15
  0
POLYLINE
  5
F7
330
BE
100
AcDbEntity
  8
5
 62
   250
420
  2301728
370
    15
100
AcDb2dPolyline
 66
     1
 10
0.0
 20
0.0
 30
0.0
  0
VERTEX
  5
F8
330
F7
100
AcDbEntity
  8
5
 62
   250
420
  2301728
370
    15
100
AcDbVertex
100
AcDb2dVertex
 10
116.973498484811
 20
221.2576997904198
 30
0.0
  0
VERTEX
  5
F9
330
F7
100
AcDbEntity
  8
5
 62
   250
420
  2301728
370
    15
100
AcDbVertex
100
AcDb2dVertex
 10
117.647175356029
 20
221.3504589393779
 30
0.0
  0
SEQEND
  5
FA
330
F7
100
AcDbEntity
  8
5
 62
   250
420
  2301728
370
    15
  0
POLYLINE
  5
FB
330
BE
100
AcDbEntity
  8
5
 62
   250
420
  2301728
370
    15
100
AcDb2dPolyline
 66
     1
 10
0.0
 20
0.0
 30
0.0
  0
VERTEX
  5
FC
330
FB
100
AcDbEntity
  8
5
 62
   250
420
  2301728
370
    15
100
AcDbVertex
100
AcDb2dVertex
 10
116.1807145321545
 20
223.7427065630782
 30
0.0
  0
VERTEX
  5
FD
330
FB
100
AcDbEntity
  8
5
 62
   250
420
  2301728
370
    15
100
AcDbVertex
100
AcDb2dVertex
 10
115.5084813831345
 20
223.2359678713874
 30
0.0
  0
SEQEND
  5
FE
330
FB
100
AcDbEntity
  8
5
 62
   250
420
  2301728
370
    15
  0
POLYLINE
  5
FF
330
BE
100
AcDbEntity
  8
5
  6
AI-Linetype-17
 62
   250
420
  2301728
370
    15
100
AcDb2dPolyline
 66
     1
 10
0.0
 20
0.0
 30
0.0
  0
VERTEX
  5
100
330
FF
100
AcDbEntity
  8
5
  6
AI-Linetype-17
 62
   250
420
  2301728
370
    15
100
AcDbVertex
100
AcDb2dVertex
 10
103.7753510699449
 20
220.2905864066397
 30
0.0
  0
VERTEX
  5
101
330
FF
100
AcDbEntity
  8
5
  6
AI-Linetype-17
 62
   250
420
  2301728
370
    15
100
AcDbVertex
100
AcDb2dVertex
 10
103.7753510699449
 20
200.0187421234532
 30
0.0
  0
SEQEND
  5
103
330
FF
100
AcDbEntity
  8
5
  6
AI-Linetype-17
 62
   250
420
  2301728
370
    15
  0
POLYLINE
  5
104
330
BE
100
AcDbEntity
  8
5
  6
AI-Linetype-18
 62
   250
420
  2301728
370
    15
100
AcDb2dPolyline
 66
     1
 10
0.0
 20
0.0
 30
0.0
  0
VERTEX
  5
105
330
104
100
AcDbEntity
  8
5
  6
AI-Linetype-18
 62
   250
420
  2301728
370
    15
100
AcDbVertex
100
AcDb2dVertex
 10
122.198329123843
 20
158.4377391831367
 30
0.0
  0
VERTEX
  5
106
330
104
100
AcDbEntity
  8
5
  6
AI-Linetype-18
 62
   250
420
  2301728
370
    15
100
AcDbVertex
100
AcDb2dVertex
 10
123.4538214780732
 20
159.7293291229998
 30
0.0
  0
VERTEX
  5
107
330
104
100
AcDbEntity
  8
5
  6
AI-Linetype-18
 62
   250
420
  2301728
370
    15
100
AcDbVertex
100
AcDb2dVertex
 10
123.6122699854386
 20
220.3939930065462
 30
0.0
  0
VERTEX
  5
108
330
104
100
AcDbEntity
  8
5
  6
AI-Linetype-18
 62
   250
420
  2301728
370
    15
100
AcDbVertex
100
AcDb2dVertex
 10
122.7057974768759
 20
221.9976073988382
 30
0.0
  0
VERTEX
  5
109
330
104
100
AcDbEntity
  8
5
  6
AI-Linetype-18
 62
   250
420
  2301728
370
    15
100
AcDbVertex
100
AcDb2dVertex
 10
121.9371958710581
 20
222.1464912468728
 30
0.0
  0
SEQEND
  5
10B
330
104
100
AcDbEntity
  8
5
  6
AI-Linetype-18
 62
   250
420
  2301728
370
    15
  0
POLYLINE
  5
10C
330
BE
100
AcDbEntity
  8
5
 62
   250
420
  2301728
370
    15
100
AcDb2dPolyline
 66
     1
 10
0.0
 20
0.0
 30
0.0
  0
VERTEX
  5
10D
330
10C
100
AcDbEntity
  8
5
 62
   250
420
  2301728
370
    15
100
AcDbVertex
100
AcDb2dVertex
 10
98.10134236167414
 20
229.5441236088773
 30
0.0
  0
VERTEX
  5
10E
330
10C
100
AcDbEntity
  8
5
 62
   250
420
  2301728
370
    15
100
AcDbVertex
100
AcDb2dVertex
 10
96.99021766408714
 20
230.063863587473
 30
0.0
  0
SEQEND
  5
10F
330
10C
100
AcDbEntity
  8
5
 62
   250
420
  2301728
370
    15
  0
POLYLINE
  5
110
330
BE
100
AcDbEntity
  8
5
 62
   250
420
  2301728
370
    15
100
AcDb2dPolyline
 66
     1
 10
0.0
 20
0.0
 30
0.0
  0
VERTEX
  5
111
330
110
100
AcDbEntity
  8
5
 62
   250
420
  2301728
370
    15
100
AcDbVertex
100
AcDb2dVertex
 10
95.25468311533132
 20
227.8365612208672
 30
0.0
  0
VERTEX
  5
112
330
110
100
AcDbEntity
  8
5
 62
   250
420
  2301728
370
    15
100
AcDbVertex
100
AcDb2dVertex
 10
96.46578557521298
 20
227.5768716968396
 30
0.0
  0
SEQEND
  5
113
330
110
100
AcDbEntity
  8
5
 62
   250
420
  2301728
370
    15
  0
POLYLINE
  5
114
330
BE
100
AcDbEntity
  8
5
 62
   250
420
  2301728
370
    15
100
AcDb2dPolyline
 66
     1
 10
0.0
 20
0.0
 30
0.0
  0
VERTEX
  5
115
330
114
100
AcDbEntity
  8
5
 62
   250
420
  2301728
370
    15
100
AcDbVertex
100
AcDb2dVertex
 10
96.07110801899853
 20
162.4016588462764
 30
0.0
  0
VERTEX
  5
116
330
114
100
AcDbEntity
  8
5
 62
   250
420
  2301728
370
    15
100
AcDbVertex
100
AcDb2dVertex
 10
95.18015095679493
 20
162.5254580217334
 30
0.0
  0
SEQEND
  5
117
330
114
100
AcDbEntity
  8
5
 62
   250
420
  2301728
370
    15
  0
POLYLINE
  5
118
330
BE
100
AcDbEntity
  8
5
 62
   250
420
  2301728
370
    15
100
AcDb2dPolyline
 66
     1
 10
0.0
 20
0.0
 30
0.0
  0
VERTEX
  5
119
330
118
100
AcDbEntity
  8
5
 62
   250
420
  2301728
370
    15
100
AcDbVertex
100
AcDb2dVertex
 10
95.18015095679493
 20
165.5866904026043
 30
0.0
  0
VERTEX
  5
11A
330
118
100
AcDbEntity
  8
5
 62
   250
420
  2301728
370
    15
100
AcDbVertex
100
AcDb2dVertex
 10
96.01462238795193
 20
165.3457692666934
 30
0.0
  0
SEQEND
  5
11B
330
118
100
AcDbEntity
  8
5
 62
   250
420
  2301728
370
    15
  0
POLYLINE
  5
11C
330
BE
100
AcDbEntity
  8
5
 62
   250
420
  2301728
370
    15
100
AcDb2dPolyline
 66
     1
 10
0.0
 20
0.0
 30
0.0
  0
VERTEX
  5
11D
330
11C
100
AcDbEntity
  8
5
 62
   250
420
  2301728
370
    15
100
AcDbVertex
100
AcDb2dVertex
 10
97.95083432240335
 20
167.6156614370993
 30
0.0
  0
VERTEX
  5
11E
330
11C
100
AcDbEntity
  8
5
 62
   250
420
  2301728
370
    15
100
AcDbVertex
100
AcDb2dVertex
 10
96.91622690137501
 20
168.0948031243224
 30
0.0
  0
SEQEND
  5
11F
330
11C
100
AcDbEntity
  8
5
 62
   250
420
  2301728
370
    15
  0
POLYLINE
  5
120
330
BE
100
AcDbEntity
  8
5
  6
AI-Linetype-19
 62
   250
420
  2301728
370
    15
100
AcDb2dPolyline
 66
     1
 10
0.0
 20
0.0
 30
0.0
  0
VERTEX
  5
121
330
120
100
AcDbEntity
  8
5
  6
AI-Linetype-19
 62
   250
420
  2301728
370
    15
100
AcDbVertex
100
AcDb2dVertex
 10
105.6200671100187
 20
169.6879441364781
 30
0.0
  0
VERTEX
  5
122
330
120
100
AcDbEntity
  8
5
  6
AI-Linetype-19
 62
   250
420
  2301728
370
    15
100
AcDbVertex
100
AcDb2dVertex
 10
97.95083432240335
 20
167.6156614370993
 30
0.0
  0
VERTEX
  5
123
330
120
100
AcDbEntity
  8
5
  6
AI-Linetype-19
 62
   250
420
  2301728
370
    15
100
AcDbVertex
100
AcDb2dVertex
 10
96.01462238795193
 20
165.3457692666934
 30
0.0
  0
VERTEX
  5
124
330
120
100
AcDbEntity
  8
5
  6
AI-Linetype-19
 62
   250
420
  2301728
370
    15
100
AcDbVertex
100
AcDb2dVertex
 10
96.07110801899853
 20
162.4016588462764
 30
0.0
  0
VERTEX
  5
125
330
120
100
AcDbEntity
  8
5
  6
AI-Linetype-19
 62
   250
420
  2301728
370
    15
100
AcDbVertex
100
AcDb2dVertex
 10
97.95083432240335
 20
160.8837654573999
 30
0.0
  0
SEQEND
  5
127
330
120
100
AcDbEntity
  8
5
  6
AI-Linetype-19
 62
   250
420
  2301728
370
    15
  0
POLYLINE
  5
128
330
BE
100
AcDbEntity
  8
5
 62
   250
420
  2301728
370
    15
100
AcDb2dPolyline
 66
     1
 10
0.0
 20
0.0
 30
0.0
  0
VERTEX
  5
129
330
128
100
AcDbEntity
  8
5
 62
   250
420
  2301728
370
    15
100
AcDbVertex
100
AcDb2dVertex
 10
103.8659446379488
 20
230.8059367791329
 30
0.0
  0
VERTEX
  5
20B
330
128
100
AcDbEntity
  8
0
100
AcDbVertex
100
AcDb2dVertex
 10
103.8659446379488
 20
230.8059367791329
 30
0.0
  0
SEQEND
  5
12A
330
128
100
AcDbEntity
  8
5
 62
   250
420
  2301728
370
    15
  0
SPLINE
  5
12B
330
BE
100
AcDbEntity
  8
5
  6
AI-Linetype-20
 62
   250
420
  2301728
370
    15
100
AcDbSpline
210
0.0
220
0.0
230
1.0
 70
    11
 71
     3
 72
    26
 73
    22
 74
     0
 42
0.0000000001
 43
0.0000000001
 12
1.0
 22
0.0
 32
0.0
 13
1.0
 23
0.0
 33
0.0
 40
0.0
 40
0.0
 40
0.0
 40
0.0
 40
1.0
 40
1.0
 40
1.0
 40
2.0
 40
2.0
 40
2.0
 40
3.0
 40
3.0
 40
3.0
 40
4.0
 40
4.0
 40
4.0
 40
5.0
 40
5.0
 40
5.0
 40
6.0
 40
6.0
 40
6.0
 40
7.0
 40
7.0
 40
7.0
 40
7.0
 10
98.31338905968641
 20
225.5922951188504
 30
0.0
 10
98.49656131371466
 20
225.4780606027216
 30
0.0
 10
98.72593267811772
 20
225.4488252289248
 30
0.0
 10
98.93509193173213
 20
225.5125294693571
 30
0.0
 10
99.26768943338084
 20
225.6327193394081
 30
0.0
 10
99.52232593627286
 20
225.8898823496493
 30
0.0
 10
99.62573253879145
 20
226.2094863434322
 30
0.0
 10
99.78291779323354
 20
226.600735049542
 30
0.0
 10
99.72047680811647
 20
227.03926565648
 30
0.0
 10
99.45808029840646
 20
227.3770966425673
 30
0.0
 10
99.29692480791618
 20
227.5817442591397
 30
0.0
 10
99.02406131226144
 20
227.6797369009364
 30
0.0
 10
98.758596892877
 20
227.6293870905101
 30
0.0
 10
98.54041437551768
 20
227.5916698490091
 30
0.0
 10
98.34479001752061
 20
227.4785181245024
 30
0.0
 10
98.21088478354159
 20
227.3123096105137
 30
0.0
 10
97.98422039825982
 20
227.0504545032418
 30
0.0
 10
97.86926401814617
 20
226.7183984058074
 30
0.0
 10
97.88929566366005
 20
226.3812892808
 30
0.0
 10
97.89254403860923
 20
226.0707085505364
 30
0.0
 10
98.04990975832607
 20
225.7796180694704
 30
0.0
 10
98.31338905968641
 20
225.5922951188504
 30
0.0
  0
SPLINE
  5
12D
330
BE
100
AcDbEntity
  8
5
  6
AI-Linetype-21
 62
   250
420
  2301728
370
    15
100
AcDbSpline
210
0.0
220
0.0
230
1.0
 70
    11
 71
     3
 72
    26
 73
    22
 74
     0
 42
0.0000000001
 43
0.0000000001
 12
1.0
 22
0.0
 32
0.0
 13
1.0
 23
0.0
 33
0.0
 40
0.0
 40
0.0
 40
0.0
 40
0.0
 40
1.0
 40
1.0
 40
1.0
 40
2.0
 40
2.0
 40
2.0
 40
3.0
 40
3.0
 40
3.0
 40
4.0
 40
4.0
 40
4.0
 40
5.0
 40
5.0
 40
5.0
 40
6.0
 40
6.0
 40
6.0
 40
7.0
 40
7.0
 40
7.0
 40
7.0
 10
109.0653296732198
 20
226.9672600136128
 30
0.0
 10
109.2291921428332
 20
226.858800386135
 30
0.0
 10
109.4370881395225
 20
226.8263166374727
 30
0.0
 10
109.6292836572975
 20
226.8790124964144
 30
0.0
 10
109.9438346314564
 20
226.9862088669997
 30
0.0
 10
110.1880041484001
 20
227.2238816280442
 30
0.0
 10
110.2899670287225
 20
227.5227321157363
 30
0.0
 10
110.4550927552591
 20
227.9054989541401
 30
0.0
 10
110.4031187560868
 20
228.3407811862126
 30
0.0
 10
110.15227202397
 20
228.6798754291922
 30
0.0
 10
109.996350026453
 20
228.8910197954956
 30
0.0
 10
109.7189748989222
 20
228.9904561594576
 30
0.0
 10
109.4522472226163
 20
228.9319854118658
 30
0.0
 10
109.2483214619751
 20
228.8800114140049
 30
0.0
 10
109.0689389787185
 20
228.7636192417103
 30
0.0
 10
108.946222591785
 20
228.6019144324036
 30
0.0
 10
108.7343563590475
 20
228.3323072346884
 30
0.0
 10
108.6381683675208
 20
227.9977167072866
 30
0.0
 10
108.6758856099768
 20
227.6636754918763
 30
0.0
 10
108.6941126027414
 20
227.3902784996881
 30
0.0
 10
108.835777843542
 20
227.1368973677381
 30
0.0
 10
109.0653296732198
 20
226.9672600136128
 30
0.0
  0
SPLINE
  5
12F
330
BE
100
AcDbEntity
  8
5
  6
AI-Linetype-22
 62
   250
420
  2301728
370
    15
100
AcDbSpline
210
0.0
220
0.0
230
1.0
 70
    11
 71
     3
 72
    26
 73
    22
 74
     0
 42
0.0000000001
 43
0.0000000001
 12
1.0
 22
0.0
 32
0.0
 13
1.0
 23
0.0
 33
0.0
 40
0.0
 40
0.0
 40
0.0
 40
0.0
 40
1.0
 40
1.0
 40
1.0
 40
2.0
 40
2.0
 40
2.0
 40
3.0
 40
3.0
 40
3.0
 40
4.0
 40
4.0
 40
4.0
 40
5.0
 40
5.0
 40
5.0
 40
6.0
 40
6.0
 40
6.0
 40
7.0
 40
7.0
 40
7.0
 40
7.0
 10
98.915240751493
 20
216.064631170957
 30
0.0
 10
99.11862511630989
 20
215.9222440726553
 30
0.0
 10
99.38679651481925
 20
215.8930086988585
 30
0.0
 10
99.61941625416966
 20
215.9879334310608
 30
0.0
 10
99.92927513118138
 20
216.1231019185489
 30
0.0
 10
100.1638799885577
 20
216.3750314359513
 30
0.0
 10
100.2645796119532
 20
216.6818223955397
 30
0.0
 10
100.4159899775977
 20
217.0559269009646
 30
0.0
 10
100.3660010964504
 20
217.4756891197894
 30
0.0
 10
100.1306743779742
 20
217.8095498699277
 30
0.0
 10
99.97547424155619
 20
218.0161826044732
 30
0.0
 10
99.70982935689699
 20
218.1233866333441
 30
0.0
 10
99.44274075003977
 20
218.0874663862596
 30
0.0
 10
99.22058799663046
 20
218.043981912384
 30
0.0
 10
99.02045200676275
 20
217.9322662537634
 30
0.0
 10
98.87229001606556
 20
217.771110767344
 30
0.0
 10
98.64111399891135
 20
217.5092556600739
 30
0.0
 10
98.52092412582806
 20
217.1766581668271
 30
0.0
 10
98.53391762562114
 20
216.8368420627648
 30
0.0
 10
98.53193250759523
 20
216.5394352972362
 30
0.0
 10
98.67215402619604
 20
216.2561048227944
 30
0.0
 10
98.915240751493
 20
216.064631170957
 30
0.0
  0
SPLINE
  5
131
330
BE
100
AcDbEntity
  8
5
  6
AI-Linetype-23
 62
   250
420
  2301728
370
    15
100
AcDbSpline
210
0.0
220
0.0
230
1.0
 70
    11
 71
     3
 72
    26
 73
    22
 74
     0
 42
0.0000000001
 43
0.0000000001
 12
1.0
 22
0.0
 32
0.0
 13
1.0
 23
0.0
 33
0.0
 40
0.0
 40
0.0
 40
0.0
 40
0.0
 40
1.0
 40
1.0
 40
1.0
 40
2.0
 40
2.0
 40
2.0
 40
3.0
 40
3.0
 40
3.0
 40
4.0
 40
4.0
 40
4.0
 40
5.0
 40
5.0
 40
5.0
 40
6.0
 40
6.0
 40
6.0
 40
7.0
 40
7.0
 40
7.0
 40
7.0
 10
98.23398433872808
 20
207.3629567654352
 30
0.0
 10
98.44909894641478
 20
207.1987333694215
 30
0.0
 10
98.7459643236316
 20
207.1675128776515
 30
0.0
 10
98.99410407662526
 20
207.282469254862
 30
0.0
 10
99.2956615509911
 20
207.4286461238407
 30
0.0
 10
99.52232593627286
 20
207.6812975023258
 30
0.0
 10
99.62428881659343
 20
207.9848474892096
 30
0.0
 10
99.77966941828436
 20
208.3648999463949
 30
0.0
 10
99.72498843998892
 20
208.7917003107614
 30
0.0
 10
99.47811194392034
 20
209.1255610609014
 30
0.0
 10
99.3281453004738
 20
209.3107184282744
 30
0.0
 10
99.08505857517684
 20
209.4076282784499
 30
0.0
 10
98.83854300965777
 20
209.3805584878992
 30
0.0
 10
98.60989350635373
 20
209.3475333434253
 30
0.0
 10
98.40127564856539
 20
209.2370885979744
 30
0.0
 10
98.25185040094311
 20
209.0699777576338
 30
0.0
 10
98.00894414092272
 20
208.8050547407674
 30
0.0
 10
97.87900914299189
 20
208.4639753798147
 30
0.0
 10
97.88803240673678
 20
208.1136922900732
 30
0.0
 10
97.88279891376351
 20
207.8285571629276
 30
0.0
 10
98.00894414092272
 20
207.5544304172727
 30
0.0
 10
98.23398433872808
 20
207.3629567654352
 30
0.0
  0
SPLINE
  5
133
330
BE
100
AcDbEntity
  8
5
  6
AI-Linetype-24
 62
   250
420
  2301728
370
    15
100
AcDbSpline
210
0.0
220
0.0
230
1.0
 70
    11
 71
     3
 72
    26
 73
    22
 74
     0
 42
0.0000000001
 43
0.0000000001
 12
1.0
 22
0.0
 32
0.0
 13
1.0
 23
0.0
 33
0.0
 40
0.0
 40
0.0
 40
0.0
 40
0.0
 40
1.0
 40
1.0
 40
1.0
 40
2.0
 40
2.0
 40
2.0
 40
3.0
 40
3.0
 40
3.0
 40
4.0
 40
4.0
 40
4.0
 40
5.0
 40
5.0
 40
5.0
 40
6.0
 40
6.0
 40
6.0
 40
7.0
 40
7.0
 40
7.0
 40
7.0
 10
98.8443178984553
 20
198.8774797537881
 30
0.0
 10
99.0664706518628
 20
198.6870888935737
 30
0.0
 10
99.39455652163906
 20
198.6565974293972
 30
0.0
 10
99.65244139947663
 20
198.8007820138919
 30
0.0
 10
99.93775699910202
 20
198.9429886469243
 30
0.0
 10
100.152691141514
 20
199.1840902481053
 30
0.0
 10
100.2528493690852
 20
199.4724737501156
 30
0.0
 10
100.404801130554
 20
199.8292535895907
 30
0.0
 10
100.3762876171186
 20
200.2306083508392
 30
0.0
 10
100.1761516272518
 20
200.565920037885
 30
0.0
 10
100.0377347613994
 20
200.7815688212031
 30
0.0
 10
99.78039127938337
 20
200.9044656703099
 30
0.0
 10
99.5134831378009
 20
200.8815465809748
 30
0.0
 10
99.27129873887952
 20
200.8503260892048
 30
0.0
 10
99.05040924239529
 20
200.7333845940211
 30
0.0
 10
98.89701375872664
 20
200.55472397638
 30
0.0
 10
98.66313076245115
 20
200.2955758481639
 30
0.0
 10
98.5344590214454
 20
199.9667753252024
 30
0.0
 10
98.53391762562114
 20
199.6276738826145
 30
0.0
 10
98.52092412582806
 20
199.3475917830383
 30
0.0
 10
98.6338953879158
 20
199.0754501553574
 30
0.0
 10
98.8443178984553
 20
198.8774797537881
 30
0.0
  0
SPLINE
  5
135
330
BE
100
AcDbEntity
  8
5
  6
AI-Linetype-25
 62
   250
420
  2301728
370
    15
100
AcDbSpline
210
0.0
220
0.0
230
1.0
 70
     8
 71
     3
 72
    20
 73
    16
 74
     0
 42
0.0000000001
 43
0.0000000001
 12
1.0
 22
0.0
 32
0.0
 13
1.0
 23
0.0
 33
0.0
 40
0.0
 40
0.0
 40
0.0
 40
0.0
 40
1.0
 40
1.0
 40
1.0
 40
2.0
 40
2.0
 40
2.0
 40
3.0
 40
3.0
 40
3.0
 40
4.0
 40
4.0
 40
4.0
 40
5.0
 40
5.0
 40
5.0
 40
5.0
 10
102.904425653257
 20
222.3224448854598
 30
0.0
 10
102.9721001313465
 20
222.2329341113673
 30
0.0
 10
103.08380813651
 20
222.1822233704006
 30
0.0
 10
103.2007496346496
 20
222.1887201201334
 30
0.0
 10
103.2844855222056
 20
222.1990066405433
 30
0.0
 10
103.3684018750364
 20
222.2069471124378
 30
0.0
 10
103.4521377625924
 20
222.2120001400071
 30
0.0
 10
103.7724636255471
 20
222.2341973682596
 30
0.0
 10
104.093330884326
 20
222.2192187508208
 30
0.0
 10
104.4096865112342
 20
222.1679666140426
 30
0.0
 10
104.4096865112342
 20
222.1679666140426
 30
0.0
 10
111.391166136189
 20
220.7191914237101
 30
0.0
 10
111.391166136189
 20
220.7191914237101
 30
0.0
 10
111.391166136189
 20
220.7191914237101
 30
0.0
 10
111.391166136189
 20
220.9483823170494
 30
0.0
 10
111.391166136189
 20
220.9483823170494
 30
0.0
  0
POLYLINE
  5
137
330
BE
100
AcDbEntity
  8
5
  6
AI-Linetype-26
 62
   250
420
  2301728
370
    15
100
AcDb2dPolyline
 66
     1
 10
0.0
 20
0.0
 30
0.0
  0
VERTEX
  5
138
330
137
100
AcDbEntity
  8
5
  6
AI-Linetype-26
 62
   250
420
  2301728
370
    15
100
AcDbVertex
100
AcDb2dVertex
 10
104.4739321491006
 20
229.6850669850173
 30
0.0
  0
VERTEX
  5
139
330
137
100
AcDbEntity
  8
5
  6
AI-Linetype-26
 62
   250
420
  2301728
370
    15
100
AcDbVertex
100
AcDb2dVertex
 10
103.2749208626346
 20
230.1948813737436
 30
0.0
  0
VERTEX
  5
13A
330
137
100
AcDbEntity
  8
5
  6
AI-Linetype-26
 62
   250
420
  2301728
370
    15
100
AcDbVertex
100
AcDb2dVertex
 10
98.10134236167414
 20
229.5441236088773
 30
0.0
  0
VERTEX
  5
13B
330
137
100
AcDbEntity
  8
5
  6
AI-Linetype-26
 62
   250
420
  2301728
370
    15
100
AcDbVertex
100
AcDb2dVertex
 10
96.46578557521298
 20
227.5768716968396
 30
0.0
  0
VERTEX
  5
13C
330
137
100
AcDbEntity
  8
5
  6
AI-Linetype-26
 62
   250
420
  2301728
370
    15
100
AcDbVertex
100
AcDb2dVertex
 10
96.46578557521298
 20
197.8780630866149
 30
0.0
  0
VERTEX
  5
13D
330
137
100
AcDbEntity
  8
5
  6
AI-Linetype-26
 62
   250
420
  2301728
370
    15
100
AcDbVertex
100
AcDb2dVertex
 10
98.18598057560393
 20
195.9485284160801
 30
0.0
  0
SEQEND
  5
13F
330
137
100
AcDbEntity
  8
5
  6
AI-Linetype-26
 62
   250
420
  2301728
370
    15
  0
POLYLINE
  5
140
330
BE
100
AcDbEntity
  8
5
  6
AI-Linetype-27
 62
   250
420
  2301728
370
    15
100
AcDb2dPolyline
 66
     1
 10
0.0
 20
0.0
 30
0.0
  0
VERTEX
  5
141
330
140
100
AcDbEntity
  8
5
  6
AI-Linetype-27
 62
   250
420
  2301728
370
    15
100
AcDbVertex
100
AcDb2dVertex
 10
111.2637576521083
 20
230.8895001800856
 30
0.0
  0
VERTEX
  5
142
330
140
100
AcDbEntity
  8
5
  6
AI-Linetype-27
 62
   250
420
  2301728
370
    15
100
AcDbVertex
100
AcDb2dVertex
 10
105.0108163419418
 20
230.3529689505649
 30
0.0
  0
VERTEX
  5
143
330
140
100
AcDbEntity
  8
5
  6
AI-Linetype-27
 62
   250
420
  2301728
370
    15
100
AcDbVertex
100
AcDb2dVertex
 10
104.4739321491006
 20
229.6850669850173
 30
0.0
  0
SEQEND
  5
145
330
140
100
AcDbEntity
  8
5
  6
AI-Linetype-27
 62
   250
420
  2301728
370
    15
  0
SPLINE
  5
146
330
BE
100
AcDbEntity
  8
5
 62
   250
420
  2301728
370
    15
100
AcDbSpline
210
0.0
220
0.0
230
1.0
 70
     8
 71
     3
 72
    20
 73
    16
 74
     0
 42
0.0000000001
 43
0.0000000001
 12
1.0
 22
0.0
 32
0.0
 13
1.0
 23
0.0
 33
0.0
 40
0.0
 40
0.0
 40
0.0
 40
0.0
 40
1.0
 40
1.0
 40
1.0
 40
2.0
 40
2.0
 40
2.0
 40
3.0
 40
3.0
 40
3.0
 40
4.0
 40
4.0
 40
4.0
 40
5.0
 40
5.0
 40
5.0
 40
5.0
 10
104.714672825824
 20
196.5655391753917
 30
0.0
 10
104.7498635544298
 20
196.438130694527
 30
0.0
 10
104.7511268113549
 20
196.3049473250121
 30
0.0
 10
104.7186430618722
 20
196.1777193094185
 30
0.0
 10
104.7011379302048
 20
196.1055332012802
 30
0.0
 10
104.6594504517016
 20
196.0398509432816
 30
0.0
 10
104.6004383068084
 20
195.9905768240696
 30
0.0
 10
104.5309591759697
 20
195.939866083103
 30
0.0
 10
104.4347711844466
 20
195.9346325902616
 30
0.0
 10
104.3593366995356
 20
195.9775833246058
 30
0.0
 10
104.2756008119804
 20
196.0048335804277
 30
0.0
 10
104.1976398132219
 20
196.0438140788228
 30
0.0
 10
104.1267169601842
 20
196.0945248197904
 30
0.0
 10
104.0826834331056
 20
196.1257453115604
 30
0.0
 10
104.0534480585748
 20
196.1717639554972
 30
0.0
 10
104.0442443295533
 20
196.2231965575465
 30
0.0
  0
SPLINE
  5
147
330
BE
100
AcDbEntity
  8
5
  6
AI-Linetype-28
 62
   250
420
  2301728
370
    15
100
AcDbSpline
210
0.0
220
0.0
230
1.0
 70
     8
 71
     3
 72
    17
 73
    13
 74
     0
 42
0.0000000001
 43
0.0000000001
 12
1.0
 22
0.0
 32
0.0
 13
1.0
 23
0.0
 33
0.0
 40
0.0
 40
0.0
 40
0.0
 40
0.0
 40
1.0
 40
1.0
 40
1.0
 40
2.0
 40
2.0
 40
2.0
 40
3.0
 40
3.0
 40
3.0
 40
4.0
 40
4.0
 40
4.0
 40
4.0
 10
118.5072728562227
 20
207.9140977010702
 30
0.0
 10
117.9640723787597
 20
207.9693200737966
 30
0.0
 10
117.4502877411069
 20
207.6717328429968
 30
0.0
 10
117.2586336191598
 20
207.1916952238771
 30
0.0
 10
116.7766108698888
 20
206.0670356590836
 30
0.0
 10
116.935781242355
 20
204.7898829408496
 30
0.0
 10
117.6829074804591
 20
203.8011137246249
 30
0.0
 10
117.9185951294858
 20
203.4690576271896
 30
0.0
 10
118.2668931100488
 20
203.2214592762757
 30
0.0
 10
118.6704134647371
 20
203.0980210313592
 30
0.0
 10
118.946525335341
 20
203.0252935274093
 30
0.0
 10
119.2421274556327
 20
203.061025650939
 30
0.0
 10
119.4890039517049
 20
203.198179256402
 30
0.0
  0
SPLINE
  5
149
330
BE
100
AcDbEntity
  8
5
  6
AI-Linetype-29
 62
   250
420
  2301728
370
    15
100
AcDbSpline
210
0.0
220
0.0
230
1.0
 70
     8
 71
     3
 72
    17
 73
    13
 74
     0
 42
0.0000000001
 43
0.0000000001
 12
1.0
 22
0.0
 32
0.0
 13
1.0
 23
0.0
 33
0.0
 40
0.0
 40
0.0
 40
0.0
 40
0.0
 40
1.0
 40
1.0
 40
1.0
 40
2.0
 40
2.0
 40
2.0
 40
3.0
 40
3.0
 40
3.0
 40
4.0
 40
4.0
 40
4.0
 40
4.0
 10
118.4251611561413
 20
195.1705426356202
 30
0.0
 10
117.8924276646248
 20
195.2042967204734
 30
0.0
 10
117.40065979051
 20
194.9002056606423
 30
0.0
 10
117.2225405641766
 20
194.427206187067
 30
0.0
 10
116.7912285571583
 20
193.3162619828199
 30
0.0
 10
116.9576175406182
 20
192.0780897629793
 30
0.0
 10
117.6695530501165
 20
191.1028554420318
 30
0.0
 10
117.8956760395704
 20
190.7780179554102
 30
0.0
 10
118.2140167845027
 20
190.5188698271941
 30
0.0
 10
118.5883017646556
 20
190.3544659659092
 30
0.0
 10
118.9104322803578
 20
190.2270644386081
 30
0.0
 10
119.2787619064402
 20
190.2582779768154
 30
0.0
 10
119.5725593739844
 20
190.4369385944574
 30
0.0
  0
SPLINE
  5
14B
330
BE
100
AcDbEntity
  8
5
  6
AI-Linetype-30
 62
   250
420
  2301728
370
    15
100
AcDbSpline
210
0.0
220
0.0
230
1.0
 70
     8
 71
     3
 72
    17
 73
    13
 74
     0
 42
0.0000000001
 43
0.0000000001
 12
1.0
 22
0.0
 32
0.0
 13
1.0
 23
0.0
 33
0.0
 40
0.0
 40
0.0
 40
0.0
 40
0.0
 40
1.0
 40
1.0
 40
1.0
 40
2.0
 40
2.0
 40
2.0
 40
3.0
 40
3.0
 40
3.0
 40
4.0
 40
4.0
 40
4.0
 40
4.0
 10
118.346297831009
 20
182.4277094312511
 30
0.0
 10
117.8070675895942
 20
182.4511699163959
 30
0.0
 10
117.3217964653741
 20
182.1230840549069
 30
0.0
 10
117.175619592701
 20
181.6351127004054
 30
0.0
 10
116.8208248622395
 20
180.5819106461568
 30
0.0
 10
116.97422034591
 20
179.4352409993207
 30
0.0
 10
117.5946599610324
 20
178.4971758431257
 30
0.0
 10
117.8130229436647
 20
178.1346211150012
 30
0.0
 10
118.1331683413446
 20
177.8345140109159
 30
0.0
 10
118.5197249601915
 20
177.6298597538444
 30
0.0
 10
118.8725345726307
 20
177.4329721438971
 30
0.0
 10
119.3162986836214
 20
177.4499358793091
 30
0.0
 10
119.6501594421934
 20
177.6740737450782
 30
0.0
  0
SPLINE
  5
14D
330
BE
100
AcDbEntity
  8
5
  6
AI-Linetype-31
 62
   250
420
  2301728
370
    15
100
AcDbSpline
210
0.0
220
0.0
230
1.0
 70
     8
 71
     3
 72
    17
 73
    13
 74
     0
 42
0.0000000001
 43
0.0000000001
 12
1.0
 22
0.0
 32
0.0
 13
1.0
 23
0.0
 33
0.0
 40
0.0
 40
0.0
 40
0.0
 40
0.0
 40
1.0
 40
1.0
 40
1.0
 40
2.0
 40
2.0
 40
2.0
 40
3.0
 40
3.0
 40
3.0
 40
4.0
 40
4.0
 40
4.0
 40
4.0
 10
118.2714047419249
 20
169.6859590185031
 30
0.0
 10
117.7471531183255
 20
169.6904706502628
 30
0.0
 10
117.2864252714935
 20
169.3616693541517
 30
0.0
 10
117.14945212784
 20
168.8868588014138
 30
0.0
 10
116.823892771914
 20
167.8056913667733
 30
0.0
 10
117.007065025944
 20
166.6454801437212
 30
0.0
 10
117.6515065226267
 20
165.6987593354897
 30
0.0
 10
117.8705913663616
 20
165.3466715930444
 30
0.0
 10
118.1836986183189
 20
165.0543178550852
 30
0.0
 10
118.559246855395
 20
164.8496702385128
 30
0.0
 10
118.9216211274033
 20
164.6365407542344
 30
0.0
 10
119.3875824672068
 20
164.660001239381
 30
0.0
 10
119.7234283438047
 20
164.9081409861046
 30
0.0
  0
POLYLINE
  5
14F
330
BE
100
AcDbEntity
  8
5
 62
   250
420
  2301728
370
    15
100
AcDb2dPolyline
 66
     1
 10
0.0
 20
0.0
 30
0.0
  0
VERTEX
  5
150
330
14F
100
AcDbEntity
  8
5
 62
   250
420
  2301728
370
    15
100
AcDbVertex
100
AcDb2dVertex
 10
104.7747677623674
 20
170.2235650588627
 30
0.0
  0
VERTEX
  5
151
330
14F
100
AcDbEntity
  8
5
 62
   250
420
  2301728
370
    15
100
AcDbVertex
100
AcDb2dVertex
 10
110.8640270681935
 20
167.6124130622338
 30
0.0
  0
VERTEX
  5
152
330
14F
100
AcDbEntity
  8
5
 62
   250
420
  2301728
370
    15
100
AcDbVertex
100
AcDb2dVertex
 10
110.8640270681935
 20
165.5516801401573
 30
0.0
  0
VERTEX
  5
153
330
14F
100
AcDbEntity
  8
5
 62
   250
420
  2301728
370
    15
100
AcDbVertex
100
AcDb2dVertex
 10
111.077878418957
 20
165.1436481639066
 30
0.0
  0
SEQEND
  5
154
330
14F
100
AcDbEntity
  8
5
 62
   250
420
  2301728
370
    15
  0
SPLINE
  5
155
330
BE
100
AcDbEntity
  8
5
 62
   250
420
  2301728
370
    15
100
AcDbSpline
210
0.0
220
0.0
230
1.0
 70
     8
 71
     3
 72
    11
 73
     7
 74
     0
 42
0.0000000001
 43
0.0000000001
 12
1.0
 22
0.0
 32
0.0
 13
1.0
 23
0.0
 33
0.0
 40
0.0
 40
0.0
 40
0.0
 40
0.0
 40
1.0
 40
1.0
 40
1.0
 40
2.0
 40
2.0
 40
2.0
 40
2.0
 10
104.3889330046213
 20
162.7432796030407
 30
0.0
 10
104.3986781294652
 20
162.8705076186343
 30
0.0
 10
104.3447190122706
 20
162.9952091204432
 30
0.0
 10
104.2434779930472
 20
163.0803887280454
 30
0.0
 10
104.1277997518346
 20
163.1590778556838
 30
0.0
 10
103.9711558932167
 20
163.1558232110492
 30
0.0
 10
103.8601697491513
 20
163.0726287214202
 30
0.0
  0
SPLINE
  5
156
330
BE
100
AcDbEntity
  8
5
  6
AI-Linetype-32
 62
   250
420
  2301728
370
    15
100
AcDbSpline
210
0.0
220
0.0
230
1.0
 70
    11
 71
     3
 72
    26
 73
    22
 74
     0
 42
0.0000000001
 43
0.0000000001
 12
1.0
 22
0.0
 32
0.0
 13
1.0
 23
0.0
 33
0.0
 40
0.0
 40
0.0
 40
0.0
 40
0.0
 40
1.0
 40
1.0
 40
1.0
 40
2.0
 40
2.0
 40
2.0
 40
3.0
 40
3.0
 40
3.0
 40
4.0
 40
4.0
 40
4.0
 40
5.0
 40
5.0
 40
5.0
 40
6.0
 40
6.0
 40
6.0
 40
7.0
 40
7.0
 40
7.0
 40
7.0
 10
98.0065980923473
 20
163.7957530596959
 30
0.0
 10
98.23524759565316
 20
163.523430966743
 30
0.0
 10
98.654287963981
 20
163.4721788299667
 30
0.0
 10
98.94989008427456
 20
163.6800748214046
 30
0.0
 10
99.21625683003458
 20
163.8470051964741
 30
0.0
 10
99.41819747265163
 20
164.0893700545475
 30
0.0
 10
99.52611570704448
 20
164.37252006372
 30
0.0
 10
99.67554095466676
 20
164.70710267494
 30
0.0
 10
99.67030746169348
 20
165.0853578815841
 30
0.0
 10
99.51185895032631
 20
165.4166984447402
 30
0.0
 10
99.4006923409861
 20
165.6283778800534
 30
0.0
 10
99.17132097658305
 20
165.7628245064634
 30
0.0
 10
98.91975238336545
 20
165.7633659022722
 30
0.0
 10
98.69759962995795
 20
165.7601175274067
 30
0.0
 10
98.48573339722043
 20
165.672411406018
 30
0.0
 10
98.33305977465079
 20
165.5204596483873
 30
0.0
 10
98.05171441107541
 20
165.2741308775639
 30
0.0
 10
97.87251239309535
 20
164.9427903180112
 30
0.0
 10
97.82631328272055
 20
164.5849276869158
 30
0.0
 10
97.7770462626695
 20
164.31007908018
 30
0.0
 10
97.84129190053591
 20
164.0274704668191
 30
0.0
 10
98.0065980923473
 20
163.7957530596959
 30
0.0
  0
SPLINE
  5
158
330
BE
100
AcDbEntity
  8
5
 62
   250
420
  2301728
370
    15
100
AcDbSpline
210
0.0
220
0.0
230
1.0
 70
     8
 71
     3
 72
    14
 73
    10
 74
     0
 42
0.0000000001
 43
0.0000000001
 12
1.0
 22
0.0
 32
0.0
 13
1.0
 23
0.0
 33
0.0
 40
0.0
 40
0.0
 40
0.0
 40
0.0
 40
1.0
 40
1.0
 40
1.0
 40
2.0
 40
2.0
 40
2.0
 40
3.0
 40
3.0
 40
3.0
 40
3.0
 10
110.3365270696486
 20
167.8388969765156
 30
0.0
 10
110.3190219379831
 20
167.5198343785469
 30
0.0
 10
110.196305551046
 20
167.2137652800393
 30
0.0
 10
109.9857025752353
 20
166.9630990195292
 30
0.0
 10
109.8032521823043
 20
166.7187490434826
 30
0.0
 10
109.497904937165
 20
166.5810540422081
 30
0.0
 10
109.1801055880605
 20
166.6005506481142
 30
0.0
 10
109.0306803404383
 20
166.6245461723611
 30
0.0
 10
108.8987602244815
 20
166.7057555440169
 30
0.0
 10
108.8143024758283
 20
166.8234189002833
 30
0.0
  0
POLYLINE
  5
159
330
BE
100
AcDbEntity
  8
5
  6
AI-Linetype-33
 62
   250
420
  2301728
370
    15
100
AcDb2dPolyline
 66
     1
 10
0.0
 20
0.0
 30
0.0
  0
VERTEX
  5
15A
330
159
100
AcDbEntity
  8
5
  6
AI-Linetype-33
 62
   250
420
  2301728
370
    15
100
AcDbVertex
100
AcDb2dVertex
 10
104.0411764198807
 20
168.8854150792504
 30
0.0
  0
VERTEX
  5
15B
330
159
100
AcDbEntity
  8
5
  6
AI-Linetype-33
 62
   250
420
  2301728
370
    15
100
AcDbVertex
100
AcDb2dVertex
 10
104.0411764198807
 20
163.8913996529791
 30
0.0
  0
SEQEND
  5
15D
330
159
100
AcDbEntity
  8
5
  6
AI-Linetype-33
 62
   250
420
  2301728
370
    15
  0
SPLINE
  5
15E
330
BE
100
AcDbEntity
  8
5
370
     0
100
AcDbSpline
210
0.0
220
0.0
230
1.0
 70
    11
 71
     3
 72
    56
 73
    52
 74
     0
 42
0.0000000001
 43
0.0000000001
 12
1.0
 22
0.0
 32
0.0
 13
1.0
 23
0.0
 33
0.0
 40
0.0
 40
0.0
 40
0.0
 40
0.0
 40
1.0
 40
1.0
 40
1.0
 40
2.0
 40
2.0
 40
2.0
 40
3.0
 40
3.0
 40
3.0
 40
4.0
 40
4.0
 40
4.0
 40
5.0
 40
5.0
 40
5.0
 40
6.0
 40
6.0
 40
6.0
 40
7.0
 40
7.0
 40
7.0
 40
8.0
 40
8.0
 40
8.0
 40
9.0
 40
9.0
 40
9.0
 40
10.0
 40
10.0
 40
10.0
 40
11.0
 40
11.0
 40
11.0
 40
12.0
 40
12.0
 40
12.0
 40
13.0
 40
13.0
 40
13.0
 40
14.0
 40
14.0
 40
14.0
 40
15.0
 40
15.0
 40
15.0
 40
16.0
 40
16.0
 40
16.0
 40
17.0
 40
17.0
 40
17.0
 40
17.0
 10
107.4063124010245
 20
196.8856845649843
 30
0.0
 10
107.3978305331038
 20
197.1325610548174
 30
0.0
 10
107.2464201674593
 20
197.2527509248666
 30
0.0
 10
107.1132367945793
 20
197.2904752983686
 30
0.0
 10
107.0132590322828
 20
197.3197035401636
 30
0.0
 10
106.843621673871
 20
197.330711921657
 30
0.0
 10
106.843621673871
 20
197.0903321815567
 30
0.0
 10
106.843621673871
 20
196.9564269509592
 30
0.0
 10
106.9145445269114
 20
196.8921813147172
 30
0.0
 10
106.9833017966484
 20
196.8499524414556
 30
0.0
 10
106.9833017966484
 20
196.8499524414556
 30
0.0
 10
107.3211327912686
 20
196.6505383177246
 30
0.0
 10
107.3211327912686
 20
196.6505383177246
 30
0.0
 10
107.4738064138364
 20
196.5581400993069
 30
0.0
 10
107.5887627939519
 20
196.402218105728
 30
0.0
 10
107.5887627939519
 20
196.1515518452179
 30
0.0
 10
107.5887627939519
 20
195.777266874522
 30
0.0
 10
107.3296146591892
 20
195.7474971979354
 30
0.0
 10
107.1269521554714
 20
195.8059608525073
 30
0.0
 10
106.908047777014
 20
195.8682213707762
 30
0.0
 10
106.8221463061573
 20
195.980651234202
 30
0.0
 10
106.7696309111607
 20
196.0593340920714
 30
0.0
 10
106.6701945446875
 20
196.2087593359174
 30
0.0
 10
106.6507042949988
 20
196.346454337192
 30
0.0
 10
106.6507042949988
 20
196.4938944630649
 30
0.0
 10
106.6507042949988
 20
196.4938944630649
 30
0.0
 10
106.7994076815176
 20
196.4516655898024
 30
0.0
 10
106.7994076815176
 20
196.4516655898024
 30
0.0
 10
106.7994076815176
 20
196.1658086015759
 30
0.0
 10
106.9735566718036
 20
196.0319033709802
 30
0.0
 10
107.1256888985481
 20
195.989133101908
 30
0.0
 10
107.2406452786636
 20
195.9559274921648
 30
0.0
 10
107.4348259144572
 20
195.9396856178337
 30
0.0
 10
107.4348259144572
 20
196.1665304626567
 30
0.0
 10
107.4348259144572
 20
196.3314757197531
 30
0.0
 10
107.3770770264891
 20
196.4009548488357
 30
0.0
 10
107.1821745295929
 20
196.518618205102
 30
0.0
 10
107.1821745295929
 20
196.518618205102
 30
0.0
 10
106.9405315264967
 20
196.6620880950268
 30
0.0
 10
106.9405315264967
 20
196.6620880950268
 30
0.0
 10
106.8631119235606
 20
196.7082872042338
 30
0.0
 10
106.6896847943781
 20
196.830462192258
 30
0.0
 10
106.6896847943781
 20
197.1058521948053
 30
0.0
 10
106.6896847943781
 20
197.3521872888268
 30
0.0
 10
106.8091528063642
 20
197.5600832802647
 30
0.0
 10
107.0950098018147
 20
197.4788739086107
 30
0.0
 10
107.5075534202442
 20
197.3612105523443
 30
0.0
 10
107.5485190376494
 20
197.0188679344992
 30
0.0
 10
107.5550157875441
 20
196.8434556917236
 30
0.0
 10
107.5550157875441
 20
196.8434556917236
 30
0.0
 10
107.4063124010245
 20
196.8856845649843
 30
0.0
 10
107.4063124010245
 20
196.8856845649843
 30
0.0
  0
HATCH
  5
15F
330
BE
100
AcDbEntity
  8
5
 62
   250
420
  2301728
100
AcDbHatch
 10
0.0
 20
0.0
 30
0.0
210
0.0
220
0.0
230
1.0
  2
SOLID
 70
     1
 71
     0
 91
        1
 92
        1
 93
        1
 72
     4
 94
        3
 73
     0
 74
     1
 95
       56
 96
       52
 40
0.0
 40
0.0
 40
0.0
 40
0.0
 40
1.0
 40
1.0
 40
1.0
 40
2.0
 40
2.0
 40
2.0
 40
3.0
 40
3.0
 40
3.0
 40
4.0
 40
4.0
 40
4.0
 40
5.0
 40
5.0
 40
5.0
 40
6.0
 40
6.0
 40
6.0
 40
7.0
 40
7.0
 40
7.0
 40
8.0
 40
8.0
 40
8.0
 40
9.0
 40
9.0
 40
9.0
 40
10.0
 40
10.0
 40
10.0
 40
11.0
 40
11.0
 40
11.0
 40
12.0
 40
12.0
 40
12.0
 40
13.0
 40
13.0
 40
13.0
 40
14.0
 40
14.0
 40
14.0
 40
15.0
 40
15.0
 40
15.0
 40
16.0
 40
16.0
 40
16.0
 40
17.0
 40
17.0
 40
17.0
 40
17.0
 10
107.4063124010245
 20
196.8856845649843
 10
107.3978305331038
 20
197.1325610548174
 10
107.2464201674593
 20
197.2527509248666
 10
107.1132367945793
 20
197.2904752983686
 10
107.0132590322828
 20
197.3197035401636
 10
106.843621673871
 20
197.330711921657
 10
106.843621673871
 20
197.0903321815567
 10
106.843621673871
 20
196.9564269509592
 10
106.9145445269114
 20
196.8921813147172
 10
106.9833017966484
 20
196.8499524414556
 10
106.9833017966484
 20
196.8499524414556
 10
107.3211327912686
 20
196.6505383177246
 10
107.3211327912686
 20
196.6505383177246
 10
107.4738064138364
 20
196.5581400993069
 10
107.5887627939519
 20
196.402218105728
 10
107.5887627939519
 20
196.1515518452179
 10
107.5887627939519
 20
195.777266874522
 10
107.3296146591892
 20
195.7474971979354
 10
107.1269521554714
 20
195.8059608525073
 10
106.908047777014
 20
195.8682213707762
 10
106.8221463061573
 20
195.980651234202
 10
106.7696309111607
 20
196.0593340920714
 10
106.6701945446875
 20
196.2087593359174
 10
106.6507042949988
 20
196.346454337192
 10
106.6507042949988
 20
196.4938944630649
 10
106.6507042949988
 20
196.4938944630649
 10
106.7994076815176
 20
196.4516655898024
 10
106.7994076815176
 20
196.4516655898024
 10
106.7994076815176
 20
196.1658086015759
 10
106.9735566718036
 20
196.0319033709802
 10
107.1256888985481
 20
195.989133101908
 10
107.2406452786636
 20
195.9559274921648
 10
107.4348259144572
 20
195.9396856178337
 10
107.4348259144572
 20
196.1665304626567
 10
107.4348259144572
 20
196.3314757197531
 10
107.3770770264891
 20
196.4009548488357
 10
107.1821745295929
 20
196.518618205102
 10
107.1821745295929
 20
196.518618205102
 10
106.9405315264967
 20
196.6620880950268
 10
106.9405315264967
 20
196.6620880950268
 10
106.8631119235606
 20
196.7082872042338
 10
106.6896847943781
 20
196.830462192258
 10
106.6896847943781
 20
197.1058521948053
 10
106.6896847943781
 20
197.3521872888268
 10
106.8091528063642
 20
197.5600832802647
 10
107.0950098018147
 20
197.4788739086107
 10
107.5075534202442
 20
197.3612105523443
 10
107.5485190376494
 20
197.0188679344992
 10
107.5550157875441
 20
196.8434556917236
 10
107.5550157875441
 20
196.8434556917236
 10
107.4063124010245
 20
196.8856845649843
 10
107.4063124010245
 20
196.8856845649843
 97
        0
 97
        0
 75
     2
 76
     1
 98
        0
  0
POLYLINE
  5
160
330
BE
100
AcDbEntity
  8
5
370
     0
100
AcDb2dPolyline
 66
     1
 10
0.0
 20
0.0
 30
0.0
  0
VERTEX
  5
161
330
160
100
AcDbEntity
  8
5
370
     0
100
AcDbVertex
100
AcDb2dVertex
 10
108.1159018619473
 20
195.5646787860551
 30
0.0
  0
VERTEX
  5
162
330
160
100
AcDbEntity
  8
5
370
     0
100
AcDbVertex
100
AcDb2dVertex
 10
107.9567314894812
 20
195.6101560341813
 30
0.0
  0
VERTEX
  5
163
330
160
100
AcDbEntity
  8
5
370
     0
100
AcDbVertex
100
AcDb2dVertex
 10
107.9567314894812
 20
197.1908513371382
 30
0.0
  0
VERTEX
  5
164
330
160
100
AcDbEntity
  8
5
370
     0
100
AcDbVertex
100
AcDb2dVertex
 10
108.1159018619473
 20
197.1446522279293
 30
0.0
  0
VERTEX
  5
165
330
160
100
AcDbEntity
  8
5
370
     0
100
AcDbVertex
100
AcDb2dVertex
 10
108.1159018619473
 20
195.5646787860551
 30
0.0
  0
SEQEND
  5
167
330
160
100
AcDbEntity
  8
5
370
     0
  0
HATCH
  5
166
330
BE
100
AcDbEntity
  8
5
 62
   250
420
  2301728
100
AcDbHatch
 10
0.0
 20
0.0
 30
0.0
210
0.0
220
0.0
230
1.0
  2
SOLID
 70
     1
 71
     0
 91
        1
 92
        1
 93
        4
 72
     1
 10
108.1159018619473
 20
195.5646787860551
 11
107.9567314894812
 21
195.6101560341813
 72
     1
 10
107.9567314894812
 20
195.6101560341813
 11
107.9567314894812
 21
197.1908513371382
 72
     1
 10
107.9567314894812
 20
197.1908513371382
 11
108.1159018619473
 21
197.1446522279293
 72
     1
 10
108.1159018619473
 20
197.1446522279293
 11
108.1159018619473
 21
195.5646787860551
 97
        0
 75
     2
 76
     1
 98
        0
  0
SPLINE
  5
168
330
BE
100
AcDbEntity
  8
5
370
     0
100
AcDbSpline
210
0.0
220
0.0
230
1.0
 70
    11
 71
     3
 72
    59
 73
    55
 74
     0
 42
0.0000000001
 43
0.0000000001
 12
1.0
 22
0.0
 32
0.0
 13
1.0
 23
0.0
 33
0.0
 40
0.0
 40
0.0
 40
0.0
 40
0.0
 40
1.0
 40
1.0
 40
1.0
 40
2.0
 40
2.0
 40
2.0
 40
3.0
 40
3.0
 40
3.0
 40
4.0
 40
4.0
 40
4.0
 40
5.0
 40
5.0
 40
5.0
 40
6.0
 40
6.0
 40
6.0
 40
7.0
 40
7.0
 40
7.0
 40
8.0
 40
8.0
 40
8.0
 40
9.0
 40
9.0
 40
9.0
 40
10.0
 40
10.0
 40
10.0
 40
11.0
 40
11.0
 40
11.0
 40
12.0
 40
12.0
 40
12.0
 40
13.0
 40
13.0
 40
13.0
 40
14.0
 40
14.0
 40
14.0
 40
15.0
 40
15.0
 40
15.0
 40
16.0
 40
16.0
 40
16.0
 40
17.0
 40
17.0
 40
17.0
 40
18.0
 40
18.0
 40
18.0
 40
18.0
 10
109.4995291246414
 20
195.1698207745394
 30
0.0
 10
109.4995291246414
 20
195.1698207745394
 30
0.0
 10
109.4995291246414
 20
196.1026457569551
 30
0.0
 10
109.4995291246414
 20
196.1026457569551
 30
0.0
 10
109.4995291246414
 20
196.1488448661639
 30
0.0
 10
109.5027774995906
 20
196.3482589898958
 30
0.0
 10
109.5027774995906
 20
196.4956991157669
 30
0.0
 10
109.5027774995906
 20
196.4956991157669
 30
0.0
 10
109.4995291246414
 20
196.4964280887889
 30
0.0
 10
109.4995291246414
 20
196.4964280887889
 30
0.0
 10
109.4995291246414
 20
196.4964280887889
 30
0.0
 10
109.1669316229927
 20
195.2645650414706
 30
0.0
 10
109.1669316229927
 20
195.2645650414706
 30
0.0
 10
109.1669316229927
 20
195.2645650414706
 30
0.0
 10
109.0083026463508
 20
195.3100422895968
 30
0.0
 10
109.0083026463508
 20
195.3100422895968
 30
0.0
 10
109.0083026463508
 20
195.3100422895968
 30
0.0
 10
108.6764270058011
 20
196.7295821061361
 30
0.0
 10
108.6764270058011
 20
196.7295821061361
 30
0.0
 10
108.6764270058011
 20
196.7295821061361
 30
0.0
 10
108.6731786308519
 20
196.730303967217
 30
0.0
 10
108.6731786308519
 20
196.730303967217
 30
0.0
 10
108.6731786308519
 20
196.5853903551288
 30
0.0
 10
108.6764270058011
 20
196.3839911134237
 30
0.0
 10
108.6764270058011
 20
196.337972469486
 30
0.0
 10
108.6764270058011
 20
196.337972469486
 30
0.0
 10
108.6764270058011
 20
195.4049670217992
 30
0.0
 10
108.6764270058011
 20
195.4049670217992
 30
0.0
 10
108.6764270058011
 20
195.4049670217992
 30
0.0
 10
108.5224901263064
 20
195.4484591519522
 30
0.0
 10
108.5224901263064
 20
195.4484591519522
 30
0.0
 10
108.5224901263064
 20
195.4484591519522
 30
0.0
 10
108.5224901263064
 20
197.0291544549091
 30
0.0
 10
108.5224901263064
 20
197.0291544549091
 30
0.0
 10
108.5224901263064
 20
197.0291544549091
 30
0.0
 10
108.7504177685114
 20
196.9634650965036
 30
0.0
 10
108.7504177685114
 20
196.9634650965036
 30
0.0
 10
108.7504177685114
 20
196.9634650965036
 30
0.0
 10
109.0877073673073
 20
195.5316536415812
 30
0.0
 10
109.0877073673073
 20
195.5316536415812
 30
0.0
 10
109.0877073673073
 20
195.5316536415812
 30
0.0
 10
109.0909557422565
 20
195.5303903846889
 30
0.0
 10
109.0909557422565
 20
195.5303903846889
 30
0.0
 10
109.0909557422565
 20
195.5303903846889
 30
0.0
 10
109.4268016188544
 20
196.7705477225054
 30
0.0
 10
109.4268016188544
 20
196.7705477225054
 30
0.0
 10
109.4268016188544
 20
196.7705477225054
 30
0.0
 10
109.6534660041325
 20
196.7055802251798
 30
0.0
 10
109.6534660041325
 20
196.7055802251798
 30
0.0
 10
109.6534660041325
 20
196.7055802251798
 30
0.0
 10
109.6534660041325
 20
195.1256067833037
 30
0.0
 10
109.6534660041325
 20
195.1256067833037
 30
0.0
 10
109.6534660041325
 20
195.1256067833037
 30
0.0
 10
109.4995291246414
 20
195.1698207745394
 30
0.0
 10
109.4995291246414
 20
195.1698207745394
 30
0.0
  0
HATCH
  5
169
330
BE
100
AcDbEntity
  8
5
 62
   250
420
  2301728
100
AcDbHatch
 10
0.0
 20
0.0
 30
0.0
210
0.0
220
0.0
230
1.0
  2
SOLID
 70
     1
 71
     0
 91
        1
 92
        1
 93
        1
 72
     4
 94
        3
 73
     0
 74
     1
 95
       59
 96
       55
 40
0.0
 40
0.0
 40
0.0
 40
0.0
 40
1.0
 40
1.0
 40
1.0
 40
2.0
 40
2.0
 40
2.0
 40
3.0
 40
3.0
 40
3.0
 40
4.0
 40
4.0
 40
4.0
 40
5.0
 40
5.0
 40
5.0
 40
6.0
 40
6.0
 40
6.0
 40
7.0
 40
7.0
 40
7.0
 40
8.0
 40
8.0
 40
8.0
 40
9.0
 40
9.0
 40
9.0
 40
10.0
 40
10.0
 40
10.0
 40
11.0
 40
11.0
 40
11.0
 40
12.0
 40
12.0
 40
12.0
 40
13.0
 40
13.0
 40
13.0
 40
14.0
 40
14.0
 40
14.0
 40
15.0
 40
15.0
 40
15.0
 40
16.0
 40
16.0
 40
16.0
 40
17.0
 40
17.0
 40
17.0
 40
18.0
 40
18.0
 40
18.0
 40
18.0
 10
109.4995291246414
 20
195.1698207745394
 10
109.4995291246414
 20
195.1698207745394
 10
109.4995291246414
 20
196.1026457569551
 10
109.4995291246414
 20
196.1026457569551
 10
109.4995291246414
 20
196.1488448661639
 10
109.5027774995906
 20
196.3482589898958
 10
109.5027774995906
 20
196.4956991157669
 10
109.5027774995906
 20
196.4956991157669
 10
109.4995291246414
 20
196.4964280887889
 10
109.4995291246414
 20
196.4964280887889
 10
109.4995291246414
 20
196.4964280887889
 10
109.1669316229927
 20
195.2645650414706
 10
109.1669316229927
 20
195.2645650414706
 10
109.1669316229927
 20
195.2645650414706
 10
109.0083026463508
 20
195.3100422895968
 10
109.0083026463508
 20
195.3100422895968
 10
109.0083026463508
 20
195.3100422895968
 10
108.6764270058011
 20
196.7295821061361
 10
108.6764270058011
 20
196.7295821061361
 10
108.6764270058011
 20
196.7295821061361
 10
108.6731786308519
 20
196.730303967217
 10
108.6731786308519
 20
196.730303967217
 10
108.6731786308519
 20
196.5853903551288
 10
108.6764270058011
 20
196.3839911134237
 10
108.6764270058011
 20
196.337972469486
 10
108.6764270058011
 20
196.337972469486
 10
108.6764270058011
 20
195.4049670217992
 10
108.6764270058011
 20
195.4049670217992
 10
108.6764270058011
 20
195.4049670217992
 10
108.5224901263064
 20
195.4484591519522
 10
108.5224901263064
 20
195.4484591519522
 10
108.5224901263064
 20
195.4484591519522
 10
108.5224901263064
 20
197.0291544549091
 10
108.5224901263064
 20
197.0291544549091
 10
108.5224901263064
 20
197.0291544549091
 10
108.7504177685114
 20
196.9634650965036
 10
108.7504177685114
 20
196.9634650965036
 10
108.7504177685114
 20
196.9634650965036
 10
109.0877073673073
 20
195.5316536415812
 10
109.0877073673073
 20
195.5316536415812
 10
109.0877073673073
 20
195.5316536415812
 10
109.0909557422565
 20
195.5303903846889
 10
109.0909557422565
 20
195.5303903846889
 10
109.0909557422565
 20
195.5303903846889
 10
109.4268016188544
 20
196.7705477225054
 10
109.4268016188544
 20
196.7705477225054
 10
109.4268016188544
 20
196.7705477225054
 10
109.6534660041325
 20
196.7055802251798
 10
109.6534660041325
 20
196.7055802251798
 10
109.6534660041325
 20
196.7055802251798
 10
109.6534660041325
 20
195.1256067833037
 10
109.6534660041325
 20
195.1256067833037
 10
109.6534660041325
 20
195.1256067833037
 10
109.4995291246414
 20
195.1698207745394
 10
109.4995291246414
 20
195.1698207745394
 97
        0
 97
        0
 75
     2
 76
     1
 98
        0
  0
SPLINE
  5
16A
330
BE
100
AcDbEntity
  8
5
370
     0
100
AcDbSpline
210
0.0
220
0.0
230
1.0
 70
    11
 71
     3
 72
    20
 73
    16
 74
     0
 42
0.0000000001
 43
0.0000000001
 12
1.0
 22
0.0
 32
0.0
 13
1.0
 23
0.0
 33
0.0
 40
0.0
 40
0.0
 40
0.0
 40
0.0
 40
1.0
 40
1.0
 40
1.0
 40
2.0
 40
2.0
 40
2.0
 40
3.0
 40
3.0
 40
3.0
 40
4.0
 40
4.0
 40
4.0
 40
5.0
 40
5.0
 40
5.0
 40
5.0
 10
110.2111037035902
 20
196.3641399336848
 30
0.0
 10
110.2111037035902
 20
196.3641399336848
 30
0.0
 10
110.5352193373183
 20
196.2712003194574
 30
0.0
 10
110.5352193373183
 20
196.2712003194574
 30
0.0
 10
110.6665980574471
 20
196.2334830779546
 30
0.0
 10
110.7685609377695
 20
196.1405434637272
 30
0.0
 10
110.7685609377695
 20
195.9405950420842
 30
0.0
 10
110.7685609377695
 20
195.7267365988246
 30
0.0
 10
110.6716510851438
 20
195.6839663297524
 30
0.0
 10
110.5281811915956
 20
195.7247514808514
 30
0.0
 10
110.5281811915956
 20
195.7247514808514
 30
0.0
 10
110.2111037035902
 20
195.8157059771056
 30
0.0
 10
110.2111037035902
 20
195.8157059771056
 30
0.0
 10
110.2111037035902
 20
195.8157059771056
 30
0.0
 10
110.2111037035902
 20
196.3641399336848
 30
0.0
 10
110.2111037035902
 20
196.3641399336848
 30
0.0
  0
SPLINE
  5
16B
330
BE
100
AcDbEntity
  8
5
370
     0
100
AcDbSpline
210
0.0
220
0.0
230
1.0
 70
    11
 71
     3
 72
    26
 73
    22
 74
     0
 42
0.0000000001
 43
0.0000000001
 12
1.0
 22
0.0
 32
0.0
 13
1.0
 23
0.0
 33
0.0
 40
0.0
 40
0.0
 40
0.0
 40
0.0
 40
1.0
 40
1.0
 40
1.0
 40
2.0
 40
2.0
 40
2.0
 40
3.0
 40
3.0
 40
3.0
 40
4.0
 40
4.0
 40
4.0
 40
5.0
 40
5.0
 40
5.0
 40
6.0
 40
6.0
 40
6.0
 40
7.0
 40
7.0
 40
7.0
 40
7.0
 10
110.2111037035902
 20
195.6332555887857
 30
0.0
 10
110.2111037035902
 20
195.6332555887857
 30
0.0
 10
110.5826817046182
 20
195.5266006140118
 30
0.0
 10
110.5826817046182
 20
195.5266006140118
 30
0.0
 10
110.8393033255306
 20
195.453873110062
 30
0.0
 10
110.9329648032071
 20
195.6754844620464
 30
0.0
 10
110.9329648032071
 20
195.8956520918691
 30
0.0
 10
110.9329648032071
 20
196.1510104494082
 30
0.0
 10
110.8010446872504
 20
196.377674828962
 30
0.0
 10
110.5826817046182
 20
196.440115812502
 30
0.0
 10
110.5826817046182
 20
196.440115812502
 30
0.0
 10
110.051933331124
 20
196.5920746844904
 30
0.0
 10
110.051933331124
 20
196.5920746844904
 30
0.0
 10
110.051933331124
 20
196.5920746844904
 30
0.0
 10
110.051933331124
 20
195.0115527324451
 30
0.0
 10
110.051933331124
 20
195.0115527324451
 30
0.0
 10
110.051933331124
 20
195.0115527324451
 30
0.0
 10
110.2111037035902
 20
194.9660825575993
 30
0.0
 10
110.2111037035902
 20
194.9660825575993
 30
0.0
 10
110.2111037035902
 20
194.9660825575993
 30
0.0
 10
110.2111037035902
 20
195.6332555887857
 30
0.0
 10
110.2111037035902
 20
195.6332555887857
 30
0.0
  0
HATCH
  5
16C
330
BE
100
AcDbEntity
  8
5
 62
   250
420
  2301728
100
AcDbHatch
 10
0.0
 20
0.0
 30
0.0
210
0.0
220
0.0
230
1.0
  2
SOLID
 70
     1
 71
     0
 91
        2
 92
        1
 93
        1
 72
     4
 94
        3
 73
     0
 74
     1
 95
       20
 96
       16
 40
0.0
 40
0.0
 40
0.0
 40
0.0
 40
1.0
 40
1.0
 40
1.0
 40
2.0
 40
2.0
 40
2.0
 40
3.0
 40
3.0
 40
3.0
 40
4.0
 40
4.0
 40
4.0
 40
5.0
 40
5.0
 40
5.0
 40
5.0
 10
110.2111037035902
 20
196.3641399336848
 10
110.2111037035902
 20
196.3641399336848
 10
110.5352193373183
 20
196.2712003194574
 10
110.5352193373183
 20
196.2712003194574
 10
110.6665980574471
 20
196.2334830779546
 10
110.7685609377695
 20
196.1405434637272
 10
110.7685609377695
 20
195.9405950420842
 10
110.7685609377695
 20
195.7267365988246
 10
110.6716510851438
 20
195.6839663297524
 10
110.5281811915956
 20
195.7247514808514
 10
110.5281811915956
 20
195.7247514808514
 10
110.2111037035902
 20
195.8157059771056
 10
110.2111037035902
 20
195.8157059771056
 10
110.2111037035902
 20
195.8157059771056
 10
110.2111037035902
 20
196.3641399336848
 10
110.2111037035902
 20
196.3641399336848
 97
        0
 97
        0
 92
        1
 93
        1
 72
     4
 94
        3
 73
     0
 74
     1
 95
       26
 96
       22
 40
0.0
 40
0.0
 40
0.0
 40
0.0
 40
1.0
 40
1.0
 40
1.0
 40
2.0
 40
2.0
 40
2.0
 40
3.0
 40
3.0
 40
3.0
 40
4.0
 40
4.0
 40
4.0
 40
5.0
 40
5.0
 40
5.0
 40
6.0
 40
6.0
 40
6.0
 40
7.0
 40
7.0
 40
7.0
 40
7.0
 10
110.2111037035902
 20
195.6332555887857
 10
110.2111037035902
 20
195.6332555887857
 10
110.5826817046182
 20
195.5266006140118
 10
110.5826817046182
 20
195.5266006140118
 10
110.8393033255306
 20
195.453873110062
 10
110.9329648032071
 20
195.6754844620464
 10
110.9329648032071
 20
195.8956520918691
 10
110.9329648032071
 20
196.1510104494082
 10
110.8010446872504
 20
196.377674828962
 10
110.5826817046182
 20
196.440115812502
 10
110.5826817046182
 20
196.440115812502
 10
110.051933331124
 20
196.5920746844904
 10
110.051933331124
 20
196.5920746844904
 10
110.051933331124
 20
196.5920746844904
 10
110.051933331124
 20
195.0115527324451
 10
110.051933331124
 20
195.0115527324451
 10
110.051933331124
 20
195.0115527324451
 10
110.2111037035902
 20
194.9660825575993
 10
110.2111037035902
 20
194.9660825575993
 10
110.2111037035902
 20
194.9660825575993
 10
110.2111037035902
 20
195.6332555887857
 10
110.2111037035902
 20
195.6332555887857
 97
        0
 97
        0
 75
     2
 76
     1
 98
        0
  0
SPLINE
  5
16D
330
BE
100
AcDbEntity
  8
5
370
     0
100
AcDbSpline
210
0.0
220
0.0
230
1.0
 70
    11
 71
     3
 72
    56
 73
    52
 74
     0
 42
0.0000000001
 43
0.0000000001
 12
1.0
 22
0.0
 32
0.0
 13
1.0
 23
0.0
 33
0.0
 40
0.0
 40
0.0
 40
0.0
 40
0.0
 40
1.0
 40
1.0
 40
1.0
 40
2.0
 40
2.0
 40
2.0
 40
3.0
 40
3.0
 40
3.0
 40
4.0
 40
4.0
 40
4.0
 40
5.0
 40
5.0
 40
5.0
 40
6.0
 40
6.0
 40
6.0
 40
7.0
 40
7.0
 40
7.0
 40
8.0
 40
8.0
 40
8.0
 40
9.0
 40
9.0
 40
9.0
 40
10.0
 40
10.0
 40
10.0
 40
11.0
 40
11.0
 40
11.0
 40
12.0
 40
12.0
 40
12.0
 40
13.0
 40
13.0
 40
13.0
 40
14.0
 40
14.0
 40
14.0
 40
15.0
 40
15.0
 40
15.0
 40
16.0
 40
16.0
 40
16.0
 40
17.0
 40
17.0
 40
17.0
 40
17.0
 10
111.9838140989741
 20
195.5778598395264
 30
0.0
 10
111.9753322310571
 20
195.8240073795414
 30
0.0
 10
111.8239218654089
 20
195.9442043475829
 30
0.0
 10
111.6907384925325
 20
195.9826363521752
 30
0.0
 10
111.5907607302361
 20
196.0111498648894
 30
0.0
 10
111.4211233718233
 20
196.0221582463801
 30
0.0
 10
111.4211233718233
 20
195.7825003673624
 30
0.0
 10
111.4211233718233
 20
195.6485951367649
 30
0.0
 10
111.4920462248592
 20
195.5843495005229
 30
0.0
 10
111.5608034946017
 20
195.5421206272622
 30
0.0
 10
111.5608034946017
 20
195.5421206272622
 30
0.0
 10
111.8986344892219
 20
195.3427065035303
 30
0.0
 10
111.8986344892219
 20
195.3427065035303
 30
0.0
 10
112.0513081117897
 20
195.2504887503837
 30
0.0
 10
112.1657230960809
 20
195.0945667568049
 30
0.0
 10
112.1657230960809
 20
194.8437200310236
 30
0.0
 10
112.1657230960809
 20
194.4694350603277
 30
0.0
 10
111.9071163571425
 20
194.4396582907211
 30
0.0
 10
111.7044538534246
 20
194.498129038313
 30
0.0
 10
111.4855494749645
 20
194.5603895565819
 30
0.0
 10
111.3998284693844
 20
194.6728194200077
 30
0.0
 10
111.347132609113
 20
194.7515022778771
 30
0.0
 10
111.2476962426408
 20
194.9009275217231
 30
0.0
 10
111.228205992953
 20
195.0386225229977
 30
0.0
 10
111.228205992953
 20
195.1860626488706
 30
0.0
 10
111.228205992953
 20
195.1860626488706
 30
0.0
 10
111.3763679836484
 20
195.1438337756099
 30
0.0
 10
111.3763679836484
 20
195.1438337756099
 30
0.0
 10
111.3763679836484
 20
194.8574353915701
 30
0.0
 10
111.5510583697542
 20
194.7242590892274
 30
0.0
 10
111.7024687353987
 20
194.6805794266329
 30
0.0
 10
111.8181469766132
 20
194.647554282159
 30
0.0
 10
112.0123276124104
 20
194.6318538036394
 30
0.0
 10
112.0123276124104
 20
194.8586986484625
 30
0.0
 10
112.0123276124104
 20
195.0236439055589
 30
0.0
 10
111.9545787244424
 20
195.0931230346414
 30
0.0
 10
111.7596762275462
 20
195.2100645298251
 30
0.0
 10
111.7596762275462
 20
195.2100645298251
 30
0.0
 10
111.5180332244454
 20
195.3544367461018
 30
0.0
 10
111.5180332244454
 20
195.3544367461018
 30
0.0
 10
111.4406136215148
 20
195.4004553900404
 30
0.0
 10
111.2671864923286
 20
195.5226303780637
 30
0.0
 10
111.2671864923286
 20
195.7980274749098
 30
0.0
 10
111.2671864923286
 20
196.0443554746325
 30
0.0
 10
111.3868349695913
 20
196.2522514660723
 30
0.0
 10
111.6726919650391
 20
196.1703202333338
 30
0.0
 10
112.0852355834722
 20
196.0528373423404
 30
0.0
 10
112.1254793397748
 20
195.7110361203049
 30
0.0
 10
112.1319760896731
 20
195.5349020164485
 30
0.0
 10
112.1319760896731
 20
195.5349020164485
 30
0.0
 10
111.9838140989741
 20
195.5778598395264
 30
0.0
 10
111.9838140989741
 20
195.5778598395264
 30
0.0
  0
HATCH
  5
16E
330
BE
100
AcDbEntity
  8
5
 62
   250
420
  2301728
100
AcDbHatch
 10
0.0
 20
0.0
 30
0.0
210
0.0
220
0.0
230
1.0
  2
SOLID
 70
     1
 71
     0
 91
        1
 92
        1
 93
        1
 72
     4
 94
        3
 73
     0
 74
     1
 95
       56
 96
       52
 40
0.0
 40
0.0
 40
0.0
 40
0.0
 40
1.0
 40
1.0
 40
1.0
 40
2.0
 40
2.0
 40
2.0
 40
3.0
 40
3.0
 40
3.0
 40
4.0
 40
4.0
 40
4.0
 40
5.0
 40
5.0
 40
5.0
 40
6.0
 40
6.0
 40
6.0
 40
7.0
 40
7.0
 40
7.0
 40
8.0
 40
8.0
 40
8.0
 40
9.0
 40
9.0
 40
9.0
 40
10.0
 40
10.0
 40
10.0
 40
11.0
 40
11.0
 40
11.0
 40
12.0
 40
12.0
 40
12.0
 40
13.0
 40
13.0
 40
13.0
 40
14.0
 40
14.0
 40
14.0
 40
15.0
 40
15.0
 40
15.0
 40
16.0
 40
16.0
 40
16.0
 40
17.0
 40
17.0
 40
17.0
 40
17.0
 10
111.9838140989741
 20
195.5778598395264
 10
111.9753322310571
 20
195.8240073795414
 10
111.8239218654089
 20
195.9442043475829
 10
111.6907384925325
 20
195.9826363521752
 10
111.5907607302361
 20
196.0111498648894
 10
111.4211233718233
 20
196.0221582463801
 10
111.4211233718233
 20
195.7825003673624
 10
111.4211233718233
 20
195.6485951367649
 10
111.4920462248592
 20
195.5843495005229
 10
111.5608034946017
 20
195.5421206272622
 10
111.5608034946017
 20
195.5421206272622
 10
111.8986344892219
 20
195.3427065035303
 10
111.8986344892219
 20
195.3427065035303
 10
112.0513081117897
 20
195.2504887503837
 10
112.1657230960809
 20
195.0945667568049
 10
112.1657230960809
 20
194.8437200310236
 10
112.1657230960809
 20
194.4694350603277
 10
111.9071163571425
 20
194.4396582907211
 10
111.7044538534246
 20
194.498129038313
 10
111.4855494749645
 20
194.5603895565819
 10
111.3998284693844
 20
194.6728194200077
 10
111.347132609113
 20
194.7515022778771
 10
111.2476962426408
 20
194.9009275217231
 10
111.228205992953
 20
195.0386225229977
 10
111.228205992953
 20
195.1860626488706
 10
111.228205992953
 20
195.1860626488706
 10
111.3763679836484
 20
195.1438337756099
 10
111.3763679836484
 20
195.1438337756099
 10
111.3763679836484
 20
194.8574353915701
 10
111.5510583697542
 20
194.7242590892274
 10
111.7024687353987
 20
194.6805794266329
 10
111.8181469766132
 20
194.647554282159
 10
112.0123276124104
 20
194.6318538036394
 10
112.0123276124104
 20
194.8586986484625
 10
112.0123276124104
 20
195.0236439055589
 10
111.9545787244424
 20
195.0931230346414
 10
111.7596762275462
 20
195.2100645298251
 10
111.7596762275462
 20
195.2100645298251
 10
111.5180332244454
 20
195.3544367461018
 10
111.5180332244454
 20
195.3544367461018
 10
111.4406136215148
 20
195.4004553900404
 10
111.2671864923286
 20
195.5226303780637
 10
111.2671864923286
 20
195.7980274749098
 10
111.2671864923286
 20
196.0443554746325
 10
111.3868349695913
 20
196.2522514660723
 10
111.6726919650391
 20
196.1703202333338
 10
112.0852355834722
 20
196.0528373423404
 10
112.1254793397748
 20
195.7110361203049
 10
112.1319760896731
 20
195.5349020164485
 10
112.1319760896731
 20
195.5349020164485
 10
111.9838140989741
 20
195.5778598395264
 10
111.9838140989741
 20
195.5778598395264
 97
        0
 97
        0
 75
     2
 76
     1
 98
        0
  0
SPLINE
  5
16F
330
BE
100
AcDbEntity
  8
5
370
     0
100
AcDbSpline
210
0.0
220
0.0
230
1.0
 70
    11
 71
     3
 72
    17
 73
    13
 74
     0
 42
0.0000000001
 43
0.0000000001
 12
1.0
 22
0.0
 32
0.0
 13
1.0
 23
0.0
 33
0.0
 40
0.0
 40
0.0
 40
0.0
 40
0.0
 40
1.0
 40
1.0
 40
1.0
 40
2.0
 40
2.0
 40
2.0
 40
3.0
 40
3.0
 40
3.0
 40
4.0
 40
4.0
 40
4.0
 40
4.0
 10
113.4334916522821
 20
194.8361475596685
 30
0.0
 10
113.4334916522821
 20
194.4638406369468
 30
0.0
 10
113.2793743075163
 20
194.237176257393
 30
0.0
 10
113.0234745476992
 20
194.3104451571526
 30
0.0
 10
112.7668529267867
 20
194.3833531263735
 30
0.0
 10
112.6129160472919
 20
194.6984454883968
 30
0.0
 10
112.6129160472919
 20
195.070023480037
 30
0.0
 10
112.6129160472919
 20
195.4423233327598
 30
0.0
 10
112.7668529267867
 20
195.6689877123154
 30
0.0
 10
113.0234745476992
 20
195.5955383472847
 30
0.0
 10
113.2793743075163
 20
195.5228108433348
 30
0.0
 10
113.4334916522821
 20
195.2077184813124
 30
0.0
 10
113.4334916522821
 20
194.8361475596685
 30
0.0
  0
SPLINE
  5
170
330
BE
100
AcDbEntity
  8
5
370
     0
100
AcDbSpline
210
0.0
220
0.0
230
1.0
 70
    11
 71
     3
 72
    17
 73
    13
 74
     0
 42
0.0000000001
 43
0.0000000001
 12
1.0
 22
0.0
 32
0.0
 13
1.0
 23
0.0
 33
0.0
 40
0.0
 40
0.0
 40
0.0
 40
0.0
 40
1.0
 40
1.0
 40
1.0
 40
2.0
 40
2.0
 40
2.0
 40
3.0
 40
3.0
 40
3.0
 40
4.0
 40
4.0
 40
4.0
 40
4.0
 10
113.5971736566207
 20
194.7886781235684
 30
0.0
 10
113.5971736566207
 20
195.1297574845212
 30
0.0
 10
113.4627270268174
 20
195.6592425877152
 30
0.0
 10
113.0234745476992
 20
195.7846659506067
 30
0.0
 10
112.5829588116576
 20
195.910630709308
 30
0.0
 10
112.4492340429533
 20
195.4585652070909
 30
0.0
 10
112.4492340429533
 20
195.1167639850573
 30
0.0
 10
112.4492340429533
 20
194.7756846241045
 30
0.0
 10
112.5829588116576
 20
194.2469213819913
 30
0.0
 10
113.0234745476992
 20
194.1207761580208
 30
0.0
 10
113.4627270268174
 20
193.9953527951293
 30
0.0
 10
113.5971736566207
 20
194.4475987626156
 30
0.0
 10
113.5971736566207
 20
194.7886781235684
 30
0.0
  0
HATCH
  5
171
330
BE
100
AcDbEntity
  8
5
 62
   250
420
  2301728
100
AcDbHatch
 10
0.0
 20
0.0
 30
0.0
210
0.0
220
0.0
230
1.0
  2
SOLID
 70
     1
 71
     0
 91
        2
 92
        1
 93
        2
 72
     4
 94
        3
 73
     0
 74
     0
 95
       17
 96
       13
 40
0.0
 40
0.0
 40
0.0
 40
0.0
 40
1.0
 40
1.0
 40
1.0
 40
2.0
 40
2.0
 40
2.0
 40
3.0
 40
3.0
 40
3.0
 40
4.0
 40
4.0
 40
4.0
 40
4.0
 10
113.4334916522821
 20
194.8361475596685
 10
113.4334916522821
 20
194.4638406369468
 10
113.2793743075163
 20
194.237176257393
 10
113.0234745476992
 20
194.3104451571526
 10
112.7668529267867
 20
194.3833531263735
 10
112.6129160472919
 20
194.6984454883968
 10
112.6129160472919
 20
195.070023480037
 10
112.6129160472919
 20
195.4423233327598
 10
112.7668529267867
 20
195.6689877123154
 10
113.0234745476992
 20
195.5955383472847
 10
113.2793743075163
 20
195.5228108433348
 10
113.4334916522821
 20
195.2077184813124
 10
113.4334916522821
 20
194.8361475596685
 97
        0
 72
     1
 10
113.4334916522821
 20
194.8361475596685
 11
113.4334916522821
 21
194.8361475596685
 97
        0
 92
        1
 93
        2
 72
     4
 94
        3
 73
     0
 74
     0
 95
       17
 96
       13
 40
0.0
 40
0.0
 40
0.0
 40
0.0
 40
1.0
 40
1.0
 40
1.0
 40
2.0
 40
2.0
 40
2.0
 40
3.0
 40
3.0
 40
3.0
 40
4.0
 40
4.0
 40
4.0
 40
4.0
 10
113.5971736566207
 20
194.7886781235684
 10
113.5971736566207
 20
195.1297574845212
 10
113.4627270268174
 20
195.6592425877152
 10
113.0234745476992
 20
195.7846659506067
 10
112.5829588116576
 20
195.910630709308
 10
112.4492340429533
 20
195.4585652070909
 10
112.4492340429533
 20
195.1167639850573
 10
112.4492340429533
 20
194.7756846241045
 10
112.5829588116576
 20
194.2469213819913
 10
113.0234745476992
 20
194.1207761580208
 10
113.4627270268174
 20
193.9953527951293
 10
113.5971736566207
 20
194.4475987626156
 10
113.5971736566207
 20
194.7886781235684
 97
        0
 72
     1
 10
113.5971736566207
 20
194.7886781235684
 11
113.5971736566207
 21
194.7886781235684
 97
        0
 75
     2
 76
     1
 98
        0
  0
POLYLINE
  5
172
330
BE
100
AcDbEntity
  8
5
370
     0
100
AcDb2dPolyline
 66
     1
 10
0.0
 20
0.0
 30
0.0
  0
VERTEX
  5
173
330
172
100
AcDbEntity
  8
5
370
     0
100
AcDbVertex
100
AcDb2dVertex
 10
114.7086592847591
 20
195.2613166666033
 30
0.0
  0
VERTEX
  5
174
330
172
100
AcDbEntity
  8
5
370
     0
100
AcDbVertex
100
AcDb2dVertex
 10
114.8620547684259
 20
195.2171026753695
 30
0.0
  0
VERTEX
  5
175
330
172
100
AcDbEntity
  8
5
370
     0
100
AcDbVertex
100
AcDb2dVertex
 10
114.8620547684259
 20
193.6371292334934
 30
0.0
  0
VERTEX
  5
176
330
172
100
AcDbEntity
  8
5
370
     0
100
AcDbVertex
100
AcDb2dVertex
 10
114.6839355420962
 20
193.6883884112758
 30
0.0
  0
VERTEX
  5
177
330
172
100
AcDbEntity
  8
5
370
     0
100
AcDbVertex
100
AcDb2dVertex
 10
114.0837080377642
 20
195.1358933037136
 30
0.0
  0
VERTEX
  5
178
330
172
100
AcDbEntity
  8
5
370
     0
100
AcDbVertex
100
AcDb2dVertex
 10
114.0804596628186
 20
195.1371565606059
 30
0.0
  0
VERTEX
  5
179
330
172
100
AcDbEntity
  8
5
370
     0
100
AcDbVertex
100
AcDb2dVertex
 10
114.0804596628186
 20
193.8605452381817
 30
0.0
  0
VERTEX
  5
17A
330
172
100
AcDbEntity
  8
5
370
     0
100
AcDbVertex
100
AcDb2dVertex
 10
113.9270641791481
 20
193.9047592294173
 30
0.0
  0
VERTEX
  5
17B
330
172
100
AcDbEntity
  8
5
370
     0
100
AcDbVertex
100
AcDb2dVertex
 10
113.9270641791481
 20
195.4847326712916
 30
0.0
  0
VERTEX
  5
17C
330
172
100
AcDbEntity
  8
5
370
     0
100
AcDbVertex
100
AcDb2dVertex
 10
114.115469926146
 20
195.4309540207287
 30
0.0
  0
VERTEX
  5
17D
330
172
100
AcDbEntity
  8
5
370
     0
100
AcDbVertex
100
AcDb2dVertex
 10
114.7054109098099
 20
193.9859686010714
 30
0.0
  0
VERTEX
  5
17E
330
172
100
AcDbEntity
  8
5
370
     0
100
AcDbVertex
100
AcDb2dVertex
 10
114.7086592847591
 20
193.984705344179
 30
0.0
  0
VERTEX
  5
17F
330
172
100
AcDbEntity
  8
5
370
     0
100
AcDbVertex
100
AcDb2dVertex
 10
114.7086592847591
 20
195.2613166666033
 30
0.0
  0
SEQEND
  5
181
330
172
100
AcDbEntity
  8
5
370
     0
  0
HATCH
  5
180
330
BE
100
AcDbEntity
  8
5
 62
   250
420
  2301728
100
AcDbHatch
 10
0.0
 20
0.0
 30
0.0
210
0.0
220
0.0
230
1.0
  2
SOLID
 70
     1
 71
     0
 91
        1
 92
        1
 93
       12
 72
     1
 10
114.7086592847591
 20
195.2613166666033
 11
114.8620547684259
 21
195.2171026753695
 72
     1
 10
114.8620547684259
 20
195.2171026753695
 11
114.8620547684259
 21
193.6371292334934
 72
     1
 10
114.8620547684259
 20
193.6371292334934
 11
114.6839355420962
 21
193.6883884112758
 72
     1
 10
114.6839355420962
 20
193.6883884112758
 11
114.0837080377642
 21
195.1358933037136
 72
     1
 10
114.0837080377642
 20
195.1358933037136
 11
114.0804596628186
 21
195.1371565606059
 72
     1
 10
114.0804596628186
 20
195.1371565606059
 11
114.0804596628186
 21
193.8605452381817
 72
     1
 10
114.0804596628186
 20
193.8605452381817
 11
113.9270641791481
 21
193.9047592294173
 72
     1
 10
113.9270641791481
 20
193.9047592294173
 11
113.9270641791481
 21
195.4847326712916
 72
     1
 10
113.9270641791481
 20
195.4847326712916
 11
114.115469926146
 21
195.4309540207287
 72
     1
 10
114.115469926146
 20
195.4309540207287
 11
114.7054109098099
 21
193.9859686010714
 72
     1
 10
114.7054109098099
 20
193.9859686010714
 11
114.7086592847591
 21
193.984705344179
 72
     1
 10
114.7086592847591
 20
193.984705344179
 11
114.7086592847591
 21
195.2613166666033
 97
        0
 75
     2
 76
     1
 98
        0
  0
SPLINE
  5
182
330
BE
100
AcDbEntity
  8
5
370
     0
100
AcDbSpline
210
0.0
220
0.0
230
1.0
 70
    11
 71
     3
 72
    56
 73
    52
 74
     0
 42
0.0000000001
 43
0.0000000001
 12
1.0
 22
0.0
 32
0.0
 13
1.0
 23
0.0
 33
0.0
 40
0.0
 40
0.0
 40
0.0
 40
0.0
 40
1.0
 40
1.0
 40
1.0
 40
2.0
 40
2.0
 40
2.0
 40
3.0
 40
3.0
 40
3.0
 40
4.0
 40
4.0
 40
4.0
 40
5.0
 40
5.0
 40
5.0
 40
6.0
 40
6.0
 40
6.0
 40
7.0
 40
7.0
 40
7.0
 40
8.0
 40
8.0
 40
8.0
 40
9.0
 40
9.0
 40
9.0
 40
10.0
 40
10.0
 40
10.0
 40
11.0
 40
11.0
 40
11.0
 40
12.0
 40
12.0
 40
12.0
 40
13.0
 40
13.0
 40
13.0
 40
14.0
 40
14.0
 40
14.0
 40
15.0
 40
15.0
 40
15.0
 40
16.0
 40
16.0
 40
16.0
 40
17.0
 40
17.0
 40
17.0
 40
17.0
 10
107.4063124010245
 20
194.7765940189493
 30
0.0
 10
107.3978305331038
 20
195.0234634402877
 30
0.0
 10
107.2464201674593
 20
195.1436533103388
 30
0.0
 10
107.1132367945793
 20
195.1813705518416
 30
0.0
 10
107.0132590322828
 20
195.2098840645558
 30
0.0
 10
106.843621673871
 20
195.2216143071273
 30
0.0
 10
106.843621673871
 20
194.9812345670271
 30
0.0
 10
106.843621673871
 20
194.8473293364314
 30
0.0
 10
106.9145445269114
 20
194.7830837001884
 30
0.0
 10
106.9833017966484
 20
194.7408548269268
 30
0.0
 10
106.9833017966484
 20
194.7408548269268
 30
0.0
 10
107.3211327912686
 20
194.5414407031949
 30
0.0
 10
107.3211327912686
 20
194.5414407031949
 30
0.0
 10
107.4738064138364
 20
194.4490424847791
 30
0.0
 10
107.5887627939519
 20
194.2931204912002
 30
0.0
 10
107.5887627939519
 20
194.0424542306901
 30
0.0
 10
107.5887627939519
 20
193.6681692599941
 30
0.0
 10
107.3296146591892
 20
193.6389338861973
 30
0.0
 10
107.1269521554714
 20
193.6968632379776
 30
0.0
 10
106.908047777014
 20
193.7591237562483
 30
0.0
 10
106.8221463061573
 20
193.8715536196723
 30
0.0
 10
106.7696309111607
 20
193.9502364775444
 30
0.0
 10
106.6701945446875
 20
194.1002031172011
 30
0.0
 10
106.6507042949988
 20
194.2378981184738
 30
0.0
 10
106.6507042949988
 20
194.3847968485352
 30
0.0
 10
106.6507042949988
 20
194.3847968485352
 30
0.0
 10
106.7994076815176
 20
194.3425679752754
 30
0.0
 10
106.7994076815176
 20
194.3425679752754
 30
0.0
 10
106.7994076815176
 20
194.0567109870481
 30
0.0
 10
106.9735566718036
 20
193.9228057564505
 30
0.0
 10
107.1256888985481
 20
193.8800354873783
 30
0.0
 10
107.2406452786636
 20
193.8468298776352
 30
0.0
 10
107.4348259144572
 20
193.830588003304
 30
0.0
 10
107.4348259144572
 20
194.0574328481289
 30
0.0
 10
107.4348259144572
 20
194.2223781052253
 30
0.0
 10
107.3770770264891
 20
194.2918572343078
 30
0.0
 10
107.1821745295929
 20
194.4095205905724
 30
0.0
 10
107.1821745295929
 20
194.4095205905724
 30
0.0
 10
106.9405315264967
 20
194.5529904804971
 30
0.0
 10
106.9405315264967
 20
194.5529904804971
 30
0.0
 10
106.8631119235606
 20
194.5991895897059
 30
0.0
 10
106.6896847943781
 20
194.7213645777301
 30
0.0
 10
106.6896847943781
 20
194.9967616543327
 30
0.0
 10
106.6896847943781
 20
195.243089674299
 30
0.0
 10
106.8091528063642
 20
195.4509856657369
 30
0.0
 10
107.0950098018147
 20
195.369776294081
 30
0.0
 10
107.5075534202442
 20
195.2513910767357
 30
0.0
 10
107.5485190376494
 20
194.9097703199714
 30
0.0
 10
107.5550157875441
 20
194.7343580771958
 30
0.0
 10
107.5550157875441
 20
194.7343580771958
 30
0.0
 10
107.4063124010245
 20
194.7765940189493
 30
0.0
 10
107.4063124010245
 20
194.7765940189493
 30
0.0
  0
HATCH
  5
183
330
BE
100
AcDbEntity
  8
5
 62
   250
420
  2301728
100
AcDbHatch
 10
0.0
 20
0.0
 30
0.0
210
0.0
220
0.0
230
1.0
  2
SOLID
 70
     1
 71
     0
 91
        1
 92
        1
 93
        1
 72
     4
 94
        3
 73
     0
 74
     1
 95
       56
 96
       52
 40
0.0
 40
0.0
 40
0.0
 40
0.0
 40
1.0
 40
1.0
 40
1.0
 40
2.0
 40
2.0
 40
2.0
 40
3.0
 40
3.0
 40
3.0
 40
4.0
 40
4.0
 40
4.0
 40
5.0
 40
5.0
 40
5.0
 40
6.0
 40
6.0
 40
6.0
 40
7.0
 40
7.0
 40
7.0
 40
8.0
 40
8.0
 40
8.0
 40
9.0
 40
9.0
 40
9.0
 40
10.0
 40
10.0
 40
10.0
 40
11.0
 40
11.0
 40
11.0
 40
12.0
 40
12.0
 40
12.0
 40
13.0
 40
13.0
 40
13.0
 40
14.0
 40
14.0
 40
14.0
 40
15.0
 40
15.0
 40
15.0
 40
16.0
 40
16.0
 40
16.0
 40
17.0
 40
17.0
 40
17.0
 40
17.0
 10
107.4063124010245
 20
194.7765940189493
 10
107.3978305331038
 20
195.0234634402877
 10
107.2464201674593
 20
195.1436533103388
 10
107.1132367945793
 20
195.1813705518416
 10
107.0132590322828
 20
195.2098840645558
 10
106.843621673871
 20
195.2216143071273
 10
106.843621673871
 20
194.9812345670271
 10
106.843621673871
 20
194.8473293364314
 10
106.9145445269114
 20
194.7830837001884
 10
106.9833017966484
 20
194.7408548269268
 10
106.9833017966484
 20
194.7408548269268
 10
107.3211327912686
 20
194.5414407031949
 10
107.3211327912686
 20
194.5414407031949
 10
107.4738064138364
 20
194.4490424847791
 10
107.5887627939519
 20
194.2931204912002
 10
107.5887627939519
 20
194.0424542306901
 10
107.5887627939519
 20
193.6681692599941
 10
107.3296146591892
 20
193.6389338861973
 10
107.1269521554714
 20
193.6968632379776
 10
106.908047777014
 20
193.7591237562483
 10
106.8221463061573
 20
193.8715536196723
 10
106.7696309111607
 20
193.9502364775444
 10
106.6701945446875
 20
194.1002031172011
 10
106.6507042949988
 20
194.2378981184738
 10
106.6507042949988
 20
194.3847968485352
 10
106.6507042949988
 20
194.3847968485352
 10
106.7994076815176
 20
194.3425679752754
 10
106.7994076815176
 20
194.3425679752754
 10
106.7994076815176
 20
194.0567109870481
 10
106.9735566718036
 20
193.9228057564505
 10
107.1256888985481
 20
193.8800354873783
 10
107.2406452786636
 20
193.8468298776352
 10
107.4348259144572
 20
193.830588003304
 10
107.4348259144572
 20
194.0574328481289
 10
107.4348259144572
 20
194.2223781052253
 10
107.3770770264891
 20
194.2918572343078
 10
107.1821745295929
 20
194.4095205905724
 10
107.1821745295929
 20
194.4095205905724
 10
106.9405315264967
 20
194.5529904804971
 10
106.9405315264967
 20
194.5529904804971
 10
106.8631119235606
 20
194.5991895897059
 10
106.6896847943781
 20
194.7213645777301
 10
106.6896847943781
 20
194.9967616543327
 10
106.6896847943781
 20
195.243089674299
 10
106.8091528063642
 20
195.4509856657369
 10
107.0950098018147
 20
195.369776294081
 10
107.5075534202442
 20
195.2513910767357
 10
107.5485190376494
 20
194.9097703199714
 10
107.5550157875441
 20
194.7343580771958
 10
107.5550157875441
 20
194.7343580771958
 10
107.4063124010245
 20
194.7765940189493
 10
107.4063124010245
 20
194.7765940189493
 97
        0
 97
        0
 75
     2
 76
     1
 98
        0
  0
SPLINE
  5
184
330
BE
100
AcDbEntity
  8
5
370
     0
100
AcDbSpline
210
0.0
220
0.0
230
1.0
 70
    11
 71
     3
 72
    53
 73
    49
 74
     0
 42
0.0000000001
 43
0.0000000001
 12
1.0
 22
0.0
 32
0.0
 13
1.0
 23
0.0
 33
0.0
 40
0.0
 40
0.0
 40
0.0
 40
0.0
 40
1.0
 40
1.0
 40
1.0
 40
2.0
 40
2.0
 40
2.0
 40
3.0
 40
3.0
 40
3.0
 40
4.0
 40
4.0
 40
4.0
 40
5.0
 40
5.0
 40
5.0
 40
6.0
 40
6.0
 40
6.0
 40
7.0
 40
7.0
 40
7.0
 40
8.0
 40
8.0
 40
8.0
 40
9.0
 40
9.0
 40
9.0
 40
10.0
 40
10.0
 40
10.0
 40
11.0
 40
11.0
 40
11.0
 40
12.0
 40
12.0
 40
12.0
 40
13.0
 40
13.0
 40
13.0
 40
14.0
 40
14.0
 40
14.0
 40
15.0
 40
15.0
 40
15.0
 40
16.0
 40
16.0
 40
16.0
 40
16.0
 10
108.0157436343761
 20
194.4748490184375
 30
0.0
 10
108.0157436343761
 20
194.4748490184375
 30
0.0
 10
108.0157436343761
 20
193.7262861190065
 30
0.0
 10
108.0157436343761
 20
193.7262861190065
 30
0.0
 10
108.0157436343761
 20
193.636768302953
 30
0.0
 10
108.0729511265199
 20
193.6198116068117
 30
0.0
 10
108.1029083621543
 20
193.611322699835
 30
0.0
 10
108.1029083621543
 20
193.611322699835
 30
0.0
 10
108.1534386391286
 20
193.597065943477
 30
0.0
 10
108.1534386391286
 20
193.597065943477
 30
0.0
 10
108.1534386391286
 20
193.597065943477
 30
0.0
 10
108.1534386391286
 20
193.4451141858463
 30
0.0
 10
108.1534386391286
 20
193.4451141858463
 30
0.0
 10
108.1014646399562
 20
193.453415588283
 30
0.0
 10
108.0599576267268
 20
193.4561225673369
 30
0.0
 10
108.0457008700105
 20
193.4606341990966
 30
0.0
 10
107.9020505111876
 20
193.5015998154649
 30
0.0
 10
107.870288622802
 20
193.6185413106487
 30
0.0
 10
107.870288622802
 20
193.7569652157399
 30
0.0
 10
107.870288622802
 20
193.7569652157399
 30
0.0
 10
107.870288622802
 20
194.5163560306173
 30
0.0
 10
107.870288622802
 20
194.5163560306173
 30
0.0
 10
107.870288622802
 20
194.5163560306173
 30
0.0
 10
107.7533471246643
 20
194.5495616403596
 30
0.0
 10
107.7533471246643
 20
194.5495616403596
 30
0.0
 10
107.7533471246643
 20
194.5495616403596
 30
0.0
 10
107.7533471246643
 20
194.7105366615087
 30
0.0
 10
107.7533471246643
 20
194.7105366615087
 30
0.0
 10
107.7533471246643
 20
194.7105366615087
 30
0.0
 10
107.870288622802
 20
194.6767896559541
 30
0.0
 10
107.870288622802
 20
194.6767896559541
 30
0.0
 10
107.870288622802
 20
194.6767896559541
 30
0.0
 10
107.870288622802
 20
194.9983787677102
 30
0.0
 10
107.870288622802
 20
194.9983787677102
 30
0.0
 10
107.870288622802
 20
194.9983787677102
 30
0.0
 10
108.0157436343761
 20
194.9568717555303
 30
0.0
 10
108.0157436343761
 20
194.9568717555303
 30
0.0
 10
108.0157436343761
 20
194.9568717555303
 30
0.0
 10
108.0157436343761
 20
194.6358311045242
 30
0.0
 10
108.0157436343761
 20
194.6358311045242
 30
0.0
 10
108.0157436343761
 20
194.6358311045242
 30
0.0
 10
108.1534386391286
 20
194.5955802843
 30
0.0
 10
108.1534386391286
 20
194.5955802843
 30
0.0
 10
108.1534386391286
 20
194.5955802843
 30
0.0
 10
108.1534386391286
 20
194.4351466589615
 30
0.0
 10
108.1534386391286
 20
194.4351466589615
 30
0.0
 10
108.1534386391286
 20
194.4351466589615
 30
0.0
 10
108.0157436343761
 20
194.4748490184375
 30
0.0
 10
108.0157436343761
 20
194.4748490184375
 30
0.0
  0
HATCH
  5
185
330
BE
100
AcDbEntity
  8
5
 62
   250
420
  2301728
100
AcDbHatch
 10
0.0
 20
0.0
 30
0.0
210
0.0
220
0.0
230
1.0
  2
SOLID
 70
     1
 71
     0
 91
        1
 92
        1
 93
        1
 72
     4
 94
        3
 73
     0
 74
     1
 95
       53
 96
       49
 40
0.0
 40
0.0
 40
0.0
 40
0.0
 40
1.0
 40
1.0
 40
1.0
 40
2.0
 40
2.0
 40
2.0
 40
3.0
 40
3.0
 40
3.0
 40
4.0
 40
4.0
 40
4.0
 40
5.0
 40
5.0
 40
5.0
 40
6.0
 40
6.0
 40
6.0
 40
7.0
 40
7.0
 40
7.0
 40
8.0
 40
8.0
 40
8.0
 40
9.0
 40
9.0
 40
9.0
 40
10.0
 40
10.0
 40
10.0
 40
11.0
 40
11.0
 40
11.0
 40
12.0
 40
12.0
 40
12.0
 40
13.0
 40
13.0
 40
13.0
 40
14.0
 40
14.0
 40
14.0
 40
15.0
 40
15.0
 40
15.0
 40
16.0
 40
16.0
 40
16.0
 40
16.0
 10
108.0157436343761
 20
194.4748490184375
 10
108.0157436343761
 20
194.4748490184375
 10
108.0157436343761
 20
193.7262861190065
 10
108.0157436343761
 20
193.7262861190065
 10
108.0157436343761
 20
193.636768302953
 10
108.0729511265199
 20
193.6198116068117
 10
108.1029083621543
 20
193.611322699835
 10
108.1029083621543
 20
193.611322699835
 10
108.1534386391286
 20
193.597065943477
 10
108.1534386391286
 20
193.597065943477
 10
108.1534386391286
 20
193.597065943477
 10
108.1534386391286
 20
193.4451141858463
 10
108.1534386391286
 20
193.4451141858463
 10
108.1014646399562
 20
193.453415588283
 10
108.0599576267268
 20
193.4561225673369
 10
108.0457008700105
 20
193.4606341990966
 10
107.9020505111876
 20
193.5015998154649
 10
107.870288622802
 20
193.6185413106487
 10
107.870288622802
 20
193.7569652157399
 10
107.870288622802
 20
193.7569652157399
 10
107.870288622802
 20
194.5163560306173
 10
107.870288622802
 20
194.5163560306173
 10
107.870288622802
 20
194.5163560306173
 10
107.7533471246643
 20
194.5495616403596
 10
107.7533471246643
 20
194.5495616403596
 10
107.7533471246643
 20
194.5495616403596
 10
107.7533471246643
 20
194.7105366615087
 10
107.7533471246643
 20
194.7105366615087
 10
107.7533471246643
 20
194.7105366615087
 10
107.870288622802
 20
194.6767896559541
 10
107.870288622802
 20
194.6767896559541
 10
107.870288622802
 20
194.6767896559541
 10
107.870288622802
 20
194.9983787677102
 10
107.870288622802
 20
194.9983787677102
 10
107.870288622802
 20
194.9983787677102
 10
108.0157436343761
 20
194.9568717555303
 10
108.0157436343761
 20
194.9568717555303
 10
108.0157436343761
 20
194.9568717555303
 10
108.0157436343761
 20
194.6358311045242
 10
108.0157436343761
 20
194.6358311045242
 10
108.0157436343761
 20
194.6358311045242
 10
108.1534386391286
 20
194.5955802843
 10
108.1534386391286
 20
194.5955802843
 10
108.1534386391286
 20
194.5955802843
 10
108.1534386391286
 20
194.4351466589615
 10
108.1534386391286
 20
194.4351466589615
 10
108.1534386391286
 20
194.4351466589615
 10
108.0157436343761
 20
194.4748490184375
 10
108.0157436343761
 20
194.4748490184375
 97
        0
 97
        0
 75
     2
 76
     1
 98
        0
  0
SPLINE
  5
186
330
BE
100
AcDbEntity
  8
5
370
     0
100
AcDbSpline
210
0.0
220
0.0
230
1.0
 70
    11
 71
     3
 72
    38
 73
    34
 74
     0
 42
0.0000000001
 43
0.0000000001
 12
1.0
 22
0.0
 32
0.0
 13
1.0
 23
0.0
 33
0.0
 40
0.0
 40
0.0
 40
0.0
 40
0.0
 40
1.0
 40
1.0
 40
1.0
 40
2.0
 40
2.0
 40
2.0
 40
3.0
 40
3.0
 40
3.0
 40
4.0
 40
4.0
 40
4.0
 40
5.0
 40
5.0
 40
5.0
 40
6.0
 40
6.0
 40
6.0
 40
7.0
 40
7.0
 40
7.0
 40
8.0
 40
8.0
 40
8.0
 40
9.0
 40
9.0
 40
9.0
 40
10.0
 40
10.0
 40
10.0
 40
11.0
 40
11.0
 40
11.0
 40
11.0
 10
108.525377570706
 20
193.3388201416128
 30
0.0
 10
108.525377570706
 20
193.3388201416128
 30
0.0
 10
108.3799225591356
 20
193.380507619062
 30
0.0
 10
108.3799225591356
 20
193.380507619062
 30
0.0
 10
108.3799225591356
 20
193.380507619062
 30
0.0
 10
108.3799225591356
 20
194.5316955785966
 30
0.0
 10
108.3799225591356
 20
194.5316955785966
 30
0.0
 10
108.3799225591356
 20
194.5316955785966
 30
0.0
 10
108.5168957027854
 20
194.4919932191206
 30
0.0
 10
108.5168957027854
 20
194.4919932191206
 30
0.0
 10
108.5168957027854
 20
194.4919932191206
 30
0.0
 10
108.5168957027854
 20
194.3003391020138
 30
0.0
 10
108.5168957027854
 20
194.3003391020138
 30
0.0
 10
108.5168957027854
 20
194.3003391020138
 30
0.0
 10
108.5201440777346
 20
194.2997977062023
 30
0.0
 10
108.5201440777346
 20
194.2997977062023
 30
0.0
 10
108.5780734309774
 20
194.4172805971975
 30
0.0
 10
108.6533274506146
 20
194.4862183304704
 30
0.0
 10
108.7619675461065
 20
194.4557196997812
 30
0.0
 10
108.7800140735962
 20
194.4504862069407
 30
0.0
 10
108.7884959415169
 20
194.445252714102
 30
0.0
 10
108.7995043232877
 20
194.4374927074768
 30
0.0
 10
108.7995043232877
 20
194.4374927074768
 30
0.0
 10
108.7995043232877
 20
194.2373567226641
 30
0.0
 10
108.7995043232877
 20
194.2373567226641
 30
0.0
 10
108.7995043232877
 20
194.2373567226641
 30
0.0
 10
108.7457256713642
 20
194.2530572011838
 30
0.0
 10
108.7457256713642
 20
194.2530572011838
 30
0.0
 10
108.6110985762862
 20
194.2920376995789
 30
0.0
 10
108.525377570706
 20
194.1750962043934
 30
0.0
 10
108.525377570706
 20
194.0079853640545
 30
0.0
 10
108.525377570706
 20
194.0079853640545
 30
0.0
 10
108.525377570706
 20
193.3388201416128
 30
0.0
 10
108.525377570706
 20
193.3388201416128
 30
0.0
  0
HATCH
  5
187
330
BE
100
AcDbEntity
  8
5
 62
   250
420
  2301728
100
AcDbHatch
 10
0.0
 20
0.0
 30
0.0
210
0.0
220
0.0
230
1.0
  2
SOLID
 70
     1
 71
     0
 91
        1
 92
        1
 93
        1
 72
     4
 94
        3
 73
     0
 74
     1
 95
       38
 96
       34
 40
0.0
 40
0.0
 40
0.0
 40
0.0
 40
1.0
 40
1.0
 40
1.0
 40
2.0
 40
2.0
 40
2.0
 40
3.0
 40
3.0
 40
3.0
 40
4.0
 40
4.0
 40
4.0
 40
5.0
 40
5.0
 40
5.0
 40
6.0
 40
6.0
 40
6.0
 40
7.0
 40
7.0
 40
7.0
 40
8.0
 40
8.0
 40
8.0
 40
9.0
 40
9.0
 40
9.0
 40
10.0
 40
10.0
 40
10.0
 40
11.0
 40
11.0
 40
11.0
 40
11.0
 10
108.525377570706
 20
193.3388201416128
 10
108.525377570706
 20
193.3388201416128
 10
108.3799225591356
 20
193.380507619062
 10
108.3799225591356
 20
193.380507619062
 10
108.3799225591356
 20
193.380507619062
 10
108.3799225591356
 20
194.5316955785966
 10
108.3799225591356
 20
194.5316955785966
 10
108.3799225591356
 20
194.5316955785966
 10
108.5168957027854
 20
194.4919932191206
 10
108.5168957027854
 20
194.4919932191206
 10
108.5168957027854
 20
194.4919932191206
 10
108.5168957027854
 20
194.3003391020138
 10
108.5168957027854
 20
194.3003391020138
 10
108.5168957027854
 20
194.3003391020138
 10
108.5201440777346
 20
194.2997977062023
 10
108.5201440777346
 20
194.2997977062023
 10
108.5780734309774
 20
194.4172805971975
 10
108.6533274506146
 20
194.4862183304704
 10
108.7619675461065
 20
194.4557196997812
 10
108.7800140735962
 20
194.4504862069407
 10
108.7884959415169
 20
194.445252714102
 10
108.7995043232877
 20
194.4374927074768
 10
108.7995043232877
 20
194.4374927074768
 10
108.7995043232877
 20
194.2373567226641
 10
108.7995043232877
 20
194.2373567226641
 10
108.7995043232877
 20
194.2373567226641
 10
108.7457256713642
 20
194.2530572011838
 10
108.7457256713642
 20
194.2530572011838
 10
108.6110985762862
 20
194.2920376995789
 10
108.525377570706
 20
194.1750962043934
 10
108.525377570706
 20
194.0079853640545
 10
108.525377570706
 20
194.0079853640545
 10
108.525377570706
 20
193.3388201416128
 10
108.525377570706
 20
193.3388201416128
 97
        0
 97
        0
 75
     2
 76
     1
 98
        0
  0
SPLINE
  5
188
330
BE
100
AcDbEntity
  8
5
370
     0
100
AcDbSpline
210
0.0
220
0.0
230
1.0
 70
    11
 71
     3
 72
    17
 73
    13
 74
     0
 42
0.0000000001
 43
0.0000000001
 12
1.0
 22
0.0
 32
0.0
 13
1.0
 23
0.0
 33
0.0
 40
0.0
 40
0.0
 40
0.0
 40
0.0
 40
1.0
 40
1.0
 40
1.0
 40
2.0
 40
2.0
 40
2.0
 40
3.0
 40
3.0
 40
3.0
 40
4.0
 40
4.0
 40
4.0
 40
4.0
 10
109.0732701453162
 20
193.7589432909772
 30
0.0
 10
109.0732701453162
 20
193.9130606318522
 30
0.0
 10
109.1167622765679
 20
194.1864725700116
 30
0.0
 10
109.3246582732572
 20
194.1274533730229
 30
0.0
 10
109.5332761310456
 20
194.0675389032676
 30
0.0
 10
109.5760464012019
 20
193.7694102766582
 30
0.0
 10
109.5760464012019
 20
193.6154734010524
 30
0.0
 10
109.5760464012019
 20
193.4608146643659
 30
0.0
 10
109.5332761310456
 20
193.1872293145216
 30
0.0
 10
109.3246582732572
 20
193.2471437842778
 30
0.0
 10
109.1167622765679
 20
193.3061559276812
 30
0.0
 10
109.0732701453162
 20
193.6050064153733
 30
0.0
 10
109.0732701453162
 20
193.7589432909772
 30
0.0
  0
SPLINE
  5
189
330
BE
100
AcDbEntity
  8
5
370
     0
100
AcDbSpline
210
0.0
220
0.0
230
1.0
 70
    11
 71
     3
 72
    17
 73
    13
 74
     0
 42
0.0000000001
 43
0.0000000001
 12
1.0
 22
0.0
 32
0.0
 13
1.0
 23
0.0
 33
0.0
 40
0.0
 40
0.0
 40
0.0
 40
0.0
 40
1.0
 40
1.0
 40
1.0
 40
2.0
 40
2.0
 40
2.0
 40
3.0
 40
3.0
 40
3.0
 40
4.0
 40
4.0
 40
4.0
 40
4.0
 10
108.9251081546208
 20
193.8011721642379
 30
0.0
 10
108.9251081546208
 20
193.504313830872
 30
0.0
 10
109.0492682637559
 20
193.1579939407275
 30
0.0
 10
109.3246582732572
 20
193.0794915481256
 30
0.0
 10
109.6007701438612
 20
193.0008157138891
 30
0.0
 10
109.7249302529963
 20
193.275657296992
 30
0.0
 10
109.7249302529963
 20
193.5725226667109
 30
0.0
 10
109.7249302529963
 20
193.8701098975107
 30
0.0
 10
109.6007701438612
 20
194.2157008902213
 30
0.0
 10
109.3246582732572
 20
194.2943837480934
 30
0.0
 10
109.0492682637559
 20
194.3728861406926
 30
0.0
 10
108.9251081546208
 20
194.0982179992261
 30
0.0
 10
108.9251081546208
 20
193.8011721642379
 30
0.0
  0
HATCH
  5
18A
330
BE
100
AcDbEntity
  8
5
 62
   250
420
  2301728
100
AcDbHatch
 10
0.0
 20
0.0
 30
0.0
210
0.0
220
0.0
230
1.0
  2
SOLID
 70
     1
 71
     0
 91
        2
 92
        1
 93
        2
 72
     4
 94
        3
 73
     0
 74
     0
 95
       17
 96
       13
 40
0.0
 40
0.0
 40
0.0
 40
0.0
 40
1.0
 40
1.0
 40
1.0
 40
2.0
 40
2.0
 40
2.0
 40
3.0
 40
3.0
 40
3.0
 40
4.0
 40
4.0
 40
4.0
 40
4.0
 10
109.0732701453162
 20
193.7589432909772
 10
109.0732701453162
 20
193.9130606318522
 10
109.1167622765679
 20
194.1864725700116
 10
109.3246582732572
 20
194.1274533730229
 10
109.5332761310456
 20
194.0675389032676
 10
109.5760464012019
 20
193.7694102766582
 10
109.5760464012019
 20
193.6154734010524
 10
109.5760464012019
 20
193.4608146643659
 10
109.5332761310456
 20
193.1872293145216
 10
109.3246582732572
 20
193.2471437842778
 10
109.1167622765679
 20
193.3061559276812
 10
109.0732701453162
 20
193.6050064153733
 10
109.0732701453162
 20
193.7589432909772
 97
        0
 72
     1
 10
109.0732701453162
 20
193.7589432909772
 11
109.0732701453162
 21
193.7589432909772
 97
        0
 92
        1
 93
        2
 72
     4
 94
        3
 73
     0
 74
     0
 95
       17
 96
       13
 40
0.0
 40
0.0
 40
0.0
 40
0.0
 40
1.0
 40
1.0
 40
1.0
 40
2.0
 40
2.0
 40
2.0
 40
3.0
 40
3.0
 40
3.0
 40
4.0
 40
4.0
 40
4.0
 40
4.0
 10
108.9251081546208
 20
193.8011721642379
 10
108.9251081546208
 20
193.504313830872
 10
109.0492682637559
 20
193.1579939407275
 10
109.3246582732572
 20
193.0794915481256
 10
109.6007701438612
 20
193.0008157138891
 10
109.7249302529963
 20
193.275657296992
 10
109.7249302529963
 20
193.5725226667109
 10
109.7249302529963
 20
193.8701098975107
 10
109.6007701438612
 20
194.2157008902213
 10
109.3246582732572
 20
194.2943837480934
 10
109.0492682637559
 20
194.3728861406926
 10
108.9251081546208
 20
194.0982179992261
 10
108.9251081546208
 20
193.8011721642379
 97
        0
 72
     1
 10
108.9251081546208
 20
193.8011721642379
 11
108.9251081546208
 21
193.8011721642379
 97
        0
 75
     2
 76
     1
 98
        0
  0
SPLINE
  5
18B
330
BE
100
AcDbEntity
  8
5
370
     0
100
AcDbSpline
210
0.0
220
0.0
230
1.0
 70
    11
 71
     3
 72
    44
 73
    40
 74
     0
 42
0.0000000001
 43
0.0000000001
 12
1.0
 22
0.0
 32
0.0
 13
1.0
 23
0.0
 33
0.0
 40
0.0
 40
0.0
 40
0.0
 40
0.0
 40
1.0
 40
1.0
 40
1.0
 40
2.0
 40
2.0
 40
2.0
 40
3.0
 40
3.0
 40
3.0
 40
4.0
 40
4.0
 40
4.0
 40
5.0
 40
5.0
 40
5.0
 40
6.0
 40
6.0
 40
6.0
 40
7.0
 40
7.0
 40
7.0
 40
8.0
 40
8.0
 40
8.0
 40
9.0
 40
9.0
 40
9.0
 40
10.0
 40
10.0
 40
10.0
 40
11.0
 40
11.0
 40
11.0
 40
12.0
 40
12.0
 40
12.0
 40
13.0
 40
13.0
 40
13.0
 40
13.0
 10
110.6545068840314
 20
192.7302912500072
 30
0.0
 10
110.6545068840314
 20
192.7302912500072
 30
0.0
 10
110.5090518724573
 20
192.7717982621871
 30
0.0
 10
110.5090518724573
 20
192.7717982621871
 30
0.0
 10
110.5090518724573
 20
192.7717982621871
 30
0.0
 10
110.5090518724573
 20
193.4806658441048
 30
0.0
 10
110.5090518724573
 20
193.4806658441048
 30
0.0
 10
110.5090518724573
 20
193.6808018289175
 30
0.0
 10
110.4668229981289
 20
193.7944949492357
 30
0.0
 10
110.3258796184309
 20
193.8347387045233
 30
0.0
 10
110.2439483836242
 20
193.8580257696867
 30
0.0
 10
110.0997566289734
 20
193.828783350602
 30
0.0
 10
110.0997566289734
 20
193.5163979676327
 30
0.0
 10
110.0997566289734
 20
193.5163979676327
 30
0.0
 10
110.0997566289734
 20
192.8887397573708
 30
0.0
 10
110.0997566289734
 20
192.8887397573708
 30
0.0
 10
110.0997566289734
 20
192.8887397573708
 30
0.0
 10
109.9543016173993
 20
192.9304342566766
 30
0.0
 10
109.9543016173993
 20
192.9304342566766
 30
0.0
 10
109.9543016173993
 20
192.9304342566766
 30
0.0
 10
109.9543016173993
 20
194.0816151943554
 30
0.0
 10
109.9543016173993
 20
194.0816151943554
 30
0.0
 10
109.9543016173993
 20
194.0816151943554
 30
0.0
 10
110.0912747610528
 20
194.0426346959612
 30
0.0
 10
110.0912747610528
 20
194.0426346959612
 30
0.0
 10
110.0912747610528
 20
194.0426346959612
 30
0.0
 10
110.0912747610528
 20
193.8794940915686
 30
0.0
 10
110.0912747610528
 20
193.8794940915686
 30
0.0
 10
110.0912747610528
 20
193.8794940915686
 30
0.0
 10
110.094523136002
 20
193.8789526957571
 30
0.0
 10
110.094523136002
 20
193.8789526957571
 30
0.0
 10
110.1257436285596
 20
193.9314680894277
 30
0.0
 10
110.2062311411682
 20
194.0426346959612
 30
0.0
 10
110.3538517360394
 20
194.0004058227014
 30
0.0
 10
110.4863132478204
 20
193.9626956291304
 30
0.0
 10
110.6545068840314
 20
193.8417838949463
 30
0.0
 10
110.6545068840314
 20
193.5136909885769
 30
0.0
 10
110.6545068840314
 20
193.5136909885769
 30
0.0
 10
110.6545068840314
 20
192.7302912500072
 30
0.0
 10
110.6545068840314
 20
192.7302912500072
 30
0.0
  0
HATCH
  5
18C
330
BE
100
AcDbEntity
  8
5
 62
   250
420
  2301728
100
AcDbHatch
 10
0.0
 20
0.0
 30
0.0
210
0.0
220
0.0
230
1.0
  2
SOLID
 70
     1
 71
     0
 91
        1
 92
        1
 93
        1
 72
     4
 94
        3
 73
     0
 74
     1
 95
       44
 96
       40
 40
0.0
 40
0.0
 40
0.0
 40
0.0
 40
1.0
 40
1.0
 40
1.0
 40
2.0
 40
2.0
 40
2.0
 40
3.0
 40
3.0
 40
3.0
 40
4.0
 40
4.0
 40
4.0
 40
5.0
 40
5.0
 40
5.0
 40
6.0
 40
6.0
 40
6.0
 40
7.0
 40
7.0
 40
7.0
 40
8.0
 40
8.0
 40
8.0
 40
9.0
 40
9.0
 40
9.0
 40
10.0
 40
10.0
 40
10.0
 40
11.0
 40
11.0
 40
11.0
 40
12.0
 40
12.0
 40
12.0
 40
13.0
 40
13.0
 40
13.0
 40
13.0
 10
110.6545068840314
 20
192.7302912500072
 10
110.6545068840314
 20
192.7302912500072
 10
110.5090518724573
 20
192.7717982621871
 10
110.5090518724573
 20
192.7717982621871
 10
110.5090518724573
 20
192.7717982621871
 10
110.5090518724573
 20
193.4806658441048
 10
110.5090518724573
 20
193.4806658441048
 10
110.5090518724573
 20
193.6808018289175
 10
110.4668229981289
 20
193.7944949492357
 10
110.3258796184309
 20
193.8347387045233
 10
110.2439483836242
 20
193.8580257696867
 10
110.0997566289734
 20
193.828783350602
 10
110.0997566289734
 20
193.5163979676327
 10
110.0997566289734
 20
193.5163979676327
 10
110.0997566289734
 20
192.8887397573708
 10
110.0997566289734
 20
192.8887397573708
 10
110.0997566289734
 20
192.8887397573708
 10
109.9543016173993
 20
192.9304342566766
 10
109.9543016173993
 20
192.9304342566766
 10
109.9543016173993
 20
192.9304342566766
 10
109.9543016173993
 20
194.0816151943554
 10
109.9543016173993
 20
194.0816151943554
 10
109.9543016173993
 20
194.0816151943554
 10
110.0912747610528
 20
194.0426346959612
 10
110.0912747610528
 20
194.0426346959612
 10
110.0912747610528
 20
194.0426346959612
 10
110.0912747610528
 20
193.8794940915686
 10
110.0912747610528
 20
193.8794940915686
 10
110.0912747610528
 20
193.8794940915686
 10
110.094523136002
 20
193.8789526957571
 10
110.094523136002
 20
193.8789526957571
 10
110.1257436285596
 20
193.9314680894277
 10
110.2062311411682
 20
194.0426346959612
 10
110.3538517360394
 20
194.0004058227014
 10
110.4863132478204
 20
193.9626956291304
 10
110.6545068840314
 20
193.8417838949463
 10
110.6545068840314
 20
193.5136909885769
 10
110.6545068840314
 20
193.5136909885769
 10
110.6545068840314
 20
192.7302912500072
 10
110.6545068840314
 20
192.7302912500072
 97
        0
 97
        0
 75
     2
 76
     1
 98
        0
  0
SPLINE
  5
18D
330
BE
100
AcDbEntity
  8
5
370
     0
100
AcDbSpline
210
0.0
220
0.0
230
1.0
 70
    11
 71
     3
 72
    17
 73
    13
 74
     0
 42
0.0000000001
 43
0.0000000001
 12
1.0
 22
0.0
 32
0.0
 13
1.0
 23
0.0
 33
0.0
 40
0.0
 40
0.0
 40
0.0
 40
0.0
 40
1.0
 40
1.0
 40
1.0
 40
2.0
 40
2.0
 40
2.0
 40
3.0
 40
3.0
 40
3.0
 40
4.0
 40
4.0
 40
4.0
 40
4.0
 10
111.0403416417757
 20
193.1989595570958
 30
0.0
 10
111.0403416417757
 20
193.3463996829669
 30
0.0
 10
111.0520718846456
 20
193.6272036436258
 30
0.0
 10
111.2762097560735
 20
193.5627775421108
 30
0.0
 10
111.4853690096897
 20
193.5030435376266
 30
0.0
 10
111.5081076343267
 20
193.1951697864188
 30
0.0
 10
111.5081076343267
 20
193.0080343248865
 30
0.0
 10
111.5081076343267
 20
192.7019582025641
 30
0.0
 10
111.3651791366028
 20
192.6617144472766
 30
0.0
 10
111.272961381128
 20
192.6877014462061
 30
0.0
 10
111.114332404486
 20
192.7331786943341
 30
0.0
 10
111.0403416417757
 20
192.9455863175299
 30
0.0
 10
111.0403416417757
 20
193.1989595570958
 30
0.0
  0
SPLINE
  5
18E
330
BE
100
AcDbEntity
  8
5
370
     0
100
AcDbSpline
210
0.0
220
0.0
230
1.0
 70
    11
 71
     3
 72
    53
 73
    49
 74
     0
 42
0.0000000001
 43
0.0000000001
 12
1.0
 22
0.0
 32
0.0
 13
1.0
 23
0.0
 33
0.0
 40
0.0
 40
0.0
 40
0.0
 40
0.0
 40
1.0
 40
1.0
 40
1.0
 40
2.0
 40
2.0
 40
2.0
 40
3.0
 40
3.0
 40
3.0
 40
4.0
 40
4.0
 40
4.0
 40
5.0
 40
5.0
 40
5.0
 40
6.0
 40
6.0
 40
6.0
 40
7.0
 40
7.0
 40
7.0
 40
8.0
 40
8.0
 40
8.0
 40
9.0
 40
9.0
 40
9.0
 40
10.0
 40
10.0
 40
10.0
 40
11.0
 40
11.0
 40
11.0
 40
12.0
 40
12.0
 40
12.0
 40
13.0
 40
13.0
 40
13.0
 40
14.0
 40
14.0
 40
14.0
 40
15.0
 40
15.0
 40
15.0
 40
16.0
 40
16.0
 40
16.0
 40
16.0
 10
111.6470658960025
 20
193.5979682698289
 30
0.0
 10
111.6470658960025
 20
193.5979682698289
 30
0.0
 10
111.5100927523526
 20
193.6369487682241
 30
0.0
 10
111.5100927523526
 20
193.6369487682241
 30
0.0
 10
111.5100927523526
 20
193.6369487682241
 30
0.0
 10
111.5100927523526
 20
193.4738081638316
 30
0.0
 10
111.5100927523526
 20
193.4738081638316
 30
0.0
 10
111.5100927523526
 20
193.4738081638316
 30
0.0
 10
111.5068443774035
 20
193.4750714207239
 30
0.0
 10
111.5068443774035
 20
193.4750714207239
 30
0.0
 10
111.4723755098967
 20
193.5510472995393
 30
0.0
 10
111.406144754008
 20
193.6999311475738
 30
0.0
 10
111.2495008953883
 20
193.7441451388086
 30
0.0
 10
111.0208513920843
 20
193.8096540319439
 30
0.0
 10
110.8921796510804
 20
193.5959831518558
 30
0.0
 10
110.8921796510804
 20
193.2724089221274
 30
0.0
 10
110.8921796510804
 20
192.9970189195792
 30
0.0
 10
110.9766373997336
 20
192.6052288176579
 30
0.0
 10
111.2697130061788
 20
192.5213124669481
 30
0.0
 10
111.3846693862943
 20
192.4888287182857
 30
0.0
 10
111.4606452670268
 20
192.5395394592524
 30
0.0
 10
111.4983625094828
 20
192.6104623104984
 30
0.0
 10
111.4983625094828
 20
192.6104623104984
 30
0.0
 10
111.4983625094828
 20
192.6187637129333
 30
0.0
 10
111.4983625094828
 20
192.6187637129333
 30
0.0
 10
111.4983625094828
 20
192.6187637129333
 30
0.0
 10
111.501610884432
 20
192.6182293310922
 30
0.0
 10
111.501610884432
 20
192.6182293310922
 30
0.0
 10
111.501610884432
 20
192.6182293310922
 30
0.0
 10
111.501610884432
 20
192.5695037068672
 30
0.0
 10
111.501610884432
 20
192.5695037068672
 30
0.0
 10
111.501610884432
 20
192.4330649497479
 30
0.0
 10
111.5068443774035
 20
192.1634568383324
 30
0.0
 10
111.2567195063857
 20
192.2349140829083
 30
0.0
 10
111.2215287777799
 20
192.2452006033182
 30
0.0
 10
111.0883454048999
 20
192.282917844821
 30
0.0
 10
111.0618170094895
 20
192.4733087050354
 30
0.0
 10
111.0618170094895
 20
192.4733087050354
 30
0.0
 10
110.9181666506665
 20
192.5142743214037
 30
0.0
 10
110.9181666506665
 20
192.5142743214037
 30
0.0
 10
110.945416907176
 20
192.2004452162728
 30
0.0
 10
111.1442896401204
 20
192.1062423451531
 30
0.0
 10
111.2462525204392
 20
192.0770069713562
 30
0.0
 10
111.6458026390792
 20
191.9633138510399
 30
0.0
 10
111.6470658960025
 20
192.376579320131
 30
0.0
 10
111.6470658960025
 20
192.5415245772256
 30
0.0
 10
111.6470658960025
 20
192.5415245772256
 30
0.0
 10
111.6470658960025
 20
193.5979682698289
 30
0.0
 10
111.6470658960025
 20
193.5979682698289
 30
0.0
  0
HATCH
  5
18F
330
BE
100
AcDbEntity
  8
5
 62
   250
420
  2301728
100
AcDbHatch
 10
0.0
 20
0.0
 30
0.0
210
0.0
220
0.0
230
1.0
  2
SOLID
 70
     1
 71
     0
 91
        2
 92
        1
 93
        1
 72
     4
 94
        3
 73
     0
 74
     1
 95
       53
 96
       49
 40
0.0
 40
0.0
 40
0.0
 40
0.0
 40
1.0
 40
1.0
 40
1.0
 40
2.0
 40
2.0
 40
2.0
 40
3.0
 40
3.0
 40
3.0
 40
4.0
 40
4.0
 40
4.0
 40
5.0
 40
5.0
 40
5.0
 40
6.0
 40
6.0
 40
6.0
 40
7.0
 40
7.0
 40
7.0
 40
8.0
 40
8.0
 40
8.0
 40
9.0
 40
9.0
 40
9.0
 40
10.0
 40
10.0
 40
10.0
 40
11.0
 40
11.0
 40
11.0
 40
12.0
 40
12.0
 40
12.0
 40
13.0
 40
13.0
 40
13.0
 40
14.0
 40
14.0
 40
14.0
 40
15.0
 40
15.0
 40
15.0
 40
16.0
 40
16.0
 40
16.0
 40
16.0
 10
111.6470658960025
 20
193.5979682698289
 10
111.6470658960025
 20
193.5979682698289
 10
111.5100927523526
 20
193.6369487682241
 10
111.5100927523526
 20
193.6369487682241
 10
111.5100927523526
 20
193.6369487682241
 10
111.5100927523526
 20
193.4738081638316
 10
111.5100927523526
 20
193.4738081638316
 10
111.5100927523526
 20
193.4738081638316
 10
111.5068443774035
 20
193.4750714207239
 10
111.5068443774035
 20
193.4750714207239
 10
111.4723755098967
 20
193.5510472995393
 10
111.406144754008
 20
193.6999311475738
 10
111.2495008953883
 20
193.7441451388086
 10
111.0208513920843
 20
193.8096540319439
 10
110.8921796510804
 20
193.5959831518558
 10
110.8921796510804
 20
193.2724089221274
 10
110.8921796510804
 20
192.9970189195792
 10
110.9766373997336
 20
192.6052288176579
 10
111.2697130061788
 20
192.5213124669481
 10
111.3846693862943
 20
192.4888287182857
 10
111.4606452670268
 20
192.5395394592524
 10
111.4983625094828
 20
192.6104623104984
 10
111.4983625094828
 20
192.6104623104984
 10
111.4983625094828
 20
192.6187637129333
 10
111.4983625094828
 20
192.6187637129333
 10
111.4983625094828
 20
192.6187637129333
 10
111.501610884432
 20
192.6182293310922
 10
111.501610884432
 20
192.6182293310922
 10
111.501610884432
 20
192.6182293310922
 10
111.501610884432
 20
192.5695037068672
 10
111.501610884432
 20
192.5695037068672
 10
111.501610884432
 20
192.4330649497479
 10
111.5068443774035
 20
192.1634568383324
 10
111.2567195063857
 20
192.2349140829083
 10
111.2215287777799
 20
192.2452006033182
 10
111.0883454048999
 20
192.282917844821
 10
111.0618170094895
 20
192.4733087050354
 10
111.0618170094895
 20
192.4733087050354
 10
110.9181666506665
 20
192.5142743214037
 10
110.9181666506665
 20
192.5142743214037
 10
110.945416907176
 20
192.2004452162728
 10
111.1442896401204
 20
192.1062423451531
 10
111.2462525204392
 20
192.0770069713562
 10
111.6458026390792
 20
191.9633138510399
 10
111.6470658960025
 20
192.376579320131
 10
111.6470658960025
 20
192.5415245772256
 10
111.6470658960025
 20
192.5415245772256
 10
111.6470658960025
 20
193.5979682698289
 10
111.6470658960025
 20
193.5979682698289
 97
        0
 97
        0
 92
        1
 93
        2
 72
     4
 94
        3
 73
     0
 74
     0
 95
       17
 96
       13
 40
0.0
 40
0.0
 40
0.0
 40
0.0
 40
1.0
 40
1.0
 40
1.0
 40
2.0
 40
2.0
 40
2.0
 40
3.0
 40
3.0
 40
3.0
 40
4.0
 40
4.0
 40
4.0
 40
4.0
 10
111.0403416417757
 20
193.1989595570958
 10
111.0403416417757
 20
193.3463996829669
 10
111.0520718846456
 20
193.6272036436258
 10
111.2762097560735
 20
193.5627775421108
 10
111.4853690096897
 20
193.5030435376266
 10
111.5081076343267
 20
193.1951697864188
 10
111.5081076343267
 20
193.0080343248865
 10
111.5081076343267
 20
192.7019582025641
 10
111.3651791366028
 20
192.6617144472766
 10
111.272961381128
 20
192.6877014462061
 10
111.114332404486
 20
192.7331786943341
 10
111.0403416417757
 20
192.9455863175299
 10
111.0403416417757
 20
193.1989595570958
 97
        0
 72
     1
 10
111.0403416417757
 20
193.1989595570958
 11
111.0403416417757
 21
193.1989595570958
 97
        0
 75
     2
 76
     1
 98
        0
  0
POLYLINE
  5
190
330
BE
100
AcDbEntity
  8
5
370
     0
100
AcDb2dPolyline
 66
     1
 10
0.0
 20
0.0
 30
0.0
  0
VERTEX
  5
191
330
190
100
AcDbEntity
  8
5
370
     0
100
AcDbVertex
100
AcDb2dVertex
 10
112.5326089999617
 20
193.773921908416
 30
0.0
  0
VERTEX
  5
192
330
190
100
AcDbEntity
  8
5
370
     0
100
AcDbVertex
100
AcDb2dVertex
 10
113.49033821388
 20
193.5005170238419
 30
0.0
  0
VERTEX
  5
193
330
190
100
AcDbEntity
  8
5
370
     0
100
AcDbVertex
100
AcDb2dVertex
 10
113.49033821388
 20
193.310667559439
 30
0.0
  0
VERTEX
  5
194
330
190
100
AcDbEntity
  8
5
370
     0
100
AcDbVertex
100
AcDb2dVertex
 10
113.0913294910642
 20
193.425082540838
 30
0.0
  0
VERTEX
  5
195
330
190
100
AcDbEntity
  8
5
370
     0
100
AcDbVertex
100
AcDb2dVertex
 10
113.0913294910642
 20
192.0340562370147
 30
0.0
  0
VERTEX
  5
196
330
190
100
AcDbEntity
  8
5
370
     0
100
AcDbVertex
100
AcDb2dVertex
 10
112.9321591185981
 20
192.0795334851409
 30
0.0
  0
VERTEX
  5
197
330
190
100
AcDbEntity
  8
5
370
     0
100
AcDbVertex
100
AcDb2dVertex
 10
112.9321591185981
 20
193.4705597889642
 30
0.0
  0
VERTEX
  5
198
330
190
100
AcDbEntity
  8
5
370
     0
100
AcDbVertex
100
AcDb2dVertex
 10
112.5326089999617
 20
193.5842529092824
 30
0.0
  0
VERTEX
  5
199
330
190
100
AcDbEntity
  8
5
370
     0
100
AcDbVertex
100
AcDb2dVertex
 10
112.5326089999617
 20
193.773921908416
 30
0.0
  0
SEQEND
  5
19B
330
190
100
AcDbEntity
  8
5
370
     0
  0
HATCH
  5
19A
330
BE
100
AcDbEntity
  8
5
 62
   250
420
  2301728
100
AcDbHatch
 10
0.0
 20
0.0
 30
0.0
210
0.0
220
0.0
230
1.0
  2
SOLID
 70
     1
 71
     0
 91
        1
 92
        1
 93
        8
 72
     1
 10
112.5326089999617
 20
193.773921908416
 11
113.49033821388
 21
193.5005170238419
 72
     1
 10
113.49033821388
 20
193.5005170238419
 11
113.49033821388
 21
193.310667559439
 72
     1
 10
113.49033821388
 20
193.310667559439
 11
113.0913294910642
 21
193.425082540838
 72
     1
 10
113.0913294910642
 20
193.425082540838
 11
113.0913294910642
 21
192.0340562370147
 72
     1
 10
113.0913294910642
 20
192.0340562370147
 11
112.9321591185981
 21
192.0795334851409
 72
     1
 10
112.9321591185981
 20
192.0795334851409
 11
112.9321591185981
 21
193.4705597889642
 72
     1
 10
112.9321591185981
 20
193.4705597889642
 11
112.5326089999617
 21
193.5842529092824
 72
     1
 10
112.5326089999617
 20
193.5842529092824
 11
112.5326089999617
 21
193.773921908416
 97
        0
 75
     2
 76
     1
 98
        0
  0
POLYLINE
  5
19C
330
BE
100
AcDbEntity
  8
5
370
     0
100
AcDb2dPolyline
 66
     1
 10
0.0
 20
0.0
 30
0.0
  0
VERTEX
  5
19D
330
19C
100
AcDbEntity
  8
5
370
     0
100
AcDbVertex
100
AcDb2dVertex
 10
113.8353878194976
 20
191.8220095443594
 30
0.0
  0
VERTEX
  5
19E
330
19C
100
AcDbEntity
  8
5
370
     0
100
AcDbVertex
100
AcDb2dVertex
 10
113.6899328079235
 20
191.8627946954566
 30
0.0
  0
VERTEX
  5
19F
330
19C
100
AcDbEntity
  8
5
370
     0
100
AcDbVertex
100
AcDb2dVertex
 10
113.6899328079235
 20
193.0141631202614
 30
0.0
  0
VERTEX
  5
1A0
330
19C
100
AcDbEntity
  8
5
370
     0
100
AcDbVertex
100
AcDb2dVertex
 10
113.8353878194976
 20
192.9724756428113
 30
0.0
  0
VERTEX
  5
1A1
330
19C
100
AcDbEntity
  8
5
370
     0
100
AcDbVertex
100
AcDb2dVertex
 10
113.8353878194976
 20
191.8220095443594
 30
0.0
  0
SEQEND
  5
1A2
330
19C
100
AcDbEntity
  8
5
370
     0
  0
POLYLINE
  5
1A3
330
BE
100
AcDbEntity
  8
5
370
     0
100
AcDb2dPolyline
 66
     1
 10
0.0
 20
0.0
 30
0.0
  0
VERTEX
  5
1A4
330
1A3
100
AcDbEntity
  8
5
370
     0
100
AcDbVertex
100
AcDb2dVertex
 10
113.6899328079235
 20
193.2233223685926
 30
0.0
  0
VERTEX
  5
1A5
330
1A3
100
AcDbEntity
  8
5
370
     0
100
AcDbVertex
100
AcDb2dVertex
 10
113.6899328079235
 20
193.4434899984144
 30
0.0
  0
VERTEX
  5
1A6
330
1A3
100
AcDbEntity
  8
5
370
     0
100
AcDbVertex
100
AcDb2dVertex
 10
113.8353878194976
 20
193.4019829862336
 30
0.0
  0
VERTEX
  5
1A7
330
1A3
100
AcDbEntity
  8
5
370
     0
100
AcDbVertex
100
AcDb2dVertex
 10
113.8353878194976
 20
193.1816348911416
 30
0.0
  0
VERTEX
  5
1A8
330
1A3
100
AcDbEntity
  8
5
370
     0
100
AcDbVertex
100
AcDb2dVertex
 10
113.6899328079235
 20
193.2233223685926
 30
0.0
  0
SEQEND
  5
1A9
330
1A3
100
AcDbEntity
  8
5
370
     0
  0
HATCH
  5
1AA
330
BE
100
AcDbEntity
  8
5
 62
   250
420
  2301728
100
AcDbHatch
 10
0.0
 20
0.0
 30
0.0
210
0.0
220
0.0
230
1.0
  2
SOLID
 70
     1
 71
     0
 91
        2
 92
        1
 93
        4
 72
     1
 10
113.8353878194976
 20
191.8220095443594
 11
113.6899328079235
 21
191.8627946954566
 72
     1
 10
113.6899328079235
 20
191.8627946954566
 11
113.6899328079235
 21
193.0141631202614
 72
     1
 10
113.6899328079235
 20
193.0141631202614
 11
113.8353878194976
 21
192.9724756428113
 72
     1
 10
113.8353878194976
 20
192.9724756428113
 11
113.8353878194976
 21
191.8220095443594
 97
        0
 92
        1
 93
        4
 72
     1
 10
113.6899328079235
 20
193.2233223685926
 11
113.6899328079235
 21
193.4434899984144
 72
     1
 10
113.6899328079235
 20
193.4434899984144
 11
113.8353878194976
 21
193.4019829862336
 72
     1
 10
113.8353878194976
 20
193.4019829862336
 11
113.8353878194976
 21
193.1816348911416
 72
     1
 10
113.8353878194976
 20
193.1816348911416
 11
113.6899328079235
 21
193.2233223685926
 97
        0
 75
     2
 76
     1
 98
        0
  0
SPLINE
  5
1AB
330
BE
100
AcDbEntity
  8
5
370
     0
100
AcDbSpline
210
0.0
220
0.0
230
1.0
 70
    11
 71
     3
 72
    14
 73
    10
 74
     0
 42
0.0000000001
 43
0.0000000001
 12
1.0
 22
0.0
 32
0.0
 13
1.0
 23
0.0
 33
0.0
 40
0.0
 40
0.0
 40
0.0
 40
0.0
 40
1.0
 40
1.0
 40
1.0
 40
2.0
 40
2.0
 40
2.0
 40
3.0
 40
3.0
 40
3.0
 40
3.0
 10
114.2302458409868
 20
192.3760379243195
 30
0.0
 10
114.2302458409868
 20
192.5539766808797
 30
0.0
 10
114.3354570962547
 20
192.6891451683696
 30
0.0
 10
114.4679186080357
 20
192.6508865310552
 30
0.0
 10
114.6447745774421
 20
192.6001828036024
 30
0.0
 10
114.7012602084869
 20
192.4195300544734
 30
0.0
 10
114.7090202153086
 20
192.2388843188564
 30
0.0
 10
114.7090202153086
 20
192.2388843188564
 30
0.0
 10
114.2302458409868
 20
192.3760379243195
 30
0.0
 10
114.2302458409868
 20
192.3760379243195
 30
0.0
  0
SPLINE
  5
1AC
330
BE
100
AcDbEntity
  8
5
370
     0
100
AcDbSpline
210
0.0
220
0.0
230
1.0
 70
    11
 71
     3
 72
    32
 73
    28
 74
     0
 42
0.0000000001
 43
0.0000000001
 12
1.0
 22
0.0
 32
0.0
 13
1.0
 23
0.0
 33
0.0
 40
0.0
 40
0.0
 40
0.0
 40
0.0
 40
1.0
 40
1.0
 40
1.0
 40
2.0
 40
2.0
 40
2.0
 40
3.0
 40
3.0
 40
3.0
 40
4.0
 40
4.0
 40
4.0
 40
5.0
 40
5.0
 40
5.0
 40
6.0
 40
6.0
 40
6.0
 40
7.0
 40
7.0
 40
7.0
 40
8.0
 40
8.0
 40
8.0
 40
9.0
 40
9.0
 40
9.0
 40
9.0
 10
114.7025234654138
 20
191.9348003383238
 30
0.0
 10
114.6972899724387
 20
191.8503425918016
 30
0.0
 10
114.6168024598337
 20
191.7328597008072
 30
0.0
 10
114.4796488509055
 20
191.7718471917888
 30
0.0
 10
114.3139817285446
 20
191.8193025653036
 30
0.0
 10
114.2302458409868
 20
191.982262704425
 30
0.0
 10
114.2302458409868
 20
192.2221010487137
 30
0.0
 10
114.2302458409868
 20
192.2221010487137
 30
0.0
 10
114.8577236018318
 20
192.0419967089092
 30
0.0
 10
114.8577236018318
 20
192.0419967089092
 30
0.0
 10
114.8577236018318
 20
192.4494872893501
 30
0.0
 10
114.736992332917
 20
192.7483377770423
 30
0.0
 10
114.4881307188261
 20
192.8190801630171
 30
0.0
 10
114.2035369803016
 20
192.900289534673
 30
0.0
 10
114.075587100393
 20
192.6526911837591
 30
0.0
 10
114.075587100393
 20
192.2960918095559
 30
0.0
 10
114.075587100393
 20
191.9640357121207
 30
0.0
 10
114.2177937370179
 20
191.6789005849751
 30
0.0
 10
114.4601586012141
 20
191.6099628517022
 30
0.0
 10
114.5978536059665
 20
191.570982353307
 30
0.0
 10
114.653797841187
 20
191.5984130744
 30
0.0
 10
114.6927783405663
 20
191.6229563511679
 30
0.0
 10
114.8025012277103
 20
191.6886457095734
 30
0.0
 10
114.8422035881886
 20
191.8400560713926
 30
0.0
 10
114.84743708116
 20
191.8940151872266
 30
0.0
 10
114.84743708116
 20
191.8940151872266
 30
0.0
 10
114.7025234654138
 20
191.9348003383238
 30
0.0
 10
114.7025234654138
 20
191.9348003383238
 30
0.0
  0
HATCH
  5
1AD
330
BE
100
AcDbEntity
  8
5
 62
   250
420
  2301728
100
AcDbHatch
 10
0.0
 20
0.0
 30
0.0
210
0.0
220
0.0
230
1.0
  2
SOLID
 70
     1
 71
     0
 91
        2
 92
        1
 93
        1
 72
     4
 94
        3
 73
     0
 74
     1
 95
       14
 96
       10
 40
0.0
 40
0.0
 40
0.0
 40
0.0
 40
1.0
 40
1.0
 40
1.0
 40
2.0
 40
2.0
 40
2.0
 40
3.0
 40
3.0
 40
3.0
 40
3.0
 10
114.2302458409868
 20
192.3760379243195
 10
114.2302458409868
 20
192.5539766808797
 10
114.3354570962547
 20
192.6891451683696
 10
114.4679186080357
 20
192.6508865310552
 10
114.6447745774421
 20
192.6001828036024
 10
114.7012602084869
 20
192.4195300544734
 10
114.7090202153086
 20
192.2388843188564
 10
114.7090202153086
 20
192.2388843188564
 10
114.2302458409868
 20
192.3760379243195
 10
114.2302458409868
 20
192.3760379243195
 97
        0
 97
        0
 92
        1
 93
        1
 72
     4
 94
        3
 73
     0
 74
     1
 95
       32
 96
       28
 40
0.0
 40
0.0
 40
0.0
 40
0.0
 40
1.0
 40
1.0
 40
1.0
 40
2.0
 40
2.0
 40
2.0
 40
3.0
 40
3.0
 40
3.0
 40
4.0
 40
4.0
 40
4.0
 40
5.0
 40
5.0
 40
5.0
 40
6.0
 40
6.0
 40
6.0
 40
7.0
 40
7.0
 40
7.0
 40
8.0
 40
8.0
 40
8.0
 40
9.0
 40
9.0
 40
9.0
 40
9.0
 10
114.7025234654138
 20
191.9348003383238
 10
114.6972899724387
 20
191.8503425918016
 10
114.6168024598337
 20
191.7328597008072
 10
114.4796488509055
 20
191.7718471917888
 10
114.3139817285446
 20
191.8193025653036
 10
114.2302458409868
 20
191.982262704425
 10
114.2302458409868
 20
192.2221010487137
 10
114.2302458409868
 20
192.2221010487137
 10
114.8577236018318
 20
192.0419967089092
 10
114.8577236018318
 20
192.0419967089092
 10
114.8577236018318
 20
192.4494872893501
 10
114.736992332917
 20
192.7483377770423
 10
114.4881307188261
 20
192.8190801630171
 10
114.2035369803016
 20
192.900289534673
 10
114.075587100393
 20
192.6526911837591
 10
114.075587100393
 20
192.2960918095559
 10
114.075587100393
 20
191.9640357121207
 10
114.2177937370179
 20
191.6789005849751
 10
114.4601586012141
 20
191.6099628517022
 10
114.5978536059665
 20
191.570982353307
 10
114.653797841187
 20
191.5984130744
 10
114.6927783405663
 20
191.6229563511679
 10
114.8025012277103
 20
191.6886457095734
 10
114.8422035881886
 20
191.8400560713926
 10
114.84743708116
 20
191.8940151872266
 10
114.84743708116
 20
191.8940151872266
 10
114.7025234654138
 20
191.9348003383238
 10
114.7025234654138
 20
191.9348003383238
 97
        0
 97
        0
 75
     2
 76
     1
 98
        0
  0
SPLINE
  5
1AE
330
BE
100
AcDbEntity
  8
5
370
     0
100
AcDbSpline
210
0.0
220
0.0
230
1.0
 70
    11
 71
     3
 72
    17
 73
    13
 74
     0
 42
0.0000000001
 43
0.0000000001
 12
1.0
 22
0.0
 32
0.0
 13
1.0
 23
0.0
 33
0.0
 40
0.0
 40
0.0
 40
0.0
 40
0.0
 40
1.0
 40
1.0
 40
1.0
 40
2.0
 40
2.0
 40
2.0
 40
3.0
 40
3.0
 40
3.0
 40
4.0
 40
4.0
 40
4.0
 40
4.0
 10
115.0338577101356
 20
192.909854194002
 30
0.0
 10
115.0338577101356
 20
193.0742580552869
 30
0.0
 10
115.1255340697899
 20
193.1709874401913
 30
0.0
 10
115.2442802206751
 20
193.1372404346366
 30
0.0
 10
115.3612217188129
 20
193.1042152901628
 30
0.0
 10
115.4528980784635
 20
192.9540681852359
 30
0.0
 10
115.4528980784635
 20
192.7896713422506
 30
0.0
 10
115.4528980784635
 20
192.6234558099623
 30
0.0
 10
115.3612217188129
 20
192.5265459597867
 30
0.0
 10
115.2442802206751
 20
192.5597515695317
 30
0.0
 10
115.1255340697899
 20
192.5934985750864
 30
0.0
 10
115.0338577101356
 20
192.7429238189325
 30
0.0
 10
115.0338577101356
 20
192.909854194002
 30
0.0
  0
SPLINE
  5
1AF
330
BE
100
AcDbEntity
  8
5
370
     0
100
AcDbSpline
210
0.0
220
0.0
230
1.0
 70
    11
 71
     3
 72
    17
 73
    13
 74
     0
 42
0.0000000001
 43
0.0000000001
 12
1.0
 22
0.0
 32
0.0
 13
1.0
 23
0.0
 33
0.0
 40
0.0
 40
0.0
 40
0.0
 40
0.0
 40
1.0
 40
1.0
 40
1.0
 40
2.0
 40
2.0
 40
2.0
 40
3.0
 40
3.0
 40
3.0
 40
4.0
 40
4.0
 40
4.0
 40
4.0
 10
115.2442802206751
 20
192.5018222177496
 30
0.0
 10
115.3846822045489
 20
192.4615784624639
 30
0.0
 10
115.5048720776358
 20
192.5740083258879
 30
0.0
 10
115.5048720776358
 20
192.7746857065122
 30
0.0
 10
115.5048720776358
 20
192.9742802955152
 30
0.0
 10
115.3846822045489
 20
193.155467426941
 30
0.0
 10
115.2442802206751
 20
193.1951697864188
 30
0.0
 10
115.1020735840502
 20
193.235954937516
 30
0.0
 10
114.9811618498643
 20
193.1237055393613
 30
0.0
 10
114.9811618498643
 20
192.9248328114409
 30
0.0
 10
114.9811618498643
 20
192.7241554308166
 30
0.0
 10
115.1020735840502
 20
192.5427878341179
 30
0.0
 10
115.2442802206751
 20
192.5018222177496
 30
0.0
  0
SPLINE
  5
1B0
330
BE
100
AcDbEntity
  8
5
370
     0
100
AcDbSpline
210
0.0
220
0.0
230
1.0
 70
    11
 71
     3
 72
    35
 73
    31
 74
     0
 42
0.0000000001
 43
0.0000000001
 12
1.0
 22
0.0
 32
0.0
 13
1.0
 23
0.0
 33
0.0
 40
0.0
 40
0.0
 40
0.0
 40
0.0
 40
1.0
 40
1.0
 40
1.0
 40
2.0
 40
2.0
 40
2.0
 40
3.0
 40
3.0
 40
3.0
 40
4.0
 40
4.0
 40
4.0
 40
5.0
 40
5.0
 40
5.0
 40
6.0
 40
6.0
 40
6.0
 40
7.0
 40
7.0
 40
7.0
 40
8.0
 40
8.0
 40
8.0
 40
9.0
 40
9.0
 40
9.0
 40
10.0
 40
10.0
 40
10.0
 40
10.0
 10
115.1897797076526
 20
192.837848551133
 30
0.0
 10
115.1897797076526
 20
192.837848551133
 30
0.0
 10
115.241753706825
 20
192.8228699336942
 30
0.0
 10
115.241753706825
 20
192.8228699336942
 30
0.0
 10
115.241753706825
 20
192.8228699336942
 30
0.0
 10
115.3204365666825
 20
192.627252594837
 30
0.0
 10
115.3204365666825
 20
192.627252594837
 30
0.0
 10
115.3204365666825
 20
192.627252594837
 30
0.0
 10
115.3704254478325
 20
192.6122669632023
 30
0.0
 10
115.3704254478325
 20
192.6122669632023
 30
0.0
 10
115.3704254478325
 20
192.6122669632023
 30
0.0
 10
115.2859676991793
 20
192.8131318279884
 30
0.0
 10
115.2859676991793
 20
192.8131318279884
 30
0.0
 10
115.329459830431
 20
192.8078913162572
 30
0.0
 10
115.3632068368388
 20
192.8293737027307
 30
0.0
 10
115.3632068368388
 20
192.9008309304854
 30
0.0
 10
115.3632068368388
 20
192.9793333230846
 30
0.0
 10
115.3281965735077
 20
193.0242761996269
 30
0.0
 10
115.2579955815672
 20
193.0443008204093
 30
0.0
 10
115.2579955815672
 20
193.0443008204093
 30
0.0
 10
115.1443024583787
 20
193.0767845690716
 30
0.0
 10
115.1443024583787
 20
193.0767845690716
 30
0.0
 10
115.1443024583787
 20
193.0767845690716
 30
0.0
 10
115.1443024583787
 20
192.677234460527
 30
0.0
 10
115.1443024583787
 20
192.677234460527
 30
0.0
 10
115.1443024583787
 20
192.677234460527
 30
0.0
 10
115.1897797076526
 20
192.6642409610613
 30
0.0
 10
115.1897797076526
 20
192.6642409610613
 30
0.0
 10
115.1897797076526
 20
192.6642409610613
 30
0.0
 10
115.1897797076526
 20
192.837848551133
 30
0.0
 10
115.1897797076526
 20
192.837848551133
 30
0.0
  0
SPLINE
  5
1B1
330
BE
100
AcDbEntity
  8
5
370
     0
100
AcDbSpline
210
0.0
220
0.0
230
1.0
 70
    11
 71
     3
 72
    20
 73
    16
 74
     0
 42
0.0000000001
 43
0.0000000001
 12
1.0
 22
0.0
 32
0.0
 13
1.0
 23
0.0
 33
0.0
 40
0.0
 40
0.0
 40
0.0
 40
0.0
 40
1.0
 40
1.0
 40
1.0
 40
2.0
 40
2.0
 40
2.0
 40
3.0
 40
3.0
 40
3.0
 40
4.0
 40
4.0
 40
4.0
 40
5.0
 40
5.0
 40
5.0
 40
5.0
 10
115.1897797076526
 20
192.8891006879112
 30
0.0
 10
115.1897797076526
 20
192.8891006879112
 30
0.0
 10
115.1897797076526
 20
193.0125389328277
 30
0.0
 10
115.1897797076526
 20
193.0125389328277
 30
0.0
 10
115.1897797076526
 20
193.0125389328277
 30
0.0
 10
115.2507769705699
 20
192.9950338016042
 30
0.0
 10
115.2507769705699
 20
192.9950338016042
 30
0.0
 10
115.2827193242301
 20
192.9865519338982
 30
0.0
 10
115.3164663306379
 20
192.9677835457824
 30
0.0
 10
115.3164663306379
 20
192.918336061708
 30
0.0
 10
115.3164663306379
 20
192.8566169392489
 30
0.0
 10
115.2814560673032
 20
192.8623918279009
 30
0.0
 10
115.2437388248509
 20
192.8735806746627
 30
0.0
 10
115.2437388248509
 20
192.8735806746627
 30
0.0
 10
115.1897797076526
 20
192.8891006879112
 30
0.0
 10
115.1897797076526
 20
192.8891006879112
 30
0.0
  0
HATCH
  5
1B2
330
BE
100
AcDbEntity
  8
5
 62
   250
420
  2301728
100
AcDbHatch
 10
0.0
 20
0.0
 30
0.0
210
0.0
220
0.0
230
1.0
  2
SOLID
 70
     1
 71
     0
 91
        4
 92
        1
 93
        1
 72
     4
 94
        3
 73
     0
 74
     1
 95
       35
 96
       31
 40
0.0
 40
0.0
 40
0.0
 40
0.0
 40
1.0
 40
1.0
 40
1.0
 40
2.0
 40
2.0
 40
2.0
 40
3.0
 40
3.0
 40
3.0
 40
4.0
 40
4.0
 40
4.0
 40
5.0
 40
5.0
 40
5.0
 40
6.0
 40
6.0
 40
6.0
 40
7.0
 40
7.0
 40
7.0
 40
8.0
 40
8.0
 40
8.0
 40
9.0
 40
9.0
 40
9.0
 40
10.0
 40
10.0
 40
10.0
 40
10.0
 10
115.1897797076526
 20
192.837848551133
 10
115.1897797076526
 20
192.837848551133
 10
115.241753706825
 20
192.8228699336942
 10
115.241753706825
 20
192.8228699336942
 10
115.241753706825
 20
192.8228699336942
 10
115.3204365666825
 20
192.627252594837
 10
115.3204365666825
 20
192.627252594837
 10
115.3204365666825
 20
192.627252594837
 10
115.3704254478325
 20
192.6122669632023
 10
115.3704254478325
 20
192.6122669632023
 10
115.3704254478325
 20
192.6122669632023
 10
115.2859676991793
 20
192.8131318279884
 10
115.2859676991793
 20
192.8131318279884
 10
115.329459830431
 20
192.8078913162572
 10
115.3632068368388
 20
192.8293737027307
 10
115.3632068368388
 20
192.9008309304854
 10
115.3632068368388
 20
192.9793333230846
 10
115.3281965735077
 20
193.0242761996269
 10
115.2579955815672
 20
193.0443008204093
 10
115.2579955815672
 20
193.0443008204093
 10
115.1443024583787
 20
193.0767845690716
 10
115.1443024583787
 20
193.0767845690716
 10
115.1443024583787
 20
193.0767845690716
 10
115.1443024583787
 20
192.677234460527
 10
115.1443024583787
 20
192.677234460527
 10
115.1443024583787
 20
192.677234460527
 10
115.1897797076526
 20
192.6642409610613
 10
115.1897797076526
 20
192.6642409610613
 10
115.1897797076526
 20
192.6642409610613
 10
115.1897797076526
 20
192.837848551133
 10
115.1897797076526
 20
192.837848551133
 97
        0
 97
        0
 92
        1
 93
        1
 72
     4
 94
        3
 73
     0
 74
     1
 95
       20
 96
       16
 40
0.0
 40
0.0
 40
0.0
 40
0.0
 40
1.0
 40
1.0
 40
1.0
 40
2.0
 40
2.0
 40
2.0
 40
3.0
 40
3.0
 40
3.0
 40
4.0
 40
4.0
 40
4.0
 40
5.0
 40
5.0
 40
5.0
 40
5.0
 10
115.1897797076526
 20
192.8891006879112
 10
115.1897797076526
 20
192.8891006879112
 10
115.1897797076526
 20
193.0125389328277
 10
115.1897797076526
 20
193.0125389328277
 10
115.1897797076526
 20
193.0125389328277
 10
115.2507769705699
 20
192.9950338016042
 10
115.2507769705699
 20
192.9950338016042
 10
115.2827193242301
 20
192.9865519338982
 10
115.3164663306379
 20
192.9677835457824
 10
115.3164663306379
 20
192.918336061708
 10
115.3164663306379
 20
192.8566169392489
 10
115.2814560673032
 20
192.8623918279009
 10
115.2437388248509
 20
192.8735806746627
 10
115.2437388248509
 20
192.8735806746627
 10
115.1897797076526
 20
192.8891006879112
 10
115.1897797076526
 20
192.8891006879112
 97
        0
 97
        0
 92
        1
 93
        2
 72
     4
 94
        3
 73
     0
 74
     0
 95
       17
 96
       13
 40
0.0
 40
0.0
 40
0.0
 40
0.0
 40
1.0
 40
1.0
 40
1.0
 40
2.0
 40
2.0
 40
2.0
 40
3.0
 40
3.0
 40
3.0
 40
4.0
 40
4.0
 40
4.0
 40
4.0
 10
115.0338577101356
 20
192.909854194002
 10
115.0338577101356
 20
193.0742580552869
 10
115.1255340697899
 20
193.1709874401913
 10
115.2442802206751
 20
193.1372404346366
 10
115.3612217188129
 20
193.1042152901628
 10
115.4528980784635
 20
192.9540681852359
 10
115.4528980784635
 20
192.7896713422506
 10
115.4528980784635
 20
192.6234558099623
 10
115.3612217188129
 20
192.5265459597867
 10
115.2442802206751
 20
192.5597515695317
 10
115.1255340697899
 20
192.5934985750864
 10
115.0338577101356
 20
192.7429238189325
 10
115.0338577101356
 20
192.909854194002
 97
        0
 72
     1
 10
115.0338577101356
 20
192.909854194002
 11
115.0338577101356
 21
192.909854194002
 97
        0
 92
        1
 93
        2
 72
     4
 94
        3
 73
     0
 74
     0
 95
       17
 96
       13
 40
0.0
 40
0.0
 40
0.0
 40
0.0
 40
1.0
 40
1.0
 40
1.0
 40
2.0
 40
2.0
 40
2.0
 40
3.0
 40
3.0
 40
3.0
 40
4.0
 40
4.0
 40
4.0
 40
4.0
 10
115.2442802206751
 20
192.5018222177496
 10
115.3846822045489
 20
192.4615784624639
 10
115.5048720776358
 20
192.5740083258879
 10
115.5048720776358
 20
192.7746857065122
 10
115.5048720776358
 20
192.9742802955152
 10
115.3846822045489
 20
193.155467426941
 10
115.2442802206751
 20
193.1951697864188
 10
115.1020735840502
 20
193.235954937516
 10
114.9811618498643
 20
193.1237055393613
 10
114.9811618498643
 20
192.9248328114409
 10
114.9811618498643
 20
192.7241554308166
 10
115.1020735840502
 20
192.5427878341179
 10
115.2442802206751
 20
192.5018222177496
 97
        0
 72
     1
 10
115.2442802206751
 20
192.5018222177496
 11
115.2442802206751
 21
192.5018222177496
 97
        0
 75
     2
 76
     1
 98
        0
  0
SPLINE
  5
1B3
330
BE
100
AcDbEntity
  8
5
  6
AI-Linetype-34
 62
   250
420
  2301728
370
    15
100
AcDbSpline
210
0.0
220
0.0
230
1.0
 70
     8
 71
     3
 72
    23
 73
    19
 74
     0
 42
0.0000000001
 43
0.0000000001
 12
1.0
 22
0.0
 32
0.0
 13
1.0
 23
0.0
 33
0.0
 40
0.0
 40
0.0
 40
0.0
 40
0.0
 40
1.0
 40
1.0
 40
1.0
 40
2.0
 40
2.0
 40
2.0
 40
3.0
 40
3.0
 40
3.0
 40
4.0
 40
4.0
 40
4.0
 40
5.0
 40
5.0
 40
5.0
 40
6.0
 40
6.0
 40
6.0
 40
6.0
 10
119.4012978280989
 20
215.9556301476678
 30
0.0
 10
119.125185957495
 20
215.8191984032874
 30
0.0
 10
118.8010703237669
 20
215.8011518762523
 30
0.0
 10
118.5092579742486
 20
215.9043780108896
 30
0.0
 10
118.2001209583359
 20
216.0200562491809
 30
0.0
 10
117.9297839765277
 20
216.2117103662886
 30
0.0
 10
117.7271214728098
 20
216.4591282519323
 30
0.0
 10
117.2275935918769
 20
217.0795678513814
 30
0.0
 10
116.9624901030402
 20
217.8384243131841
 30
0.0
 10
116.973498484811
 20
218.616056833831
 30
0.0
 10
116.973498484811
 20
218.616056833831
 30
0.0
 10
116.973498484811
 20
221.2576997904198
 30
0.0
 10
116.973498484811
 20
221.2576997904198
 30
0.0
 10
116.973498484811
 20
221.2576997904198
 30
0.0
 10
115.5084813831345
 20
223.2359678713874
 30
0.0
 10
115.5084813831345
 20
223.2359678713874
 30
0.0
 10
115.5084813831345
 20
223.2359678713874
 30
0.0
 10
112.5679801938422
 20
223.8755290020526
 30
0.0
 10
112.5679801938422
 20
223.8755290020526
 30
0.0
  0
ENDBLK
  5
C1
330
BE
100
AcDbEntity
  8
0
100
AcDbBlockEnd
  0
BLOCK
  5
1B8
330
1B6
100
AcDbEntity
  8
0
100
AcDbBlockBegin
  2
block 9
 70
     0
 10
0.0
 20
0.0
 30
0.0
  3
block 9
  1

  0
SPLINE
  5
1BA
330
1B6
100
AcDbEntity
  8
Dowel 5
  6
AI-Linetype-35
 62
   250
420
  2301728
370
    20
100
AcDbSpline
210
0.0
220
0.0
230
1.0
 70
    11
 71
     3
 72
    26
 73
    22
 74
     0
 42
0.0000000001
 43
0.0000000001
 12
1.0
 22
0.0
 32
0.0
 13
1.0
 23
0.0
 33
0.0
 40
0.0
 40
0.0
 40
0.0
 40
0.0
 40
1.0
 40
1.0
 40
1.0
 40
2.0
 40
2.0
 40
2.0
 40
3.0
 40
3.0
 40
3.0
 40
4.0
 40
4.0
 40
4.0
 40
5.0
 40
5.0
 40
5.0
 40
6.0
 40
6.0
 40
6.0
 40
7.0
 40
7.0
 40
7.0
 40
7.0
 10
118.9835207166943
 20
203.5948419206197
 30
0.0
 10
118.9835207166943
 20
203.5948419206197
 30
0.0
 10
108.1299781533926
 20
201.9396144610109
 30
0.0
 10
108.1299781533926
 20
201.9396144610109
 30
0.0
 10
107.6253972447594
 20
201.8627362558436
 30
0.0
 10
107.153300085607
 20
202.209958692265
 30
0.0
 10
107.0762414132223
 20
202.7145323318746
 30
0.0
 10
107.0762414132223
 20
202.7145323318746
 30
0.0
 10
106.8133035076871
 20
204.43148622634
 30
0.0
 10
106.8133035076871
 20
204.43148622634
 30
0.0
 10
106.736425300579
 20
204.9367889960722
 30
0.0
 10
107.0827381631207
 20
205.4081569570544
 30
0.0
 10
107.5884018634024
 20
205.4859374885709
 30
0.0
 10
107.5884018634024
 20
205.4859374885709
 30
0.0
 10
118.9929049109924
 20
207.2544971379584
 30
0.0
 10
118.9929049109924
 20
207.2544971379584
 30
0.0
 10
119.4890039517049
 20
206.9859648156826
 30
0.0
 10
119.8699661470273
 20
207.2544971379584
 30
0.0
 10
120.1518529064269
 20
204.6097786010432
 30
0.0
 10
120.2601320713693
 20
203.5937591289994
 30
0.0
 10
118.9835207166943
 20
203.5948419206197
 30
0.0
 10
118.9835207166943
 20
203.5948419206197
 30
0.0
  0
HATCH
  5
1BC
330
1B6
100
AcDbEntity
  8
Dowel 5
 62
   254
420
 16376262
100
AcDbHatch
 10
0.0
 20
0.0
 30
0.0
210
0.0
220
0.0
230
1.0
  2
SOLID
 70
     1
 71
     0
 91
        1
 92
        1
 93
        1
 72
     4
 94
        3
 73
     0
 74
     1
 95
       26
 96
       22
 40
0.0
 40
0.0
 40
0.0
 40
0.0
 40
1.0
 40
1.0
 40
1.0
 40
2.0
 40
2.0
 40
2.0
 40
3.0
 40
3.0
 40
3.0
 40
4.0
 40
4.0
 40
4.0
 40
5.0
 40
5.0
 40
5.0
 40
6.0
 40
6.0
 40
6.0
 40
7.0
 40
7.0
 40
7.0
 40
7.0
 10
118.9835207166943
 20
203.5948419206197
 10
118.9835207166943
 20
203.5948419206197
 10
108.1299781533926
 20
201.9396144610109
 10
108.1299781533926
 20
201.9396144610109
 10
107.6253972447594
 20
201.8627362558436
 10
107.153300085607
 20
202.209958692265
 10
107.0762414132223
 20
202.7145323318746
 10
107.0762414132223
 20
202.7145323318746
 10
106.8133035076871
 20
204.43148622634
 10
106.8133035076871
 20
204.43148622634
 10
106.736425300579
 20
204.9367889960722
 10
107.0827381631207
 20
205.4081569570544
 10
107.5884018634024
 20
205.4859374885709
 10
107.5884018634024
 20
205.4859374885709
 10
118.9929049109924
 20
207.2544971379584
 10
118.9929049109924
 20
207.2544971379584
 10
119.4890039517049
 20
206.9859648156826
 10
119.8699661470273
 20
207.2544971379584
 10
120.1518529064269
 20
204.6097786010432
 10
120.2601320713693
 20
203.5937591289994
 10
118.9835207166943
 20
203.5948419206197
 10
118.9835207166943
 20
203.5948419206197
 97
        0
 97
        0
 75
     2
 76
     1
 98
        0
  0
SPLINE
  5
1BD
330
1B6
100
AcDbEntity
  8
Dowel 5
  6
AI-Linetype-36
 62
   250
420
  2301728
370
    20
100
AcDbSpline
210
0.0
220
0.0
230
1.0
 70
    11
 71
     3
 72
    26
 73
    22
 74
     0
 42
0.0000000001
 43
0.0000000001
 12
1.0
 22
0.0
 32
0.0
 13
1.0
 23
0.0
 33
0.0
 40
0.0
 40
0.0
 40
0.0
 40
0.0
 40
1.0
 40
1.0
 40
1.0
 40
2.0
 40
2.0
 40
2.0
 40
3.0
 40
3.0
 40
3.0
 40
4.0
 40
4.0
 40
4.0
 40
5.0
 40
5.0
 40
5.0
 40
6.0
 40
6.0
 40
6.0
 40
7.0
 40
7.0
 40
7.0
 40
7.0
 10
118.9835207166943
 20
191.0371660836263
 30
0.0
 10
118.9835207166943
 20
191.0371660836263
 30
0.0
 10
108.1299781533926
 20
189.3821190892868
 30
0.0
 10
108.1299781533926
 20
189.3821190892868
 30
0.0
 10
107.6253972447594
 20
189.3050604188484
 30
0.0
 10
107.153300085607
 20
189.6522755989936
 30
0.0
 10
107.0762414132223
 20
190.1568564948811
 30
0.0
 10
107.0762414132223
 20
190.1568564948811
 30
0.0
 10
106.8133035076871
 20
191.8738030769473
 30
0.0
 10
106.8133035076871
 20
191.8738030769473
 30
0.0
 10
106.736425300579
 20
192.379286299185
 30
0.0
 10
107.0827381631207
 20
192.8504811200582
 30
0.0
 10
107.5884018634024
 20
192.9282616515784
 30
0.0
 10
107.5884018634024
 20
192.9282616515784
 30
0.0
 10
118.9929049109924
 20
194.6968213009623
 30
0.0
 10
118.9929049109924
 20
194.6968213009623
 30
0.0
 10
119.4890039517049
 20
194.4282960383844
 30
0.0
 10
119.8699661470273
 20
194.6968213009623
 30
0.0
 10
120.1518529064269
 20
192.0521027640498
 30
0.0
 10
120.2601320713693
 20
191.0360832920032
 30
0.0
 10
118.9835207166943
 20
191.0371660836263
 30
0.0
 10
118.9835207166943
 20
191.0371660836263
 30
0.0
  0
HATCH
  5
1BF
330
1B6
100
AcDbEntity
  8
Dowel 5
 62
   254
420
 16376262
100
AcDbHatch
 10
0.0
 20
0.0
 30
0.0
210
0.0
220
0.0
230
1.0
  2
SOLID
 70
     1
 71
     0
 91
        1
 92
        1
 93
        1
 72
     4
 94
        3
 73
     0
 74
     1
 95
       26
 96
       22
 40
0.0
 40
0.0
 40
0.0
 40
0.0
 40
1.0
 40
1.0
 40
1.0
 40
2.0
 40
2.0
 40
2.0
 40
3.0
 40
3.0
 40
3.0
 40
4.0
 40
4.0
 40
4.0
 40
5.0
 40
5.0
 40
5.0
 40
6.0
 40
6.0
 40
6.0
 40
7.0
 40
7.0
 40
7.0
 40
7.0
 10
118.9835207166943
 20
191.0371660836263
 10
118.9835207166943
 20
191.0371660836263
 10
108.1299781533926
 20
189.3821190892868
 10
108.1299781533926
 20
189.3821190892868
 10
107.6253972447594
 20
189.3050604188484
 10
107.153300085607
 20
189.6522755989936
 10
107.0762414132223
 20
190.1568564948811
 10
107.0762414132223
 20
190.1568564948811
 10
106.8133035076871
 20
191.8738030769473
 10
106.8133035076871
 20
191.8738030769473
 10
106.736425300579
 20
192.379286299185
 10
107.0827381631207
 20
192.8504811200582
 10
107.5884018634024
 20
192.9282616515784
 10
107.5884018634024
 20
192.9282616515784
 10
118.9929049109924
 20
194.6968213009623
 10
118.9929049109924
 20
194.6968213009623
 10
119.4890039517049
 20
194.4282960383844
 10
119.8699661470273
 20
194.6968213009623
 10
120.1518529064269
 20
192.0521027640498
 10
120.2601320713693
 20
191.0360832920032
 10
118.9835207166943
 20
191.0371660836263
 10
118.9835207166943
 20
191.0371660836263
 97
        0
 97
        0
 75
     2
 76
     1
 98
        0
  0
SPLINE
  5
1C0
330
1B6
100
AcDbEntity
  8
Dowel 5
  6
AI-Linetype-37
 62
   250
420
  2301728
370
    20
100
AcDbSpline
210
0.0
220
0.0
230
1.0
 70
    11
 71
     3
 72
    26
 73
    22
 74
     0
 42
0.0000000001
 43
0.0000000001
 12
1.0
 22
0.0
 32
0.0
 13
1.0
 23
0.0
 33
0.0
 40
0.0
 40
0.0
 40
0.0
 40
0.0
 40
1.0
 40
1.0
 40
1.0
 40
2.0
 40
2.0
 40
2.0
 40
3.0
 40
3.0
 40
3.0
 40
4.0
 40
4.0
 40
4.0
 40
5.0
 40
5.0
 40
5.0
 40
6.0
 40
6.0
 40
6.0
 40
7.0
 40
7.0
 40
7.0
 40
7.0
 10
118.9835207166943
 20
178.2625709916756
 30
0.0
 10
118.9835207166943
 20
178.2625709916756
 30
0.0
 10
108.1299781533926
 20
176.6073501415667
 30
0.0
 10
108.1299781533926
 20
176.6073501415667
 30
0.0
 10
107.6253972447594
 20
176.5302848616284
 30
0.0
 10
107.153300085607
 20
176.8776805070447
 30
0.0
 10
107.0762414132223
 20
177.3822614029305
 30
0.0
 10
107.0762414132223
 20
177.3822614029305
 30
0.0
 10
106.8133035076871
 20
179.0990275197273
 30
0.0
 10
106.8133035076871
 20
179.0990275197273
 30
0.0
 10
106.736425300579
 20
179.604510741965
 30
0.0
 10
107.0827381631207
 20
180.07589272523
 30
0.0
 10
107.5884018634024
 20
180.1536665596268
 30
0.0
 10
107.5884018634024
 20
180.1536665596268
 30
0.0
 10
118.9929049109924
 20
181.9222262090134
 30
0.0
 10
118.9929049109924
 20
181.9222262090134
 30
0.0
 10
119.4890039517049
 20
181.6536938867393
 30
0.0
 10
119.8699661470273
 20
181.9222262090134
 30
0.0
 10
120.1518529064269
 20
179.2775076720991
 30
0.0
 10
120.2601320713693
 20
178.2614882000544
 30
0.0
 10
118.9835207166943
 20
178.2625709916756
 30
0.0
 10
118.9835207166943
 20
178.2625709916756
 30
0.0
  0
HATCH
  5
1C2
330
1B6
100
AcDbEntity
  8
Dowel 5
 62
   254
420
 16376262
100
AcDbHatch
 10
0.0
 20
0.0
 30
0.0
210
0.0
220
0.0
230
1.0
  2
SOLID
 70
     1
 71
     0
 91
        1
 92
        1
 93
        1
 72
     4
 94
        3
 73
     0
 74
     1
 95
       26
 96
       22
 40
0.0
 40
0.0
 40
0.0
 40
0.0
 40
1.0
 40
1.0
 40
1.0
 40
2.0
 40
2.0
 40
2.0
 40
3.0
 40
3.0
 40
3.0
 40
4.0
 40
4.0
 40
4.0
 40
5.0
 40
5.0
 40
5.0
 40
6.0
 40
6.0
 40
6.0
 40
7.0
 40
7.0
 40
7.0
 40
7.0
 10
118.9835207166943
 20
178.2625709916756
 10
118.9835207166943
 20
178.2625709916756
 10
108.1299781533926
 20
176.6073501415667
 10
108.1299781533926
 20
176.6073501415667
 10
107.6253972447594
 20
176.5302848616284
 10
107.153300085607
 20
176.8776805070447
 10
107.0762414132223
 20
177.3822614029305
 10
107.0762414132223
 20
177.3822614029305
 10
106.8133035076871
 20
179.0990275197273
 10
106.8133035076871
 20
179.0990275197273
 10
106.736425300579
 20
179.604510741965
 10
107.0827381631207
 20
180.07589272523
 10
107.5884018634024
 20
180.1536665596268
 10
107.5884018634024
 20
180.1536665596268
 10
118.9929049109924
 20
181.9222262090134
 10
118.9929049109924
 20
181.9222262090134
 10
119.4890039517049
 20
181.6536938867393
 10
119.8699661470273
 20
181.9222262090134
 10
120.1518529064269
 20
179.2775076720991
 10
120.2601320713693
 20
178.2614882000544
 10
118.9835207166943
 20
178.2625709916756
 10
118.9835207166943
 20
178.2625709916756
 97
        0
 97
        0
 75
     2
 76
     1
 98
        0
  0
SPLINE
  5
1C3
330
1B6
100
AcDbEntity
  8
Dowel 5
  6
AI-Linetype-38
 62
   250
420
  2301728
370
    20
100
AcDbSpline
210
0.0
220
0.0
230
1.0
 70
    11
 71
     3
 72
    26
 73
    22
 74
     0
 42
0.0000000001
 43
0.0000000001
 12
1.0
 22
0.0
 32
0.0
 13
1.0
 23
0.0
 33
0.0
 40
0.0
 40
0.0
 40
0.0
 40
0.0
 40
1.0
 40
1.0
 40
1.0
 40
2.0
 40
2.0
 40
2.0
 40
3.0
 40
3.0
 40
3.0
 40
4.0
 40
4.0
 40
4.0
 40
5.0
 40
5.0
 40
5.0
 40
6.0
 40
6.0
 40
6.0
 40
7.0
 40
7.0
 40
7.0
 40
7.0
 10
118.9835207166943
 20
165.3916074453609
 30
0.0
 10
118.9835207166943
 20
165.3916074453609
 30
0.0
 10
108.1299781533926
 20
163.7363799857521
 30
0.0
 10
108.1299781533926
 20
163.7363799857521
 30
0.0
 10
107.6253972447594
 20
163.6593213153137
 30
0.0
 10
107.153300085607
 20
164.0065364954589
 30
0.0
 10
107.0762414132223
 20
164.5111173913447
 30
0.0
 10
107.0762414132223
 20
164.5111173913447
 30
0.0
 10
106.8133035076871
 20
166.2280639734126
 30
0.0
 10
106.8133035076871
 20
166.2280639734126
 30
0.0
 10
106.736425300579
 20
166.7335471956503
 30
0.0
 10
107.0827381631207
 20
167.2047420165218
 30
0.0
 10
107.5884018634024
 20
167.282522548041
 30
0.0
 10
107.5884018634024
 20
167.282522548041
 30
0.0
 10
118.9929049109924
 20
169.0512690813157
 30
0.0
 10
118.9929049109924
 20
169.0512690813157
 30
0.0
 10
119.4890039517049
 20
168.7825498751536
 30
0.0
 10
119.8699661470273
 20
169.0512690813157
 30
0.0
 10
120.1518529064269
 20
166.4063636605133
 30
0.0
 10
120.2601320713693
 20
165.3903441884686
 30
0.0
 10
118.9835207166943
 20
165.3916074453609
 30
0.0
 10
118.9835207166943
 20
165.3916074453609
 30
0.0
  0
HATCH
  5
1C5
330
1B6
100
AcDbEntity
  8
Dowel 5
 62
   254
420
 16376262
100
AcDbHatch
 10
0.0
 20
0.0
 30
0.0
210
0.0
220
0.0
230
1.0
  2
SOLID
 70
     1
 71
     0
 91
        1
 92
        1
 93
        1
 72
     4
 94
        3
 73
     0
 74
     1
 95
       26
 96
       22
 40
0.0
 40
0.0
 40
0.0
 40
0.0
 40
1.0
 40
1.0
 40
1.0
 40
2.0
 40
2.0
 40
2.0
 40
3.0
 40
3.0
 40
3.0
 40
4.0
 40
4.0
 40
4.0
 40
5.0
 40
5.0
 40
5.0
 40
6.0
 40
6.0
 40
6.0
 40
7.0
 40
7.0
 40
7.0
 40
7.0
 10
118.9835207166943
 20
165.3916074453609
 10
118.9835207166943
 20
165.3916074453609
 10
108.1299781533926
 20
163.7363799857521
 10
108.1299781533926
 20
163.7363799857521
 10
107.6253972447594
 20
163.6593213153137
 10
107.153300085607
 20
164.0065364954589
 10
107.0762414132223
 20
164.5111173913447
 10
107.0762414132223
 20
164.5111173913447
 10
106.8133035076871
 20
166.2280639734126
 10
106.8133035076871
 20
166.2280639734126
 10
106.736425300579
 20
166.7335471956503
 10
107.0827381631207
 20
167.2047420165218
 10
107.5884018634024
 20
167.282522548041
 10
107.5884018634024
 20
167.282522548041
 10
118.9929049109924
 20
169.0512690813157
 10
118.9929049109924
 20
169.0512690813157
 10
119.4890039517049
 20
168.7825498751536
 10
119.8699661470273
 20
169.0512690813157
 10
120.1518529064269
 20
166.4063636605133
 10
120.2601320713693
 20
165.3903441884686
 10
118.9835207166943
 20
165.3916074453609
 10
118.9835207166943
 20
165.3916074453609
 97
        0
 97
        0
 75
     2
 76
     1
 98
        0
  0
SPLINE
  5
1C6
330
1B6
100
AcDbEntity
  8
Dowel 5
  6
AI-Linetype-39
 62
   250
420
  2301728
370
    20
100
AcDbSpline
210
0.0
220
0.0
230
1.0
 70
    11
 71
     3
 72
    26
 73
    22
 74
     0
 42
0.0000000001
 43
0.0000000001
 12
1.0
 22
0.0
 32
0.0
 13
1.0
 23
0.0
 33
0.0
 40
0.0
 40
0.0
 40
0.0
 40
0.0
 40
1.0
 40
1.0
 40
1.0
 40
2.0
 40
2.0
 40
2.0
 40
3.0
 40
3.0
 40
3.0
 40
4.0
 40
4.0
 40
4.0
 40
5.0
 40
5.0
 40
5.0
 40
6.0
 40
6.0
 40
6.0
 40
7.0
 40
7.0
 40
7.0
 40
7.0
 10
118.6029194519215
 20
216.2198313034551
 30
0.0
 10
118.6029194519215
 20
216.2198313034551
 30
0.0
 10
107.9718905725749
 20
214.3949740538155
 30
0.0
 10
107.9718905725749
 20
214.3949740538155
 30
0.0
 10
107.467129198667
 20
214.3171859582017
 30
0.0
 10
106.9950320395164
 20
214.6644011383469
 30
0.0
 10
106.9183342976821
 20
215.1698843605845
 30
0.0
 10
106.9183342976821
 20
215.1698843605845
 30
0.0
 10
106.656118253245
 20
216.8864700121103
 30
0.0
 10
106.656118253245
 20
216.8864700121103
 30
0.0
 10
106.5790595808621
 20
217.391050907996
 30
0.0
 10
106.9255529086777
 20
217.8631480552212
 30
0.0
 10
107.43013381731
 20
217.940387190929
 30
0.0
 10
107.43013381731
 20
217.940387190929
 30
0.0
 10
120.2994735012981
 20
219.8127143707643
 30
0.0
 10
120.2994735012981
 20
219.8127143707643
 30
0.0
 10
120.6934291964171
 20
218.9148996507938
 30
0.0
 10
120.2184445928688
 20
218.023581680558
 30
0.0
 10
120.1801859545885
 20
217.5601468663099
 30
0.0
 10
120.0957282059317
 20
216.5417813457516
 30
0.0
 10
118.6029194519215
 20
216.2198313034551
 30
0.0
 10
118.6029194519215
 20
216.2198313034551
 30
0.0
  0
HATCH
  5
1C8
330
1B6
100
AcDbEntity
  8
Dowel 5
 62
   254
420
 16376262
100
AcDbHatch
 10
0.0
 20
0.0
 30
0.0
210
0.0
220
0.0
230
1.0
  2
SOLID
 70
     1
 71
     0
 91
        1
 92
        1
 93
        1
 72
     4
 94
        3
 73
     0
 74
     1
 95
       26
 96
       22
 40
0.0
 40
0.0
 40
0.0
 40
0.0
 40
1.0
 40
1.0
 40
1.0
 40
2.0
 40
2.0
 40
2.0
 40
3.0
 40
3.0
 40
3.0
 40
4.0
 40
4.0
 40
4.0
 40
5.0
 40
5.0
 40
5.0
 40
6.0
 40
6.0
 40
6.0
 40
7.0
 40
7.0
 40
7.0
 40
7.0
 10
118.6029194519215
 20
216.2198313034551
 10
118.6029194519215
 20
216.2198313034551
 10
107.9718905725749
 20
214.3949740538155
 10
107.9718905725749
 20
214.3949740538155
 10
107.467129198667
 20
214.3171859582017
 10
106.9950320395164
 20
214.6644011383469
 10
106.9183342976821
 20
215.1698843605845
 10
106.9183342976821
 20
215.1698843605845
 10
106.656118253245
 20
216.8864700121103
 10
106.656118253245
 20
216.8864700121103
 10
106.5790595808621
 20
217.391050907996
 10
106.9255529086777
 20
217.8631480552212
 10
107.43013381731
 20
217.940387190929
 10
107.43013381731
 20
217.940387190929
 10
120.2994735012981
 20
219.8127143707643
 10
120.2994735012981
 20
219.8127143707643
 10
120.6934291964171
 20
218.9148996507938
 10
120.2184445928688
 20
218.023581680558
 10
120.1801859545885
 20
217.5601468663099
 10
120.0957282059317
 20
216.5417813457516
 10
118.6029194519215
 20
216.2198313034551
 10
118.6029194519215
 20
216.2198313034551
 97
        0
 97
        0
 75
     2
 76
     1
 98
        0
  0
ENDBLK
  5
1B9
330
1B6
100
AcDbEntity
  8
0
100
AcDbBlockEnd
  0
BLOCK
  5
1D1
330
1CF
100
AcDbEntity
  8
0
100
AcDbBlockBegin
  2
block 10
 70
     0
 10
0.0
 20
0.0
 30
0.0
  3
block 10
  1

  0
POLYLINE
  5
1D3
330
1CF
100
AcDbEntity
  8
Name
 62
   250
420
  2301728
370
    25
100
AcDb2dPolyline
 66
     1
 10
0.0
 20
0.0
 30
0.0
  0
VERTEX
  5
1D4
330
1D3
100
AcDbEntity
  8
Name
 62
   250
420
  2301728
370
    25
100
AcDbVertex
100
AcDb2dVertex
 10
133.2896091874627
 20
225.106845238106
 30
0.0
  0
VERTEX
  5
1D5
330
1D3
100
AcDbEntity
  8
Name
 62
   250
420
  2301728
370
    25
100
AcDbVertex
100
AcDb2dVertex
 10
166.4585547117986
 20
257.5274445757059
 30
0.0
  0
VERTEX
  5
1D6
330
1D3
100
AcDbEntity
  8
Name
 62
   250
420
  2301728
370
    25
100
AcDbVertex
100
AcDb2dVertex
 10
181.4517543330385
 20
257.5274445757041
 30
0.0
  0
SEQEND
  5
1D7
330
1D3
100
AcDbEntity
  8
Name
 62
   250
420
  2301728
370
    25
  0
POLYLINE
  5
1D8
330
1CF
100
AcDbEntity
  8
Name
370
     0
100
AcDb2dPolyline
 66
     1
 10
0.0
 20
0.0
 30
0.0
  0
VERTEX
  5
1D9
330
1D8
100
AcDbEntity
  8
Name
370
     0
100
AcDbVertex
100
AcDb2dVertex
 10
133.3423555483823
 20
229.6143891371121
 30
0.0
  0
VERTEX
  5
1DA
330
1D8
100
AcDbEntity
  8
Name
370
     0
100
AcDbVertex
100
AcDb2dVertex
 10
137.6304054400571
 20
225.3260892454437
 30
0.0
  0
VERTEX
  5
1DB
330
1D8
100
AcDbEntity
  8
Name
370
     0
100
AcDbVertex
100
AcDb2dVertex
 10
129.4566091874603
 20
221.2269393489969
 30
0.0
  0
VERTEX
  5
1DC
330
1D8
100
AcDbEntity
  8
Name
370
     0
100
AcDbVertex
100
AcDb2dVertex
 10
133.3423555483823
 20
229.6143891371121
 30
0.0
  0
SEQEND
  5
1DE
330
1D8
100
AcDbEntity
  8
Name
370
     0
  0
HATCH
  5
1DD
330
1CF
100
AcDbEntity
  8
Name
 62
   250
420
  2301728
100
AcDbHatch
 10
0.0
 20
0.0
 30
0.0
210
0.0
220
0.0
230
1.0
  2
SOLID
 70
     1
 71
     0
 91
        1
 92
        1
 93
        3
 72
     1
 10
133.3423555483823
 20
229.6143891371121
 11
137.6304054400571
 21
225.3260892454437
 72
     1
 10
137.6304054400571
 20
225.3260892454437
 11
129.4566091874603
 21
221.2269393489969
 72
     1
 10
129.4566091874603
 20
221.2269393489969
 11
133.3423555483823
 21
229.6143891371121
 97
        0
 75
     2
 76
     1
 98
        0
  0
ENDBLK
  5
1D2
330
1CF
100
AcDbEntity
  8
0
100
AcDbBlockEnd
  0
BLOCK
  5
1E1
330
1DF
100
AcDbEntity
  8
0
100
AcDbBlockBegin
  2
block 11
 70
     0
 10
0.0
 20
0.0
 30
0.0
  3
block 11
  1

  0
POLYLINE
  5
1E3
330
1DF
100
AcDbEntity
  8
Name
 62
   250
420
  2301728
370
    25
100
AcDb2dPolyline
 66
     1
 10
0.0
 20
0.0
 30
0.0
  0
VERTEX
  5
1E4
330
1E3
100
AcDbEntity
  8
Name
 62
   250
420
  2301728
370
    25
100
AcDbVertex
100
AcDb2dVertex
 10
133.8619291808682
 20
253.0199006766998
 30
0.0
  0
VERTEX
  5
1E5
330
1E3
100
AcDbEntity
  8
Name
 62
   250
420
  2301728
370
    25
100
AcDbVertex
100
AcDb2dVertex
 10
159.5342748945841
 20
277.7640440644864
 30
0.0
  0
SEQEND
  5
1E6
330
1E3
100
AcDbEntity
  8
Name
 62
   250
420
  2301728
370
    25
  0
POLYLINE
  5
1E7
330
1DF
100
AcDbEntity
  8
Name
370
     0
100
AcDb2dPolyline
 66
     1
 10
0.0
 20
0.0
 30
0.0
  0
VERTEX
  5
1E8
330
1E7
100
AcDbEntity
  8
Name
370
     0
100
AcDbVertex
100
AcDb2dVertex
 10
133.9146755417878
 20
257.5274445757059
 30
0.0
  0
VERTEX
  5
1E9
330
1E7
100
AcDbEntity
  8
Name
370
     0
100
AcDbVertex
100
AcDb2dVertex
 10
138.2027254334625
 20
253.2391446840375
 30
0.0
  0
VERTEX
  5
1EA
330
1E7
100
AcDbEntity
  8
Name
370
     0
100
AcDbVertex
100
AcDb2dVertex
 10
130.0289291808658
 20
249.1399947875907
 30
0.0
  0
VERTEX
  5
1EB
330
1E7
100
AcDbEntity
  8
Name
370
     0
100
AcDbVertex
100
AcDb2dVertex
 10
133.9146755417878
 20
257.5274445757059
 30
0.0
  0
SEQEND
  5
1ED
330
1E7
100
AcDbEntity
  8
Name
370
     0
  0
HATCH
  5
1EC
330
1DF
100
AcDbEntity
  8
Name
 62
   250
420
  2301728
100
AcDbHatch
 10
0.0
 20
0.0
 30
0.0
210
0.0
220
0.0
230
1.0
  2
SOLID
 70
     1
 71
     0
 91
        1
 92
        1
 93
        3
 72
     1
 10
133.9146755417878
 20
257.5274445757059
 11
138.2027254334625
 21
253.2391446840375
 72
     1
 10
138.2027254334625
 20
253.2391446840375
 11
130.0289291808658
 21
249.1399947875907
 72
     1
 10
130.0289291808658
 20
249.1399947875907
 11
133.9146755417878
 21
257.5274445757059
 97
        0
 75
     2
 76
     1
 98
        0
  0
ENDBLK
  5
1E2
330
1DF
100
AcDbEntity
  8
0
100
AcDbBlockEnd
  0
BLOCK
  5
1F1
330
1EF
100
AcDbEntity
  8
0
100
AcDbBlockBegin
  2
block 12
 70
     0
 10
0.0
 20
0.0
 30
0.0
  3
block 12
  1

  0
POLYLINE
  5
1F3
330
1EF
100
AcDbEntity
  8
Name
 62
   250
420
  2301728
370
    25
100
AcDb2dPolyline
 66
     1
 10
0.0
 20
0.0
 30
0.0
  0
VERTEX
  5
1F4
330
1F3
100
AcDbEntity
  8
Name
 62
   250
420
  2301728
370
    25
100
AcDbVertex
100
AcDb2dVertex
 10
36.46461894882032
 20
212.7589046158473
 30
0.0
  0
VERTEX
  5
1F5
330
1F3
100
AcDbEntity
  8
Name
 62
   250
420
  2301728
370
    25
100
AcDbVertex
100
AcDb2dVertex
 10
16.86648004189556
 20
200.0187421234532
 30
0.0
  0
SEQEND
  5
1F6
330
1F3
100
AcDbEntity
  8
Name
 62
   250
420
  2301728
370
    25
  0
POLYLINE
  5
1F7
330
1EF
100
AcDbEntity
  8
Name
370
     0
100
AcDb2dPolyline
 66
     1
 10
0.0
 20
0.0
 30
0.0
  0
VERTEX
  5
1F8
330
1F7
100
AcDbEntity
  8
Name
370
     0
100
AcDbVertex
100
AcDb2dVertex
 10
35.55903624070015
 20
208.3429501166693
 30
0.0
  0
VERTEX
  5
1F9
330
1F7
100
AcDbEntity
  8
Name
370
     0
100
AcDbVertex
100
AcDb2dVertex
 10
32.16087478110876
 20
213.3658363914046
 30
0.0
  0
VERTEX
  5
1FA
330
1F7
100
AcDbEntity
  8
Name
370
     0
100
AcDbVertex
100
AcDb2dVertex
 10
40.9631393458767
 20
215.8425506632448
 30
0.0
  0
VERTEX
  5
1FB
330
1F7
100
AcDbEntity
  8
Name
370
     0
100
AcDbVertex
100
AcDb2dVertex
 10
35.55903624070015
 20
208.3429501166693
 30
0.0
  0
SEQEND
  5
1FD
330
1F7
100
AcDbEntity
  8
Name
370
     0
  0
HATCH
  5
1FC
330
1EF
100
AcDbEntity
  8
Name
 62
   250
420
  2301728
100
AcDbHatch
 10
0.0
 20
0.0
 30
0.0
210
0.0
220
0.0
230
1.0
  2
SOLID
 70
     1
 71
     0
 91
        1
 92
        1
 93
        3
 72
     1
 10
35.55903624070015
 20
208.3429501166693
 11
32.16087478110876
 21
213.3658363914046
 72
     1
 10
32.16087478110876
 20
213.3658363914046
 11
40.9631393458767
 21
215.8425506632448
 72
     1
 10
40.9631393458767
 20
215.8425506632448
 11
35.55903624070015
 21
208.3429501166693
 97
        0
 75
     2
 76
     1
 98
        0
  0
ENDBLK
  5
1F2
330
1EF
100
AcDbEntity
  8
0
100
AcDbBlockEnd
  0
ENDSEC
  0
SECTION
  2
ENTITIES
  0
POLYLINE
  5
41
330
1F
100
AcDbEntity
  8
Wood
 62
   250
420
  2301728
370
    40
100
AcDb2dPolyline
 66
     1
 10
0.0
 20
0.0
 30
0.0
  0
VERTEX
  5
42
330
41
100
AcDbEntity
  8
Wood
 62
   250
420
  2301728
370
    40
100
AcDbVertex
100
AcDb2dVertex
 10
42.5377084060583
 20
111.5931057026501
 30
0.0
  0
VERTEX
  5
43
330
41
100
AcDbEntity
  8
Wood
 62
   250
420
  2301728
370
    40
100
AcDbVertex
100
AcDb2dVertex
 10
42.09677419354921
 20
261.8396700041794
 30
0.0
  0
VERTEX
  5
44
330
41
100
AcDbEntity
  8
Wood
 62
   250
420
  2301728
370
    40
100
AcDbVertex
100
AcDb2dVertex
 10
84.14622028433405
 20
266.4064850778759
 30
0.0
  0
VERTEX
  5
45
330
41
100
AcDbEntity
  8
Wood
 62
   250
420
  2301728
370
    40
100
AcDbVertex
100
AcDb2dVertex
 10
122.5381452364891
 20
251.6987620575774
 30
0.0
  0
VERTEX
  5
46
330
41
100
AcDbEntity
  8
Wood
 62
   250
420
  2301728
370
    40
100
AcDbVertex
100
AcDb2dVertex
 10
122.5381452364891
 20
251.6987620575774
 30
0.0
  0
VERTEX
  5
47
330
41
100
AcDbEntity
  8
Wood
 62
   250
420
  2301728
370
    40
100
AcDbVertex
100
AcDb2dVertex
 10
204.6868340839865
 20
221.8021635110526
 30
0.0
  0
VERTEX
  5
48
330
41
100
AcDbEntity
  8
Wood
 62
   250
420
  2301728
370
    40
100
AcDbVertex
100
AcDb2dVertex
 10
204.6868340839865
 20
125.5650878633423
 30
0.0
  0
VERTEX
  5
49
330
41
100
AcDbEntity
  8
Wood
 62
   250
420
  2301728
370
    40
100
AcDbVertex
100
AcDb2dVertex
 10
163.6327897330775
 20
111.0468373293152
 30
0.0
  0
VERTEX
  5
4A
330
41
100
AcDbEntity
  8
Wood
 62
   250
420
  2301728
370
    40
100
AcDbVertex
100
AcDb2dVertex
 10
122.5381452364891
 20
131.9062765327453
 30
0.0
  0
VERTEX
  5
4B
330
41
100
AcDbEntity
  8
Wood
 62
   250
420
  2301728
370
    40
100
AcDbVertex
100
AcDb2dVertex
 10
122.5381452364891
 20
96.68541111521517
 30
0.0
  0
VERTEX
  5
4C
330
41
100
AcDbEntity
  8
Wood
 62
   250
420
  2301728
370
    40
100
AcDbVertex
100
AcDb2dVertex
 10
80.41339937246084
 20
85.47094259260302
 30
0.0
  0
VERTEX
  5
4D
330
41
100
AcDbEntity
  8
Wood
 62
   250
420
  2301728
370
    40
100
AcDbVertex
100
AcDb2dVertex
 10
42.5377084060583
 20
111.5931057026501
 30
0.0
  0
SEQEND
  5
4F
330
41
100
AcDbEntity
  8
Wood
 62
   250
420
  2301728
370
    40
  0
HATCH
  5
4E
330
1F
100
AcDbEntity
  8
Wood
 62
    43
420
 15510108
100
AcDbHatch
 10
0.0
 20
0.0
 30
0.0
210
0.0
220
0.0
230
1.0
  2
SOLID
 70
     1
 71
     0
 91
        1
 92
        1
 93
       10
 72
     1
 10
42.5377084060583
 20
111.5931057026501
 11
42.09677419354921
 21
261.8396700041794
 72
     1
 10
42.09677419354921
 20
261.8396700041794
 11
84.14622028433405
 21
266.4064850778759
 72
     1
 10
84.14622028433405
 20
266.4064850778759
 11
122.5381452364891
 21
251.6987620575774
 72
     1
 10
122.5381452364891
 20
251.6987620575774
 11
204.6868340839865
 21
221.8021635110526
 72
     1
 10
204.6868340839865
 20
221.8021635110526
 11
204.6868340839865
 21
125.5650878633423
 72
     1
 10
204.6868340839865
 20
125.5650878633423
 11
163.6327897330775
 21
111.0468373293152
 72
     1
 10
163.6327897330775
 20
111.0468373293152
 11
122.5381452364891
 21
131.9062765327453
 72
     1
 10
122.5381452364891
 20
131.9062765327453
 11
122.5381452364891
 21
96.68541111521517
 72
     1
 10
122.5381452364891
 20
96.68541111521517
 11
80.41339937246084
 21
85.47094259260302
 72
     1
 10
80.41339937246084
 20
85.47094259260302
 11
42.5377084060583
 21
111.5931057026501
 97
        0
 75
     2
 76
     1
 98
        0
  0
POLYLINE
  5
50
330
1F
100
AcDbEntity
  8
Wood
 62
   250
420
  2301728
370
    25
100
AcDb2dPolyline
 66
     1
 10
0.0
 20
0.0
 30
0.0
  0
VERTEX
  5
51
330
50
100
AcDbEntity
  8
Wood
 62
   250
420
  2301728
370
    25
100
AcDbVertex
100
AcDb2dVertex
 10
122.5381452364891
 20
131.9062765327453
 30
0.0
  0
VERTEX
  5
52
330
50
100
AcDbEntity
  8
Wood
 62
   250
420
  2301728
370
    25
100
AcDbVertex
100
AcDb2dVertex
 10
80.5906162724159
 20
153.1988323850064
 30
0.0
  0
SEQEND
  5
53
330
50
100
AcDbEntity
  8
Wood
 62
   250
420
  2301728
370
    25
  0
POLYLINE
  5
54
330
1F
100
AcDbEntity
  8
Wood
 62
   250
420
  2301728
370
    25
100
AcDb2dPolyline
 66
     1
 10
0.0
 20
0.0
 30
0.0
  0
VERTEX
  5
55
330
54
100
AcDbEntity
  8
Wood
 62
   250
420
  2301728
370
    25
100
AcDbVertex
100
AcDb2dVertex
 10
42.09677419354921
 20
261.8396700041794
 30
0.0
  0
VERTEX
  5
56
330
54
100
AcDbEntity
  8
Wood
 62
   250
420
  2301728
370
    25
100
AcDbVertex
100
AcDb2dVertex
 10
80.62833351487188
 20
245.6318805991014
 30
0.0
  0
VERTEX
  5
57
330
54
100
AcDbEntity
  8
Wood
 62
   250
420
  2301728
370
    25
100
AcDbVertex
100
AcDb2dVertex
 10
122.2376705537754
 20
251.4700097590776
 30
0.0
  0
SEQEND
  5
58
330
54
100
AcDbEntity
  8
Wood
 62
   250
420
  2301728
370
    25
  0
POLYLINE
  5
59
330
1F
100
AcDbEntity
  8
Wood
 62
   250
420
  2301728
370
    25
100
AcDb2dPolyline
 66
     1
 10
0.0
 20
0.0
 30
0.0
  0
VERTEX
  5
5A
330
59
100
AcDbEntity
  8
Wood
 62
   250
420
  2301728
370
    25
100
AcDbVertex
100
AcDb2dVertex
 10
80.62833351487188
 20
245.6318805991014
 30
0.0
  0
VERTEX
  5
5B
330
59
100
AcDbEntity
  8
Wood
 62
   250
420
  2301728
370
    25
100
AcDbVertex
100
AcDb2dVertex
 10
80.41339937246084
 20
85.47094259260302
 30
0.0
  0
SEQEND
  5
5C
330
59
100
AcDbEntity
  8
Wood
 62
   250
420
  2301728
370
    25
  0
POLYLINE
  5
5D
330
1F
100
AcDbEntity
  8
Wood
 62
   250
420
  2301728
370
    25
100
AcDb2dPolyline
 66
     1
 10
0.0
 20
0.0
 30
0.0
  0
VERTEX
  5
5E
330
5D
100
AcDbEntity
  8
Wood
 62
   250
420
  2301728
370
    25
100
AcDbVertex
100
AcDb2dVertex
 10
163.6327897330775
 20
208.8534194332187
 30
0.0
  0
VERTEX
  5
5F
330
5D
100
AcDbEntity
  8
Wood
 62
   250
420
  2301728
370
    25
100
AcDbVertex
100
AcDb2dVertex
 10
163.6327897330775
 20
111.0468373293152
 30
0.0
  0
SEQEND
  5
60
330
5D
100
AcDbEntity
  8
Wood
 62
   250
420
  2301728
370
    25
  0
SPLINE
  5
61
330
1F
100
AcDbEntity
  8
Wood
 62
   250
420
  2301728
370
    15
100
AcDbSpline
210
0.0
220
0.0
230
1.0
 70
     8
 71
     3
 72
    17
 73
    13
 74
     0
 42
0.0000000001
 43
0.0000000001
 12
1.0
 22
0.0
 32
0.0
 13
1.0
 23
0.0
 33
0.0
 40
0.0
 40
0.0
 40
0.0
 40
0.0
 40
1.0
 40
1.0
 40
1.0
 40
2.0
 40
2.0
 40
2.0
 40
3.0
 40
3.0
 40
3.0
 40
4.0
 40
4.0
 40
4.0
 40
4.0
 10
198.6917778031057
 20
219.355776306249
 30
0.0
 10
198.6917778031057
 20
217.0999604269291
 30
0.0
 10
198.4411115425974
 20
208.8055961365772
 30
0.0
 10
198.8922747184588
 20
204.7451275538024
 30
0.0
 10
199.3434378943239
 20
200.6846589710276
 30
0.0
 10
200.6969274219155
 20
186.4730189313159
 30
0.0
 10
200.4713458339829
 20
182.6381319364737
 30
0.0
 10
200.2457642460504
 20
178.8032449416314
 30
0.0
 10
198.2155299546648
 20
166.170676017442
 30
0.0
 10
199.1178563063913
 20
161.2078810829407
 30
0.0
 10
200.0201826581178
 20
156.2450861484376
 30
0.0
 10
199.3593188381128
 20
131.0214553122414
 30
0.0
 10
204.6868340839865
 20
128.3707868123474
 30
0.0
  0
SPLINE
  5
62
330
1F
100
AcDbEntity
  8
Wood
 62
   250
420
  2301728
370
    15
100
AcDbSpline
210
0.0
220
0.0
230
1.0
 70
     8
 71
     3
 72
    20
 73
    16
 74
     0
 42
0.0000000001
 43
0.0000000001
 12
1.0
 22
0.0
 32
0.0
 13
1.0
 23
0.0
 33
0.0
 40
0.0
 40
0.0
 40
0.0
 40
0.0
 40
1.0
 40
1.0
 40
1.0
 40
2.0
 40
2.0
 40
2.0
 40
3.0
 40
3.0
 40
3.0
 40
4.0
 40
4.0
 40
4.0
 40
5.0
 40
5.0
 40
5.0
 40
5.0
 10
192.8125802257891
 20
217.62746041215
 30
0.0
 10
192.5869986378566
 20
214.0181550052384
 30
0.0
 10
191.6736639046394
 20
203.3916380262108
 30
0.0
 10
192.8015718442985
 20
200.2334957951643
 30
0.0
 10
193.9294797839575
 20
197.0753535641179
 30
0.0
 10
195.2829693115491
 20
187.1497636951117
 30
0.0
 10
195.2829693115491
 20
184.668366227861
 30
0.0
 10
195.2829693115491
 20
182.1869687606104
 30
0.0
 10
195.5085508994816
 20
172.0357973036735
 30
0.0
 10
194.6062245477515
 20
168.4264918967619
 30
0.0
 10
193.703898196025
 20
164.8171864898504
 30
0.0
 10
192.3504086684334
 20
153.3125255053219
 30
0.0
 10
193.2527350201599
 20
150.6055464501387
 30
0.0
 10
194.15506137189
 20
147.8976650686036
 30
0.0
 10
197.6956095107998
 20
124.3664375377084
 30
0.0
 10
197.4700279228673
 20
123.0129480101168
 30
0.0
  0
SPLINE
  5
63
330
1F
100
AcDbEntity
  8
Wood
 62
   250
420
  2301728
370
    15
100
AcDbSpline
210
0.0
220
0.0
230
1.0
 70
     8
 71
     3
 72
    23
 73
    19
 74
     0
 42
0.0000000001
 43
0.0000000001
 12
1.0
 22
0.0
 32
0.0
 13
1.0
 23
0.0
 33
0.0
 40
0.0
 40
0.0
 40
0.0
 40
0.0
 40
1.0
 40
1.0
 40
1.0
 40
2.0
 40
2.0
 40
2.0
 40
3.0
 40
3.0
 40
3.0
 40
4.0
 40
4.0
 40
4.0
 40
5.0
 40
5.0
 40
5.0
 40
6.0
 40
6.0
 40
6.0
 40
6.0
 10
184.0952053417459
 20
215.0646731079723
 30
0.0
 10
183.8696237538134
 20
213.2600204045184
 30
0.0
 10
184.6806346787489
 20
202.2637300865517
 30
0.0
 10
185.1317978546103
 20
199.5567510313685
 30
0.0
 10
185.5829610304754
 20
196.8497719761854
 30
0.0
 10
186.7108689701345
 20
188.7288348106358
 30
0.0
 10
187.8387769097935
 20
185.5706925795894
 30
0.0
 10
188.9666848494562
 20
182.4125503485411
 30
0.0
 10
191.2225007287743
 20
171.5846341278084
 30
0.0
 10
190.7713375529092
 20
169.3288182484903
 30
0.0
 10
190.3201743770478
 20
167.0730023691704
 30
0.0
 10
186.0341242063405
 20
153.0869439173912
 30
0.0
 10
186.7108689701345
 20
151.0567096260038
 30
0.0
 10
187.3876137339321
 20
149.0255730082636
 30
0.0
 10
191.2225007287743
 20
136.1674224961444
 30
0.0
 10
190.9969191408418
 20
132.3325355013003
 30
0.0
 10
190.8058064195466
 20
129.0837997045401
 30
0.0
 10
191.5273065703877
 20
123.6546825114656
 30
0.0
 10
190.9294251297324
 20
120.699563709557
 30
0.0
  0
SPLINE
  5
64
330
1F
100
AcDbEntity
  8
Wood
 62
   250
420
  2301728
370
    15
100
AcDbSpline
210
0.0
220
0.0
230
1.0
 70
     8
 71
     3
 72
    23
 73
    19
 74
     0
 42
0.0000000001
 43
0.0000000001
 12
1.0
 22
0.0
 32
0.0
 13
1.0
 23
0.0
 33
0.0
 40
0.0
 40
0.0
 40
0.0
 40
0.0
 40
1.0
 40
1.0
 40
1.0
 40
2.0
 40
2.0
 40
2.0
 40
3.0
 40
3.0
 40
3.0
 40
4.0
 40
4.0
 40
4.0
 40
5.0
 40
5.0
 40
5.0
 40
6.0
 40
6.0
 40
6.0
 40
6.0
 10
177.0936942481494
 20
213.0064666996823
 30
0.0
 10
176.8681126602205
 20
210.2994876444991
 30
0.0
 10
179.4922581563151
 20
196.6241903882528
 30
0.0
 10
180.3945845080416
 20
194.1427929210022
 30
0.0
 10
181.2969108597681
 20
191.6613954537515
 30
0.0
 10
183.1015635632248
 20
181.5102239968146
 30
0.0
 10
183.7783083270187
 20
177.6753370019705
 30
0.0
 10
184.4550530908164
 20
173.8404500071283
 30
0.0
 10
184.6806346787489
 20
170.4567261881493
 30
0.0
 10
183.7783083270187
 20
166.8474207812378
 30
0.0
 10
182.8759819752922
 20
163.2381153743281
 30
0.0
 10
180.1690029201091
 20
154.6660150329144
 30
0.0
 10
180.3945845080416
 20
152.4101991535954
 30
0.0
 10
180.6201660959741
 20
150.1534809479244
 30
0.0
 10
180.6201660959741
 20
141.8069621944414
 30
0.0
 10
181.9736556235657
 20
138.8744015513275
 30
0.0
 10
183.3271451511573
 20
135.9418409082118
 30
0.0
 10
185.9191678291281
 20
121.5416146609896
 30
0.0
 10
185.0168414774016
 20
118.6090540178739
 30
0.0
  0
SPLINE
  5
65
330
1F
100
AcDbEntity
  8
Wood
 62
   250
420
  2301728
370
    15
100
AcDbSpline
210
0.0
220
0.0
230
1.0
 70
     8
 71
     3
 72
    23
 73
    19
 74
     0
 42
0.0000000001
 43
0.0000000001
 12
1.0
 22
0.0
 32
0.0
 13
1.0
 23
0.0
 33
0.0
 40
0.0
 40
0.0
 40
0.0
 40
0.0
 40
1.0
 40
1.0
 40
1.0
 40
2.0
 40
2.0
 40
2.0
 40
3.0
 40
3.0
 40
3.0
 40
4.0
 40
4.0
 40
4.0
 40
5.0
 40
5.0
 40
5.0
 40
6.0
 40
6.0
 40
6.0
 40
6.0
 10
168.2290597035062
 20
210.2760271593543
 30
0.0
 10
169.3567871778978
 20
206.8923033403753
 30
0.0
 10
172.950392106286
 20
196.6241903882528
 30
0.0
 10
173.4015552821511
 20
193.4660481572064
 30
0.0
 10
173.8527184580162
 20
190.3079059261599
 30
0.0
 10
176.1085343373343
 20
183.7660398761327
 30
0.0
 10
176.5596975131994
 20
179.4799897054272
 30
0.0
 10
177.0108606890608
 20
175.1939395347199
 30
0.0
 10
176.3341159252668
 20
167.7497471329661
 30
0.0
 10
175.8829527494017
 20
164.5916049019197
 30
0.0
 10
175.4317895735403
 20
161.4334626708714
 30
0.0
 10
171.822484166627
 20
151.9590359777303
 30
0.0
 10
172.0480657545595
 20
147.4465018927403
 30
0.0
 10
172.273647342492
 20
142.9348701341023
 30
0.0
 10
176.7852791011319
 20
135.0395145564826
 30
0.0
 10
177.2364422769933
 20
133.0092802650961
 30
0.0
 10
177.6876054528584
 20
130.9790459737087
 30
0.0
 10
178.7619152072257
 20
121.0406430705098
 30
0.0
 10
177.8595888554992
 20
116.0778481360067
 30
0.0
  0
SPLINE
  5
66
330
1F
100
AcDbEntity
  8
Wood
 62
   250
420
  2301728
370
    15
100
AcDbSpline
210
0.0
220
0.0
230
1.0
 70
     8
 71
     3
 72
    11
 73
     7
 74
     0
 42
0.0000000001
 43
0.0000000001
 12
1.0
 22
0.0
 32
0.0
 13
1.0
 23
0.0
 33
0.0
 40
0.0
 40
0.0
 40
0.0
 40
0.0
 40
1.0
 40
1.0
 40
1.0
 40
2.0
 40
2.0
 40
2.0
 40
2.0
 10
163.92712858901
 20
185.3451109916568
 30
0.0
 10
165.055036528669
 20
181.2846424088821
 30
0.0
 10
166.8596892321257
 20
171.1334709519451
 30
0.0
 10
167.0852708200582
 20
165.9450944295113
 30
0.0
 10
167.3108524079908
 20
160.7567179070757
 30
0.0
 10
165.9573628803992
 20
149.0255730082636
 30
0.0
 10
163.92712858901
 20
143.8371964858288
 30
0.0
  0
SPLINE
  5
67
330
1F
100
AcDbEntity
  8
Wood
 62
   250
420
  2301728
370
    15
100
AcDbSpline
210
0.0
220
0.0
230
1.0
 70
     8
 71
     3
 72
     8
 73
     4
 74
     0
 42
0.0000000001
 43
0.0000000001
 12
1.0
 22
0.0
 32
0.0
 13
1.0
 23
0.0
 33
0.0
 40
0.0
 40
0.0
 40
0.0
 40
0.0
 40
1.0
 40
1.0
 40
1.0
 40
1.0
 10
163.92712858901
 20
125.5650878633423
 30
0.0
 10
165.445563373698
 20
122.5280378286971
 30
0.0
 10
168.3528588789632
 20
117.8379259176872
 30
0.0
 10
168.9678845203016
 20
113.2015926572403
 30
0.0
  0
SPLINE
  5
68
330
1F
100
AcDbEntity
  8
Wood
 62
   250
420
  2301728
370
    15
100
AcDbSpline
210
0.0
220
0.0
230
1.0
 70
     8
 71
     3
 72
    17
 73
    13
 74
     0
 42
0.0000000001
 43
0.0000000001
 12
1.0
 22
0.0
 32
0.0
 13
1.0
 23
0.0
 33
0.0
 40
0.0
 40
0.0
 40
0.0
 40
0.0
 40
1.0
 40
1.0
 40
1.0
 40
2.0
 40
2.0
 40
2.0
 40
3.0
 40
3.0
 40
3.0
 40
4.0
 40
4.0
 40
4.0
 40
4.0
 10
82.42612858347002
 20
265.3489976513183
 30
0.0
 10
83.77961814525315
 20
263.5443449478626
 30
0.0
 10
85.58427089429824
 20
262.3036462142372
 30
0.0
 10
87.84008683060438
 20
261.8524830383731
 30
0.0
 10
90.09590276691051
 20
261.4013198625098
 30
0.0
 10
97.08893216945853
 20
256.8222487469857
 30
0.0
 10
99.57032969939519
 20
255.807131601292
 30
0.0
 10
102.0517272293318
 20
254.7920144555983
 30
0.0
 10
107.1273130860209
 20
253.7768973099046
 30
0.0
 10
108.029639460543
 20
252.7617801642109
 30
0.0
 10
108.9319658350651
 20
251.7466630185172
 30
0.0
 10
111.4133633650017
 20
251.1827090486877
 30
0.0
 10
112.7668529267867
 20
250.5059642848919
 30
0.0
  0
SPLINE
  5
69
330
1F
100
AcDbEntity
  8
Wood
 62
   250
420
  2301728
370
    15
100
AcDbSpline
210
0.0
220
0.0
230
1.0
 70
     8
 71
     3
 72
    17
 73
    13
 74
     0
 42
0.0000000001
 43
0.0000000001
 12
1.0
 22
0.0
 32
0.0
 13
1.0
 23
0.0
 33
0.0
 40
0.0
 40
0.0
 40
0.0
 40
0.0
 40
1.0
 40
1.0
 40
1.0
 40
2.0
 40
2.0
 40
2.0
 40
3.0
 40
3.0
 40
3.0
 40
4.0
 40
4.0
 40
4.0
 40
4.0
 10
75.6806975380905
 20
264.5636127947746
 30
0.0
 10
76.6958147094283
 20
263.3229244780441
 30
0.0
 10
77.23775192996618
 20
261.6269014504414
 30
0.0
 10
78.92961388219555
 20
260.9501566866456
 30
0.0
 10
80.62147583442493
 20
260.2734119228498
 30
0.0
 10
86.26101567518981
 20
258.9199223952583
 30
0.0
 10
88.74241320512647
 20
258.3559684254287
 30
0.0
 10
91.22381073506313
 20
257.7920144555983
 30
0.0
 10
96.18660579493644
 20
257.2280604857688
 30
0.0
 10
97.6528861535362
 20
256.1001525461088
 30
0.0
 10
99.11916651213414
 20
254.9722446064497
 30
0.0
 10
103.6562439885083
 20
251.5645735607386
 30
0.0
 10
104.2871505895737
 20
249.0696411982117
 30
0.0
  0
SPLINE
  5
6A
330
1F
100
AcDbEntity
  8
Wood
 62
   250
420
  2301728
370
    15
100
AcDbSpline
210
0.0
220
0.0
230
1.0
 70
     8
 71
     3
 72
    17
 73
    13
 74
     0
 42
0.0000000001
 43
0.0000000001
 12
1.0
 22
0.0
 32
0.0
 13
1.0
 23
0.0
 33
0.0
 40
0.0
 40
0.0
 40
0.0
 40
0.0
 40
1.0
 40
1.0
 40
1.0
 40
2.0
 40
2.0
 40
2.0
 40
3.0
 40
3.0
 40
3.0
 40
4.0
 40
4.0
 40
4.0
 40
4.0
 10
68.9132497291721
 20
263.6773478521072
 30
0.0
 10
70.60511168140147
 20
261.5343227667554
 30
0.0
 10
72.6133292605382
 20
259.4838763650878
 30
0.0
 10
73.96681882232224
 20
259.0327131892245
 30
0.0
 10
75.32030838410537
 20
258.5815500133604
 30
0.0
 10
83.10287336436159
 20
257.340851279735
 30
0.0
 10
83.55403655162263
 20
257.1152696918034
 30
0.0
 10
84.00519973888368
 20
256.8896881038709
 30
0.0
 10
89.41915798601804
 20
252.423407782313
 30
0.0
 10
91.11101993824832
 20
251.0699182547214
 30
0.0
 10
92.80288189047769
 20
249.7164287271298
 30
0.0
 10
95.71505003161019
 20
248.8859275530003
 30
0.0
 10
96.16621321887123
 20
247.983601201272
 30
0.0
  0
SPLINE
  5
6B
330
1F
100
AcDbEntity
  8
Wood
 62
   250
420
  2301728
370
    15
100
AcDbSpline
210
0.0
220
0.0
230
1.0
 70
     8
 71
     3
 72
    17
 73
    13
 74
     0
 42
0.0000000001
 43
0.0000000001
 12
1.0
 22
0.0
 32
0.0
 13
1.0
 23
0.0
 33
0.0
 40
0.0
 40
0.0
 40
0.0
 40
0.0
 40
1.0
 40
1.0
 40
1.0
 40
2.0
 40
2.0
 40
2.0
 40
3.0
 40
3.0
 40
3.0
 40
4.0
 40
4.0
 40
4.0
 40
4.0
 10
62.73303592479442
 20
262.8679611146081
 30
0.0
 10
63.86094389294703
 20
261.2888899990839
 30
0.0
 10
66.52262623251227
 20
258.3559684254287
 30
0.0
 10
68.10169738792683
 20
257.6792236616329
 30
0.0
 10
69.68076854334049
 20
257.0024788978371
 30
0.0
 10
74.07960961913705
 20
255.423407782313
 30
0.0
 10
75.99705316499785
 20
255.1978261943814
 30
0.0
 10
77.91449671085775
 20
254.9722446064497
 30
0.0
 10
82.42612858347002
 20
251.1827090486877
 30
0.0
 10
83.44124575480782
 20
250.6187550788582
 30
0.0
 10
84.45636292614472
 20
250.0548011090277
 30
0.0
 10
88.29125001786542
 20
248.5885207874708
 30
0.0
 10
89.41915798601804
 20
247.2350312598792
 30
0.0
  0
SPLINE
  5
6C
330
1F
100
AcDbEntity
  8
Wood
 62
   250
420
  2301728
370
    15
100
AcDbSpline
210
0.0
220
0.0
230
1.0
 70
     8
 71
     3
 72
    20
 73
    16
 74
     0
 42
0.0000000001
 43
0.0000000001
 12
1.0
 22
0.0
 32
0.0
 13
1.0
 23
0.0
 33
0.0
 40
0.0
 40
0.0
 40
0.0
 40
0.0
 40
1.0
 40
1.0
 40
1.0
 40
2.0
 40
2.0
 40
2.0
 40
3.0
 40
3.0
 40
3.0
 40
4.0
 40
4.0
 40
4.0
 40
5.0
 40
5.0
 40
5.0
 40
5.0
 10
55.69777764791797
 20
261.8396700041794
 30
0.0
 10
56.60010402244006
 20
260.9373436524511
 30
0.0
 10
56.71289481925578
 20
259.8094357127911
 30
0.0
 10
58.74312916193139
 20
258.9071093610637
 30
0.0
 10
60.7733635046061
 20
258.0047830093363
 30
0.0
 10
63.36755183135847
 20
256.6512934817447
 30
0.0
 10
64.94662298677304
 20
256.2001303058805
 30
0.0
 10
66.5256941421867
 20
255.7489671300164
 30
0.0
 10
70.92453521798325
 20
251.3954776024248
 30
0.0
 10
72.05244318613677
 20
251.1698960144931
 30
0.0
 10
73.18035115428938
 20
250.9443144265624
 30
0.0
 10
77.12802904282489
 20
250.0419880748332
 30
0.0
 10
79.0454725886857
 20
248.46291695931
 30
0.0
 10
80.20640570214528
 20
247.5068119570196
 30
0.0
 10
81.326012267652
 20
246.8814997952722
 30
0.0
 10
82.12890227570279
 20
246.1112840793166
 30
0.0
  0
POLYLINE
  5
6D
330
1F
100
AcDbEntity
  8
Wood
 62
   250
420
  2301728
370
    15
100
AcDb2dPolyline
 66
     1
 10
0.0
 20
0.0
 30
0.0
  0
VERTEX
  5
6E
330
6D
100
AcDbEntity
  8
Wood
 62
   250
420
  2301728
370
    15
100
AcDbVertex
100
AcDb2dVertex
 10
63.54819757153746
 20
249.2089603869181
 30
0.0
  0
VERTEX
  5
20C
330
6D
100
AcDbEntity
  8
0
100
AcDbVertex
100
AcDb2dVertex
 10
63.54819757153746
 20
249.2089603869181
 30
0.0
  0
SEQEND
  5
6F
330
6D
100
AcDbEntity
  8
Wood
 62
   250
420
  2301728
370
    15
  0
SPLINE
  5
70
330
1F
100
AcDbEntity
  8
Wood
 62
   250
420
  2301728
370
    15
100
AcDbSpline
210
0.0
220
0.0
230
1.0
 70
     8
 71
     3
 72
     8
 73
     4
 74
     0
 42
0.0000000001
 43
0.0000000001
 12
1.0
 22
0.0
 32
0.0
 13
1.0
 23
0.0
 33
0.0
 40
0.0
 40
0.0
 40
0.0
 40
0.0
 40
1.0
 40
1.0
 40
1.0
 40
1.0
 10
51.02841912503845
 20
261.1194434714616
 30
0.0
 10
51.36679151548469
 20
259.3147907224175
 30
0.0
 10
52.60749028045302
 20
257.735719567002
 30
0.0
 10
53.84818904542135
 20
256.9461737334896
 30
0.0
  0
POLYLINE
  5
71
330
1F
100
AcDbEntity
  8
Wood
 62
   250
420
  2301728
370
    30
100
AcDb2dPolyline
 66
     1
 10
0.0
 20
0.0
 30
0.0
  0
VERTEX
  5
72
330
71
100
AcDbEntity
  8
Wood
 62
   250
420
  2301728
370
    30
100
AcDbVertex
100
AcDb2dVertex
 10
107.9352561217675
 20
249.1520361624616
 30
0.0
  0
VERTEX
  5
20D
330
71
100
AcDbEntity
  8
0
100
AcDbVertex
100
AcDb2dVertex
 10
107.9352561217675
 20
249.1520361624616
 30
0.0
  0
SEQEND
  5
73
330
71
100
AcDbEntity
  8
Wood
 62
   250
420
  2301728
370
    30
  0
POLYLINE
  5
74
330
1F
100
AcDbEntity
  8
Wood
  6
AI-Linetype-1
 62
   250
420
  2301728
370
    25
100
AcDb2dPolyline
 66
     1
 10
0.0
 20
0.0
 30
0.0
  0
VERTEX
  5
75
330
74
100
AcDbEntity
  8
Wood
  6
AI-Linetype-1
 62
   250
420
  2301728
370
    25
100
AcDbVertex
100
AcDb2dVertex
 10
122.5760429442198
 20
251.6978597312263
 30
0.0
  0
VERTEX
  5
76
330
74
100
AcDbEntity
  8
Wood
  6
AI-Linetype-1
 62
   250
420
  2301728
370
    25
100
AcDbVertex
100
AcDb2dVertex
 10
122.5381452364891
 20
131.9062765327453
 30
0.0
  0
SEQEND
  5
78
330
74
100
AcDbEntity
  8
Wood
  6
AI-Linetype-1
 62
   250
420
  2301728
370
    25
  0
POLYLINE
  5
79
330
1F
100
AcDbEntity
  8
Wood
 62
   250
420
  2301728
370
    25
100
AcDb2dPolyline
 66
     1
 10
0.0
 20
0.0
 30
0.0
  0
VERTEX
  5
7A
330
79
100
AcDbEntity
  8
Wood
 62
   250
420
  2301728
370
    25
100
AcDbVertex
100
AcDb2dVertex
 10
107.0024311157867
 20
249.3743693755268
 30
0.0
  0
VERTEX
  5
7B
330
79
100
AcDbEntity
  8
Wood
 62
   250
420
  2301728
370
    25
100
AcDbVertex
100
AcDb2dVertex
 10
107.0024311157867
 20
247.4679342595964
 30
0.0
  0
SEQEND
  5
7C
330
79
100
AcDbEntity
  8
Wood
 62
   250
420
  2301728
370
    25
  0
POLYLINE
  5
7D
330
1F
100
AcDbEntity
  8
Wood
 62
   250
420
  2301728
370
    25
100
AcDb2dPolyline
 66
     1
 10
0.0
 20
0.0
 30
0.0
  0
VERTEX
  5
7E
330
7D
100
AcDbEntity
  8
Wood
 62
   250
420
  2301728
370
    25
100
AcDbVertex
100
AcDb2dVertex
 10
204.50185718188
 20
221.0636996247986
 30
0.0
  0
VERTEX
  5
7F
330
7D
100
AcDbEntity
  8
Wood
 62
   250
420
  2301728
370
    25
100
AcDbVertex
100
AcDb2dVertex
 10
163.6327897330775
 20
208.8534194332187
 30
0.0
  0
VERTEX
  5
80
330
7D
100
AcDbEntity
  8
Wood
 62
   250
420
  2301728
370
    25
100
AcDbVertex
100
AcDb2dVertex
 10
80.62833351487188
 20
245.6318805991014
 30
0.0
  0
VERTEX
  5
81
330
7D
100
AcDbEntity
  8
Wood
 62
   250
420
  2301728
370
    25
100
AcDbVertex
100
AcDb2dVertex
 10
102.904425653257
 20
248.8197995997552
 30
0.0
  0
VERTEX
  5
82
330
7D
100
AcDbEntity
  8
Wood
 62
   250
420
  2301728
370
    25
100
AcDbVertex
100
AcDb2dVertex
 10
131.6030964602178
 20
236.5044886208343
 30
0.0
  0
VERTEX
  5
83
330
7D
100
AcDbEntity
  8
Wood
 62
   250
420
  2301728
370
    25
100
AcDbVertex
100
AcDb2dVertex
 10
135.6135713939584
 20
236.9529448176427
 30
0.0
  0
VERTEX
  5
84
330
7D
100
AcDbEntity
  8
Wood
 62
   250
420
  2301728
370
    25
100
AcDbVertex
100
AcDb2dVertex
 10
107.0024311157867
 20
249.4023414924304
 30
0.0
  0
VERTEX
  5
85
330
7D
100
AcDbEntity
  8
Wood
 62
   250
420
  2301728
370
    25
100
AcDbVertex
100
AcDb2dVertex
 10
122.7301602889893
 20
251.2485012080651
 30
0.0
  0
SEQEND
  5
86
330
7D
100
AcDbEntity
  8
Wood
 62
   250
420
  2301728
370
    25
  0
INSERT
  5
89
330
1F
100
AcDbEntity
  8
5
100
AcDbBlockReference
  2
block 2
 10
0.0
 20
0.0
 30
0.0
  0
INSERT
  5
93
330
1F
100
AcDbEntity
  8
5
100
AcDbBlockReference
  2
block 3
 10
0.0
 20
0.0
 30
0.0
  0
INSERT
  5
9D
330
1F
100
AcDbEntity
  8
5
100
AcDbBlockReference
  2
block 4
 10
0.0
 20
0.0
 30
0.0
  0
INSERT
  5
A7
330
1F
100
AcDbEntity
  8
5
100
AcDbBlockReference
  2
block 5
 10
0.0
 20
0.0
 30
0.0
  0
INSERT
  5
B1
330
1F
100
AcDbEntity
  8
5
100
AcDbBlockReference
  2
block 6
 10
0.0
 20
0.0
 30
0.0
  0
INSERT
  5
BB
330
1F
100
AcDbEntity
  8
5
100
AcDbBlockReference
  2
block 7
 10
0.0
 20
0.0
 30
0.0
  0
INSERT
  5
1B7
330
1F
100
AcDbEntity
  8
Dowel 5
100
AcDbBlockReference
  2
block 9
 10
0.0
 20
0.0
 30
0.0
  0
MTEXT
  5
1CA
330
1F
100
AcDbEntity
  8
Name
 62
   250
420
  2301728
100
AcDbMText
 10
72.86849975585938
 20
44.42108535766602
 30
0.0
 40
8.495999999999999
 41
0.0
 46
0.0
 71
     7
 72
     1
  1
\fHelvetica Neue LT Std 55 Roman|b0|i0|c0|p34;\W1;SIMPSON Strong-Tie\H4.95317;®\H8.496; ^C
 73
     1
 44
1.0
  0
MTEXT
  5
1CB
330
1F
100
AcDbEntity
  8
Name
 62
   250
420
  2301728
100
AcDbMText
 10
51.88363647460938
 20
30.02167129516602
 30
0.0
 40
8.495999999999999
 41
0.0
 46
0.0
 71
     7
 72
     1
  1
\fHelvetica Neue LT Std 55 Roman|b0|i0|c0|p34;\W1;CJT Beam-to-Post Installation
 73
     1
 44
1.0
  0
MTEXT
  5
1CC
330
1F
100
AcDbEntity
  8
Name
 62
   250
420
  2301728
100
AcDbMText
 10
162.5717625617981
 20
274.7565612792969
 30
0.0
 40
8.495999999999999
 41
0.0
 46
0.0
 71
     7
 72
     1
  1
\fHelvetica Neue LT Std 57 Condensed|b0|i0|c0|p34;\W1;Beam
 73
     1
 44
1.0
  0
MTEXT
  5
1CD
330
1F
100
AcDbEntity
  8
Name
 62
   250
420
  2301728
100
AcDbMText
 10
184.0567121505737
 20
255.3098449707031
 30
0.0
 40
8.495999999999999
 41
0.0
 46
0.0
 71
     7
 72
     1
  1
\fHelvetica Neue LT Std 57 Condensed|b0|i0|c0|p34;\W1;Dowels should be ^C
 73
     1
 44
1.0
  0
MTEXT
  5
1CE
330
1F
100
AcDbEntity
  8
Name
 62
   250
420
  2301728
100
AcDbMText
 10
184.0567121505737
 20
244.3098449707031
 30
0.0
 40
8.495999999999999
 41
0.0
 46
0.0
 71
     7
 72
     1
  1
\fHelvetica Neue LT Std 57 Condensed|b0|i0|c0|p34;\W1;centered within beam
 73
     1
 44
1.0
  0
INSERT
  5
1D0
330
1F
100
AcDbEntity
  8
Name
100
AcDbBlockReference
  2
block 10
 10
0.0
 20
0.0
 30
0.0
  0
INSERT
  5
1E0
330
1F
100
AcDbEntity
  8
Name
100
AcDbBlockReference
  2
block 11
 10
0.0
 20
0.0
 30
0.0
  0
MTEXT
  5
1EE
330
1F
100
AcDbEntity
  8
Name
 62
   250
420
  2301728
100
AcDbMText
 10
-5.84039306640625
 20
196.1883964538574
 30
0.0
 40
8.495999999999999
 41
0.0
 46
0.0
 71
     7
 72
     1
  1
\fHelvetica Neue LT Std 57 Condensed|b0|i0|c0|p34;\W1;Post
 73
     1
 44
1.0
  0
INSERT
  5
1F0
330
1F
100
AcDbEntity
  8
Name
100
AcDbBlockReference
  2
block 12
 10
0.0
 20
0.0
 30
0.0
  0
MTEXT
  5
1FE
330
1F
100
AcDbEntity
  8
Name
 62
   250
420
  2236191
100
AcDbMText
 10
-5.840564727783203
 20
147.5815334320068
 30
0.0
 40
8.495999999999999
 41
0.0
 46
0.0
 71
     7
 72
     1
  1
\fHelvetica Neue LT Std 57 Condensed|b0|i0|c0|p34;\W1;CJT
 73
     1
 44
1.0
  0
POLYLINE
  5
1FF
330
1F
100
AcDbEntity
  8
Name
 62
   250
420
  2236191
370
    18
100
AcDb2dPolyline
 66
     1
 10
0.0
 20
0.0
 30
0.0
  0
VERTEX
  5
200
330
1FF
100
AcDbEntity
  8
Name
 62
   250
420
  2236191
370
    18
100
AcDbVertex
100
AcDb2dVertex
 10
14.7741935483873
 20
152.3387096774204
 30
0.0
  0
VERTEX
  5
201
330
1FF
100
AcDbEntity
  8
Name
 62
   250
420
  2236191
370
    18
100
AcDbVertex
100
AcDb2dVertex
 10
95.25432218478
 20
197.7423532033154
 30
0.0
  0
SEQEND
  5
202
330
1FF
100
AcDbEntity
  8
Name
 62
   250
420
  2236191
370
    18
  0
ENDSEC
  0
SECTION
  2
OBJECTS
  0
DICTIONARY
  5
C
330
0
100
AcDbDictionary
281
     1
  3
ACAD_GROUP
350
D
  3
ACAD_LAYOUT
350
1A
  3
ACAD_MATERIAL
350
3B
  3
ACAD_MLEADERSTYLE
350
20F
  3
ACAD_MLINESTYLE
350
17
  3
ACAD_PLOTSETTINGS
350
19
  3
ACAD_PLOTSTYLENAME
350
E
  3
ACAD_TABLESTYLE
350
20E
  3
ACAD_VISUALSTYLE
350
2A
  0
SUN
  5
3F
330
29
100
AcDbSun
 90
        1
290
     0
 63
     7
421
 16777215
 40
1.0
291
     1
 91
  2455826
 92
 54000000
292
     0
 70
     2
 71
   256
280
     1
  0
DICTIONARY
  5
D
102
{ACAD_REACTORS
330
C
102
}
330
C
100
AcDbDictionary
281
     1
  0
DICTIONARY
  5
1A
102
{ACAD_REACTORS
330
C
102
}
330
C
100
AcDbDictionary
281
     1
  3
Layout1
350
1E
  3
Layout2
350
26
  3
Model
350
22
  0
DICTIONARY
  5
3B
102
{ACAD_REACTORS
330
C
102
}
330
C
100
AcDbDictionary
281
     1
  3
ByBlock
350
3D
  3
ByLayer
350
3C
  3
Global
350
3E
  0
DICTIONARY
  5
20F
102
{ACAD_REACTORS
330
C
102
}
330
C
100
AcDbDictionary
281
     1
  0
DICTIONARY
  5
17
102
{ACAD_REACTORS
330
C
102
}
330
C
100
AcDbDictionary
281
     1
  3
Standard
350
18
  0
DICTIONARY
  5
19
102
{ACAD_REACTORS
330
C
102
}
330
C
100
AcDbDictionary
281
     1
  0
ACDBDICTIONARYWDFLT
  5
E
102
{ACAD_REACTORS
330
C
102
}
330
C
100
AcDbDictionary
281
     1
  3
Normal
350
F
100
AcDbDictionaryWithDefault
340
F
  0
DICTIONARY
  5
20E
102
{ACAD_REACTORS
330
C
102
}
330
C
100
AcDbDictionary
281
     1
  0
DICTIONARY
  5
2A
102
{ACAD_REACTORS
330
C
102
}
330
C
100
AcDbDictionary
281
     1
  3
2dWireframe
350
2F
  3
3D Hidden
350
31
  3
3dWireframe
350
30
  3
Basic
350
32
  3
Brighten
350
36
  3
ColorChange
350
3A
  3
Conceptual
350
34
  3
Dim
350
35
  3
Facepattern
350
39
  3
Flat
350
2B
  3
FlatWithEdges
350
2C
  3
Gouraud
350
2D
  3
GouraudWithEdges
350
2E
  3
Linepattern
350
38
  3
Realistic
350
33
  3
Thicken
350
37
  0
LAYOUT
  5
1E
102
{ACAD_REACTORS
330
1A
102
}
330
1A
100
AcDbPlotSettings
  1

  2
none_device
  4

  6

 40
0.0
 41
0.0
 42
0.0
 43
0.0
 44
0.0
 45
0.0
 46
0.0
 47
0.0
 48
0.0
 49
0.0
140
0.0
141
0.0
142
1.0
143
1.0
 70
   688
 72
     0
 73
     0
 74
     5
  7

 75
    16
 76
     0
 77
     2
 78
   300
147
1.0
148
0.0
149
0.0
100
AcDbLayout
  1
Layout1
 70
     1
 71
     1
 10
0.0
 20
0.0
 11
12.0
 21
9.0
 12
0.0
 22
0.0
 32
0.0
 14
1.000000000000000E+20
 24
1.000000000000000E+20
 34
1.000000000000000E+20
 15
-1.000000000000000E+20
 25
-1.000000000000000E+20
 35
-1.000000000000000E+20
146
0.0
 13
0.0
 23
0.0
 33
0.0
 16
1.0
 26
0.0
 36
0.0
 17
0.0
 27
1.0
 37
0.0
 76
     0
330
1B
  0
LAYOUT
  5
26
102
{ACAD_REACTORS
330
1A
102
}
330
1A
100
AcDbPlotSettings
  1

  2
none_device
  4

  6

 40
0.0
 41
0.0
 42
0.0
 43
0.0
 44
0.0
 45
0.0
 46
0.0
 47
0.0
 48
0.0
 49
0.0
140
0.0
141
0.0
142
1.0
143
1.0
 70
   688
 72
     0
 73
     0
 74
     5
  7

 75
    16
 76
     0
 77
     2
 78
   300
147
1.0
148
0.0
149
0.0
100
AcDbLayout
  1
Layout2
 70
     1
 71
     2
 10
0.0
 20
0.0
 11
0.0
 21
0.0
 12
0.0
 22
0.0
 32
0.0
 14
0.0
 24
0.0
 34
0.0
 15
0.0
 25
0.0
 35
0.0
146
0.0
 13
0.0
 23
0.0
 33
0.0
 16
1.0
 26
0.0
 36
0.0
 17
0.0
 27
1.0
 37
0.0
 76
     0
330
23
  0
LAYOUT
  5
22
102
{ACAD_REACTORS
330
1A
102
}
330
1A
100
AcDbPlotSettings
  1

  2
none_device
  4

  6

 40
0.0
 41
0.0
 42
0.0
 43
0.0
 44
0.0
 45
0.0
 46
0.0
 47
0.0
 48
0.0
 49
0.0
140
0.0
141
0.0
142
1.0
143
1.0
 70
  1712
 72
     0
 73
     0
 74
     0
  7

 75
     0
 76
     0
 77
     2
 78
   300
147
1.0
148
0.0
149
0.0
100
AcDbLayout
  1
Model
 70
     1
 71
     0
 10
0.0
 20
0.0
 11
12.0
 21
9.0
 12
0.0
 22
0.0
 32
0.0
 14
1.000000000000000E+20
 24
1.000000000000000E+20
 34
1.000000000000000E+20
 15
-1.000000000000000E+20
 25
-1.000000000000000E+20
 35
-1.000000000000000E+20
146
0.0
 13
0.0
 23
0.0
 33
0.0
 16
1.0
 26
0.0
 36
0.0
 17
0.0
 27
1.0
 37
0.0
 76
     0
330
1F
331
29
  0
MATERIAL
  5
3D
102
{ACAD_REACTORS
330
3B
102
}
330
3B
100
AcDbMaterial
  1
ByBlock
 72
     1
 94
      127
  0
MATERIAL
  5
3C
102
{ACAD_REACTORS
330
3B
102
}
330
3B
100
AcDbMaterial
  1
ByLayer
 72
     1
 94
      127
  0
MATERIAL
  5
3E
102
{ACAD_REACTORS
330
3B
102
}
330
3B
100
AcDbMaterial
  1
Global
 72
     1
 94
      127
  0
MLINESTYLE
  5
18
102
{ACAD_REACTORS
330
17
102
}
330
17
100
AcDbMlineStyle
  2
Standard
 70
     0
  3

 62
   256
 51
90.0
 52
90.0
 71
     2
 49
0.5
 62
   256
  6
BYLAYER
 49
-0.5
 62
   256
  6
BYLAYER
  0
ACDBPLACEHOLDER
  5
F
102
{ACAD_REACTORS
330
E
102
}
330
E
  0
VISUALSTYLE
  5
2F
102
{ACAD_REACTORS
330
2A
102
}
330
2A
100
AcDbVisualStyle
  2
2dWireframe
 70
     4
177
     2
291
     0
 71
     0
176
     1
 72
     2
176
     1
 73
     0
176
     1
 90
        0
176
     1
 40
-0.6
176
     1
 41
-30.0
176
     1
 62
     5
 63
     7
421
 16777215
176
     1
 74
     1
176
     1
 91
        4
176
     1
 64
     7
176
     1
 65
   257
176
     1
 75
     1
176
     1
175
     1
176
     1
 42
1.0
176
     1
 92
        0
176
     1
 66
   257
176
     1
 43
1.0
176
     1
 76
     1
176
     1
 77
     6
176
     1
 78
     2
176
     1
 67
     7
176
     1
 79
     5
176
     1
170
     0
176
     1
171
     0
176
     1
290
     0
176
     1
 93
        1
176
     1
 44
0.0
176
     1
173
     0
176
     1
  0
VISUALSTYLE
  5
31
102
{ACAD_REACTORS
330
2A
102
}
330
2A
100
AcDbVisualStyle
  2
3D Hidden
 70
     6
177
     2
291
     0
 71
     1
176
     1
 72
     2
176
     1
 73
     2
176
     1
 90
        0
176
     1
 40
-0.6
176
     1
 41
-30.0
176
     1
 62
     5
 63
     7
421
 16777215
176
     1
 74
     2
176
     1
 91
        2
176
     1
 64
     7
176
     1
 65
   257
176
     1
 75
     2
176
     1
175
     1
176
     1
 42
40.0
176
     1
 92
        0
176
     1
 66
   257
176
     1
 43
1.0
176
     1
 76
     1
176
     1
 77
     6
176
     1
 78
     2
176
     1
 67
     7
176
     1
 79
     3
176
     1
170
     0
176
     1
171
     0
176
     1
290
     0
176
     1
 93
        1
176
     1
 44
0.0
176
     1
173
     0
176
     1
  0
VISUALSTYLE
  5
30
102
{ACAD_REACTORS
330
2A
102
}
330
2A
100
AcDbVisualStyle
  2
3dWireframe
 70
     5
177
     2
291
     0
 71
     0
176
     1
 72
     2
176
     1
 73
     0
176
     1
 90
        0
176
     1
 40
-0.6
176
     1
 41
-30.0
176
     1
 62
     5
 63
     7
421
 16777215
176
     1
 74
     1
176
     1
 91
        4
176
     1
 64
     7
176
     1
 65
   257
176
     1
 75
     1
176
     1
175
     1
176
     1
 42
1.0
176
     1
 92
        0
176
     1
 66
   257
176
     1
 43
1.0
176
     1
 76
     1
176
     1
 77
     6
176
     1
 78
     2
176
     1
 67
     7
176
     1
 79
     5
176
     1
170
     0
176
     1
171
     0
176
     1
290
     0
176
     1
 93
        1
176
     1
 44
0.0
176
     1
173
     0
176
     1
  0
VISUALSTYLE
  5
32
102
{ACAD_REACTORS
330
2A
102
}
330
2A
100
AcDbVisualStyle
  2
Basic
 70
     7
177
     2
291
     1
 71
     1
176
     1
 72
     0
176
     1
 73
     1
176
     1
 90
        0
176
     1
 40
-0.6
176
     1
 41
-30.0
176
     1
 62
     5
 63
     7
421
 16777215
176
     1
 74
     0
176
     1
 91
        4
176
     1
 64
     7
176
     1
 65
   257
176
     1
 75
     1
176
     1
175
     1
176
     1
 42
1.0
176
     1
 92
        8
176
     1
 66
     7
176
     1
 43
1.0
176
     1
 76
     1
176
     1
 77
     6
176
     1
 78
     2
176
     1
 67
     7
176
     1
 79
     5
176
     1
170
     0
176
     1
171
     0
176
     1
290
     0
176
     1
 93
        1
176
     1
 44
0.0
176
     1
173
     0
176
     1
  0
VISUALSTYLE
  5
36
102
{ACAD_REACTORS
330
2A
102
}
330
2A
100
AcDbVisualStyle
  2
Brighten
 70
    12
177
     2
291
     1
 71
     2
176
     1
 72
     2
176
     1
 73
     0
176
     1
 90
        0
176
     1
 40
-0.6
176
     1
 41
-30.0
176
     1
 62
     5
 63
     7
421
 16777215
176
     1
 74
     1
176
     1
 91
        4
176
     1
 64
     7
176
     1
 65
   257
176
     1
 75
     1
176
     1
175
     1
176
     1
 42
1.0
176
     1
 92
        8
176
     1
 66
     7
176
     1
 43
1.0
176
     1
 76
     1
176
     1
 77
     6
176
     1
 78
     2
176
     1
 67
     7
176
     1
 79
     5
176
     1
170
     0
176
     1
171
     0
176
     1
290
     0
176
     1
 93
        1
176
     1
 44
50.0
176
     1
173
     0
176
     1
  0
VISUALSTYLE
  5
3A
102
{ACAD_REACTORS
330
2A
102
}
330
2A
100
AcDbVisualStyle
  2
ColorChange
 70
    16
177
     2
291
     1
 71
     2
176
     1
 72
     2
176
     1
 73
     3
176
     1
 90
        0
176
     1
 40
-0.6
176
     1
 41
-30.0
176
     1
 62
     5
 63
     8
421
  8421504
176
     1
 74
     1
176
     1
 91
        4
176
     1
 64
     7
176
     1
 65
   257
176
     1
 75
     1
176
     1
175
     1
176
     1
 42
1.0
176
     1
 92
        8
176
     1
 66
     8
424
  8421504
176
     1
 43
1.0
176
     1
 76
     1
176
     1
 77
     6
176
     1
 78
     2
176
     1
 67
     7
176
     1
 79
     5
176
     1
170
     0
176
     1
171
     0
176
     1
290
     0
176
     1
 93
        1
176
     1
 44
0.0
176
     1
173
     0
176
     1
  0
VISUALSTYLE
  5
34
102
{ACAD_REACTORS
330
2A
102
}
330
2A
100
AcDbVisualStyle
  2
Conceptual
 70
     9
177
     2
291
     0
 71
     3
176
     1
 72
     2
176
     1
 73
     0
176
     1
 90
        0
176
     1
 40
-0.6
176
     1
 41
-30.0
176
     1
 62
     5
 63
     7
421
 16777215
176
     1
 74
     2
176
     1
 91
        2
176
     1
 64
     7
176
     1
 65
   257
176
     1
 75
     1
176
     1
175
     1
176
     1
 42
40.0
176
     1
 92
        8
176
     1
 66
     7
176
     1
 43
1.0
176
     1
 76
     1
176
     1
 77
     6
176
     1
 78
     2
176
     1
 67
     7
176
     1
 79
     3
176
     1
170
     0
176
     1
171
     0
176
     1
290
     0
176
     1
 93
        1
176
     1
 44
0.0
176
     1
173
     0
176
     1
  0
VISUALSTYLE
  5
35
102
{ACAD_REACTORS
330
2A
102
}
330
2A
100
AcDbVisualStyle
  2
Dim
 70
    11
177
     2
291
     1
 71
     2
176
     1
 72
     2
176
     1
 73
     0
176
     1
 90
        0
176
     1
 40
-0.6
176
     1
 41
-30.0
176
     1
 62
     5
 63
     7
421
 16777215
176
     1
 74
     1
176
     1
 91
        4
176
     1
 64
     7
176
     1
 65
   257
176
     1
 75
     1
176
     1
175
     1
176
     1
 42
1.0
176
     1
 92
        8
176
     1
 66
     7
176
     1
 43
1.0
176
     1
 76
     1
176
     1
 77
     6
176
     1
 78
     2
176
     1
 67
     7
176
     1
 79
     5
176
     1
170
     0
176
     1
171
     0
176
     1
290
     0
176
     1
 93
        1
176
     1
 44
-50.0
176
     1
173
     0
176
     1
  0
VISUALSTYLE
  5
39
102
{ACAD_REACTORS
330
2A
102
}
330
2A
100
AcDbVisualStyle
  2
Facepattern
 70
    15
177
     2
291
     1
 71
     2
176
     1
 72
     2
176
     1
 73
     0
176
     1
 90
        0
176
     1
 40
-0.6
176
     1
 41
-30.0
176
     1
 62
     5
 63
     7
421
 16777215
176
     1
 74
     1
176
     1
 91
        4
176
     1
 64
     7
176
     1
 65
   257
176
     1
 75
     1
176
     1
175
     1
176
     1
 42
1.0
176
     1
 92
        8
176
     1
 66
     7
176
     1
 43
1.0
176
     1
 76
     1
176
     1
 77
     6
176
     1
 78
     2
176
     1
 67
     7
176
     1
 79
     5
176
     1
170
     0
176
     1
171
     0
176
     1
290
     0
176
     1
 93
        1
176
     1
 44
0.0
176
     1
173
     0
176
     1
  0
VISUALSTYLE
  5
2B
102
{ACAD_REACTORS
330
2A
102
}
330
2A
100
AcDbVisualStyle
  2
Flat
 70
     0
177
     2
291
     1
 71
     2
176
     1
 72
     1
176
     1
 73
     1
176
     1
 90
        2
176
     1
 40
-0.6
176
     1
 41
30.0
176
     1
 62
     5
 63
     7
421
 16777215
176
     1
 74
     0
176
     1
 91
        4
176
     1
 64
     7
176
     1
 65
   257
176
     1
 75
     1
176
     1
175
     1
176
     1
 42
1.0
176
     1
 92
        8
176
     1
 66
     7
176
     1
 43
1.0
176
     1
 76
     1
176
     1
 77
     6
176
     1
 78
     2
176
     1
 67
     7
176
     1
 79
     5
176
     1
170
     0
176
     1
171
     0
176
     1
290
     0
176
     1
 93
       13
176
     1
 44
0.0
176
     1
173
     0
176
     1
  0
VISUALSTYLE
  5
2C
102
{ACAD_REACTORS
330
2A
102
}
330
2A
100
AcDbVisualStyle
  2
FlatWithEdges
 70
     1
177
     2
291
     1
 71
     2
176
     1
 72
     1
176
     1
 73
     1
176
     1
 90
        2
176
     1
 40
-0.6
176
     1
 41
30.0
176
     1
 62
     5
 63
     7
421
 16777215
176
     1
 74
     1
176
     1
 91
        4
176
     1
 64
     7
176
     1
 65
   257
176
     1
 75
     1
176
     1
175
     1
176
     1
 42
1.0
176
     1
 92
        0
176
     1
 66
   257
176
     1
 43
1.0
176
     1
 76
     1
176
     1
 77
     6
176
     1
 78
     2
176
     1
 67
     7
176
     1
 79
     5
176
     1
170
     0
176
     1
171
     0
176
     1
290
     0
176
     1
 93
       13
176
     1
 44
0.0
176
     1
173
     0
176
     1
  0
VISUALSTYLE
  5
2D
102
{ACAD_REACTORS
330
2A
102
}
330
2A
100
AcDbVisualStyle
  2
Gouraud
 70
     2
177
     2
291
     1
 71
     2
176
     1
 72
     2
176
     1
 73
     1
176
     1
 90
        2
176
     1
 40
-0.6
176
     1
 41
30.0
176
     1
 62
     5
 63
     7
421
 16777215
176
     1
 74
     0
176
     1
 91
        4
176
     1
 64
     7
176
     1
 65
   257
176
     1
 75
     1
176
     1
175
     1
176
     1
 42
1.0
176
     1
 92
        0
176
     1
 66
     7
176
     1
 43
1.0
176
     1
 76
     1
176
     1
 77
     6
176
     1
 78
     2
176
     1
 67
     7
176
     1
 79
     5
176
     1
170
     0
176
     1
171
     0
176
     1
290
     0
176
     1
 93
       13
176
     1
 44
0.0
176
     1
173
     0
176
     1
  0
VISUALSTYLE
  5
2E
102
{ACAD_REACTORS
330
2A
102
}
330
2A
100
AcDbVisualStyle
  2
GouraudWithEdges
 70
     3
177
     2
291
     1
 71
     2
176
     1
 72
     2
176
     1
 73
     1
176
     1
 90
        2
176
     1
 40
-0.6
176
     1
 41
30.0
176
     1
 62
     5
 63
     7
421
 16777215
176
     1
 74
     1
176
     1
 91
        4
176
     1
 64
     7
176
     1
 65
   257
176
     1
 75
     1
176
     1
175
     1
176
     1
 42
1.0
176
     1
 92
        0
176
     1
 66
   257
176
     1
 43
1.0
176
     1
 76
     1
176
     1
 77
     6
176
     1
 78
     2
176
     1
 67
     7
176
     1
 79
     5
176
     1
170
     0
176
     1
171
     0
176
     1
290
     0
176
     1
 93
       13
176
     1
 44
0.0
176
     1
173
     0
176
     1
  0
VISUALSTYLE
  5
38
102
{ACAD_REACTORS
330
2A
102
}
330
2A
100
AcDbVisualStyle
  2
Linepattern
 70
    14
177
     2
291
     1
 71
     2
176
     1
 72
     2
176
     1
 73
     0
176
     1
 90
        0
176
     1
 40
-0.6
176
     1
 41
-30.0
176
     1
 62
     5
 63
     7
421
 16777215
176
     1
 74
     1
176
     1
 91
        4
176
     1
 64
     7
176
     1
 65
   257
176
     1
 75
     7
176
     1
175
     7
176
     1
 42
1.0
176
     1
 92
        8
176
     1
 66
     7
176
     1
 43
1.0
176
     1
 76
     1
176
     1
 77
     6
176
     1
 78
     2
176
     1
 67
     7
176
     1
 79
     5
176
     1
170
     0
176
     1
171
     0
176
     1
290
     0
176
     1
 93
        1
176
     1
 44
0.0
176
     1
173
     0
176
     1
  0
VISUALSTYLE
  5
33
102
{ACAD_REACTORS
330
2A
102
}
330
2A
100
AcDbVisualStyle
  2
Realistic
 70
     8
177
     2
291
     0
 71
     2
176
     1
 72
     2
176
     1
 73
     0
176
     1
 90
        0
176
     1
 40
-0.6
176
     1
 41
-30.0
176
     1
 62
     5
 63
     7
421
 16777215
176
     1
 74
     1
176
     1
 91
        0
176
     1
 64
     7
176
     1
 65
   257
176
     1
 75
     1
176
     1
175
     1
176
     1
 42
1.0
176
     1
 92
        8
176
     1
 66
     8
424
  7895160
176
     1
 43
1.0
176
     1
 76
     1
176
     1
 77
     6
176
     1
 78
     2
176
     1
 67
     7
176
     1
 79
     5
176
     1
170
     0
176
     1
171
     0
176
     1
290
     0
176
     1
 93
       13
176
     1
 44
0.0
176
     1
173
     0
176
     1
  0
VISUALSTYLE
  5
37
102
{ACAD_REACTORS
330
2A
102
}
330
2A
100
AcDbVisualStyle
  2
Thicken
 70
    13
177
     2
291
     1
 71
     2
176
     1
 72
     2
176
     1
 73
     0
176
     1
 90
        0
176
     1
 40
-0.6
176
     1
 41
-30.0
176
     1
 62
     5
 63
     7
421
 16777215
176
     1
 74
     1
176
     1
 91
        4
176
     1
 64
     7
176
     1
 65
   257
176
     1
 75
     1
176
     1
175
     1
176
     1
 42
1.0
176
     1
 92
       12
176
     1
 66
     7
176
     1
 43
1.0
176
     1
 76
     1
176
     1
 77
     6
176
     1
 78
     2
176
     1
 67
     7
176
     1
 79
     5
176
     1
170
     0
176
     1
171
     0
176
     1
290
     0
176
     1
 93
        1
176
     1
 44
0.0
176
     1
173
     0
176
     1
  0
ENDSEC
  0
EOF
