  0
SECTION
  2
HEADER
  9
$ACADVER
  1
AC1032
  9
$ACADMAINTVER
 90
      228
  9
$DWGCODEPAGE
  3
ANSI_1252
  9
$REQUIREDVERSIONS
160
                 0
  9
$INSBASE
 10
0.0
 20
0.0
 30
0.0
  9
$EXTMIN
 10
1.000000000000000E+20
 20
1.000000000000000E+20
 30
1.000000000000000E+20
  9
$EXTMAX
 10
-1.000000000000000E+20
 20
-1.000000000000000E+20
 30
-1.000000000000000E+20
  9
$LIMMIN
 10
0.0
 20
0.0
  9
$LIMMAX
 10
12.0
 20
9.0
  9
$ORTHOMODE
 70
     0
  9
$REGENMODE
 70
     1
  9
$FILLMODE
 70
     1
  9
$QTEXTMODE
 70
     0
  9
$MIRRTEXT
 70
     0
  9
$LTSCALE
 40
1.0
  9
$ATTMODE
 70
     1
  9
$TEXTSIZE
 40
0.2
  9
$TRACEWID
 40
0.05
  9
$TEXTSTYLE
  7
Standard
  9
$CLAYER
  8
0
  9
$CELTYPE
  6
ByLayer
  9
$CECOLOR
 62
   256
  9
$CELTSCALE
 40
1.0
  9
$DISPSILH
 70
     0
  9
$DIMSCALE
 40
1.0
  9
$DIMASZ
 40
0.18
  9
$DIMEXO
 40
0.0625
  9
$DIMDLI
 40
0.38
  9
$DIMRND
 40
0.0
  9
$DIMDLE
 40
0.0
  9
$DIMEXE
 40
0.18
  9
$DIMTP
 40
0.0
  9
$DIMTM
 40
0.0
  9
$DIMTXT
 40
0.18
  9
$DIMCEN
 40
0.09
  9
$DIMTSZ
 40
0.0
  9
$DIMTOL
 70
     0
  9
$DIMLIM
 70
     0
  9
$DIMTIH
 70
     1
  9
$DIMTOH
 70
     1
  9
$DIMSE1
 70
     0
  9
$DIMSE2
 70
     0
  9
$DIMTAD
 70
     0
  9
$DIMZIN
 70
     0
  9
$DIMBLK
  1

  9
$DIMASO
 70
     1
  9
$DIMSHO
 70
     1
  9
$DIMPOST
  1

  9
$DIMAPOST
  1

  9
$DIMALT
 70
     0
  9
$DIMALTD
 70
     2
  9
$DIMALTF
 40
25.4
  9
$DIMLFAC
 40
1.0
  9
$DIMTOFL
 70
     0
  9
$DIMTVP
 40
0.0
  9
$DIMTIX
 70
     0
  9
$DIMSOXD
 70
     0
  9
$DIMSAH
 70
     0
  9
$DIMBLK1
  1

  9
$DIMBLK2
  1

  9
$DIMSTYLE
  2
Standard
  9
$DIMCLRD
 70
     0
  9
$DIMCLRE
 70
     0
  9
$DIMCLRT
 70
     0
  9
$DIMTFAC
 40
1.0
  9
$DIMGAP
 40
0.09
  9
$DIMJUST
 70
     0
  9
$DIMSD1
 70
     0
  9
$DIMSD2
 70
     0
  9
$DIMTOLJ
 70
     1
  9
$DIMTZIN
 70
     0
  9
$DIMALTZ
 70
     0
  9
$DIMALTTZ
 70
     0
  9
$DIMUPT
 70
     0
  9
$DIMDEC
 70
     4
  9
$DIMTDEC
 70
     4
  9
$DIMALTU
 70
     2
  9
$DIMALTTD
 70
     2
  9
$DIMTXSTY
  7
Standard
  9
$DIMAUNIT
 70
     0
  9
$DIMADEC
 70
     0
  9
$DIMALTRND
 40
0.0
  9
$DIMAZIN
 70
     0
  9
$DIMDSEP
 70
    46
  9
$DIMATFIT
 70
     3
  9
$DIMFRAC
 70
     0
  9
$DIMLDRBLK
  1

  9
$DIMLUNIT
 70
     2
  9
$DIMLWD
 70
    -2
  9
$DIMLWE
 70
    -2
  9
$DIMTMOVE
 70
     0
  9
$DIMFXL
 40
1.0
  9
$DIMFXLON
 70
     0
  9
$DIMJOGANG
 40
0.7853981633974483
  9
$DIMTFILL
 70
     0
  9
$DIMTFILLCLR
 70
     0
  9
$DIMARCSYM
 70
     0
  9
$DIMLTYPE
  6

  9
$DIMLTEX1
  6

  9
$DIMLTEX2
  6

  9
$DIMTXTDIRECTION
 70
     0
  9
$LUNITS
 70
     2
  9
$LUPREC
 70
     4
  9
$SKETCHINC
 40
0.1
  9
$FILLETRAD
 40
0.0
  9
$AUNITS
 70
     0
  9
$AUPREC
 70
     0
  9
$MENU
  1
.
  9
$ELEVATION
 40
0.0
  9
$PELEVATION
 40
0.0
  9
$THICKNESS
 40
0.0
  9
$LIMCHECK
 70
     0
  9
$CHAMFERA
 40
0.0
  9
$CHAMFERB
 40
0.0
  9
$CHAMFERC
 40
0.0
  9
$CHAMFERD
 40
0.0
  9
$SKPOLY
 70
     0
  9
$TDCREATE
 40
2459843.444351852
  9
$TDUCREATE
 40
2459842.944351852
  9
$TDUPDATE
 40
2459843.444351852
  9
$TDUUPDATE
 40
2459842.944351852
  9
$TDINDWG
 40
0.0000000000
  9
$TDUSRTIMER
 40
0.0000000000
  9
$USRTIMER
 70
     1
  9
$ANGBASE
 50
0.0
  9
$ANGDIR
 70
     0
  9
$PDMODE
 70
     0
  9
$PDSIZE
 40
0.0
  9
$PLINEWID
 40
0.0
  9
$SPLFRAME
 70
     0
  9
$SPLINETYPE
 70
     6
  9
$SPLINESEGS
 70
     8
  9
$HANDSEED
  5
16B
  9
$SURFTAB1
 70
     6
  9
$SURFTAB2
 70
     6
  9
$SURFTYPE
 70
     6
  9
$SURFU
 70
     6
  9
$SURFV
 70
     6
  9
$UCSBASE
  2

  9
$UCSNAME
  2

  9
$UCSORG
 10
0.0
 20
0.0
 30
0.0
  9
$UCSXDIR
 10
1.0
 20
0.0
 30
0.0
  9
$UCSYDIR
 10
0.0
 20
1.0
 30
0.0
  9
$UCSORTHOREF
  2

  9
$UCSORTHOVIEW
 70
     0
  9
$UCSORGTOP
 10
0.0
 20
0.0
 30
0.0
  9
$UCSORGBOTTOM
 10
0.0
 20
0.0
 30
0.0
  9
$UCSORGLEFT
 10
0.0
 20
0.0
 30
0.0
  9
$UCSORGRIGHT
 10
0.0
 20
0.0
 30
0.0
  9
$UCSORGFRONT
 10
0.0
 20
0.0
 30
0.0
  9
$UCSORGBACK
 10
0.0
 20
0.0
 30
0.0
  9
$PUCSBASE
  2

  9
$PUCSNAME
  2

  9
$PUCSORG
 10
0.0
 20
0.0
 30
0.0
  9
$PUCSXDIR
 10
1.0
 20
0.0
 30
0.0
  9
$PUCSYDIR
 10
0.0
 20
1.0
 30
0.0
  9
$PUCSORTHOREF
  2

  9
$PUCSORTHOVIEW
 70
     0
  9
$PUCSORGTOP
 10
0.0
 20
0.0
 30
0.0
  9
$PUCSORGBOTTOM
 10
0.0
 20
0.0
 30
0.0
  9
$PUCSORGLEFT
 10
0.0
 20
0.0
 30
0.0
  9
$PUCSORGRIGHT
 10
0.0
 20
0.0
 30
0.0
  9
$PUCSORGFRONT
 10
0.0
 20
0.0
 30
0.0
  9
$PUCSORGBACK
 10
0.0
 20
0.0
 30
0.0
  9
$USERI1
 70
     0
  9
$USERI2
 70
     0
  9
$USERI3
 70
     0
  9
$USERI4
 70
     0
  9
$USERI5
 70
     0
  9
$USERR1
 40
0.0
  9
$USERR2
 40
0.0
  9
$USERR3
 40
0.0
  9
$USERR4
 40
0.0
  9
$USERR5
 40
0.0
  9
$WORLDVIEW
 70
     1
  9
$SHADEDGE
 70
     3
  9
$SHADEDIF
 70
    70
  9
$TILEMODE
 70
     1
  9
$MAXACTVP
 70
    64
  9
$PINSBASE
 10
0.0
 20
0.0
 30
0.0
  9
$PLIMCHECK
 70
     0
  9
$PEXTMIN
 10
1.000000000000000E+20
 20
1.000000000000000E+20
 30
1.000000000000000E+20
  9
$PEXTMAX
 10
-1.000000000000000E+20
 20
-1.000000000000000E+20
 30
-1.000000000000000E+20
  9
$PLIMMIN
 10
0.0
 20
0.0
  9
$PLIMMAX
 10
12.0
 20
9.0
  9
$UNITMODE
 70
     0
  9
$VISRETAIN
 70
     1
  9
$PLINEGEN
 70
     0
  9
$PSLTSCALE
 70
     1
  9
$TREEDEPTH
 70
  3020
  9
$CMLSTYLE
  2
Standard
  9
$CMLJUST
 70
     0
  9
$CMLSCALE
 40
1.0
  9
$PROXYGRAPHICS
 70
     1
  9
$MEASUREMENT
 70
     0
  9
$CELWEIGHT
370
    -1
  9
$ENDCAPS
280
     0
  9
$JOINSTYLE
280
     0
  9
$LWDISPLAY
290
     1
  9
$INSUNITS
 70
     0
  9
$HYPERLINKBASE
  1

  9
$STYLESHEET
  1

  9
$XEDIT
290
     1
  9
$CEPSNTYPE
380
     0
  9
$PSTYLEMODE
290
     1
  9
$FINGERPRINTGUID
  2
{51F8EB48-50CD-EB46-9E83-CD2BCE8A06A1}
  9
$VERSIONGUID
  2
{34B3B27D-ED20-784C-A9AB-AE2D710329AC}
  9
$EXTNAMES
290
     1
  9
$PSVPSCALE
 40
0.0
  9
$OLESTARTUP
290
     0
  9
$SORTENTS
280
   127
  9
$INDEXCTL
280
     0
  9
$HIDETEXT
280
     1
  9
$XCLIPFRAME
280
     2
  9
$HALOGAP
280
     0
  9
$OBSCOLOR
 70
   257
  9
$OBSLTYPE
280
     0
  9
$INTERSECTIONDISPLAY
280
     0
  9
$INTERSECTIONCOLOR
 70
   257
  9
$DIMASSOC
280
     2
  9
$PROJECTNAME
  1

  9
$CAMERADISPLAY
290
     0
  9
$LENSLENGTH
 40
50.0
  9
$CAMERAHEIGHT
 40
0.0
  9
$STEPSPERSEC
 40
2.0
  9
$STEPSIZE
 40
6.0
  9
$3DDWFPREC
 40
2.0
  9
$PSOLWIDTH
 40
0.25
  9
$PSOLHEIGHT
 40
4.0
  9
$LOFTANG1
 40
1.570796326794896
  9
$LOFTANG2
 40
1.570796326794896
  9
$LOFTMAG1
 40
0.0
  9
$LOFTMAG2
 40
0.0
  9
$LOFTPARAM
 70
     7
  9
$LOFTNORMALS
280
     1
  9
$LATITUDE
 40
37.795
  9
$LONGITUDE
 40
-122.394
  9
$NORTHDIRECTION
 40
0.0
  9
$TIMEZONE
 70
 -8000
  9
$LIGHTGLYPHDISPLAY
280
     1
  9
$TILEMODELIGHTSYNCH
280
     1
  9
$CMATERIAL
347
11
  9
$SOLIDHIST
280
     0
  9
$SHOWHIST
280
     1
  9
$DWFFRAME
280
     2
  9
$DGNFRAME
280
     0
  9
$REALWORLDSCALE
290
     1
  9
$INTERFERECOLOR
 62
     1
  9
$INTERFEREOBJVS
345
33
  9
$INTERFEREVPVS
346
30
  9
$CSHADOW
280
     0
  9
$SHADOWPLANELOCATION
 40
0.0
  0
ENDSEC
  0
SECTION
  2
CLASSES
  0
CLASS
  1
ACDBDICTIONARYWDFLT
  2
AcDbDictionaryWithDefault
  3
ObjectDBX Classes
 90
        0
 91
        1
280
     0
281
     0
  0
CLASS
  1
MATERIAL
  2
AcDbMaterial
  3
ObjectDBX Classes
 90
     1153
 91
        3
280
     0
281
     0
  0
CLASS
  1
VISUALSTYLE
  2
AcDbVisualStyle
  3
ObjectDBX Classes
 90
     4095
 91
       24
280
     0
281
     0
  0
CLASS
  1
SCALE
  2
AcDbScale
  3
ObjectDBX Classes
 90
     1153
 91
       17
280
     0
281
     0
  0
CLASS
  1
TABLESTYLE
  2
AcDbTableStyle
  3
ObjectDBX Classes
 90
     4095
 91
        1
280
     0
281
     0
  0
CLASS
  1
MLEADERSTYLE
  2
AcDbMLeaderStyle
  3
ACDB_MLEADERSTYLE_CLASS
 90
     4095
 91
        1
280
     0
281
     0
  0
CLASS
  1
ACDBSECTIONVIEWSTYLE
  2
AcDbSectionViewStyle
  3
ObjectDBX Classes
 90
     1025
 91
        1
280
     0
281
     0
  0
CLASS
  1
ACDBDETAILVIEWSTYLE
  2
AcDbDetailViewStyle
  3
ObjectDBX Classes
 90
     1025
 91
        1
280
     0
281
     0
  0
CLASS
  1
DICTIONARYVAR
  2
AcDbDictionaryVar
  3
ObjectDBX Classes
 90
        0
 91
        5
280
     0
281
     0
  0
CLASS
  1
CELLSTYLEMAP
  2
AcDbCellStyleMap
  3
ObjectDBX Classes
 90
     1152
 91
        1
280
     0
281
     0
  0
ENDSEC
  0
SECTION
  2
TABLES
  0
TABLE
  2
VPORT
  5
8
330
0
100
AcDbSymbolTable
 70
     1
  0
VPORT
  5
57
330
8
100
AcDbSymbolTableRecord
100
AcDbViewportTableRecord
  2
*Active
 70
     0
 10
0.0
 20
0.0
 11
1.0
 21
1.0
 12
0.0
 22
0.0
 13
0.0
 23
0.0
 14
1.0
 24
1.0
 15
0.0
 25
0.0
 16
0.0
 26
0.0
 36
1.0
 17
306.0
 27
516.0624869631647
 37
0.0
 40
858.7275590551177
 41
0.7070707070707066
 42
50.0
 43
0.0
 44
0.0
 50
0.0
 51
0.0
 71
     0
 72
   100
 73
     1
 74
     1
 75
     0
 76
     0
 77
     0
 78
     0
281
     0
 65
     1
110
0.0
120
0.0
130
0.0
111
1.0
121
0.0
131
0.0
112
0.0
122
1.0
132
0.0
 79
     0
146
0.0
 60
     3
 61
     5
292
     1
282
     1
141
0.0
142
0.0
 63
   250
421
  3355443
  0
ENDTAB
  0
TABLE
  2
LTYPE
  5
5
330
0
100
AcDbSymbolTable
 70
    20
  0
LTYPE
  5
5B
330
5
100
AcDbSymbolTableRecord
100
AcDbLinetypeTableRecord
  2
ByBlock
 70
     0
  3

 72
    65
 73
     0
 40
0.0
  0
LTYPE
  5
5C
330
5
100
AcDbSymbolTableRecord
100
AcDbLinetypeTableRecord
  2
ByLayer
 70
     0
  3

 72
    65
 73
     0
 40
0.0
  0
LTYPE
  5
5D
330
5
100
AcDbSymbolTableRecord
100
AcDbLinetypeTableRecord
  2
Continuous
 70
     0
  3
Solid line
 72
    65
 73
     0
 40
0.0
  0
LTYPE
  5
101
330
5
100
AcDbSymbolTableRecord
100
AcDbLinetypeTableRecord
  2
AI-Linetype-0
 70
     0
  3
Adobe Illustrator Linetype No. 0
 72
    65
 73
     2
 40
2.0
 49
1.0
 74
     0
 49
-1.0
 74
     0
  0
LTYPE
  5
103
330
5
100
AcDbSymbolTableRecord
100
AcDbLinetypeTableRecord
  2
AI-Linetype-1
 70
     0
  3
Adobe Illustrator Linetype No. 1
 72
    65
 73
     2
 40
2.0
 49
1.0
 74
     0
 49
-1.0
 74
     0
  0
LTYPE
  5
105
330
5
100
AcDbSymbolTableRecord
100
AcDbLinetypeTableRecord
  2
AI-Linetype-2
 70
     0
  3
Adobe Illustrator Linetype No. 2
 72
    65
 73
     2
 40
2.0
 49
1.0
 74
     0
 49
-1.0
 74
     0
  0
LTYPE
  5
107
330
5
100
AcDbSymbolTableRecord
100
AcDbLinetypeTableRecord
  2
AI-Linetype-3
 70
     0
  3
Adobe Illustrator Linetype No. 3
 72
    65
 73
     2
 40
2.0
 49
1.0
 74
     0
 49
-1.0
 74
     0
  0
LTYPE
  5
109
330
5
100
AcDbSymbolTableRecord
100
AcDbLinetypeTableRecord
  2
AI-Linetype-4
 70
     0
  3
Adobe Illustrator Linetype No. 4
 72
    65
 73
     2
 40
2.0
 49
1.0
 74
     0
 49
-1.0
 74
     0
  0
LTYPE
  5
10B
330
5
100
AcDbSymbolTableRecord
100
AcDbLinetypeTableRecord
  2
AI-Linetype-5
 70
     0
  3
Adobe Illustrator Linetype No. 5
 72
    65
 73
     2
 40
2.0
 49
1.0
 74
     0
 49
-1.0
 74
     0
  0
LTYPE
  5
10D
330
5
100
AcDbSymbolTableRecord
100
AcDbLinetypeTableRecord
  2
AI-Linetype-6
 70
     0
  3
Adobe Illustrator Linetype No. 6
 72
    65
 73
     2
 40
2.0
 49
1.0
 74
     0
 49
-1.0
 74
     0
  0
LTYPE
  5
10F
330
5
100
AcDbSymbolTableRecord
100
AcDbLinetypeTableRecord
  2
AI-Linetype-7
 70
     0
  3
Adobe Illustrator Linetype No. 7
 72
    65
 73
     2
 40
2.0
 49
1.0
 74
     0
 49
-1.0
 74
     0
  0
LTYPE
  5
111
330
5
100
AcDbSymbolTableRecord
100
AcDbLinetypeTableRecord
  2
AI-Linetype-8
 70
     0
  3
Adobe Illustrator Linetype No. 8
 72
    65
 73
     2
 40
2.0
 49
1.0
 74
     0
 49
-1.0
 74
     0
  0
LTYPE
  5
14A
330
5
100
AcDbSymbolTableRecord
100
AcDbLinetypeTableRecord
  2
AI-Linetype-9
 70
     0
  3
Adobe Illustrator Linetype No. 9
 72
    65
 73
     2
 40
1.0
 49
0.5
 74
     0
 49
-0.5
 74
     0
  0
LTYPE
  5
14C
330
5
100
AcDbSymbolTableRecord
100
AcDbLinetypeTableRecord
  2
AI-Linetype-10
 70
     0
  3
Adobe Illustrator Linetype No. 10
 72
    65
 73
     2
 40
1.0
 49
0.5
 74
     0
 49
-0.5
 74
     0
  0
LTYPE
  5
14E
330
5
100
AcDbSymbolTableRecord
100
AcDbLinetypeTableRecord
  2
AI-Linetype-11
 70
     0
  3
Adobe Illustrator Linetype No. 11
 72
    65
 73
     2
 40
1.0
 49
0.5
 74
     0
 49
-0.5
 74
     0
  0
LTYPE
  5
150
330
5
100
AcDbSymbolTableRecord
100
AcDbLinetypeTableRecord
  2
AI-Linetype-12
 70
     0
  3
Adobe Illustrator Linetype No. 12
 72
    65
 73
     2
 40
2.0
 49
1.0
 74
     0
 49
-1.0
 74
     0
  0
LTYPE
  5
152
330
5
100
AcDbSymbolTableRecord
100
AcDbLinetypeTableRecord
  2
AI-Linetype-13
 70
     0
  3
Adobe Illustrator Linetype No. 13
 72
    65
 73
     2
 40
2.0
 49
1.0
 74
     0
 49
-1.0
 74
     0
  0
LTYPE
  5
154
330
5
100
AcDbSymbolTableRecord
100
AcDbLinetypeTableRecord
  2
AI-Linetype-14
 70
     0
  3
Adobe Illustrator Linetype No. 14
 72
    65
 73
     2
 40
1.0
 49
0.5
 74
     0
 49
-0.5
 74
     0
  0
LTYPE
  5
156
330
5
100
AcDbSymbolTableRecord
100
AcDbLinetypeTableRecord
  2
AI-Linetype-15
 70
     0
  3
Adobe Illustrator Linetype No. 15
 72
    65
 73
     2
 40
2.0
 49
1.0
 74
     0
 49
-1.0
 74
     0
  0
LTYPE
  5
158
330
5
100
AcDbSymbolTableRecord
100
AcDbLinetypeTableRecord
  2
AI-Linetype-16
 70
     0
  3
Adobe Illustrator Linetype No. 16
 72
    65
 73
     2
 40
2.0
 49
1.0
 74
     0
 49
-1.0
 74
     0
  0
LTYPE
  5
15A
330
5
100
AcDbSymbolTableRecord
100
AcDbLinetypeTableRecord
  2
AI-Linetype-17
 70
     0
  3
Adobe Illustrator Linetype No. 17
 72
    65
 73
     2
 40
2.0
 49
1.0
 74
     0
 49
-1.0
 74
     0
  0
LTYPE
  5
15C
330
5
100
AcDbSymbolTableRecord
100
AcDbLinetypeTableRecord
  2
AI-Linetype-18
 70
     0
  3
Adobe Illustrator Linetype No. 18
 72
    65
 73
     2
 40
2.0
 49
1.0
 74
     0
 49
-1.0
 74
     0
  0
ENDTAB
  0
TABLE
  2
LAYER
  5
2
330
0
100
AcDbSymbolTable
 70
     7
  0
LAYER
  5
54
330
2
100
AcDbSymbolTableRecord
100
AcDbLayerTableRecord
  2
0
 70
     0
 62
     7
  6
Continuous
370
    -3
390
F
347
21
348
0
  0
LAYER
  5
78
330
2
100
AcDbSymbolTableRecord
100
AcDbLayerTableRecord
  2
Beam
 70
     0
 62
     7
  6
Continuous
370
     0
390
F
347
21
348
0
  0
LAYER
  5
C0
330
2
100
AcDbSymbolTableRecord
100
AcDbLayerTableRecord
  2
Track
 70
     0
 62
     7
  6
Continuous
370
     0
390
F
347
21
348
0
  0
LAYER
  5
D1
330
2
100
AcDbSymbolTableRecord
100
AcDbLayerTableRecord
  2
Stud
 70
     0
 62
     7
  6
Continuous
370
     0
390
F
347
21
348
0
  0
LAYER
  5
E2
330
2
100
AcDbSymbolTableRecord
100
AcDbLayerTableRecord
  2
Conector
 70
     0
 62
     7
  6
Continuous
370
     0
390
F
347
21
348
0
  0
LAYER
  5
12D
330
2
100
AcDbSymbolTableRecord
100
AcDbLayerTableRecord
  2
Fasteners
 70
     0
 62
     7
  6
Continuous
370
     0
390
F
347
21
348
0
  0
LAYER
  5
161
330
2
100
AcDbSymbolTableRecord
100
AcDbLayerTableRecord
  2
callouts
 70
     0
 62
     7
  6
Continuous
370
     0
390
F
347
21
348
0
  0
ENDTAB
  0
TABLE
  2
STYLE
  5
3
330
0
100
AcDbSymbolTable
 70
     2
  0
STYLE
  5
55
330
3
100
AcDbSymbolTableRecord
100
AcDbTextStyleTableRecord
  2
Standard
 70
     0
 40
0.0
 41
1.0
 50
0.0
 71
     0
 42
0.2
  3
txt
  4

  0
STYLE
  5
5A
330
3
100
AcDbSymbolTableRecord
100
AcDbTextStyleTableRecord
  2
Annotative
 70
     0
 40
0.0
 41
1.0
 50
0.0
 71
     0
 42
0.2
  3
txt
  4

1001
AcadAnnotative
1000
AnnotativeData
1002
{
1070
     1
1070
     1
1002
}
  0
ENDTAB
  0
TABLE
  2
VIEW
  5
6
330
0
100
AcDbSymbolTable
 70
     0
  0
ENDTAB
  0
TABLE
  2
UCS
  5
7
330
0
100
AcDbSymbolTable
 70
     0
  0
ENDTAB
  0
TABLE
  2
APPID
  5
9
330
0
100
AcDbSymbolTable
 70
     2
  0
APPID
  5
56
330
9
100
AcDbSymbolTableRecord
100
AcDbRegAppTableRecord
  2
ACAD
 70
     0
  0
APPID
  5
5E
330
9
100
AcDbSymbolTableRecord
100
AcDbRegAppTableRecord
  2
AcadAnnotative
 70
     0
  0
ENDTAB
  0
TABLE
  2
DIMSTYLE
  5
A
330
0
100
AcDbSymbolTable
 70
     2
100
AcDbDimStyleTable
 71
     0
  0
DIMSTYLE
105
58
330
A
100
AcDbSymbolTableRecord
100
AcDbDimStyleTableRecord
  2
Standard
 70
     0
340
55
  0
DIMSTYLE
105
59
330
A
100
AcDbSymbolTableRecord
100
AcDbDimStyleTableRecord
  2
Annotative
 70
     0
340
55
1001
AcadAnnotative
1000
AnnotativeData
1002
{
1070
     1
1070
     1
1002
}
  0
ENDTAB
  0
TABLE
  2
BLOCK_RECORD
  5
1
330
0
100
AcDbSymbolTable
 70
    11
  0
BLOCK_RECORD
  5
70
330
1
100
AcDbSymbolTableRecord
100
AcDbBlockTableRecord
  2
*Model_Space
340
73
 70
     0
280
     1
281
     0
  0
BLOCK_RECORD
  5
6C
330
1
100
AcDbSymbolTableRecord
100
AcDbBlockTableRecord
  2
*Paper_Space
340
6F
 70
     0
280
     1
281
     0
  0
BLOCK_RECORD
  5
74
330
1
100
AcDbSymbolTableRecord
100
AcDbBlockTableRecord
  2
*Paper_Space0
340
77
 70
     0
280
     1
281
     0
  0
BLOCK_RECORD
  5
7D
330
1
100
AcDbSymbolTableRecord
100
AcDbBlockTableRecord
  2
Block_0
340
0
102
{BLKREFS
331
7E
102
}
 70
     0
280
     1
281
     0
  0
BLOCK_RECORD
  5
A1
330
1
100
AcDbSymbolTableRecord
100
AcDbBlockTableRecord
  2
Block_1
340
0
102
{BLKREFS
331
A2
102
}
 70
     0
280
     1
281
     0
  0
BLOCK_RECORD
  5
B1
330
1
100
AcDbSymbolTableRecord
100
AcDbBlockTableRecord
  2
Block_2
340
0
102
{BLKREFS
331
B2
102
}
 70
     0
280
     1
281
     0
  0
BLOCK_RECORD
  5
B9
330
1
100
AcDbSymbolTableRecord
100
AcDbBlockTableRecord
  2
Block_3
340
0
102
{BLKREFS
331
BA
102
}
 70
     0
280
     1
281
     0
  0
BLOCK_RECORD
  5
C3
330
1
100
AcDbSymbolTableRecord
100
AcDbBlockTableRecord
  2
Block_4
340
0
102
{BLKREFS
331
C4
102
}
 70
     0
280
     1
281
     0
  0
BLOCK_RECORD
  5
D4
330
1
100
AcDbSymbolTableRecord
100
AcDbBlockTableRecord
  2
Block_5
340
0
102
{BLKREFS
331
D5
102
}
 70
     0
280
     1
281
     0
  0
BLOCK_RECORD
  5
F6
330
1
100
AcDbSymbolTableRecord
100
AcDbBlockTableRecord
  2
Block_6
340
0
102
{BLKREFS
331
F7
102
}
 70
     0
280
     1
281
     0
  0
BLOCK_RECORD
  5
112
330
1
100
AcDbSymbolTableRecord
100
AcDbBlockTableRecord
  2
Block_7
340
0
102
{BLKREFS
331
113
102
}
 70
     0
280
     1
281
     0
  0
BLOCK_RECORD
  5
11B
330
1
100
AcDbSymbolTableRecord
100
AcDbBlockTableRecord
  2
Block_8
340
0
102
{BLKREFS
331
11C
102
}
 70
     0
280
     1
281
     0
  0
BLOCK_RECORD
  5
127
330
1
100
AcDbSymbolTableRecord
100
AcDbBlockTableRecord
  2
Block_9
340
0
102
{BLKREFS
331
128
102
}
 70
     0
280
     1
281
     0
  0
ENDTAB
  0
ENDSEC
  0
SECTION
  2
BLOCKS
  0
BLOCK
  5
71
330
70
100
AcDbEntity
  8
0
100
AcDbBlockBegin
  2
*Model_Space
 70
     0
 10
0.0
 20
0.0
 30
0.0
  3
*Model_Space
  1

  0
ENDBLK
  5
72
330
70
100
AcDbEntity
  8
0
100
AcDbBlockEnd
  0
BLOCK
  5
6D
330
6C
100
AcDbEntity
 67
     1
  8
0
100
AcDbBlockBegin
  2
*Paper_Space
 70
     0
 10
0.0
 20
0.0
 30
0.0
  3
*Paper_Space
  1

  0
ENDBLK
  5
6E
330
6C
100
AcDbEntity
 67
     1
  8
0
100
AcDbBlockEnd
  0
BLOCK
  5
75
330
74
100
AcDbEntity
 67
     1
  8
0
100
AcDbBlockBegin
  2
*Paper_Space0
 70
     0
 10
0.0
 20
0.0
 30
0.0
  3
*Paper_Space0
  1

  0
ENDBLK
  5
76
330
74
100
AcDbEntity
 67
     1
  8
0
100
AcDbBlockEnd
  0
BLOCK
  5
7F
330
7D
100
AcDbEntity
  8
0
100
AcDbBlockBegin
  2
Block_0
 70
     0
 10
0.0
 20
0.0
 30
0.0
  3
Block_0
  1

  0
LINE
  5
81
330
7D
100
AcDbEntity
  8
Beam
 62
   250
420
  2301728
370
    18
100
AcDbLine
 10
415.1248817828527
 20
646.9301330854668
 30
0.0
 11
417.6875817181135
 21
645.3706331248631
 31
0.0
  0
LINE
  5
82
330
7D
100
AcDbEntity
  8
Beam
 62
   250
420
  2301728
370
    18
100
AcDbLine
 10
228.4730864980738
 20
760.5138302161012
 30
0.0
 11
412.4952920208743
 21
648.5303330450424
 31
0.0
  0
LINE
  5
83
330
7D
100
AcDbEntity
  8
Beam
 62
   250
420
  2301728
370
    18
100
AcDbLine
 10
221.7081866689696
 20
764.6305301121047
 30
0.0
 11
225.3942920208747
 21
762.3874301687701
 31
0.0
  0
ENDBLK
  5
80
330
7D
100
AcDbEntity
  8
0
100
AcDbBlockEnd
  0
BLOCK
  5
A3
330
A1
100
AcDbEntity
  8
0
100
AcDbBlockBegin
  2
Block_1
 70
     0
 10
0.0
 20
0.0
 30
0.0
  3
Block_1
  1

  0
LWPOLYLINE
  5
A5
330
A1
100
AcDbEntity
  8
Beam
 62
   250
420
  2301728
370
    25
100
AcDbPolyline
 90
        1
 70
     0
 43
0.0
 10
243.1535861272132
 20
778.4846297621206
  0
LWPOLYLINE
  5
A6
330
A1
100
AcDbEntity
  8
Beam
 62
   250
420
  2301728
370
    25
100
AcDbPolyline
 90
        1
 70
     0
 43
0.0
 10
218.490586750253
 20
763.9329301297275
  0
LWPOLYLINE
  5
A7
330
A1
100
AcDbEntity
  8
Beam
 62
   250
420
  2301728
370
    25
100
AcDbPolyline
 90
        1
 70
     0
 43
0.0
 10
218.490586750253
 20
698.7452317765074
  0
LWPOLYLINE
  5
A8
330
A1
100
AcDbEntity
  8
Beam
 62
   250
420
  2301728
370
    25
100
AcDbPolyline
 90
        1
 70
     0
 43
0.0
 10
206.5542920208745
 20
695.4606318594833
  0
LWPOLYLINE
  5
A9
330
A1
100
AcDbEntity
  8
Beam
 62
   250
420
  2301728
370
    25
100
AcDbPolyline
 90
        1
 70
     0
 43
0.0
 10
230.4269864487141
 20
681.6777322076687
  0
LWPOLYLINE
  5
AA
330
A1
100
AcDbEntity
  8
Beam
 62
   250
420
  2301728
370
    25
100
AcDbPolyline
 90
        1
 70
     0
 43
0.0
 10
218.490586750253
 20
678.0705322987942
  0
LWPOLYLINE
  5
AB
330
A1
100
AcDbEntity
  8
Beam
 62
   250
420
  2301728
370
    25
100
AcDbPolyline
 90
        1
 70
     0
 43
0.0
 10
218.490586750253
 20
613.2055339374219
  0
LWPOLYLINE
  5
AC
330
A1
100
AcDbEntity
  8
Beam
 62
   250
420
  2301728
370
    25
100
AcDbPolyline
 90
        1
 70
     0
 43
0.0
 10
243.1535861272132
 20
620.6647337489867
  0
LWPOLYLINE
  5
AD
330
A1
100
AcDbEntity
  8
Beam
 62
   250
420
  2301728
370
    25
100
AcDbPolyline
 90
        1
 70
     0
 43
0.0
 10
243.1535861272132
 20
613.491133930207
  0
SPLINE
  5
AE
330
A1
100
AcDbEntity
  8
Beam
 62
   250
420
  2301728
370
    25
100
AcDbSpline
210
0.0
220
0.0
230
1.0
 70
     8
 71
     3
 72
    50
 73
    46
 74
     0
 42
0.0000000001
 43
0.0000000001
 40
0.0
 40
0.0
 40
0.0
 40
0.0
 40
1.0
 40
1.0
 40
1.0
 40
2.0
 40
2.0
 40
2.0
 40
3.0
 40
3.0
 40
3.0
 40
4.0
 40
4.0
 40
4.0
 40
5.0
 40
5.0
 40
5.0
 40
6.0
 40
6.0
 40
6.0
 40
7.0
 40
7.0
 40
7.0
 40
8.0
 40
8.0
 40
8.0
 40
9.0
 40
9.0
 40
9.0
 40
10.0
 40
10.0
 40
10.0
 40
11.0
 40
11.0
 40
11.0
 40
12.0
 40
12.0
 40
12.0
 40
13.0
 40
13.0
 40
13.0
 40
14.0
 40
14.0
 40
14.0
 40
15.0
 40
15.0
 40
15.0
 40
15.0
 10
243.1535861272132
 20
785.6582295809003
 30
0.0
 10
243.1535861272132
 20
785.6582295809003
 30
0.0
 10
442.1302920208745
 20
659.7320476190479
 30
0.0
 10
442.1302920208745
 20
659.7320476190479
 30
0.0
 10
442.1302920208745
 20
659.7320476190479
 30
0.0
 10
442.1302920208745
 20
653.1032329295213
 30
0.0
 10
442.1302920208745
 20
653.1032329295213
 30
0.0
 10
442.1302920208745
 20
653.1032329295213
 30
0.0
 10
421.721781616201
 20
645.6256331184213
 30
0.0
 10
421.721781616201
 20
645.6256331184213
 30
0.0
 10
420.0538816583357
 20
645.014533133859
 30
0.0
 10
418.9449816863489
 20
643.42713317396
 30
0.0
 10
418.9449816863489
 20
641.6508332188332
 30
0.0
 10
418.9449816863489
 20
641.6508332188332
 30
0.0
 10
418.9449816863489
 20
597.0188343463323
 30
0.0
 10
418.9449816863489
 20
597.0188343463323
 30
0.0
 10
418.9449816863489
 20
597.0188343463323
 30
0.0
 10
413.8435818152211
 20
595.0505343960558
 30
0.0
 10
413.8435818152211
 20
595.0505343960558
 30
0.0
 10
413.8435818152211
 20
595.0505343960558
 30
0.0
 10
407.6707819711591
 20
593.351934438966
 30
0.0
 10
407.6707819711591
 20
593.351934438966
 30
0.0
 10
407.6707819711591
 20
593.351934438966
 30
0.0
 10
430.8812920208747
 20
579.9513347774936
 30
0.0
 10
430.8812920208747
 20
579.9513347774936
 30
0.0
 10
430.8812920208747
 20
579.9513347774936
 30
0.0
 10
425.7799815136823
 20
577.9830476190473
 30
0.0
 10
425.7799815136823
 20
577.9830476190473
 30
0.0
 10
425.7799815136823
 20
577.9830476190473
 30
0.0
 10
418.9449816863489
 20
575.9174348793985
 30
0.0
 10
418.9449816863489
 20
575.9174348793985
 30
0.0
 10
418.9449816863489
 20
575.9174348793985
 30
0.0
 10
418.9449816863489
 20
532.0348359879663
 30
0.0
 10
418.9449816863489
 20
532.0348359879663
 30
0.0
 10
418.9449816863489
 20
532.0348359879663
 30
0.0
 10
442.1302920208745
 20
520.3452362832704
 30
0.0
 10
442.1302920208745
 20
520.3452362832704
 30
0.0
 10
442.1302920208745
 20
520.3452362832704
 30
0.0
 10
442.1302920208745
 20
513.7164364507279
 30
0.0
 10
442.1302920208745
 20
513.7164364507279
 30
0.0
 10
442.1302920208745
 20
513.7164364507279
 30
0.0
 10
391.1667823880853
 20
498.8571368261054
 30
0.0
 10
391.1667823880853
 20
498.8571368261054
 30
0.0
 10
391.1667823880853
 20
498.8571368261054
 30
0.0
 10
189.5762920208744
 20
592.9307344496065
 30
0.0
 10
189.5762920208744
 20
592.9307344496065
 30
0.0
  0
LWPOLYLINE
  5
AF
330
A1
100
AcDbEntity
  8
Beam
 62
   250
420
  2301728
370
    25
100
AcDbPolyline
 90
        1
 70
     0
 43
0.0
 10
243.1535861272132
 20
778.4846297621206
  0
LWPOLYLINE
  5
B0
330
A1
100
AcDbEntity
  8
Beam
 62
   250
420
  2301728
370
    25
100
AcDbPolyline
 90
        1
 70
     0
 43
0.0
 10
243.1535861272132
 20
785.6582295809003
  0
ENDBLK
  5
A4
330
A1
100
AcDbEntity
  8
0
100
AcDbBlockEnd
  0
BLOCK
  5
B3
330
B1
100
AcDbEntity
  8
0
100
AcDbBlockBegin
  2
Block_2
 70
     0
 10
0.0
 20
0.0
 30
0.0
  3
Block_2
  1

  0
LINE
  5
B5
330
B1
100
AcDbEntity
  8
Beam
 62
   250
420
  2301728
370
    25
100
AcDbLine
 10
243.1535861272132
 20
785.6582295809003
 30
0.0
 11
243.1535861272132
 21
778.4846297621206
 31
0.0
  0
LWPOLYLINE
  5
B6
330
B1
100
AcDbEntity
  8
Beam
 62
   250
420
  2301728
370
    25
100
AcDbPolyline
 90
        1
 70
     0
 43
0.0
 10
243.1535861272132
 20
778.4846297621206
  0
LWPOLYLINE
  5
B7
330
B1
100
AcDbEntity
  8
Beam
 62
   250
420
  2301728
370
    25
100
AcDbPolyline
 90
        1
 70
     0
 43
0.0
 10
218.490586750253
 20
698.7452317765074
  0
SPLINE
  5
B8
330
B1
100
AcDbEntity
  8
Beam
 62
   250
420
  2301728
370
    25
100
AcDbSpline
210
0.0
220
0.0
230
1.0
 70
     8
 71
     3
 72
    38
 73
    34
 74
     0
 42
0.0000000001
 43
0.0000000001
 40
0.0
 40
0.0
 40
0.0
 40
0.0
 40
1.0
 40
1.0
 40
1.0
 40
2.0
 40
2.0
 40
2.0
 40
3.0
 40
3.0
 40
3.0
 40
4.0
 40
4.0
 40
4.0
 40
5.0
 40
5.0
 40
5.0
 40
6.0
 40
6.0
 40
6.0
 40
7.0
 40
7.0
 40
7.0
 40
8.0
 40
8.0
 40
8.0
 40
9.0
 40
9.0
 40
9.0
 40
10.0
 40
10.0
 40
10.0
 40
11.0
 40
11.0
 40
11.0
 40
11.0
 10
243.1535861272132
 20
785.6582295809003
 30
0.0
 10
243.1535861272132
 20
785.6582295809003
 30
0.0
 10
189.5762920208744
 20
759.7089302364347
 30
0.0
 10
189.5762920208744
 20
759.7089302364347
 30
0.0
 10
189.5762920208744
 20
759.7089302364347
 30
0.0
 10
189.5762920208744
 20
752.6475304148207
 30
0.0
 10
189.5762920208744
 20
752.6475304148207
 30
0.0
 10
189.5762920208744
 20
752.6475304148207
 30
0.0
 10
211.3652920208742
 20
763.1551301493764
 30
0.0
 10
211.3652920208742
 20
763.1551301493764
 30
0.0
 10
211.5564869254231
 20
763.2472301470498
 30
0.0
 10
211.7659869201307
 20
763.2951301458397
 30
0.0
 10
211.9782920208745
 20
763.2951301458397
 30
0.0
 10
212.7575868950807
 20
763.2951301458397
 30
0.0
 10
213.3892920208745
 20
762.6634301617977
 30
0.0
 10
213.3892920208745
 20
761.8841301814845
 30
0.0
 10
213.3892920208745
 20
761.8841301814845
 30
0.0
 10
213.3892920208745
 20
738.683047619048
 30
0.0
 10
213.3892920208745
 20
738.683047619048
 30
0.0
 10
213.3892920208745
 20
738.683047619048
 30
0.0
 10
213.3892920208745
 20
697.3415318119678
 30
0.0
 10
213.3892920208745
 20
697.3415318119678
 30
0.0
 10
213.3892920208745
 20
697.3415318119678
 30
0.0
 10
206.5542920208745
 20
695.4606318594833
 30
0.0
 10
206.5542920208745
 20
695.4606318594833
 30
0.0
 10
206.5542920208745
 20
695.4606318594833
 30
0.0
 10
201.452987180659
 20
693.4923319092067
 30
0.0
 10
201.452987180659
 20
693.4923319092067
 30
0.0
 10
201.452987180659
 20
693.4923319092067
 30
0.0
 10
224.8405865898385
 20
679.9895322503162
 30
0.0
 10
224.8405865898385
 20
679.9895322503162
 30
0.0
 10
224.8405865898385
 20
679.9895322503162
 30
0.0
 10
218.490586750253
 20
678.0705322987942
 30
0.0
 10
218.490586750253
 20
678.0705322987942
 30
0.0
  0
ENDBLK
  5
B4
330
B1
100
AcDbEntity
  8
0
100
AcDbBlockEnd
  0
BLOCK
  5
BB
330
B9
100
AcDbEntity
  8
0
100
AcDbBlockBegin
  2
Block_3
 70
     0
 10
0.0
 20
0.0
 30
0.0
  3
Block_3
  1

  0
LWPOLYLINE
  5
BD
330
B9
100
AcDbEntity
  8
Beam
 62
   250
420
  2301728
370
    25
100
AcDbPolyline
 90
        1
 70
     0
 43
0.0
 10
243.1535861272132
 20
620.6647337489867
  0
LWPOLYLINE
  5
BE
330
B9
100
AcDbEntity
  8
Beam
 62
   250
420
  2301728
370
    25
100
AcDbPolyline
 90
        1
 70
     0
 43
0.0
 10
243.1535861272132
 20
613.491133930207
  0
SPLINE
  5
BF
330
B9
100
AcDbEntity
  8
Beam
 62
   250
420
  2301728
370
    25
100
AcDbSpline
210
0.0
220
0.0
230
1.0
 70
     8
 71
     3
 72
    20
 73
    16
 74
     0
 42
0.0000000001
 43
0.0000000001
 40
0.0
 40
0.0
 40
0.0
 40
0.0
 40
1.0
 40
1.0
 40
1.0
 40
2.0
 40
2.0
 40
2.0
 40
3.0
 40
3.0
 40
3.0
 40
4.0
 40
4.0
 40
4.0
 40
5.0
 40
5.0
 40
5.0
 40
5.0
 10
218.490586750253
 20
678.0705322987942
 30
0.0
 10
218.490586750253
 20
678.0705322987942
 30
0.0
 10
213.3892920208745
 20
676.1021323485201
 30
0.0
 10
213.3892920208745
 20
676.1021323485201
 30
0.0
 10
213.3892920208745
 20
676.1021323485201
 30
0.0
 10
213.3892920208745
 20
612.0842339657484
 30
0.0
 10
213.3892920208745
 20
612.0842339657484
 30
0.0
 10
213.3892920208745
 20
610.3343340099545
 30
0.0
 10
212.3125869063224
 20
608.7648340496034
 30
0.0
 10
210.6799869475653
 20
608.134934065516
 30
0.0
 10
210.6799869475653
 20
608.134934065516
 30
0.0
 10
189.5762920208744
 20
599.9921342712204
 30
0.0
 10
189.5762920208744
 20
599.9921342712204
 30
0.0
 10
189.5762920208744
 20
599.9921342712204
 30
0.0
 10
189.5762920208744
 20
592.9307344496065
 30
0.0
 10
189.5762920208744
 20
592.9307344496065
 30
0.0
  0
ENDBLK
  5
BC
330
B9
100
AcDbEntity
  8
0
100
AcDbBlockEnd
  0
BLOCK
  5
C5
330
C3
100
AcDbEntity
  8
0
100
AcDbBlockBegin
  2
Block_4
 70
     0
 10
0.0
 20
0.0
 30
0.0
  3
Block_4
  1

  0
LINE
  5
C7
330
C3
100
AcDbEntity
  8
Track
 62
   250
420
  2301728
370
    13
100
AcDbLine
 10
223.0732920208748
 20
583.2007346954069
 30
0.0
 11
220.2282920208745
 21
584.535734661682
 31
0.0
  0
LINE
  5
C8
330
C3
100
AcDbEntity
  8
Track
 62
   250
420
  2301728
370
    13
100
AcDbLine
 10
272.5893853836023
 20
559.9657352823724
 30
0.0
 11
225.4051865755755
 21
582.1064347230512
 31
0.0
  0
LINE
  5
C9
330
C3
100
AcDbEntity
  8
Track
 62
   250
420
  2301728
370
    13
100
AcDbLine
 10
392.6704823500986
 20
503.6188367058148
 30
0.0
 11
318.6187842208019
 21
538.3668358280065
 31
0.0
  0
LINE
  5
CA
330
C3
100
AcDbEntity
  8
Track
 62
   250
420
  2301728
370
    13
100
AcDbLine
 10
397.3573822316976
 20
501.4195367613738
 30
0.0
 11
394.843682295199
 21
502.5990476190473
 31
0.0
  0
ENDBLK
  5
C6
330
C3
100
AcDbEntity
  8
0
100
AcDbBlockEnd
  0
BLOCK
  5
D6
330
D4
100
AcDbEntity
  8
0
100
AcDbBlockBegin
  2
Block_5
 70
     0
 10
0.0
 20
0.0
 30
0.0
  3
Block_5
  1

  0
LINE
  5
D8
330
D4
100
AcDbEntity
  8
Stud
 62
   250
420
  2301728
370
    13
100
AcDbLine
 10
305.601584549644
 20
406.702439154129
 30
0.0
 11
305.601584549644
 21
403.9627392233397
 31
0.0
  0
LINE
  5
D9
330
D4
100
AcDbEntity
  8
Stud
 62
   250
420
  2301728
370
    13
100
AcDbLine
 10
305.5755845503008
 20
557.7730476190481
 30
0.0
 11
305.601584549644
 21
409.1190476190477
 31
0.0
  0
ENDBLK
  5
D7
330
D4
100
AcDbEntity
  8
0
100
AcDbBlockEnd
  0
BLOCK
  5
F8
330
F6
100
AcDbEntity
  8
0
100
AcDbBlockBegin
  2
Block_6
 70
     0
 10
0.0
 20
0.0
 30
0.0
  3
Block_6
  1

  0
SPLINE
  5
FA
330
F6
100
AcDbEntity
  8
Conector
 62
   250
420
  2301728
370
     5
100
AcDbSpline
210
0.0
220
0.0
230
1.0
 70
     8
 71
     3
 72
    17
 73
    13
 74
     0
 42
0.0000000001
 43
0.0000000001
 40
0.0
 40
0.0
 40
0.0
 40
0.0
 40
1.0
 40
1.0
 40
1.0
 40
2.0
 40
2.0
 40
2.0
 40
3.0
 40
3.0
 40
3.0
 40
4.0
 40
4.0
 40
4.0
 40
4.0
 10
297.2157847614872
 20
542.9783357115102
 30
0.0
 10
297.2157847614872
 20
542.9783357115102
 30
0.0
 10
297.2157847614872
 20
539.8687357900653
 30
0.0
 10
297.2157847614872
 20
539.8687357900653
 30
0.0
 10
297.2157847614872
 20
539.6509357955673
 30
0.0
 10
297.1584847629347
 20
539.4369358009734
 30
0.0
 10
297.0496847656832
 20
539.2483358057379
 30
0.0
 10
296.9407847684342
 20
539.0202358115002
 30
0.0
 10
296.7318847737115
 20
538.8559358156507
 30
0.0
 10
296.4845847799588
 20
538.8038358169669
 30
0.0
 10
296.3184847841549
 20
538.7855358174292
 30
0.0
 10
296.1573847882246
 20
538.8674358153602
 30
0.0
 10
296.074292020874
 20
539.0123358116998
 30
0.0
  0
LINE
  5
FB
330
F6
100
AcDbEntity
  8
Conector
 62
   250
420
  2301728
370
     5
100
AcDbLine
 10
297.2157847614872
 20
560.2519352751423
 30
0.0
 11
297.2157847614872
 21
544.806535665326
 31
0.0
  0
ENDBLK
  5
F9
330
F6
100
AcDbEntity
  8
0
100
AcDbBlockEnd
  0
BLOCK
  5
114
330
112
100
AcDbEntity
  8
0
100
AcDbBlockBegin
  2
Block_7
 70
     0
 10
0.0
 20
0.0
 30
0.0
  3
Block_7
  1

  0
LWPOLYLINE
  5
116
330
112
100
AcDbEntity
  8
Conector
 62
   250
420
  2301728
370
     9
100
AcDbPolyline
 90
        1
 70
     0
 43
0.0
 10
268.1867854948214
 20
568.1640476190477
  0
SPLINE
  5
117
330
112
100
AcDbEntity
  8
Conector
 62
   250
420
  2301728
370
     5
100
AcDbSpline
210
0.0
220
0.0
230
1.0
 70
     8
 71
     3
 72
    20
 73
    16
 74
     0
 42
0.0000000001
 43
0.0000000001
 40
0.0
 40
0.0
 40
0.0
 40
0.0
 40
1.0
 40
1.0
 40
1.0
 40
2.0
 40
2.0
 40
2.0
 40
3.0
 40
3.0
 40
3.0
 40
4.0
 40
4.0
 40
4.0
 40
5.0
 40
5.0
 40
5.0
 40
5.0
 10
267.5683855104435
 20
567.4264350938992
 30
0.0
 10
267.5683855104435
 20
567.4264350938992
 30
0.0
 10
266.9398855263207
 20
567.7250476190474
 30
0.0
 10
266.9398855263207
 20
567.7250476190474
 30
0.0
 10
266.8689855281118
 20
567.7586350855071
 30
0.0
 10
266.8060855297008
 20
567.8070476190478
 30
0.0
 10
266.7553855309816
 20
567.8669350827712
 30
0.0
 10
266.7510855310902
 20
567.8719350826449
 30
0.0
 10
266.7471855311887
 20
567.8773350825085
 30
0.0
 10
266.7435855312797
 20
567.882935082367
 30
0.0
 10
266.6989855324064
 20
567.9525350806089
 30
0.0
 10
266.7191855318961
 20
568.0451350782695
 30
0.0
 10
266.7888855301353
 20
568.0897350771429
 30
0.0
 10
266.9743855254492
 20
568.2086350741392
 30
0.0
 10
267.1879855200532
 20
568.276335072429
 30
0.0
 10
267.408085514493
 20
568.286047619048
 30
0.0
  0
SPLINE
  5
118
330
112
100
AcDbEntity
  8
Conector
 62
   250
420
  2301728
370
     5
100
AcDbSpline
210
0.0
220
0.0
230
1.0
 70
     8
 71
     3
 72
    17
 73
    13
 74
     0
 42
0.0000000001
 43
0.0000000001
 40
0.0
 40
0.0
 40
0.0
 40
0.0
 40
1.0
 40
1.0
 40
1.0
 40
2.0
 40
2.0
 40
2.0
 40
3.0
 40
3.0
 40
3.0
 40
4.0
 40
4.0
 40
4.0
 40
4.0
 10
277.040885271148
 20
537.0774358605794
 30
0.0
 10
277.040885271148
 20
537.0774358605794
 30
0.0
 10
277.040885271148
 20
533.2176359580862
 30
0.0
 10
277.040885271148
 20
533.2176359580862
 30
0.0
 10
277.040885271148
 20
532.920635965589
 30
0.0
 10
276.9345852738334
 20
532.6334359728443
 30
0.0
 10
276.741385278714
 20
532.4079359785409
 30
0.0
 10
276.6335852814373
 20
532.2821359817189
 30
0.0
 10
276.4877852851205
 20
532.1949359839218
 30
0.0
 10
276.3260852892054
 20
532.1594359848186
 30
0.0
 10
276.1204852943992
 20
532.1368359853895
 30
0.0
 10
275.927085299285
 20
532.2607359822596
 30
0.0
 10
275.8616853009371
 20
532.4569359773031
 30
0.0
  0
SPLINE
  5
119
330
112
100
AcDbEntity
  8
Conector
 62
   250
420
  2301728
370
     5
100
AcDbSpline
210
0.0
220
0.0
230
1.0
 70
     8
 71
     3
 72
    14
 73
    10
 74
     0
 42
0.0000000001
 43
0.0000000001
 40
0.0
 40
0.0
 40
0.0
 40
0.0
 40
1.0
 40
1.0
 40
1.0
 40
2.0
 40
2.0
 40
2.0
 40
3.0
 40
3.0
 40
3.0
 40
3.0
 10
275.9461852988025
 20
564.4711351685564
 30
0.0
 10
275.9461852988025
 20
564.4711351685564
 30
0.0
 10
276.7647852781229
 20
564.081435178401
 30
0.0
 10
276.7647852781229
 20
564.081435178401
 30
0.0
 10
276.9427852736262
 20
563.9569351815461
 30
0.0
 10
277.0464852710065
 20
563.7514351867375
 30
0.0
 10
277.040885271148
 20
563.5342351922245
 30
0.0
 10
277.040885271148
 20
563.5342351922245
 30
0.0
 10
277.040885271148
 20
539.1020476190479
 30
0.0
 10
277.040885271148
 20
539.1020476190479
 30
0.0
  0
LINE
  5
11A
330
112
100
AcDbEntity
  8
Conector
 62
   250
420
  2301728
370
     5
100
AcDbLine
 10
268.6929854820337
 20
567.9231350813515
 30
0.0
 11
274.9583853237564
 21
564.9412351566807
 31
0.0
  0
ENDBLK
  5
115
330
112
100
AcDbEntity
  8
0
100
AcDbBlockEnd
  0
BLOCK
  5
11D
330
11B
100
AcDbEntity
  8
0
100
AcDbBlockBegin
  2
Block_8
 70
     0
 10
0.0
 20
0.0
 30
0.0
  3
Block_8
  1

  0
LWPOLYLINE
  5
11F
330
11B
100
AcDbEntity
  8
Conector
 62
   250
420
  2301728
370
     9
100
AcDbPolyline
 90
        1
 70
     0
 43
0.0
 10
281.8462920208749
 20
567.8593350829633
  0
SPLINE
  5
120
330
11B
100
AcDbEntity
  8
Conector
 62
   250
420
  2301728
370
     5
100
AcDbSpline
210
0.0
220
0.0
230
1.0
 70
     8
 71
     3
 72
    14
 73
    10
 74
     0
 42
0.0000000001
 43
0.0000000001
 40
0.0
 40
0.0
 40
0.0
 40
0.0
 40
1.0
 40
1.0
 40
1.0
 40
2.0
 40
2.0
 40
2.0
 40
3.0
 40
3.0
 40
3.0
 40
3.0
 10
280.5902920208746
 20
567.4207350940433
 30
0.0
 10
280.5075851835718
 20
567.4535350932147
 30
0.0
 10
280.4384851853174
 20
567.513335091704
 30
0.0
 10
280.3941851864365
 20
567.5904350897562
 30
0.0
 10
280.3654851871615
 20
567.6712350877151
 30
0.0
 10
280.3974851863531
 20
567.7610476190475
 30
0.0
 10
280.4707851845014
 20
567.8054350843249
 30
0.0
 10
280.6544851798608
 20
567.9212350813996
 30
0.0
 10
280.8672920208746
 20
567.982335079856
 30
0.0
 10
281.0844851689981
 20
567.9819350798661
 30
0.0
  0
LWPOLYLINE
  5
121
330
11B
100
AcDbEntity
  8
Conector
 62
   250
420
  2301728
370
     5
100
AcDbPolyline
 90
        1
 70
     0
 43
0.0
 10
282.2477851396106
 20
566.6251351141418
  0
LWPOLYLINE
  5
122
330
11B
100
AcDbEntity
  8
Conector
 62
   250
420
  2301728
370
     5
100
AcDbPolyline
 90
        1
 70
     0
 43
0.0
 10
283.0149851202295
 20
566.2568351234458
  0
LWPOLYLINE
  5
123
330
11B
100
AcDbEntity
  8
Conector
 62
   250
420
  2301728
370
     5
100
AcDbPolyline
 90
        1
 70
     0
 43
0.0
 10
283.2906851132648
 20
564.8902351579691
  0
SPLINE
  5
124
330
11B
100
AcDbEntity
  8
Conector
 62
   250
420
  2301728
370
     5
100
AcDbSpline
210
0.0
220
0.0
230
1.0
 70
     8
 71
     3
 72
    17
 73
    13
 74
     0
 42
0.0000000001
 43
0.0000000001
 40
0.0
 40
0.0
 40
0.0
 40
0.0
 40
1.0
 40
1.0
 40
1.0
 40
2.0
 40
2.0
 40
2.0
 40
3.0
 40
3.0
 40
3.0
 40
4.0
 40
4.0
 40
4.0
 40
4.0
 10
284.5459850815532
 20
538.7020476190473
 30
0.0
 10
284.5459850815532
 20
538.7020476190473
 30
0.0
 10
284.5459850815532
 20
535.6966358954614
 30
0.0
 10
284.5459850815532
 20
535.6966358954614
 30
0.0
 10
284.5459850815532
 20
535.4789359009609
 30
0.0
 10
284.4887850829982
 20
535.264935906367
 30
0.0
 10
284.3799850857467
 20
535.0762359111341
 30
0.0
 10
284.2709850885003
 20
534.8482359168938
 30
0.0
 10
284.0620850937776
 20
534.6839359210443
 30
0.0
 10
283.8147851000249
 20
534.6317359223631
 30
0.0
 10
283.6487851042184
 20
534.6135359228228
 30
0.0
 10
283.4876851082881
 20
534.6954359207538
 30
0.0
 10
283.4044851103899
 20
534.8403359170934
 30
0.0
  0
SPLINE
  5
125
330
11B
100
AcDbEntity
  8
Conector
 62
   250
420
  2301728
370
     5
100
AcDbSpline
210
0.0
220
0.0
230
1.0
 70
     8
 71
     3
 72
    14
 73
    10
 74
     0
 42
0.0000000001
 43
0.0000000001
 40
0.0
 40
0.0
 40
0.0
 40
0.0
 40
1.0
 40
1.0
 40
1.0
 40
2.0
 40
2.0
 40
2.0
 40
3.0
 40
3.0
 40
3.0
 40
3.0
 10
284.0334850945001
 20
566.8077351095289
 30
0.0
 10
284.0334850945001
 20
566.8077351095289
 30
0.0
 10
284.2703850885154
 20
566.6938351124063
 30
0.0
 10
284.2703850885154
 20
566.6938351124063
 30
0.0
 10
284.4481850840239
 20
566.5678351155893
 30
0.0
 10
284.5515850814118
 20
566.3615351208009
 30
0.0
 10
284.5459850815532
 20
566.143735126303
 30
0.0
 10
284.5459850815532
 20
566.143735126303
 30
0.0
 10
284.5459850815532
 20
540.161047619048
 30
0.0
 10
284.5459850815532
 20
540.161047619048
 30
0.0
  0
LINE
  5
126
330
11B
100
AcDbEntity
  8
Conector
 62
   250
420
  2301728
370
     5
100
AcDbLine
 10
282.1332920208742
 20
567.7213350864494
 30
0.0
 11
283.3598851115166
 21
567.1315351013491
 31
0.0
  0
ENDBLK
  5
11E
330
11B
100
AcDbEntity
  8
0
100
AcDbBlockEnd
  0
BLOCK
  5
129
330
127
100
AcDbEntity
  8
0
100
AcDbBlockBegin
  2
Block_9
 70
     0
 10
0.0
 20
0.0
 30
0.0
  3
Block_9
  1

  0
SPLINE
  5
12B
330
127
100
AcDbEntity
  8
Conector
 62
   250
420
  2301728
370
     5
100
AcDbSpline
210
0.0
220
0.0
230
1.0
 70
     8
 71
     3
 72
    17
 73
    13
 74
     0
 42
0.0000000001
 43
0.0000000001
 40
0.0
 40
0.0
 40
0.0
 40
0.0
 40
1.0
 40
1.0
 40
1.0
 40
2.0
 40
2.0
 40
2.0
 40
3.0
 40
3.0
 40
3.0
 40
4.0
 40
4.0
 40
4.0
 40
4.0
 10
289.6398849528705
 20
540.5883357718867
 30
0.0
 10
289.6398849528705
 20
540.5883357718867
 30
0.0
 10
289.6398849528705
 20
537.2189358570048
 30
0.0
 10
289.6398849528705
 20
537.2189358570048
 30
0.0
 10
289.6398849528705
 20
537.0011358625069
 30
0.0
 10
289.582584954318
 20
536.787135867913
 30
0.0
 10
289.4737849570665
 20
536.5985358726775
 30
0.0
 10
289.3648849598175
 20
536.3704358784397
 30
0.0
 10
289.1559849650948
 20
536.2061358825903
 30
0.0
 10
288.9086849713422
 20
536.1540476190476
 30
0.0
 10
288.7425849755382
 20
536.1357358843688
 30
0.0
 10
288.5814849796079
 20
536.2176358822998
 30
0.0
 10
288.4983849817072
 20
536.3625358786394
 30
0.0
  0
LINE
  5
12C
330
127
100
AcDbEntity
  8
Conector
 62
   250
420
  2301728
370
     5
100
AcDbLine
 10
289.6398849528705
 20
564.0412351794166
 30
0.0
 11
289.6398849528705
 21
542.5255357229489
 31
0.0
  0
ENDBLK
  5
12A
330
127
100
AcDbEntity
  8
0
100
AcDbBlockEnd
  0
ENDSEC
  0
SECTION
  2
ENTITIES
  0
SPLINE
  5
79
330
70
100
AcDbEntity
  8
Beam
 62
   250
420
  2301728
370
    18
100
AcDbSpline
210
0.0
220
0.0
230
1.0
 70
     8
 71
     3
 72
    92
 73
    88
 74
     0
 42
0.0000000001
 43
0.0000000001
 40
0.0
 40
0.0
 40
0.0
 40
0.0
 40
1.0
 40
1.0
 40
1.0
 40
2.0
 40
2.0
 40
2.0
 40
3.0
 40
3.0
 40
3.0
 40
4.0
 40
4.0
 40
4.0
 40
5.0
 40
5.0
 40
5.0
 40
6.0
 40
6.0
 40
6.0
 40
7.0
 40
7.0
 40
7.0
 40
8.0
 40
8.0
 40
8.0
 40
9.0
 40
9.0
 40
9.0
 40
10.0
 40
10.0
 40
10.0
 40
11.0
 40
11.0
 40
11.0
 40
12.0
 40
12.0
 40
12.0
 40
13.0
 40
13.0
 40
13.0
 40
14.0
 40
14.0
 40
14.0
 40
15.0
 40
15.0
 40
15.0
 40
16.0
 40
16.0
 40
16.0
 40
17.0
 40
17.0
 40
17.0
 40
18.0
 40
18.0
 40
18.0
 40
19.0
 40
19.0
 40
19.0
 40
20.0
 40
20.0
 40
20.0
 40
21.0
 40
21.0
 40
21.0
 40
22.0
 40
22.0
 40
22.0
 40
23.0
 40
23.0
 40
23.0
 40
24.0
 40
24.0
 40
24.0
 40
25.0
 40
25.0
 40
25.0
 40
26.0
 40
26.0
 40
26.0
 40
27.0
 40
27.0
 40
27.0
 40
28.0
 40
28.0
 40
28.0
 40
29.0
 40
29.0
 40
29.0
 40
29.0
 10
243.1535861272132
 20
785.6582295809003
 30
0.0
 10
243.1535861272132
 20
785.6582295809003
 30
0.0
 10
243.1535861272132
 20
778.4846297621206
 30
0.0
 10
243.1535861272132
 20
778.4846297621206
 30
0.0
 10
243.1535861272132
 20
778.4846297621206
 30
0.0
 10
243.1535861272132
 20
785.6582295809003
 30
0.0
 10
243.1535861272132
 20
785.6582295809003
 30
0.0
 10
243.1535861272132
 20
785.6582295809003
 30
0.0
 10
442.1302920208745
 20
659.7320476190479
 30
0.0
 10
442.1302920208745
 20
659.7320476190479
 30
0.0
 10
442.1302920208745
 20
659.7320476190479
 30
0.0
 10
442.1302920208745
 20
653.1032329295213
 30
0.0
 10
442.1302920208745
 20
653.1032329295213
 30
0.0
 10
442.1302920208745
 20
653.1032329295213
 30
0.0
 10
421.721781616201
 20
645.6256331184213
 30
0.0
 10
421.721781616201
 20
645.6256331184213
 30
0.0
 10
420.0538816583357
 20
645.014533133859
 30
0.0
 10
418.9449816863489
 20
643.42713317396
 30
0.0
 10
418.9449816863489
 20
641.6508332188332
 30
0.0
 10
418.9449816863489
 20
641.6508332188332
 30
0.0
 10
418.9449816863489
 20
597.0188343463323
 30
0.0
 10
418.9449816863489
 20
597.0188343463323
 30
0.0
 10
418.9449816863489
 20
597.0188343463323
 30
0.0
 10
413.8435818152211
 20
595.0505343960558
 30
0.0
 10
413.8435818152211
 20
595.0505343960558
 30
0.0
 10
413.8435818152211
 20
595.0505343960558
 30
0.0
 10
407.6707819711591
 20
593.351934438966
 30
0.0
 10
407.6707819711591
 20
593.351934438966
 30
0.0
 10
407.6707819711591
 20
593.351934438966
 30
0.0
 10
430.8812920208747
 20
579.9513347774936
 30
0.0
 10
430.8812920208747
 20
579.9513347774936
 30
0.0
 10
430.8812920208747
 20
579.9513347774936
 30
0.0
 10
425.7799815136823
 20
577.9830476190473
 30
0.0
 10
425.7799815136823
 20
577.9830476190473
 30
0.0
 10
425.7799815136823
 20
577.9830476190473
 30
0.0
 10
418.9449816863489
 20
575.9174348793985
 30
0.0
 10
418.9449816863489
 20
575.9174348793985
 30
0.0
 10
418.9449816863489
 20
575.9174348793985
 30
0.0
 10
418.9449816863489
 20
532.0348359879663
 30
0.0
 10
418.9449816863489
 20
532.0348359879663
 30
0.0
 10
418.9449816863489
 20
532.0348359879663
 30
0.0
 10
442.1302920208745
 20
520.3452362832704
 30
0.0
 10
442.1302920208745
 20
520.3452362832704
 30
0.0
 10
442.1302920208745
 20
520.3452362832704
 30
0.0
 10
442.1302920208745
 20
513.7164364507279
 30
0.0
 10
442.1302920208745
 20
513.7164364507279
 30
0.0
 10
442.1302920208745
 20
513.7164364507279
 30
0.0
 10
391.1667823880853
 20
498.8571368261054
 30
0.0
 10
391.1667823880853
 20
498.8571368261054
 30
0.0
 10
391.1667823880853
 20
498.8571368261054
 30
0.0
 10
189.5762920208744
 20
592.9307344496065
 30
0.0
 10
189.5762920208744
 20
592.9307344496065
 30
0.0
 10
189.5762920208744
 20
592.9307344496065
 30
0.0
 10
243.1535861272132
 20
613.491133930207
 30
0.0
 10
243.1535861272132
 20
613.491133930207
 30
0.0
 10
243.1535861272132
 20
613.491133930207
 30
0.0
 10
243.1535861272132
 20
620.6647337489867
 30
0.0
 10
243.1535861272132
 20
620.6647337489867
 30
0.0
 10
243.1535861272132
 20
620.6647337489867
 30
0.0
 10
220.409586701775
 20
611.8890476190481
 30
0.0
 10
220.409586701775
 20
611.8890476190481
 30
0.0
 10
220.2475867058674
 20
611.8265339722584
 30
0.0
 10
220.0753867102176
 20
611.7944339730692
 30
0.0
 10
219.9016867146056
 20
611.7944339730692
 30
0.0
 10
219.1223867342924
 20
611.7944339730692
 30
0.0
 10
218.490586750253
 20
612.4262339571087
 30
0.0
 10
218.490586750253
 20
613.2055339374219
 30
0.0
 10
218.490586750253
 20
613.2055339374219
 30
0.0
 10
218.490586750253
 20
678.0705322987942
 30
0.0
 10
218.490586750253
 20
678.0705322987942
 30
0.0
 10
218.490586750253
 20
678.0705322987942
 30
0.0
 10
230.4269864487141
 20
681.6777322076687
 30
0.0
 10
230.4269864487141
 20
681.6777322076687
 30
0.0
 10
230.4269864487141
 20
681.6777322076687
 30
0.0
 10
206.5542920208745
 20
695.4606318594833
 30
0.0
 10
206.5542920208745
 20
695.4606318594833
 30
0.0
 10
206.5542920208745
 20
695.4606318594833
 30
0.0
 10
218.490586750253
 20
698.7452317765074
 30
0.0
 10
218.490586750253
 20
698.7452317765074
 30
0.0
 10
218.490586750253
 20
698.7452317765074
 30
0.0
 10
218.490586750253
 20
763.9329301297275
 30
0.0
 10
218.490586750253
 20
763.9329301297275
 30
0.0
 10
218.490586750253
 20
765.5581300886715
 30
0.0
 10
219.4210867267466
 20
767.039930051238
 30
0.0
 10
220.8849866897653
 20
767.7458300334055
 30
0.0
 10
220.8849866897653
 20
767.7458300334055
 30
0.0
 10
243.1535861272132
 20
778.4846297621206
 30
0.0
 10
243.1535861272132
 20
778.4846297621206
 30
0.0
  0
HATCH
  5
7A
330
70
100
AcDbEntity
  8
Beam
 62
    15
420
 10502459
440
 33554687
100
AcDbHatch
 10
0.0
 20
0.0
 30
0.0
210
0.0
220
0.0
230
1.0
  2
SOLID
 70
     1
 71
     1
 91
        1
 92
        1
 93
        2
 72
     4
 94
        3
 73
     0
 74
     0
 95
       92
 96
       88
 40
0.0
 40
0.0
 40
0.0
 40
0.0
 40
1.0
 40
1.0
 40
1.0
 40
2.0
 40
2.0
 40
2.0
 40
3.0
 40
3.0
 40
3.0
 40
4.0
 40
4.0
 40
4.0
 40
5.0
 40
5.0
 40
5.0
 40
6.0
 40
6.0
 40
6.0
 40
7.0
 40
7.0
 40
7.0
 40
8.0
 40
8.0
 40
8.0
 40
9.0
 40
9.0
 40
9.0
 40
10.0
 40
10.0
 40
10.0
 40
11.0
 40
11.0
 40
11.0
 40
12.0
 40
12.0
 40
12.0
 40
13.0
 40
13.0
 40
13.0
 40
14.0
 40
14.0
 40
14.0
 40
15.0
 40
15.0
 40
15.0
 40
16.0
 40
16.0
 40
16.0
 40
17.0
 40
17.0
 40
17.0
 40
18.0
 40
18.0
 40
18.0
 40
19.0
 40
19.0
 40
19.0
 40
20.0
 40
20.0
 40
20.0
 40
21.0
 40
21.0
 40
21.0
 40
22.0
 40
22.0
 40
22.0
 40
23.0
 40
23.0
 40
23.0
 40
24.0
 40
24.0
 40
24.0
 40
25.0
 40
25.0
 40
25.0
 40
26.0
 40
26.0
 40
26.0
 40
27.0
 40
27.0
 40
27.0
 40
28.0
 40
28.0
 40
28.0
 40
29.0
 40
29.0
 40
29.0
 40
29.0
 10
243.1535861272132
 20
785.6582295809003
 10
243.1535861272132
 20
785.6582295809003
 10
243.1535861272132
 20
778.4846297621206
 10
243.1535861272132
 20
778.4846297621206
 10
243.1535861272132
 20
778.4846297621206
 10
243.1535861272132
 20
785.6582295809003
 10
243.1535861272132
 20
785.6582295809003
 10
243.1535861272132
 20
785.6582295809003
 10
442.1302920208745
 20
659.7320476190479
 10
442.1302920208745
 20
659.7320476190479
 10
442.1302920208745
 20
659.7320476190479
 10
442.1302920208745
 20
653.1032329295213
 10
442.1302920208745
 20
653.1032329295213
 10
442.1302920208745
 20
653.1032329295213
 10
421.721781616201
 20
645.6256331184213
 10
421.721781616201
 20
645.6256331184213
 10
420.0538816583357
 20
645.014533133859
 10
418.9449816863489
 20
643.42713317396
 10
418.9449816863489
 20
641.6508332188332
 10
418.9449816863489
 20
641.6508332188332
 10
418.9449816863489
 20
597.0188343463323
 10
418.9449816863489
 20
597.0188343463323
 10
418.9449816863489
 20
597.0188343463323
 10
413.8435818152211
 20
595.0505343960558
 10
413.8435818152211
 20
595.0505343960558
 10
413.8435818152211
 20
595.0505343960558
 10
407.6707819711591
 20
593.351934438966
 10
407.6707819711591
 20
593.351934438966
 10
407.6707819711591
 20
593.351934438966
 10
430.8812920208747
 20
579.9513347774936
 10
430.8812920208747
 20
579.9513347774936
 10
430.8812920208747
 20
579.9513347774936
 10
425.7799815136823
 20
577.9830476190473
 10
425.7799815136823
 20
577.9830476190473
 10
425.7799815136823
 20
577.9830476190473
 10
418.9449816863489
 20
575.9174348793985
 10
418.9449816863489
 20
575.9174348793985
 10
418.9449816863489
 20
575.9174348793985
 10
418.9449816863489
 20
532.0348359879663
 10
418.9449816863489
 20
532.0348359879663
 10
418.9449816863489
 20
532.0348359879663
 10
442.1302920208745
 20
520.3452362832704
 10
442.1302920208745
 20
520.3452362832704
 10
442.1302920208745
 20
520.3452362832704
 10
442.1302920208745
 20
513.7164364507279
 10
442.1302920208745
 20
513.7164364507279
 10
442.1302920208745
 20
513.7164364507279
 10
391.1667823880853
 20
498.8571368261054
 10
391.1667823880853
 20
498.8571368261054
 10
391.1667823880853
 20
498.8571368261054
 10
189.5762920208744
 20
592.9307344496065
 10
189.5762920208744
 20
592.9307344496065
 10
189.5762920208744
 20
592.9307344496065
 10
243.1535861272132
 20
613.491133930207
 10
243.1535861272132
 20
613.491133930207
 10
243.1535861272132
 20
613.491133930207
 10
243.1535861272132
 20
620.6647337489867
 10
243.1535861272132
 20
620.6647337489867
 10
243.1535861272132
 20
620.6647337489867
 10
220.409586701775
 20
611.8890476190481
 10
220.409586701775
 20
611.8890476190481
 10
220.2475867058674
 20
611.8265339722584
 10
220.0753867102176
 20
611.7944339730692
 10
219.9016867146056
 20
611.7944339730692
 10
219.1223867342924
 20
611.7944339730692
 10
218.490586750253
 20
612.4262339571087
 10
218.490586750253
 20
613.2055339374219
 10
218.490586750253
 20
613.2055339374219
 10
218.490586750253
 20
678.0705322987942
 10
218.490586750253
 20
678.0705322987942
 10
218.490586750253
 20
678.0705322987942
 10
230.4269864487141
 20
681.6777322076687
 10
230.4269864487141
 20
681.6777322076687
 10
230.4269864487141
 20
681.6777322076687
 10
206.5542920208745
 20
695.4606318594833
 10
206.5542920208745
 20
695.4606318594833
 10
206.5542920208745
 20
695.4606318594833
 10
218.490586750253
 20
698.7452317765074
 10
218.490586750253
 20
698.7452317765074
 10
218.490586750253
 20
698.7452317765074
 10
218.490586750253
 20
763.9329301297275
 10
218.490586750253
 20
763.9329301297275
 10
218.490586750253
 20
765.5581300886715
 10
219.4210867267466
 20
767.039930051238
 10
220.8849866897653
 20
767.7458300334055
 10
220.8849866897653
 20
767.7458300334055
 10
243.1535861272132
 20
778.4846297621206
 10
243.1535861272132
 20
778.4846297621206
 97
        0
 72
     1
 10
243.1535861272132
 20
778.4846297621206
 11
243.1535861272132
 21
785.6582295809003
 97
        0
 75
     2
 76
     1
 98
        1
 10
0.0
 20
0.0
450
        0
451
        0
460
0.0
461
0.0
452
        0
462
0.0
453
        0
470

  0
SPLINE
  5
7B
330
70
100
AcDbEntity
  8
Beam
 62
   250
420
  2301728
370
    18
100
AcDbSpline
210
0.0
220
0.0
230
1.0
 70
    11
 71
     3
 72
    38
 73
    34
 74
     0
 42
0.0000000001
 43
0.0000000001
 40
0.0
 40
0.0
 40
0.0
 40
0.0
 40
1.0
 40
1.0
 40
1.0
 40
2.0
 40
2.0
 40
2.0
 40
3.0
 40
3.0
 40
3.0
 40
4.0
 40
4.0
 40
4.0
 40
5.0
 40
5.0
 40
5.0
 40
6.0
 40
6.0
 40
6.0
 40
7.0
 40
7.0
 40
7.0
 40
8.0
 40
8.0
 40
8.0
 40
9.0
 40
9.0
 40
9.0
 40
10.0
 40
10.0
 40
10.0
 40
11.0
 40
11.0
 40
11.0
 40
11.0
 10
218.490586750253
 20
678.0705322987942
 30
0.0
 10
218.490586750253
 20
678.0705322987942
 30
0.0
 10
213.3892920208745
 20
676.1021323485201
 30
0.0
 10
213.3892920208745
 20
676.1021323485201
 30
0.0
 10
213.3892920208745
 20
676.1021323485201
 30
0.0
 10
213.3892920208745
 20
612.0842339657484
 30
0.0
 10
213.3892920208745
 20
612.0842339657484
 30
0.0
 10
213.3892920208745
 20
610.3343340099545
 30
0.0
 10
212.3125869063224
 20
608.7648340496034
 30
0.0
 10
210.6799869475653
 20
608.134934065516
 30
0.0
 10
210.6799869475653
 20
608.134934065516
 30
0.0
 10
189.5762920208744
 20
599.9921342712204
 30
0.0
 10
189.5762920208744
 20
599.9921342712204
 30
0.0
 10
189.5762920208744
 20
599.9921342712204
 30
0.0
 10
189.5762920208744
 20
592.9307344496065
 30
0.0
 10
189.5762920208744
 20
592.9307344496065
 30
0.0
 10
189.5762920208744
 20
592.9307344496065
 30
0.0
 10
243.1535861272132
 20
613.491133930207
 30
0.0
 10
243.1535861272132
 20
613.491133930207
 30
0.0
 10
243.1535861272132
 20
613.491133930207
 30
0.0
 10
243.1535861272132
 20
620.6647337489867
 30
0.0
 10
243.1535861272132
 20
620.6647337489867
 30
0.0
 10
243.1535861272132
 20
620.6647337489867
 30
0.0
 10
220.409586701775
 20
611.8890476190481
 30
0.0
 10
220.409586701775
 20
611.8890476190481
 30
0.0
 10
220.2475867058674
 20
611.8265339722584
 30
0.0
 10
220.0753867102176
 20
611.7944339730692
 30
0.0
 10
219.9016867146056
 20
611.7944339730692
 30
0.0
 10
219.1223867342924
 20
611.7944339730692
 30
0.0
 10
218.490586750253
 20
612.4262339571087
 30
0.0
 10
218.490586750253
 20
613.2055339374219
 30
0.0
 10
218.490586750253
 20
613.2055339374219
 30
0.0
 10
218.490586750253
 20
678.0705322987942
 30
0.0
 10
218.490586750253
 20
678.0705322987942
 30
0.0
  0
SPLINE
  5
7C
330
70
100
AcDbEntity
  8
Beam
 62
   250
420
  2301728
370
    18
100
AcDbSpline
210
0.0
220
0.0
230
1.0
 70
     8
 71
     3
 72
    44
 73
    40
 74
     0
 42
0.0000000001
 43
0.0000000001
 40
0.0
 40
0.0
 40
0.0
 40
0.0
 40
1.0
 40
1.0
 40
1.0
 40
2.0
 40
2.0
 40
2.0
 40
3.0
 40
3.0
 40
3.0
 40
4.0
 40
4.0
 40
4.0
 40
5.0
 40
5.0
 40
5.0
 40
6.0
 40
6.0
 40
6.0
 40
7.0
 40
7.0
 40
7.0
 40
8.0
 40
8.0
 40
8.0
 40
9.0
 40
9.0
 40
9.0
 40
10.0
 40
10.0
 40
10.0
 40
11.0
 40
11.0
 40
11.0
 40
12.0
 40
12.0
 40
12.0
 40
13.0
 40
13.0
 40
13.0
 40
13.0
 10
243.1535861272132
 20
785.6582295809003
 30
0.0
 10
243.1535861272132
 20
785.6582295809003
 30
0.0
 10
189.5762920208744
 20
759.7089302364347
 30
0.0
 10
189.5762920208744
 20
759.7089302364347
 30
0.0
 10
189.5762920208744
 20
759.7089302364347
 30
0.0
 10
189.5762920208744
 20
752.6475304148207
 30
0.0
 10
189.5762920208744
 20
752.6475304148207
 30
0.0
 10
189.5762920208744
 20
752.6475304148207
 30
0.0
 10
211.3652920208742
 20
763.1551301493764
 30
0.0
 10
211.3652920208742
 20
763.1551301493764
 30
0.0
 10
211.5564869254231
 20
763.2472301470498
 30
0.0
 10
211.7659869201307
 20
763.2951301458397
 30
0.0
 10
211.9782920208745
 20
763.2951301458397
 30
0.0
 10
212.7575868950807
 20
763.2951301458397
 30
0.0
 10
213.3892920208745
 20
762.6634301617977
 30
0.0
 10
213.3892920208745
 20
761.8841301814845
 30
0.0
 10
213.3892920208745
 20
761.8841301814845
 30
0.0
 10
213.3892920208745
 20
738.683047619048
 30
0.0
 10
213.3892920208745
 20
738.683047619048
 30
0.0
 10
213.3892920208745
 20
738.683047619048
 30
0.0
 10
213.3892920208745
 20
697.3415318119678
 30
0.0
 10
213.3892920208745
 20
697.3415318119678
 30
0.0
 10
213.3892920208745
 20
697.3415318119678
 30
0.0
 10
218.490586750253
 20
698.7452317765074
 30
0.0
 10
218.490586750253
 20
698.7452317765074
 30
0.0
 10
218.490586750253
 20
698.7452317765074
 30
0.0
 10
218.490586750253
 20
763.9329301297275
 30
0.0
 10
218.490586750253
 20
763.9329301297275
 30
0.0
 10
218.490586750253
 20
765.5581300886715
 30
0.0
 10
219.4210867267466
 20
767.039930051238
 30
0.0
 10
220.8849866897653
 20
767.7458300334055
 30
0.0
 10
220.8849866897653
 20
767.7458300334055
 30
0.0
 10
243.1535861272132
 20
778.4846297621206
 30
0.0
 10
243.1535861272132
 20
778.4846297621206
 30
0.0
 10
243.1535861272132
 20
778.4846297621206
 30
0.0
 10
243.1535861272132
 20
785.6582295809003
 30
0.0
 10
243.1535861272132
 20
785.6582295809003
 30
0.0
 10
243.1535861272132
 20
785.6582295809003
 30
0.0
 10
243.1535861272132
 20
778.4846297621206
 30
0.0
 10
243.1535861272132
 20
778.4846297621206
 30
0.0
  0
INSERT
  5
7E
330
70
100
AcDbEntity
  8
Beam
100
AcDbBlockReference
  2
Block_0
 10
0.0
 20
0.0
 30
0.0
  0
LINE
  5
84
330
70
100
AcDbEntity
  8
Beam
 62
   250
420
  2301728
370
    18
100
AcDbLine
 10
418.9449816863489
 20
532.0348359879663
 30
0.0
 11
243.1535861272132
 21
620.6647337489867
 31
0.0
  0
LINE
  5
85
330
70
100
AcDbEntity
  8
Beam
 62
   250
420
  2301728
370
    18
100
AcDbLine
 10
442.1302920208745
 20
653.1032329295213
 30
0.0
 11
243.1535861272132
 21
778.4846297621206
 31
0.0
  0
LINE
  5
86
330
70
100
AcDbEntity
  8
Beam
 62
   250
420
  2301728
370
    18
100
AcDbLine
 10
442.1302920208745
 20
513.7164364507279
 30
0.0
 11
243.1535861272132
 21
613.491133930207
 31
0.0
  0
LINE
  5
87
330
70
100
AcDbEntity
  8
Beam
 62
   250
420
  2301728
370
    18
100
AcDbLine
 10
202.5815871521481
 20
766.0078300773111
 30
0.0
 11
198.1694872636071
 21
756.7915303101345
 31
0.0
  0
LINE
  5
88
330
70
100
AcDbEntity
  8
Beam
 62
   250
420
  2301728
370
    18
100
AcDbLine
 10
205.5861870762456
 20
767.4630476190477
 30
0.0
 11
201.1700871878056
 21
758.2385302735802
 31
0.0
  0
LINE
  5
89
330
70
100
AcDbEntity
  8
Beam
 62
   250
420
  2301728
370
    18
100
AcDbLine
 10
234.7186863402967
 20
781.5729296841036
 30
0.0
 11
230.2646864528142
 21
772.2691299191374
 31
0.0
  0
LINE
  5
8A
330
70
100
AcDbEntity
  8
Beam
 62
   250
420
  2301728
370
    18
100
AcDbLine
 10
218.490586750253
 20
747.6748305404417
 30
0.0
 11
213.3892920208745
 21
737.0188308096349
 31
0.0
  0
LINE
  5
8B
330
70
100
AcDbEntity
  8
Beam
 62
   250
420
  2301728
370
    18
100
AcDbLine
 10
237.7232920208744
 20
783.0281296473422
 30
0.0
 11
233.2652920208748
 21
773.7161298825831
 31
0.0
  0
LINE
  5
8C
330
70
100
AcDbEntity
  8
Beam
 62
   250
420
  2301728
370
    18
100
AcDbLine
 10
218.490586750253
 20
742.8539306622278
 30
0.0
 11
213.3892920208745
 21
732.1980476190474
 31
0.0
  0
LINE
  5
8D
330
70
100
AcDbEntity
  8
Beam
 62
   250
420
  2301728
370
    18
100
AcDbLine
 10
218.490586750253
 20
644.5454331457094
 30
0.0
 11
213.3892920208745
 21
633.8895334149001
 31
0.0
  0
LINE
  5
8E
330
70
100
AcDbEntity
  8
Beam
 62
   250
420
  2301728
370
    18
100
AcDbLine
 10
198.8801872456533
 20
603.5820476190474
 30
0.0
 11
194.7273873505619
 21
594.9075343996683
 31
0.0
  0
LINE
  5
8F
330
70
100
AcDbEntity
  8
Beam
 62
   250
420
  2301728
370
    18
100
AcDbLine
 10
218.490586750253
 20
639.7245332674956
 30
0.0
 11
213.3892920208745
 21
629.0686335366863
 31
0.0
  0
LINE
  5
90
330
70
100
AcDbEntity
  8
Beam
 62
   250
420
  2301728
370
    18
100
AcDbLine
 10
201.7108871741438
 20
604.6742341529407
 30
0.0
 11
197.5546872791383
 21
595.9925343722589
 31
0.0
  0
LINE
  5
91
330
70
100
AcDbEntity
  8
Beam
 62
   250
420
  2301728
370
    18
100
AcDbLine
 10
229.1586864807541
 20
615.2648338853996
 30
0.0
 11
224.9687865865999
 21
606.5126341064988
 31
0.0
  0
LINE
  5
92
330
70
100
AcDbEntity
  8
Beam
 62
   250
420
  2301728
370
    18
100
AcDbLine
 10
231.9894864092421
 20
616.3571338578058
 30
0.0
 11
227.7960865151763
 21
607.5976340790893
 31
0.0
  0
LINE
  5
93
330
70
100
AcDbEntity
  8
Beam
 62
   250
420
  2301728
370
    18
100
AcDbLine
 10
208.5906870003455
 20
768.9182300037883
 30
0.0
 11
204.1745871119056
 21
759.6937302368187
 31
0.0
  0
LINE
  5
94
330
70
100
AcDbEntity
  8
Beam
 62
   250
420
  2301728
370
    18
100
AcDbLine
 10
240.7277861884941
 20
784.4833296105807
 30
0.0
 11
236.2697863011126
 21
775.1713298458216
 31
0.0
  0
LINE
  5
95
330
70
100
AcDbEntity
  8
Beam
 62
   250
420
  2301728
370
    18
100
AcDbLine
 10
218.490586750253
 20
738.0331307840115
 30
0.0
 11
213.3892920208745
 21
727.3772310532022
 31
0.0
  0
LINE
  5
96
330
70
100
AcDbEntity
  8
Beam
 62
   250
420
  2301728
370
    18
100
AcDbLine
 10
218.490586750253
 20
639.7245332674956
 30
0.0
 11
213.3892920208745
 21
629.0686335366863
 31
0.0
  0
LINE
  5
97
330
70
100
AcDbEntity
  8
Beam
 62
   250
420
  2301728
370
    18
100
AcDbLine
 10
204.5416871026318
 20
605.7664341253493
 30
0.0
 11
200.3854872076263
 21
597.0847343446676
 31
0.0
  0
LINE
  5
98
330
70
100
AcDbEntity
  8
Beam
 62
   250
420
  2301728
370
    18
100
AcDbLine
 10
234.8202920208741
 20
617.4493338302145
 30
0.0
 11
230.6268864436642
 21
608.6899340514955
 31
0.0
  0
LINE
  5
99
330
70
100
AcDbEntity
  8
Beam
 62
   250
420
  2301728
370
    18
100
AcDbLine
 10
418.9449816863489
 20
575.9174348793985
 30
0.0
 11
418.9449816863489
 21
576.3441348686192
 31
0.0
  0
LINE
  5
9A
330
70
100
AcDbEntity
  8
Beam
 62
   250
420
  2301728
370
    18
100
AcDbLine
 10
418.9449816863489
 20
576.3441348686192
 30
0.0
 11
430.8812920208747
 21
579.9513347774936
 31
0.0
  0
LINE
  5
9B
330
70
100
AcDbEntity
  8
Beam
 62
   250
420
  2301728
370
    18
100
AcDbLine
 10
218.490586750253
 20
634.9037333892793
 30
0.0
 11
213.3892920208745
 21
624.2478336584699
 31
0.0
  0
LWPOLYLINE
  5
9C
330
70
100
AcDbEntity
  8
Beam
 62
   250
420
  2301728
370
    18
100
AcDbPolyline
 90
        4
 70
     1
 43
0.0
 10
418.9449816863489
 20
597.0188343463323
 10
407.0085819878877
 20
593.7343344293058
 10
407.6707819711591
 20
593.351934438966
 10
413.8435818152211
 20
595.0505343960558
  0
LINE
  5
9D
330
70
100
AcDbEntity
  8
Beam
 62
   250
420
  2301728
370
    18
100
AcDbLine
 10
218.490586750253
 20
678.0705322987942
 30
0.0
 11
219.0030867373061
 21
678.2253322948836
 31
0.0
  0
LWPOLYLINE
  5
9E
330
70
100
AcDbEntity
  8
Beam
 62
   250
420
  2301728
370
    18
100
AcDbPolyline
 90
        5
 70
     0
 43
0.0
 10
206.5542920208745
 20
695.4606318594833
 10
201.452987180659
 20
693.4923319092067
 10
224.8405865898385
 20
679.9895322503162
 10
230.4269864487141
 20
681.6777322076687
 10
206.5542920208745
 20
695.4606318594833
  0
SPLINE
  5
9F
330
70
100
AcDbEntity
  8
Beam
 62
   250
420
  2301728
370
    25
100
AcDbSpline
210
0.0
220
0.0
230
1.0
 70
    11
 71
     3
 72
    20
 73
    16
 74
     0
 42
0.0000000001
 43
0.0000000001
 40
0.0
 40
0.0
 40
0.0
 40
0.0
 40
1.0
 40
1.0
 40
1.0
 40
2.0
 40
2.0
 40
2.0
 40
3.0
 40
3.0
 40
3.0
 40
4.0
 40
4.0
 40
4.0
 40
5.0
 40
5.0
 40
5.0
 40
5.0
 10
213.3892920208745
 20
738.683047619048
 30
0.0
 10
213.3892920208745
 20
738.683047619048
 30
0.0
 10
189.5762920208744
 20
752.6475304148207
 30
0.0
 10
189.5762920208744
 20
752.6475304148207
 30
0.0
 10
189.5762920208744
 20
752.6475304148207
 30
0.0
 10
211.3652920208742
 20
763.1551301493764
 30
0.0
 10
211.3652920208742
 20
763.1551301493764
 30
0.0
 10
211.5564869254231
 20
763.2472301470498
 30
0.0
 10
211.7659869201307
 20
763.2951301458397
 30
0.0
 10
211.9782920208745
 20
763.2951301458397
 30
0.0
 10
212.7575868950807
 20
763.2951301458397
 30
0.0
 10
213.3892920208745
 20
762.6634301617977
 30
0.0
 10
213.3892920208745
 20
761.8841301814845
 30
0.0
 10
213.3892920208745
 20
761.8841301814845
 30
0.0
 10
213.3892920208745
 20
738.683047619048
 30
0.0
 10
213.3892920208745
 20
738.683047619048
 30
0.0
  0
HATCH
  5
A0
330
70
100
AcDbEntity
  8
Beam
 62
    15
420
 10502459
440
 33554687
100
AcDbHatch
 10
0.0
 20
0.0
 30
0.0
210
0.0
220
0.0
230
1.0
  2
SOLID
 70
     1
 71
     1
 91
        1
 92
        1
 93
        1
 72
     4
 94
        3
 73
     0
 74
     0
 95
       20
 96
       16
 40
0.0
 40
0.0
 40
0.0
 40
0.0
 40
1.0
 40
1.0
 40
1.0
 40
2.0
 40
2.0
 40
2.0
 40
3.0
 40
3.0
 40
3.0
 40
4.0
 40
4.0
 40
4.0
 40
5.0
 40
5.0
 40
5.0
 40
5.0
 10
213.3892920208745
 20
738.683047619048
 10
213.3892920208745
 20
738.683047619048
 10
189.5762920208744
 20
752.6475304148207
 10
189.5762920208744
 20
752.6475304148207
 10
189.5762920208744
 20
752.6475304148207
 10
211.3652920208742
 20
763.1551301493764
 10
211.3652920208742
 20
763.1551301493764
 10
211.5564869254231
 20
763.2472301470498
 10
211.7659869201307
 20
763.2951301458397
 10
211.9782920208745
 20
763.2951301458397
 10
212.7575868950807
 20
763.2951301458397
 10
213.3892920208745
 20
762.6634301617977
 10
213.3892920208745
 20
761.8841301814845
 10
213.3892920208745
 20
761.8841301814845
 10
213.3892920208745
 20
738.683047619048
 10
213.3892920208745
 20
738.683047619048
 97
        0
 97
        1
330
9F
 75
     2
 76
     1
 98
        1
 10
0.0
 20
0.0
450
        0
451
        0
460
0.0
461
0.0
452
        0
462
0.0
453
        0
470

  0
INSERT
  5
A2
330
70
100
AcDbEntity
  8
Beam
100
AcDbBlockReference
  2
Block_1
 10
0.0
 20
0.0
 30
0.0
  0
INSERT
  5
B2
330
70
100
AcDbEntity
  8
Beam
100
AcDbBlockReference
  2
Block_2
 10
0.0
 20
0.0
 30
0.0
  0
INSERT
  5
BA
330
70
100
AcDbEntity
  8
Beam
100
AcDbBlockReference
  2
Block_3
 10
0.0
 20
0.0
 30
0.0
  0
SPLINE
  5
C1
330
70
100
AcDbEntity
  8
Track
 62
   250
420
  2301728
370
    18
100
AcDbSpline
210
0.0
220
0.0
230
1.0
 70
    11
 71
     3
 72
    77
 73
    73
 74
     0
 42
0.0000000001
 43
0.0000000001
 40
0.0
 40
0.0
 40
0.0
 40
0.0
 40
1.0
 40
1.0
 40
1.0
 40
2.0
 40
2.0
 40
2.0
 40
3.0
 40
3.0
 40
3.0
 40
4.0
 40
4.0
 40
4.0
 40
5.0
 40
5.0
 40
5.0
 40
6.0
 40
6.0
 40
6.0
 40
7.0
 40
7.0
 40
7.0
 40
8.0
 40
8.0
 40
8.0
 40
9.0
 40
9.0
 40
9.0
 40
10.0
 40
10.0
 40
10.0
 40
11.0
 40
11.0
 40
11.0
 40
12.0
 40
12.0
 40
12.0
 40
13.0
 40
13.0
 40
13.0
 40
14.0
 40
14.0
 40
14.0
 40
15.0
 40
15.0
 40
15.0
 40
16.0
 40
16.0
 40
16.0
 40
17.0
 40
17.0
 40
17.0
 40
18.0
 40
18.0
 40
18.0
 40
19.0
 40
19.0
 40
19.0
 40
20.0
 40
20.0
 40
20.0
 40
21.0
 40
21.0
 40
21.0
 40
22.0
 40
22.0
 40
22.0
 40
23.0
 40
23.0
 40
23.0
 40
24.0
 40
24.0
 40
24.0
 40
24.0
 10
414.2480818050025
 20
505.1912366660927
 30
0.0
 10
414.2480818050025
 20
505.1912366660927
 30
0.0
 10
410.4467819010315
 20
507.0241366197897
 30
0.0
 10
410.4467819010315
 20
507.0241366197897
 30
0.0
 10
410.4467819010315
 20
507.0241366197897
 30
0.0
 10
411.7317818685696
 20
504.4581366846123
 30
0.0
 10
411.7317818685696
 20
504.4581366846123
 30
0.0
 10
411.7317818685696
 20
504.4581366846123
 30
0.0
 10
399.2527821838157
 20
500.8222367764629
 30
0.0
 10
399.2527821838157
 20
500.8222367764629
 30
0.0
 10
399.0061821900454
 20
500.7555367781479
 30
0.0
 10
398.8456821940999
 20
500.51833678414
 30
0.0
 10
398.8753821933497
 20
500.264636790549
 30
0.0
 10
398.8753821933497
 20
500.264636790549
 30
0.0
 10
398.8753821933497
 20
486.7794371312138
 30
0.0
 10
398.8753821933497
 20
486.7794371312138
 30
0.0
 10
398.8753821933497
 20
486.7794371312138
 30
0.0
 10
397.8331822196778
 20
486.4838371386813
 30
0.0
 10
397.8331822196778
 20
486.4838371386813
 30
0.0
 10
397.8331822196778
 20
486.4838371386813
 30
0.0
 10
216.7295867947396
 20
569.545047619048
 30
0.0
 10
216.7295867947396
 20
569.545047619048
 30
0.0
 10
216.7295867947396
 20
569.545047619048
 30
0.0
 10
216.7295867947396
 20
585.8406346287174
 30
0.0
 10
216.7295867947396
 20
585.8406346287174
 30
0.0
 10
216.7295867947396
 20
586.0888346224474
 30
0.0
 10
216.7945867930975
 20
586.332734616286
 30
0.0
 10
216.9181867899752
 20
586.5480476190477
 30
0.0
 10
217.0277867872064
 20
586.7391346060194
 30
0.0
 10
217.1904867830963
 20
586.8942346021013
 30
0.0
 10
217.3865867781424
 20
586.9946345995649
 30
0.0
 10
217.3865867781424
 20
586.9946345995649
 30
0.0
 10
229.2361864787963
 20
591.4252344876386
 30
0.0
 10
229.2361864787963
 20
591.4252344876386
 30
0.0
 10
229.2361864787963
 20
591.4252344876386
 30
0.0
 10
228.1785865055135
 20
593.620834432173
 30
0.0
 10
228.1785865055135
 20
593.620834432173
 30
0.0
 10
228.1785865055135
 20
593.620834432173
 30
0.0
 10
228.1785865055135
 20
594.996334397425
 30
0.0
 10
228.1785865055135
 20
594.996334397425
 30
0.0
 10
228.1785865055135
 20
594.996334397425
 30
0.0
 10
237.9122920208747
 20
591.0124344980667
 30
0.0
 10
237.9122920208747
 20
591.0124344980667
 30
0.0
 10
237.9122920208747
 20
591.0124344980667
 30
0.0
 10
237.1650862784954
 20
593.0142344474971
 30
0.0
 10
237.1650862784954
 20
593.0142344474971
 30
0.0
 10
237.1650862784954
 20
593.0142344474971
 30
0.0
 10
237.1650862784954
 20
594.3898344127465
 30
0.0
 10
237.1650862784954
 20
594.3898344127465
 30
0.0
 10
237.1650862784954
 20
594.3898344127465
 30
0.0
 10
253.5873858636332
 20
600.5301342576294
 30
0.0
 10
253.5873858636332
 20
600.5301342576294
 30
0.0
 10
253.7047858606675
 20
600.5788342563992
 30
0.0
 10
253.8371858573228
 20
600.5765342564573
 30
0.0
 10
253.9529858543974
 20
600.523934257786
 30
0.0
 10
253.9529858543974
 20
600.523934257786
 30
0.0
 10
434.0875813038146
 20
511.2446365131709
 30
0.0
 10
434.0875813038146
 20
511.2446365131709
 30
0.0
 10
434.1843813013692
 20
511.1966365143834
 30
0.0
 10
434.2619812994089
 20
511.1171365163918
 30
0.0
 10
434.3076812982544
 20
511.019236518865
 30
0.0
 10
434.360292020874
 20
510.9064365217145
 30
0.0
 10
434.3874812962385
 20
510.7835365248193
 30
0.0
 10
434.387581296236
 20
510.6591365279618
 30
0.0
 10
434.387581296236
 20
510.6591365279618
 30
0.0
 10
434.387581296236
 20
496.3106368904354
 30
0.0
 10
434.387581296236
 20
496.3106368904354
 30
0.0
 10
434.387581296236
 20
496.3106368904354
 30
0.0
 10
433.3032920208752
 20
496.0031368982035
 30
0.0
 10
433.3032920208752
 20
496.0031368982035
 30
0.0
 10
433.3032920208752
 20
496.0031368982035
 30
0.0
 10
414.2480818050025
 20
505.1912366660927
 30
0.0
 10
414.2480818050025
 20
505.1912366660927
 30
0.0
  0
HATCH
  5
C2
330
70
100
AcDbEntity
  8
Track
 62
   253
420
 10987948
440
 33554687
100
AcDbHatch
 10
0.0
 20
0.0
 30
0.0
210
0.0
220
0.0
230
1.0
  2
SOLID
 70
     1
 71
     1
 91
        1
 92
        1
 93
        1
 72
     4
 94
        3
 73
     0
 74
     0
 95
       77
 96
       73
 40
0.0
 40
0.0
 40
0.0
 40
0.0
 40
1.0
 40
1.0
 40
1.0
 40
2.0
 40
2.0
 40
2.0
 40
3.0
 40
3.0
 40
3.0
 40
4.0
 40
4.0
 40
4.0
 40
5.0
 40
5.0
 40
5.0
 40
6.0
 40
6.0
 40
6.0
 40
7.0
 40
7.0
 40
7.0
 40
8.0
 40
8.0
 40
8.0
 40
9.0
 40
9.0
 40
9.0
 40
10.0
 40
10.0
 40
10.0
 40
11.0
 40
11.0
 40
11.0
 40
12.0
 40
12.0
 40
12.0
 40
13.0
 40
13.0
 40
13.0
 40
14.0
 40
14.0
 40
14.0
 40
15.0
 40
15.0
 40
15.0
 40
16.0
 40
16.0
 40
16.0
 40
17.0
 40
17.0
 40
17.0
 40
18.0
 40
18.0
 40
18.0
 40
19.0
 40
19.0
 40
19.0
 40
20.0
 40
20.0
 40
20.0
 40
21.0
 40
21.0
 40
21.0
 40
22.0
 40
22.0
 40
22.0
 40
23.0
 40
23.0
 40
23.0
 40
24.0
 40
24.0
 40
24.0
 40
24.0
 10
414.2480818050025
 20
505.1912366660927
 10
414.2480818050025
 20
505.1912366660927
 10
410.4467819010315
 20
507.0241366197897
 10
410.4467819010315
 20
507.0241366197897
 10
410.4467819010315
 20
507.0241366197897
 10
411.7317818685696
 20
504.4581366846123
 10
411.7317818685696
 20
504.4581366846123
 10
411.7317818685696
 20
504.4581366846123
 10
399.2527821838157
 20
500.8222367764629
 10
399.2527821838157
 20
500.8222367764629
 10
399.0061821900454
 20
500.7555367781479
 10
398.8456821940999
 20
500.51833678414
 10
398.8753821933497
 20
500.264636790549
 10
398.8753821933497
 20
500.264636790549
 10
398.8753821933497
 20
486.7794371312138
 10
398.8753821933497
 20
486.7794371312138
 10
398.8753821933497
 20
486.7794371312138
 10
397.8331822196778
 20
486.4838371386813
 10
397.8331822196778
 20
486.4838371386813
 10
397.8331822196778
 20
486.4838371386813
 10
216.7295867947396
 20
569.545047619048
 10
216.7295867947396
 20
569.545047619048
 10
216.7295867947396
 20
569.545047619048
 10
216.7295867947396
 20
585.8406346287174
 10
216.7295867947396
 20
585.8406346287174
 10
216.7295867947396
 20
586.0888346224474
 10
216.7945867930975
 20
586.332734616286
 10
216.9181867899752
 20
586.5480476190477
 10
217.0277867872064
 20
586.7391346060194
 10
217.1904867830963
 20
586.8942346021013
 10
217.3865867781424
 20
586.9946345995649
 10
217.3865867781424
 20
586.9946345995649
 10
229.2361864787963
 20
591.4252344876386
 10
229.2361864787963
 20
591.4252344876386
 10
229.2361864787963
 20
591.4252344876386
 10
228.1785865055135
 20
593.620834432173
 10
228.1785865055135
 20
593.620834432173
 10
228.1785865055135
 20
593.620834432173
 10
228.1785865055135
 20
594.996334397425
 10
228.1785865055135
 20
594.996334397425
 10
228.1785865055135
 20
594.996334397425
 10
237.9122920208747
 20
591.0124344980667
 10
237.9122920208747
 20
591.0124344980667
 10
237.9122920208747
 20
591.0124344980667
 10
237.1650862784954
 20
593.0142344474971
 10
237.1650862784954
 20
593.0142344474971
 10
237.1650862784954
 20
593.0142344474971
 10
237.1650862784954
 20
594.3898344127465
 10
237.1650862784954
 20
594.3898344127465
 10
237.1650862784954
 20
594.3898344127465
 10
253.5873858636332
 20
600.5301342576294
 10
253.5873858636332
 20
600.5301342576294
 10
253.7047858606675
 20
600.5788342563992
 10
253.8371858573228
 20
600.5765342564573
 10
253.9529858543974
 20
600.523934257786
 10
253.9529858543974
 20
600.523934257786
 10
434.0875813038146
 20
511.2446365131709
 10
434.0875813038146
 20
511.2446365131709
 10
434.1843813013692
 20
511.1966365143834
 10
434.2619812994089
 20
511.1171365163918
 10
434.3076812982544
 20
511.019236518865
 10
434.360292020874
 20
510.9064365217145
 10
434.3874812962385
 20
510.7835365248193
 10
434.387581296236
 20
510.6591365279618
 10
434.387581296236
 20
510.6591365279618
 10
434.387581296236
 20
496.3106368904354
 10
434.387581296236
 20
496.3106368904354
 10
434.387581296236
 20
496.3106368904354
 10
433.3032920208752
 20
496.0031368982035
 10
433.3032920208752
 20
496.0031368982035
 10
433.3032920208752
 20
496.0031368982035
 10
414.2480818050025
 20
505.1912366660927
 10
414.2480818050025
 20
505.1912366660927
 97
        0
 97
        1
330
C1
 75
     2
 76
     1
 98
        1
 10
0.0
 20
0.0
450
        0
451
        0
460
0.0
461
0.0
452
        0
462
0.0
453
        0
470

  0
INSERT
  5
C4
330
70
100
AcDbEntity
  8
Track
100
AcDbBlockReference
  2
Block_4
 10
0.0
 20
0.0
 30
0.0
  0
SPLINE
  5
CB
330
70
100
AcDbEntity
  8
Track
 62
   250
420
  2301728
370
    13
100
AcDbSpline
210
0.0
220
0.0
230
1.0
 70
     8
 71
     3
 72
    20
 73
    16
 74
     0
 42
0.0000000001
 43
0.0000000001
 40
0.0
 40
0.0
 40
0.0
 40
0.0
 40
1.0
 40
1.0
 40
1.0
 40
2.0
 40
2.0
 40
2.0
 40
3.0
 40
3.0
 40
3.0
 40
4.0
 40
4.0
 40
4.0
 40
5.0
 40
5.0
 40
5.0
 40
5.0
 10
237.1650862784954
 20
593.0142344474971
 30
0.0
 10
237.1650862784954
 20
593.0142344474971
 30
0.0
 10
252.9011858809681
 20
598.8882342991074
 30
0.0
 10
252.9011858809681
 20
598.8882342991074
 30
0.0
 10
252.9841858788714
 20
598.9192342983242
 30
0.0
 10
253.0774858765144
 20
598.9017342987663
 30
0.0
 10
253.1436858748421
 20
598.8428343002542
 30
0.0
 10
253.2254858727756
 20
598.7700476190475
 30
0.0
 10
253.2635858718131
 20
598.6599343048746
 30
0.0
 10
253.2441858723032
 20
598.5521343075979
 30
0.0
 10
253.2441858723032
 20
598.5521343075979
 30
0.0
 10
253.2441858723032
 20
582.8250476190478
 30
0.0
 10
253.2441858723032
 20
582.8250476190478
 30
0.0
 10
253.2441858723032
 20
582.8250476190478
 30
0.0
 10
414.2480818050025
 20
505.1912366660927
 30
0.0
 10
414.2480818050025
 20
505.1912366660927
 30
0.0
  0
SPLINE
  5
CC
330
70
100
AcDbEntity
  8
Track
 62
   250
420
  2301728
370
    13
100
AcDbSpline
210
0.0
220
0.0
230
1.0
 70
     8
 71
     3
 72
    17
 73
    13
 74
     0
 42
0.0000000001
 43
0.0000000001
 40
0.0
 40
0.0
 40
0.0
 40
0.0
 40
1.0
 40
1.0
 40
1.0
 40
2.0
 40
2.0
 40
2.0
 40
3.0
 40
3.0
 40
3.0
 40
4.0
 40
4.0
 40
4.0
 40
4.0
 10
434.387581296236
 20
496.3106368904354
 30
0.0
 10
434.387581296236
 20
496.3106368904354
 30
0.0
 10
254.2733858463034
 20
583.1994346954397
 30
0.0
 10
254.2733858463034
 20
583.1994346954397
 30
0.0
 10
254.2733858463034
 20
583.1994346954397
 30
0.0
 10
254.2733858463034
 20
599.8580476190473
 30
0.0
 10
254.2733858463034
 20
599.8580476190473
 30
0.0
 10
254.2733858463034
 20
600.0200476190475
 30
0.0
 10
254.235085847271
 20
600.1797342664813
 30
0.0
 10
254.1616858491252
 20
600.3241342628334
 30
0.0
 10
254.1175858502393
 20
600.4108342606432
 30
0.0
 10
254.0457858520531
 20
600.4803342588875
 30
0.0
 10
253.9577858542762
 20
600.5215342578467
 30
0.0
  0
SPLINE
  5
CD
330
70
100
AcDbEntity
  8
Track
 62
   250
420
  2301728
370
    13
100
AcDbSpline
210
0.0
220
0.0
230
1.0
 70
     8
 71
     3
 72
    23
 73
    19
 74
     0
 42
0.0000000001
 43
0.0000000001
 40
0.0
 40
0.0
 40
0.0
 40
0.0
 40
1.0
 40
1.0
 40
1.0
 40
2.0
 40
2.0
 40
2.0
 40
3.0
 40
3.0
 40
3.0
 40
4.0
 40
4.0
 40
4.0
 40
5.0
 40
5.0
 40
5.0
 40
6.0
 40
6.0
 40
6.0
 40
6.0
 10
398.8753821933497
 20
486.7794371312138
 30
0.0
 10
398.8753821933497
 20
486.7794371312138
 30
0.0
 10
217.7148867698488
 20
569.9033350313275
 30
0.0
 10
217.7148867698488
 20
569.9033350313275
 30
0.0
 10
217.7148867698488
 20
569.9033350313275
 30
0.0
 10
217.7148867698488
 20
585.2997346423817
 30
0.0
 10
217.7148867698488
 20
585.2997346423817
 30
0.0
 10
217.7148867698488
 20
585.4409346388147
 30
0.0
 10
217.7567867687904
 20
585.578834635331
 30
0.0
 10
217.8352920208745
 20
585.6961346323678
 30
0.0
 10
217.8855867655366
 20
585.7714346304655
 30
0.0
 10
217.954486763796
 20
585.8325346289221
 30
0.0
 10
218.0352920208743
 20
585.8735346278863
 30
0.0
 10
218.0352920208743
 20
585.8735346278863
 30
0.0
 10
229.7957864646596
 20
590.2635345169856
 30
0.0
 10
229.7957864646596
 20
590.2635345169856
 30
0.0
 10
229.7957864646596
 20
590.2635345169856
 30
0.0
 10
229.2361864787963
 20
591.4252344876386
 30
0.0
 10
229.2361864787963
 20
591.4252344876386
 30
0.0
  0
LWPOLYLINE
  5
CE
330
70
100
AcDbEntity
  8
Track
 62
   250
420
  2301728
370
    13
100
AcDbPolyline
 90
        3
 70
     0
 43
0.0
 10
228.1785865055135
 20
593.620834432173
 10
238.5183862443082
 20
589.3888345390823
 10
237.9122920208747
 20
591.0124344980667
  0
LINE
  5
CF
330
70
100
AcDbEntity
  8
Track
 62
   250
420
  2301728
370
    13
100
AcDbLine
 10
254.2733858463034
 20
583.1994346954397
 30
0.0
 11
253.2441858723032
 21
582.8250476190478
 31
0.0
  0
LINE
  5
D0
330
70
100
AcDbEntity
  8
Track
 62
   250
420
  2301728
370
    13
100
AcDbLine
 10
217.7148867698488
 20
569.9033350313275
 30
0.0
 11
216.7295867947396
 21
569.545047619048
 31
0.0
  0
LWPOLYLINE
  5
D2
330
70
100
AcDbEntity
  8
Stud
 62
   250
420
  2301728
370
    18
100
AcDbPolyline
 90
       29
 70
     0
 43
0.0
 10
286.4658850330524
 20
393.2848394930861
 10
284.4653850835893
 20
396.5146394114945
 10
282.5711851314409
 20
396.0393394235016
 10
282.5711851314409
 20
390.0750476190479
 10
280.7575851772563
 20
389.6261395855126
 10
280.5155851833697
 20
389.5844395865661
 10
279.9539851975569
 20
389.5798395866823
 10
279.5440852079118
 20
389.6571395847295
 10
269.7415854555438
 20
392.9900476190469
 10
269.5646854600127
 20
393.081339498227
 10
269.5188854611697
 20
393.1610476190471
 10
269.5188854611697
 20
551.9033354860457
 10
269.5932920208743
 20
552.043535482504
 10
269.8098854538184
 20
552.1595354795736
 10
297.3056847592161
 20
561.579235241612
 10
316.1553842830326
 20
552.4901354712219
 10
316.1553842830326
 20
398.5106393610713
 10
316.0824842848742
 20
398.4061393637112
 10
315.8402920208755
 20
398.3100476190484
 10
313.9571843385638
 20
397.8439393779136
 10
313.1032920208745
 20
398.1479393702339
 10
313.1032920208745
 20
399.0826393466214
 10
305.7979845446825
 20
401.6918392807074
 10
305.1699845605472
 20
401.7099392802501
 10
290.9692920208745
 20
398.1466393702667
 10
290.1025849411817
 20
398.4499393626047
 10
288.512484981351
 20
400.7093393055274
 10
287.3256850113321
 20
392.9915395004955
 10
286.4658850330524
 20
393.2848394930861
  0
HATCH
  5
D3
330
70
100
AcDbEntity
  8
Stud
 62
   253
420
 10987948
440
 33554687
100
AcDbHatch
 10
0.0
 20
0.0
 30
0.0
210
0.0
220
0.0
230
1.0
  2
SOLID
 70
     1
 71
     1
 91
        1
 92
        3
 72
     0
 73
     1
 93
       29
 10
286.4658850330524
 20
393.2848394930861
 10
284.4653850835893
 20
396.5146394114945
 10
282.5711851314409
 20
396.0393394235016
 10
282.5711851314409
 20
390.0750476190479
 10
280.7575851772563
 20
389.6261395855126
 10
280.5155851833697
 20
389.5844395865661
 10
279.9539851975569
 20
389.5798395866823
 10
279.5440852079118
 20
389.6571395847295
 10
269.7415854555438
 20
392.9900476190469
 10
269.5646854600127
 20
393.081339498227
 10
269.5188854611697
 20
393.1610476190471
 10
269.5188854611697
 20
551.9033354860457
 10
269.5932920208743
 20
552.043535482504
 10
269.8098854538184
 20
552.1595354795736
 10
297.3056847592161
 20
561.579235241612
 10
316.1553842830326
 20
552.4901354712219
 10
316.1553842830326
 20
398.5106393610713
 10
316.0824842848742
 20
398.4061393637112
 10
315.8402920208755
 20
398.3100476190484
 10
313.9571843385638
 20
397.8439393779136
 10
313.1032920208745
 20
398.1479393702339
 10
313.1032920208745
 20
399.0826393466214
 10
305.7979845446825
 20
401.6918392807074
 10
305.1699845605472
 20
401.7099392802501
 10
290.9692920208745
 20
398.1466393702667
 10
290.1025849411817
 20
398.4499393626047
 10
288.512484981351
 20
400.7093393055274
 10
287.3256850113321
 20
392.9915395004955
 10
286.4658850330524
 20
393.2848394930861
 97
        0
 75
     2
 76
     1
 98
        1
 10
0.0
 20
0.0
450
        0
451
        0
460
0.0
461
0.0
452
        0
462
0.0
453
        0
470

  0
INSERT
  5
D5
330
70
100
AcDbEntity
  8
Stud
100
AcDbBlockReference
  2
Block_5
 10
0.0
 20
0.0
 30
0.0
  0
LINE
  5
DA
330
70
100
AcDbEntity
  8
Stud
 62
   250
420
  2301728
370
    13
100
AcDbLine
 10
280.1865851916809
 20
391.4107395404299
 30
0.0
 11
280.1865851916809
 21
395.4523394383305
 31
0.0
  0
LINE
  5
DB
330
70
100
AcDbEntity
  8
Stud
 62
   250
420
  2301728
370
    13
100
AcDbLine
 10
282.5711851314409
 20
390.0750476190479
 30
0.0
 11
281.7114851531587
 21
390.3683395667631
 31
0.0
  0
SPLINE
  5
DC
330
70
100
AcDbEntity
  8
Stud
 62
   250
420
  2301728
370
    13
100
AcDbSpline
210
0.0
220
0.0
230
1.0
 70
     8
 71
     3
 72
    23
 73
    19
 74
     0
 42
0.0000000001
 43
0.0000000001
 40
0.0
 40
0.0
 40
0.0
 40
0.0
 40
1.0
 40
1.0
 40
1.0
 40
2.0
 40
2.0
 40
2.0
 40
3.0
 40
3.0
 40
3.0
 40
4.0
 40
4.0
 40
4.0
 40
5.0
 40
5.0
 40
5.0
 40
6.0
 40
6.0
 40
6.0
 40
6.0
 10
313.1224843596501
 20
398.1527393701126
 30
0.0
 10
313.1224843596501
 20
398.1527393701126
 30
0.0
 10
314.3162920208742
 20
398.4483393626451
 30
0.0
 10
314.3162920208742
 20
398.4483393626451
 30
0.0
 10
314.3623843283276
 20
398.4619393623016
 30
0.0
 10
314.4063843272161
 20
398.4817393618014
 30
0.0
 10
314.4471843261854
 20
398.5071393611597
 30
0.0
 10
314.4689843256347
 20
398.5207393608162
 30
0.0
 10
314.4755843254679
 20
398.5493393600937
 30
0.0
 10
314.462084325809
 20
398.571047619047
 30
0.0
 10
314.4593843258772
 20
398.5753393594368
 30
0.0
 10
314.4560843259605
 20
398.5790476190469
 30
0.0
 10
314.4522920208747
 20
398.5822393592625
 30
0.0
 10
314.4261843267159
 20
398.6039393587144
 30
0.0
 10
314.3964843274662
 20
398.6208393582874
 30
0.0
 10
314.3644843282745
 20
398.6322393579994
 30
0.0
 10
314.3644843282745
 20
398.6322393579994
 30
0.0
 10
313.1032920208745
 20
399.0826393466214
 30
0.0
 10
313.1032920208745
 20
399.0826393466214
 30
0.0
  0
SPLINE
  5
DD
330
70
100
AcDbEntity
  8
Stud
 62
   250
420
  2301728
370
    13
100
AcDbSpline
210
0.0
220
0.0
230
1.0
 70
     8
 71
     3
 72
    35
 73
    31
 74
     0
 42
0.0000000001
 43
0.0000000001
 40
0.0
 40
0.0
 40
0.0
 40
0.0
 40
1.0
 40
1.0
 40
1.0
 40
2.0
 40
2.0
 40
2.0
 40
3.0
 40
3.0
 40
3.0
 40
4.0
 40
4.0
 40
4.0
 40
5.0
 40
5.0
 40
5.0
 40
6.0
 40
6.0
 40
6.0
 40
7.0
 40
7.0
 40
7.0
 40
8.0
 40
8.0
 40
8.0
 40
9.0
 40
9.0
 40
9.0
 40
10.0
 40
10.0
 40
10.0
 40
10.0
 10
281.7114851531587
 20
395.8234394289557
 30
0.0
 10
281.7114851531587
 20
395.8234394289557
 30
0.0
 10
281.7114851531587
 20
390.3683395667631
 30
0.0
 10
281.7114851531587
 20
390.3683395667631
 30
0.0
 10
281.7114851531587
 20
390.3683395667631
 30
0.0
 10
280.5474851825638
 20
390.0801395740436
 30
0.0
 10
280.5474851825638
 20
390.0801395740436
 30
0.0
 10
280.4531851849461
 20
390.0567395746348
 30
0.0
 10
280.3559851874015
 20
390.0470476190476
 30
0.0
 10
280.2588851898545
 20
390.0513395747712
 30
0.0
 10
280.1649851922266
 20
390.0554395746676
 30
0.0
 10
280.0714851945886
 20
390.0664395743898
 30
0.0
 10
279.9792920208747
 20
390.0843395739375
 30
0.0
 10
279.9792920208747
 20
390.0843395739375
 30
0.0
 10
271.3007854161551
 20
393.0367394993536
 30
0.0
 10
271.3007854161551
 20
393.0367394993536
 30
0.0
 10
271.2672920208742
 20
393.046739499101
 30
0.0
 10
271.2360854177896
 20
393.0632394986842
 30
0.0
 10
271.2089854184742
 20
393.0855394981208
 30
0.0
 10
271.2068854185272
 20
393.0871394980804
 30
0.0
 10
271.2047854185803
 20
393.088939498035
 30
0.0
 10
271.2029854186257
 20
393.0909394979845
 30
0.0
 10
271.1851854190754
 20
393.1101394974994
 30
0.0
 10
271.1862920208741
 20
393.1400476190484
 30
0.0
 10
271.2053854185651
 20
393.1577394962969
 30
0.0
 10
271.2429854176153
 20
393.1882394955264
 30
0.0
 10
271.2874854164911
 20
393.208839495006
 30
0.0
 10
271.3350854152886
 20
393.2176394947837
 30
0.0
 10
271.3350854152886
 20
393.2176394947837
 30
0.0
 10
282.5711851314409
 20
396.0393394235016
 30
0.0
 10
282.5711851314409
 20
396.0393394235016
 30
0.0
  0
LWPOLYLINE
  5
DE
330
70
100
AcDbEntity
  8
Stud
 62
   250
420
  2301728
370
    13
100
AcDbPolyline
 90
        3
 70
     0
 43
0.0
 10
288.512484981351
 20
400.7093393055274
 10
287.7698850001106
 20
401.7645392788709
 10
286.4658850330524
 20
393.2848394930861
  0
LWPOLYLINE
  5
DF
330
70
100
AcDbEntity
  8
Stud
 62
   250
420
  2301728
370
    13
100
AcDbPolyline
 90
        8
 70
     0
 43
0.0
 10
290.1025849411817
 20
398.4499393626047
 10
304.9790845653697
 20
402.18733926819
 10
305.2860845576142
 20
402.2370476190481
 10
305.8647845429951
 20
402.2305392670987
 10
306.2353845336329
 20
402.1511392691045
 10
315.9480842882695
 20
398.6806393567767
 10
316.1012920208741
 20
398.601539358775
 10
316.1553842830326
 20
398.5106393610713
  0
LWPOLYLINE
  5
E0
330
70
100
AcDbEntity
  8
Stud
 62
   250
420
  2301728
370
    13
100
AcDbPolyline
 90
        4
 70
     0
 43
0.0
 10
269.5193854611571
 20
393.1638394961428
 10
269.5886854594064
 20
393.2636394936217
 10
269.8098854538184
 20
393.3517394913961
 10
284.1871850906173
 20
396.9637394001493
  0
LINE
  5
E1
330
70
100
AcDbEntity
  8
Stud
 62
   250
420
  2301728
370
    13
100
AcDbLine
 10
284.1871850906173
 20
396.9637394001493
 30
0.0
 11
284.4653850835893
 21
396.5146394114945
 31
0.0
  0
SPLINE
  5
E3
330
70
100
AcDbEntity
  8
Conector
 62
   250
420
  2301728
370
    18
100
AcDbSpline
210
0.0
220
0.0
230
1.0
 70
    11
 71
     3
 72
    47
 73
    43
 74
     0
 42
0.0000000001
 43
0.0000000001
 40
0.0
 40
0.0
 40
0.0
 40
0.0
 40
1.0
 40
1.0
 40
1.0
 40
2.0
 40
2.0
 40
2.0
 40
3.0
 40
3.0
 40
3.0
 40
4.0
 40
4.0
 40
4.0
 40
5.0
 40
5.0
 40
5.0
 40
6.0
 40
6.0
 40
6.0
 40
7.0
 40
7.0
 40
7.0
 40
8.0
 40
8.0
 40
8.0
 40
9.0
 40
9.0
 40
9.0
 40
10.0
 40
10.0
 40
10.0
 40
11.0
 40
11.0
 40
11.0
 40
12.0
 40
12.0
 40
12.0
 40
13.0
 40
13.0
 40
13.0
 40
14.0
 40
14.0
 40
14.0
 40
14.0
 10
267.3328855163927
 20
576.0290476190475
 30
0.0
 10
267.3328855163927
 20
576.0290476190475
 30
0.0
 10
258.9971857269702
 20
573.0576349516431
 30
0.0
 10
258.9971857269702
 20
573.0576349516431
 30
0.0
 10
258.9971857269702
 20
573.0576349516431
 30
0.0
 10
258.8830857298526
 20
572.0757349764481
 30
0.0
 10
258.8830857298526
 20
572.0757349764481
 30
0.0
 10
258.8830857298526
 20
572.0757349764481
 30
0.0
 10
258.8830857298526
 20
570.8384350077048
 30
0.0
 10
258.8830857298526
 20
570.8384350077048
 30
0.0
 10
258.8830857298526
 20
570.8384350077048
 30
0.0
 10
273.6563853566476
 20
563.8272351848227
 30
0.0
 10
273.6563853566476
 20
563.8272351848227
 30
0.0
 10
273.8667853513325
 20
563.7119351877354
 30
0.0
 10
274.0410853469293
 20
563.5405351920653
 30
0.0
 10
274.1598853439282
 20
563.3320476190474
 30
0.0
 10
274.2822920208746
 20
563.1299352024379
 30
0.0
 10
274.3719853385701
 20
562.9097352080007
 30
0.0
 10
274.425585337216
 20
562.679535213816
 30
0.0
 10
274.4640853362434
 20
562.5189352178731
 30
0.0
 10
274.4838853357432
 20
562.3545352220262
 30
0.0
 10
274.4847853357205
 20
562.1894352261969
 30
0.0
 10
274.4847853357205
 20
562.1894352261969
 30
0.0
 10
274.4847853357205
 20
529.4504360532537
 30
0.0
 10
274.4847853357205
 20
529.4504360532537
 30
0.0
 10
274.4847853357205
 20
529.4504360532537
 30
0.0
 10
275.3226853145534
 20
528.3841360801907
 30
0.0
 10
275.3226853145534
 20
528.3841360801907
 30
0.0
 10
275.3226853145534
 20
528.3841360801907
 30
0.0
 10
276.1324852940961
 20
528.0161360894871
 30
0.0
 10
276.1324852940961
 20
528.0161360894871
 30
0.0
 10
276.1324852940961
 20
528.0161360894871
 30
0.0
 10
298.7895847217296
 20
535.4364359020346
 30
0.0
 10
298.7895847217296
 20
535.4364359020346
 30
0.0
 10
298.7895847217296
 20
535.4364359020346
 30
0.0
 10
300.0655846894952
 20
537.5374358489588
 30
0.0
 10
300.0655846894952
 20
537.5374358489588
 30
0.0
 10
300.0655846894952
 20
537.5374358489588
 30
0.0
 10
300.0655846894952
 20
560.245735275299
 30
0.0
 10
300.0655846894952
 20
560.245735275299
 30
0.0
 10
300.0655846894952
 20
560.245735275299
 30
0.0
 10
267.3328855163927
 20
576.0290476190475
 30
0.0
 10
267.3328855163927
 20
576.0290476190475
 30
0.0
  0
HATCH
  5
E4
330
70
100
AcDbEntity
  8
Conector
 62
   254
420
 13358815
440
 33554687
100
AcDbHatch
 10
0.0
 20
0.0
 30
0.0
210
0.0
220
0.0
230
1.0
  2
SOLID
 70
     1
 71
     1
 91
        1
 92
        1
 93
        2
 72
     4
 94
        3
 73
     0
 74
     0
 95
       47
 96
       43
 40
0.0
 40
0.0
 40
0.0
 40
0.0
 40
1.0
 40
1.0
 40
1.0
 40
2.0
 40
2.0
 40
2.0
 40
3.0
 40
3.0
 40
3.0
 40
4.0
 40
4.0
 40
4.0
 40
5.0
 40
5.0
 40
5.0
 40
6.0
 40
6.0
 40
6.0
 40
7.0
 40
7.0
 40
7.0
 40
8.0
 40
8.0
 40
8.0
 40
9.0
 40
9.0
 40
9.0
 40
10.0
 40
10.0
 40
10.0
 40
11.0
 40
11.0
 40
11.0
 40
12.0
 40
12.0
 40
12.0
 40
13.0
 40
13.0
 40
13.0
 40
14.0
 40
14.0
 40
14.0
 40
14.0
 10
267.3328855163927
 20
576.0290476190475
 10
267.3328855163927
 20
576.0290476190475
 10
258.9971857269702
 20
573.0576349516431
 10
258.9971857269702
 20
573.0576349516431
 10
258.9971857269702
 20
573.0576349516431
 10
258.8830857298526
 20
572.0757349764481
 10
258.8830857298526
 20
572.0757349764481
 10
258.8830857298526
 20
572.0757349764481
 10
258.8830857298526
 20
570.8384350077048
 10
258.8830857298526
 20
570.8384350077048
 10
258.8830857298526
 20
570.8384350077048
 10
273.6563853566476
 20
563.8272351848227
 10
273.6563853566476
 20
563.8272351848227
 10
273.8667853513325
 20
563.7119351877354
 10
274.0410853469293
 20
563.5405351920653
 10
274.1598853439282
 20
563.3320476190474
 10
274.2822920208746
 20
563.1299352024379
 10
274.3719853385701
 20
562.9097352080007
 10
274.425585337216
 20
562.679535213816
 10
274.4640853362434
 20
562.5189352178731
 10
274.4838853357432
 20
562.3545352220262
 10
274.4847853357205
 20
562.1894352261969
 10
274.4847853357205
 20
562.1894352261969
 10
274.4847853357205
 20
529.4504360532537
 10
274.4847853357205
 20
529.4504360532537
 10
274.4847853357205
 20
529.4504360532537
 10
275.3226853145534
 20
528.3841360801907
 10
275.3226853145534
 20
528.3841360801907
 10
275.3226853145534
 20
528.3841360801907
 10
276.1324852940961
 20
528.0161360894871
 10
276.1324852940961
 20
528.0161360894871
 10
276.1324852940961
 20
528.0161360894871
 10
298.7895847217296
 20
535.4364359020346
 10
298.7895847217296
 20
535.4364359020346
 10
298.7895847217296
 20
535.4364359020346
 10
300.0655846894952
 20
537.5374358489588
 10
300.0655846894952
 20
537.5374358489588
 10
300.0655846894952
 20
537.5374358489588
 10
300.0655846894952
 20
560.245735275299
 10
300.0655846894952
 20
560.245735275299
 10
300.0655846894952
 20
560.245735275299
 10
267.3328855163927
 20
576.0290476190475
 10
267.3328855163927
 20
576.0290476190475
 97
        0
 72
     1
 10
267.3328855163928
 20
576.0290476190475
 11
267.3328855163927
 21
576.0290476190475
 97
        0
 75
     2
 76
     1
 98
        1
 10
0.0
 20
0.0
450
        0
451
        0
460
0.0
461
0.0
452
        0
462
0.0
453
        0
470

  0
LINE
  5
E5
330
70
100
AcDbEntity
  8
Conector
 62
   250
420
  2301728
370
     9
100
AcDbLine
 10
258.9971857269702
 20
571.8192349829278
 30
0.0
 11
258.9971857269702
 21
573.0576349516431
 31
0.0
  0
LINE
  5
E6
330
70
100
AcDbEntity
  8
Conector
 62
   250
420
  2301728
370
     9
100
AcDbLine
 10
300.0655846894952
 20
537.5374358489588
 30
0.0
 11
299.2579847098968
 21
537.9118358395007
 31
0.0
  0
LINE
  5
E7
330
70
100
AcDbEntity
  8
Conector
 62
   250
420
  2301728
370
     9
100
AcDbLine
 10
297.9817847421364
 20
535.8092358926169
 30
0.0
 11
298.7895847217296
 21
535.4364359020346
 31
0.0
  0
LWPOLYLINE
  5
E8
330
70
100
AcDbEntity
  8
Conector
 62
   250
420
  2301728
370
     9
100
AcDbPolyline
 90
        3
 70
     0
 43
0.0
 10
268.8136854789846
 20
575.3150476190476
 10
258.9971857269702
 20
571.8192349829278
 10
258.8830857298526
 20
570.8384350077048
  0
LWPOLYLINE
  5
E9
330
70
100
AcDbEntity
  8
Conector
 62
   250
420
  2301728
370
     9
100
AcDbPolyline
 90
        4
 70
     0
 43
0.0
 10
275.3226853145534
 20
528.3841360801907
 10
297.9818847421338
 20
535.8100476190474
 10
299.2579847098968
 20
537.9118358395007
 10
299.2579847098968
 20
560.6351352654619
  0
SPLINE
  5
EA
330
70
100
AcDbEntity
  8
Conector
 62
   250
420
  2301728
370
     9
100
AcDbSpline
210
0.0
220
0.0
230
1.0
 70
     9
 71
     3
 72
    50
 73
    46
 74
     0
 42
0.0000000001
 43
0.0000000001
 40
0.0
 40
0.0
 40
0.0
 40
0.0
 40
1.0
 40
1.0
 40
1.0
 40
2.0
 40
2.0
 40
2.0
 40
3.0
 40
3.0
 40
3.0
 40
4.0
 40
4.0
 40
4.0
 40
5.0
 40
5.0
 40
5.0
 40
6.0
 40
6.0
 40
6.0
 40
7.0
 40
7.0
 40
7.0
 40
8.0
 40
8.0
 40
8.0
 40
9.0
 40
9.0
 40
9.0
 40
10.0
 40
10.0
 40
10.0
 40
11.0
 40
11.0
 40
11.0
 40
12.0
 40
12.0
 40
12.0
 40
13.0
 40
13.0
 40
13.0
 40
14.0
 40
14.0
 40
14.0
 40
15.0
 40
15.0
 40
15.0
 40
15.0
 10
278.2154852414751
 20
533.1712359592584
 30
0.0
 10
278.2154852414751
 20
533.1712359592584
 30
0.0
 10
278.2154852414751
 20
563.4856351934522
 30
0.0
 10
278.2154852414751
 20
563.4856351934522
 30
0.0
 10
278.2323852410482
 20
564.1346351770571
 30
0.0
 10
277.9244852488264
 20
564.7493351615285
 30
0.0
 10
277.3946852622103
 20
565.1244351520526
 30
0.0
 10
277.3946852622103
 20
565.1244351520526
 30
0.0
 10
268.8108854790553
 20
569.2188350486194
 30
0.0
 10
268.8108854790553
 20
569.2188350486194
 30
0.0
 10
268.3568854905243
 20
569.4070476190481
 30
0.0
 10
267.8669855029002
 20
569.4923350417102
 30
0.0
 10
267.3761855152989
 20
569.4689350423013
 30
0.0
 10
266.9277855266264
 20
569.481735041978
 30
0.0
 10
266.484885537815
 20
569.3678350448553
 30
0.0
 10
266.0983855475788
 20
569.1404350505999
 30
0.0
 10
265.9255855519441
 20
569.0413350531034
 30
0.0
 10
265.8432920208743
 20
568.8367350582721
 30
0.0
 10
265.8992920208748
 20
568.6456350630996
 30
0.0
 10
265.9375855516409
 20
568.400235069299
 30
0.0
 10
266.0516855487585
 20
568.1728350750436
 30
0.0
 10
266.2256855443629
 20
567.9954350795251
 30
0.0
 10
266.3427855414048
 20
567.8854350823039
 30
0.0
 10
266.4767855380196
 20
567.7949350845901
 30
0.0
 10
266.6225855343364
 20
567.7272350863004
 30
0.0
 10
266.6225855343364
 20
567.7272350863004
 30
0.0
 10
275.19258531784
 20
563.6562351891425
 30
0.0
 10
275.19258531784
 20
563.6562351891425
 30
0.0
 10
275.3997853126057
 20
563.4403351945966
 30
0.0
 10
275.5158853096727
 20
563.1530476190473
 30
0.0
 10
275.5169853096449
 20
562.8538352094128
 30
0.0
 10
275.5169853096449
 20
562.8538352094128
 30
0.0
 10
275.5168853096475
 20
532.5666359745318
 30
0.0
 10
275.5168853096475
 20
532.5666359745318
 30
0.0
 10
275.5143853097106
 20
532.2203359832801
 30
0.0
 10
275.6115853072552
 20
531.8806359918617
 30
0.0
 10
275.7968853025741
 20
531.5879359992559
 30
0.0
 10
275.9315852991713
 20
531.3833360044245
 30
0.0
 10
276.1208852943891
 20
531.2206360085347
 30
0.0
 10
276.3433852887683
 20
531.1182360111216
 30
0.0
 10
276.6543852809118
 20
530.996336014201
 30
0.0
 10
277.0063852720195
 20
531.0453360129631
 30
0.0
 10
277.2722920208744
 20
531.2474360078576
 30
0.0
 10
277.8728852501299
 20
531.7037359963306
 30
0.0
 10
278.2225852412957
 20
532.4170476190475
 30
0.0
 10
278.2154852414751
 20
533.1712359592584
 30
0.0
  0
SPLINE
  5
EB
330
70
100
AcDbEntity
  8
Conector
 62
   250
420
  2301728
370
     9
100
AcDbSpline
210
0.0
220
0.0
230
1.0
 70
     9
 71
     3
 72
    53
 73
    49
 74
     0
 42
0.0000000001
 43
0.0000000001
 40
0.0
 40
0.0
 40
0.0
 40
0.0
 40
1.0
 40
1.0
 40
1.0
 40
2.0
 40
2.0
 40
2.0
 40
3.0
 40
3.0
 40
3.0
 40
4.0
 40
4.0
 40
4.0
 40
5.0
 40
5.0
 40
5.0
 40
6.0
 40
6.0
 40
6.0
 40
7.0
 40
7.0
 40
7.0
 40
8.0
 40
8.0
 40
8.0
 40
9.0
 40
9.0
 40
9.0
 40
10.0
 40
10.0
 40
10.0
 40
11.0
 40
11.0
 40
11.0
 40
12.0
 40
12.0
 40
12.0
 40
13.0
 40
13.0
 40
13.0
 40
14.0
 40
14.0
 40
14.0
 40
15.0
 40
15.0
 40
15.0
 40
16.0
 40
16.0
 40
16.0
 40
16.0
 10
281.6225851554045
 20
569.1387350506429
 30
0.0
 10
281.6225851554045
 20
569.1387350506429
 30
0.0
 10
285.332785061677
 20
567.3497350958369
 30
0.0
 10
285.332785061677
 20
567.3497350958369
 30
0.0
 10
285.584385055321
 20
566.979135105199
 30
0.0
 10
285.7208850518727
 20
566.5425351162284
 30
0.0
 10
285.7250850517667
 20
566.0946351275433
 30
0.0
 10
285.7250850517667
 20
566.0946351275433
 30
0.0
 10
285.7250850517667
 20
535.6499358966411
 30
0.0
 10
285.7250850517667
 20
535.6499358966411
 30
0.0
 10
285.7211850518652
 20
535.0144359126952
 30
0.0
 10
285.477585058019
 20
534.4038359281203
 30
0.0
 10
285.0430850689954
 20
533.9400476190475
 30
0.0
 10
284.823485074543
 20
533.6959359460033
 30
0.0
 10
284.5192920208747
 20
533.5444359498305
 30
0.0
 10
284.1920850904935
 20
533.516235950543
 30
0.0
 10
283.7665851012425
 20
533.5457359497977
 30
0.0
 10
283.3903851107461
 20
533.8030476190478
 30
0.0
 10
283.2085851153388
 20
534.1889359335491
 30
0.0
 10
283.072485118777
 20
534.4522359268976
 30
0.0
 10
283.0032920208741
 20
534.7450476190479
 30
0.0
 10
283.0069851204316
 20
535.0414359120131
 30
0.0
 10
283.0069851204316
 20
535.0414359120131
 30
0.0
 10
283.0069851204316
 20
565.451047619048
 30
0.0
 10
283.0069851204316
 20
565.451047619048
 30
0.0
 10
283.0039851205074
 20
565.6157351396414
 30
0.0
 10
282.9699851213663
 20
565.7783351355337
 30
0.0
 10
282.9068851229603
 20
565.9305351316889
 30
0.0
 10
282.8598851241477
 20
566.0586351284528
 30
0.0
 10
282.7827851260954
 20
566.1735351255502
 30
0.0
 10
282.6820851286393
 20
566.2656351232235
 30
0.0
 10
282.6820851286393
 20
566.2656351232235
 30
0.0
 10
280.2745851894579
 20
567.4213350940281
 30
0.0
 10
280.2745851894579
 20
567.4213350940281
 30
0.0
 10
280.0829851942981
 20
567.5069350918656
 30
0.0
 10
279.9146851985497
 20
567.6373350885715
 30
0.0
 10
279.7839852018515
 20
567.8014350844259
 30
0.0
 10
279.6465852053225
 20
567.9772350799849
 30
0.0
 10
279.5641852074041
 20
568.1897350746167
 30
0.0
 10
279.5469852078386
 20
568.4121350689983
 30
0.0
 10
279.5397852080205
 20
568.5925350644411
 30
0.0
 10
279.6325852056761
 20
568.7621350601566
 30
0.0
 10
279.7884852017378
 20
568.8531350578577
 30
0.0
 10
280.2412920208744
 20
569.0830476190476
 30
0.0
 10
280.7463851775392
 20
569.1902350493419
 30
0.0
 10
281.2534851647288
 20
569.1639350500063
 30
0.0
 10
281.3768851616114
 20
569.161335050072
 30
0.0
 10
281.5000851584991
 20
569.1528350502867
 30
0.0
 10
281.6225851554045
 20
569.1387350506429
 30
0.0
  0
SPLINE
  5
EC
330
70
100
AcDbEntity
  8
Conector
 62
   250
420
  2301728
370
     9
100
AcDbSpline
210
0.0
220
0.0
230
1.0
 70
     8
 71
     3
 72
    17
 73
    13
 74
     0
 42
0.0000000001
 43
0.0000000001
 40
0.0
 40
0.0
 40
0.0
 40
0.0
 40
1.0
 40
1.0
 40
1.0
 40
2.0
 40
2.0
 40
2.0
 40
3.0
 40
3.0
 40
3.0
 40
4.0
 40
4.0
 40
4.0
 40
4.0
 10
279.8570852000048
 20
559.5163352937252
 30
0.0
 10
279.8570852000048
 20
559.5163352937252
 30
0.0
 10
279.8570852000048
 20
537.0425358614611
 30
0.0
 10
279.8570852000048
 20
537.0425358614611
 30
0.0
 10
279.8570852000048
 20
536.8368358666575
 30
0.0
 10
279.9075851987291
 20
536.6343358717731
 30
0.0
 10
280.0039851962938
 20
536.4527358763607
 30
0.0
 10
280.0750851944977
 20
536.3188358797433
 30
0.0
 10
280.1970851914157
 20
536.2192358822595
 30
0.0
 10
280.34258518774
 20
536.1763358833432
 30
0.0
 10
280.3909851865173
 20
536.1620476190473
 30
0.0
 10
280.4409851852542
 20
536.1538358839116
 30
0.0
 10
280.491385183981
 20
536.1519358839595
 30
0.0
  0
SPLINE
  5
ED
330
70
100
AcDbEntity
  8
Conector
 62
   250
420
  2301728
370
     9
100
AcDbSpline
210
0.0
220
0.0
230
1.0
 70
     8
 71
     3
 72
    14
 73
    10
 74
     0
 42
0.0000000001
 43
0.0000000001
 40
0.0
 40
0.0
 40
0.0
 40
0.0
 40
1.0
 40
1.0
 40
1.0
 40
2.0
 40
2.0
 40
2.0
 40
3.0
 40
3.0
 40
3.0
 40
3.0
 10
281.3382920208742
 20
560.8024352612355
 30
0.0
 10
281.2280851653704
 20
560.9232352581839
 30
0.0
 10
281.0711851693341
 20
560.9906352564812
 30
0.0
 10
280.9076851734644
 20
560.987435256562
 30
0.0
 10
280.6852920208748
 20
560.9680476190479
 30
0.0
 10
280.4786851843019
 20
560.8646352596642
 30
0.0
 10
280.3298851880608
 20
560.6982352638679
 30
0.0
 10
280.0283851956774
 20
560.3783352719492
 30
0.0
 10
279.8594851999442
 20
559.9559352826199
 30
0.0
 10
279.8570852000048
 20
559.5163352937252
 30
0.0
  0
SPLINE
  5
EE
330
70
100
AcDbEntity
  8
Conector
 62
   250
420
  2301728
370
    13
100
AcDbSpline
210
0.0
220
0.0
230
1.0
 70
     9
 71
     3
 72
    41
 73
    37
 74
     0
 42
0.0000000001
 43
0.0000000001
 40
0.0
 40
0.0
 40
0.0
 40
0.0
 40
1.0
 40
1.0
 40
1.0
 40
2.0
 40
2.0
 40
2.0
 40
3.0
 40
3.0
 40
3.0
 40
4.0
 40
4.0
 40
4.0
 40
5.0
 40
5.0
 40
5.0
 40
6.0
 40
6.0
 40
6.0
 40
7.0
 40
7.0
 40
7.0
 40
8.0
 40
8.0
 40
8.0
 40
9.0
 40
9.0
 40
9.0
 40
10.0
 40
10.0
 40
10.0
 40
11.0
 40
11.0
 40
11.0
 40
12.0
 40
12.0
 40
12.0
 40
12.0
 10
280.491385183981
 20
536.1519358839595
 30
0.0
 10
280.5972920208742
 20
536.1479358840606
 30
0.0
 10
280.7023851786507
 20
536.1716358834619
 30
0.0
 10
280.7961851762811
 20
536.2207358822216
 30
0.0
 10
281.0165851707134
 20
536.3361358793063
 30
0.0
 10
281.1988851661081
 20
536.5128358748425
 30
0.0
 10
281.3211851630185
 20
536.7295358693682
 30
0.0
 10
281.4667851593404
 20
536.9877358628455
 30
0.0
 10
281.5507851572183
 20
537.2762358555574
 30
0.0
 10
281.5663851568242
 20
537.5722358480798
 30
0.0
 10
281.5663851568242
 20
537.5722358480798
 30
0.0
 10
281.5668851568116
 20
560.1058352788331
 30
0.0
 10
281.5668851568116
 20
560.1058352788331
 30
0.0
 10
281.5746851566146
 20
560.3543352725555
 30
0.0
 10
281.4962920208746
 20
560.5978352664042
 30
0.0
 10
281.3449851624173
 20
560.795047619048
 30
0.0
 10
281.3427851624729
 20
560.7975352613594
 30
0.0
 10
281.3405851625284
 20
560.8000476190473
 30
0.0
 10
281.3382920208742
 20
560.8024352612355
 30
0.0
 10
281.3299851627962
 20
560.8026352612305
 30
0.0
 10
281.3215851630084
 20
560.8026352612305
 30
0.0
 10
281.3132920208746
 20
560.802535261233
 30
0.0
 10
281.0908851688364
 20
560.7831352617231
 30
0.0
 10
280.8842920208745
 20
560.6798352643327
 30
0.0
 10
280.7354851778145
 20
560.5134352685363
 30
0.0
 10
280.4339851854311
 20
560.1934352766201
 30
0.0
 10
280.2650851896979
 20
559.7710476190477
 30
0.0
 10
280.2626851897585
 20
559.3314352983961
 30
0.0
 10
280.2626851897585
 20
559.3314352983961
 30
0.0
 10
280.2626851897585
 20
536.8576358661321
 30
0.0
 10
280.2626851897585
 20
536.8576358661321
 30
0.0
 10
280.2626851897585
 20
536.652047619048
 30
0.0
 10
280.3130851884853
 20
536.4495358764416
 30
0.0
 10
280.4095851860475
 20
536.2678358810317
 30
0.0
 10
280.4318851854841
 20
536.2259358820901
 30
0.0
 10
280.4593851847894
 20
536.1869358830753
 30
0.0
 10
280.491385183981
 20
536.1519358839595
 30
0.0
  0
HATCH
  5
EF
330
70
100
AcDbEntity
  8
Conector
 62
   253
420
 10987948
440
 33554687
100
AcDbHatch
 10
0.0
 20
0.0
 30
0.0
210
0.0
220
0.0
230
1.0
  2
SOLID
 70
     1
 71
     1
 91
        1
 92
        1
 93
        1
 72
     4
 94
        3
 73
     0
 74
     0
 95
       41
 96
       37
 40
0.0
 40
0.0
 40
0.0
 40
0.0
 40
1.0
 40
1.0
 40
1.0
 40
2.0
 40
2.0
 40
2.0
 40
3.0
 40
3.0
 40
3.0
 40
4.0
 40
4.0
 40
4.0
 40
5.0
 40
5.0
 40
5.0
 40
6.0
 40
6.0
 40
6.0
 40
7.0
 40
7.0
 40
7.0
 40
8.0
 40
8.0
 40
8.0
 40
9.0
 40
9.0
 40
9.0
 40
10.0
 40
10.0
 40
10.0
 40
11.0
 40
11.0
 40
11.0
 40
12.0
 40
12.0
 40
12.0
 40
12.0
 10
280.491385183981
 20
536.1519358839595
 10
280.5972920208742
 20
536.1479358840606
 10
280.7023851786507
 20
536.1716358834619
 10
280.7961851762811
 20
536.2207358822216
 10
281.0165851707134
 20
536.3361358793063
 10
281.1988851661081
 20
536.5128358748425
 10
281.3211851630185
 20
536.7295358693682
 10
281.4667851593404
 20
536.9877358628455
 10
281.5507851572183
 20
537.2762358555574
 10
281.5663851568242
 20
537.5722358480798
 10
281.5663851568242
 20
537.5722358480798
 10
281.5668851568116
 20
560.1058352788331
 10
281.5668851568116
 20
560.1058352788331
 10
281.5746851566146
 20
560.3543352725555
 10
281.4962920208746
 20
560.5978352664042
 10
281.3449851624173
 20
560.795047619048
 10
281.3427851624729
 20
560.7975352613594
 10
281.3405851625284
 20
560.8000476190473
 10
281.3382920208742
 20
560.8024352612355
 10
281.3299851627962
 20
560.8026352612305
 10
281.3215851630084
 20
560.8026352612305
 10
281.3132920208746
 20
560.802535261233
 10
281.0908851688364
 20
560.7831352617231
 10
280.8842920208745
 20
560.6798352643327
 10
280.7354851778145
 20
560.5134352685363
 10
280.4339851854311
 20
560.1934352766201
 10
280.2650851896979
 20
559.7710476190477
 10
280.2626851897585
 20
559.3314352983961
 10
280.2626851897585
 20
559.3314352983961
 10
280.2626851897585
 20
536.8576358661321
 10
280.2626851897585
 20
536.8576358661321
 10
280.2626851897585
 20
536.652047619048
 10
280.3130851884853
 20
536.4495358764416
 10
280.4095851860475
 20
536.2678358810317
 10
280.4318851854841
 20
536.2259358820901
 10
280.4593851847894
 20
536.1869358830753
 10
280.491385183981
 20
536.1519358839595
 97
        0
 97
        1
330
EE
 75
     2
 76
     1
 98
        1
 10
0.0
 20
0.0
450
        0
451
        0
460
0.0
461
0.0
452
        0
462
0.0
453
        0
470

  0
SPLINE
  5
F0
330
70
100
AcDbEntity
  8
Conector
 62
   250
420
  2301728
370
     9
100
AcDbSpline
210
0.0
220
0.0
230
1.0
 70
     8
 71
     3
 72
    23
 73
    19
 74
     0
 42
0.0000000001
 43
0.0000000001
 40
0.0
 40
0.0
 40
0.0
 40
0.0
 40
1.0
 40
1.0
 40
1.0
 40
2.0
 40
2.0
 40
2.0
 40
3.0
 40
3.0
 40
3.0
 40
4.0
 40
4.0
 40
4.0
 40
5.0
 40
5.0
 40
5.0
 40
6.0
 40
6.0
 40
6.0
 40
6.0
 10
290.7675849243824
 20
564.7291351620387
 30
0.0
 10
290.7675849243824
 20
564.7291351620387
 30
0.0
 10
290.7675849243824
 20
537.3246358543346
 30
0.0
 10
290.7675849243824
 20
537.3246358543346
 30
0.0
 10
290.7636849244809
 20
536.6891358703887
 30
0.0
 10
290.5200849306348
 20
536.0785358858138
 30
0.0
 10
290.0855849416112
 20
535.6147358975304
 30
0.0
 10
289.8659849471587
 20
535.3706359036968
 30
0.0
 10
289.5617849548435
 20
535.2191359075241
 30
0.0
 10
289.2345849631092
 20
535.1909359082364
 30
0.0
 10
288.8090849738583
 20
535.2204359074912
 30
0.0
 10
288.4328849833618
 20
535.4777359009913
 30
0.0
 10
288.2510849879545
 20
535.8636358912426
 30
0.0
 10
288.1149849913927
 20
536.1269358845911
 30
0.0
 10
288.0457849931408
 20
536.4197358771944
 30
0.0
 10
288.0494849930474
 20
536.7161358697067
 30
0.0
 10
288.0494849930474
 20
536.7161358697067
 30
0.0
 10
288.0494849930474
 20
566.0397351289303
 30
0.0
 10
288.0494849930474
 20
566.0397351289303
 30
0.0
  0
SPLINE
  5
F1
330
70
100
AcDbEntity
  8
Conector
 62
   250
420
  2301728
370
     9
100
AcDbSpline
210
0.0
220
0.0
230
1.0
 70
     8
 71
     3
 72
    17
 73
    13
 74
     0
 42
0.0000000001
 43
0.0000000001
 40
0.0
 40
0.0
 40
0.0
 40
0.0
 40
1.0
 40
1.0
 40
1.0
 40
2.0
 40
2.0
 40
2.0
 40
3.0
 40
3.0
 40
3.0
 40
4.0
 40
4.0
 40
4.0
 40
4.0
 10
292.4316848823437
 20
563.688435188329
 30
0.0
 10
292.4316848823437
 20
563.688435188329
 30
0.0
 10
292.4316848823437
 20
541.214635756065
 30
0.0
 10
292.4316848823437
 20
541.214635756065
 30
0.0
 10
292.4316848823437
 20
541.009047619048
 30
0.0
 10
292.482184881068
 20
540.8065357663745
 30
0.0
 10
292.5785848786327
 20
540.6248357709646
 30
0.0
 10
292.6496848768366
 20
540.4909357743472
 30
0.0
 10
292.7716848737546
 20
540.3913357768633
 30
0.0
 10
292.9171848700789
 20
540.348435777947
 30
0.0
 10
292.9655848688562
 20
540.3341357783083
 30
0.0
 10
293.0155848675931
 20
540.3259357785154
 30
0.0
 10
293.0659848663199
 20
540.3240476190476
 30
0.0
  0
SPLINE
  5
F2
330
70
100
AcDbEntity
  8
Conector
 62
   250
420
  2301728
370
    13
100
AcDbSpline
210
0.0
220
0.0
230
1.0
 70
     9
 71
     3
 72
    29
 73
    25
 74
     0
 42
0.0000000001
 43
0.0000000001
 40
0.0
 40
0.0
 40
0.0
 40
0.0
 40
1.0
 40
1.0
 40
1.0
 40
2.0
 40
2.0
 40
2.0
 40
3.0
 40
3.0
 40
3.0
 40
4.0
 40
4.0
 40
4.0
 40
5.0
 40
5.0
 40
5.0
 40
6.0
 40
6.0
 40
6.0
 40
7.0
 40
7.0
 40
7.0
 40
8.0
 40
8.0
 40
8.0
 40
8.0
 10
293.0659848663199
 20
540.3240476190476
 30
0.0
 10
293.1718848636446
 20
540.3200476190477
 30
0.0
 10
293.2769848609896
 20
540.3437357780658
 30
0.0
 10
293.37078485862
 20
540.3928357768254
 30
0.0
 10
293.5911848530523
 20
540.5082357739102
 30
0.0
 10
293.773484848447
 20
540.6849357694463
 30
0.0
 10
293.8957848453574
 20
540.901635763972
 30
0.0
 10
294.0413848416792
 20
541.1598357574494
 30
0.0
 10
294.1253848395572
 20
541.4483357501612
 30
0.0
 10
294.1409848391631
 20
541.7443357426837
 30
0.0
 10
294.1409848391631
 20
541.7443357426837
 30
0.0
 10
294.141384839153
 20
563.1023352031352
 30
0.0
 10
294.141384839153
 20
563.1023352031352
 30
0.0
 10
294.141384839153
 20
563.1023352031352
 30
0.0
 10
292.8372920208749
 20
563.7311351872503
 30
0.0
 10
292.8372920208749
 20
563.7311351872503
 30
0.0
 10
292.8372920208749
 20
563.7311351872503
 30
0.0
 10
292.8372920208749
 20
541.029735760736
 30
0.0
 10
292.8372920208749
 20
541.029735760736
 30
0.0
 10
292.8372920208749
 20
540.8241357659298
 30
0.0
 10
292.8876848708242
 20
540.6216357710454
 30
0.0
 10
292.9841848683864
 20
540.4400476190476
 30
0.0
 10
293.006484867823
 20
540.3980476190481
 30
0.0
 10
293.0339848671283
 20
540.3590476190474
 30
0.0
 10
293.0659848663199
 20
540.3240476190476
 30
0.0
  0
HATCH
  5
F3
330
70
100
AcDbEntity
  8
Conector
 62
   253
420
 10987948
440
 33554687
100
AcDbHatch
 10
0.0
 20
0.0
 30
0.0
210
0.0
220
0.0
230
1.0
  2
SOLID
 70
     1
 71
     1
 91
        1
 92
        1
 93
        1
 72
     4
 94
        3
 73
     0
 74
     0
 95
       29
 96
       25
 40
0.0
 40
0.0
 40
0.0
 40
0.0
 40
1.0
 40
1.0
 40
1.0
 40
2.0
 40
2.0
 40
2.0
 40
3.0
 40
3.0
 40
3.0
 40
4.0
 40
4.0
 40
4.0
 40
5.0
 40
5.0
 40
5.0
 40
6.0
 40
6.0
 40
6.0
 40
7.0
 40
7.0
 40
7.0
 40
8.0
 40
8.0
 40
8.0
 40
8.0
 10
293.0659848663199
 20
540.3240476190476
 10
293.1718848636446
 20
540.3200476190477
 10
293.2769848609896
 20
540.3437357780658
 10
293.37078485862
 20
540.3928357768254
 10
293.5911848530523
 20
540.5082357739102
 10
293.773484848447
 20
540.6849357694463
 10
293.8957848453574
 20
540.901635763972
 10
294.0413848416792
 20
541.1598357574494
 10
294.1253848395572
 20
541.4483357501612
 10
294.1409848391631
 20
541.7443357426837
 10
294.1409848391631
 20
541.7443357426837
 10
294.141384839153
 20
563.1023352031352
 10
294.141384839153
 20
563.1023352031352
 10
294.141384839153
 20
563.1023352031352
 10
292.8372920208749
 20
563.7311351872503
 10
292.8372920208749
 20
563.7311351872503
 10
292.8372920208749
 20
563.7311351872503
 10
292.8372920208749
 20
541.029735760736
 10
292.8372920208749
 20
541.029735760736
 10
292.8372920208749
 20
540.8241357659298
 10
292.8876848708242
 20
540.6216357710454
 10
292.9841848683864
 20
540.4400476190476
 10
293.006484867823
 20
540.3980476190481
 10
293.0339848671283
 20
540.3590476190474
 10
293.0659848663199
 20
540.3240476190476
 97
        0
 97
        1
330
F2
 75
     2
 76
     1
 98
        1
 10
0.0
 20
0.0
450
        0
451
        0
460
0.0
461
0.0
452
        0
462
0.0
453
        0
470

  0
SPLINE
  5
F4
330
70
100
AcDbEntity
  8
Conector
 62
   250
420
  2301728
370
     9
100
AcDbSpline
210
0.0
220
0.0
230
1.0
 70
     8
 71
     3
 72
     8
 73
     4
 74
     0
 42
0.0000000001
 43
0.0000000001
 40
0.0
 40
0.0
 40
0.0
 40
0.0
 40
1.0
 40
1.0
 40
1.0
 40
1.0
 10
292.4482920208748
 20
563.9187351825112
 30
0.0
 10
292.4376848821921
 20
563.8424351844387
 30
0.0
 10
292.4320848823336
 20
563.7654351863838
 30
0.0
 10
292.4316848823437
 20
563.688435188329
 30
0.0
  0
SPLINE
  5
F5
330
70
100
AcDbEntity
  8
Conector
 62
   250
420
  2301728
370
     9
100
AcDbSpline
210
0.0
220
0.0
230
1.0
 70
     8
 71
     3
 72
    23
 73
    19
 74
     0
 42
0.0000000001
 43
0.0000000001
 40
0.0
 40
0.0
 40
0.0
 40
0.0
 40
1.0
 40
1.0
 40
1.0
 40
2.0
 40
2.0
 40
2.0
 40
3.0
 40
3.0
 40
3.0
 40
4.0
 40
4.0
 40
4.0
 40
5.0
 40
5.0
 40
5.0
 40
6.0
 40
6.0
 40
6.0
 40
6.0
 10
298.3948847317006
 20
561.0513352549478
 30
0.0
 10
298.3948847317006
 20
561.0513352549478
 30
0.0
 10
298.3948847317006
 20
539.8246357911793
 30
0.0
 10
298.3948847317006
 20
539.8246357911793
 30
0.0
 10
298.3908847318016
 20
539.1891358072334
 30
0.0
 10
298.1473847379529
 20
538.5785358226585
 30
0.0
 10
297.7128847489293
 20
538.1147358343751
 30
0.0
 10
297.4932920208748
 20
537.8706358405415
 30
0.0
 10
297.1889847621642
 20
537.7191358443687
 30
0.0
 10
296.8618847704274
 20
537.6909358450811
 30
0.0
 10
296.4363847811764
 20
537.7204358443359
 30
0.0
 10
296.0600847906826
 20
537.9778358378334
 30
0.0
 10
295.8783847952727
 20
538.3636358280873
 30
0.0
 10
295.7422920208746
 20
538.6269358214358
 30
0.0
 10
295.673084800459
 20
538.9197358140391
 30
0.0
 10
295.6767848003656
 20
539.2161358065513
 30
0.0
 10
295.6767848003656
 20
539.2161358065513
 30
0.0
 10
295.6767848003656
 20
562.362047619048
 30
0.0
 10
295.6767848003656
 20
562.362047619048
 30
0.0
  0
INSERT
  5
F7
330
70
100
AcDbEntity
  8
Conector
100
AcDbBlockReference
  2
Block_6
 10
0.0
 20
0.0
 30
0.0
  0
LWPOLYLINE
  5
FC
330
70
100
AcDbEntity
  8
Conector
 62
   250
420
  2301728
370
     9
100
AcDbPolyline
 90
        1
 70
     0
 43
0.0
 10
291.1032920208745
 20
568.7023350616673
  0
LINE
  5
FD
330
70
100
AcDbEntity
  8
Conector
 62
   250
420
  2301728
370
     9
100
AcDbLine
 10
283.5594851064743
 20
566.0944351275484
 30
0.0
 11
284.1523850914964
 21
566.2994351223696
 31
0.0
  0
LINE
  5
FE
330
70
100
AcDbEntity
  8
Conector
 62
   250
420
  2301728
370
     9
100
AcDbLine
 10
278.5065852341213
 20
564.3476351716762
 30
0.0
 11
282.5453851320926
 21
565.7438351364053
 31
0.0
  0
LINE
  5
FF
330
70
100
AcDbEntity
  8
Conector
 62
   250
420
  2301728
370
     9
100
AcDbLine
 10
274.7747853283945
 20
563.057535204267
 30
0.0
 11
275.1804853181456
 21
563.1978352007227
 31
0.0
  0
LINE
  5
100
330
70
100
AcDbEntity
  8
Conector
  6
AI-Linetype-0
 62
   250
420
  2301728
370
    18
100
AcDbLine
 10
305.5755845503008
 20
557.7730476190481
 30
0.0
 11
305.5755845503008
 21
564.3476351716762
 31
0.0
  0
SPLINE
  5
102
330
70
100
AcDbEntity
  8
Conector
  6
AI-Linetype-1
 62
   250
420
  2301728
370
    18
100
AcDbSpline
210
0.0
220
0.0
230
1.0
 70
     8
 71
     3
 72
    20
 73
    16
 74
     0
 42
0.0000000001
 43
0.0000000001
 40
0.0
 40
0.0
 40
0.0
 40
0.0
 40
1.0
 40
1.0
 40
1.0
 40
2.0
 40
2.0
 40
2.0
 40
3.0
 40
3.0
 40
3.0
 40
4.0
 40
4.0
 40
4.0
 40
5.0
 40
5.0
 40
5.0
 40
5.0
 10
300.0655846894952
 20
562.5247352177266
 30
0.0
 10
300.0655846894952
 20
562.5247352177266
 30
0.0
 10
305.1083845621033
 20
564.2523351740837
 30
0.0
 10
305.1083845621033
 20
564.2523351740837
 30
0.0
 10
305.4108845544615
 20
564.3559351714666
 30
0.0
 10
305.7394845461604
 20
564.3537351715222
 30
0.0
 10
306.0404845385565
 20
564.2461351742404
 30
0.0
 10
306.0404845385565
 20
564.2461351742404
 30
0.0
 10
315.9680842877642
 20
560.6989352638501
 30
0.0
 10
315.9680842877642
 20
560.6989352638501
 30
0.0
 10
316.0803842849273
 20
560.6588352648632
 30
0.0
 10
316.1553842830326
 20
560.552435267551
 30
0.0
 10
316.1553842830326
 20
560.4331352705648
 30
0.0
 10
316.1553842830326
 20
560.4331352705648
 30
0.0
 10
316.1553842830326
 20
552.4901354712219
 30
0.0
 10
316.1553842830326
 20
552.4901354712219
 30
0.0
  0
LINE
  5
104
330
70
100
AcDbEntity
  8
Conector
  6
AI-Linetype-2
 62
   250
420
  2301728
370
     9
100
AcDbLine
 10
282.0902920208746
 20
580.0456347751114
 30
0.0
 11
282.0902920208746
 21
581.2922347436197
 31
0.0
  0
SPLINE
  5
106
330
70
100
AcDbEntity
  8
Conector
  6
AI-Linetype-3
 62
   250
420
  2301728
370
     9
100
AcDbSpline
210
0.0
220
0.0
230
1.0
 70
     8
 71
     3
 72
    17
 73
    13
 74
     0
 42
0.0000000001
 43
0.0000000001
 40
0.0
 40
0.0
 40
0.0
 40
0.0
 40
1.0
 40
1.0
 40
1.0
 40
2.0
 40
2.0
 40
2.0
 40
3.0
 40
3.0
 40
3.0
 40
4.0
 40
4.0
 40
4.0
 40
4.0
 10
268.8136854789846
 20
575.3176348945507
 30
0.0
 10
268.8136854789846
 20
575.3176348945507
 30
0.0
 10
282.0902920208746
 20
580.0456347751114
 30
0.0
 10
282.0902920208746
 20
580.0456347751114
 30
0.0
 10
282.0902920208746
 20
580.0456347751114
 30
0.0
 10
297.2428847608025
 20
572.8545349567739
 30
0.0
 10
297.2428847608025
 20
572.8545349567739
 30
0.0
 10
298.4735847297125
 20
572.2704349715295
 30
0.0
 10
299.2579847098968
 20
571.0299350028671
 30
0.0
 10
299.2579847098968
 20
569.6676350372817
 30
0.0
 10
299.2579847098968
 20
569.6676350372817
 30
0.0
 10
299.2579847098968
 20
561.4984352436531
 30
0.0
 10
299.2579847098968
 20
561.4984352436531
 30
0.0
  0
SPLINE
  5
108
330
70
100
AcDbEntity
  8
Conector
  6
AI-Linetype-4
 62
   250
420
  2301728
370
    18
100
AcDbSpline
210
0.0
220
0.0
230
1.0
 70
     8
 71
     3
 72
    17
 73
    13
 74
     0
 42
0.0000000001
 43
0.0000000001
 40
0.0
 40
0.0
 40
0.0
 40
0.0
 40
1.0
 40
1.0
 40
1.0
 40
2.0
 40
2.0
 40
2.0
 40
3.0
 40
3.0
 40
3.0
 40
4.0
 40
4.0
 40
4.0
 40
4.0
 10
267.3328855163927
 20
576.0317348765111
 30
0.0
 10
267.3328855163927
 20
576.0317348765111
 30
0.0
 10
282.0902920208746
 20
581.2922347436197
 30
0.0
 10
282.0902920208746
 20
581.2922347436197
 30
0.0
 10
282.0902920208746
 20
581.2922347436197
 30
0.0
 10
297.647384750584
 20
573.90923493013
 30
0.0
 10
297.647384750584
 20
573.90923493013
 30
0.0
 10
299.1242920208742
 20
573.2083349478362
 30
0.0
 10
300.0655846894952
 20
571.7196349854439
 30
0.0
 10
300.0655846894952
 20
570.0848350267424
 30
0.0
 10
300.0655846894952
 20
570.0848350267424
 30
0.0
 10
300.0655846894952
 20
561.1088352534952
 30
0.0
 10
300.0655846894952
 20
561.1088352534952
 30
0.0
  0
SPLINE
  5
10A
330
70
100
AcDbEntity
  8
Conector
  6
AI-Linetype-5
 62
   250
420
  2301728
370
     9
100
AcDbSpline
210
0.0
220
0.0
230
1.0
 70
     8
 71
     3
 72
    41
 73
    37
 74
     0
 42
0.0000000001
 43
0.0000000001
 40
0.0
 40
0.0
 40
0.0
 40
0.0
 40
1.0
 40
1.0
 40
1.0
 40
2.0
 40
2.0
 40
2.0
 40
3.0
 40
3.0
 40
3.0
 40
4.0
 40
4.0
 40
4.0
 40
5.0
 40
5.0
 40
5.0
 40
6.0
 40
6.0
 40
6.0
 40
7.0
 40
7.0
 40
7.0
 40
8.0
 40
8.0
 40
8.0
 40
9.0
 40
9.0
 40
9.0
 40
10.0
 40
10.0
 40
10.0
 40
11.0
 40
11.0
 40
11.0
 40
12.0
 40
12.0
 40
12.0
 40
12.0
 10
295.6767848003656
 20
563.2260476190476
 30
0.0
 10
295.6767848003656
 20
563.2260476190476
 30
0.0
 10
295.6767848003656
 20
569.628435038272
 30
0.0
 10
295.6767848003656
 20
569.628435038272
 30
0.0
 10
295.6736848004439
 20
569.7931350341113
 30
0.0
 10
295.6397848013003
 20
569.9557350300038
 30
0.0
 10
295.5766848028943
 20
570.1078350261614
 30
0.0
 10
295.5296848040816
 20
570.2360476190478
 30
0.0
 10
295.4525848060293
 20
570.3509350200201
 30
0.0
 10
295.3517848085758
 20
570.4430476190473
 30
0.0
 10
295.3517848085758
 20
570.4430476190473
 30
0.0
 10
292.9443848693918
 20
571.5987349884981
 30
0.0
 10
292.9443848693918
 20
571.5987349884981
 30
0.0
 10
292.752784874232
 20
571.6843349863356
 30
0.0
 10
292.5844848784836
 20
571.8147349830415
 30
0.0
 10
292.4537848817854
 20
571.9788349788959
 30
0.0
 10
292.3163848852564
 20
572.1546349744548
 30
0.0
 10
292.2338848873405
 20
572.3670476190473
 30
0.0
 10
292.2167848877725
 20
572.5895349634684
 30
0.0
 10
292.2094848879569
 20
572.7698349589136
 30
0.0
 10
292.3023848856101
 20
572.9395349546266
 30
0.0
 10
292.4582920208741
 20
573.0305349523278
 30
0.0
 10
292.911084870233
 20
573.2603349465225
 30
0.0
 10
293.4161848574731
 20
573.3675349438144
 30
0.0
 10
293.9232920208742
 20
573.3413349444763
 30
0.0
 10
294.0466848415454
 20
573.3386349445445
 30
0.0
 10
294.1697848384356
 20
573.3302349447567
 30
0.0
 10
294.2923848353384
 20
573.3161349451129
 30
0.0
 10
294.2923848353384
 20
573.3161349451129
 30
0.0
 10
298.0025847416109
 20
571.5271349903068
 30
0.0
 10
298.0025847416109
 20
571.5271349903068
 30
0.0
 10
298.254184735255
 20
571.156534999669
 30
0.0
 10
298.3906847318067
 20
570.719835010701
 30
0.0
 10
298.3948847317006
 20
570.2720476190479
 30
0.0
 10
298.3948847317006
 20
570.2720476190479
 30
0.0
 10
298.3948847317006
 20
561.9523352321866
 30
0.0
 10
298.3948847317006
 20
561.9523352321866
 30
0.0
  0
SPLINE
  5
10C
330
70
100
AcDbEntity
  8
Conector
  6
AI-Linetype-6
 62
   250
420
  2301728
370
     9
100
AcDbSpline
210
0.0
220
0.0
230
1.0
 70
     8
 71
     3
 72
    44
 73
    40
 74
     0
 42
0.0000000001
 43
0.0000000001
 40
0.0
 40
0.0
 40
0.0
 40
0.0
 40
1.0
 40
1.0
 40
1.0
 40
2.0
 40
2.0
 40
2.0
 40
3.0
 40
3.0
 40
3.0
 40
4.0
 40
4.0
 40
4.0
 40
5.0
 40
5.0
 40
5.0
 40
6.0
 40
6.0
 40
6.0
 40
7.0
 40
7.0
 40
7.0
 40
8.0
 40
8.0
 40
8.0
 40
9.0
 40
9.0
 40
9.0
 40
10.0
 40
10.0
 40
10.0
 40
11.0
 40
11.0
 40
11.0
 40
12.0
 40
12.0
 40
12.0
 40
13.0
 40
13.0
 40
13.0
 40
13.0
 10
288.0487849930651
 20
566.0190476190473
 30
0.0
 10
288.0487849930651
 20
566.0190476190473
 30
0.0
 10
288.044984993161
 20
566.4537351184717
 30
0.0
 10
288.044984993161
 20
566.4537351184717
 30
0.0
 10
288.0168849938709
 20
566.7245351116307
 30
0.0
 10
287.8770849974026
 20
566.971335105396
 30
0.0
 10
287.6593850029021
 20
567.1348351012657
 30
0.0
 10
287.6593850029021
 20
567.1348351012657
 30
0.0
 10
279.1739852172614
 20
571.1804349990652
 30
0.0
 10
279.1739852172614
 20
571.1804349990652
 30
0.0
 10
279.0282920208747
 20
571.2480476190476
 30
0.0
 10
278.8942920208747
 20
571.3385349950713
 30
0.0
 10
278.7770852272879
 20
571.4485349922925
 30
0.0
 10
278.603185231681
 20
571.6259349878109
 30
0.0
 10
278.4890852345634
 20
571.8533349820663
 30
0.0
 10
278.4507852355309
 20
572.098734975867
 30
0.0
 10
278.3946852369481
 20
572.2898349710394
 30
0.0
 10
278.4769852348691
 20
572.4944349658708
 30
0.0
 10
278.6497852305038
 20
572.5935349633673
 30
0.0
 10
279.0363852207374
 20
572.8209349576227
 30
0.0
 10
279.4792920208747
 20
572.9348349547453
 30
0.0
 10
279.9275851982238
 20
572.9220476190476
 30
0.0
 10
280.1811851918174
 20
572.934134954763
 30
0.0
 10
280.4344851854184
 20
572.91723495519
 30
0.0
 10
280.6827851791459
 20
572.8720476190473
 30
0.0
 10
280.6827851791459
 20
572.8720476190473
 30
0.0
 10
282.1332920208742
 20
572.3690476190476
 30
0.0
 10
282.1332920208742
 20
572.3690476190476
 30
0.0
 10
282.1332920208742
 20
572.3690476190476
 30
0.0
 10
285.1047850674368
 20
570.8951350062725
 30
0.0
 10
285.1047850674368
 20
570.8951350062725
 30
0.0
 10
285.1047850674368
 20
570.8951350062725
 30
0.0
 10
289.9460849451352
 20
568.57753506482
 30
0.0
 10
289.9460849451352
 20
568.57753506482
 30
0.0
 10
290.4759849317488
 20
568.2024350742958
 30
0.0
 10
290.7838849239706
 20
567.5877350898245
 30
0.0
 10
290.7669849243975
 20
566.9387351062196
 30
0.0
 10
290.7669849243975
 20
566.9387351062196
 30
0.0
 10
290.7669849243975
 20
564.7083351625642
 30
0.0
 10
290.7669849243975
 20
564.7083351625642
 30
0.0
  0
SPLINE
  5
10E
330
70
100
AcDbEntity
  8
Conector
  6
AI-Linetype-7
 62
   250
420
  2301728
370
     9
100
AcDbSpline
210
0.0
220
0.0
230
1.0
 70
     8
 71
     3
 72
    14
 73
    10
 74
     0
 42
0.0000000001
 43
0.0000000001
 40
0.0
 40
0.0
 40
0.0
 40
0.0
 40
1.0
 40
1.0
 40
1.0
 40
2.0
 40
2.0
 40
2.0
 40
3.0
 40
3.0
 40
3.0
 40
3.0
 10
293.9128848449254
 20
564.9772351557713
 30
0.0
 10
293.8026848477093
 20
565.0980476190479
 30
0.0
 10
293.6457848516729
 20
565.1654351510169
 30
0.0
 10
293.4822920208744
 20
565.1621351511002
 30
0.0
 10
293.2598848614216
 20
565.1428351515878
 30
0.0
 10
293.0532920208743
 20
565.0394351541999
 30
0.0
 10
292.9044848703997
 20
564.8730476190475
 30
0.0
 10
292.657384876642
 20
564.6108351650273
 30
0.0
 10
292.4979848806688
 20
564.2782351734295
 30
0.0
 10
292.4482920208748
 20
563.9214351824429
 30
0.0
  0
SPLINE
  5
110
330
70
100
AcDbEntity
  8
Conector
  6
AI-Linetype-8
 62
   250
420
  2301728
370
    13
100
AcDbSpline
210
0.0
220
0.0
230
1.0
 70
     8
 71
     3
 72
    23
 73
    19
 74
     0
 42
0.0000000001
 43
0.0000000001
 40
0.0
 40
0.0
 40
0.0
 40
0.0
 40
1.0
 40
1.0
 40
1.0
 40
2.0
 40
2.0
 40
2.0
 40
3.0
 40
3.0
 40
3.0
 40
4.0
 40
4.0
 40
4.0
 40
5.0
 40
5.0
 40
5.0
 40
6.0
 40
6.0
 40
6.0
 40
6.0
 10
294.141384839153
 20
563.1050476190475
 30
0.0
 10
294.141384839153
 20
563.1050476190475
 30
0.0
 10
294.1414848391505
 20
564.2806351733688
 30
0.0
 10
294.1414848391505
 20
564.2806351733688
 30
0.0
 10
294.1492920208748
 20
564.5291351670912
 30
0.0
 10
294.070884840934
 20
564.7726351609398
 30
0.0
 10
293.9195848447562
 20
564.9698351559582
 30
0.0
 10
293.9173848448117
 20
564.972335155895
 30
0.0
 10
293.9151848448673
 20
564.9747351558344
 30
0.0
 10
293.9128848449254
 20
564.9772351557713
 30
0.0
 10
293.9045848451351
 20
564.9774351557661
 30
0.0
 10
293.8961848453473
 20
564.9774351557661
 30
0.0
 10
293.887884845557
 20
564.9772351557713
 30
0.0
 10
293.6654848511753
 20
564.9579351562588
 30
0.0
 10
293.4588848563944
 20
564.8545351588709
 30
0.0
 10
293.3100848601534
 20
564.6881351630745
 30
0.0
 10
293.065784866325
 20
564.4209351698245
 30
0.0
 10
292.9018848704654
 20
564.0901351781812
 30
0.0
 10
292.8372920208749
 20
563.7338351871822
 30
0.0
  0
INSERT
  5
113
330
70
100
AcDbEntity
  8
Conector
100
AcDbBlockReference
  2
Block_7
 10
0.0
 20
0.0
 30
0.0
  0
INSERT
  5
11C
330
70
100
AcDbEntity
  8
Conector
100
AcDbBlockReference
  2
Block_8
 10
0.0
 20
0.0
 30
0.0
  0
INSERT
  5
128
330
70
100
AcDbEntity
  8
Conector
100
AcDbBlockReference
  2
Block_9
 10
0.0
 20
0.0
 30
0.0
  0
SPLINE
  5
12E
330
70
100
AcDbEntity
  8
Fasteners
 62
   250
420
  2301728
370
    13
100
AcDbSpline
210
0.0
220
0.0
230
1.0
 70
     9
 71
     3
 72
    38
 73
    34
 74
     0
 42
0.0000000001
 43
0.0000000001
 40
0.0
 40
0.0
 40
0.0
 40
0.0
 40
1.0
 40
1.0
 40
1.0
 40
2.0
 40
2.0
 40
2.0
 40
3.0
 40
3.0
 40
3.0
 40
4.0
 40
4.0
 40
4.0
 40
5.0
 40
5.0
 40
5.0
 40
6.0
 40
6.0
 40
6.0
 40
7.0
 40
7.0
 40
7.0
 40
8.0
 40
8.0
 40
8.0
 40
9.0
 40
9.0
 40
9.0
 40
10.0
 40
10.0
 40
10.0
 40
11.0
 40
11.0
 40
11.0
 40
11.0
 10
279.095185219252
 20
544.4776356736347
 30
0.0
 10
278.725185228599
 20
544.7198356675162
 30
0.0
 10
278.467685235104
 20
545.1002356579065
 30
0.0
 10
278.3805852373043
 20
545.5338356469528
 30
0.0
 10
278.2440852407526
 20
546.1576356311943
 30
0.0
 10
278.2916852395501
 20
546.8075356147765
 30
0.0
 10
278.5175852338434
 20
547.4048355996874
 30
0.0
 10
278.6918852294402
 20
547.9056355870361
 30
0.0
 10
278.9855852220207
 20
548.3565355756454
 30
0.0
 10
279.3733852122241
 20
548.7182355665082
 30
0.0
 10
279.749685202718
 20
549.1028355567923
 30
0.0
 10
280.2943851889576
 20
549.2721355525154
 30
0.0
 10
280.8223851756192
 20
549.16863555513
 30
0.0
 10
280.8223851756192
 20
549.16863555513
 30
0.0
 10
281.7403851524286
 20
548.915135561534
 30
0.0
 10
281.7403851524286
 20
548.915135561534
 30
0.0
 10
282.0248851452415
 20
548.8365355635196
 30
0.0
 10
282.2719851389993
 20
548.6592355679986
 30
0.0
 10
282.4374851348184
 20
548.4149355741701
 30
0.0
 10
282.7612920208748
 20
547.9370476190479
 30
0.0
 10
282.9049851230084
 20
547.3597356008268
 30
0.0
 10
282.8427851245797
 20
546.7858356153247
 30
0.0
 10
282.7768851262444
 20
546.1770476190476
 30
0.0
 10
282.591685130923
 20
545.5873356456013
 30
0.0
 10
282.2975851383526
 20
545.0503356591671
 30
0.0
 10
282.0296851451203
 20
544.5610476190477
 30
0.0
 10
281.6070851557961
 20
544.1744356812941
 30
0.0
 10
281.0959851687075
 20
543.9509356869402
 30
0.0
 10
280.7481851774937
 20
543.844047619048
 30
0.0
 10
280.3765851868811
 20
543.8421356896887
 30
0.0
 10
280.0276851956951
 20
543.9454356870792
 30
0.0
 10
280.0276851956951
 20
543.9454356870792
 30
0.0
 10
279.095185219252
 20
544.4776356736347
 30
0.0
 10
279.095185219252
 20
544.4776356736347
 30
0.0
  0
HATCH
  5
12F
330
70
100
AcDbEntity
  8
Fasteners
 62
   254
420
 13358815
440
 33554687
100
AcDbHatch
 10
0.0
 20
0.0
 30
0.0
210
0.0
220
0.0
230
1.0
  2
SOLID
 70
     1
 71
     1
 91
        1
 92
        1
 93
        1
 72
     4
 94
        3
 73
     0
 74
     0
 95
       38
 96
       34
 40
0.0
 40
0.0
 40
0.0
 40
0.0
 40
1.0
 40
1.0
 40
1.0
 40
2.0
 40
2.0
 40
2.0
 40
3.0
 40
3.0
 40
3.0
 40
4.0
 40
4.0
 40
4.0
 40
5.0
 40
5.0
 40
5.0
 40
6.0
 40
6.0
 40
6.0
 40
7.0
 40
7.0
 40
7.0
 40
8.0
 40
8.0
 40
8.0
 40
9.0
 40
9.0
 40
9.0
 40
10.0
 40
10.0
 40
10.0
 40
11.0
 40
11.0
 40
11.0
 40
11.0
 10
279.095185219252
 20
544.4776356736347
 10
278.725185228599
 20
544.7198356675162
 10
278.467685235104
 20
545.1002356579065
 10
278.3805852373043
 20
545.5338356469528
 10
278.2440852407526
 20
546.1576356311943
 10
278.2916852395501
 20
546.8075356147765
 10
278.5175852338434
 20
547.4048355996874
 10
278.6918852294402
 20
547.9056355870361
 10
278.9855852220207
 20
548.3565355756454
 10
279.3733852122241
 20
548.7182355665082
 10
279.749685202718
 20
549.1028355567923
 10
280.2943851889576
 20
549.2721355525154
 10
280.8223851756192
 20
549.16863555513
 10
280.8223851756192
 20
549.16863555513
 10
281.7403851524286
 20
548.915135561534
 10
281.7403851524286
 20
548.915135561534
 10
282.0248851452415
 20
548.8365355635196
 10
282.2719851389993
 20
548.6592355679986
 10
282.4374851348184
 20
548.4149355741701
 10
282.7612920208748
 20
547.9370476190479
 10
282.9049851230084
 20
547.3597356008268
 10
282.8427851245797
 20
546.7858356153247
 10
282.7768851262444
 20
546.1770476190476
 10
282.591685130923
 20
545.5873356456013
 10
282.2975851383526
 20
545.0503356591671
 10
282.0296851451203
 20
544.5610476190477
 10
281.6070851557961
 20
544.1744356812941
 10
281.0959851687075
 20
543.9509356869402
 10
280.7481851774937
 20
543.844047619048
 10
280.3765851868811
 20
543.8421356896887
 10
280.0276851956951
 20
543.9454356870792
 10
280.0276851956951
 20
543.9454356870792
 10
279.095185219252
 20
544.4776356736347
 10
279.095185219252
 20
544.4776356736347
 97
        0
 97
        1
330
12E
 75
     2
 76
     1
 98
        1
 10
0.0
 20
0.0
450
        0
451
        0
460
0.0
461
0.0
452
        0
462
0.0
453
        0
470

  0
SPLINE
  5
130
330
70
100
AcDbEntity
  8
Fasteners
 62
   250
420
  2301728
370
    13
100
AcDbSpline
210
0.0
220
0.0
230
1.0
 70
     9
 71
     3
 72
    38
 73
    34
 74
     0
 42
0.0000000001
 43
0.0000000001
 40
0.0
 40
0.0
 40
0.0
 40
0.0
 40
1.0
 40
1.0
 40
1.0
 40
2.0
 40
2.0
 40
2.0
 40
3.0
 40
3.0
 40
3.0
 40
4.0
 40
4.0
 40
4.0
 40
5.0
 40
5.0
 40
5.0
 40
6.0
 40
6.0
 40
6.0
 40
7.0
 40
7.0
 40
7.0
 40
8.0
 40
8.0
 40
8.0
 40
9.0
 40
9.0
 40
9.0
 40
10.0
 40
10.0
 40
10.0
 40
11.0
 40
11.0
 40
11.0
 40
11.0
 10
291.6922920208744
 20
548.6030476190481
 30
0.0
 10
291.322184910372
 20
548.8452355632999
 30
0.0
 10
291.064684916877
 20
549.2257355536876
 30
0.0
 10
290.9775849190774
 20
549.6592355427365
 30
0.0
 10
290.8411849225231
 20
550.2830476190474
 30
0.0
 10
290.8887849213206
 20
550.933047619048
 30
0.0
 10
291.1146849156139
 20
551.5302354954711
 30
0.0
 10
291.2888849112132
 20
552.031047619048
 30
0.0
 10
291.5825849037938
 20
552.481935471429
 30
0.0
 10
291.9703848939971
 20
552.8436354622917
 30
0.0
 10
292.346684884491
 20
553.228235452576
 30
0.0
 10
292.8913848707307
 20
553.3975354482991
 30
0.0
 10
293.4194848573898
 20
553.2940476190479
 30
0.0
 10
293.4194848573898
 20
553.2940476190479
 30
0.0
 10
294.3374848341991
 20
553.0405354573177
 30
0.0
 10
294.3374848341991
 20
553.0405354573177
 30
0.0
 10
294.6218848270146
 20
552.9619354593032
 30
0.0
 10
294.8689848207723
 20
552.7846354637822
 30
0.0
 10
295.0345848165889
 20
552.5403354699538
 30
0.0
 10
295.358384808409
 20
552.0624354820265
 30
0.0
 10
295.5019848047814
 20
551.4851354966103
 30
0.0
 10
295.4398848063501
 20
550.9112355111083
 30
0.0
 10
295.3739848080149
 20
550.3025355264854
 30
0.0
 10
295.188684812696
 20
549.712735541385
 30
0.0
 10
294.8945848201256
 20
549.1757355549507
 30
0.0
 10
294.6266848268933
 20
548.6864355673114
 30
0.0
 10
294.2040848375691
 20
548.2998355770778
 30
0.0
 10
293.6929848504806
 20
548.0763355827239
 30
0.0
 10
293.3451848592667
 20
547.9695355854219
 30
0.0
 10
292.9736848686516
 20
547.9675355854724
 30
0.0
 10
292.6247848774656
 20
548.0708355828628
 30
0.0
 10
292.6247848774656
 20
548.0708355828628
 30
0.0
 10
291.6922920208744
 20
548.6030476190481
 30
0.0
 10
291.6922920208744
 20
548.6030476190481
 30
0.0
  0
HATCH
  5
131
330
70
100
AcDbEntity
  8
Fasteners
 62
   254
420
 13358815
440
 33554687
100
AcDbHatch
 10
0.0
 20
0.0
 30
0.0
210
0.0
220
0.0
230
1.0
  2
SOLID
 70
     1
 71
     1
 91
        1
 92
        1
 93
        1
 72
     4
 94
        3
 73
     0
 74
     0
 95
       38
 96
       34
 40
0.0
 40
0.0
 40
0.0
 40
0.0
 40
1.0
 40
1.0
 40
1.0
 40
2.0
 40
2.0
 40
2.0
 40
3.0
 40
3.0
 40
3.0
 40
4.0
 40
4.0
 40
4.0
 40
5.0
 40
5.0
 40
5.0
 40
6.0
 40
6.0
 40
6.0
 40
7.0
 40
7.0
 40
7.0
 40
8.0
 40
8.0
 40
8.0
 40
9.0
 40
9.0
 40
9.0
 40
10.0
 40
10.0
 40
10.0
 40
11.0
 40
11.0
 40
11.0
 40
11.0
 10
291.6922920208744
 20
548.6030476190481
 10
291.322184910372
 20
548.8452355632999
 10
291.064684916877
 20
549.2257355536876
 10
290.9775849190774
 20
549.6592355427365
 10
290.8411849225231
 20
550.2830476190474
 10
290.8887849213206
 20
550.933047619048
 10
291.1146849156139
 20
551.5302354954711
 10
291.2888849112132
 20
552.031047619048
 10
291.5825849037938
 20
552.481935471429
 10
291.9703848939971
 20
552.8436354622917
 10
292.346684884491
 20
553.228235452576
 10
292.8913848707307
 20
553.3975354482991
 10
293.4194848573898
 20
553.2940476190479
 10
293.4194848573898
 20
553.2940476190479
 10
294.3374848341991
 20
553.0405354573177
 10
294.3374848341991
 20
553.0405354573177
 10
294.6218848270146
 20
552.9619354593032
 10
294.8689848207723
 20
552.7846354637822
 10
295.0345848165889
 20
552.5403354699538
 10
295.358384808409
 20
552.0624354820265
 10
295.5019848047814
 20
551.4851354966103
 10
295.4398848063501
 20
550.9112355111083
 10
295.3739848080149
 20
550.3025355264854
 10
295.188684812696
 20
549.712735541385
 10
294.8945848201256
 20
549.1757355549507
 10
294.6266848268933
 20
548.6864355673114
 10
294.2040848375691
 20
548.2998355770778
 10
293.6929848504806
 20
548.0763355827239
 10
293.3451848592667
 20
547.9695355854219
 10
292.9736848686516
 20
547.9675355854724
 10
292.6247848774656
 20
548.0708355828628
 10
292.6247848774656
 20
548.0708355828628
 10
291.6922920208744
 20
548.6030476190481
 10
291.6922920208744
 20
548.6030476190481
 97
        0
 97
        1
330
130
 75
     2
 76
     1
 98
        1
 10
0.0
 20
0.0
450
        0
451
        0
460
0.0
461
0.0
452
        0
462
0.0
453
        0
470

  0
SPLINE
  5
132
330
70
100
AcDbEntity
  8
Fasteners
 62
   250
420
  2301728
370
     9
100
AcDbSpline
210
0.0
220
0.0
230
1.0
 70
     8
 71
     3
 72
    17
 73
    13
 74
     0
 42
0.0000000001
 43
0.0000000001
 40
0.0
 40
0.0
 40
0.0
 40
0.0
 40
1.0
 40
1.0
 40
1.0
 40
2.0
 40
2.0
 40
2.0
 40
3.0
 40
3.0
 40
3.0
 40
4.0
 40
4.0
 40
4.0
 40
4.0
 10
280.8223851756192
 20
549.16863555513
 30
0.0
 10
281.1454851674571
 20
549.0765355574567
 30
0.0
 10
281.4181851605681
 20
548.8587355629588
 30
0.0
 10
281.5793851564958
 20
548.5640476190474
 30
0.0
 10
281.8624851493441
 20
548.0385355836788
 30
0.0
 10
281.9589851469063
 20
547.4326355989851
 30
0.0
 10
281.8530851495816
 20
546.8452356138241
 30
0.0
 10
281.7473851522518
 20
546.0688356334376
 30
0.0
 10
281.3811851615028
 20
545.3512356515657
 30
0.0
 10
280.8143851758213
 20
544.8100476190474
 30
0.0
 10
280.3741851869418
 20
544.3379356771638
 30
0.0
 10
279.6796852044863
 20
544.203735680554
 30
0.0
 10
279.095185219252
 20
544.4776356736347
 30
0.0
  0
SPLINE
  5
133
330
70
100
AcDbEntity
  8
Fasteners
 62
   250
420
  2301728
370
     9
100
AcDbSpline
210
0.0
220
0.0
230
1.0
 70
     9
 71
     3
 72
    62
 73
    58
 74
     0
 42
0.0000000001
 43
0.0000000001
 40
0.0
 40
0.0
 40
0.0
 40
0.0
 40
1.0
 40
1.0
 40
1.0
 40
2.0
 40
2.0
 40
2.0
 40
3.0
 40
3.0
 40
3.0
 40
4.0
 40
4.0
 40
4.0
 40
5.0
 40
5.0
 40
5.0
 40
6.0
 40
6.0
 40
6.0
 40
7.0
 40
7.0
 40
7.0
 40
8.0
 40
8.0
 40
8.0
 40
9.0
 40
9.0
 40
9.0
 40
10.0
 40
10.0
 40
10.0
 40
11.0
 40
11.0
 40
11.0
 40
12.0
 40
12.0
 40
12.0
 40
13.0
 40
13.0
 40
13.0
 40
14.0
 40
14.0
 40
14.0
 40
15.0
 40
15.0
 40
15.0
 40
16.0
 40
16.0
 40
16.0
 40
17.0
 40
17.0
 40
17.0
 40
18.0
 40
18.0
 40
18.0
 40
19.0
 40
19.0
 40
19.0
 40
19.0
 10
279.7022920208747
 20
548.3061355769186
 30
0.0
 10
279.8364852005252
 20
548.3848355749305
 30
0.0
 10
279.9868851967258
 20
548.4318355737432
 30
0.0
 10
280.1419851928076
 20
548.4437355734426
 30
0.0
 10
280.1419851928076
 20
548.4437355734426
 30
0.0
 10
280.0634851947907
 20
547.9484355859549
 30
0.0
 10
280.0634851947907
 20
547.9484355859549
 30
0.0
 10
280.0634851947907
 20
547.9484355859549
 30
0.0
 10
280.0158851959931
 20
547.3939355999627
 30
0.0
 10
280.0158851959931
 20
547.3939355999627
 30
0.0
 10
280.0203851958795
 20
547.3195356018423
 30
0.0
 10
280.0843851942627
 20
547.2629356032721
 30
0.0
 10
280.1587851923832
 20
547.2674356031584
 30
0.0
 10
280.1638851922544
 20
547.2677356031509
 30
0.0
 10
280.169085192123
 20
547.2683356031357
 30
0.0
 10
280.1741851919942
 20
547.2693356031104
 30
0.0
 10
280.472385184461
 20
547.3598356008242
 30
0.0
 10
280.7757851767965
 20
547.4319355990028
 30
0.0
 10
281.0826851690436
 20
547.4853355976538
 30
0.0
 10
281.109385168369
 20
547.2936356024965
 30
0.0
 10
281.1090851683766
 20
547.0992356074075
 30
0.0
 10
281.0818851690637
 20
546.9075356122503
 30
0.0
 10
280.7744851768293
 20
546.855135613574
 30
0.0
 10
280.4686851845545
 20
546.7933356151352
 30
0.0
 10
280.1650851922241
 20
546.7222356169314
 30
0.0
 10
280.0602920208748
 20
546.6810476190476
 30
0.0
 10
279.9987851964252
 20
546.5721356207231
 30
0.0
 10
280.0174851959527
 20
546.4612356235248
 30
0.0
 10
280.0439851952833
 20
546.0953356327681
 30
0.0
 10
280.0855851942324
 20
545.7306356419812
 30
0.0
 10
280.1419851928076
 20
545.3681356511387
 30
0.0
 10
280.0081851961877
 20
545.2887356531446
 30
0.0
 10
279.8568852000098
 20
545.2437356542814
 30
0.0
 10
279.7014852039356
 20
545.2372356544456
 30
0.0
 10
279.6492920208748
 20
545.6023356452224
 30
0.0
 10
279.6175852060551
 20
545.9701356359309
 30
0.0
 10
279.606385206338
 20
546.3388356266168
 30
0.0
 10
279.6083852062875
 20
546.4230476190477
 30
0.0
 10
279.54178520797
 20
546.4929356227239
 30
0.0
 10
279.457585210097
 20
546.4949356226734
 30
0.0
 10
279.4514852102511
 20
546.4950476190479
 30
0.0
 10
279.4453852104052
 20
546.4948356226759
 30
0.0
 10
279.4393852105568
 20
546.4942356226911
 30
0.0
 10
279.2100852163494
 20
546.4031356249924
 30
0.0
 10
278.9856852220182
 20
546.300235627592
 30
0.0
 10
278.766985227543
 20
546.1860476190476
 30
0.0
 10
278.7364852283135
 20
546.3784356256164
 30
0.0
 10
278.7353852283413
 20
546.574435620665
 30
0.0
 10
278.7637852276239
 20
546.767135615797
 30
0.0
 10
278.9867852219904
 20
546.8756356130561
 30
0.0
 10
279.2172920208741
 20
546.9682356107169
 30
0.0
 10
279.4533852102031
 20
547.044235608797
 30
0.0
 10
279.5393852080306
 20
547.0864356077308
 30
0.0
 10
279.597085206573
 20
547.1705356056063
 30
0.0
 10
279.6053852063633
 20
547.2660476190476
 30
0.0
 10
279.6140852061435
 20
547.6145355943899
 30
0.0
 10
279.646485205325
 20
547.9620476190475
 30
0.0
 10
279.7022920208747
 20
548.3061355769186
 30
0.0
  0
SPLINE
  5
134
330
70
100
AcDbEntity
  8
Fasteners
 62
   250
420
  2301728
370
     9
100
AcDbSpline
210
0.0
220
0.0
230
1.0
 70
     8
 71
     3
 72
    17
 73
    13
 74
     0
 42
0.0000000001
 43
0.0000000001
 40
0.0
 40
0.0
 40
0.0
 40
0.0
 40
1.0
 40
1.0
 40
1.0
 40
2.0
 40
2.0
 40
2.0
 40
3.0
 40
3.0
 40
3.0
 40
4.0
 40
4.0
 40
4.0
 40
4.0
 10
293.4194848573898
 20
553.2940476190479
 30
0.0
 10
293.7425848492276
 20
553.2020476190473
 30
0.0
 10
294.0151848423411
 20
552.9842354587399
 30
0.0
 10
294.1763848382688
 20
552.6894354661871
 30
0.0
 10
294.4594848311171
 20
552.1640476190477
 30
0.0
 10
294.5559848286793
 20
551.5580476190479
 30
0.0
 10
294.4501848313521
 20
550.9707355096052
 30
0.0
 10
294.3443848340248
 20
550.1942355292213
 30
0.0
 10
293.9781848432758
 20
549.4766355473493
 30
0.0
 10
293.4114848575918
 20
548.9354355610212
 30
0.0
 10
292.9711848687148
 20
548.4633355729474
 30
0.0
 10
292.2766848862593
 20
548.3291355763376
 30
0.0
 10
291.6922920208744
 20
548.6030476190481
 30
0.0
  0
SPLINE
  5
135
330
70
100
AcDbEntity
  8
Fasteners
 62
   250
420
  2301728
370
     9
100
AcDbSpline
210
0.0
220
0.0
230
1.0
 70
     9
 71
     3
 72
    62
 73
    58
 74
     0
 42
0.0000000001
 43
0.0000000001
 40
0.0
 40
0.0
 40
0.0
 40
0.0
 40
1.0
 40
1.0
 40
1.0
 40
2.0
 40
2.0
 40
2.0
 40
3.0
 40
3.0
 40
3.0
 40
4.0
 40
4.0
 40
4.0
 40
5.0
 40
5.0
 40
5.0
 40
6.0
 40
6.0
 40
6.0
 40
7.0
 40
7.0
 40
7.0
 40
8.0
 40
8.0
 40
8.0
 40
9.0
 40
9.0
 40
9.0
 40
10.0
 40
10.0
 40
10.0
 40
11.0
 40
11.0
 40
11.0
 40
12.0
 40
12.0
 40
12.0
 40
13.0
 40
13.0
 40
13.0
 40
14.0
 40
14.0
 40
14.0
 40
15.0
 40
15.0
 40
15.0
 40
16.0
 40
16.0
 40
16.0
 40
17.0
 40
17.0
 40
17.0
 40
18.0
 40
18.0
 40
18.0
 40
19.0
 40
19.0
 40
19.0
 40
19.0
 10
292.2992920208744
 20
552.4316354726997
 30
0.0
 10
292.4335848822957
 20
552.5102354707142
 30
0.0
 10
292.5838848784988
 20
552.5573354695243
 30
0.0
 10
292.7389848745806
 20
552.5692354692237
 30
0.0
 10
292.7389848745806
 20
552.5692354692237
 30
0.0
 10
292.6605848765612
 20
552.0738354817385
 30
0.0
 10
292.6605848765612
 20
552.0738354817385
 30
0.0
 10
292.6605848765612
 20
552.0738354817385
 30
0.0
 10
292.6128848777662
 20
551.5193354957464
 30
0.0
 10
292.6128848777662
 20
551.5193354957464
 30
0.0
 10
292.61748487765
 20
551.4449354976258
 30
0.0
 10
292.6813848760357
 20
551.3883354990557
 30
0.0
 10
292.7557848741562
 20
551.392835498942
 30
0.0
 10
292.7609848740249
 20
551.393235498932
 30
0.0
 10
292.766084873896
 20
551.3938354989168
 30
0.0
 10
292.7711848737672
 20
551.3947354988941
 30
0.0
 10
293.069384866234
 20
551.4852354966079
 30
0.0
 10
293.3727848585695
 20
551.5573354947864
 30
0.0
 10
293.679784850814
 20
551.6108354934349
 30
0.0
 10
293.706384850142
 20
551.4191354982776
 30
0.0
 10
293.7061848501471
 20
551.2246355031911
 30
0.0
 10
293.6788848508367
 20
551.0330476190474
 30
0.0
 10
293.3714848586023
 20
550.9806355093551
 30
0.0
 10
293.0656848663275
 20
550.9188355109163
 30
0.0
 10
292.7620848739971
 20
550.8477355127125
 30
0.0
 10
292.657384876642
 20
550.8065355137532
 30
0.0
 10
292.5957848781982
 20
550.6976355165043
 30
0.0
 10
292.6144848777258
 20
550.5866355193083
 30
0.0
 10
292.6410848770538
 20
550.2207355285518
 30
0.0
 10
292.6825848760054
 20
549.8560476190477
 30
0.0
 10
292.7389848745806
 20
549.4935355469224
 30
0.0
 10
292.6052920208749
 20
549.4141355489282
 30
0.0
 10
292.4538848817828
 20
549.369135550065
 30
0.0
 10
292.2984848857086
 20
549.3626355502292
 30
0.0
 10
292.2463848870247
 20
549.727735541006
 30
0.0
 10
292.2145848878281
 20
550.0955355317146
 30
0.0
 10
292.2034848881085
 20
550.4642355224005
 30
0.0
 10
292.205484888058
 20
550.5484355202733
 30
0.0
 10
292.138784889743
 20
550.6183355185076
 30
0.0
 10
292.05458489187
 20
550.620335518457
 30
0.0
 10
292.0484848920241
 20
550.6204355184545
 30
0.0
 10
292.0424848921757
 20
550.6202355184596
 30
0.0
 10
292.0363848923298
 20
550.6196355184747
 30
0.0
 10
291.8071848981199
 20
550.5285355207761
 30
0.0
 10
291.5826849037912
 20
550.4256355233756
 30
0.0
 10
291.3640849093135
 20
550.3114355262605
 30
0.0
 10
291.333584910084
 20
550.5038355214001
 30
0.0
 10
291.3324849101118
 20
550.6998355164487
 30
0.0
 10
291.3607849093969
 20
550.8926355115781
 30
0.0
 10
291.5838849037609
 20
551.0010476190473
 30
0.0
 10
291.8142920208747
 20
551.0936355065005
 30
0.0
 10
292.0503848919761
 20
551.1696355045805
 30
0.0
 10
292.1363848898036
 20
551.2118355035145
 30
0.0
 10
292.194084888346
 20
551.2959355013899
 30
0.0
 10
292.2024848881338
 20
551.3914354989774
 30
0.0
 10
292.211184887914
 20
551.7399354901735
 30
0.0
 10
292.243484887098
 20
552.0874354813949
 30
0.0
 10
292.2992920208744
 20
552.4316354726997
 30
0.0
  0
SPLINE
  5
136
330
70
100
AcDbEntity
  8
Fasteners
 62
   250
420
  2301728
370
     9
100
AcDbSpline
210
0.0
220
0.0
230
1.0
 70
     8
 71
     3
 72
    17
 73
    13
 74
     0
 42
0.0000000001
 43
0.0000000001
 40
0.0
 40
0.0
 40
0.0
 40
0.0
 40
1.0
 40
1.0
 40
1.0
 40
2.0
 40
2.0
 40
2.0
 40
3.0
 40
3.0
 40
3.0
 40
4.0
 40
4.0
 40
4.0
 40
4.0
 10
279.5154852086343
 20
570.1462350251913
 30
0.0
 10
279.52238520846
 20
569.4060476190479
 30
0.0
 10
278.0891852446657
 20
568.7952350593205
 30
0.0
 10
276.3146852894934
 20
568.7830476190474
 30
0.0
 10
274.5383853343664
 20
568.7707350599394
 30
0.0
 10
273.0946853708374
 20
569.3622350449969
 30
0.0
 10
273.0876853710142
 20
570.1025350262953
 30
0.0
 10
273.0806853711911
 20
570.8427350075963
 30
0.0
 10
274.5121853350283
 20
571.4517349922116
 30
0.0
 10
276.2883852901577
 20
571.464047619048
 30
0.0
 10
276.4733852854842
 20
571.4654349918655
 30
0.0
 10
276.6547852809017
 20
571.4603349919944
 30
0.0
 10
276.8313852764404
 20
571.4491349922773
 30
0.0
  0
SPLINE
  5
137
330
70
100
AcDbEntity
  8
Fasteners
 62
   250
420
  2301728
370
     9
100
AcDbSpline
210
0.0
220
0.0
230
1.0
 70
     9
 71
     3
 72
    23
 73
    19
 74
     0
 42
0.0000000001
 43
0.0000000001
 40
0.0
 40
0.0
 40
0.0
 40
0.0
 40
1.0
 40
1.0
 40
1.0
 40
2.0
 40
2.0
 40
2.0
 40
3.0
 40
3.0
 40
3.0
 40
4.0
 40
4.0
 40
4.0
 40
5.0
 40
5.0
 40
5.0
 40
6.0
 40
6.0
 40
6.0
 40
6.0
 10
279.492185209223
 20
569.9772350294606
 30
0.0
 10
279.4937852091825
 20
569.7009350364405
 30
0.0
 10
279.1744852172487
 20
569.447535042842
 30
0.0
 10
278.6507852304785
 20
569.2564350476695
 30
0.0
 10
278.0733852450648
 20
569.0458350529898
 30
0.0
 10
277.2476852659238
 20
568.9108350564001
 30
0.0
 10
276.3298852891094
 20
568.9044350565618
 30
0.0
 10
275.4275853119034
 20
568.8981350567209
 30
0.0
 10
274.6121853325021
 20
569.0174350537072
 30
0.0
 10
274.0335853471188
 20
569.2141350487381
 30
0.0
 10
273.4899853608513
 20
569.3989350440697
 30
0.0
 10
273.1552920208742
 20
569.652047619048
 30
0.0
 10
273.1536853693469
 20
569.9334350305671
 30
0.0
 10
273.1483853694808
 20
570.5144350158898
 30
0.0
 10
274.5640853337172
 20
570.9939350037766
 30
0.0
 10
276.315885289463
 20
571.0062350034659
 30
0.0
 10
278.0658852452543
 20
571.0184350031576
 30
0.0
 10
279.4886852093114
 20
570.5582350147833
 30
0.0
 10
279.492185209223
 20
569.9772350294606
 30
0.0
  0
LWPOLYLINE
  5
138
330
70
100
AcDbEntity
  8
Fasteners
 62
   250
420
  2301728
370
     9
100
AcDbPolyline
 90
        6
 70
     0
 43
0.0
 10
273.9997853479727
 20
568.31033507157
 10
273.9559853490791
 20
569.643835037883
 10
274.5702920208742
 20
570.4155350183882
 10
276.9327852738789
 20
570.7078350110041
 10
278.6599852302461
 20
570.0795350268763
 10
278.6722920208749
 20
568.7618350601642
  0
HATCH
  5
139
330
70
100
AcDbEntity
  8
Fasteners
 62
   254
420
 13358815
440
 33554687
100
AcDbHatch
 10
0.0
 20
0.0
 30
0.0
210
0.0
220
0.0
230
1.0
  2
SOLID
 70
     1
 71
     1
 91
        1
 92
        3
 72
     0
 73
     1
 93
        6
 10
273.9997853479727
 20
568.31033507157
 10
273.9559853490791
 20
569.643835037883
 10
274.5702920208742
 20
570.4155350183882
 10
276.9327852738789
 20
570.7078350110041
 10
278.6599852302461
 20
570.0795350268763
 10
278.6722920208749
 20
568.7618350601642
 97
        0
 75
     2
 76
     1
 98
        1
 10
0.0
 20
0.0
450
        0
451
        0
460
0.0
461
0.0
452
        0
462
0.0
453
        0
470

  0
LINE
  5
13A
330
70
100
AcDbEntity
  8
Fasteners
 62
   250
420
  2301728
370
     9
100
AcDbLine
 10
276.9124852743916
 20
570.6756350118175
 30
0.0
 11
276.9089852744801
 21
569.3036350464772
 31
0.0
  0
LINE
  5
13B
330
70
100
AcDbEntity
  8
Fasteners
 62
   250
420
  2301728
370
     9
100
AcDbLine
 10
274.5554853339345
 20
570.3919350189844
 30
0.0
 11
274.6149853324314
 21
568.9499350554124
 31
0.0
  0
SPLINE
  5
13C
330
70
100
AcDbEntity
  8
Fasteners
 62
   250
420
  2301728
370
     9
100
AcDbSpline
210
0.0
220
0.0
230
1.0
 70
     8
 71
     3
 72
    20
 73
    16
 74
     0
 42
0.0000000001
 43
0.0000000001
 40
0.0
 40
0.0
 40
0.0
 40
0.0
 40
1.0
 40
1.0
 40
1.0
 40
2.0
 40
2.0
 40
2.0
 40
3.0
 40
3.0
 40
3.0
 40
4.0
 40
4.0
 40
4.0
 40
5.0
 40
5.0
 40
5.0
 40
5.0
 10
274.423885337259
 20
567.8875350822509
 30
0.0
 10
274.3257853397372
 20
567.9592350804396
 30
0.0
 10
273.998585348003
 20
568.2253350737173
 30
0.0
 10
274.0020853479145
 20
568.2428350732752
 30
0.0
 10
274.0055853478261
 20
568.2585350728786
 30
0.0
 10
274.6599853312946
 20
568.6960476190479
 30
0.0
 10
274.614485332444
 20
569.0075350539573
 30
0.0
 10
274.9225853246608
 20
568.7433350606315
 30
0.0
 10
276.5885852825741
 20
568.8028350591284
 30
0.0
 10
276.9088852744826
 20
569.2840476190476
 30
0.0
 10
277.4180852616191
 20
568.9252350560364
 30
0.0
 10
278.2422920208746
 20
568.5315350659821
 30
0.0
 10
278.6623852301854
 20
568.7188350612505
 30
0.0
 10
278.5502920208746
 20
568.0870476190476
 30
0.0
 10
278.3542920208747
 20
568.0468350782266
 30
0.0
 10
278.3123852390272
 20
567.9522350806164
 30
0.0
  0
HATCH
  5
13D
330
70
100
AcDbEntity
  8
Fasteners
 62
   254
420
 13358815
440
 33554687
100
AcDbHatch
 10
0.0
 20
0.0
 30
0.0
210
0.0
220
0.0
230
1.0
  2
SOLID
 70
     1
 71
     1
 91
        1
 92
        1
 93
        2
 72
     4
 94
        3
 73
     0
 74
     0
 95
       20
 96
       16
 40
0.0
 40
0.0
 40
0.0
 40
0.0
 40
1.0
 40
1.0
 40
1.0
 40
2.0
 40
2.0
 40
2.0
 40
3.0
 40
3.0
 40
3.0
 40
4.0
 40
4.0
 40
4.0
 40
5.0
 40
5.0
 40
5.0
 40
5.0
 10
274.423885337259
 20
567.8875350822509
 10
274.3257853397372
 20
567.9592350804396
 10
273.998585348003
 20
568.2253350737173
 10
274.0020853479145
 20
568.2428350732752
 10
274.0055853478261
 20
568.2585350728786
 10
274.6599853312946
 20
568.6960476190479
 10
274.614485332444
 20
569.0075350539573
 10
274.9225853246608
 20
568.7433350606315
 10
276.5885852825741
 20
568.8028350591284
 10
276.9088852744826
 20
569.2840476190476
 10
277.4180852616191
 20
568.9252350560364
 10
278.2422920208746
 20
568.5315350659821
 10
278.6623852301854
 20
568.7188350612505
 10
278.5502920208746
 20
568.0870476190476
 10
278.3542920208747
 20
568.0468350782266
 10
278.3123852390272
 20
567.9522350806164
 97
        0
 72
     1
 10
278.3123852390273
 20
567.9522350806165
 11
274.423885337259
 21
567.8875350822509
 97
        0
 75
     2
 76
     1
 98
        1
 10
0.0
 20
0.0
450
        0
451
        0
460
0.0
461
0.0
452
        0
462
0.0
453
        0
470

  0
SPLINE
  5
13E
330
70
100
AcDbEntity
  8
Fasteners
 62
   250
420
  2301728
370
     9
100
AcDbSpline
210
0.0
220
0.0
230
1.0
 70
    11
 71
     3
 72
    17
 73
    13
 74
     0
 42
0.0000000001
 43
0.0000000001
 40
0.0
 40
0.0
 40
0.0
 40
0.0
 40
1.0
 40
1.0
 40
1.0
 40
2.0
 40
2.0
 40
2.0
 40
3.0
 40
3.0
 40
3.0
 40
4.0
 40
4.0
 40
4.0
 40
4.0
 10
278.3502920208748
 20
568.1227350763093
 30
0.0
 10
278.3502920208748
 20
567.7675350852823
 30
0.0
 10
277.4331852612377
 20
567.4787350925781
 30
0.0
 10
276.3026852897965
 20
567.4787350925781
 30
0.0
 10
275.1704853183983
 20
567.4787350925781
 30
0.0
 10
274.2534853415636
 20
567.7675350852823
 30
0.0
 10
274.2534853415636
 20
568.1227350763093
 30
0.0
 10
274.2534853415636
 20
568.4779350673361
 30
0.0
 10
275.1704853183983
 20
568.7667350600404
 30
0.0
 10
276.3026852897965
 20
568.7667350600404
 30
0.0
 10
277.4331852612377
 20
568.7667350600404
 30
0.0
 10
278.3502920208748
 20
568.4779350673361
 30
0.0
 10
278.3502920208748
 20
568.1227350763093
 30
0.0
  0
HATCH
  5
13F
330
70
100
AcDbEntity
  8
Fasteners
 62
   254
420
 13358815
440
 33554687
100
AcDbHatch
 10
0.0
 20
0.0
 30
0.0
210
0.0
220
0.0
230
1.0
  2
SOLID
 70
     1
 71
     1
 91
        1
 92
        1
 93
        1
 72
     4
 94
        3
 73
     0
 74
     0
 95
       17
 96
       13
 40
0.0
 40
0.0
 40
0.0
 40
0.0
 40
1.0
 40
1.0
 40
1.0
 40
2.0
 40
2.0
 40
2.0
 40
3.0
 40
3.0
 40
3.0
 40
4.0
 40
4.0
 40
4.0
 40
4.0
 10
278.3502920208748
 20
568.1227350763093
 10
278.3502920208748
 20
567.7675350852823
 10
277.4331852612377
 20
567.4787350925781
 10
276.3026852897965
 20
567.4787350925781
 10
275.1704853183983
 20
567.4787350925781
 10
274.2534853415636
 20
567.7675350852823
 10
274.2534853415636
 20
568.1227350763093
 10
274.2534853415636
 20
568.4779350673361
 10
275.1704853183983
 20
568.7667350600404
 10
276.3026852897965
 20
568.7667350600404
 10
277.4331852612377
 20
568.7667350600404
 10
278.3502920208748
 20
568.4779350673361
 10
278.3502920208748
 20
568.1227350763093
 97
        0
 97
        1
330
13E
 75
     2
 76
     1
 98
        1
 10
0.0
 20
0.0
450
        0
451
        0
460
0.0
461
0.0
452
        0
462
0.0
453
        0
470

  0
LWPOLYLINE
  5
140
330
70
100
AcDbEntity
  8
Fasteners
100
AcDbPolyline
 90
        4
 70
     1
 43
0.0
 10
276.8032920208743
 20
568.2517350730504
 10
275.8145853021269
 20
567.9419350808766
 10
275.9282920208743
 20
567.7774350850322
 10
276.916985274278
 20
568.0872350772061
  0
HATCH
  5
141
330
70
100
AcDbEntity
  8
Fasteners
 62
   250
420
  2301728
440
 33554687
100
AcDbHatch
 10
0.0
 20
0.0
 30
0.0
210
0.0
220
0.0
230
1.0
  2
SOLID
 70
     1
 71
     1
 91
        1
 92
        1
 93
        4
 72
     1
 10
276.8032920208743
 20
568.2517350730504
 11
275.8145853021269
 21
567.9419350808766
 72
     1
 10
275.8145853021269
 20
567.9419350808766
 11
275.9282920208743
 21
567.7774350850322
 72
     1
 10
275.9282920208743
 20
567.7774350850322
 11
276.916985274278
 21
568.0872350772061
 72
     1
 10
276.916985274278
 20
568.0872350772061
 11
276.8032920208743
 21
568.2517350730504
 97
        1
330
140
 75
     2
 76
     1
 98
        1
 10
0.0
 20
0.0
450
        0
451
        0
460
0.0
461
0.0
452
        0
462
0.0
453
        0
470

  0
LWPOLYLINE
  5
142
330
70
100
AcDbEntity
  8
Fasteners
100
AcDbPolyline
 90
        4
 70
     1
 43
0.0
 10
276.638385281316
 20
568.4948350669092
 10
275.6477853063407
 20
568.1850476190475
 10
275.7615853034658
 20
568.020535078891
 10
276.7485852785321
 20
568.3303350710648
  0
HATCH
  5
143
330
70
100
AcDbEntity
  8
Fasteners
 62
   250
420
  2301728
440
 33554687
100
AcDbHatch
 10
0.0
 20
0.0
 30
0.0
210
0.0
220
0.0
230
1.0
  2
SOLID
 70
     1
 71
     1
 91
        1
 92
        1
 93
        4
 72
     1
 10
276.638385281316
 20
568.4948350669092
 11
275.6477853063407
 21
568.1850476190475
 72
     1
 10
275.6477853063407
 20
568.1850476190475
 11
275.7615853034658
 21
568.020535078891
 72
     1
 10
275.7615853034658
 20
568.020535078891
 11
276.7485852785321
 21
568.3303350710648
 72
     1
 10
276.7485852785321
 20
568.3303350710648
 11
276.638385281316
 21
568.4948350669092
 97
        1
330
142
 75
     2
 76
     1
 98
        1
 10
0.0
 20
0.0
450
        0
451
        0
460
0.0
461
0.0
452
        0
462
0.0
453
        0
470

  0
LWPOLYLINE
  5
144
330
70
100
AcDbEntity
  8
Fasteners
100
AcDbPolyline
 90
        4
 70
     1
 43
0.0
 10
275.8432920208743
 20
568.4767350673665
 10
275.7312920208742
 20
568.4400476190476
 10
276.735685278858
 20
567.7767350850499
 10
276.8477852760261
 20
567.8117350841658
  0
HATCH
  5
145
330
70
100
AcDbEntity
  8
Fasteners
 62
   250
420
  2301728
440
 33554687
100
AcDbHatch
 10
0.0
 20
0.0
 30
0.0
210
0.0
220
0.0
230
1.0
  2
SOLID
 70
     1
 71
     1
 91
        1
 92
        1
 93
        4
 72
     1
 10
275.8432920208743
 20
568.4767350673665
 11
275.7312920208742
 21
568.4400476190476
 72
     1
 10
275.7312920208742
 20
568.4400476190476
 11
276.735685278858
 21
567.7767350850499
 72
     1
 10
276.735685278858
 20
567.7767350850499
 11
276.8477852760261
 21
567.8117350841658
 72
     1
 10
276.8477852760261
 20
567.8117350841658
 11
275.8432920208743
 21
568.4767350673665
 97
        1
330
144
 75
     2
 76
     1
 98
        1
 10
0.0
 20
0.0
450
        0
451
        0
460
0.0
461
0.0
452
        0
462
0.0
453
        0
470

  0
SPLINE
  5
146
330
70
100
AcDbEntity
  8
Fasteners
 62
   250
420
  2301728
370
     9
100
AcDbSpline
210
0.0
220
0.0
230
1.0
 70
     8
 71
     3
 72
    14
 73
    10
 74
     0
 42
0.0000000001
 43
0.0000000001
 40
0.0
 40
0.0
 40
0.0
 40
0.0
 40
1.0
 40
1.0
 40
1.0
 40
2.0
 40
2.0
 40
2.0
 40
3.0
 40
3.0
 40
3.0
 40
3.0
 10
262.6073856357689
 20
571.6623349868914
 30
0.0
 10
262.1256856479377
 20
571.2853349964152
 30
0.0
 10
262.4160856406015
 20
570.8030476190478
 30
0.0
 10
263.2561856193788
 20
570.585047619048
 30
0.0
 10
264.0961855981586
 20
570.3670476190473
 30
0.0
 10
265.1677855710877
 20
570.4959350163571
 30
0.0
 10
265.649485558919
 20
570.8729350068333
 30
0.0
 10
265.9503855513176
 20
571.1083350008866
 30
0.0
 10
265.9595855510852
 20
571.3973349935859
 30
0.0
 10
265.6739855583
 20
571.6374349875204
 30
0.0
  0
SPLINE
  5
147
330
70
100
AcDbEntity
  8
Fasteners
 62
   250
420
  2301728
370
    13
100
AcDbSpline
210
0.0
220
0.0
230
1.0
 70
     9
 71
     3
 72
    17
 73
    13
 74
     0
 42
0.0000000001
 43
0.0000000001
 40
0.0
 40
0.0
 40
0.0
 40
0.0
 40
1.0
 40
1.0
 40
1.0
 40
2.0
 40
2.0
 40
2.0
 40
3.0
 40
3.0
 40
3.0
 40
4.0
 40
4.0
 40
4.0
 40
4.0
 10
262.6073856357689
 20
571.6623349868914
 30
0.0
 10
262.9324856275562
 20
571.388934993798
 30
0.0
 10
263.4392920208747
 20
571.2494349973221
 30
0.0
 10
264.1276855973629
 20
571.2438349974636
 30
0.0
 10
264.8160855799724
 20
571.2382349976051
 30
0.0
 10
265.3314855669523
 20
571.3694349942906
 30
0.0
 10
265.6739855583
 20
571.6374349875204
 30
0.0
 10
265.3488855665127
 20
571.9109349806112
 30
0.0
 10
264.8420855793156
 20
572.0504349770871
 30
0.0
 10
264.1536855967061
 20
572.0560476190476
 30
0.0
 10
263.4652920208746
 20
572.0616349768042
 30
0.0
 10
262.9498856271166
 20
571.9303349801212
 30
0.0
 10
262.6073856357689
 20
571.6623349868914
 30
0.0
  0
HATCH
  5
148
330
70
100
AcDbEntity
  8
Fasteners
 62
   253
420
 10987948
440
 33554687
100
AcDbHatch
 10
0.0
 20
0.0
 30
0.0
210
0.0
220
0.0
230
1.0
  2
SOLID
 70
     1
 71
     1
 91
        1
 92
        1
 93
        2
 72
     4
 94
        3
 73
     0
 74
     0
 95
       17
 96
       13
 40
0.0
 40
0.0
 40
0.0
 40
0.0
 40
1.0
 40
1.0
 40
1.0
 40
2.0
 40
2.0
 40
2.0
 40
3.0
 40
3.0
 40
3.0
 40
4.0
 40
4.0
 40
4.0
 40
4.0
 10
262.6073856357689
 20
571.6623349868914
 10
262.9324856275562
 20
571.388934993798
 10
263.4392920208747
 20
571.2494349973221
 10
264.1276855973629
 20
571.2438349974636
 10
264.8160855799724
 20
571.2382349976051
 10
265.3314855669523
 20
571.3694349942906
 10
265.6739855583
 20
571.6374349875204
 10
265.3488855665127
 20
571.9109349806112
 10
264.8420855793156
 20
572.0504349770871
 10
264.1536855967061
 20
572.0560476190476
 10
263.4652920208746
 20
572.0616349768042
 10
262.9498856271166
 20
571.9303349801212
 10
262.6073856357689
 20
571.6623349868914
 97
        0
 72
     1
 10
262.6073856357688
 20
571.6623349868914
 11
262.6073856357689
 21
571.6623349868914
 97
        0
 75
     2
 76
     1
 98
        1
 10
0.0
 20
0.0
450
        0
451
        0
460
0.0
461
0.0
452
        0
462
0.0
453
        0
470

  0
SPLINE
  5
149
330
70
100
AcDbEntity
  8
Fasteners
  6
AI-Linetype-9
 62
   250
420
  2301728
370
     9
100
AcDbSpline
210
0.0
220
0.0
230
1.0
 70
     8
 71
     3
 72
    14
 73
    10
 74
     0
 42
0.0000000001
 43
0.0000000001
 40
0.0
 40
0.0
 40
0.0
 40
0.0
 40
1.0
 40
1.0
 40
1.0
 40
2.0
 40
2.0
 40
2.0
 40
3.0
 40
3.0
 40
3.0
 40
3.0
 10
273.6595853565668
 20
575.709834884643
 30
0.0
 10
273.1777853687381
 20
575.3328348941668
 30
0.0
 10
273.4682920208743
 20
574.8504349063532
 30
0.0
 10
274.3082920208745
 20
574.6324349118603
 30
0.0
 10
275.1483853189566
 20
574.4144349173675
 30
0.0
 10
276.2198852918882
 20
574.5433349141112
 30
0.0
 10
276.7016852797169
 20
574.9203349045874
 30
0.0
 10
277.0024852721181
 20
575.1557348986407
 30
0.0
 10
277.0117852718831
 20
575.44473489134
 30
0.0
 10
276.726185279098
 20
575.6849348852719
 30
0.0
  0
SPLINE
  5
14B
330
70
100
AcDbEntity
  8
Fasteners
  6
AI-Linetype-10
 62
   250
420
  2301728
370
     9
100
AcDbSpline
210
0.0
220
0.0
230
1.0
 70
     9
 71
     3
 72
    17
 73
    13
 74
     0
 42
0.0000000001
 43
0.0000000001
 40
0.0
 40
0.0
 40
0.0
 40
0.0
 40
1.0
 40
1.0
 40
1.0
 40
2.0
 40
2.0
 40
2.0
 40
3.0
 40
3.0
 40
3.0
 40
4.0
 40
4.0
 40
4.0
 40
4.0
 10
273.6595853565668
 20
575.709834884643
 30
0.0
 10
273.9846853483541
 20
575.4363348915521
 30
0.0
 10
274.4914853355512
 20
575.2968348950762
 30
0.0
 10
275.1798853181608
 20
575.2912348952177
 30
0.0
 10
275.8682920208748
 20
575.2857348953567
 30
0.0
 10
276.3836852877503
 20
575.4169348920422
 30
0.0
 10
276.726185279098
 20
575.6849348852719
 30
0.0
 10
276.4010852873107
 20
575.9583348783653
 30
0.0
 10
275.8942920208747
 20
576.0978348748412
 30
0.0
 10
275.205885317504
 20
576.1034348746997
 30
0.0
 10
274.5174853348944
 20
576.1090476190474
 30
0.0
 10
274.0020853479145
 20
575.9778348778727
 30
0.0
 10
273.6595853565668
 20
575.709834884643
 30
0.0
  0
LWPOLYLINE
  5
14D
330
70
100
AcDbEntity
  8
Fasteners
  6
AI-Linetype-11
 62
   250
420
  2301728
370
     9
100
AcDbPolyline
 90
        1
 70
     0
 43
0.0
 10
286.0420850437586
 20
572.6791349612049
  0
SPLINE
  5
14F
330
70
100
AcDbEntity
  8
Fasteners
  6
AI-Linetype-12
 62
   250
420
  2301728
370
     9
100
AcDbSpline
210
0.0
220
0.0
230
1.0
 70
     8
 71
     3
 72
    23
 73
    19
 74
     0
 42
0.0000000001
 43
0.0000000001
 40
0.0
 40
0.0
 40
0.0
 40
0.0
 40
1.0
 40
1.0
 40
1.0
 40
2.0
 40
2.0
 40
2.0
 40
3.0
 40
3.0
 40
3.0
 40
4.0
 40
4.0
 40
4.0
 40
5.0
 40
5.0
 40
5.0
 40
6.0
 40
6.0
 40
6.0
 40
6.0
 10
283.4821851084271
 20
573.0969349506503
 30
0.0
 10
282.9008851231119
 20
573.330934944739
 30
0.0
 10
282.5453851320926
 20
573.6444349368193
 30
0.0
 10
282.5453851320926
 20
573.9888349281191
 30
0.0
 10
282.5453851320926
 20
574.0877349256207
 30
0.0
 10
282.6033851306274
 20
574.3458349191005
 30
0.0
 10
282.6033851306274
 20
574.4533349163848
 30
0.0
 10
282.6033851306274
 20
574.8812349055752
 30
0.0
 10
284.3754850858604
 20
575.4210476190474
 30
0.0
 10
286.0420850437586
 20
575.4210476190474
 30
0.0
 10
287.7861849996989
 20
575.4210476190474
 30
0.0
 10
289.4376849579785
 20
574.8382349066615
 30
0.0
 10
289.4828849568366
 20
574.5372349142654
 30
0.0
 10
289.4828849568366
 20
574.5372349142654
 30
0.0
 10
289.5409849553689
 20
574.0598349263255
 30
0.0
 10
289.5409849553689
 20
573.9888349281191
 30
0.0
 10
289.5409849553689
 20
573.6755349360337
 30
0.0
 10
289.2461849628162
 20
573.3877349433042
 30
0.0
 10
288.7548849752274
 20
573.1621349490032
 30
0.0
  0
SPLINE
  5
151
330
70
100
AcDbEntity
  8
Fasteners
  6
AI-Linetype-13
 62
   250
420
  2301728
370
     9
100
AcDbSpline
210
0.0
220
0.0
230
1.0
 70
     8
 71
     3
 72
    11
 73
     7
 74
     0
 42
0.0000000001
 43
0.0000000001
 40
0.0
 40
0.0
 40
0.0
 40
0.0
 40
1.0
 40
1.0
 40
1.0
 40
2.0
 40
2.0
 40
2.0
 40
2.0
 10
282.6156851303167
 20
573.727734934715
 30
0.0
 10
282.9403851221141
 20
574.3234349196663
 30
0.0
 10
284.3510850864768
 20
574.7750476190476
 30
0.0
 10
286.0435850437207
 20
574.7750476190476
 30
0.0
 10
287.6908850021063
 20
574.7750476190476
 30
0.0
 10
289.0735849671764
 20
574.3471349190676
 30
0.0
 10
289.443484957832
 20
573.7729349335731
 30
0.0
  0
SPLINE
  5
153
330
70
100
AcDbEntity
  8
Fasteners
  6
AI-Linetype-14
 62
   250
420
  2301728
370
     9
100
AcDbSpline
210
0.0
220
0.0
230
1.0
 70
     9
 71
     3
 72
    32
 73
    28
 74
     0
 42
0.0000000001
 43
0.0000000001
 40
0.0
 40
0.0
 40
0.0
 40
0.0
 40
1.0
 40
1.0
 40
1.0
 40
2.0
 40
2.0
 40
2.0
 40
3.0
 40
3.0
 40
3.0
 40
4.0
 40
4.0
 40
4.0
 40
5.0
 40
5.0
 40
5.0
 40
6.0
 40
6.0
 40
6.0
 40
7.0
 40
7.0
 40
7.0
 40
8.0
 40
8.0
 40
8.0
 40
9.0
 40
9.0
 40
9.0
 40
9.0
 10
288.2076849890509
 20
571.9394349798912
 30
0.0
 10
288.0033849942119
 20
571.6834349863583
 30
0.0
 10
287.1172920208746
 20
571.4899349912466
 30
0.0
 10
286.0527850434883
 20
571.4899349912466
 30
0.0
 10
285.1517850662494
 20
571.4899349912466
 30
0.0
 10
284.3775850858074
 20
571.6275349877705
 30
0.0
 10
284.0399850943359
 20
571.8275349827181
 30
0.0
 10
283.7754851010177
 20
571.9587349794037
 30
0.0
 10
283.7281851022126
 20
572.2211349727749
 30
0.0
 10
283.7281851022126
 20
572.2211349727749
 30
0.0
 10
283.7281851022126
 20
572.2211349727749
 30
0.0
 10
283.6872920208744
 20
573.5888349382239
 30
0.0
 10
283.6872920208744
 20
573.5888349382239
 30
0.0
 10
283.6872920208744
 20
573.5888349382239
 30
0.0
 10
284.237785089339
 20
574.0855349256762
 30
0.0
 10
284.306585087601
 20
574.2081349225791
 30
0.0
 10
284.306585087601
 20
574.2081349225791
 30
0.0
 10
286.2355850388703
 20
574.277047619048
 30
0.0
 10
286.7452920208743
 20
574.3737349183957
 30
0.0
 10
286.7452920208743
 20
574.3737349183957
 30
0.0
 10
288.1495849905186
 20
573.8963349304558
 30
0.0
 10
288.5215849811211
 20
573.8361349319766
 30
0.0
 10
288.5215849811211
 20
573.8361349319766
 30
0.0
 10
288.5495849804138
 20
572.4598349667449
 30
0.0
 10
288.5495849804138
 20
572.4598349667449
 30
0.0
 10
288.5495849804138
 20
572.4598349667449
 30
0.0
 10
288.4333849833492
 20
572.0469349771756
 30
0.0
 10
288.2076849890509
 20
571.9394349798912
 30
0.0
  0
SPLINE
  5
155
330
70
100
AcDbEntity
  8
Fasteners
  6
AI-Linetype-15
 62
   250
420
  2301728
370
     9
100
AcDbSpline
210
0.0
220
0.0
230
1.0
 70
     8
 71
     3
 72
    14
 73
    10
 74
     0
 42
0.0000000001
 43
0.0000000001
 40
0.0
 40
0.0
 40
0.0
 40
0.0
 40
1.0
 40
1.0
 40
1.0
 40
2.0
 40
2.0
 40
2.0
 40
3.0
 40
3.0
 40
3.0
 40
3.0
 10
283.7976851004569
 20
572.0877349761449
 30
0.0
 10
283.9072920208746
 20
572.1566349744043
 30
0.0
 10
284.2921850879648
 20
572.5006349657141
 30
0.0
 10
284.3201850872574
 20
572.8727349563142
 30
0.0
 10
284.3201850872574
 20
572.8727349563142
 30
0.0
 10
285.9050850472195
 20
572.418934967778
 30
0.0
 10
286.7050850270098
 20
572.9565349541972
 30
0.0
 10
286.7050850270098
 20
572.9565349541972
 30
0.0
 10
287.4212920208747
 20
572.3221349702234
 30
0.0
 10
288.5502920208746
 20
572.4598349667449
 30
0.0
  0
LINE
  5
157
330
70
100
AcDbEntity
  8
Fasteners
  6
AI-Linetype-16
 62
   250
420
  2301728
370
     9
100
AcDbLine
 10
284.3072920208742
 20
574.2090476190478
 30
0.0
 11
284.3201850872574
 21
572.8735349562939
 31
0.0
  0
LINE
  5
159
330
70
100
AcDbEntity
  8
Fasteners
  6
AI-Linetype-17
 62
   250
420
  2301728
370
     9
100
AcDbLine
 10
286.7450850259993
 20
574.3739349183906
 30
0.0
 11
286.7579850256734
 21
572.9826349535378
 31
0.0
  0
SPLINE
  5
15B
330
70
100
AcDbEntity
  8
Fasteners
  6
AI-Linetype-18
 62
   250
420
  2301728
370
     9
100
AcDbSpline
210
0.0
220
0.0
230
1.0
 70
     8
 71
     3
 72
    17
 73
    13
 74
     0
 42
0.0000000001
 43
0.0000000001
 40
0.0
 40
0.0
 40
0.0
 40
0.0
 40
1.0
 40
1.0
 40
1.0
 40
2.0
 40
2.0
 40
2.0
 40
3.0
 40
3.0
 40
3.0
 40
4.0
 40
4.0
 40
4.0
 40
4.0
 10
284.0388850943636
 20
571.8273349827232
 30
0.0
 10
283.9205850973522
 20
571.8961349809851
 30
0.0
 10
283.8560850989816
 20
571.9735349790298
 30
0.0
 10
283.8560850989816
 20
572.0531349770189
 30
0.0
 10
283.8560850989816
 20
572.3628349691953
 30
0.0
 10
284.8388850741539
 20
572.6165349627863
 30
0.0
 10
286.0538850434604
 20
572.6165349627863
 30
0.0
 10
287.26678501282
 20
572.6165349627863
 30
0.0
 10
288.2516849879394
 20
572.3628349691953
 30
0.0
 10
288.2516849879394
 20
572.0531349770189
 30
0.0
 10
288.2516849879394
 20
572.0144349779966
 30
0.0
 10
288.2366849883183
 20
571.9757349789743
 30
0.0
 10
288.2065849890787
 20
571.9391349798988
 30
0.0
  0
MTEXT
  5
15D
330
70
100
AcDbEntity
  8
Fasteners
100
AcDbMText
 10
236.6192321777344
 20
341.4621276855469
 30
0.0
 40
0.2
 41
0.0
 46
0.0
 71
     7
 72
     1
  1
\C250;\c2105123;\FHelvetica Neue LT Std 55 Roman|b0|i0|c1;\H8.496000;\W1.000000;SIMPSON Strong-Tie\H4.953168;®\H8.496000; ^C
 73
     1
 44
1.0
  0
MTEXT
  5
15E
330
70
100
AcDbEntity
  8
Fasteners
100
AcDbMText
 10
220.1944274902344
 20
327.0617370605469
 30
0.0
 40
0.2
 41
0.0
 46
0.0
 71
     7
 72
     1
  1
\C250;\c2105123;\FHelvetica Neue LT Std 55 Roman|b0|i0|c1;\H8.496000;\W1.000000;DTC Steel Frame Installation 
 73
     1
 44
1.0
  0
MTEXT
  5
15F
330
70
100
AcDbEntity
  8
Fasteners
100
AcDbMText
 10
217.9513244628906
 20
507.7588882446288
 30
0.0
 40
0.2
 41
0.0
 46
0.0
 71
     7
 72
     1
  1
\C250;\c2105123;\FHelvetica Neue LT Std 57 Condensed|b0|i0|c1;\H8.496000;\W1.000000;DTC
 73
     1
 44
1.0
  0
SPLINE
  5
160
330
70
100
AcDbEntity
  8
Fasteners
 62
   250
420
  2301728
370
    20
100
AcDbSpline
210
0.0
220
0.0
230
1.0
 70
     8
 71
     3
 72
     8
 73
     4
 74
     0
 42
0.0000000001
 43
0.0000000001
 40
0.0
 40
0.0
 40
0.0
 40
0.0
 40
1.0
 40
1.0
 40
1.0
 40
1.0
 10
264.0958046380593
 20
569.3584393784203
 30
0.0
 10
264.0958046380593
 20
569.3584393784203
 30
0.0
 10
246.4210779161049
 20
543.5341266443283
 30
0.0
 10
230.5426693134568
 20
521.1257738760432
 30
0.0
  0
ENDSEC
  0
SECTION
  2
OBJECTS
  0
DICTIONARY
  5
C
330
0
100
AcDbDictionary
281
     1
  3
ACAD_COLOR
350
63
  3
ACAD_DETAILVIEWSTYLE
350
6A
  3
ACAD_GROUP
350
D
  3
ACAD_LAYOUT
350
62
  3
ACAD_MATERIAL
350
10
  3
ACAD_MLEADERSTYLE
350
66
  3
ACAD_MLINESTYLE
350
5F
  3
ACAD_PLOTSETTINGS
350
61
  3
ACAD_PLOTSTYLENAME
350
E
  3
ACAD_SCALELIST
350
42
  3
ACAD_SECTIONVIEWSTYLE
350
68
  3
ACAD_TABLESTYLE
350
64
  3
ACAD_VISUALSTYLE
350
29
  3
ACDB_RECOMPOSE_DATA
350
16A
  3
AcDbVariableDictionary
350
162
  0
DICTIONARY
  5
63
102
{ACAD_REACTORS
330
C
102
}
330
C
100
AcDbDictionary
281
     1
  0
DICTIONARY
  5
6A
102
{ACAD_REACTORS
330
C
102
}
330
C
100
AcDbDictionary
281
     1
  3
Imperial24
350
6B
  0
DICTIONARY
  5
D
102
{ACAD_REACTORS
330
C
102
}
330
C
100
AcDbDictionary
281
     1
  0
DICTIONARY
  5
62
102
{ACAD_REACTORS
330
C
102
}
330
C
100
AcDbDictionary
281
     1
  3
Layout1
350
6F
  3
Layout2
350
77
  3
Model
350
73
  0
DICTIONARY
  5
10
102
{ACAD_REACTORS
330
C
102
}
330
C
100
AcDbDictionary
281
     1
  3
ByBlock
350
19
  3
ByLayer
350
11
  3
Global
350
21
  0
DICTIONARY
  5
66
102
{ACAD_REACTORS
330
C
102
}
330
C
100
AcDbDictionary
281
     1
  3
Standard
350
67
  0
DICTIONARY
  5
5F
102
{ACAD_REACTORS
330
C
102
}
330
C
100
AcDbDictionary
281
     1
  3
Standard
350
60
  0
DICTIONARY
  5
61
102
{ACAD_REACTORS
330
C
102
}
330
C
100
AcDbDictionary
281
     1
  0
ACDBDICTIONARYWDFLT
  5
E
102
{ACAD_REACTORS
330
C
102
}
330
C
100
AcDbDictionary
281
     1
  3
Normal
350
F
100
AcDbDictionaryWithDefault
340
F
  0
DICTIONARY
  5
42
102
{ACAD_REACTORS
330
C
102
}
330
C
100
AcDbDictionary
281
     1
  3
A0
350
43
  3
A1
350
44
  3
A2
350
45
  3
A3
350
46
  3
A4
350
47
  3
A5
350
48
  3
A6
350
49
  3
A7
350
4A
  3
A8
350
4B
  3
A9
350
4C
  3
B0
350
4D
  3
B1
350
4E
  3
B2
350
4F
  3
B3
350
50
  3
B4
350
51
  3
B5
350
52
  3
B6
350
53
  0
DICTIONARY
  5
68
102
{ACAD_REACTORS
330
C
102
}
330
C
100
AcDbDictionary
281
     1
  3
Imperial24
350
69
  0
DICTIONARY
  5
64
102
{ACAD_REACTORS
330
C
102
}
330
C
100
AcDbDictionary
281
     1
  3
Standard
350
65
  0
DICTIONARY
  5
29
102
{ACAD_REACTORS
330
C
102
}
330
C
100
AcDbDictionary
281
     1
  3
2dWireframe
350
2F
  3
Basic
350
2E
  3
Brighten
350
35
  3
ColorChange
350
39
  3
Conceptual
350
32
  3
Dim
350
34
  3
EdgeColorOff
350
41
  3
Facepattern
350
38
  3
Flat
350
2A
  3
FlatWithEdges
350
2B
  3
Gouraud
350
2C
  3
GouraudWithEdges
350
2D
  3
Hidden
350
31
  3
JitterOff
350
3F
  3
Linepattern
350
37
  3
OverhangOff
350
40
  3
Realistic
350
33
  3
Shaded
350
3E
  3
Shaded with edges
350
3D
  3
Shades of Gray
350
3A
  3
Sketchy
350
3B
  3
Thicken
350
36
  3
Wireframe
350
30
  3
X-Ray
350
3C
  0
XRECORD
  5
16A
102
{ACAD_REACTORS
330
C
102
}
330
C
100
AcDbXrecord
280
     1
 90
        1
330
65
  0
DICTIONARY
  5
162
102
{ACAD_REACTORS
330
C
102
}
330
C
100
AcDbDictionary
281
     1
  3
CANNOSCALE
350
167
  3
CMLEADERSTYLE
350
164
  3
CTABLESTYLE
350
163
  3
CVIEWDETAILSTYLE
350
165
  3
CVIEWSECTIONSTYLE
350
166
  0
ACDBDETAILVIEWSTYLE
  5
6B
102
{ACAD_REACTORS
330
6A
102
}
330
6A
100
AcDbModelDocViewStyle
 70
     0
  3
Imperial24
290
     1
300
Imperial24
 90
        0
100
AcDbDetailViewStyle
 70
     0
 71
     0
 90
        3
 71
     1
340
55
 62
   256
 40
0.24
340
0
 62
   256
 40
0.24
300

 40
0.36
280
     3
 71
     2
340
5D
 90
       25
 62
   256
 71
     3
340
55
 62
   256
 40
0.24
 90
        1
 40
0.75
 90
        1
300
%<\AcVar ViewType \f "%tc1">% %<\AcVar ViewDetailId>%\PSCALE %<\AcVar ViewScale \f "%sn">%
 71
     4
340
5D
 90
       25
 62
   256
340
5D
 90
       25
 62
   256
280
     0
  0
LAYOUT
  5
6F
102
{ACAD_REACTORS
330
62
102
}
330
62
100
AcDbPlotSettings
  1

  2

  4

  6

 40
0.0
 41
0.0
 42
0.0
 43
0.0
 44
0.0
 45
0.0
 46
0.0
 47
0.0
 48
0.0
 49
0.0
140
0.0
141
0.0
142
1.0
143
1.0
 70
   688
 72
     0
 73
     0
 74
     5
  7

 75
    16
147
1.0
 76
     0
 77
     2
 78
   300
148
0.0
149
0.0
100
AcDbLayout
  1
Layout1
 70
     1
 71
     1
 10
0.0
 20
0.0
 11
12.0
 21
9.0
 12
0.0
 22
0.0
 32
0.0
 14
0.0
 24
0.0
 34
0.0
 15
0.0
 25
0.0
 35
0.0
146
0.0
 13
0.0
 23
0.0
 33
0.0
 16
1.0
 26
0.0
 36
0.0
 17
0.0
 27
1.0
 37
0.0
 76
     0
330
6C
  0
LAYOUT
  5
77
102
{ACAD_REACTORS
330
62
102
}
330
62
100
AcDbPlotSettings
  1

  2

  4

  6

 40
0.0
 41
0.0
 42
0.0
 43
0.0
 44
0.0
 45
0.0
 46
0.0
 47
0.0
 48
0.0
 49
0.0
140
0.0
141
0.0
142
1.0
143
1.0
 70
   688
 72
     0
 73
     0
 74
     5
  7

 75
    16
147
1.0
 76
     0
 77
     2
 78
   300
148
0.0
149
0.0
100
AcDbLayout
  1
Layout2
 70
     1
 71
     2
 10
0.0
 20
0.0
 11
12.0
 21
9.0
 12
0.0
 22
0.0
 32
0.0
 14
0.0
 24
0.0
 34
0.0
 15
0.0
 25
0.0
 35
0.0
146
0.0
 13
0.0
 23
0.0
 33
0.0
 16
1.0
 26
0.0
 36
0.0
 17
0.0
 27
1.0
 37
0.0
 76
     0
330
74
  0
LAYOUT
  5
73
102
{ACAD_REACTORS
330
62
102
}
330
62
100
AcDbPlotSettings
  1

  2

  4

  6

 40
0.0
 41
0.0
 42
0.0
 43
0.0
 44
0.0
 45
0.0
 46
0.0
 47
0.0
 48
0.0
 49
0.0
140
0.0
141
0.0
142
1.0
143
1.0
 70
  1712
 72
     0
 73
     0
 74
     0
  7

 75
     0
147
1.0
 76
     0
 77
     2
 78
   300
148
0.0
149
0.0
100
AcDbLayout
  1
Model
 70
     1
 71
     0
 10
0.0
 20
0.0
 11
12.0
 21
9.0
 12
0.0
 22
0.0
 32
0.0
 14
0.0
 24
0.0
 34
0.0
 15
0.0
 25
0.0
 35
0.0
146
0.0
 13
0.0
 23
0.0
 33
0.0
 16
1.0
 26
0.0
 36
0.0
 17
0.0
 27
1.0
 37
0.0
 76
     0
330
70
  0
MATERIAL
  5
19
102
{ACAD_XDICTIONARY
360
1A
102
}
102
{ACAD_REACTORS
330
10
102
}
330
10
100
AcDbMaterial
  1
ByBlock
 72
     0
 43
0.0208333333333333
 43
0.0
 43
0.0
 43
0.0
 43
0.0
 43
0.0208333333333333
 43
0.0
 43
0.0
 43
0.0
 43
0.0
 43
1.0
 43
0.0
 43
0.0
 43
0.0
 43
0.0
 43
1.0
 77
     0
 47
0.0208333333333333
 47
0.0
 47
0.0
 47
0.0
 47
0.0
 47
0.0208333333333333
 47
0.0
 47
0.0
 47
0.0
 47
0.0
 47
1.0
 47
0.0
 47
0.0
 47
0.0
 47
0.0
 47
1.0
171
     0
 49
0.0208333333333333
 49
0.0
 49
0.0
 49
0.0
 49
0.0
 49
0.0208333333333333
 49
0.0
 49
0.0
 49
0.0
 49
0.0
 49
1.0
 49
0.0
 49
0.0
 49
0.0
 49
0.0
 49
1.0
175
     0
142
0.0208333333333333
142
0.0
142
0.0
142
0.0
142
0.0
142
0.0208333333333333
142
0.0
142
0.0
142
0.0
142
0.0
142
1.0
142
0.0
142
0.0
142
0.0
142
0.0
142
1.0
179
     0
144
0.0208333333333333
144
0.0
144
0.0
144
0.0
144
0.0
144
0.0208333333333333
144
0.0
144
0.0
144
0.0
144
0.0
144
1.0
144
0.0
144
0.0
144
0.0
144
0.0
144
1.0
147
0.0208333333333333
147
0.0
147
0.0
147
0.0
147
0.0
147
0.0208333333333333
147
0.0
147
0.0
147
0.0
147
0.0
147
1.0
147
0.0
147
0.0
147
0.0
147
0.0
147
1.0
  0
MATERIAL
  5
11
102
{ACAD_XDICTIONARY
360
12
102
}
102
{ACAD_REACTORS
330
10
102
}
330
10
100
AcDbMaterial
  1
ByLayer
 72
     0
 43
0.0208333333333333
 43
0.0
 43
0.0
 43
0.0
 43
0.0
 43
0.0208333333333333
 43
0.0
 43
0.0
 43
0.0
 43
0.0
 43
1.0
 43
0.0
 43
0.0
 43
0.0
 43
0.0
 43
1.0
 77
     0
 47
0.0208333333333333
 47
0.0
 47
0.0
 47
0.0
 47
0.0
 47
0.0208333333333333
 47
0.0
 47
0.0
 47
0.0
 47
0.0
 47
1.0
 47
0.0
 47
0.0
 47
0.0
 47
0.0
 47
1.0
171
     0
 49
0.0208333333333333
 49
0.0
 49
0.0
 49
0.0
 49
0.0
 49
0.0208333333333333
 49
0.0
 49
0.0
 49
0.0
 49
0.0
 49
1.0
 49
0.0
 49
0.0
 49
0.0
 49
0.0
 49
1.0
175
     0
142
0.0208333333333333
142
0.0
142
0.0
142
0.0
142
0.0
142
0.0208333333333333
142
0.0
142
0.0
142
0.0
142
0.0
142
1.0
142
0.0
142
0.0
142
0.0
142
0.0
142
1.0
179
     0
144
0.0208333333333333
144
0.0
144
0.0
144
0.0
144
0.0
144
0.0208333333333333
144
0.0
144
0.0
144
0.0
144
0.0
144
1.0
144
0.0
144
0.0
144
0.0
144
0.0
144
1.0
147
0.0208333333333333
147
0.0
147
0.0
147
0.0
147
0.0
147
0.0208333333333333
147
0.0
147
0.0
147
0.0
147
0.0
147
1.0
147
0.0
147
0.0
147
0.0
147
0.0
147
1.0
  0
MATERIAL
  5
21
102
{ACAD_XDICTIONARY
360
22
102
}
102
{ACAD_REACTORS
330
10
102
}
330
10
100
AcDbMaterial
  1
Global
 72
     0
 43
0.0208333333333333
 43
0.0
 43
0.0
 43
0.0
 43
0.0
 43
0.0208333333333333
 43
0.0
 43
0.0
 43
0.0
 43
0.0
 43
1.0
 43
0.0
 43
0.0
 43
0.0
 43
0.0
 43
1.0
 77
     0
 47
0.0208333333333333
 47
0.0
 47
0.0
 47
0.0
 47
0.0
 47
0.0208333333333333
 47
0.0
 47
0.0
 47
0.0
 47
0.0
 47
1.0
 47
0.0
 47
0.0
 47
0.0
 47
0.0
 47
1.0
171
     0
 49
0.0208333333333333
 49
0.0
 49
0.0
 49
0.0
 49
0.0
 49
0.0208333333333333
 49
0.0
 49
0.0
 49
0.0
 49
0.0
 49
1.0
 49
0.0
 49
0.0
 49
0.0
 49
0.0
 49
1.0
175
     0
142
0.0208333333333333
142
0.0
142
0.0
142
0.0
142
0.0
142
0.0208333333333333
142
0.0
142
0.0
142
0.0
142
0.0
142
1.0
142
0.0
142
0.0
142
0.0
142
0.0
142
1.0
179
     0
144
0.0208333333333333
144
0.0
144
0.0
144
0.0
144
0.0
144
0.0208333333333333
144
0.0
144
0.0
144
0.0
144
0.0
144
1.0
144
0.0
144
0.0
144
0.0
144
0.0
144
1.0
147
0.0208333333333333
147
0.0
147
0.0
147
0.0
147
0.0
147
0.0208333333333333
147
0.0
147
0.0
147
0.0
147
0.0
147
1.0
147
0.0
147
0.0
147
0.0
147
0.0
147
1.0
  0
MLEADERSTYLE
  5
67
102
{ACAD_REACTORS
330
66
102
}
330
66
100
AcDbMLeaderStyle
179
     2
170
     2
171
     1
172
     0
 90
        2
 40
0.0
 41
0.0
173
     1
 91
-1056964608
340
5B
 92
       -2
290
     1
 42
0.09
291
     1
 43
0.36
  3
Standard
 44
0.18
300

342
55
174
     1
178
     6
175
     1
176
     0
 93
-1056964608
 45
0.18
292
     0
297
     0
 46
0.18
 94
-1056964608
 47
1.0
 49
1.0
140
1.0
293
     1
141
0.0
294
     1
177
     0
142
1.0
295
     1
296
     0
143
0.125
271
     0
272
     9
273
     9
298
     1
  0
MLINESTYLE
  5
60
102
{ACAD_REACTORS
330
5F
102
}
330
5F
100
AcDbMlineStyle
  2
STANDARD
 70
     0
  3

 62
   256
 51
90.0
 52
90.0
 71
     2
 49
0.5
 62
   256
  6
BYLAYER
 49
-0.5
 62
   256
  6
BYLAYER
  0
ACDBPLACEHOLDER
  5
F
102
{ACAD_REACTORS
330
E
102
}
330
E
  0
SCALE
  5
43
102
{ACAD_REACTORS
330
42
102
}
330
42
100
AcDbScale
 70
     0
300
1:1
140
1.0
141
1.0
290
     1
  0
SCALE
  5
44
102
{ACAD_REACTORS
330
42
102
}
330
42
100
AcDbScale
 70
     0
300
1/128" = 1'-0"
140
0.0078125
141
12.0
290
     0
  0
SCALE
  5
45
102
{ACAD_REACTORS
330
42
102
}
330
42
100
AcDbScale
 70
     0
300
1/64" = 1'-0"
140
0.015625
141
12.0
290
     0
  0
SCALE
  5
46
102
{ACAD_REACTORS
330
42
102
}
330
42
100
AcDbScale
 70
     0
300
1/32" = 1'-0"
140
0.03125
141
12.0
290
     0
  0
SCALE
  5
47
102
{ACAD_REACTORS
330
42
102
}
330
42
100
AcDbScale
 70
     0
300
1/16" = 1'-0"
140
0.0625
141
12.0
290
     0
  0
SCALE
  5
48
102
{ACAD_REACTORS
330
42
102
}
330
42
100
AcDbScale
 70
     0
300
3/32" = 1'-0"
140
0.09375
141
12.0
290
     0
  0
SCALE
  5
49
102
{ACAD_REACTORS
330
42
102
}
330
42
100
AcDbScale
 70
     0
300
1/8" = 1'-0"
140
0.125
141
12.0
290
     0
  0
SCALE
  5
4A
102
{ACAD_REACTORS
330
42
102
}
330
42
100
AcDbScale
 70
     0
300
3/16" = 1'-0"
140
0.1875
141
12.0
290
     0
  0
SCALE
  5
4B
102
{ACAD_REACTORS
330
42
102
}
330
42
100
AcDbScale
 70
     0
300
1/4" = 1'-0"
140
0.25
141
12.0
290
     0
  0
SCALE
  5
4C
102
{ACAD_REACTORS
330
42
102
}
330
42
100
AcDbScale
 70
     0
300
3/8" = 1'-0"
140
0.375
141
12.0
290
     0
  0
SCALE
  5
4D
102
{ACAD_REACTORS
330
42
102
}
330
42
100
AcDbScale
 70
     0
300
1/2" = 1'-0"
140
0.5
141
12.0
290
     0
  0
SCALE
  5
4E
102
{ACAD_REACTORS
330
42
102
}
330
42
100
AcDbScale
 70
     0
300
3/4" = 1'-0"
140
0.75
141
12.0
290
     0
  0
SCALE
  5
4F
102
{ACAD_REACTORS
330
42
102
}
330
42
100
AcDbScale
 70
     0
300
1" = 1'-0"
140
1.0
141
12.0
290
     0
  0
SCALE
  5
50
102
{ACAD_REACTORS
330
42
102
}
330
42
100
AcDbScale
 70
     0
300
1-1/2" = 1'-0"
140
1.5
141
12.0
290
     0
  0
SCALE
  5
51
102
{ACAD_REACTORS
330
42
102
}
330
42
100
AcDbScale
 70
     0
300
3" = 1'-0"
140
3.0
141
12.0
290
     0
  0
SCALE
  5
52
102
{ACAD_REACTORS
330
42
102
}
330
42
100
AcDbScale
 70
     0
300
6" = 1'-0"
140
6.0
141
12.0
290
     0
  0
SCALE
  5
53
102
{ACAD_REACTORS
330
42
102
}
330
42
100
AcDbScale
 70
     0
300
1'-0" = 1'-0"
140
12.0
141
12.0
290
     0
  0
ACDBSECTIONVIEWSTYLE
  5
69
102
{ACAD_REACTORS
330
68
102
}
330
68
100
AcDbModelDocViewStyle
 70
     0
  3
Imperial24
290
     1
300
Imperial24
 90
        0
100
AcDbSectionViewStyle
 70
     0
 71
     0
 90
       78
 71
     1
340
55
 62
   256
 40
0.24
340
0
340
0
 62
   256
 40
0.24
300
I, O, Q, S, X, Z
 40
0.48
 90
        3
 40
0.18
 90
        1
 71
     2
340
5D
 90
       25
 62
   256
340
5D
 90
       50
 62
   256
 40
0.24
 40
0.0
 40
0.24
 71
     3
340
55
 62
   256
 40
0.24
 90
        1
 40
0.75
 90
        1
300
%<\AcVar ViewType \f "%tc1">% %<\AcVar ViewSectionStartId>%-%<\AcVar ViewSectionEndId>%\PSCALE %<\AcVar ViewScale \f "%sn">%
 71
     4
 62
   256
 62
   257
300
ANSI31
 40
1.0
 90
        0
290
     0
290
     0
 90
        6
 40
0.0
 40
1.570796326794896
 40
0.2617993877991494
 40
1.308996938995747
 40
-0.2617993877991494
 40
1.832595714594046
  0
TABLESTYLE
  5
65
102
{ACAD_XDICTIONARY
360
168
102
}
102
{ACAD_REACTORS
330
64
102
}
330
64
100
AcDbTableStyle
280
     0
  3
Standard
 70
     0
 71
     0
 40
0.06
 41
0.06
280
     0
281
     0
  7
Standard
140
0.18
170
     2
 62
     0
 63
     7
283
     0
 90
      512
 91
        0
  1

274
    -2
284
     1
 64
     0
275
    -2
285
     1
 65
     0
276
    -2
286
     1
 66
     0
277
    -2
287
     1
 67
     0
278
    -2
288
     1
 68
     0
279
    -2
289
     1
 69
     0
  7
Standard
140
0.25
170
     5
 62
     0
 63
     7
283
     0
 90
      512
 91
        0
  1

274
    -2
284
     1
 64
     0
275
    -2
285
     1
 65
     0
276
    -2
286
     1
 66
     0
277
    -2
287
     1
 67
     0
278
    -2
288
     1
 68
     0
279
    -2
289
     1
 69
     0
  7
Standard
140
0.18
170
     5
 62
     0
 63
     7
283
     0
 90
      512
 91
        0
  1

274
    -2
284
     1
 64
     0
275
    -2
285
     1
 65
     0
276
    -2
286
     1
 66
     0
277
    -2
287
     1
 67
     0
278
    -2
288
     1
 68
     0
279
    -2
289
     1
 69
     0
  0
VISUALSTYLE
  5
2F
102
{ACAD_REACTORS
330
29
102
}
330
29
100
AcDbVisualStyle
  2
2dWireframe
 70
     4
177
     3
291
     0
 70
    58
 90
        0
176
     1
 90
        2
176
     1
 90
        0
176
     1
 90
        0
176
     1
 40
0.6
176
     1
 40
30.0
176
     1
 62
     7
420
 16777215
176
     1
 90
        1
176
     1
 90
        4
176
     1
 62
     7
176
     1
 62
   257
176
     1
 90
        1
176
     1
 90
        1
176
     1
 40
1.0
176
     1
 90
        0
176
     1
 62
   257
176
     1
 40
1.0
176
     1
 90
        1
176
     1
 90
        6
176
     1
 90
        2
176
     1
 62
     7
176
     1
 90
        5
176
     1
 90
        0
176
     1
 90
        0
176
     1
290
     0
176
     1
 90
        1
176
     1
 40
0.0
176
     1
 90
        0
176
     1
290
     1
176
     1
290
     1
176
     1
290
     0
176
     1
290
     0
176
     1
290
     0
176
     1
290
     0
176
     1
290
     0
176
     1
290
     0
176
     1
290
     0
176
     1
 90
       50
176
     1
 40
0.0
176
     1
 40
1.0
176
     1
 90
        0
176
     1
 62
    18
420
        0
176
     1
 90
       50
176
     1
 90
        3
176
     1
 62
     5
420
      255
176
     1
290
     0
176
     1
 90
       50
176
     1
 90
       50
176
     1
 90
       50
176
     1
290
     0
176
     1
 90
       50
176
     1
 62
   256
176
     0
 40
1.0
176
     0
 90
        2
176
     1
  1
strokes_ogs.tif
176
     1
290
     0
176
     1
 40
1.0
176
     1
 40
1.0
176
     1
  0
VISUALSTYLE
  5
2E
102
{ACAD_REACTORS
330
29
102
}
330
29
100
AcDbVisualStyle
  2
Basic
 70
     7
177
     3
291
     1
 70
    58
 90
        1
176
     1
 90
        0
176
     1
 90
        1
176
     1
 90
        0
176
     1
 40
0.6
176
     1
 40
30.0
176
     1
 62
     7
420
 16777215
176
     1
 90
        0
176
     1
 90
        4
176
     1
 62
     7
176
     1
 62
   257
176
     1
 90
        1
176
     1
 90
        1
176
     1
 40
1.0
176
     1
 90
        8
176
     1
 62
     7
176
     1
 40
1.0
176
     1
 90
        1
176
     1
 90
        6
176
     1
 90
        2
176
     1
 62
     7
176
     1
 90
        5
176
     1
 90
        0
176
     1
 90
        0
176
     1
290
     0
176
     1
 90
        1
176
     1
 40
0.0
176
     1
 90
        0
176
     1
290
     0
176
     1
290
     1
176
     1
290
     1
176
     1
290
     0
176
     1
290
     0
176
     1
290
     0
176
     1
290
     0
176
     1
290
     0
176
     1
290
     0
176
     1
 90
       50
176
     1
 40
0.0
176
     1
 40
1.0
176
     1
 90
        0
176
     1
 62
    18
420
        0
176
     1
 90
       50
176
     1
 90
        3
176
     1
 62
     5
420
      255
176
     1
290
     0
176
     1
 90
       50
176
     1
 90
       50
176
     1
 90
       50
176
     1
290
     0
176
     1
 90
       50
176
     1
 62
   256
176
     0
 40
1.0
176
     0
 90
        2
176
     1
  1
strokes_ogs.tif
176
     1
290
     0
176
     1
 40
1.0
176
     1
 40
1.0
176
     1
  0
VISUALSTYLE
  5
35
102
{ACAD_REACTORS
330
29
102
}
330
29
100
AcDbVisualStyle
  2
Brighten
 70
    12
177
     3
291
     1
 70
    58
 90
        2
176
     1
 90
        2
176
     1
 90
        0
176
     1
 90
        0
176
     1
 40
0.6
176
     1
 40
30.0
176
     1
 62
     7
420
 16777215
176
     1
 90
        1
176
     1
 90
        4
176
     1
 62
     7
176
     1
 62
   257
176
     1
 90
        1
176
     1
 90
        1
176
     1
 40
1.0
176
     1
 90
        8
176
     1
 62
     7
176
     1
 40
1.0
176
     1
 90
        1
176
     1
 90
        6
176
     1
 90
        2
176
     1
 62
     7
176
     1
 90
        5
176
     1
 90
        0
176
     1
 90
        0
176
     1
290
     0
176
     1
 90
        1
176
     1
 40
50.0
176
     1
 90
        0
176
     1
290
     0
176
     1
290
     1
176
     1
290
     1
176
     1
290
     0
176
     1
290
     0
176
     1
290
     0
176
     1
290
     0
176
     1
290
     0
176
     1
290
     0
176
     1
 90
       50
176
     1
 40
0.0
176
     1
 40
1.0
176
     1
 90
        0
176
     1
 62
    18
420
        0
176
     1
 90
       50
176
     1
 90
        3
176
     1
 62
     5
420
      255
176
     1
290
     0
176
     1
 90
       50
176
     1
 90
       50
176
     1
 90
       50
176
     1
290
     0
176
     1
 90
       50
176
     1
 62
   256
176
     0
 40
1.0
176
     0
 90
        2
176
     1
  1
strokes_ogs.tif
176
     1
290
     0
176
     1
 40
1.0
176
     1
 40
1.0
176
     1
  0
VISUALSTYLE
  5
39
102
{ACAD_REACTORS
330
29
102
}
330
29
100
AcDbVisualStyle
  2
ColorChange
 70
    16
177
     3
291
     1
 70
    58
 90
        2
176
     1
 90
        2
176
     1
 90
        3
176
     1
 90
        0
176
     1
 40
0.6
176
     1
 40
30.0
176
     1
 62
     8
420
  8421504
176
     1
 90
        1
176
     1
 90
        4
176
     1
 62
     7
176
     1
 62
   257
176
     1
 90
        1
176
     1
 90
        1
176
     1
 40
1.0
176
     1
 90
        8
176
     1
 62
     8
420
  8421504
176
     1
 40
1.0
176
     1
 90
        1
176
     1
 90
        6
176
     1
 90
        2
176
     1
 62
     7
176
     1
 90
        5
176
     1
 90
        0
176
     1
 90
        0
176
     1
290
     0
176
     1
 90
        1
176
     1
 40
0.0
176
     1
 90
        0
176
     1
290
     0
176
     1
290
     1
176
     1
290
     1
176
     1
290
     0
176
     1
290
     0
176
     1
290
     0
176
     1
290
     0
176
     1
290
     0
176
     1
290
     0
176
     1
 90
       50
176
     1
 40
0.0
176
     1
 40
1.0
176
     1
 90
        0
176
     1
 62
    18
420
        0
176
     1
 90
       50
176
     1
 90
        3
176
     1
 62
     5
420
      255
176
     1
290
     0
176
     1
 90
       50
176
     1
 90
       50
176
     1
 90
       50
176
     1
290
     0
176
     1
 90
       50
176
     1
 62
   256
176
     0
 40
1.0
176
     0
 90
        2
176
     1
  1
strokes_ogs.tif
176
     1
290
     0
176
     1
 40
1.0
176
     1
 40
1.0
176
     1
  0
VISUALSTYLE
  5
32
102
{ACAD_REACTORS
330
29
102
}
330
29
100
AcDbVisualStyle
  2
Conceptual
 70
     9
177
     3
291
     0
 70
    58
 90
        3
176
     1
 90
        2
176
     1
 90
        0
176
     1
 90
        0
176
     1
 40
0.6
176
     1
 40
30.0
176
     1
 62
     7
420
 16777215
176
     1
 90
        2
176
     1
 90
        2
176
     1
 62
     7
176
     1
 62
   257
176
     1
 90
        1
176
     1
 90
        1
176
     1
 40
179.0
176
     1
 90
        8
176
     1
 62
     7
176
     1
 40
1.0
176
     1
 90
        1
176
     1
 90
        6
176
     1
 90
        2
176
     1
 62
     7
176
     1
 90
        3
176
     1
 90
        0
176
     1
 90
        0
176
     1
290
     0
176
     1
 90
        1
176
     1
 40
0.0
176
     1
 90
        0
176
     1
290
     0
176
     1
290
     1
176
     1
290
     1
176
     1
290
     0
176
     1
290
     0
176
     1
290
     0
176
     1
290
     0
176
     1
290
     0
176
     1
290
     0
176
     1
 90
       50
176
     1
 40
0.0
176
     1
 40
1.0
176
     1
 90
        0
176
     1
 62
    18
420
        0
176
     1
 90
       50
176
     1
 90
        3
176
     1
 62
     5
420
      255
176
     1
290
     0
176
     1
 90
       50
176
     1
 90
       50
176
     1
 90
       50
176
     1
290
     0
176
     1
 90
       50
176
     1
 62
   256
176
     0
 40
1.0
176
     0
 90
        2
176
     1
  1
strokes_ogs.tif
176
     1
290
     0
176
     1
 40
1.0
176
     1
 40
1.0
176
     1
  0
VISUALSTYLE
  5
34
102
{ACAD_REACTORS
330
29
102
}
330
29
100
AcDbVisualStyle
  2
Dim
 70
    11
177
     3
291
     1
 70
    58
 90
        2
176
     1
 90
        2
176
     1
 90
        0
176
     1
 90
        0
176
     1
 40
0.6
176
     1
 40
30.0
176
     1
 62
     7
420
 16777215
176
     1
 90
        1
176
     1
 90
        4
176
     1
 62
     7
176
     1
 62
   257
176
     1
 90
        1
176
     1
 90
        1
176
     1
 40
1.0
176
     1
 90
        8
176
     1
 62
     7
176
     1
 40
1.0
176
     1
 90
        1
176
     1
 90
        6
176
     1
 90
        2
176
     1
 62
     7
176
     1
 90
        5
176
     1
 90
        0
176
     1
 90
        0
176
     1
290
     0
176
     1
 90
        1
176
     1
 40
-50.0
176
     1
 90
        0
176
     1
290
     0
176
     1
290
     1
176
     1
290
     1
176
     1
290
     0
176
     1
290
     0
176
     1
290
     0
176
     1
290
     0
176
     1
290
     0
176
     1
290
     0
176
     1
 90
       50
176
     1
 40
0.0
176
     1
 40
1.0
176
     1
 90
        0
176
     1
 62
    18
420
        0
176
     1
 90
       50
176
     1
 90
        3
176
     1
 62
     5
420
      255
176
     1
290
     0
176
     1
 90
       50
176
     1
 90
       50
176
     1
 90
       50
176
     1
290
     0
176
     1
 90
       50
176
     1
 62
   256
176
     0
 40
1.0
176
     0
 90
        2
176
     1
  1
strokes_ogs.tif
176
     1
290
     0
176
     1
 40
1.0
176
     1
 40
1.0
176
     1
  0
VISUALSTYLE
  5
41
102
{ACAD_REACTORS
330
29
102
}
330
29
100
AcDbVisualStyle
  2
EdgeColorOff
 70
    22
177
     3
291
     1
 70
    58
 90
        2
176
     0
 90
        2
176
     0
 90
        0
176
     0
 90
        0
176
     0
 40
0.6
176
     0
 40
30.0
176
     0
 62
     7
420
 16777215
176
     0
 90
        1
176
     0
 90
        4
176
     0
 62
     7
176
     0
 62
   257
176
     0
 90
        1
176
     0
 90
        1
176
     0
 40
1.0
176
     0
 90
        8
176
     2
 62
     7
176
     0
 40
1.0
176
     0
 90
        1
176
     0
 90
        6
176
     0
 90
        2
176
     0
 62
     7
176
     0
 90
        5
176
     0
 90
        0
176
     0
 90
        0
176
     0
290
     0
176
     0
 90
        1
176
     0
 40
0.0
176
     0
 90
        0
176
     0
290
     0
176
     0
290
     1
176
     0
290
     1
176
     0
290
     0
176
     0
290
     0
176
     0
290
     0
176
     0
290
     0
176
     0
290
     0
176
     0
290
     0
176
     0
 90
       50
176
     0
 40
0.0
176
     0
 40
1.0
176
     0
 90
        0
176
     0
 62
    18
420
        0
176
     0
 90
       50
176
     0
 90
        3
176
     0
 62
     5
420
      255
176
     0
290
     0
176
     0
 90
       50
176
     0
 90
       50
176
     0
 90
       50
176
     0
290
     0
176
     0
 90
       50
176
     0
 62
   256
176
     0
 40
1.0
176
     0
 90
        2
176
     0
  1
strokes_ogs.tif
176
     0
290
     0
176
     0
 40
1.0
176
     0
 40
1.0
176
     0
  0
VISUALSTYLE
  5
38
102
{ACAD_REACTORS
330
29
102
}
330
29
100
AcDbVisualStyle
  2
Facepattern
 70
    15
177
     3
291
     1
 70
    58
 90
        2
176
     1
 90
        2
176
     1
 90
        0
176
     1
 90
        0
176
     1
 40
0.6
176
     1
 40
30.0
176
     1
 62
     7
420
 16777215
176
     1
 90
        1
176
     1
 90
        4
176
     1
 62
     7
176
     1
 62
   257
176
     1
 90
        1
176
     1
 90
        1
176
     1
 40
1.0
176
     1
 90
        8
176
     1
 62
     7
176
     1
 40
1.0
176
     1
 90
        1
176
     1
 90
        6
176
     1
 90
        2
176
     1
 62
     7
176
     1
 90
        5
176
     1
 90
        0
176
     1
 90
        0
176
     1
290
     0
176
     1
 90
        1
176
     1
 40
0.0
176
     1
 90
        0
176
     1
290
     0
176
     1
290
     1
176
     1
290
     1
176
     1
290
     0
176
     1
290
     0
176
     1
290
     0
176
     1
290
     0
176
     1
290
     0
176
     1
290
     0
176
     1
 90
       50
176
     1
 40
0.0
176
     1
 40
1.0
176
     1
 90
        0
176
     1
 62
    18
420
        0
176
     1
 90
       50
176
     1
 90
        3
176
     1
 62
     5
420
      255
176
     1
290
     0
176
     1
 90
       50
176
     1
 90
       50
176
     1
 90
       50
176
     1
290
     0
176
     1
 90
       50
176
     1
 62
   256
176
     0
 40
1.0
176
     0
 90
        2
176
     1
  1
strokes_ogs.tif
176
     1
290
     0
176
     1
 40
1.0
176
     1
 40
1.0
176
     1
  0
VISUALSTYLE
  5
2A
102
{ACAD_REACTORS
330
29
102
}
330
29
100
AcDbVisualStyle
  2
Flat
 70
     0
177
     3
291
     1
 70
    58
 90
        2
176
     1
 90
        1
176
     1
 90
        1
176
     1
 90
        2
176
     1
 40
0.6
176
     1
 40
30.0
176
     1
 62
     7
420
 16777215
176
     1
 90
        0
176
     1
 90
        0
176
     1
 62
     7
176
     1
 62
   257
176
     1
 90
        1
176
     1
 90
        1
176
     1
 40
1.0
176
     1
 90
        8
176
     1
 62
     7
176
     1
 40
1.0
176
     1
 90
        1
176
     1
 90
        6
176
     1
 90
        2
176
     1
 62
     7
176
     1
 90
        5
176
     1
 90
        0
176
     1
 90
        0
176
     1
290
     0
176
     1
 90
       13
176
     1
 40
0.0
176
     1
 90
        0
176
     1
290
     0
176
     1
290
     1
176
     1
290
     1
176
     1
290
     0
176
     1
290
     0
176
     1
290
     0
176
     1
290
     0
176
     1
290
     0
176
     1
290
     0
176
     1
 90
       50
176
     1
 40
0.0
176
     1
 40
1.0
176
     1
 90
        0
176
     1
 62
    18
420
        0
176
     1
 90
       50
176
     1
 90
        3
176
     1
 62
     5
420
      255
176
     1
290
     0
176
     1
 90
       50
176
     1
 90
       50
176
     1
 90
       50
176
     1
290
     0
176
     1
 90
       50
176
     1
 62
   256
176
     0
 40
1.0
176
     0
 90
        2
176
     1
  1
strokes_ogs.tif
176
     1
290
     0
176
     1
 40
1.0
176
     1
 40
1.0
176
     1
  0
VISUALSTYLE
  5
2B
102
{ACAD_REACTORS
330
29
102
}
330
29
100
AcDbVisualStyle
  2
FlatWithEdges
 70
     1
177
     3
291
     1
 70
    58
 90
        2
176
     1
 90
        1
176
     1
 90
        1
176
     1
 90
        2
176
     1
 40
0.6
176
     1
 40
30.0
176
     1
 62
     7
420
 16777215
176
     1
 90
        1
176
     1
 90
        0
176
     1
 62
     7
176
     1
 62
   257
176
     1
 90
        1
176
     1
 90
        1
176
     1
 40
1.0
176
     1
 90
        0
176
     1
 62
   257
176
     1
 40
1.0
176
     1
 90
        1
176
     1
 90
        6
176
     1
 90
        2
176
     1
 62
     7
176
     1
 90
        5
176
     1
 90
        0
176
     1
 90
        0
176
     1
290
     0
176
     1
 90
       13
176
     1
 40
0.0
176
     1
 90
        0
176
     1
290
     0
176
     1
290
     1
176
     1
290
     1
176
     1
290
     0
176
     1
290
     0
176
     1
290
     0
176
     1
290
     0
176
     1
290
     0
176
     1
290
     0
176
     1
 90
       50
176
     1
 40
0.0
176
     1
 40
1.0
176
     1
 90
        0
176
     1
 62
    18
420
        0
176
     1
 90
       50
176
     1
 90
        3
176
     1
 62
     5
420
      255
176
     1
290
     0
176
     1
 90
       50
176
     1
 90
       50
176
     1
 90
       50
176
     1
290
     0
176
     1
 90
       50
176
     1
 62
   256
176
     0
 40
1.0
176
     0
 90
        2
176
     1
  1
strokes_ogs.tif
176
     1
290
     0
176
     1
 40
1.0
176
     1
 40
1.0
176
     1
  0
VISUALSTYLE
  5
2C
102
{ACAD_REACTORS
330
29
102
}
330
29
100
AcDbVisualStyle
  2
Gouraud
 70
     2
177
     3
291
     1
 70
    58
 90
        2
176
     1
 90
        2
176
     1
 90
        1
176
     1
 90
        2
176
     1
 40
0.6
176
     1
 40
30.0
176
     1
 62
     7
420
 16777215
176
     1
 90
        0
176
     1
 90
        0
176
     1
 62
     7
176
     1
 62
   257
176
     1
 90
        1
176
     1
 90
        1
176
     1
 40
1.0
176
     1
 90
        0
176
     1
 62
     7
176
     1
 40
1.0
176
     1
 90
        1
176
     1
 90
        6
176
     1
 90
        2
176
     1
 62
     7
176
     1
 90
        5
176
     1
 90
        0
176
     1
 90
        0
176
     1
290
     0
176
     1
 90
       13
176
     1
 40
0.0
176
     1
 90
        0
176
     1
290
     0
176
     1
290
     1
176
     1
290
     1
176
     1
290
     0
176
     1
290
     0
176
     1
290
     0
176
     1
290
     0
176
     1
290
     0
176
     1
290
     0
176
     1
 90
       50
176
     1
 40
0.0
176
     1
 40
1.0
176
     1
 90
        0
176
     1
 62
    18
420
        0
176
     1
 90
       50
176
     1
 90
        3
176
     1
 62
     5
420
      255
176
     1
290
     0
176
     1
 90
       50
176
     1
 90
       50
176
     1
 90
       50
176
     1
290
     0
176
     1
 90
       50
176
     1
 62
   256
176
     0
 40
1.0
176
     0
 90
        2
176
     1
  1
strokes_ogs.tif
176
     1
290
     0
176
     1
 40
1.0
176
     1
 40
1.0
176
     1
  0
VISUALSTYLE
  5
2D
102
{ACAD_REACTORS
330
29
102
}
330
29
100
AcDbVisualStyle
  2
GouraudWithEdges
 70
     3
177
     3
291
     1
 70
    58
 90
        2
176
     1
 90
        2
176
     1
 90
        1
176
     1
 90
        2
176
     1
 40
0.6
176
     1
 40
30.0
176
     1
 62
     7
420
 16777215
176
     1
 90
        1
176
     1
 90
        0
176
     1
 62
     7
176
     1
 62
   257
176
     1
 90
        1
176
     1
 90
        1
176
     1
 40
1.0
176
     1
 90
        0
176
     1
 62
   257
176
     1
 40
1.0
176
     1
 90
        1
176
     1
 90
        6
176
     1
 90
        2
176
     1
 62
     7
176
     1
 90
        5
176
     1
 90
        0
176
     1
 90
        0
176
     1
290
     0
176
     1
 90
       13
176
     1
 40
0.0
176
     1
 90
        0
176
     1
290
     0
176
     1
290
     1
176
     1
290
     1
176
     1
290
     0
176
     1
290
     0
176
     1
290
     0
176
     1
290
     0
176
     1
290
     0
176
     1
290
     0
176
     1
 90
       50
176
     1
 40
0.0
176
     1
 40
1.0
176
     1
 90
        0
176
     1
 62
    18
420
        0
176
     1
 90
       50
176
     1
 90
        3
176
     1
 62
     5
420
      255
176
     1
290
     0
176
     1
 90
       50
176
     1
 90
       50
176
     1
 90
       50
176
     1
290
     0
176
     1
 90
       50
176
     1
 62
   256
176
     0
 40
1.0
176
     0
 90
        2
176
     1
  1
strokes_ogs.tif
176
     1
290
     0
176
     1
 40
1.0
176
     1
 40
1.0
176
     1
  0
VISUALSTYLE
  5
31
102
{ACAD_REACTORS
330
29
102
}
330
29
100
AcDbVisualStyle
  2
Hidden
 70
     6
177
     3
291
     0
 70
    58
 90
        1
176
     1
 90
        2
176
     1
 90
        2
176
     1
 90
        0
176
     1
 40
0.6
176
     1
 40
30.0
176
     1
 62
     7
420
 16777215
176
     1
 90
        2
176
     1
 90
        2
176
     1
 62
     7
176
     1
 62
   257
176
     1
 90
        2
176
     1
 90
        1
176
     1
 40
40.0
176
     1
 90
        0
176
     1
 62
   257
176
     1
 40
1.0
176
     1
 90
        1
176
     1
 90
        6
176
     1
 90
        2
176
     1
 62
     7
176
     1
 90
        3
176
     1
 90
        0
176
     1
 90
        0
176
     1
290
     0
176
     1
 90
        1
176
     1
 40
0.0
176
     1
 90
        0
176
     1
290
     0
176
     1
290
     1
176
     1
290
     1
176
     1
290
     0
176
     1
290
     0
176
     1
290
     0
176
     1
290
     0
176
     1
290
     0
176
     1
290
     0
176
     1
 90
       50
176
     1
 40
0.0
176
     1
 40
1.0
176
     1
 90
        0
176
     1
 62
    18
420
        0
176
     1
 90
       50
176
     1
 90
        3
176
     1
 62
     5
420
      255
176
     1
290
     0
176
     1
 90
       50
176
     1
 90
       50
176
     1
 90
       50
176
     1
290
     0
176
     1
 90
       50
176
     1
 62
   256
176
     0
 40
1.0
176
     0
 90
        2
176
     1
  1
strokes_ogs.tif
176
     1
290
     0
176
     1
 40
1.0
176
     1
 40
1.0
176
     1
  0
VISUALSTYLE
  5
3F
102
{ACAD_REACTORS
330
29
102
}
330
29
100
AcDbVisualStyle
  2
JitterOff
 70
    20
177
     3
291
     1
 70
    58
 90
        2
176
     0
 90
        2
176
     0
 90
        0
176
     0
 90
        0
176
     0
 40
0.6
176
     0
 40
30.0
176
     0
 62
     7
420
 16777215
176
     0
 90
        1
176
     0
 90
        4
176
     0
 62
     7
176
     0
 62
   257
176
     0
 90
        1
176
     0
 90
        1
176
     0
 40
1.0
176
     0
 90
       10
176
     2
 62
     7
176
     0
 40
1.0
176
     0
 90
        1
176
     0
 90
        6
176
     0
 90
        2
176
     0
 62
     7
176
     0
 90
        5
176
     0
 90
        0
176
     0
 90
        0
176
     0
290
     0
176
     0
 90
        1
176
     0
 40
0.0
176
     0
 90
        0
176
     0
290
     0
176
     0
290
     1
176
     0
290
     1
176
     0
290
     0
176
     0
290
     0
176
     0
290
     0
176
     0
290
     0
176
     0
290
     0
176
     0
290
     0
176
     0
 90
       50
176
     0
 40
0.0
176
     0
 40
1.0
176
     0
 90
        0
176
     0
 62
    18
420
        0
176
     0
 90
       50
176
     0
 90
        3
176
     0
 62
     5
420
      255
176
     0
290
     0
176
     0
 90
       50
176
     0
 90
       50
176
     0
 90
       50
176
     0
290
     0
176
     0
 90
       50
176
     0
 62
   256
176
     0
 40
1.0
176
     0
 90
        2
176
     0
  1
strokes_ogs.tif
176
     0
290
     0
176
     0
 40
1.0
176
     0
 40
1.0
176
     0
  0
VISUALSTYLE
  5
37
102
{ACAD_REACTORS
330
29
102
}
330
29
100
AcDbVisualStyle
  2
Linepattern
 70
    14
177
     3
291
     1
 70
    58
 90
        2
176
     1
 90
        2
176
     1
 90
        0
176
     1
 90
        0
176
     1
 40
0.6
176
     1
 40
30.0
176
     1
 62
     7
420
 16777215
176
     1
 90
        1
176
     1
 90
        4
176
     1
 62
     7
176
     1
 62
   257
176
     1
 90
        7
176
     1
 90
        7
176
     1
 40
1.0
176
     1
 90
        8
176
     1
 62
     7
176
     1
 40
1.0
176
     1
 90
        1
176
     1
 90
        6
176
     1
 90
        2
176
     1
 62
     7
176
     1
 90
        5
176
     1
 90
        0
176
     1
 90
        0
176
     1
290
     0
176
     1
 90
        1
176
     1
 40
0.0
176
     1
 90
        0
176
     1
290
     0
176
     1
290
     1
176
     1
290
     1
176
     1
290
     0
176
     1
290
     0
176
     1
290
     0
176
     1
290
     0
176
     1
290
     0
176
     1
290
     0
176
     1
 90
       50
176
     1
 40
0.0
176
     1
 40
1.0
176
     1
 90
        0
176
     1
 62
    18
420
        0
176
     1
 90
       50
176
     1
 90
        3
176
     1
 62
     5
420
      255
176
     1
290
     0
176
     1
 90
       50
176
     1
 90
       50
176
     1
 90
       50
176
     1
290
     0
176
     1
 90
       50
176
     1
 62
   256
176
     0
 40
1.0
176
     0
 90
        2
176
     1
  1
strokes_ogs.tif
176
     1
290
     0
176
     1
 40
1.0
176
     1
 40
1.0
176
     1
  0
VISUALSTYLE
  5
40
102
{ACAD_REACTORS
330
29
102
}
330
29
100
AcDbVisualStyle
  2
OverhangOff
 70
    21
177
     3
291
     1
 70
    58
 90
        2
176
     0
 90
        2
176
     0
 90
        0
176
     0
 90
        0
176
     0
 40
0.6
176
     0
 40
30.0
176
     0
 62
     7
420
 16777215
176
     0
 90
        1
176
     0
 90
        4
176
     0
 62
     7
176
     0
 62
   257
176
     0
 90
        1
176
     0
 90
        1
176
     0
 40
1.0
176
     0
 90
        9
176
     2
 62
     7
176
     0
 40
1.0
176
     0
 90
        1
176
     0
 90
        6
176
     0
 90
        2
176
     0
 62
     7
176
     0
 90
        5
176
     0
 90
        0
176
     0
 90
        0
176
     0
290
     0
176
     0
 90
        1
176
     0
 40
0.0
176
     0
 90
        0
176
     0
290
     0
176
     0
290
     1
176
     0
290
     1
176
     0
290
     0
176
     0
290
     0
176
     0
290
     0
176
     0
290
     0
176
     0
290
     0
176
     0
290
     0
176
     0
 90
       50
176
     0
 40
0.0
176
     0
 40
1.0
176
     0
 90
        0
176
     0
 62
    18
420
        0
176
     0
 90
       50
176
     0
 90
        3
176
     0
 62
     5
420
      255
176
     0
290
     0
176
     0
 90
       50
176
     0
 90
       50
176
     0
 90
       50
176
     0
290
     0
176
     0
 90
       50
176
     0
 62
   256
176
     0
 40
1.0
176
     0
 90
        2
176
     0
  1
strokes_ogs.tif
176
     0
290
     0
176
     0
 40
1.0
176
     0
 40
1.0
176
     0
  0
VISUALSTYLE
  5
33
102
{ACAD_REACTORS
330
29
102
}
330
29
100
AcDbVisualStyle
  2
Realistic
 70
     8
177
     3
291
     0
 70
    58
 90
        2
176
     1
 90
        3
176
     1
 90
        0
176
     1
 90
        2
176
     1
 40
0.6
176
     1
 40
30.0
176
     1
 62
     7
420
 16777215
176
     1
 90
        0
176
     1
 90
        0
176
     1
 62
     7
176
     1
 62
   257
176
     1
 90
        1
176
     1
 90
        1
176
     1
 40
1.0
176
     1
 90
        8
176
     1
 62
   257
176
     1
 40
1.0
176
     1
 90
        1
176
     1
 90
        6
176
     1
 90
        2
176
     1
 62
     7
176
     1
 90
        3
176
     1
 90
        0
176
     1
 90
        0
176
     1
290
     0
176
     1
 90
       13
176
     1
 40
0.0
176
     1
 90
        0
176
     1
290
     0
176
     1
290
     1
176
     1
290
     1
176
     1
290
     0
176
     1
290
     0
176
     1
290
     0
176
     1
290
     0
176
     1
290
     0
176
     1
290
     0
176
     1
 90
       50
176
     1
 40
0.0
176
     1
 40
1.0
176
     1
 90
        0
176
     1
 62
    18
420
        0
176
     1
 90
       50
176
     1
 90
        3
176
     1
 62
     5
420
      255
176
     1
290
     0
176
     1
 90
       50
176
     1
 90
       50
176
     1
 90
       50
176
     1
290
     0
176
     1
 90
       50
176
     1
 62
   256
176
     0
 40
1.0
176
     0
 90
        2
176
     1
  1
strokes_ogs.tif
176
     1
290
     0
176
     1
 40
1.0
176
     1
 40
1.0
176
     1
  0
VISUALSTYLE
  5
3E
102
{ACAD_REACTORS
330
29
102
}
330
29
100
AcDbVisualStyle
  2
Shaded
 70
    27
177
     3
291
     0
 70
    58
 90
        2
176
     1
 90
        2
176
     1
 90
        1
176
     1
 90
        2
176
     1
 40
0.6
176
     1
 40
30.0
176
     1
 62
     7
420
 16777215
176
     1
 90
        0
176
     1
 90
        4
176
     1
 62
     7
176
     1
 62
   257
176
     1
 90
        1
176
     1
 90
        1
176
     1
 40
1.0
176
     1
 90
        8
176
     1
 62
   257
176
     1
 40
1.0
176
     1
 90
        1
176
     1
 90
        6
176
     1
 90
        2
176
     1
 62
     8
420
  7895160
176
     1
 90
        3
176
     1
 90
        0
176
     1
 90
        0
176
     1
290
     0
176
     1
 90
        5
176
     1
 40
0.0
176
     1
 90
        0
176
     1
290
     0
176
     1
290
     1
176
     1
290
     1
176
     1
290
     0
176
     1
290
     0
176
     1
290
     0
176
     1
290
     0
176
     1
290
     0
176
     1
290
     0
176
     1
 90
       50
176
     1
 40
0.0
176
     1
 40
1.0
176
     1
 90
        0
176
     1
 62
    18
420
        0
176
     1
 90
       50
176
     1
 90
        3
176
     1
 62
     5
420
      255
176
     1
290
     0
176
     1
 90
       50
176
     1
 90
       50
176
     1
 90
       50
176
     1
290
     0
176
     1
 90
       50
176
     1
 62
   256
176
     0
 40
1.0
176
     0
 90
        2
176
     1
  1
strokes_ogs.tif
176
     1
290
     0
176
     1
 40
1.0
176
     1
 40
1.0
176
     1
  0
VISUALSTYLE
  5
3D
102
{ACAD_REACTORS
330
29
102
}
330
29
100
AcDbVisualStyle
  2
Shaded with edges
 70
    26
177
     3
291
     0
 70
    58
 90
        2
176
     1
 90
        2
176
     1
 90
        1
176
     1
 90
        2
176
     1
 40
0.6
176
     1
 40
30.0
176
     1
 62
     7
420
 16777215
176
     1
 90
        1
176
     1
 90
        2
176
     1
 62
     7
176
     1
 62
   257
176
     1
 90
        2
176
     1
 90
        1
176
     1
 40
1.0
176
     1
 90
        8
176
     1
 62
   257
176
     1
 40
1.0
176
     1
 90
        1
176
     1
 90
        6
176
     1
 90
        2
176
     1
 62
     7
176
     1
 90
        3
176
     1
 90
        0
176
     1
 90
        0
176
     1
290
     0
176
     1
 90
        5
176
     1
 40
0.0
176
     1
 90
        0
176
     1
290
     0
176
     1
290
     1
176
     1
290
     1
176
     1
290
     0
176
     1
290
     0
176
     1
290
     0
176
     1
290
     0
176
     1
290
     0
176
     1
290
     0
176
     1
 90
       50
176
     1
 40
0.0
176
     1
 40
1.0
176
     1
 90
        0
176
     1
 62
    18
420
        0
176
     1
 90
       50
176
     1
 90
        3
176
     1
 62
     5
420
      255
176
     1
290
     0
176
     1
 90
       50
176
     1
 90
       50
176
     1
 90
       50
176
     1
290
     0
176
     1
 90
       50
176
     1
 62
   256
176
     0
 40
1.0
176
     0
 90
        2
176
     1
  1
strokes_ogs.tif
176
     1
290
     0
176
     1
 40
1.0
176
     1
 40
1.0
176
     1
  0
VISUALSTYLE
  5
3A
102
{ACAD_REACTORS
330
29
102
}
330
29
100
AcDbVisualStyle
  2
Shades of Gray
 70
    23
177
     3
291
     0
 70
    58
 90
        2
176
     1
 90
        2
176
     1
 90
        3
176
     1
 90
        0
176
     1
 40
0.6
176
     1
 40
30.0
176
     1
 62
     7
420
 16777215
176
     1
 90
        2
176
     1
 90
        2
176
     1
 62
     7
176
     1
 62
     7
176
     1
 90
        1
176
     1
 90
        1
176
     1
 40
40.0
176
     1
 90
        8
176
     1
 62
     7
176
     1
 40
1.0
176
     1
 90
        1
176
     1
 90
        6
176
     1
 90
        2
176
     1
 62
     7
176
     1
 90
        3
176
     1
 90
        0
176
     1
 90
        0
176
     1
290
     0
176
     1
 90
        1
176
     1
 40
0.0
176
     1
 90
        0
176
     1
290
     0
176
     1
290
     1
176
     1
290
     1
176
     1
290
     0
176
     1
290
     0
176
     1
290
     0
176
     1
290
     0
176
     1
290
     0
176
     1
290
     0
176
     1
 90
       50
176
     1
 40
0.0
176
     1
 40
1.0
176
     1
 90
        0
176
     1
 62
    18
420
        0
176
     1
 90
       50
176
     1
 90
        3
176
     1
 62
     5
420
      255
176
     1
290
     0
176
     1
 90
       50
176
     1
 90
       50
176
     1
 90
       50
176
     1
290
     0
176
     1
 90
       50
176
     1
 62
   256
176
     0
 40
1.0
176
     0
 90
        2
176
     1
  1
strokes_ogs.tif
176
     1
290
     0
176
     1
 40
1.0
176
     1
 40
1.0
176
     1
  0
VISUALSTYLE
  5
3B
102
{ACAD_REACTORS
330
29
102
}
330
29
100
AcDbVisualStyle
  2
Sketchy
 70
    24
177
     3
291
     0
 70
    58
 90
        1
176
     1
 90
        2
176
     1
 90
        2
176
     1
 90
        0
176
     1
 40
0.6
176
     1
 40
30.0
176
     1
 62
     7
420
 16777215
176
     1
 90
        2
176
     1
 90
        2
176
     1
 62
     7
176
     1
 62
     7
176
     1
 90
        1
176
     1
 90
        1
176
     1
 40
40.0
176
     1
 90
       11
176
     1
 62
     7
176
     1
 40
1.0
176
     1
 90
        1
176
     1
 90
        6
176
     1
 90
        2
176
     1
 62
     7
176
     1
 90
        6
176
     1
 90
        0
176
     1
 90
        0
176
     1
290
     0
176
     1
 90
        1
176
     1
 40
0.0
176
     1
 90
        0
176
     1
290
     0
176
     1
290
     1
176
     1
290
     1
176
     1
290
     0
176
     1
290
     0
176
     1
290
     0
176
     1
290
     0
176
     1
290
     0
176
     1
290
     0
176
     1
 90
       50
176
     1
 40
0.0
176
     1
 40
1.0
176
     1
 90
        0
176
     1
 62
    18
420
        0
176
     1
 90
       50
176
     1
 90
        3
176
     1
 62
     5
420
      255
176
     1
290
     0
176
     1
 90
       50
176
     1
 90
       50
176
     1
 90
       50
176
     1
290
     0
176
     1
 90
       50
176
     1
 62
   256
176
     0
 40
1.0
176
     0
 90
        2
176
     1
  1
strokes_ogs.tif
176
     1
290
     0
176
     1
 40
1.0
176
     1
 40
1.0
176
     1
  0
VISUALSTYLE
  5
36
102
{ACAD_REACTORS
330
29
102
}
330
29
100
AcDbVisualStyle
  2
Thicken
 70
    13
177
     3
291
     1
 70
    58
 90
        2
176
     1
 90
        2
176
     1
 90
        0
176
     1
 90
        0
176
     1
 40
0.6
176
     1
 40
30.0
176
     1
 62
     7
420
 16777215
176
     1
 90
        1
176
     1
 90
        4
176
     1
 62
     7
176
     1
 62
   257
176
     1
 90
        1
176
     1
 90
        1
176
     1
 40
1.0
176
     1
 90
       12
176
     1
 62
     7
176
     1
 40
1.0
176
     1
 90
        1
176
     1
 90
        6
176
     1
 90
        2
176
     1
 62
     7
176
     1
 90
        5
176
     1
 90
        0
176
     1
 90
        0
176
     1
290
     0
176
     1
 90
        1
176
     1
 40
0.0
176
     1
 90
        0
176
     1
290
     0
176
     1
290
     1
176
     1
290
     1
176
     1
290
     0
176
     1
290
     0
176
     1
290
     0
176
     1
290
     0
176
     1
290
     0
176
     1
290
     0
176
     1
 90
       50
176
     1
 40
0.0
176
     1
 40
1.0
176
     1
 90
        0
176
     1
 62
    18
420
        0
176
     1
 90
       50
176
     1
 90
        3
176
     1
 62
     5
420
      255
176
     1
290
     0
176
     1
 90
       50
176
     1
 90
       50
176
     1
 90
       50
176
     1
290
     0
176
     1
 90
       50
176
     1
 62
   256
176
     0
 40
1.0
176
     0
 90
        2
176
     1
  1
strokes_ogs.tif
176
     1
290
     0
176
     1
 40
1.0
176
     1
 40
1.0
176
     1
  0
VISUALSTYLE
  5
30
102
{ACAD_REACTORS
330
29
102
}
330
29
100
AcDbVisualStyle
  2
Wireframe
 70
     5
177
     3
291
     0
 70
    58
 90
        0
176
     1
 90
        2
176
     1
 90
        0
176
     1
 90
        0
176
     1
 40
0.6
176
     1
 40
30.0
176
     1
 62
     7
420
 16777215
176
     1
 90
        1
176
     1
 90
        4
176
     1
 62
     7
176
     1
 62
   257
176
     1
 90
        1
176
     1
 90
        1
176
     1
 40
1.0
176
     1
 90
        0
176
     1
 62
   257
176
     1
 40
1.0
176
     1
 90
        1
176
     1
 90
        6
176
     1
 90
        2
176
     1
 62
     7
176
     1
 90
        3
176
     1
 90
        0
176
     1
 90
        0
176
     1
290
     0
176
     1
 90
        1
176
     1
 40
0.0
176
     1
 90
        0
176
     1
290
     0
176
     1
290
     1
176
     1
290
     1
176
     1
290
     0
176
     1
290
     0
176
     1
290
     0
176
     1
290
     0
176
     1
290
     0
176
     1
290
     0
176
     1
 90
       50
176
     1
 40
0.0
176
     1
 40
1.0
176
     1
 90
        0
176
     1
 62
    18
420
        0
176
     1
 90
       50
176
     1
 90
        3
176
     1
 62
     5
420
      255
176
     1
290
     0
176
     1
 90
       50
176
     1
 90
       50
176
     1
 90
       50
176
     1
290
     0
176
     1
 90
       50
176
     1
 62
   256
176
     0
 40
1.0
176
     0
 90
        2
176
     1
  1
strokes_ogs.tif
176
     1
290
     0
176
     1
 40
1.0
176
     1
 40
1.0
176
     1
  0
VISUALSTYLE
  5
3C
102
{ACAD_REACTORS
330
29
102
}
330
29
100
AcDbVisualStyle
  2
X-Ray
 70
    25
177
     3
291
     0
 70
    58
 90
        2
176
     1
 90
        2
176
     1
 90
        1
176
     1
 90
        1
176
     1
 40
0.5
176
     1
 40
30.0
176
     1
 62
     7
420
 16777215
176
     1
 90
        1
176
     1
 90
        0
176
     1
 62
     7
176
     1
 62
   257
176
     1
 90
        1
176
     1
 90
        1
176
     1
 40
1.0
176
     1
 90
        8
176
     1
 62
     7
176
     1
 40
1.0
176
     1
 90
        1
176
     1
 90
        6
176
     1
 90
        2
176
     1
 62
     7
176
     1
 90
        3
176
     1
 90
        0
176
     1
 90
        0
176
     1
290
     0
176
     1
 90
       13
176
     1
 40
0.0
176
     1
 90
        0
176
     1
290
     0
176
     1
290
     1
176
     1
290
     1
176
     1
290
     0
176
     1
290
     0
176
     1
290
     0
176
     1
290
     0
176
     1
290
     0
176
     1
290
     0
176
     1
 90
       50
176
     1
 40
0.0
176
     1
 40
1.0
176
     1
 90
        0
176
     1
 62
    18
420
        0
176
     1
 90
       50
176
     1
 90
        3
176
     1
 62
     5
420
      255
176
     1
290
     0
176
     1
 90
       50
176
     1
 90
       50
176
     1
 90
       50
176
     1
290
     0
176
     1
 90
       50
176
     1
 62
   256
176
     0
 40
1.0
176
     0
 90
        2
176
     1
  1
strokes_ogs.tif
176
     1
290
     0
176
     1
 40
1.0
176
     1
 40
1.0
176
     1
  0
DICTIONARYVAR
  5
167
102
{ACAD_REACTORS
330
162
102
}
330
162
100
DictionaryVariables
280
     0
  1
1:1
  0
DICTIONARYVAR
  5
164
102
{ACAD_REACTORS
330
162
102
}
330
162
100
DictionaryVariables
280
     0
  1
STANDARD
  0
DICTIONARYVAR
  5
163
102
{ACAD_REACTORS
330
162
102
}
330
162
100
DictionaryVariables
280
     0
  1
STANDARD
  0
DICTIONARYVAR
  5
165
102
{ACAD_REACTORS
330
162
102
}
330
162
100
DictionaryVariables
280
     0
  1
Imperial24
  0
DICTIONARYVAR
  5
166
102
{ACAD_REACTORS
330
162
102
}
330
162
100
DictionaryVariables
280
     0
  1
Imperial24
  0
DICTIONARY
  5
1A
330
19
100
AcDbDictionary
280
     1
281
     1
  3
BUMPTILE
360
1C
  3
DIFFUSETILE
360
1B
  3
OPACITYTILE
360
1F
  3
REFLECTIONTILE
360
1E
  3
REFRACTIONTILE
360
20
  3
SPECULARTILE
360
1D
  0
DICTIONARY
  5
12
330
11
100
AcDbDictionary
280
     1
281
     1
  3
BUMPTILE
360
14
  3
DIFFUSETILE
360
13
  3
OPACITYTILE
360
17
  3
REFLECTIONTILE
360
16
  3
REFRACTIONTILE
360
18
  3
SPECULARTILE
360
15
  0
DICTIONARY
  5
22
330
21
100
AcDbDictionary
280
     1
281
     1
  3
BUMPTILE
360
24
  3
DIFFUSETILE
360
23
  3
OPACITYTILE
360
27
  3
REFLECTIONTILE
360
26
  3
REFRACTIONTILE
360
28
  3
SPECULARTILE
360
25
  0
DICTIONARY
  5
168
330
65
100
AcDbDictionary
280
     1
281
     1
  3
ACAD_ROUNDTRIP_2008_TABLESTYLE_CELLSTYLEMAP
360
169
  0
XRECORD
  5
1C
102
{ACAD_REACTORS
330
1A
102
}
330
1A
100
AcDbXrecord
280
     1
270
     1
271
     1
  0
XRECORD
  5
1B
102
{ACAD_REACTORS
330
1A
102
}
330
1A
100
AcDbXrecord
280
     1
270
     1
271
     1
  0
XRECORD
  5
1F
102
{ACAD_REACTORS
330
1A
102
}
330
1A
100
AcDbXrecord
280
     1
270
     1
271
     1
  0
XRECORD
  5
1E
102
{ACAD_REACTORS
330
1A
102
}
330
1A
100
AcDbXrecord
280
     1
270
     1
271
     1
  0
XRECORD
  5
20
102
{ACAD_REACTORS
330
1A
102
}
330
1A
100
AcDbXrecord
280
     1
270
     1
271
     1
  0
XRECORD
  5
1D
102
{ACAD_REACTORS
330
1A
102
}
330
1A
100
AcDbXrecord
280
     1
270
     1
271
     1
  0
XRECORD
  5
14
102
{ACAD_REACTORS
330
12
102
}
330
12
100
AcDbXrecord
280
     1
270
     1
271
     1
  0
XRECORD
  5
13
102
{ACAD_REACTORS
330
12
102
}
330
12
100
AcDbXrecord
280
     1
270
     1
271
     1
  0
XRECORD
  5
17
102
{ACAD_REACTORS
330
12
102
}
330
12
100
AcDbXrecord
280
     1
270
     1
271
     1
  0
XRECORD
  5
16
102
{ACAD_REACTORS
330
12
102
}
330
12
100
AcDbXrecord
280
     1
270
     1
271
     1
  0
XRECORD
  5
18
102
{ACAD_REACTORS
330
12
102
}
330
12
100
AcDbXrecord
280
     1
270
     1
271
     1
  0
XRECORD
  5
15
102
{ACAD_REACTORS
330
12
102
}
330
12
100
AcDbXrecord
280
     1
270
     1
271
     1
  0
XRECORD
  5
24
102
{ACAD_REACTORS
330
22
102
}
330
22
100
AcDbXrecord
280
     1
270
     1
271
     1
  0
XRECORD
  5
23
102
{ACAD_REACTORS
330
22
102
}
330
22
100
AcDbXrecord
280
     1
270
     1
271
     1
  0
XRECORD
  5
27
102
{ACAD_REACTORS
330
22
102
}
330
22
100
AcDbXrecord
280
     1
270
     1
271
     1
  0
XRECORD
  5
26
102
{ACAD_REACTORS
330
22
102
}
330
22
100
AcDbXrecord
280
     1
270
     1
271
     1
  0
XRECORD
  5
28
102
{ACAD_REACTORS
330
22
102
}
330
22
100
AcDbXrecord
280
     1
270
     1
271
     1
  0
XRECORD
  5
25
102
{ACAD_REACTORS
330
22
102
}
330
22
100
AcDbXrecord
280
     1
270
     1
271
     1
  0
CELLSTYLEMAP
  5
169
102
{ACAD_REACTORS
330
168
102
}
330
168
100
AcDbCellStyleMap
 90
        3
300
CELLSTYLE
  1
TABLEFORMAT_BEGIN
 90
        5
170
     1
 91
        0
 92
    32768
 62
   257
 93
        1
300
CONTENTFORMAT
  1
CONTENTFORMAT_BEGIN
 90
        0
 91
        0
 92
      512
 93
        0
300

 40
0.0
140
1.0
 94
        5
 62
     0
340
55
144
0.25
309
CONTENTFORMAT_END
171
     0
 94
        0
309
TABLEFORMAT_END
  1
CELLSTYLE_BEGIN
 90
        1
 91
        1
300
_TITLE
309
CELLSTYLE_END
300
CELLSTYLE
  1
TABLEFORMAT_BEGIN
 90
        5
170
     1
 91
        0
 92
        0
 62
   257
 93
        1
300
CONTENTFORMAT
  1
CONTENTFORMAT_BEGIN
 90
        0
 91
        0
 92
      512
 93
        0
300

 40
0.0
140
1.0
 94
        5
 62
     0
340
55
144
0.18
309
CONTENTFORMAT_END
171
     0
 94
        0
309
TABLEFORMAT_END
  1
CELLSTYLE_BEGIN
 90
        2
 91
        1
300
_HEADER
309
CELLSTYLE_END
300
CELLSTYLE
  1
TABLEFORMAT_BEGIN
 90
        5
170
     1
 91
        0
 92
        0
 62
   257
 93
        1
300
CONTENTFORMAT
  1
CONTENTFORMAT_BEGIN
 90
        0
 91
        0
 92
      512
 93
        0
300

 40
0.0
140
1.0
 94
        2
 62
     0
340
55
144
0.18
309
CONTENTFORMAT_END
171
     0
 94
        0
309
TABLEFORMAT_END
  1
CELLSTYLE_BEGIN
 90
        3
 91
        2
300
_DATA
309
CELLSTYLE_END
  0
ENDSEC
  0
EOF
