  0
SECTION
  2
HEADER
  9
$ACADVER
  1
AC1024
  9
$ACADMAINTVER
 70
     6
  9
$DWGCODEPAGE
  3
ANSI_1252
  9
$INSBASE
 10
0.0
 20
0.0
 30
0.0
  9
$EXTMIN
 10
1.000000000000000E+20
 20
1.000000000000000E+20
 30
1.000000000000000E+20
  9
$EXTMAX
 10
-1.000000000000000E+20
 20
-1.000000000000000E+20
 30
-1.000000000000000E+20
  9
$LIMMIN
 10
0.0
 20
0.0
  9
$LIMMAX
 10
12.0
 20
9.0
  9
$ORTHOMODE
 70
     0
  9
$REGENMODE
 70
     1
  9
$FILLMODE
 70
     1
  9
$QTEXTMODE
 70
     0
  9
$MIRRTEXT
 70
     1
  9
$LTSCALE
 40
1.0
  9
$ATTMODE
 70
     1
  9
$TEXTSIZE
 40
0.2
  9
$TRACEWID
 40
0.05
  9
$TEXTSTYLE
  7
Standard
  9
$CLAYER
  8
0
  9
$CELTYPE
  6
ByLayer
  9
$CECOLOR
 62
   256
  9
$CELTSCALE
 40
1.0
  9
$DISPSILH
 70
     0
  9
$DIMSCALE
 40
1.0
  9
$DIMASZ
 40
0.18
  9
$DIMEXO
 40
0.0625
  9
$DIMDLI
 40
0.38
  9
$DIMRND
 40
0.0
  9
$DIMDLE
 40
0.0
  9
$DIMEXE
 40
0.18
  9
$DIMTP
 40
0.0
  9
$DIMTM
 40
0.0
  9
$DIMTXT
 40
0.18
  9
$DIMCEN
 40
0.09
  9
$DIMTSZ
 40
0.0
  9
$DIMTOL
 70
     0
  9
$DIMLIM
 70
     0
  9
$DIMTIH
 70
     1
  9
$DIMTOH
 70
     1
  9
$DIMSE1
 70
     0
  9
$DIMSE2
 70
     0
  9
$DIMTAD
 70
     0
  9
$DIMZIN
 70
     0
  9
$DIMBLK
  1

  9
$DIMASO
 70
     1
  9
$DIMSHO
 70
     1
  9
$DIMPOST
  1

  9
$DIMAPOST
  1

  9
$DIMALT
 70
     0
  9
$DIMALTD
 70
     2
  9
$DIMALTF
 40
25.4
  9
$DIMLFAC
 40
1.0
  9
$DIMTOFL
 70
     0
  9
$DIMTVP
 40
0.0
  9
$DIMTIX
 70
     0
  9
$DIMSOXD
 70
     0
  9
$DIMSAH
 70
     0
  9
$DIMBLK1
  1

  9
$DIMBLK2
  1

  9
$DIMSTYLE
  2
Standard
  9
$DIMCLRD
 70
     0
  9
$DIMCLRE
 70
     0
  9
$DIMCLRT
 70
     0
  9
$DIMTFAC
 40
1.0
  9
$DIMGAP
 40
0.09
  9
$DIMJUST
 70
     0
  9
$DIMSD1
 70
     0
  9
$DIMSD2
 70
     0
  9
$DIMTOLJ
 70
     1
  9
$DIMTZIN
 70
     0
  9
$DIMALTZ
 70
     0
  9
$DIMALTTZ
 70
     0
  9
$DIMUPT
 70
     0
  9
$DIMDEC
 70
     4
  9
$DIMTDEC
 70
     4
  9
$DIMALTU
 70
     2
  9
$DIMALTTD
 70
     2
  9
$DIMTXSTY
  7
Standard
  9
$DIMAUNIT
 70
     0
  9
$DIMADEC
 70
     0
  9
$DIMALTRND
 40
0.0
  9
$DIMAZIN
 70
     0
  9
$DIMDSEP
 70
    46
  9
$DIMATFIT
 70
     3
  9
$DIMFRAC
 70
     0
  9
$DIMLDRBLK
  1

  9
$DIMLUNIT
 70
     2
  9
$DIMLWD
 70
    -2
  9
$DIMLWE
 70
    -2
  9
$DIMTMOVE
 70
     0
  9
$DIMFXL
 40
1.0
  9
$DIMFXLON
 70
     0
  9
$DIMJOGANG
 40
0.7853981633974483
  9
$DIMTFILL
 70
     0
  9
$DIMTFILLCLR
 70
     0
  9
$DIMARCSYM
 70
     0
  9
$DIMLTYPE
  6

  9
$DIMLTEX1
  6

  9
$DIMLTEX2
  6

  9
$DIMTXTDIRECTION
 70
     0
  9
$LUNITS
 70
     2
  9
$LUPREC
 70
     4
  9
$SKETCHINC
 40
0.1
  9
$FILLETRAD
 40
0.5
  9
$AUNITS
 70
     0
  9
$AUPREC
 70
     0
  9
$MENU
  1
.
  9
$ELEVATION
 40
0.0
  9
$PELEVATION
 40
0.0
  9
$THICKNESS
 40
0.0
  9
$LIMCHECK
 70
     0
  9
$CHAMFERA
 40
0.5
  9
$CHAMFERB
 40
0.5
  9
$CHAMFERC
 40
1.0
  9
$CHAMFERD
 40
0.0
  9
$SKPOLY
 70
     0
  9
$TDCREATE
 40
2458782.603725278
  9
$TDUCREATE
 40
2458782.062058611
  9
$TDUPDATE
 40
2458782.603725417
  9
$TDUUPDATE
 40
2458782.06205875
  9
$TDINDWG
 40
0.0000000116
  9
$TDUSRTIMER
 40
0.0000000116
  9
$USRTIMER
 70
     1
  9
$ANGBASE
 50
0.0
  9
$ANGDIR
 70
     0
  9
$PDMODE
 70
     0
  9
$PDSIZE
 40
0.0
  9
$PLINEWID
 40
0.0
  9
$SPLFRAME
 70
     0
  9
$SPLINETYPE
 70
     6
  9
$SPLINESEGS
 70
     8
  9
$HANDSEED
  5
147
  9
$SURFTAB1
 70
     6
  9
$SURFTAB2
 70
     6
  9
$SURFTYPE
 70
     6
  9
$SURFU
 70
     6
  9
$SURFV
 70
     6
  9
$UCSBASE
  2

  9
$UCSNAME
  2

  9
$UCSORG
 10
0.0
 20
0.0
 30
0.0
  9
$UCSXDIR
 10
1.0
 20
0.0
 30
0.0
  9
$UCSYDIR
 10
0.0
 20
1.0
 30
0.0
  9
$UCSORTHOREF
  2

  9
$UCSORTHOVIEW
 70
     0
  9
$UCSORGTOP
 10
0.0
 20
0.0
 30
0.0
  9
$UCSORGBOTTOM
 10
0.0
 20
0.0
 30
0.0
  9
$UCSORGLEFT
 10
0.0
 20
0.0
 30
0.0
  9
$UCSORGRIGHT
 10
0.0
 20
0.0
 30
0.0
  9
$UCSORGFRONT
 10
0.0
 20
0.0
 30
0.0
  9
$UCSORGBACK
 10
0.0
 20
0.0
 30
0.0
  9
$PUCSBASE
  2

  9
$PUCSNAME
  2

  9
$PUCSORG
 10
0.0
 20
0.0
 30
0.0
  9
$PUCSXDIR
 10
1.0
 20
0.0
 30
0.0
  9
$PUCSYDIR
 10
0.0
 20
1.0
 30
0.0
  9
$PUCSORTHOREF
  2

  9
$PUCSORTHOVIEW
 70
     0
  9
$PUCSORGTOP
 10
0.0
 20
0.0
 30
0.0
  9
$PUCSORGBOTTOM
 10
0.0
 20
0.0
 30
0.0
  9
$PUCSORGLEFT
 10
0.0
 20
0.0
 30
0.0
  9
$PUCSORGRIGHT
 10
0.0
 20
0.0
 30
0.0
  9
$PUCSORGFRONT
 10
0.0
 20
0.0
 30
0.0
  9
$PUCSORGBACK
 10
0.0
 20
0.0
 30
0.0
  9
$USERI1
 70
     0
  9
$USERI2
 70
     0
  9
$USERI3
 70
     0
  9
$USERI4
 70
     0
  9
$USERI5
 70
     0
  9
$USERR1
 40
0.0
  9
$USERR2
 40
0.0
  9
$USERR3
 40
0.0
  9
$USERR4
 40
0.0
  9
$USERR5
 40
0.0
  9
$WORLDVIEW
 70
     1
  9
$SHADEDGE
 70
     3
  9
$SHADEDIF
 70
    70
  9
$TILEMODE
 70
     1
  9
$MAXACTVP
 70
    64
  9
$PINSBASE
 10
0.0
 20
0.0
 30
0.0
  9
$PLIMCHECK
 70
     0
  9
$PEXTMIN
 10
1.000000000000000E+20
 20
1.000000000000000E+20
 30
1.000000000000000E+20
  9
$PEXTMAX
 10
-1.000000000000000E+20
 20
-1.000000000000000E+20
 30
-1.000000000000000E+20
  9
$PLIMMIN
 10
0.0
 20
0.0
  9
$PLIMMAX
 10
12.0
 20
9.0
  9
$UNITMODE
 70
     0
  9
$VISRETAIN
 70
     1
  9
$PLINEGEN
 70
     0
  9
$PSLTSCALE
 70
     1
  9
$TREEDEPTH
 70
  3020
  9
$CMLSTYLE
  2
Standard
  9
$CMLJUST
 70
     0
  9
$CMLSCALE
 40
1.0
  9
$PROXYGRAPHICS
 70
     1
  9
$MEASUREMENT
 70
     0
  9
$CELWEIGHT
370
    -1
  9
$ENDCAPS
280
     0
  9
$JOINSTYLE
280
     0
  9
$LWDISPLAY
290
     1
  9
$INSUNITS
 70
     1
  9
$HYPERLINKBASE
  1

  9
$STYLESHEET
  1

  9
$XEDIT
290
     1
  9
$CEPSNTYPE
380
     0
  9
$PSTYLEMODE
290
     1
  9
$FINGERPRINTGUID
  2
{EE565903-3109-4B08-A9B7-7385E76F391F}
  9
$VERSIONGUID
  2
{FAEB1C32-E019-11D5-929B-00C0DF256EC4}
  9
$EXTNAMES
290
     1
  9
$PSVPSCALE
 40
0.0
  9
$OLESTARTUP
290
     0
  9
$SORTENTS
280
   127
  9
$INDEXCTL
280
     0
  9
$HIDETEXT
280
     1
  9
$XCLIPFRAME
280
     2
  9
$HALOGAP
280
     0
  9
$OBSCOLOR
 70
   257
  9
$OBSLTYPE
280
     0
  9
$INTERSECTIONDISPLAY
280
     0
  9
$INTERSECTIONCOLOR
 70
   257
  9
$DIMASSOC
280
     2
  9
$PROJECTNAME
  1

  9
$CAMERADISPLAY
290
     0
  9
$LENSLENGTH
 40
50.0
  9
$CAMERAHEIGHT
 40
0.0
  9
$STEPSPERSEC
 40
2.0
  9
$STEPSIZE
 40
6.0
  9
$3DDWFPREC
 40
2.0
  9
$PSOLWIDTH
 40
0.25
  9
$PSOLHEIGHT
 40
4.0
  9
$LOFTANG1
 40
1.570796326794897
  9
$LOFTANG2
 40
1.570796326794897
  9
$LOFTMAG1
 40
0.0
  9
$LOFTMAG2
 40
0.0
  9
$LOFTPARAM
 70
     7
  9
$LOFTNORMALS
280
     1
  9
$LATITUDE
 40
37.795
  9
$LONGITUDE
 40
-122.394
  9
$NORTHDIRECTION
 40
0.0
  9
$TIMEZONE
 70
 -8000
  9
$LIGHTGLYPHDISPLAY
280
     1
  9
$TILEMODELIGHTSYNCH
280
     1
  9
$CMATERIAL
347
3C
  9
$SOLIDHIST
280
     1
  9
$SHOWHIST
280
     1
  9
$DWFFRAME
280
     2
  9
$DGNFRAME
280
     2
  9
$REALWORLDSCALE
290
     1
  9
$INTERFERECOLOR
 62
   256
  9
$CSHADOW
280
     0
  9
$SHADOWPLANELOCATION
 40
0.0
  0
ENDSEC
  0
SECTION
  2
CLASSES
  0
CLASS
  1
ACDBDICTIONARYWDFLT
  2
AcDbDictionaryWithDefault
  3
ObjectDBX Classes
 90
        0
 91
        4
280
     0
281
     0
  0
CLASS
  1
VISUALSTYLE
  2
AcDbVisualStyle
  3
ObjectDBX Classes
 90
     4095
 91
        4
280
     0
281
     0
  0
CLASS
  1
MATERIAL
  2
AcDbMaterial
  3
ObjectDBX Classes
 90
     1153
 91
        4
280
     0
281
     0
  0
CLASS
  1
SUN
  2
AcDbSun
  3
SCENEOE
 90
     1024
 91
        4
280
     0
281
     0
  0
ENDSEC
  0
SECTION
  2
TABLES
  0
TABLE
  2
VPORT
  5
8
330
0
100
AcDbSymbolTable
 70
     1
  0
VPORT
  5
29
330
8
100
AcDbSymbolTableRecord
100
AcDbViewportTableRecord
  2
*Active
 70
     0
 10
0.0
 20
0.0
 11
1.0
 21
1.0
 12
0.0
 22
0.0
 13
0.0
 23
0.0
 14
0.5
 24
0.5
 15
0.5
 25
0.5
 16
0.0
 26
0.0
 36
1.0
 17
4.134607412258472
 27
6.030765666997644
 37
0.0
 40
11.69291338582677
 41
0.7070707070707065
 42
50.0
 43
0.0
 44
0.0
 50
0.0
 51
0.0
 71
     0
 72
   100
 73
     1
 74
     3
 75
     0
 76
     0
 77
     0
 78
     0
281
     0
 65
     1
110
0.0
120
0.0
130
0.0
111
1.0
121
0.0
131
0.0
112
0.0
122
1.0
132
0.0
 79
     0
146
0.0
 60
     3
 61
     5
292
     1
282
     1
141
0.0
142
0.0
 63
   250
361
3F
  0
ENDTAB
  0
TABLE
  2
LTYPE
  5
5
330
0
100
AcDbSymbolTable
 70
     1
  0
LTYPE
  5
14
330
5
100
AcDbSymbolTableRecord
100
AcDbLinetypeTableRecord
  2
ByBlock
 70
     0
  3

 72
    65
 73
     0
 40
0.0
  0
LTYPE
  5
15
330
5
100
AcDbSymbolTableRecord
100
AcDbLinetypeTableRecord
  2
ByLayer
 70
     0
  3

 72
    65
 73
     0
 40
0.0
  0
LTYPE
  5
16
330
5
100
AcDbSymbolTableRecord
100
AcDbLinetypeTableRecord
  2
Continuous
 70
     0
  3
Solid line
 72
    65
 73
     0
 40
0.0
  0
ENDTAB
  0
TABLE
  2
LAYER
  5
2
330
0
100
AcDbSymbolTable
 70
     4
  0
LAYER
  5
10
330
2
100
AcDbSymbolTableRecord
100
AcDbLayerTableRecord
  2
0
 70
     0
 62
     7
  6
Continuous
370
    -3
390
F
347
3E
  0
LAYER
  5
40
330
2
100
AcDbSymbolTableRecord
100
AcDbLayerTableRecord
  2
Wood
 70
     0
 62
     7
  6
Continuous
370
    -3
390
F
347
3E
  0
LAYER
  5
BB
330
2
100
AcDbSymbolTableRecord
100
AcDbLayerTableRecord
  2
E5SS
 70
     0
 62
     7
  6
Continuous
370
    -3
390
F
347
3E
  0
LAYER
  5
133
330
2
100
AcDbSymbolTableRecord
100
AcDbLayerTableRecord
  2
callout
 70
     0
 62
     7
  6
Continuous
370
    -3
390
F
347
3E
  0
ENDTAB
  0
TABLE
  2
STYLE
  5
3
330
0
100
AcDbSymbolTable
 70
     1
  0
STYLE
  5
11
330
3
100
AcDbSymbolTableRecord
100
AcDbTextStyleTableRecord
  2
Standard
 70
     0
 40
0.0
 41
1.0
 50
0.0
 71
     0
 42
0.2
  3
txt
  4

  0
ENDTAB
  0
TABLE
  2
VIEW
  5
6
330
0
100
AcDbSymbolTable
 70
     0
  0
ENDTAB
  0
TABLE
  2
UCS
  5
7
330
0
100
AcDbSymbolTable
 70
     0
  0
ENDTAB
  0
TABLE
  2
APPID
  5
9
330
0
100
AcDbSymbolTable
 70
     1
  0
APPID
  5
12
330
9
100
AcDbSymbolTableRecord
100
AcDbRegAppTableRecord
  2
ACAD
 70
     0
  0
ENDTAB
  0
TABLE
  2
DIMSTYLE
  5
A
330
0
100
AcDbSymbolTable
 70
     1
100
AcDbDimStyleTable
  0
DIMSTYLE
105
27
330
A
100
AcDbSymbolTableRecord
100
AcDbDimStyleTableRecord
  2
Standard
 70
     0
178
     0
340
11
  0
ENDTAB
  0
TABLE
  2
BLOCK_RECORD
  5
1
330
0
100
AcDbSymbolTable
 70
    15
  0
BLOCK_RECORD
  5
1F
330
1
100
AcDbSymbolTableRecord
100
AcDbBlockTableRecord
  2
*Model_Space
340
22
 70
     0
280
     1
281
     0
  0
BLOCK_RECORD
  5
1B
330
1
100
AcDbSymbolTableRecord
100
AcDbBlockTableRecord
  2
*Paper_Space
340
1E
 70
     0
280
     1
281
     0
  0
BLOCK_RECORD
  5
23
330
1
100
AcDbSymbolTableRecord
100
AcDbBlockTableRecord
  2
*Paper_Space0
340
26
 70
     0
280
     1
281
     0
  0
BLOCK_RECORD
  5
41
330
1
100
AcDbSymbolTableRecord
100
AcDbBlockTableRecord
  2
block 2
340
0
102
{BLKREFS
331
42
102
}
 70
     0
280
     1
281
     0
  0
BLOCK_RECORD
  5
7E
330
1
100
AcDbSymbolTableRecord
100
AcDbBlockTableRecord
  2
block 3
340
0
102
{BLKREFS
331
7F
102
}
 70
     0
280
     1
281
     0
  0
BLOCK_RECORD
  5
BC
330
1
100
AcDbSymbolTableRecord
100
AcDbBlockTableRecord
  2
block 4
340
0
102
{BLKREFS
331
BD
102
}
 70
     0
280
     1
281
     0
  0
BLOCK_RECORD
  5
CB
330
1
100
AcDbSymbolTableRecord
100
AcDbBlockTableRecord
  2
block 5
340
0
102
{BLKREFS
331
CC
102
}
 70
     0
280
     1
281
     0
  0
BLOCK_RECORD
  5
D0
330
1
100
AcDbSymbolTableRecord
100
AcDbBlockTableRecord
  2
block 6
340
0
102
{BLKREFS
331
D1
102
}
 70
     0
280
     1
281
     0
  0
BLOCK_RECORD
  5
D5
330
1
100
AcDbSymbolTableRecord
100
AcDbBlockTableRecord
  2
block 7
340
0
102
{BLKREFS
331
D6
102
}
 70
     0
280
     1
281
     0
  0
BLOCK_RECORD
  5
DA
330
1
100
AcDbSymbolTableRecord
100
AcDbBlockTableRecord
  2
block 8
340
0
102
{BLKREFS
331
DB
102
}
 70
     0
280
     1
281
     0
  0
BLOCK_RECORD
  5
DF
330
1
100
AcDbSymbolTableRecord
100
AcDbBlockTableRecord
  2
block 9
340
0
102
{BLKREFS
331
E0
102
}
 70
     0
280
     1
281
     0
  0
BLOCK_RECORD
  5
E4
330
1
100
AcDbSymbolTableRecord
100
AcDbBlockTableRecord
  2
block 10
340
0
102
{BLKREFS
331
E5
102
}
 70
     0
280
     1
281
     0
  0
BLOCK_RECORD
  5
E9
330
1
100
AcDbSymbolTableRecord
100
AcDbBlockTableRecord
  2
block 11
340
0
102
{BLKREFS
331
EA
102
}
 70
     0
280
     1
281
     0
  0
BLOCK_RECORD
  5
EE
330
1
100
AcDbSymbolTableRecord
100
AcDbBlockTableRecord
  2
block 12
340
0
102
{BLKREFS
331
EF
102
}
 70
     0
280
     1
281
     0
  0
BLOCK_RECORD
  5
F3
330
1
100
AcDbSymbolTableRecord
100
AcDbBlockTableRecord
  2
block 13
340
0
102
{BLKREFS
331
F4
102
}
 70
     0
280
     1
281
     0
  0
BLOCK_RECORD
  5
F8
330
1
100
AcDbSymbolTableRecord
100
AcDbBlockTableRecord
  2
block 14
340
0
102
{BLKREFS
331
F9
102
}
 70
     0
280
     1
281
     0
  0
BLOCK_RECORD
  5
FF
330
1
100
AcDbSymbolTableRecord
100
AcDbBlockTableRecord
  2
block 15
340
0
102
{BLKREFS
331
100
102
}
 70
     0
280
     1
281
     0
  0
ENDTAB
  0
ENDSEC
  0
SECTION
  2
BLOCKS
  0
BLOCK
  5
20
330
1F
100
AcDbEntity
  8
0
100
AcDbBlockBegin
  2
*Model_Space
 70
     0
 10
0.0
 20
0.0
 30
0.0
  3
*Model_Space
  1

  0
ENDBLK
  5
21
330
1F
100
AcDbEntity
  8
0
100
AcDbBlockEnd
  0
BLOCK
  5
1C
330
1B
100
AcDbEntity
 67
     1
  8
0
100
AcDbBlockBegin
  2
*Paper_Space
 70
     0
 10
0.0
 20
0.0
 30
0.0
  3
*Paper_Space
  1

  0
ENDBLK
  5
1D
330
1B
100
AcDbEntity
 67
     1
  8
0
100
AcDbBlockEnd
  0
BLOCK
  5
24
330
23
100
AcDbEntity
  8
0
100
AcDbBlockBegin
  2
*Paper_Space0
 70
     0
 10
0.0
 20
0.0
 30
0.0
  3
*Paper_Space0
  1

  0
ENDBLK
  5
25
330
23
100
AcDbEntity
  8
0
100
AcDbBlockEnd
  0
BLOCK
  5
43
330
41
100
AcDbEntity
  8
0
100
AcDbBlockBegin
  2
block 2
 70
     0
 10
0.0
 20
0.0
 30
0.0
  3
block 2
  1

  0
POLYLINE
  5
45
330
41
100
AcDbEntity
  8
Wood
 62
   250
420
  2301728
370
    20
100
AcDb2dPolyline
 66
     1
 10
0.0
 20
0.0
 30
0.0
  0
VERTEX
  5
46
330
45
100
AcDbEntity
  8
Wood
 62
   250
420
  2301728
370
    20
100
AcDbVertex
100
AcDb2dVertex
 10
5.564775215181371
 20
5.898566173589239
 30
0.0
  0
VERTEX
  5
47
330
45
100
AcDbEntity
  8
Wood
 62
   250
420
  2301728
370
    20
100
AcDbVertex
100
AcDb2dVertex
 10
5.835787592524816
 20
6.021071508104152
 30
0.0
  0
VERTEX
  5
48
330
45
100
AcDbEntity
  8
Wood
 62
   250
420
  2301728
370
    20
100
AcDbVertex
100
AcDb2dVertex
 10
5.827458013848299
 20
6.444556572915896
 30
0.0
  0
VERTEX
  5
49
330
45
100
AcDbEntity
  8
Wood
 62
   250
420
  2301728
370
    20
100
AcDbVertex
100
AcDb2dVertex
 10
3.398697882783254
 20
8.13446302370797
 30
0.0
  0
VERTEX
  5
4A
330
45
100
AcDbEntity
  8
Wood
 62
   250
420
  2301728
370
    20
100
AcDbVertex
100
AcDb2dVertex
 10
3.139966616230999
 20
8.075415844500348
 30
0.0
  0
VERTEX
  5
4B
330
45
100
AcDbEntity
  8
Wood
 62
   250
420
  2301728
370
    20
100
AcDbVertex
100
AcDb2dVertex
 10
3.108804434811696
 20
8.016031530591615
 30
0.0
  0
VERTEX
  5
4C
330
45
100
AcDbEntity
  8
Wood
 62
   250
420
  2301728
370
    20
100
AcDbVertex
100
AcDb2dVertex
 10
2.913653627974554
 20
8.07578292043518
 30
0.0
  0
VERTEX
  5
4D
330
45
100
AcDbEntity
  8
Wood
 62
   250
420
  2301728
370
    20
100
AcDbVertex
100
AcDb2dVertex
 10
2.876106232005541
 20
8.013887981270866
 30
0.0
  0
VERTEX
  5
4E
330
45
100
AcDbEntity
  8
Wood
 62
   250
420
  2301728
370
    20
100
AcDbVertex
100
AcDb2dVertex
 10
2.579528061902756
 20
7.938592622998309
 30
0.0
  0
VERTEX
  5
4F
330
45
100
AcDbEntity
  8
Wood
 62
   250
420
  2301728
370
    20
100
AcDbVertex
100
AcDb2dVertex
 10
2.587965837507025
 20
7.55034190801459
 30
0.0
  0
VERTEX
  5
50
330
45
100
AcDbEntity
  8
Wood
 62
   250
420
  2301728
370
    20
100
AcDbVertex
100
AcDb2dVertex
 10
4.977761103925988
 20
5.628181023622371
 30
0.0
  0
VERTEX
  5
51
330
45
100
AcDbEntity
  8
Wood
 62
   250
420
  2301728
370
    20
100
AcDbVertex
100
AcDb2dVertex
 10
5.285401897756527
 20
5.76183375555153
 30
0.0
  0
VERTEX
  5
52
330
45
100
AcDbEntity
  8
Wood
 62
   250
420
  2301728
370
    20
100
AcDbVertex
100
AcDb2dVertex
 10
5.301066899901545
 20
5.837787846998594
 30
0.0
  0
VERTEX
  5
53
330
45
100
AcDbEntity
  8
Wood
 62
   250
420
  2301728
370
    20
100
AcDbVertex
100
AcDb2dVertex
 10
5.52509995149689
 20
5.778908451053793
 30
0.0
  0
VERTEX
  5
54
330
45
100
AcDbEntity
  8
Wood
 62
   250
420
  2301728
370
    20
100
AcDbVertex
100
AcDb2dVertex
 10
5.564775215181371
 20
5.898566173589239
 30
0.0
  0
SEQEND
  5
56
330
45
100
AcDbEntity
  8
Wood
 62
   250
420
  2301728
370
    20
  0
HATCH
  5
55
330
41
100
AcDbEntity
  8
Wood
 62
    43
420
 15510365
100
AcDbHatch
 10
0.0
 20
0.0
 30
0.0
210
0.0
220
0.0
230
1.0
  2
SOLID
 70
     1
 71
     0
 91
        1
 92
        1
 93
       14
 72
     1
 10
5.564775215181371
 20
5.898566173589239
 11
5.835787592524816
 21
6.021071508104152
 72
     1
 10
5.835787592524816
 20
6.021071508104152
 11
5.827458013848299
 21
6.444556572915896
 72
     1
 10
5.827458013848299
 20
6.444556572915896
 11
3.398697882783254
 21
8.13446302370797
 72
     1
 10
3.398697882783254
 20
8.13446302370797
 11
3.139966616230999
 21
8.075415844500348
 72
     1
 10
3.139966616230999
 20
8.075415844500348
 11
3.108804434811696
 21
8.016031530591615
 72
     1
 10
3.108804434811696
 20
8.016031530591615
 11
2.913653627974554
 21
8.07578292043518
 72
     1
 10
2.913653627974554
 20
8.07578292043518
 11
2.876106232005541
 21
8.013887981270866
 72
     1
 10
2.876106232005541
 20
8.013887981270866
 11
2.579528061902756
 21
7.938592622998309
 72
     1
 10
2.579528061902756
 20
7.938592622998309
 11
2.587965837507025
 21
7.55034190801459
 72
     1
 10
2.587965837507025
 20
7.55034190801459
 11
4.977761103925988
 21
5.628181023622371
 72
     1
 10
4.977761103925988
 20
5.628181023622371
 11
5.285401897756527
 21
5.76183375555153
 72
     1
 10
5.285401897756527
 20
5.76183375555153
 11
5.301066899901545
 21
5.837787846998594
 72
     1
 10
5.301066899901545
 20
5.837787846998594
 11
5.52509995149689
 21
5.778908451053793
 72
     1
 10
5.52509995149689
 20
5.778908451053793
 11
5.564775215181371
 21
5.898566173589239
 97
        0
 75
     2
 76
     1
 98
        0
  0
POLYLINE
  5
57
330
41
100
AcDbEntity
  8
Wood
 62
   250
420
  2301728
370
    15
100
AcDb2dPolyline
 66
     1
 10
0.0
 20
0.0
 30
0.0
  0
VERTEX
  5
58
330
57
100
AcDbEntity
  8
Wood
 62
   250
420
  2301728
370
    15
100
AcDbVertex
100
AcDb2dVertex
 10
2.579528061902756
 20
7.938592622998309
 30
0.0
  0
VERTEX
  5
59
330
57
100
AcDbEntity
  8
Wood
 62
   250
420
  2301728
370
    15
100
AcDbVertex
100
AcDb2dVertex
 10
4.97540263875309
 20
6.06134420587072
 30
0.0
  0
SEQEND
  5
5A
330
57
100
AcDbEntity
  8
Wood
 62
   250
420
  2301728
370
    15
  0
POLYLINE
  5
5B
330
41
100
AcDbEntity
  8
Wood
 62
   250
420
  2301728
370
    20
100
AcDb2dPolyline
 66
     1
 10
0.0
 20
0.0
 30
0.0
  0
VERTEX
  5
5C
330
5B
100
AcDbEntity
  8
Wood
 62
   250
420
  2301728
370
    20
100
AcDbVertex
100
AcDb2dVertex
 10
5.552586620462256
 20
6.31808568391802
 30
0.0
  0
VERTEX
  5
5D
330
5B
100
AcDbEntity
  8
Wood
 62
   250
420
  2301728
370
    20
100
AcDbVertex
100
AcDb2dVertex
 10
5.560916199138622
 20
5.892685917531694
 30
0.0
  0
SEQEND
  5
5E
330
5B
100
AcDbEntity
  8
Wood
 62
   250
420
  2301728
370
    20
  0
POLYLINE
  5
5F
330
41
100
AcDbEntity
  8
Wood
 62
   250
420
  2301728
370
    20
100
AcDb2dPolyline
 66
     1
 10
0.0
 20
0.0
 30
0.0
  0
VERTEX
  5
60
330
5F
100
AcDbEntity
  8
Wood
 62
   250
420
  2301728
370
    20
100
AcDbVertex
100
AcDb2dVertex
 10
5.524640611860503
 20
6.217983250725486
 30
0.0
  0
VERTEX
  5
61
330
5F
100
AcDbEntity
  8
Wood
 62
   250
420
  2301728
370
    20
100
AcDbVertex
100
AcDb2dVertex
 10
5.529111070163
 20
5.784743233131167
 30
0.0
  0
SEQEND
  5
62
330
5F
100
AcDbEntity
  8
Wood
 62
   250
420
  2301728
370
    20
  0
POLYLINE
  5
63
330
41
100
AcDbEntity
  8
Wood
 62
   250
420
  2301728
370
    20
100
AcDb2dPolyline
 66
     1
 10
0.0
 20
0.0
 30
0.0
  0
VERTEX
  5
64
330
63
100
AcDbEntity
  8
Wood
 62
   250
420
  2301728
370
    20
100
AcDbVertex
100
AcDb2dVertex
 10
5.300577662637099
 20
6.27885261453135
 30
0.0
  0
VERTEX
  5
65
330
63
100
AcDbEntity
  8
Wood
 62
   250
420
  2301728
370
    20
100
AcDbVertex
100
AcDb2dVertex
 10
5.301066899901545
 20
5.837787846998594
 30
0.0
  0
SEQEND
  5
66
330
63
100
AcDbEntity
  8
Wood
 62
   250
420
  2301728
370
    20
  0
POLYLINE
  5
67
330
41
100
AcDbEntity
  8
Wood
 62
   250
420
  2301728
370
    20
100
AcDb2dPolyline
 66
     1
 10
0.0
 20
0.0
 30
0.0
  0
VERTEX
  5
68
330
67
100
AcDbEntity
  8
Wood
 62
   250
420
  2301728
370
    20
100
AcDbVertex
100
AcDb2dVertex
 10
5.275203181688286
 20
6.191153602441091
 30
0.0
  0
VERTEX
  5
69
330
67
100
AcDbEntity
  8
Wood
 62
   250
420
  2301728
370
    20
100
AcDbVertex
100
AcDb2dVertex
 10
5.283441812404084
 20
5.763825202269964
 30
0.0
  0
SEQEND
  5
6A
330
67
100
AcDbEntity
  8
Wood
 62
   250
420
  2301728
370
    20
  0
POLYLINE
  5
6B
330
41
100
AcDbEntity
  8
Wood
 62
   250
420
  2301728
370
    15
100
AcDb2dPolyline
 66
     1
 10
0.0
 20
0.0
 30
0.0
  0
VERTEX
  5
6C
330
6B
100
AcDbEntity
  8
Wood
 62
   250
420
  2301728
370
    15
100
AcDbVertex
100
AcDb2dVertex
 10
5.823445327114213
 20
6.442580806880819
 30
0.0
  0
VERTEX
  5
6D
330
6B
100
AcDbEntity
  8
Wood
 62
   250
420
  2301728
370
    15
100
AcDbVertex
100
AcDb2dVertex
 10
5.55249410443346
 20
6.316109917832679
 30
0.0
  0
VERTEX
  5
6E
330
6B
100
AcDbEntity
  8
Wood
 62
   250
420
  2301728
370
    15
100
AcDbVertex
100
AcDb2dVertex
 10
5.524640611860503
 20
6.217983250725486
 30
0.0
  0
VERTEX
  5
6F
330
6B
100
AcDbEntity
  8
Wood
 62
   250
420
  2301728
370
    15
100
AcDbVertex
100
AcDb2dVertex
 10
5.300577662637326
 20
6.280782817375577
 30
0.0
  0
VERTEX
  5
70
330
6B
100
AcDbEntity
  8
Wood
 62
   250
420
  2301728
370
    15
100
AcDbVertex
100
AcDb2dVertex
 10
5.277163267041083
 20
6.193145049159208
 30
0.0
  0
VERTEX
  5
71
330
6B
100
AcDbEntity
  8
Wood
 62
   250
420
  2301728
370
    15
100
AcDbVertex
100
AcDb2dVertex
 10
4.977270208076864
 20
6.059368439835098
 30
0.0
  0
VERTEX
  5
72
330
6B
100
AcDbEntity
  8
Wood
 62
   250
420
  2301728
370
    15
100
AcDbVertex
100
AcDb2dVertex
 10
4.977822168073796
 20
5.632055793219049
 30
0.0
  0
SEQEND
  5
73
330
6B
100
AcDbEntity
  8
Wood
 62
   250
420
  2301728
370
    15
  0
SPLINE
  5
74
330
41
100
AcDbEntity
  8
Wood
 62
   250
420
  2301728
370
     9
100
AcDbSpline
210
0.0
220
0.0
230
1.0
 70
     8
 71
     3
 72
    32
 73
    28
 74
     0
 42
0.0000000001
 43
0.0000000001
 12
1.0
 22
0.0
 32
0.0
 13
1.0
 23
0.0
 33
0.0
 40
0.0
 40
0.0
 40
0.0
 40
0.0
 40
1.0
 40
1.0
 40
1.0
 40
2.0
 40
2.0
 40
2.0
 40
3.0
 40
3.0
 40
3.0
 40
4.0
 40
4.0
 40
4.0
 40
5.0
 40
5.0
 40
5.0
 40
6.0
 40
6.0
 40
6.0
 40
7.0
 40
7.0
 40
7.0
 40
8.0
 40
8.0
 40
8.0
 40
9.0
 40
9.0
 40
9.0
 40
9.0
 10
4.979628582768984
 20
6.012756042081074
 30
0.0
 10
4.979628582768984
 20
6.012756042081074
 30
0.0
 10
5.044311399409101
 20
6.049997663775204
 30
0.0
 10
5.07567276505271
 20
6.067638431946054
 30
0.0
 10
5.107034130696371
 20
6.085279200116866
 30
0.0
 10
5.187397630156081
 20
6.106840138988584
 30
0.0
 10
5.212878739740972
 20
6.114680480396828
 30
0.0
 10
5.238359849325812
 20
6.122520821805046
 30
0.0
 10
5.277561556380179
 20
6.142121675327833
 30
0.0
 10
5.277561556380179
 20
6.142121675327833
 30
0.0
 10
5.277561556380179
 20
6.142121675327833
 30
0.0
 10
5.303042665970174
 20
6.206804491962278
 30
0.0
 10
5.303042665970174
 20
6.206804491962278
 30
0.0
 10
5.303042665970174
 20
6.206804491962278
 30
0.0
 10
5.332443946259597
 20
6.206804491959625
 30
0.0
 10
5.375565824016676
 20
6.19896415054528
 30
0.0
 10
5.418687701773806
 20
6.191123809130886
 30
0.0
 10
5.524532310813154
 20
6.161722528831925
 30
0.0
 10
5.524532310813154
 20
6.161722528831925
 30
0.0
 10
5.524532310813154
 20
6.161722528831925
 30
0.0
 10
5.553933591109247
 20
6.236205772229178
 30
0.0
 10
5.553933591109247
 20
6.236205772229178
 30
0.0
 10
5.553933591109247
 20
6.236205772229178
 30
0.0
 10
5.630376919865815
 20
6.281287735332789
 30
0.0
 10
5.677418968330484
 20
6.298928503502237
 30
0.0
 10
5.724461016795127
 20
6.316569271671672
 30
0.0
 10
5.824425369780632
 20
6.332249954483674
 30
0.0
 10
5.824425369780632
 20
6.332249954483674
 30
0.0
  0
SPLINE
  5
75
330
41
100
AcDbEntity
  8
Wood
 62
   250
420
  2301728
370
     9
100
AcDbSpline
210
0.0
220
0.0
230
1.0
 70
     8
 71
     3
 72
    32
 73
    28
 74
     0
 42
0.0000000001
 43
0.0000000001
 12
1.0
 22
0.0
 32
0.0
 13
1.0
 23
0.0
 33
0.0
 40
0.0
 40
0.0
 40
0.0
 40
0.0
 40
1.0
 40
1.0
 40
1.0
 40
2.0
 40
2.0
 40
2.0
 40
3.0
 40
3.0
 40
3.0
 40
4.0
 40
4.0
 40
4.0
 40
5.0
 40
5.0
 40
5.0
 40
6.0
 40
6.0
 40
6.0
 40
7.0
 40
7.0
 40
7.0
 40
8.0
 40
8.0
 40
8.0
 40
9.0
 40
9.0
 40
9.0
 40
9.0
 10
4.97962858276479
 20
5.965713993617997
 30
0.0
 10
4.97962858276479
 20
5.965713993617997
 30
0.0
 10
5.044311399404856
 20
6.002955615312114
 30
0.0
 10
5.075672765048491
 20
6.020596383482951
 30
0.0
 10
5.107034130692126
 20
6.038237151653801
 30
0.0
 10
5.187397630151836
 20
6.059798090525494
 30
0.0
 10
5.212878739736728
 20
6.067638431933738
 30
0.0
 10
5.238359849321619
 20
6.075478773341956
 30
0.0
 10
5.277561556375935
 20
6.095079626864743
 30
0.0
 10
5.277561556375935
 20
6.095079626864743
 30
0.0
 10
5.277561556375935
 20
6.095079626864743
 30
0.0
 10
5.303042665965929
 20
6.159762443499201
 30
0.0
 10
5.303042665965929
 20
6.159762443499201
 30
0.0
 10
5.303042665965929
 20
6.159762443499201
 30
0.0
 10
5.332443946255353
 20
6.159762443496561
 30
0.0
 10
5.375565824012483
 20
6.151922102082178
 30
0.0
 10
5.418687701769563
 20
6.144081760667809
 30
0.0
 10
5.524532310808909
 20
6.114680480368861
 30
0.0
 10
5.524532310808909
 20
6.114680480368861
 30
0.0
 10
5.524532310808909
 20
6.114680480368861
 30
0.0
 10
5.553933591105002
 20
6.189163723766089
 30
0.0
 10
5.553933591105002
 20
6.189163723766089
 30
0.0
 10
5.553933591105002
 20
6.189163723766089
 30
0.0
 10
5.630376919861596
 20
6.234245686869699
 30
0.0
 10
5.677418968326265
 20
6.251886455039148
 30
0.0
 10
5.724461016790934
 20
6.26952722320857
 30
0.0
 10
5.824425369776387
 20
6.285207906020572
 30
0.0
 10
5.824425369776387
 20
6.285207906020572
 30
0.0
  0
SPLINE
  5
76
330
41
100
AcDbEntity
  8
Wood
 62
   250
420
  2301728
370
     9
100
AcDbSpline
210
0.0
220
0.0
230
1.0
 70
     8
 71
     3
 72
    32
 73
    28
 74
     0
 42
0.0000000001
 43
0.0000000001
 12
1.0
 22
0.0
 32
0.0
 13
1.0
 23
0.0
 33
0.0
 40
0.0
 40
0.0
 40
0.0
 40
0.0
 40
1.0
 40
1.0
 40
1.0
 40
2.0
 40
2.0
 40
2.0
 40
3.0
 40
3.0
 40
3.0
 40
4.0
 40
4.0
 40
4.0
 40
5.0
 40
5.0
 40
5.0
 40
6.0
 40
6.0
 40
6.0
 40
7.0
 40
7.0
 40
7.0
 40
8.0
 40
8.0
 40
8.0
 40
9.0
 40
9.0
 40
9.0
 40
9.0
 10
4.979628582761253
 20
5.926512286565425
 30
0.0
 10
4.979628582761253
 20
5.926512286565425
 30
0.0
 10
5.044311399400436
 20
5.953953481496392
 30
0.0
 10
5.075672765044096
 20
5.971594249667242
 30
0.0
 10
5.10703413068773
 20
5.989235017838078
 30
0.0
 10
5.187397630147037
 20
6.006294032671891
 30
0.0
 10
5.212878739731928
 20
6.014134374080109
 30
0.0
 10
5.238359849316794
 20
6.021974715488315
 30
0.0
 10
5.277561556371134
 20
6.041575569011077
 30
0.0
 10
5.277561556371134
 20
6.041575569011077
 30
0.0
 10
5.277561556371134
 20
6.041575569011077
 30
0.0
 10
5.303042665961508
 20
6.110760309683479
 30
0.0
 10
5.303042665961508
 20
6.110760309683479
 30
0.0
 10
5.303042665961508
 20
6.110760309683479
 30
0.0
 10
5.367725482597203
 20
6.098999797561911
 30
0.0
 10
5.410847360354359
 20
6.091159456147503
 30
0.0
 10
5.453969238111439
 20
6.083319114733109
 30
0.0
 10
5.524532310804513
 20
6.065678346553138
 30
0.0
 10
5.524532310804513
 20
6.065678346553138
 30
0.0
 10
5.524532310804513
 20
6.065678346553138
 30
0.0
 10
5.553933591100631
 20
6.140161589950379
 30
0.0
 10
5.553933591100631
 20
6.140161589950379
 30
0.0
 10
5.553933591100631
 20
6.140161589950379
 30
0.0
 10
5.630376919857199
 20
6.185243553053978
 30
0.0
 10
5.677418968321843
 20
6.202884321223425
 30
0.0
 10
5.724461016786537
 20
6.220525089392873
 30
0.0
 10
5.828345540478318
 20
6.247966284320328
 30
0.0
 10
5.828345540478318
 20
6.247966284320328
 30
0.0
  0
SPLINE
  5
77
330
41
100
AcDbEntity
  8
Wood
 62
   250
420
  2301728
370
     9
100
AcDbSpline
210
0.0
220
0.0
230
1.0
 70
     8
 71
     3
 72
    32
 73
    28
 74
     0
 42
0.0000000001
 43
0.0000000001
 12
1.0
 22
0.0
 32
0.0
 13
1.0
 23
0.0
 33
0.0
 40
0.0
 40
0.0
 40
0.0
 40
0.0
 40
1.0
 40
1.0
 40
1.0
 40
2.0
 40
2.0
 40
2.0
 40
3.0
 40
3.0
 40
3.0
 40
4.0
 40
4.0
 40
4.0
 40
5.0
 40
5.0
 40
5.0
 40
6.0
 40
6.0
 40
6.0
 40
7.0
 40
7.0
 40
7.0
 40
8.0
 40
8.0
 40
8.0
 40
9.0
 40
9.0
 40
9.0
 40
9.0
 10
4.979628582754558
 20
5.852029043165518
 30
0.0
 10
4.979628582754558
 20
5.852029043165518
 30
0.0
 10
5.063912252921808
 20
5.899071091621054
 30
0.0
 10
5.095273618565443
 20
5.916711859791904
 30
0.0
 10
5.126634984209077
 20
5.934352627962741
 30
0.0
 10
5.18739763014158
 20
5.9455313867404
 30
0.0
 10
5.212878739726471
 20
5.953371728148618
 30
0.0
 10
5.238359849311337
 20
5.961212069556836
 30
0.0
 10
5.277561556366562
 20
5.990613349842747
 30
0.0
 10
5.277561556366562
 20
5.990613349842747
 30
0.0
 10
5.277561556366562
 20
5.990613349842747
 30
0.0
 10
5.30304266595691
 20
6.059798090515124
 30
0.0
 10
5.30304266595691
 20
6.059798090515124
 30
0.0
 10
5.30304266595691
 20
6.059798090515124
 30
0.0
 10
5.365765397239809
 20
6.046077493041063
 30
0.0
 10
5.408887274996939
 20
6.038237151626693
 30
0.0
 10
5.452009152754069
 20
6.03039681021231
 30
0.0
 10
5.526492396152713
 20
6.016676212737239
 30
0.0
 10
5.526492396152713
 20
6.016676212737239
 30
0.0
 10
5.526492396152713
 20
6.016676212737239
 30
0.0
 10
5.559813847154146
 20
6.091159456134126
 30
0.0
 10
5.559813847154146
 20
6.091159456134126
 30
0.0
 10
5.559813847154146
 20
6.091159456134126
 30
0.0
 10
5.610776066325443
 20
6.124480907124217
 30
0.0
 10
5.657818114790138
 20
6.142121675293664
 30
0.0
 10
5.704860163254781
 20
6.159762443463111
 30
0.0
 10
5.828345540472861
 20
6.187203638388824
 30
0.0
 10
5.828345540472861
 20
6.187203638388824
 30
0.0
  0
SPLINE
  5
78
330
41
100
AcDbEntity
  8
Wood
 62
   250
420
  2301728
370
     9
100
AcDbSpline
210
0.0
220
0.0
230
1.0
 70
     8
 71
     3
 72
    32
 73
    28
 74
     0
 42
0.0000000001
 43
0.0000000001
 12
1.0
 22
0.0
 32
0.0
 13
1.0
 23
0.0
 33
0.0
 40
0.0
 40
0.0
 40
0.0
 40
0.0
 40
1.0
 40
1.0
 40
1.0
 40
2.0
 40
2.0
 40
2.0
 40
3.0
 40
3.0
 40
3.0
 40
4.0
 40
4.0
 40
4.0
 40
5.0
 40
5.0
 40
5.0
 40
6.0
 40
6.0
 40
6.0
 40
7.0
 40
7.0
 40
7.0
 40
8.0
 40
8.0
 40
8.0
 40
9.0
 40
9.0
 40
9.0
 40
9.0
 10
4.979628582748798
 20
5.787927979861441
 30
0.0
 10
4.979628582748798
 20
5.787927979861441
 30
0.0
 10
5.063912252916048
 20
5.834970028316939
 30
0.0
 10
5.095273618559682
 20
5.852610796487801
 30
0.0
 10
5.126634984203317
 20
5.870251564658663
 30
0.0
 10
5.18739763013582
 20
5.881430323436297
 30
0.0
 10
5.21287873972071
 20
5.889270664844528
 30
0.0
 10
5.238359849305602
 20
5.897111006252746
 30
0.0
 10
5.277561556360802
 20
5.926512286538657
 30
0.0
 10
5.277561556360802
 20
5.926512286538657
 30
0.0
 10
5.277561556360802
 20
5.926512286538657
 30
0.0
 10
5.303042665951176
 20
5.995697027211033
 30
0.0
 10
5.303042665951176
 20
5.995697027211033
 30
0.0
 10
5.303042665951176
 20
5.995697027211033
 30
0.0
 10
5.365765397234074
 20
5.981976429736998
 30
0.0
 10
5.408887274991179
 20
5.974136088322653
 30
0.0
 10
5.452009152748309
 20
5.96629574690822
 30
0.0
 10
5.526492396146978
 20
5.952575149433149
 30
0.0
 10
5.526492396146978
 20
5.952575149433149
 30
0.0
 10
5.526492396146978
 20
5.952575149433149
 30
0.0
 10
5.559813847148335
 20
6.027058392830061
 30
0.0
 10
5.559813847148335
 20
6.027058392830061
 30
0.0
 10
5.559813847148335
 20
6.027058392830061
 30
0.0
 10
5.610776066319709
 20
6.060379843820152
 30
0.0
 10
5.657818114784377
 20
6.078020611989561
 30
0.0
 10
5.704860163249021
 20
6.095661380158996
 30
0.0
 10
5.8283455404671
 20
6.123102575084734
 30
0.0
 10
5.8283455404671
 20
6.123102575084734
 30
0.0
  0
SPLINE
  5
79
330
41
100
AcDbEntity
  8
Wood
 62
   250
420
  2301728
370
     9
100
AcDbSpline
210
0.0
220
0.0
230
1.0
 70
     8
 71
     3
 72
    32
 73
    28
 74
     0
 42
0.0000000001
 43
0.0000000001
 12
1.0
 22
0.0
 32
0.0
 13
1.0
 23
0.0
 33
0.0
 40
0.0
 40
0.0
 40
0.0
 40
0.0
 40
1.0
 40
1.0
 40
1.0
 40
2.0
 40
2.0
 40
2.0
 40
3.0
 40
3.0
 40
3.0
 40
4.0
 40
4.0
 40
4.0
 40
5.0
 40
5.0
 40
5.0
 40
6.0
 40
6.0
 40
6.0
 40
7.0
 40
7.0
 40
7.0
 40
8.0
 40
8.0
 40
8.0
 40
9.0
 40
9.0
 40
9.0
 40
9.0
 10
4.979628582745085
 20
5.746766187456223
 30
0.0
 10
4.979628582745085
 20
5.746766187456223
 30
0.0
 10
5.06391225291236
 20
5.793808235911759
 30
0.0
 10
5.095273618555994
 20
5.811449004082584
 30
0.0
 10
5.126634984199629
 20
5.829089772253471
 30
0.0
 10
5.187397630131423
 20
5.832428189620575
 30
0.0
 10
5.212878739716315
 20
5.840268531028806
 30
0.0
 10
5.23835984930118
 20
5.848108872437024
 30
0.0
 10
5.277561556356381
 20
5.877510152722961
 30
0.0
 10
5.277561556356381
 20
5.877510152722961
 30
0.0
 10
5.277561556356381
 20
5.877510152722961
 30
0.0
 10
5.303042665947487
 20
5.954535234805828
 30
0.0
 10
5.303042665947487
 20
5.954535234805828
 30
0.0
 10
5.303042665947487
 20
5.954535234805828
 30
0.0
 10
5.363805311877337
 20
5.936312713294051
 30
0.0
 10
5.406927189634467
 20
5.928472371879681
 30
0.0
 10
5.450049067391597
 20
5.920632030465273
 30
0.0
 10
5.526492396142
 20
5.897111006226901
 30
0.0
 10
5.526492396142
 20
5.897111006226901
 30
0.0
 10
5.526492396142
 20
5.897111006226901
 30
0.0
 10
5.559813847144647
 20
5.985896600424856
 30
0.0
 10
5.559813847144647
 20
5.985896600424856
 30
0.0
 10
5.559813847144647
 20
5.985896600424856
 30
0.0
 10
5.636257175900482
 20
6.022556468785246
 30
0.0
 10
5.683299224365125
 20
6.040197236954693
 30
0.0
 10
5.730341272829794
 20
6.057838005124128
 30
0.0
 10
5.834225796520715
 20
6.075478773288473
 30
0.0
 10
5.834225796520715
 20
6.075478773288473
 30
0.0
  0
SPLINE
  5
7A
330
41
100
AcDbEntity
  8
Wood
 62
   250
420
  2301728
370
     9
100
AcDbSpline
210
0.0
220
0.0
230
1.0
 70
     8
 71
     3
 72
    32
 73
    28
 74
     0
 42
0.0000000001
 43
0.0000000001
 12
1.0
 22
0.0
 32
0.0
 13
1.0
 23
0.0
 33
0.0
 40
0.0
 40
0.0
 40
0.0
 40
0.0
 40
1.0
 40
1.0
 40
1.0
 40
2.0
 40
2.0
 40
2.0
 40
3.0
 40
3.0
 40
3.0
 40
4.0
 40
4.0
 40
4.0
 40
5.0
 40
5.0
 40
5.0
 40
6.0
 40
6.0
 40
6.0
 40
7.0
 40
7.0
 40
7.0
 40
8.0
 40
8.0
 40
8.0
 40
9.0
 40
9.0
 40
9.0
 40
9.0
 10
4.979628582739957
 20
5.689341958897343
 30
0.0
 10
4.979628582739957
 20
5.689341958897343
 30
0.0
 10
5.065872338260002
 20
5.738344092705334
 30
0.0
 10
5.097233703903637
 20
5.755984860876183
 30
0.0
 10
5.128595069547272
 20
5.773625629046983
 30
0.0
 10
5.191317800833176
 20
5.793226482567661
 30
0.0
 10
5.216798910418017
 20
5.801066823975916
 30
0.0
 10
5.242280020002909
 20
5.808907165384097
 30
0.0
 10
5.283441812410223
 20
5.832428189611973
 30
0.0
 10
5.283441812410223
 20
5.832428189611973
 30
0.0
 10
5.283441812410223
 20
5.832428189611973
 30
0.0
 10
5.303042665943242
 20
5.907493186342738
 30
0.0
 10
5.303042665943242
 20
5.907493186342738
 30
0.0
 10
5.303042665943242
 20
5.907493186342738
 30
0.0
 10
5.363805311873825
 20
5.897111006241478
 30
0.0
 10
5.406927189630955
 20
5.889270664827095
 30
0.0
 10
5.450049067388085
 20
5.881430323412713
 30
0.0
 10
5.526492396138312
 20
5.855949213821683
 30
0.0
 10
5.526492396138312
 20
5.855949213821683
 30
0.0
 10
5.526492396138312
 20
5.855949213821683
 30
0.0
 10
5.559813847141438
 20
5.950033310744857
 30
0.0
 10
5.559813847141438
 20
5.950033310744857
 30
0.0
 10
5.559813847141438
 20
5.950033310744857
 30
0.0
 10
5.636257175896238
 20
5.975514420322169
 30
0.0
 10
5.683299224360907
 20
5.993155188491616
 30
0.0
 10
5.730341272825576
 20
6.010795956661038
 30
0.0
 10
5.836185881870177
 20
6.040197236940975
 30
0.0
 10
5.836185881870177
 20
6.040197236940975
 30
0.0
  0
SPLINE
  5
7B
330
41
100
AcDbEntity
  8
Wood
 62
   250
420
  2301728
370
     9
100
AcDbSpline
210
0.0
220
0.0
230
1.0
 70
     8
 71
     3
 72
    11
 73
     7
 74
     0
 42
0.0000000001
 43
0.0000000001
 12
1.0
 22
0.0
 32
0.0
 13
1.0
 23
0.0
 33
0.0
 40
0.0
 40
0.0
 40
0.0
 40
0.0
 40
1.0
 40
1.0
 40
1.0
 40
2.0
 40
2.0
 40
2.0
 40
2.0
 10
5.551973505762058
 20
6.296968418160847
 30
0.0
 10
5.551973505762058
 20
6.296968418160847
 30
0.0
 10
5.640177346633562
 20
6.332249954500234
 30
0.0
 10
5.687219395098029
 20
6.347930637317037
 30
0.0
 10
5.734261443562521
 20
6.363611320133852
 30
0.0
 10
5.822465284432787
 20
6.385846528366137
 30
0.0
 10
5.822465284432787
 20
6.385846528366137
 30
0.0
  0
SPLINE
  5
7C
330
41
100
AcDbEntity
  8
Wood
 62
   250
420
  2301728
370
     9
100
AcDbSpline
210
0.0
220
0.0
230
1.0
 70
     8
 71
     3
 72
    11
 73
     7
 74
     0
 42
0.0000000001
 43
0.0000000001
 12
1.0
 22
0.0
 32
0.0
 13
1.0
 23
0.0
 33
0.0
 40
0.0
 40
0.0
 40
0.0
 40
0.0
 40
1.0
 40
1.0
 40
1.0
 40
2.0
 40
2.0
 40
2.0
 40
2.0
 10
4.977668497382738
 20
5.638379739729165
 30
0.0
 10
4.977668497382738
 20
5.638379739729165
 30
0.0
 10
5.087433277135915
 20
5.705022641708663
 30
0.0
 10
5.136435410953582
 20
5.726583580583211
 30
0.0
 10
5.18543754477125
 20
5.748144519457709
 30
0.0
 10
5.28344181240512
 20
5.775585714385746
 30
0.0
 10
5.28344181240512
 20
5.775585714385746
 30
0.0
  0
SPLINE
  5
7D
330
41
100
AcDbEntity
  8
Wood
 62
   250
420
  2301728
370
     9
100
AcDbSpline
210
0.0
220
0.0
230
1.0
 70
     8
 71
     3
 72
    11
 73
     7
 74
     0
 42
0.0000000001
 43
0.0000000001
 12
1.0
 22
0.0
 32
0.0
 13
1.0
 23
0.0
 33
0.0
 40
0.0
 40
0.0
 40
0.0
 40
0.0
 40
1.0
 40
1.0
 40
1.0
 40
2.0
 40
2.0
 40
2.0
 40
2.0
 10
5.301082580585292
 20
5.848108872431415
 30
0.0
 10
5.301082580585292
 20
5.848108872431415
 30
0.0
 10
5.359885141164341
 20
5.850068957778729
 30
0.0
 10
5.414767531036887
 20
5.838308445658046
 30
0.0
 10
5.469649920909433
 20
5.826547933537388
 30
0.0
 10
5.52453231078112
 20
5.804986994653518
 30
0.0
 10
5.52453231078112
 20
5.804986994653518
 30
0.0
  0
ENDBLK
  5
44
330
41
100
AcDbEntity
  8
0
100
AcDbBlockEnd
  0
BLOCK
  5
80
330
7E
100
AcDbEntity
  8
0
100
AcDbBlockBegin
  2
block 3
 70
     0
 10
0.0
 20
0.0
 30
0.0
  3
block 3
  1

  0
POLYLINE
  5
82
330
7E
100
AcDbEntity
  8
Wood
 62
   250
420
  2301728
370
    20
100
AcDb2dPolyline
 66
     1
 10
0.0
 20
0.0
 30
0.0
  0
VERTEX
  5
83
330
82
100
AcDbEntity
  8
Wood
 62
   250
420
  2301728
370
    20
100
AcDbVertex
100
AcDb2dVertex
 10
2.906557963460513
 20
6.818719430501233
 30
0.0
  0
VERTEX
  5
84
330
82
100
AcDbEntity
  8
Wood
 62
   250
420
  2301728
370
    20
100
AcDbVertex
100
AcDb2dVertex
 10
3.150314184047033
 20
6.54942251984754
 30
0.0
  0
VERTEX
  5
85
330
82
100
AcDbEntity
  8
Wood
 62
   250
420
  2301728
370
    20
100
AcDbVertex
100
AcDb2dVertex
 10
5.703409263299236
 20
7.431549220370394
 30
0.0
  0
VERTEX
  5
86
330
82
100
AcDbEntity
  8
Wood
 62
   250
420
  2301728
370
    20
100
AcDbVertex
100
AcDb2dVertex
 10
5.70307212864941
 20
7.774394681585464
 30
0.0
  0
VERTEX
  5
87
330
82
100
AcDbEntity
  8
Wood
 62
   250
420
  2301728
370
    20
100
AcDbVertex
100
AcDb2dVertex
 10
5.749225082402138
 20
7.837117412865382
 30
0.0
  0
VERTEX
  5
88
330
82
100
AcDbEntity
  8
Wood
 62
   250
420
  2301728
370
    20
100
AcDbVertex
100
AcDb2dVertex
 10
5.654452603508237
 20
7.927557319112477
 30
0.0
  0
VERTEX
  5
89
330
82
100
AcDbEntity
  8
Wood
 62
   250
420
  2301728
370
    20
100
AcDbVertex
100
AcDb2dVertex
 10
5.702734993988466
 20
7.993924241079879
 30
0.0
  0
VERTEX
  5
8A
330
82
100
AcDbEntity
  8
Wood
 62
   250
420
  2301728
370
    20
100
AcDbVertex
100
AcDb2dVertex
 10
5.702459013997491
 20
8.291245668049454
 30
0.0
  0
VERTEX
  5
8B
330
82
100
AcDbEntity
  8
Wood
 62
   250
420
  2301728
370
    20
100
AcDbVertex
100
AcDb2dVertex
 10
5.366274582742562
 20
8.49445006868906
 30
0.0
  0
VERTEX
  5
8C
330
82
100
AcDbEntity
  8
Wood
 62
   250
420
  2301728
370
    20
100
AcDbVertex
100
AcDb2dVertex
 10
2.906557963543251
 20
7.74020416488871
 30
0.0
  0
VERTEX
  5
8D
330
82
100
AcDbEntity
  8
Wood
 62
   250
420
  2301728
370
    20
100
AcDbVertex
100
AcDb2dVertex
 10
2.906557963517887
 20
7.458105544801823
 30
0.0
  0
VERTEX
  5
8E
330
82
100
AcDbEntity
  8
Wood
 62
   250
420
  2301728
370
    20
100
AcDbVertex
100
AcDb2dVertex
 10
2.855940718083211
 20
7.349748890376506
 30
0.0
  0
VERTEX
  5
8F
330
82
100
AcDbEntity
  8
Wood
 62
   250
420
  2301728
370
    20
100
AcDbVertex
100
AcDb2dVertex
 10
2.947536292950758
 20
7.251194230769821
 30
0.0
  0
VERTEX
  5
90
330
82
100
AcDbEntity
  8
Wood
 62
   250
420
  2301728
370
    20
100
AcDbVertex
100
AcDb2dVertex
 10
2.906557963493836
 20
7.18992509878688
 30
0.0
  0
VERTEX
  5
91
330
82
100
AcDbEntity
  8
Wood
 62
   250
420
  2301728
370
    20
100
AcDbVertex
100
AcDb2dVertex
 10
2.906557963460513
 20
6.818719430501233
 30
0.0
  0
SEQEND
  5
93
330
82
100
AcDbEntity
  8
Wood
 62
   250
420
  2301728
370
    20
  0
HATCH
  5
92
330
7E
100
AcDbEntity
  8
Wood
 62
    43
420
 15510365
100
AcDbHatch
 10
0.0
 20
0.0
 30
0.0
210
0.0
220
0.0
230
1.0
  2
SOLID
 70
     1
 71
     0
 91
        1
 92
        1
 93
       14
 72
     1
 10
2.906557963460513
 20
6.818719430501233
 11
3.150314184047033
 21
6.54942251984754
 72
     1
 10
3.150314184047033
 20
6.54942251984754
 11
5.703409263299236
 21
7.431549220370394
 72
     1
 10
5.703409263299236
 20
7.431549220370394
 11
5.70307212864941
 21
7.774394681585464
 72
     1
 10
5.70307212864941
 20
7.774394681585464
 11
5.749225082402138
 21
7.837117412865382
 72
     1
 10
5.749225082402138
 20
7.837117412865382
 11
5.654452603508237
 21
7.927557319112477
 72
     1
 10
5.654452603508237
 20
7.927557319112477
 11
5.702734993988466
 21
7.993924241079879
 72
     1
 10
5.702734993988466
 20
7.993924241079879
 11
5.702459013997491
 21
8.291245668049454
 72
     1
 10
5.702459013997491
 20
8.291245668049454
 11
5.366274582742562
 21
8.49445006868906
 72
     1
 10
5.366274582742562
 20
8.49445006868906
 11
2.906557963543251
 21
7.74020416488871
 72
     1
 10
2.906557963543251
 20
7.74020416488871
 11
2.906557963517887
 21
7.458105544801823
 72
     1
 10
2.906557963517887
 20
7.458105544801823
 11
2.855940718083211
 21
7.349748890376506
 72
     1
 10
2.855940718083211
 20
7.349748890376506
 11
2.947536292950758
 21
7.251194230769821
 72
     1
 10
2.947536292950758
 20
7.251194230769821
 11
2.906557963493836
 21
7.18992509878688
 72
     1
 10
2.906557963493836
 20
7.18992509878688
 11
2.906557963460513
 21
6.818719430501233
 97
        0
 75
     2
 76
     1
 98
        0
  0
POLYLINE
  5
94
330
7E
100
AcDbEntity
  8
Wood
 62
   250
420
  2301728
370
    15
100
AcDb2dPolyline
 66
     1
 10
0.0
 20
0.0
 30
0.0
  0
VERTEX
  5
95
330
94
100
AcDbEntity
  8
Wood
 62
   250
420
  2301728
370
    15
100
AcDbVertex
100
AcDb2dVertex
 10
3.150588596003558
 20
6.552132141838986
 30
0.0
  0
VERTEX
  5
96
330
94
100
AcDbEntity
  8
Wood
 62
   250
420
  2301728
370
    15
100
AcDbVertex
100
AcDb2dVertex
 10
3.150588596036022
 20
6.913967034070815
 30
0.0
  0
VERTEX
  5
97
330
94
100
AcDbEntity
  8
Wood
 62
   250
420
  2301728
370
    15
100
AcDbVertex
100
AcDb2dVertex
 10
3.216834778434544
 20
7.036166595289147
 30
0.0
  0
VERTEX
  5
98
330
94
100
AcDbEntity
  8
Wood
 62
   250
420
  2301728
370
    15
100
AcDbVertex
100
AcDb2dVertex
 10
3.094329440806569
 20
7.103391250622192
 30
0.0
  0
VERTEX
  5
99
330
94
100
AcDbEntity
  8
Wood
 62
   250
420
  2301728
370
    15
100
AcDbVertex
100
AcDb2dVertex
 10
3.150588596063358
 20
7.21808603704326
 30
0.0
  0
VERTEX
  5
9A
330
94
100
AcDbEntity
  8
Wood
 62
   250
420
  2301728
370
    15
100
AcDbVertex
100
AcDb2dVertex
 10
3.150588596088116
 20
7.493600338413595
 30
0.0
  0
VERTEX
  5
9B
330
94
100
AcDbEntity
  8
Wood
 62
   250
420
  2301728
370
    15
100
AcDbVertex
100
AcDb2dVertex
 10
2.906865304934286
 20
7.740081855562683
 30
0.0
  0
SEQEND
  5
9C
330
94
100
AcDbEntity
  8
Wood
 62
   250
420
  2301728
370
    15
  0
POLYLINE
  5
9D
330
7E
100
AcDbEntity
  8
Wood
 62
   250
420
  2301728
370
    20
100
AcDb2dPolyline
 66
     1
 10
0.0
 20
0.0
 30
0.0
  0
VERTEX
  5
9E
330
9D
100
AcDbEntity
  8
Wood
 62
   250
420
  2301728
370
    20
100
AcDbVertex
100
AcDb2dVertex
 10
2.907845347610027
 20
7.458166699464717
 30
0.0
  0
VERTEX
  5
9F
330
9D
100
AcDbEntity
  8
Wood
 62
   250
420
  2301728
370
    20
100
AcDbVertex
100
AcDb2dVertex
 10
3.14933414140608
 20
7.219066079719696
 30
0.0
  0
SEQEND
  5
A0
330
9D
100
AcDbEntity
  8
Wood
 62
   250
420
  2301728
370
    20
  0
POLYLINE
  5
A1
330
7E
100
AcDbEntity
  8
Wood
 62
   250
420
  2301728
370
     9
100
AcDb2dPolyline
 66
     1
 10
0.0
 20
0.0
 30
0.0
  0
VERTEX
  5
A2
330
A1
100
AcDbEntity
  8
Wood
 62
   250
420
  2301728
370
     9
100
AcDbVertex
100
AcDb2dVertex
 10
2.941847341080208
 20
7.258543766808556
 30
0.0
  0
VERTEX
  5
A3
330
A1
100
AcDbEntity
  8
Wood
 62
   250
420
  2301728
370
     9
100
AcDbVertex
100
AcDb2dVertex
 10
3.094205563409105
 20
7.103207786633207
 30
0.0
  0
SEQEND
  5
A4
330
A1
100
AcDbEntity
  8
Wood
 62
   250
420
  2301728
370
     9
  0
POLYLINE
  5
A5
330
7E
100
AcDbEntity
  8
Wood
 62
   250
420
  2301728
370
    20
100
AcDb2dPolyline
 66
     1
 10
0.0
 20
0.0
 30
0.0
  0
VERTEX
  5
A6
330
A5
100
AcDbEntity
  8
Wood
 62
   250
420
  2301728
370
    20
100
AcDbVertex
100
AcDb2dVertex
 10
2.907845347585875
 20
7.188915262813086
 30
0.0
  0
VERTEX
  5
A7
330
A5
100
AcDbEntity
  8
Wood
 62
   250
420
  2301728
370
    20
100
AcDbVertex
100
AcDb2dVertex
 10
3.151079401420791
 20
6.914150603396352
 30
0.0
  0
SEQEND
  5
A8
330
A5
100
AcDbEntity
  8
Wood
 62
   250
420
  2301728
370
    20
  0
POLYLINE
  5
A9
330
7E
100
AcDbEntity
  8
Wood
 62
   250
420
  2301728
370
    15
100
AcDb2dPolyline
 66
     1
 10
0.0
 20
0.0
 30
0.0
  0
VERTEX
  5
AA
330
A9
100
AcDbEntity
  8
Wood
 62
   250
420
  2301728
370
    15
100
AcDbVertex
100
AcDb2dVertex
 10
3.151262865466442
 20
7.493478029087529
 30
0.0
  0
VERTEX
  5
AB
330
A9
100
AcDbEntity
  8
Wood
 62
   250
420
  2301728
370
    15
100
AcDbVertex
100
AcDb2dVertex
 10
5.700666711951044
 20
8.29129114202975
 30
0.0
  0
SEQEND
  5
AC
330
A9
100
AcDbEntity
  8
Wood
 62
   250
420
  2301728
370
    15
  0
SPLINE
  5
AD
330
7E
100
AcDbEntity
  8
Wood
 62
   250
420
  2301728
370
     9
100
AcDbSpline
210
0.0
220
0.0
230
1.0
 70
     8
 71
     3
 72
    14
 73
    10
 74
     0
 42
0.0000000001
 43
0.0000000001
 12
1.0
 22
0.0
 32
0.0
 13
1.0
 23
0.0
 33
0.0
 40
0.0
 40
0.0
 40
0.0
 40
0.0
 40
1.0
 40
1.0
 40
1.0
 40
2.0
 40
2.0
 40
2.0
 40
3.0
 40
3.0
 40
3.0
 40
3.0
 10
2.919100942047294
 20
7.724677152758178
 30
0.0
 10
2.919100942047294
 20
7.724677152758178
 30
0.0
 10
2.94594470363802
 20
7.628051217144325
 30
0.0
 10
2.94334171022068
 20
7.591253358768439
 30
0.0
 10
2.94072303612015
 20
7.554455621904632
 30
0.0
 10
2.938104362014441
 20
7.46092336350192
 30
0.0
 10
2.943341710205017
 20
7.416973545690679
 30
0.0
 10
2.943341710205017
 20
7.416973545690679
 30
0.0
 10
2.879515057230176
 20
7.330668635517744
 30
0.0
 10
2.879515057230176
 20
7.330668635517744
 30
0.0
  0
SPLINE
  5
AE
330
7E
100
AcDbEntity
  8
Wood
 62
   250
420
  2301728
370
     9
100
AcDbSpline
210
0.0
220
0.0
230
1.0
 70
     8
 71
     3
 72
    14
 73
    10
 74
     0
 42
0.0000000001
 43
0.0000000001
 12
1.0
 22
0.0
 32
0.0
 13
1.0
 23
0.0
 33
0.0
 40
0.0
 40
0.0
 40
0.0
 40
0.0
 40
1.0
 40
1.0
 40
1.0
 40
2.0
 40
2.0
 40
2.0
 40
3.0
 40
3.0
 40
3.0
 40
3.0
 10
2.960919756115711
 20
7.686867890336404
 30
0.0
 10
2.960919756115711
 20
7.686867890336404
 30
0.0
 10
2.993781763924277
 20
7.579262462749435
 30
0.0
 10
2.98594142231146
 20
7.532281446811289
 30
0.0
 10
2.978101080698669
 20
7.485270759714581
 30
0.0
 10
2.982573211542659
 20
7.379211325317593
 30
0.0
 10
2.982573211542659
 20
7.379211325317593
 30
0.0
 10
2.982573211542659
 20
7.379211325317593
 30
0.0
 10
2.930264020392984
 20
7.317192656696811
 30
0.0
 10
2.906742995565297
 20
7.295540769859636
 30
0.0
  0
SPLINE
  5
AF
330
7E
100
AcDbEntity
  8
Wood
 62
   250
420
  2301728
370
     9
100
AcDbSpline
210
0.0
220
0.0
230
1.0
 70
     8
 71
     3
 72
    14
 73
    10
 74
     0
 42
0.0000000001
 43
0.0000000001
 12
1.0
 22
0.0
 32
0.0
 13
1.0
 23
0.0
 33
0.0
 40
0.0
 40
0.0
 40
0.0
 40
0.0
 40
1.0
 40
1.0
 40
1.0
 40
2.0
 40
2.0
 40
2.0
 40
3.0
 40
3.0
 40
3.0
 40
3.0
 10
3.006139710373102
 20
7.639551429919859
 30
0.0
 10
3.006139710373102
 20
7.639551429919859
 30
0.0
 10
3.02254013694254
 20
7.557395628414193
 30
0.0
 10
3.022540136939028
 20
7.518393066033418
 30
0.0
 10
3.022540136935516
 20
7.479390503652704
 30
0.0
 10
3.014699795315247
 20
7.348554022331288
 30
0.0
 10
3.014699795315247
 20
7.348554022331288
 30
0.0
 10
3.014699795315247
 20
7.348554022331288
 30
0.0
 10
2.940723036093547
 20
7.258543766808644
 30
0.0
 10
2.940723036093547
 20
7.258543766808644
 30
0.0
  0
SPLINE
  5
B0
330
7E
100
AcDbEntity
  8
Wood
 62
   250
420
  2301728
370
     9
100
AcDbSpline
210
0.0
220
0.0
230
1.0
 70
     8
 71
     3
 72
    14
 73
    10
 74
     0
 42
0.0000000001
 43
0.0000000001
 12
1.0
 22
0.0
 32
0.0
 13
1.0
 23
0.0
 33
0.0
 40
0.0
 40
0.0
 40
0.0
 40
0.0
 40
1.0
 40
1.0
 40
1.0
 40
2.0
 40
2.0
 40
2.0
 40
3.0
 40
3.0
 40
3.0
 40
3.0
 10
3.043367220395276
 20
7.598557420817529
 30
0.0
 10
3.043367220395276
 20
7.598557420817529
 30
0.0
 10
3.061741844980197
 20
7.499113666501456
 30
0.0
 10
3.053901503367911
 20
7.457768529177517
 30
0.0
 10
3.046061161755624
 20
7.416423153714454
 30
0.0
 10
3.048740990508513
 20
7.317300968918667
 30
0.0
 10
3.048740990508513
 20
7.317300968918667
 30
0.0
 10
3.048740990508513
 20
7.317300968918667
 30
0.0
 10
3.016920180050735
 20
7.259340345489123
 30
0.0
 10
2.975099797907572
 20
7.225727233797707
 30
0.0
  0
SPLINE
  5
B1
330
7E
100
AcDbEntity
  8
Wood
 62
   250
420
  2301728
370
     9
100
AcDbSpline
210
0.0
220
0.0
230
1.0
 70
     8
 71
     3
 72
    14
 73
    10
 74
     0
 42
0.0000000001
 43
0.0000000001
 12
1.0
 22
0.0
 32
0.0
 13
1.0
 23
0.0
 33
0.0
 40
0.0
 40
0.0
 40
0.0
 40
0.0
 40
1.0
 40
1.0
 40
1.0
 40
2.0
 40
2.0
 40
2.0
 40
3.0
 40
3.0
 40
3.0
 40
3.0
 10
3.080271708343679
 20
7.563291565149686
 30
0.0
 10
3.080271708343679
 20
7.563291565149686
 30
0.0
 10
3.093103211412515
 20
7.476787510298082
 30
0.0
 10
3.085262869800633
 20
7.440311105920462
 30
0.0
 10
3.07742252818884
 20
7.403834701542905
 30
0.0
 10
3.078402570879727
 20
7.290762865788691
 30
0.0
 10
3.078402570879727
 20
7.290762865788691
 30
0.0
 10
3.078402570879727
 20
7.290762865788691
 30
0.0
 10
3.034852609373994
 20
7.215958168394839
 30
0.0
 10
3.008712910448808
 20
7.191900864813154
 30
0.0
  0
SPLINE
  5
B2
330
7E
100
AcDbEntity
  8
Wood
 62
   250
420
  2301728
370
     9
100
AcDbSpline
210
0.0
220
0.0
230
1.0
 70
     8
 71
     3
 72
    14
 73
    10
 74
     0
 42
0.0000000001
 43
0.0000000001
 12
1.0
 22
0.0
 32
0.0
 13
1.0
 23
0.0
 33
0.0
 40
0.0
 40
0.0
 40
0.0
 40
0.0
 40
1.0
 40
1.0
 40
1.0
 40
2.0
 40
2.0
 40
2.0
 40
3.0
 40
3.0
 40
3.0
 40
3.0
 10
3.114985604847018
 20
7.532267455136725
 30
0.0
 10
3.114985604847018
 20
7.532267455136725
 30
0.0
 10
3.125842909896707
 20
7.422425719091166
 30
0.0
 10
3.11922722963781
 20
7.315569706007838
 30
0.0
 10
3.116839061580334
 20
7.276659659655959
 30
0.0
 10
3.111970209439392
 20
7.254073204121014
 30
0.0
 10
3.111970209439392
 20
7.254073204121014
 30
0.0
 10
3.111970209439392
 20
7.254073204121014
 30
0.0
 10
3.077422528168452
 20
7.177123389316471
 30
0.0
 10
3.04866415514602
 20
7.153097447100663
 30
0.0
  0
SPLINE
  5
B3
330
7E
100
AcDbEntity
  8
Wood
 62
   250
420
  2301728
370
     9
100
AcDbSpline
210
0.0
220
0.0
230
1.0
 70
     8
 71
     3
 72
    11
 73
     7
 74
     0
 42
0.0000000001
 43
0.0000000001
 12
1.0
 22
0.0
 32
0.0
 13
1.0
 23
0.0
 33
0.0
 40
0.0
 40
0.0
 40
0.0
 40
0.0
 40
1.0
 40
1.0
 40
1.0
 40
2.0
 40
2.0
 40
2.0
 40
2.0
 10
2.979128165425525
 20
7.219832865124949
 30
0.0
 10
2.979128165425525
 20
7.219832865124949
 30
0.0
 10
2.925042352868318
 20
7.168547623895342
 30
0.0
 10
2.925042352868318
 20
7.168547623895342
 30
0.0
 10
2.925042352868318
 20
7.168547623895342
 30
0.0
 10
2.925042352858478
 20
7.058829886196602
 30
0.0
 10
2.9093616696321
 20
6.9566452549366
 30
0.0
  0
SPLINE
  5
B4
330
7E
100
AcDbEntity
  8
Wood
 62
   250
420
  2301728
370
     9
100
AcDbSpline
210
0.0
220
0.0
230
1.0
 70
     8
 71
     3
 72
    17
 73
    13
 74
     0
 42
0.0000000001
 43
0.0000000001
 12
1.0
 22
0.0
 32
0.0
 13
1.0
 23
0.0
 33
0.0
 40
0.0
 40
0.0
 40
0.0
 40
0.0
 40
1.0
 40
1.0
 40
1.0
 40
2.0
 40
2.0
 40
2.0
 40
3.0
 40
3.0
 40
3.0
 40
4.0
 40
4.0
 40
4.0
 40
4.0
 10
3.010933295191408
 20
7.181059240710497
 30
0.0
 10
3.010933295191408
 20
7.181059240710497
 30
0.0
 10
2.953785045202216
 20
7.13406266623277
 30
0.0
 10
2.953785045202216
 20
7.13406266623277
 30
0.0
 10
2.953785045202216
 20
7.13406266623277
 30
0.0
 10
2.953785045194801
 20
7.051173008772492
 30
0.0
 10
2.948563377679799
 20
7.009796391013095
 30
0.0
 10
2.943341710164772
 20
6.96842144802963
 30
0.0
 10
2.930264020357059
 20
6.91739650484217
 30
0.0
 10
2.930264020354861
 20
6.893003529227181
 30
0.0
 10
2.930264020352688
 20
6.868624771645322
 30
0.0
 10
2.909361669618988
 20
6.810374171103629
 30
0.0
 10
2.909361669618988
 20
6.810374171103629
 30
0.0
  0
SPLINE
  5
B5
330
7E
100
AcDbEntity
  8
Wood
 62
   250
420
  2301728
370
     9
100
AcDbSpline
210
0.0
220
0.0
230
1.0
 70
     8
 71
     3
 72
    17
 73
    13
 74
     0
 42
0.0000000001
 43
0.0000000001
 12
1.0
 22
0.0
 32
0.0
 13
1.0
 23
0.0
 33
0.0
 40
0.0
 40
0.0
 40
0.0
 40
0.0
 40
1.0
 40
1.0
 40
1.0
 40
2.0
 40
2.0
 40
2.0
 40
3.0
 40
3.0
 40
3.0
 40
4.0
 40
4.0
 40
4.0
 40
4.0
 10
3.046061161731321
 20
7.145823178340227
 30
0.0
 10
3.046061161731321
 20
7.145823178340227
 30
0.0
 10
2.990413553125803
 20
7.095994672544848
 30
0.0
 10
2.990413553125803
 20
7.095994672544848
 30
0.0
 10
2.990413553125803
 20
7.095994672544848
 30
0.0
 10
2.999019112070919
 20
7.046456259375873
 30
0.0
 10
2.988575777043075
 20
6.988067668824429
 30
0.0
 10
2.978101080648748
 20
6.929679078272986
 30
0.0
 10
2.96686273498301
 20
6.885240023159175
 30
0.0
 10
2.959022393371811
 20
6.856083361522463
 30
0.0
 10
2.951182051760661
 20
6.826926699885752
 30
0.0
 10
2.932882694442279
 20
6.783268542777073
 30
0.0
 10
2.932882694442279
 20
6.783268542777073
 30
0.0
  0
SPLINE
  5
B6
330
7E
100
AcDbEntity
  8
Wood
 62
   250
420
  2301728
370
     9
100
AcDbSpline
210
0.0
220
0.0
230
1.0
 70
     8
 71
     3
 72
    14
 73
    10
 74
     0
 42
0.0000000001
 43
0.0000000001
 12
1.0
 22
0.0
 32
0.0
 13
1.0
 23
0.0
 33
0.0
 40
0.0
 40
0.0
 40
0.0
 40
0.0
 40
1.0
 40
1.0
 40
1.0
 40
2.0
 40
2.0
 40
2.0
 40
3.0
 40
3.0
 40
3.0
 40
3.0
 10
3.077422528162957
 20
7.116177279395982
 30
0.0
 10
3.077422528162957
 20
7.116177279395982
 30
0.0
 10
3.027012267751072
 20
7.056165738176155
 30
0.0
 10
3.027012267751072
 20
7.056165738176155
 30
0.0
 10
3.027012267751072
 20
7.056165738176155
 30
0.0
 10
3.022540136891179
 20
6.985204376138275
 30
0.0
 10
3.012096801861528
 20
6.907321560703697
 30
0.0
 10
3.00162210546547
 20
6.82943874526917
 30
0.0
 10
2.980735435412587
 20
6.744374177103496
 30
0.0
 10
2.980735435412587
 20
6.744374177103496
 30
0.0
  0
SPLINE
  5
B7
330
7E
100
AcDbEntity
  8
Wood
 62
   250
420
  2301728
370
     9
100
AcDbSpline
210
0.0
220
0.0
230
1.0
 70
     8
 71
     3
 72
    14
 73
    10
 74
     0
 42
0.0000000001
 43
0.0000000001
 12
1.0
 22
0.0
 32
0.0
 13
1.0
 23
0.0
 33
0.0
 40
0.0
 40
0.0
 40
0.0
 40
0.0
 40
1.0
 40
1.0
 40
1.0
 40
2.0
 40
2.0
 40
2.0
 40
3.0
 40
3.0
 40
3.0
 40
3.0
 10
3.11138688800866
 20
7.086515699768673
 30
0.0
 10
3.11138688800866
 20
7.086515699768673
 30
0.0
 10
3.060976627596006
 20
7.018494465763827
 30
0.0
 10
3.060976627596006
 20
7.018494465763827
 30
0.0
 10
3.060976627596006
 20
7.018494465763827
 30
0.0
 10
3.051298509903732
 20
6.899526693269813
 30
0.0
 10
3.043458168291219
 20
6.855746226834235
 30
0.0
 10
3.035617826678706
 20
6.811965760398632
 30
0.0
 10
3.030380478478075
 20
6.743776743083572
 30
0.0
 10
3.012096801844045
 20
6.712293168354399
 30
0.0
  0
SPLINE
  5
B8
330
7E
100
AcDbEntity
  8
Wood
 62
   250
420
  2301728
370
     9
100
AcDbSpline
210
0.0
220
0.0
230
1.0
 70
     8
 71
     3
 72
    17
 73
    13
 74
     0
 42
0.0000000001
 43
0.0000000001
 12
1.0
 22
0.0
 32
0.0
 13
1.0
 23
0.0
 33
0.0
 40
0.0
 40
0.0
 40
0.0
 40
0.0
 40
1.0
 40
1.0
 40
1.0
 40
2.0
 40
2.0
 40
2.0
 40
3.0
 40
3.0
 40
3.0
 40
4.0
 40
4.0
 40
4.0
 40
4.0
 10
3.153881539525666
 20
7.070130954285142
 30
0.0
 10
3.153881539525666
 20
7.070130954285142
 30
0.0
 10
3.093103211368505
 20
6.986766172140922
 30
0.0
 10
3.093103211368505
 20
6.986766172140922
 30
0.0
 10
3.093103211368505
 20
6.986766172140922
 30
0.0
 10
3.077422528144818
 20
6.91382904406857
 30
0.0
 10
3.077422528141963
 20
6.882146328956777
 30
0.0
 10
3.077422528139083
 20
6.850447724105972
 30
0.0
 10
3.069582186524169
 20
6.779854858114681
 30
0.0
 10
3.061741844912767
 20
6.748247305752998
 30
0.0
 10
3.053901503301366
 20
6.716657002142483
 30
0.0
 10
3.032983471886647
 20
6.68279927179718
 30
0.0
 10
3.032983471886647
 20
6.68279927179718
 30
0.0
  0
SPLINE
  5
B9
330
7E
100
AcDbEntity
  8
Wood
 62
   250
420
  2301728
370
     9
100
AcDbSpline
210
0.0
220
0.0
230
1.0
 70
     8
 71
     3
 72
    17
 73
    13
 74
     0
 42
0.0000000001
 43
0.0000000001
 12
1.0
 22
0.0
 32
0.0
 13
1.0
 23
0.0
 33
0.0
 40
0.0
 40
0.0
 40
0.0
 40
0.0
 40
1.0
 40
1.0
 40
1.0
 40
2.0
 40
2.0
 40
2.0
 40
3.0
 40
3.0
 40
3.0
 40
4.0
 40
4.0
 40
4.0
 40
4.0
 10
3.190464573469184
 20
7.046609930050307
 30
0.0
 10
3.190464573469184
 20
7.046609930050307
 30
0.0
 10
3.132304919407425
 20
6.94241963305122
 30
0.0
 10
3.132304919407425
 20
6.94241963305122
 30
0.0
 10
3.132304919407425
 20
6.94241963305122
 30
0.0
 10
3.114021242768318
 20
6.854872812794774
 30
0.0
 10
3.114021242765059
 20
6.818305460456119
 30
0.0
 10
3.114021242761775
 20
6.781738108117477
 30
0.0
 10
3.116624236173657
 20
6.757343771227864
 30
0.0
 10
3.106180901147721
 20
6.720898626840898
 30
0.0
 10
3.095706204755427
 20
6.684453583829168
 30
0.0
 10
3.077422528120084
 20
6.638360216678405
 30
0.0
 10
3.077422528120084
 20
6.638360216678405
 30
0.0
  0
SPLINE
  5
BA
330
7E
100
AcDbEntity
  8
Wood
 62
   250
420
  2301728
370
     9
100
AcDbSpline
210
0.0
220
0.0
230
1.0
 70
     8
 71
     3
 72
     8
 73
     4
 74
     0
 42
0.0000000001
 43
0.0000000001
 12
1.0
 22
0.0
 32
0.0
 13
1.0
 23
0.0
 33
0.0
 40
0.0
 40
0.0
 40
0.0
 40
0.0
 40
1.0
 40
1.0
 40
1.0
 40
1.0
 10
3.150588596016948
 20
6.700838329303931
 30
0.0
 10
3.150588596016948
 20
6.700838329303931
 30
0.0
 10
3.137526586890481
 20
6.627871407934044
 30
0.0
 10
3.111386887964436
 20
6.594059151569391
 30
0.0
  0
ENDBLK
  5
81
330
7E
100
AcDbEntity
  8
0
100
AcDbBlockEnd
  0
BLOCK
  5
BE
330
BC
100
AcDbEntity
  8
0
100
AcDbBlockBegin
  2
block 4
 70
     0
 10
0.0
 20
0.0
 30
0.0
  3
block 4
  1

  0
SPLINE
  5
C0
330
BC
100
AcDbEntity
  8
E5SS
 62
   250
420
  2301728
370
    20
100
AcDbSpline
210
0.0
220
0.0
230
1.0
 70
    11
 71
     3
 72
    44
 73
    40
 74
     0
 42
0.0000000001
 43
0.0000000001
 12
1.0
 22
0.0
 32
0.0
 13
1.0
 23
0.0
 33
0.0
 40
0.0
 40
0.0
 40
0.0
 40
0.0
 40
1.0
 40
1.0
 40
1.0
 40
2.0
 40
2.0
 40
2.0
 40
3.0
 40
3.0
 40
3.0
 40
4.0
 40
4.0
 40
4.0
 40
5.0
 40
5.0
 40
5.0
 40
6.0
 40
6.0
 40
6.0
 40
7.0
 40
7.0
 40
7.0
 40
8.0
 40
8.0
 40
8.0
 40
9.0
 40
9.0
 40
9.0
 40
10.0
 40
10.0
 40
10.0
 40
11.0
 40
11.0
 40
11.0
 40
12.0
 40
12.0
 40
12.0
 40
13.0
 40
13.0
 40
13.0
 40
13.0
 10
4.691867156973962
 20
7.761921996883731
 30
0.0
 10
4.691867156973962
 20
7.761921996883731
 30
0.0
 10
4.673019875199543
 20
7.769459866630363
 30
0.0
 10
4.673019875199543
 20
7.769459866630363
 30
0.0
 10
4.673019875199543
 20
7.769459866630363
 30
0.0
 10
4.145304574614102
 20
7.591041836458821
 30
0.0
 10
4.145304574614102
 20
7.591041836458821
 30
0.0
 10
4.145304574614102
 20
7.591041836458821
 30
0.0
 10
4.10761062457022
 20
7.531987981395913
 30
0.0
 10
4.10761062457022
 20
7.531987981395913
 30
0.0
 10
4.10761062457022
 20
7.531987981395913
 30
0.0
 10
4.106359374362329
 20
6.92888478073611
 30
0.0
 10
4.106359374361773
 20
6.916320130722359
 30
0.0
 10
4.106359374361217
 20
6.903755480708607
 30
0.0
 10
4.107610624540712
 20
6.874856785676936
 30
0.0
 10
4.128975744383928
 20
6.858522740658095
 30
0.0
 10
4.150330434585991
 20
6.842188695639265
 30
0.0
 10
4.432627690373945
 20
6.637816810246729
 30
0.0
 10
4.432627690373945
 20
6.637816810246729
 30
0.0
 10
4.432627690373945
 20
6.637816810246729
 30
0.0
 10
5.035730584288936
 20
6.843877070445122
 30
0.0
 10
5.035730584288936
 20
6.843877070445122
 30
0.0
 10
5.035730584288936
 20
6.843877070445122
 30
0.0
 10
5.035733345077284
 20
6.865653854359316
 30
0.0
 10
5.035733345077284
 20
6.865653854359316
 30
0.0
 10
5.035733345077284
 20
6.865653854359316
 30
0.0
 10
4.750935429452536
 20
7.068367120059001
 30
0.0
 10
4.74088370944196
 20
7.07841884007045
 30
0.0
 10
4.730831989431433
 20
7.088470560081898
 30
0.0
 10
4.729158338785737
 20
7.103548140098458
 30
0.0
 10
4.72915833878604
 20
7.110252558816732
 30
0.0
 10
4.729158338786343
 20
7.116952069468576
 30
0.0
 10
4.729158338814032
 20
7.73345643871125
 30
0.0
 10
4.729158338814032
 20
7.73345643871125
 30
0.0
 10
4.729158338814032
 20
7.73345643871125
 30
0.0
 10
4.691871758286222
 20
7.761923530654485
 30
0.0
 10
4.691871758286222
 20
7.761923530654485
 30
0.0
 10
4.691871758286222
 20
7.761923530654485
 30
0.0
 10
4.691867156973962
 20
7.761921996883731
 30
0.0
 10
4.691867156973962
 20
7.761921996883731
 30
0.0
  0
SPLINE
  5
C1
330
BC
100
AcDbEntity
  8
E5SS
 62
   250
420
  2301728
370
    20
100
AcDbSpline
210
0.0
220
0.0
230
1.0
 70
    11
 71
     3
 72
    11
 73
     7
 74
     0
 42
0.0000000001
 43
0.0000000001
 12
1.0
 22
0.0
 32
0.0
 13
1.0
 23
0.0
 33
0.0
 40
0.0
 40
0.0
 40
0.0
 40
0.0
 40
1.0
 40
1.0
 40
1.0
 40
2.0
 40
2.0
 40
2.0
 40
2.0
 10
4.638685803342292
 20
7.126164510127283
 30
0.0
 10
4.631983838658193
 20
7.147941600795926
 30
0.0
 10
4.64538776802917
 20
7.166371390170966
 30
0.0
 10
4.669677788700255
 20
7.165532110813476
 30
0.0
 10
4.673864369348191
 20
7.139563224675284
 30
0.0
 10
4.657952418041077
 20
7.125325230770007
 30
0.0
 10
4.638685803342292
 20
7.126164510127283
 30
0.0
  0
SPLINE
  5
C2
330
BC
100
AcDbEntity
  8
E5SS
 62
   250
420
  2301728
370
    20
100
AcDbSpline
210
0.0
220
0.0
230
1.0
 70
    11
 71
     3
 72
    11
 73
     7
 74
     0
 42
0.0000000001
 43
0.0000000001
 12
1.0
 22
0.0
 32
0.0
 13
1.0
 23
0.0
 33
0.0
 40
0.0
 40
0.0
 40
0.0
 40
0.0
 40
1.0
 40
1.0
 40
1.0
 40
2.0
 40
2.0
 40
2.0
 40
2.0
 10
4.541093504046633
 20
6.839675765618987
 30
0.0
 10
4.553658154062355
 20
6.883652040666536
 30
0.0
 10
4.683071595170304
 20
6.873600320649731
 30
0.0
 10
4.683071595168788
 20
6.839675765612608
 30
0.0
 10
4.645377645125462
 20
6.79318656056345
 30
0.0
 10
4.562450955035451
 20
6.809520605585021
 30
0.0
 10
4.541093504046633
 20
6.839675765618987
 30
0.0
  0
SPLINE
  5
C3
330
BC
100
AcDbEntity
  8
E5SS
 62
   250
420
  2301728
370
    20
100
AcDbSpline
210
0.0
220
0.0
230
1.0
 70
    11
 71
     3
 72
    11
 73
     7
 74
     0
 42
0.0000000001
 43
0.0000000001
 12
1.0
 22
0.0
 32
0.0
 13
1.0
 23
0.0
 33
0.0
 40
0.0
 40
0.0
 40
0.0
 40
0.0
 40
1.0
 40
1.0
 40
1.0
 40
2.0
 40
2.0
 40
2.0
 40
2.0
 10
4.43597284440999
 20
7.135372349478732
 30
0.0
 10
4.440156664270565
 20
7.109398555274083
 30
0.0
 10
4.424249927784027
 20
7.095165469435263
 30
0.0
 10
4.404985460364287
 20
7.096004748792514
 30
0.0
 10
4.398281348401143
 20
7.11778183946117
 30
0.0
 10
4.41168527777212
 20
7.136211628836185
 30
0.0
 10
4.43597284440999
 20
7.135372349478732
 30
0.0
  0
SPLINE
  5
C4
330
BC
100
AcDbEntity
  8
E5SS
 62
   250
420
  2301728
370
    20
100
AcDbSpline
210
0.0
220
0.0
230
1.0
 70
    11
 71
     3
 72
    26
 73
    22
 74
     0
 42
0.0000000001
 43
0.0000000001
 12
1.0
 22
0.0
 32
0.0
 13
1.0
 23
0.0
 33
0.0
 40
0.0
 40
0.0
 40
0.0
 40
0.0
 40
1.0
 40
1.0
 40
1.0
 40
2.0
 40
2.0
 40
2.0
 40
3.0
 40
3.0
 40
3.0
 40
4.0
 40
4.0
 40
4.0
 40
5.0
 40
5.0
 40
5.0
 40
6.0
 40
6.0
 40
6.0
 40
7.0
 40
7.0
 40
7.0
 40
7.0
 10
4.377755814681046
 20
7.413880271254571
 30
0.0
 10
4.409162224895302
 20
7.423931991264149
 30
0.0
 10
4.482037194976177
 20
7.449061291288368
 30
0.0
 10
4.482037194976177
 20
7.449061291288368
 30
0.0
 10
4.482037194976177
 20
7.449061291288368
 30
0.0
 10
4.513451274044024
 20
7.455647609657212
 30
0.0
 10
4.517218215013372
 20
7.420162596255168
 30
0.0
 10
4.520990064049101
 20
7.384682184165412
 30
0.0
 10
4.485809350763475
 20
7.356082881186492
 30
0.0
 10
4.477011334966215
 20
7.34980055618002
 30
0.0
 10
4.468218840743677
 20
7.343518231173536
 30
0.0
 10
4.389058784868691
 20
7.320901861152353
 30
0.0
 10
4.371468274849146
 20
7.314619536146235
 30
0.0
 10
4.353877764829627
 20
7.308337211140156
 30
0.0
 10
4.338800184813307
 20
7.312106606144968
 30
0.0
 10
4.338800184813307
 20
7.312106606144968
 30
0.0
 10
4.338800184813307
 20
7.312106606144968
 30
0.0
 10
4.323722604797164
 20
7.319645396153899
 30
0.0
 10
4.323722604798174
 20
7.34226176617863
 30
0.0
 10
4.323722604799185
 20
7.364878136203388
 30
0.0
 10
4.346338974825686
 20
7.403828551244992
 30
0.0
 10
4.377755814681046
 20
7.413880271254571
 30
0.0
  0
SPLINE
  5
C5
330
BC
100
AcDbEntity
  8
E5SS
 62
   250
420
  2301728
370
    20
100
AcDbSpline
210
0.0
220
0.0
230
1.0
 70
    11
 71
     3
 72
    11
 73
     7
 74
     0
 42
0.0000000001
 43
0.0000000001
 12
1.0
 22
0.0
 32
0.0
 13
1.0
 23
0.0
 33
0.0
 40
0.0
 40
0.0
 40
0.0
 40
0.0
 40
1.0
 40
1.0
 40
1.0
 40
2.0
 40
2.0
 40
2.0
 40
2.0
 10
4.201418497871992
 20
7.007202796462074
 30
0.0
 10
4.205604771765744
 20
6.98123421707799
 30
0.0
 10
4.189693127212776
 20
6.966995916418593
 30
0.0
 10
4.170428966547231
 20
6.967835195775844
 30
0.0
 10
4.163724547829917
 20
6.989612286444513
 30
0.0
 10
4.177128477200894
 20
7.008042075819528
 30
0.0
 10
4.201418497871992
 20
7.007202796462074
 30
0.0
  0
HATCH
  5
C6
330
BC
100
AcDbEntity
  8
E5SS
 62
   254
420
 13358815
100
AcDbHatch
 10
0.0
 20
0.0
 30
0.0
210
0.0
220
0.0
230
1.0
  2
SOLID
 70
     1
 71
     0
 91
        6
 92
        1
 93
        1
 72
     4
 94
        3
 73
     0
 74
     1
 95
       44
 96
       40
 40
0.0
 40
0.0
 40
0.0
 40
0.0
 40
1.0
 40
1.0
 40
1.0
 40
2.0
 40
2.0
 40
2.0
 40
3.0
 40
3.0
 40
3.0
 40
4.0
 40
4.0
 40
4.0
 40
5.0
 40
5.0
 40
5.0
 40
6.0
 40
6.0
 40
6.0
 40
7.0
 40
7.0
 40
7.0
 40
8.0
 40
8.0
 40
8.0
 40
9.0
 40
9.0
 40
9.0
 40
10.0
 40
10.0
 40
10.0
 40
11.0
 40
11.0
 40
11.0
 40
12.0
 40
12.0
 40
12.0
 40
13.0
 40
13.0
 40
13.0
 40
13.0
 10
4.691867156973962
 20
7.761921996883731
 10
4.691867156973962
 20
7.761921996883731
 10
4.673019875199543
 20
7.769459866630363
 10
4.673019875199543
 20
7.769459866630363
 10
4.673019875199543
 20
7.769459866630363
 10
4.145304574614102
 20
7.591041836458821
 10
4.145304574614102
 20
7.591041836458821
 10
4.145304574614102
 20
7.591041836458821
 10
4.10761062457022
 20
7.531987981395913
 10
4.10761062457022
 20
7.531987981395913
 10
4.10761062457022
 20
7.531987981395913
 10
4.106359374362329
 20
6.92888478073611
 10
4.106359374361773
 20
6.916320130722359
 10
4.106359374361217
 20
6.903755480708607
 10
4.107610624540712
 20
6.874856785676936
 10
4.128975744383928
 20
6.858522740658095
 10
4.150330434585991
 20
6.842188695639265
 10
4.432627690373945
 20
6.637816810246729
 10
4.432627690373945
 20
6.637816810246729
 10
4.432627690373945
 20
6.637816810246729
 10
5.035730584288936
 20
6.843877070445122
 10
5.035730584288936
 20
6.843877070445122
 10
5.035730584288936
 20
6.843877070445122
 10
5.035733345077284
 20
6.865653854359316
 10
5.035733345077284
 20
6.865653854359316
 10
5.035733345077284
 20
6.865653854359316
 10
4.750935429452536
 20
7.068367120059001
 10
4.74088370944196
 20
7.07841884007045
 10
4.730831989431433
 20
7.088470560081898
 10
4.729158338785737
 20
7.103548140098458
 10
4.72915833878604
 20
7.110252558816732
 10
4.729158338786343
 20
7.116952069468576
 10
4.729158338814032
 20
7.73345643871125
 10
4.729158338814032
 20
7.73345643871125
 10
4.729158338814032
 20
7.73345643871125
 10
4.691871758286222
 20
7.761923530654485
 10
4.691871758286222
 20
7.761923530654485
 10
4.691871758286222
 20
7.761923530654485
 10
4.691867156973962
 20
7.761921996883731
 10
4.691867156973962
 20
7.761921996883731
 97
        0
 97
        0
 92
        1
 93
        1
 72
     4
 94
        3
 73
     0
 74
     1
 95
       11
 96
        7
 40
0.0
 40
0.0
 40
0.0
 40
0.0
 40
1.0
 40
1.0
 40
1.0
 40
2.0
 40
2.0
 40
2.0
 40
2.0
 10
4.638685803342292
 20
7.126164510127283
 10
4.631983838658193
 20
7.147941600795926
 10
4.64538776802917
 20
7.166371390170966
 10
4.669677788700255
 20
7.165532110813476
 10
4.673864369348191
 20
7.139563224675284
 10
4.657952418041077
 20
7.125325230770007
 10
4.638685803342292
 20
7.126164510127283
 97
        0
 97
        0
 92
        1
 93
        1
 72
     4
 94
        3
 73
     0
 74
     1
 95
       11
 96
        7
 40
0.0
 40
0.0
 40
0.0
 40
0.0
 40
1.0
 40
1.0
 40
1.0
 40
2.0
 40
2.0
 40
2.0
 40
2.0
 10
4.541093504046633
 20
6.839675765618987
 10
4.553658154062355
 20
6.883652040666536
 10
4.683071595170304
 20
6.873600320649731
 10
4.683071595168788
 20
6.839675765612608
 10
4.645377645125462
 20
6.79318656056345
 10
4.562450955035451
 20
6.809520605585021
 10
4.541093504046633
 20
6.839675765618987
 97
        0
 97
        0
 92
        1
 93
        1
 72
     4
 94
        3
 73
     0
 74
     1
 95
       11
 96
        7
 40
0.0
 40
0.0
 40
0.0
 40
0.0
 40
1.0
 40
1.0
 40
1.0
 40
2.0
 40
2.0
 40
2.0
 40
2.0
 10
4.43597284440999
 20
7.135372349478732
 10
4.440156664270565
 20
7.109398555274083
 10
4.424249927784027
 20
7.095165469435263
 10
4.404985460364287
 20
7.096004748792514
 10
4.398281348401143
 20
7.11778183946117
 10
4.41168527777212
 20
7.136211628836185
 10
4.43597284440999
 20
7.135372349478732
 97
        0
 97
        0
 92
        1
 93
        1
 72
     4
 94
        3
 73
     0
 74
     1
 95
       26
 96
       22
 40
0.0
 40
0.0
 40
0.0
 40
0.0
 40
1.0
 40
1.0
 40
1.0
 40
2.0
 40
2.0
 40
2.0
 40
3.0
 40
3.0
 40
3.0
 40
4.0
 40
4.0
 40
4.0
 40
5.0
 40
5.0
 40
5.0
 40
6.0
 40
6.0
 40
6.0
 40
7.0
 40
7.0
 40
7.0
 40
7.0
 10
4.377755814681046
 20
7.413880271254571
 10
4.409162224895302
 20
7.423931991264149
 10
4.482037194976177
 20
7.449061291288368
 10
4.482037194976177
 20
7.449061291288368
 10
4.482037194976177
 20
7.449061291288368
 10
4.513451274044024
 20
7.455647609657212
 10
4.517218215013372
 20
7.420162596255168
 10
4.520990064049101
 20
7.384682184165412
 10
4.485809350763475
 20
7.356082881186492
 10
4.477011334966215
 20
7.34980055618002
 10
4.468218840743677
 20
7.343518231173536
 10
4.389058784868691
 20
7.320901861152353
 10
4.371468274849146
 20
7.314619536146235
 10
4.353877764829627
 20
7.308337211140156
 10
4.338800184813307
 20
7.312106606144968
 10
4.338800184813307
 20
7.312106606144968
 10
4.338800184813307
 20
7.312106606144968
 10
4.323722604797164
 20
7.319645396153899
 10
4.323722604798174
 20
7.34226176617863
 10
4.323722604799185
 20
7.364878136203388
 10
4.346338974825686
 20
7.403828551244992
 10
4.377755814681046
 20
7.413880271254571
 97
        0
 97
        0
 92
        1
 93
        1
 72
     4
 94
        3
 73
     0
 74
     1
 95
       11
 96
        7
 40
0.0
 40
0.0
 40
0.0
 40
0.0
 40
1.0
 40
1.0
 40
1.0
 40
2.0
 40
2.0
 40
2.0
 40
2.0
 10
4.201418497871992
 20
7.007202796462074
 10
4.205604771765744
 20
6.98123421707799
 10
4.189693127212776
 20
6.966995916418593
 10
4.170428966547231
 20
6.967835195775844
 10
4.163724547829917
 20
6.989612286444513
 10
4.177128477200894
 20
7.008042075819528
 10
4.201418497871992
 20
7.007202796462074
 97
        0
 97
        0
 75
     2
 76
     1
 98
        0
  0
SPLINE
  5
C7
330
BC
100
AcDbEntity
  8
E5SS
 62
   250
420
  2301728
370
    15
100
AcDbSpline
210
0.0
220
0.0
230
1.0
 70
    11
 71
     3
 72
    23
 73
    19
 74
     0
 42
0.0000000001
 43
0.0000000001
 12
1.0
 22
0.0
 32
0.0
 13
1.0
 23
0.0
 33
0.0
 40
0.0
 40
0.0
 40
0.0
 40
0.0
 40
1.0
 40
1.0
 40
1.0
 40
2.0
 40
2.0
 40
2.0
 40
3.0
 40
3.0
 40
3.0
 40
4.0
 40
4.0
 40
4.0
 40
5.0
 40
5.0
 40
5.0
 40
6.0
 40
6.0
 40
6.0
 40
6.0
 10
4.541093673047095
 20
6.839675798503018
 30
0.0
 10
4.550514612618094
 20
6.860407471025281
 30
0.0
 10
4.575015680145194
 20
6.86731802853175
 30
0.0
 10
4.610196700183779
 20
6.869202726032237
 30
0.0
 10
4.645377720222339
 20
6.87108742353271
 30
0.0
 10
4.678674042758226
 20
6.859151006018148
 30
0.0
 10
4.683071670262178
 20
6.839675798496639
 30
0.0
 10
4.683071670262178
 20
6.839675798496639
 30
0.0
 10
4.682443437762029
 20
6.851612216009761
 30
0.0
 10
4.683071670262885
 20
6.855381611013841
 30
0.0
 10
4.683699902763717
 20
6.859151006017921
 30
0.0
 10
4.668622322748484
 20
6.886793236048852
 30
0.0
 10
4.607683770181792
 20
6.886793236051592
 30
0.0
 10
4.546745217615126
 20
6.886793236054321
 30
0.0
 10
4.537321730103359
 20
6.853496913518332
 30
0.0
 10
4.537321730103359
 20
6.853496913518332
 30
0.0
 10
4.537321730103359
 20
6.853496913518332
 30
0.0
 10
4.537949962603736
 20
6.847214588511431
 30
0.0
 10
4.541093673047095
 20
6.839675798503018
 30
0.0
  0
SPLINE
  5
C8
330
BC
100
AcDbEntity
  8
E5SS
 62
   250
420
  2301728
370
    15
100
AcDbSpline
210
0.0
220
0.0
230
1.0
 70
    11
 71
     3
 72
    17
 73
    13
 74
     0
 42
0.0000000001
 43
0.0000000001
 12
1.0
 22
0.0
 32
0.0
 13
1.0
 23
0.0
 33
0.0
 40
0.0
 40
0.0
 40
0.0
 40
0.0
 40
1.0
 40
1.0
 40
1.0
 40
2.0
 40
2.0
 40
2.0
 40
3.0
 40
3.0
 40
3.0
 40
4.0
 40
4.0
 40
4.0
 40
4.0
 10
4.669679795468028
 20
7.165531908970276
 30
0.0
 10
4.669679795468028
 20
7.165531908970276
 30
0.0
 10
4.678057903883781
 20
7.126164348541326
 30
0.0
 10
4.638687830525289
 20
7.126164348543107
 30
0.0
 10
4.638687830525289
 20
7.126164348543107
 30
0.0
 10
4.644548453332567
 20
7.118625558725044
 30
0.0
 10
4.644548453332567
 20
7.118625558725044
 30
0.0
 10
4.644548453332567
 20
7.118625558725044
 30
0.0
 10
4.665488730913138
 20
7.116946921524661
 30
0.0
 10
4.677216543368886
 20
7.132024501159751
 30
0.0
 10
4.688944418967594
 20
7.147102080794816
 30
0.0
 10
4.677218585285876
 20
7.166371227569672
 30
0.0
 10
4.669679795468028
 20
7.165531908970276
 30
0.0
  0
SPLINE
  5
C9
330
BC
100
AcDbEntity
  8
E5SS
 62
   250
420
  2301728
370
    15
100
AcDbSpline
210
0.0
220
0.0
230
1.0
 70
    11
 71
     3
 72
    17
 73
    13
 74
     0
 42
0.0000000001
 43
0.0000000001
 12
1.0
 22
0.0
 32
0.0
 13
1.0
 23
0.0
 33
0.0
 40
0.0
 40
0.0
 40
0.0
 40
0.0
 40
1.0
 40
1.0
 40
1.0
 40
2.0
 40
2.0
 40
2.0
 40
3.0
 40
3.0
 40
3.0
 40
4.0
 40
4.0
 40
4.0
 40
4.0
 10
4.435975263105092
 20
7.135372271931297
 30
0.0
 10
4.435975263105092
 20
7.135372271931297
 30
0.0
 10
4.444355419530565
 20
7.096009189280608
 30
0.0
 10
4.404985346172048
 20
7.096004710509582
 30
0.0
 10
4.404985346172048
 20
7.096004710509582
 30
0.0
 10
4.410845963075492
 20
7.088465920501082
 30
0.0
 10
4.410845963075492
 20
7.088465920501082
 30
0.0
 10
4.410845963075492
 20
7.088465920501082
 30
0.0
 10
4.431783695858333
 20
7.086782257398302
 30
0.0
 10
4.443511577657217
 20
7.101859837414268
 30
0.0
 10
4.45523938450535
 20
7.116937417430247
 30
0.0
 10
4.443516100932659
 20
7.136211590551852
 30
0.0
 10
4.435975263105092
 20
7.135372271931297
 30
0.0
  0
SPLINE
  5
CA
330
BC
100
AcDbEntity
  8
E5SS
 62
   250
420
  2301728
370
    15
100
AcDbSpline
210
0.0
220
0.0
230
1.0
 70
    11
 71
     3
 72
    17
 73
    13
 74
     0
 42
0.0000000001
 43
0.0000000001
 12
1.0
 22
0.0
 32
0.0
 13
1.0
 23
0.0
 33
0.0
 40
0.0
 40
0.0
 40
0.0
 40
0.0
 40
1.0
 40
1.0
 40
1.0
 40
2.0
 40
2.0
 40
2.0
 40
3.0
 40
3.0
 40
3.0
 40
4.0
 40
4.0
 40
4.0
 40
4.0
 10
4.201423402502693
 20
7.007202790081578
 30
0.0
 10
4.201423402502693
 20
7.007202790081578
 30
0.0
 10
4.209801511130106
 20
6.967845280378128
 30
0.0
 10
4.170428923847011
 20
6.967835228659901
 30
0.0
 10
4.170428923847011
 20
6.967835228659901
 30
0.0
 10
4.176289076613127
 20
6.960296438651388
 30
0.0
 10
4.176289076613127
 20
6.960296438651388
 30
0.0
 10
4.176289076613127
 20
6.960296438651388
 30
0.0
 10
4.197231835255959
 20
6.958617801408599
 30
0.0
 10
4.208957166649447
 20
6.973695381424565
 30
0.0
 10
4.220687523902976
 20
6.988772961440532
 30
0.0
 10
4.208962192511004
 20
7.008042108702132
 30
0.0
 10
4.201423402502693
 20
7.007202790081578
 30
0.0
  0
INSERT
  5
CC
330
BC
100
AcDbEntity
  8
E5SS
100
AcDbBlockReference
  2
block 5
 10
0.0
 20
0.0
 30
0.0
  0
INSERT
  5
D1
330
BC
100
AcDbEntity
  8
E5SS
100
AcDbBlockReference
  2
block 6
 10
0.0
 20
0.0
 30
0.0
  0
INSERT
  5
D6
330
BC
100
AcDbEntity
  8
E5SS
100
AcDbBlockReference
  2
block 7
 10
0.0
 20
0.0
 30
0.0
  0
INSERT
  5
DB
330
BC
100
AcDbEntity
  8
E5SS
100
AcDbBlockReference
  2
block 8
 10
0.0
 20
0.0
 30
0.0
  0
INSERT
  5
E0
330
BC
100
AcDbEntity
  8
E5SS
100
AcDbBlockReference
  2
block 9
 10
0.0
 20
0.0
 30
0.0
  0
INSERT
  5
E5
330
BC
100
AcDbEntity
  8
E5SS
100
AcDbBlockReference
  2
block 10
 10
0.0
 20
0.0
 30
0.0
  0
INSERT
  5
EA
330
BC
100
AcDbEntity
  8
E5SS
100
AcDbBlockReference
  2
block 11
 10
0.0
 20
0.0
 30
0.0
  0
INSERT
  5
EF
330
BC
100
AcDbEntity
  8
E5SS
100
AcDbBlockReference
  2
block 12
 10
0.0
 20
0.0
 30
0.0
  0
INSERT
  5
F4
330
BC
100
AcDbEntity
  8
E5SS
100
AcDbBlockReference
  2
block 13
 10
0.0
 20
0.0
 30
0.0
  0
INSERT
  5
F9
330
BC
100
AcDbEntity
  8
E5SS
100
AcDbBlockReference
  2
block 14
 10
0.0
 20
0.0
 30
0.0
  0
SPLINE
  5
FD
330
BC
100
AcDbEntity
  8
E5SS
 62
   250
420
  2301728
370
    15
100
AcDbSpline
210
0.0
220
0.0
230
1.0
 70
     8
 71
     3
 72
    35
 73
    31
 74
     0
 42
0.0000000001
 43
0.0000000001
 12
1.0
 22
0.0
 32
0.0
 13
1.0
 23
0.0
 33
0.0
 40
0.0
 40
0.0
 40
0.0
 40
0.0
 40
1.0
 40
1.0
 40
1.0
 40
2.0
 40
2.0
 40
2.0
 40
3.0
 40
3.0
 40
3.0
 40
4.0
 40
4.0
 40
4.0
 40
5.0
 40
5.0
 40
5.0
 40
6.0
 40
6.0
 40
6.0
 40
7.0
 40
7.0
 40
7.0
 40
8.0
 40
8.0
 40
8.0
 40
9.0
 40
9.0
 40
9.0
 40
10.0
 40
10.0
 40
10.0
 40
10.0
 10
4.563626074212985
 20
6.975163202608478
 30
0.0
 10
4.565876679429695
 20
6.973634330640088
 30
0.0
 10
4.567773981843376
 20
6.972283832398248
 30
0.0
 10
4.569150501523457
 20
6.971182451405639
 30
0.0
 10
4.577526131312172
 20
6.964482980017944
 30
0.0
 10
4.615450767369262
 20
6.95685569388599
 30
0.0
 10
4.642025471602943
 20
6.966156591396876
 30
0.0
 10
4.658781688861558
 20
6.972021770022542
 30
0.0
 10
4.664222214217943
 20
6.987516496419251
 30
0.0
 10
4.656268758859874
 20
6.995472432808318
 30
0.0
 10
4.656268758859874
 20
6.995472432808318
 30
0.0
 10
4.654590121618159
 20
6.997985362811138
 30
0.0
 10
4.654590121618159
 20
6.997985362811138
 30
0.0
 10
4.654590121618159
 20
6.997985362811138
 30
0.0
 10
4.613548948814721
 20
7.030653452848734
 30
0.0
 10
4.604331521564871
 20
7.036518631475549
 30
0.0
 10
4.595116640890536
 20
7.04238381010239
 30
0.0
 10
4.5900932601697
 20
7.045731032866279
 30
0.0
 10
4.590932578791353
 20
7.061647931503658
 30
0.0
 10
4.591766871552964
 20
7.077564830141025
 30
0.0
 10
4.594277322299225
 20
7.229179948926785
 30
0.0
 10
4.595116640899454
 20
7.240905280319616
 30
0.0
 10
4.595958438805433
 20
7.252630611712397
 30
0.0
 10
4.587577851083223
 20
7.276081274498424
 30
0.0
 10
4.557422691811982
 20
7.27524698173886
 30
0.0
 10
4.527267532540741
 20
7.274407663119304
 30
0.0
 10
4.508005888708163
 20
7.230014241691593
 30
0.0
 10
4.508005888706799
 20
7.199859081658587
 30
0.0
 10
4.508005888706722
 20
7.197798614028165
 30
0.0
 10
4.508005888706596
 20
7.195268848401256
 30
0.0
 10
4.50800588870647
 20
7.192341400709829
 30
0.0
  0
SPLINE
  5
FE
330
BC
100
AcDbEntity
  8
E5SS
 62
   250
420
  2301728
370
    15
100
AcDbSpline
210
0.0
220
0.0
230
1.0
 70
     8
 71
     3
 72
    14
 73
    10
 74
     0
 42
0.0000000001
 43
0.0000000001
 12
1.0
 22
0.0
 32
0.0
 13
1.0
 23
0.0
 33
0.0
 40
0.0
 40
0.0
 40
0.0
 40
0.0
 40
1.0
 40
1.0
 40
1.0
 40
2.0
 40
2.0
 40
2.0
 40
3.0
 40
3.0
 40
3.0
 40
3.0
 10
4.508005888705737
 20
7.176193727346862
 30
0.0
 10
4.50800588870359
 20
7.128011770983449
 30
0.0
 10
4.508005888699523
 20
7.037866726207792
 30
0.0
 10
4.508005888699295
 20
7.032332090095299
 30
0.0
 10
4.508005888698992
 20
7.025627592847955
 30
0.0
 10
4.514702882832631
 20
7.012228650072997
 30
0.0
 10
4.523917761475357
 20
7.003011222822515
 30
0.0
 10
4.529154662191154
 20
6.997777177559227
 30
0.0
 10
4.54033903059864
 20
6.990378941924455
 30
0.0
 10
4.550557883264673
 20
6.983736560120733
 30
0.0
  0
INSERT
  5
100
330
BC
100
AcDbEntity
  8
E5SS
100
AcDbBlockReference
  2
block 15
 10
0.0
 20
0.0
 30
0.0
  0
POLYLINE
  5
105
330
BC
100
AcDbEntity
  8
E5SS
 62
   250
420
  2301728
370
    15
100
AcDb2dPolyline
 66
     1
 10
0.0
 20
0.0
 30
0.0
  0
VERTEX
  5
106
330
105
100
AcDbEntity
  8
E5SS
 62
   250
420
  2301728
370
    15
100
AcDbVertex
100
AcDb2dVertex
 10
4.26053486891111
 20
6.936801379099292
 30
0.0
  0
VERTEX
  5
107
330
105
100
AcDbEntity
  8
E5SS
 62
   250
420
  2301728
370
    15
100
AcDbVertex
100
AcDb2dVertex
 10
4.140605230613838
 20
6.895979837591792
 30
0.0
  0
SEQEND
  5
108
330
105
100
AcDbEntity
  8
E5SS
 62
   250
420
  2301728
370
    15
  0
POLYLINE
  5
109
330
BC
100
AcDbEntity
  8
E5SS
 62
   250
420
  2301728
370
    15
100
AcDb2dPolyline
 66
     1
 10
0.0
 20
0.0
 30
0.0
  0
VERTEX
  5
10A
330
109
100
AcDbEntity
  8
E5SS
 62
   250
420
  2301728
370
    15
100
AcDbVertex
100
AcDb2dVertex
 10
4.497086029713324
 20
7.017318448661323
 30
0.0
  0
VERTEX
  5
10B
330
109
100
AcDbEntity
  8
E5SS
 62
   250
420
  2301728
370
    15
100
AcDbVertex
100
AcDb2dVertex
 10
4.373227106213386
 20
6.975159460620438
 30
0.0
  0
SEQEND
  5
10C
330
109
100
AcDbEntity
  8
E5SS
 62
   250
420
  2301728
370
    15
  0
POLYLINE
  5
10D
330
BC
100
AcDbEntity
  8
E5SS
 62
   250
420
  2301728
370
    15
100
AcDb2dPolyline
 66
     1
 10
0.0
 20
0.0
 30
0.0
  0
VERTEX
  5
10E
330
10D
100
AcDbEntity
  8
E5SS
 62
   250
420
  2301728
370
    15
100
AcDbVertex
100
AcDb2dVertex
 10
4.713351325563861
 20
7.090930633910387
 30
0.0
  0
VERTEX
  5
10F
330
10D
100
AcDbEntity
  8
E5SS
 62
   250
420
  2301728
370
    15
100
AcDbVertex
100
AcDb2dVertex
 10
4.604775412067359
 20
7.053973662952772
 30
0.0
  0
SEQEND
  5
110
330
10D
100
AcDbEntity
  8
E5SS
 62
   250
420
  2301728
370
    15
  0
SPLINE
  5
111
330
BC
100
AcDbEntity
  8
E5SS
 62
   250
420
  2301728
370
    15
100
AcDbSpline
210
0.0
220
0.0
230
1.0
 70
    11
 71
     3
 72
    35
 73
    31
 74
     0
 42
0.0000000001
 43
0.0000000001
 12
1.0
 22
0.0
 32
0.0
 13
1.0
 23
0.0
 33
0.0
 40
0.0
 40
0.0
 40
0.0
 40
0.0
 40
1.0
 40
1.0
 40
1.0
 40
2.0
 40
2.0
 40
2.0
 40
3.0
 40
3.0
 40
3.0
 40
4.0
 40
4.0
 40
4.0
 40
5.0
 40
5.0
 40
5.0
 40
6.0
 40
6.0
 40
6.0
 40
7.0
 40
7.0
 40
7.0
 40
8.0
 40
8.0
 40
8.0
 40
9.0
 40
9.0
 40
9.0
 40
10.0
 40
10.0
 40
10.0
 40
10.0
 10
4.12269832747327
 20
7.521938715417453
 30
0.0
 10
4.12269832747327
 20
7.521938715417453
 30
0.0
 10
4.160392277517151
 20
7.580992570480387
 30
0.0
 10
4.160392277517151
 20
7.580992570480387
 30
0.0
 10
4.160392277517151
 20
7.580992570480387
 30
0.0
 10
4.691871758286222
 20
7.761923530654485
 30
0.0
 10
4.691871758286222
 20
7.761923530654485
 30
0.0
 10
4.691871758286222
 20
7.761923530654485
 30
0.0
 10
4.729158338814032
 20
7.73345643871125
 30
0.0
 10
4.729158338814032
 20
7.73345643871125
 30
0.0
 10
4.729158338814032
 20
7.73345643871125
 30
0.0
 10
4.729158338786343
 20
7.116952069468576
 30
0.0
 10
4.72915833878604
 20
7.110252558816732
 30
0.0
 10
4.729158338785737
 20
7.103548140098458
 30
0.0
 10
4.730831989431433
 20
7.088470560081898
 30
0.0
 10
4.74088370944196
 20
7.07841884007045
 30
0.0
 10
4.750935429452536
 20
7.068367120059001
 30
0.0
 10
5.035733345077284
 20
6.865653854359316
 30
0.0
 10
5.035733345077284
 20
6.865653854359316
 30
0.0
 10
5.035733345077284
 20
6.865653854359316
 30
0.0
 10
4.431783809706076
 20
6.654985533308768
 30
0.0
 10
4.431783809706076
 20
6.654985533308768
 30
0.0
 10
4.431783809706076
 20
6.654985533308768
 30
0.0
 10
4.147842351670306
 20
6.860633209214257
 30
0.0
 10
4.139459067485228
 20
6.863980510507367
 30
0.0
 10
4.131080998120751
 20
6.86733271986687
 30
0.0
 10
4.11768719163898
 20
6.897487879900457
 30
0.0
 10
4.117687191640622
 20
6.93434255058532
 30
0.0
 10
4.117687191642264
 20
6.971202129336575
 30
0.0
 10
4.12269832747327
 20
7.521938715417453
 30
0.0
 10
4.12269832747327
 20
7.521938715417453
 30
0.0
  0
POLYLINE
  5
112
330
BC
100
AcDbEntity
  8
E5SS
 62
   250
420
  2301728
370
    15
100
AcDb2dPolyline
 66
     1
 10
0.0
 20
0.0
 30
0.0
  0
VERTEX
  5
113
330
112
100
AcDbEntity
  8
E5SS
 62
   250
420
  2301728
370
    15
100
AcDbVertex
100
AcDb2dVertex
 10
4.432627575483417
 20
6.637816621734739
 30
0.0
  0
VERTEX
  5
114
330
112
100
AcDbEntity
  8
E5SS
 62
   250
420
  2301728
370
    15
100
AcDbVertex
100
AcDb2dVertex
 10
4.431778669978939
 20
6.654975443305842
 30
0.0
  0
SEQEND
  5
115
330
112
100
AcDbEntity
  8
E5SS
 62
   250
420
  2301728
370
    15
  0
POLYLINE
  5
116
330
BC
100
AcDbEntity
  8
E5SS
 62
   250
420
  2301728
370
    15
100
AcDb2dPolyline
 66
     1
 10
0.0
 20
0.0
 30
0.0
  0
VERTEX
  5
117
330
116
100
AcDbEntity
  8
E5SS
 62
   250
420
  2301728
370
    15
100
AcDbVertex
100
AcDb2dVertex
 10
4.10761069966361
 20
7.531988014279969
 30
0.0
  0
VERTEX
  5
118
330
116
100
AcDbEntity
  8
E5SS
 62
   250
420
  2301728
370
    15
100
AcDbVertex
100
AcDb2dVertex
 10
4.122688279679702
 20
7.521936294268293
 30
0.0
  0
SEQEND
  5
119
330
116
100
AcDbEntity
  8
E5SS
 62
   250
420
  2301728
370
    15
  0
POLYLINE
  5
11A
330
BC
100
AcDbEntity
  8
E5SS
 62
   250
420
  2301728
370
    15
100
AcDb2dPolyline
 66
     1
 10
0.0
 20
0.0
 30
0.0
  0
VERTEX
  5
11B
330
11A
100
AcDbEntity
  8
E5SS
 62
   250
420
  2301728
370
    15
100
AcDbVertex
100
AcDb2dVertex
 10
4.160382229723584
 20
7.580990149331228
 30
0.0
  0
VERTEX
  5
11C
330
11A
100
AcDbEntity
  8
E5SS
 62
   250
420
  2301728
370
    15
100
AcDbVertex
100
AcDb2dVertex
 10
4.145304649707517
 20
7.591041869342891
 30
0.0
  0
SEQEND
  5
11D
330
11A
100
AcDbEntity
  8
E5SS
 62
   250
420
  2301728
370
    15
  0
SPLINE
  5
11E
330
BC
100
AcDbEntity
  8
E5SS
 62
   250
420
  2301728
370
    20
100
AcDbSpline
210
0.0
220
0.0
230
1.0
 70
    11
 71
     3
 72
    17
 73
    13
 74
     0
 42
0.0000000001
 43
0.0000000001
 12
1.0
 22
0.0
 32
0.0
 13
1.0
 23
0.0
 33
0.0
 40
0.0
 40
0.0
 40
0.0
 40
0.0
 40
1.0
 40
1.0
 40
1.0
 40
2.0
 40
2.0
 40
2.0
 40
3.0
 40
3.0
 40
3.0
 40
4.0
 40
4.0
 40
4.0
 40
4.0
 10
4.644072325596855
 20
7.39641303842019
 30
0.0
 10
4.635353463878724
 20
7.377251947633655
 30
0.0
 10
4.640320521195791
 20
7.357600332922364
 30
0.0
 10
4.655162388002863
 20
7.352525219616382
 30
0.0
 10
4.670014306529715
 20
7.347450106310348
 30
0.0
 10
4.689116092170555
 20
7.358871423996965
 30
0.0
 10
4.697835425521917
 20
7.378027437810109
 30
0.0
 10
4.706559344052721
 20
7.397188580678112
 30
0.0
 10
4.701592789321618
 20
7.416835620034034
 30
0.0
 10
4.686745896654656
 20
7.421920282473807
 30
0.0
 10
4.671903527261621
 20
7.426985344060072
 30
0.0
 10
4.652789176971055
 20
7.415574129206687
 30
0.0
 10
4.644072325596855
 20
7.39641303842019
 30
0.0
  0
HATCH
  5
11F
330
BC
100
AcDbEntity
  8
E5SS
 62
   254
420
 13358815
100
AcDbHatch
 10
0.0
 20
0.0
 30
0.0
210
0.0
220
0.0
230
1.0
  2
SOLID
 70
     1
 71
     0
 91
        1
 92
        1
 93
        1
 72
     4
 94
        3
 73
     0
 74
     1
 95
       17
 96
       13
 40
0.0
 40
0.0
 40
0.0
 40
0.0
 40
1.0
 40
1.0
 40
1.0
 40
2.0
 40
2.0
 40
2.0
 40
3.0
 40
3.0
 40
3.0
 40
4.0
 40
4.0
 40
4.0
 40
4.0
 10
4.644072325596855
 20
7.39641303842019
 10
4.635353463878724
 20
7.377251947633655
 10
4.640320521195791
 20
7.357600332922364
 10
4.655162388002863
 20
7.352525219616382
 10
4.670014306529715
 20
7.347450106310348
 10
4.689116092170555
 20
7.358871423996965
 10
4.697835425521917
 20
7.378027437810109
 10
4.706559344052721
 20
7.397188580678112
 10
4.701592789321618
 20
7.416835620034034
 10
4.686745896654656
 20
7.421920282473807
 10
4.671903527261621
 20
7.426985344060072
 10
4.652789176971055
 20
7.415574129206687
 10
4.644072325596855
 20
7.39641303842019
 97
        0
 97
        0
 75
     2
 76
     1
 98
        0
  0
SPLINE
  5
120
330
BC
100
AcDbEntity
  8
E5SS
 62
   250
420
  2301728
370
    20
100
AcDbSpline
210
0.0
220
0.0
230
1.0
 70
    11
 71
     3
 72
    17
 73
    13
 74
     0
 42
0.0000000001
 43
0.0000000001
 12
1.0
 22
0.0
 32
0.0
 13
1.0
 23
0.0
 33
0.0
 40
0.0
 40
0.0
 40
0.0
 40
0.0
 40
1.0
 40
1.0
 40
1.0
 40
2.0
 40
2.0
 40
2.0
 40
3.0
 40
3.0
 40
3.0
 40
4.0
 40
4.0
 40
4.0
 40
4.0
 10
4.569940892398058
 20
7.609421042139539
 30
0.0
 10
4.561222030679901
 20
7.590264474626893
 30
0.0
 10
4.566189087996968
 20
7.570612859915614
 30
0.0
 10
4.58103095480404
 20
7.565540259539552
 30
0.0
 10
4.595882873330866
 20
7.560462633303599
 30
0.0
 10
4.614984658971732
 20
7.571883899876714
 30
0.0
 10
4.623703990450369
 20
7.591042477733303
 30
0.0
 10
4.632427910853872
 20
7.610203568519839
 30
0.0
 10
4.627461356122795
 20
7.629850717916232
 30
0.0
 10
4.612614463455833
 20
7.6349302965371
 30
0.0
 10
4.597772094062773
 20
7.640000383983256
 30
0.0
 10
4.578657743772232
 20
7.628584201197024
 30
0.0
 10
4.569940892398058
 20
7.609421042139539
 30
0.0
  0
HATCH
  5
121
330
BC
100
AcDbEntity
  8
E5SS
 62
   254
420
 13358815
100
AcDbHatch
 10
0.0
 20
0.0
 30
0.0
210
0.0
220
0.0
230
1.0
  2
SOLID
 70
     1
 71
     0
 91
        1
 92
        1
 93
        1
 72
     4
 94
        3
 73
     0
 74
     1
 95
       17
 96
       13
 40
0.0
 40
0.0
 40
0.0
 40
0.0
 40
1.0
 40
1.0
 40
1.0
 40
2.0
 40
2.0
 40
2.0
 40
3.0
 40
3.0
 40
3.0
 40
4.0
 40
4.0
 40
4.0
 40
4.0
 10
4.569940892398058
 20
7.609421042139539
 10
4.561222030679901
 20
7.590264474626893
 10
4.566189087996968
 20
7.570612859915614
 10
4.58103095480404
 20
7.565540259539552
 10
4.595882873330866
 20
7.560462633303599
 10
4.614984658971732
 20
7.571883899876714
 10
4.623703990450369
 20
7.591042477733303
 10
4.632427910853872
 20
7.610203568519839
 10
4.627461356122795
 20
7.629850717916232
 10
4.612614463455833
 20
7.6349302965371
 10
4.597772094062773
 20
7.640000383983256
 10
4.578657743772232
 20
7.628584201197024
 10
4.569940892398058
 20
7.609421042139539
 97
        0
 97
        0
 75
     2
 76
     1
 98
        0
  0
SPLINE
  5
122
330
BC
100
AcDbEntity
  8
E5SS
 62
   250
420
  2301728
370
    20
100
AcDbSpline
210
0.0
220
0.0
230
1.0
 70
    11
 71
     3
 72
    17
 73
    13
 74
     0
 42
0.0000000001
 43
0.0000000001
 12
1.0
 22
0.0
 32
0.0
 13
1.0
 23
0.0
 33
0.0
 40
0.0
 40
0.0
 40
0.0
 40
0.0
 40
1.0
 40
1.0
 40
1.0
 40
2.0
 40
2.0
 40
2.0
 40
3.0
 40
3.0
 40
3.0
 40
4.0
 40
4.0
 40
4.0
 40
4.0
 10
4.244516465258053
 20
7.501846029556013
 30
0.0
 10
4.235800116469843
 20
7.482689462043393
 30
0.0
 10
4.240766671200946
 20
7.463037847332101
 30
0.0
 10
4.255609040594019
 20
7.457965246956038
 30
0.0
 10
4.270460959120833
 20
7.452890187138627
 30
0.0
 10
4.289562744761699
 20
7.464308941070284
 30
0.0
 10
4.298279555089468
 20
7.483467519410864
 30
0.0
 10
4.30700599664384
 20
7.5026285559363
 30
0.0
 10
4.302039441912762
 20
7.52227564737369
 30
0.0
 10
4.287192507919321
 20
7.527355283953599
 30
0.0
 10
4.272350179852739
 20
7.532425371399742
 30
0.0
 10
4.253233316632254
 20
7.521011643616425
 30
0.0
 10
4.244516465258053
 20
7.501846029556013
 30
0.0
  0
HATCH
  5
123
330
BC
100
AcDbEntity
  8
E5SS
 62
   254
420
 13358815
100
AcDbHatch
 10
0.0
 20
0.0
 30
0.0
210
0.0
220
0.0
230
1.0
  2
SOLID
 70
     1
 71
     0
 91
        1
 92
        1
 93
        1
 72
     4
 94
        3
 73
     0
 74
     1
 95
       17
 96
       13
 40
0.0
 40
0.0
 40
0.0
 40
0.0
 40
1.0
 40
1.0
 40
1.0
 40
2.0
 40
2.0
 40
2.0
 40
3.0
 40
3.0
 40
3.0
 40
4.0
 40
4.0
 40
4.0
 40
4.0
 10
4.244516465258053
 20
7.501846029556013
 10
4.235800116469843
 20
7.482689462043393
 10
4.240766671200946
 20
7.463037847332101
 10
4.255609040594019
 20
7.457965246956038
 10
4.270460959120833
 20
7.452890187138627
 10
4.289562744761699
 20
7.464308941070284
 10
4.298279555089468
 20
7.483467519410864
 10
4.30700599664384
 20
7.5026285559363
 10
4.302039441912762
 20
7.52227564737369
 10
4.287192507919321
 20
7.527355283953599
 10
4.272350179852739
 20
7.532425371399742
 10
4.253233316632254
 20
7.521011643616425
 10
4.244516465258053
 20
7.501846029556013
 97
        0
 97
        0
 75
     2
 76
     1
 98
        0
  0
SPLINE
  5
124
330
BC
100
AcDbEntity
  8
E5SS
 62
   250
420
  2301728
370
    20
100
AcDbSpline
210
0.0
220
0.0
230
1.0
 70
    11
 71
     3
 72
    17
 73
    13
 74
     0
 42
0.0000000001
 43
0.0000000001
 12
1.0
 22
0.0
 32
0.0
 13
1.0
 23
0.0
 33
0.0
 40
0.0
 40
0.0
 40
0.0
 40
0.0
 40
1.0
 40
1.0
 40
1.0
 40
2.0
 40
2.0
 40
2.0
 40
3.0
 40
3.0
 40
3.0
 40
4.0
 40
4.0
 40
4.0
 40
4.0
 10
4.176667356886179
 20
7.241764817048697
 30
0.0
 10
4.167951008097967
 20
7.2226037262622
 30
0.0
 10
4.17291756282902
 20
7.202952111550909
 30
0.0
 10
4.187759932222106
 20
7.197876998244888
 30
0.0
 10
4.202611850748958
 20
7.192801931857123
 30
0.0
 10
4.221713636389824
 20
7.204223151511983
 30
0.0
 10
4.230430445003574
 20
7.223379264129322
 30
0.0
 10
4.239156888271964
 20
7.242540307225163
 30
0.0
 10
4.234190333540861
 20
7.262187398662554
 30
0.0
 10
4.219343397833427
 20
7.267267035242449
 30
0.0
 10
4.204501071480839
 20
7.272337122688592
 30
0.0
 10
4.185384208260353
 20
7.26092590783522
 30
0.0
 10
4.176667356886179
 20
7.241764817048697
 30
0.0
  0
HATCH
  5
125
330
BC
100
AcDbEntity
  8
E5SS
 62
   254
420
 13358815
100
AcDbHatch
 10
0.0
 20
0.0
 30
0.0
210
0.0
220
0.0
230
1.0
  2
SOLID
 70
     1
 71
     0
 91
        1
 92
        1
 93
        1
 72
     4
 94
        3
 73
     0
 74
     1
 95
       17
 96
       13
 40
0.0
 40
0.0
 40
0.0
 40
0.0
 40
1.0
 40
1.0
 40
1.0
 40
2.0
 40
2.0
 40
2.0
 40
3.0
 40
3.0
 40
3.0
 40
4.0
 40
4.0
 40
4.0
 40
4.0
 10
4.176667356886179
 20
7.241764817048697
 10
4.167951008097967
 20
7.2226037262622
 10
4.17291756282902
 20
7.202952111550909
 10
4.187759932222106
 20
7.197876998244888
 10
4.202611850748958
 20
7.192801931857123
 10
4.221713636389824
 20
7.204223151511983
 10
4.230430445003574
 20
7.223379264129322
 10
4.239156888271964
 20
7.242540307225163
 10
4.234190333540861
 20
7.262187398662554
 10
4.219343397833427
 20
7.267267035242449
 10
4.204501071480839
 20
7.272337122688592
 10
4.185384208260353
 20
7.26092590783522
 10
4.176667356886179
 20
7.241764817048697
 97
        0
 97
        0
 75
     2
 76
     1
 98
        0
  0
SPLINE
  5
126
330
BC
100
AcDbEntity
  8
E5SS
 62
   250
420
  2301728
370
    20
100
AcDbSpline
210
0.0
220
0.0
230
1.0
 70
    11
 71
     3
 72
    17
 73
    13
 74
     0
 42
0.0000000001
 43
0.0000000001
 12
1.0
 22
0.0
 32
0.0
 13
1.0
 23
0.0
 33
0.0
 40
0.0
 40
0.0
 40
0.0
 40
0.0
 40
1.0
 40
1.0
 40
1.0
 40
2.0
 40
2.0
 40
2.0
 40
3.0
 40
3.0
 40
3.0
 40
4.0
 40
4.0
 40
4.0
 40
4.0
 10
4.439042583102719
 20
6.790408763723626
 30
0.0
 10
4.461288546683313
 20
6.795513027015279
 30
0.0
 10
4.474532692635901
 20
6.810541353223471
 30
0.0
 10
4.468625799521255
 20
6.823955373239553
 30
0.0
 10
4.462731471056309
 20
6.837388491523168
 30
0.0
 10
4.4399090413482
 20
6.844127164449333
 30
0.0
 10
4.417673129487361
 20
6.839037514287863
 30
0.0
 10
4.395434704696602
 20
6.833933212859683
 30
0.0
 10
4.382182517368189
 20
6.818909912511369
 30
0.0
 10
4.38808689755289
 20
6.805481317501643
 30
0.0
 10
4.393986754463715
 20
6.792062774211685
 30
0.0
 10
4.416804158311935
 20
6.785314049565764
 30
0.0
 10
4.439042583102719
 20
6.790408763723626
 30
0.0
  0
HATCH
  5
127
330
BC
100
AcDbEntity
  8
E5SS
 62
   254
420
 13358815
100
AcDbHatch
 10
0.0
 20
0.0
 30
0.0
210
0.0
220
0.0
230
1.0
  2
SOLID
 70
     1
 71
     0
 91
        1
 92
        1
 93
        1
 72
     4
 94
        3
 73
     0
 74
     1
 95
       17
 96
       13
 40
0.0
 40
0.0
 40
0.0
 40
0.0
 40
1.0
 40
1.0
 40
1.0
 40
2.0
 40
2.0
 40
2.0
 40
3.0
 40
3.0
 40
3.0
 40
4.0
 40
4.0
 40
4.0
 40
4.0
 10
4.439042583102719
 20
6.790408763723626
 10
4.461288546683313
 20
6.795513027015279
 10
4.474532692635901
 20
6.810541353223471
 10
4.468625799521255
 20
6.823955373239553
 10
4.462731471056309
 20
6.837388491523168
 10
4.4399090413482
 20
6.844127164449333
 10
4.417673129487361
 20
6.839037514287863
 10
4.395434704696602
 20
6.833933212859683
 10
4.382182517368189
 20
6.818909912511369
 10
4.38808689755289
 20
6.805481317501643
 10
4.393986754463715
 20
6.792062774211685
 10
4.416804158311935
 20
6.785314049565764
 10
4.439042583102719
 20
6.790408763723626
 97
        0
 97
        0
 75
     2
 76
     1
 98
        0
  0
SPLINE
  5
128
330
BC
100
AcDbEntity
  8
E5SS
 62
   250
420
  2301728
370
    20
100
AcDbSpline
210
0.0
220
0.0
230
1.0
 70
    11
 71
     3
 72
    17
 73
    13
 74
     0
 42
0.0000000001
 43
0.0000000001
 12
1.0
 22
0.0
 32
0.0
 13
1.0
 23
0.0
 33
0.0
 40
0.0
 40
0.0
 40
0.0
 40
0.0
 40
1.0
 40
1.0
 40
1.0
 40
2.0
 40
2.0
 40
2.0
 40
3.0
 40
3.0
 40
3.0
 40
4.0
 40
4.0
 40
4.0
 40
4.0
 10
4.290779716687514
 20
6.825589782880026
 30
0.0
 10
4.313028193198053
 20
6.830694046171679
 30
0.0
 10
4.326269826220671
 20
6.845722372379883
 30
0.0
 10
4.320365405386206
 20
6.859136392395953
 30
0.0
 10
4.31447111757105
 20
6.872569510679568
 30
0.0
 10
4.29164868786294
 20
6.879308183605732
 30
0.0
 10
4.269410263072157
 20
6.874218534333004
 30
0.0
 10
4.247171838281373
 20
6.869114232016083
 30
0.0
 10
4.233919650953011
 20
6.854090931667782
 30
0.0
 10
4.239824031137661
 20
6.840662336658056
 30
0.0
 10
4.245723888048511
 20
6.827243793368084
 30
0.0
 10
4.268546317756621
 20
6.820495068722165
 30
0.0
 10
4.290779716687514
 20
6.825589782880026
 30
0.0
  0
HATCH
  5
129
330
BC
100
AcDbEntity
  8
E5SS
 62
   254
420
 13358815
100
AcDbHatch
 10
0.0
 20
0.0
 30
0.0
210
0.0
220
0.0
230
1.0
  2
SOLID
 70
     1
 71
     0
 91
        1
 92
        1
 93
        1
 72
     4
 94
        3
 73
     0
 74
     1
 95
       17
 96
       13
 40
0.0
 40
0.0
 40
0.0
 40
0.0
 40
1.0
 40
1.0
 40
1.0
 40
2.0
 40
2.0
 40
2.0
 40
3.0
 40
3.0
 40
3.0
 40
4.0
 40
4.0
 40
4.0
 40
4.0
 10
4.290779716687514
 20
6.825589782880026
 10
4.313028193198053
 20
6.830694046171679
 10
4.326269826220671
 20
6.845722372379883
 10
4.320365405386206
 20
6.859136392395953
 10
4.31447111757105
 20
6.872569510679568
 10
4.29164868786294
 20
6.879308183605732
 10
4.269410263072157
 20
6.874218534333004
 10
4.247171838281373
 20
6.869114232016083
 10
4.233919650953011
 20
6.854090931667782
 10
4.239824031137661
 20
6.840662336658056
 10
4.245723888048511
 20
6.827243793368084
 10
4.268546317756621
 20
6.820495068722165
 10
4.290779716687514
 20
6.825589782880026
 97
        0
 97
        0
 75
     2
 76
     1
 98
        0
  0
SPLINE
  5
12A
330
BC
100
AcDbEntity
  8
E5SS
 62
   250
420
  2301728
370
    20
100
AcDbSpline
210
0.0
220
0.0
230
1.0
 70
    11
 71
     3
 72
    17
 73
    13
 74
     0
 42
0.0000000001
 43
0.0000000001
 12
1.0
 22
0.0
 32
0.0
 13
1.0
 23
0.0
 33
0.0
 40
0.0
 40
0.0
 40
0.0
 40
0.0
 40
1.0
 40
1.0
 40
1.0
 40
2.0
 40
2.0
 40
2.0
 40
3.0
 40
3.0
 40
3.0
 40
4.0
 40
4.0
 40
4.0
 40
4.0
 10
4.758184685398368
 20
6.983904369032896
 30
0.0
 10
4.780430648978962
 20
6.989008632324562
 30
0.0
 10
4.79367479493155
 20
7.004036958532752
 30
0.0
 10
4.787767901816929
 20
7.017450978548835
 30
0.0
 10
4.781873573351959
 20
7.03088409683245
 30
0.0
 10
4.759051143643849
 20
7.037622769758602
 30
0.0
 10
4.736812718853066
 20
7.03253312448525
 30
0.0
 10
4.714574294062307
 20
7.027428818168977
 30
0.0
 10
4.701324619663839
 20
7.012405517820651
 30
0.0
 10
4.707226989504609
 20
6.998976922810925
 30
0.0
 10
4.713126313101611
 20
6.985558379520953
 30
0.0
 10
4.735946260607609
 20
6.978809654875047
 30
0.0
 10
4.758184685398368
 20
6.983904369032896
 30
0.0
  0
HATCH
  5
12B
330
BC
100
AcDbEntity
  8
E5SS
 62
   254
420
 13358815
100
AcDbHatch
 10
0.0
 20
0.0
 30
0.0
210
0.0
220
0.0
230
1.0
  2
SOLID
 70
     1
 71
     0
 91
        1
 92
        1
 93
        1
 72
     4
 94
        3
 73
     0
 74
     1
 95
       17
 96
       13
 40
0.0
 40
0.0
 40
0.0
 40
0.0
 40
1.0
 40
1.0
 40
1.0
 40
2.0
 40
2.0
 40
2.0
 40
3.0
 40
3.0
 40
3.0
 40
4.0
 40
4.0
 40
4.0
 40
4.0
 10
4.758184685398368
 20
6.983904369032896
 10
4.780430648978962
 20
6.989008632324562
 10
4.79367479493155
 20
7.004036958532752
 10
4.787767901816929
 20
7.017450978548835
 10
4.781873573351959
 20
7.03088409683245
 10
4.759051143643849
 20
7.037622769758602
 10
4.736812718853066
 20
7.03253312448525
 10
4.714574294062307
 20
7.027428818168977
 10
4.701324619663839
 20
7.012405517820651
 10
4.707226989504609
 20
6.998976922810925
 10
4.713126313101611
 20
6.985558379520953
 10
4.735946260607609
 20
6.978809654875047
 10
4.758184685398368
 20
6.983904369032896
 97
        0
 97
        0
 75
     2
 76
     1
 98
        0
  0
SPLINE
  5
12C
330
BC
100
AcDbEntity
  8
E5SS
 62
   250
420
  2301728
370
    20
100
AcDbSpline
210
0.0
220
0.0
230
1.0
 70
    11
 71
     3
 72
    17
 73
    13
 74
     0
 42
0.0000000001
 43
0.0000000001
 12
1.0
 22
0.0
 32
0.0
 13
1.0
 23
0.0
 33
0.0
 40
0.0
 40
0.0
 40
0.0
 40
0.0
 40
1.0
 40
1.0
 40
1.0
 40
2.0
 40
2.0
 40
2.0
 40
3.0
 40
3.0
 40
3.0
 40
4.0
 40
4.0
 40
4.0
 40
4.0
 10
4.768236405151911
 20
6.904747075945529
 30
0.0
 10
4.79048236873248
 20
6.909851339237169
 30
0.0
 10
4.803726514685094
 20
6.92487966544536
 30
0.0
 10
4.797819621570422
 20
6.938293685461442
 30
0.0
 10
4.791925293105502
 20
6.951726803745057
 30
0.0
 10
4.769102863397367
 20
6.958465476671222
 30
0.0
 10
4.746864438606608
 20
6.953375829398182
 30
0.0
 10
4.724626013815825
 20
6.948271525081597
 30
0.0
 10
4.711376339417357
 20
6.933248224733259
 30
0.0
 10
4.717278709258127
 20
6.919819629723545
 30
0.0
 10
4.723178033109055
 20
6.906401086433574
 30
0.0
 10
4.745997980361127
 20
6.899652361787654
 30
0.0
 10
4.768236405151911
 20
6.904747075945529
 30
0.0
  0
HATCH
  5
12D
330
BC
100
AcDbEntity
  8
E5SS
 62
   254
420
 13358815
100
AcDbHatch
 10
0.0
 20
0.0
 30
0.0
210
0.0
220
0.0
230
1.0
  2
SOLID
 70
     1
 71
     0
 91
        1
 92
        1
 93
        1
 72
     4
 94
        3
 73
     0
 74
     1
 95
       17
 96
       13
 40
0.0
 40
0.0
 40
0.0
 40
0.0
 40
1.0
 40
1.0
 40
1.0
 40
2.0
 40
2.0
 40
2.0
 40
3.0
 40
3.0
 40
3.0
 40
4.0
 40
4.0
 40
4.0
 40
4.0
 10
4.768236405151911
 20
6.904747075945529
 10
4.79048236873248
 20
6.909851339237169
 10
4.803726514685094
 20
6.92487966544536
 10
4.797819621570422
 20
6.938293685461442
 10
4.791925293105502
 20
6.951726803745057
 10
4.769102863397367
 20
6.958465476671222
 10
4.746864438606608
 20
6.953375829398182
 10
4.724626013815825
 20
6.948271525081597
 10
4.711376339417357
 20
6.933248224733259
 10
4.717278709258127
 20
6.919819629723545
 10
4.723178033109055
 20
6.906401086433574
 10
4.745997980361127
 20
6.899652361787654
 10
4.768236405151911
 20
6.904747075945529
 97
        0
 97
        0
 75
     2
 76
     1
 98
        0
  0
SPLINE
  5
12E
330
BC
100
AcDbEntity
  8
E5SS
 62
   250
420
  2301728
370
    20
100
AcDbSpline
210
0.0
220
0.0
230
1.0
 70
    11
 71
     3
 72
    17
 73
    13
 74
     0
 42
0.0000000001
 43
0.0000000001
 12
1.0
 22
0.0
 32
0.0
 13
1.0
 23
0.0
 33
0.0
 40
0.0
 40
0.0
 40
0.0
 40
0.0
 40
1.0
 40
1.0
 40
1.0
 40
2.0
 40
2.0
 40
2.0
 40
3.0
 40
3.0
 40
3.0
 40
4.0
 40
4.0
 40
4.0
 40
4.0
 10
4.940372105989455
 20
6.854488477152446
 30
0.0
 10
4.962618069570074
 20
6.859592740444087
 30
0.0
 10
4.975862215522662
 20
6.87462106665229
 30
0.0
 10
4.969955322408041
 20
6.88803508666836
 30
0.0
 10
4.964060993943071
 20
6.901468204951975
 30
0.0
 10
4.941238564234911
 20
6.908206877878152
 30
0.0
 10
4.919000139444152
 20
6.903117229335445
 30
0.0
 10
4.896761714653394
 20
6.898012926288516
 30
0.0
 10
4.883512040254951
 20
6.882989625940202
 30
0.0
 10
4.889414410095696
 20
6.869561030930476
 30
0.0
 10
4.89531373829512
 20
6.856142487640517
 30
0.0
 10
4.918133681198697
 20
6.849393762994572
 30
0.0
 10
4.940372105989455
 20
6.854488477152446
 30
0.0
  0
HATCH
  5
12F
330
BC
100
AcDbEntity
  8
E5SS
 62
   254
420
 13358815
100
AcDbHatch
 10
0.0
 20
0.0
 30
0.0
210
0.0
220
0.0
230
1.0
  2
SOLID
 70
     1
 71
     0
 91
        1
 92
        1
 93
        1
 72
     4
 94
        3
 73
     0
 74
     1
 95
       17
 96
       13
 40
0.0
 40
0.0
 40
0.0
 40
0.0
 40
1.0
 40
1.0
 40
1.0
 40
2.0
 40
2.0
 40
2.0
 40
3.0
 40
3.0
 40
3.0
 40
4.0
 40
4.0
 40
4.0
 40
4.0
 10
4.940372105989455
 20
6.854488477152446
 10
4.962618069570074
 20
6.859592740444087
 10
4.975862215522662
 20
6.87462106665229
 10
4.969955322408041
 20
6.88803508666836
 10
4.964060993943071
 20
6.901468204951975
 10
4.941238564234911
 20
6.908206877878152
 10
4.919000139444152
 20
6.903117229335445
 10
4.896761714653394
 20
6.898012926288516
 10
4.883512040254951
 20
6.882989625940202
 10
4.889414410095696
 20
6.869561030930476
 10
4.89531373829512
 20
6.856142487640517
 10
4.918133681198697
 20
6.849393762994572
 10
4.940372105989455
 20
6.854488477152446
 97
        0
 97
        0
 75
     2
 76
     1
 98
        0
  0
SPLINE
  5
130
330
BC
100
AcDbEntity
  8
E5SS
 62
   250
420
  2301728
370
    20
100
AcDbSpline
210
0.0
220
0.0
230
1.0
 70
    11
 71
     3
 72
    17
 73
    13
 74
     0
 42
0.0000000001
 43
0.0000000001
 12
1.0
 22
0.0
 32
0.0
 13
1.0
 23
0.0
 33
0.0
 40
0.0
 40
0.0
 40
0.0
 40
0.0
 40
1.0
 40
1.0
 40
1.0
 40
2.0
 40
2.0
 40
2.0
 40
3.0
 40
3.0
 40
3.0
 40
4.0
 40
4.0
 40
4.0
 40
4.0
 10
4.476736532187513
 20
6.696173890999413
 30
0.0
 10
4.498982495768082
 20
6.701278154291041
 30
0.0
 10
4.51222664172067
 20
6.716306480499244
 30
0.0
 10
4.506319748606049
 20
6.72972050051534
 30
0.0
 10
4.500425420141103
 20
6.743153618798942
 30
0.0
 10
4.477602990432969
 20
6.749892291725106
 30
0.0
 10
4.45536456564221
 20
6.74480263918306
 30
0.0
 10
4.433126140851426
 20
6.739698340135469
 30
0.0
 10
4.419876466452958
 20
6.724675039787144
 30
0.0
 10
4.425780846637659
 20
6.711246444777417
 30
0.0
 10
4.431680703548484
 20
6.697827901487458
 30
0.0
 10
4.454498107396729
 20
6.691079176841539
 30
0.0
 10
4.476736532187513
 20
6.696173890999413
 30
0.0
  0
HATCH
  5
131
330
BC
100
AcDbEntity
  8
E5SS
 62
   254
420
 13358815
100
AcDbHatch
 10
0.0
 20
0.0
 30
0.0
210
0.0
220
0.0
230
1.0
  2
SOLID
 70
     1
 71
     0
 91
        1
 92
        1
 93
        1
 72
     4
 94
        3
 73
     0
 74
     1
 95
       17
 96
       13
 40
0.0
 40
0.0
 40
0.0
 40
0.0
 40
1.0
 40
1.0
 40
1.0
 40
2.0
 40
2.0
 40
2.0
 40
3.0
 40
3.0
 40
3.0
 40
4.0
 40
4.0
 40
4.0
 40
4.0
 10
4.476736532187513
 20
6.696173890999413
 10
4.498982495768082
 20
6.701278154291041
 10
4.51222664172067
 20
6.716306480499244
 10
4.506319748606049
 20
6.72972050051534
 10
4.500425420141103
 20
6.743153618798942
 10
4.477602990432969
 20
6.749892291725106
 10
4.45536456564221
 20
6.74480263918306
 10
4.433126140851426
 20
6.739698340135469
 10
4.419876466452958
 20
6.724675039787144
 10
4.425780846637659
 20
6.711246444777417
 10
4.431680703548484
 20
6.697827901487458
 10
4.454498107396729
 20
6.691079176841539
 10
4.476736532187513
 20
6.696173890999413
 97
        0
 97
        0
 75
     2
 76
     1
 98
        0
  0
SPLINE
  5
132
330
BC
100
AcDbEntity
  8
E5SS
 62
   250
420
  2301728
370
    15
100
AcDbSpline
210
0.0
220
0.0
230
1.0
 70
    11
 71
     3
 72
    44
 73
    40
 74
     0
 42
0.0000000001
 43
0.0000000001
 12
1.0
 22
0.0
 32
0.0
 13
1.0
 23
0.0
 33
0.0
 40
0.0
 40
0.0
 40
0.0
 40
0.0
 40
1.0
 40
1.0
 40
1.0
 40
2.0
 40
2.0
 40
2.0
 40
3.0
 40
3.0
 40
3.0
 40
4.0
 40
4.0
 40
4.0
 40
5.0
 40
5.0
 40
5.0
 40
6.0
 40
6.0
 40
6.0
 40
7.0
 40
7.0
 40
7.0
 40
8.0
 40
8.0
 40
8.0
 40
9.0
 40
9.0
 40
9.0
 40
10.0
 40
10.0
 40
10.0
 40
11.0
 40
11.0
 40
11.0
 40
12.0
 40
12.0
 40
12.0
 40
13.0
 40
13.0
 40
13.0
 40
13.0
 10
4.327557338435605
 20
7.324592727096627
 30
0.0
 10
4.332024292378062
 20
7.315528755450777
 30
0.0
 10
4.338800184813307
 20
7.312106606144968
 30
0.0
 10
4.338800184813307
 20
7.312106606144968
 30
0.0
 10
4.338800184813307
 20
7.312106606144968
 30
0.0
 10
4.353877764829627
 20
7.308337211140156
 30
0.0
 10
4.371468274849146
 20
7.314619536146235
 30
0.0
 10
4.389058784868691
 20
7.320901861152353
 30
0.0
 10
4.468218840743677
 20
7.343518231173536
 30
0.0
 10
4.477011334966215
 20
7.34980055618002
 30
0.0
 10
4.480878277790402
 20
7.35256165029053
 30
0.0
 10
4.489840407058333
 20
7.359639695563967
 30
0.0
 10
4.498353141495575
 20
7.36971288836513
 30
0.0
 10
4.501546758958966
 20
7.373204977616865
 30
0.0
 10
4.50474191019311
 20
7.377438798405061
 30
0.0
 10
4.507576011791898
 20
7.38252662274888
 30
0.0
 10
4.514147605963394
 20
7.393399830375213
 30
0.0
 10
4.518698917298303
 20
7.406235651057992
 30
0.0
 10
4.517218215013372
 20
7.420162596255168
 30
0.0
 10
4.516025248121701
 20
7.431400841321255
 30
0.0
 10
4.512053395378416
 20
7.438400357532688
 30
0.0
 10
4.507190421827141
 20
7.442744609815488
 30
0.0
 10
4.507181832710936
 20
7.442756266473225
 30
0.0
 10
4.507175084119581
 20
7.442767309622657
 30
0.0
 10
4.507166495003402
 20
7.442778966280381
 30
0.0
 10
4.507166495003402
 20
7.442778966280381
 30
0.0
 10
4.528528854059737
 20
7.437753106273918
 30
0.0
 10
4.528528854058473
 20
7.41011087624367
 30
0.0
 10
4.531041784060335
 20
7.390007436221556
 30
0.0
 10
4.518477134045042
 20
7.355454648684321
 30
0.0
 10
4.480783490757302
 20
7.34100530117021
 30
0.0
 10
4.445486824403385
 20
7.327478670141355
 30
0.0
 10
4.381519994859698
 20
7.304567816134825
 30
0.0
 10
4.370217024667783
 20
7.302054886132559
 30
0.0
 10
4.358903624834738
 20
7.299541956130319
 30
0.0
 10
4.331889627305499
 20
7.306452513639088
 30
0.0
 10
4.326863767300842
 20
7.325299488659943
 30
0.0
 10
4.326863767300842
 20
7.325299488659943
 30
0.0
 10
4.327096286947052
 20
7.325028931498991
 30
0.0
 10
4.327557338435605
 20
7.324592727096627
 30
0.0
  0
ENDBLK
  5
BF
330
BC
100
AcDbEntity
  8
0
100
AcDbBlockEnd
  0
BLOCK
  5
CD
330
CB
100
AcDbEntity
  8
0
100
AcDbBlockBegin
  2
block 5
 70
     0
 10
0.0
 20
0.0
 30
0.0
  3
block 5
  1

  0
SPLINE
  5
CF
330
CB
100
AcDbEntity
  8
E5SS
 62
   250
420
  2301728
370
    15
100
AcDbSpline
210
0.0
220
0.0
230
1.0
 70
    11
 71
     3
 72
    17
 73
    13
 74
     0
 42
0.0000000001
 43
0.0000000001
 12
1.0
 22
0.0
 32
0.0
 13
1.0
 23
0.0
 33
0.0
 40
0.0
 40
0.0
 40
0.0
 40
0.0
 40
1.0
 40
1.0
 40
1.0
 40
2.0
 40
2.0
 40
2.0
 40
3.0
 40
3.0
 40
3.0
 40
4.0
 40
4.0
 40
4.0
 40
4.0
 10
4.636008042050409
 20
7.401580464714963
 30
0.0
 10
4.627289180332278
 20
7.382419373928441
 30
0.0
 10
4.632256237649345
 20
7.362767759217149
 30
0.0
 10
4.647098104456417
 20
7.357692645911154
 30
0.0
 10
4.661950022983243
 20
7.352617532605134
 30
0.0
 10
4.681051808624109
 20
7.36403885045047
 30
0.0
 10
4.689771141673924
 20
7.383194864104894
 30
0.0
 10
4.698495060506249
 20
7.402356007131604
 30
0.0
 10
4.693528505775172
 20
7.422003046328818
 30
0.0
 10
4.678681613108211
 20
7.42708770876858
 30
0.0
 10
4.663839243715175
 20
7.432152770354845
 30
0.0
 10
4.644724893424583
 20
7.420741555501485
 30
0.0
 10
4.636008042050409
 20
7.401580464714963
 30
0.0
  0
ENDBLK
  5
CE
330
CB
100
AcDbEntity
  8
0
100
AcDbBlockEnd
  0
BLOCK
  5
D2
330
D0
100
AcDbEntity
  8
0
100
AcDbBlockBegin
  2
block 6
 70
     0
 10
0.0
 20
0.0
 30
0.0
  3
block 6
  1

  0
SPLINE
  5
D4
330
D0
100
AcDbEntity
  8
E5SS
 62
   250
420
  2301728
370
    15
100
AcDbSpline
210
0.0
220
0.0
230
1.0
 70
    11
 71
     3
 72
    17
 73
    13
 74
     0
 42
0.0000000001
 43
0.0000000001
 12
1.0
 22
0.0
 32
0.0
 13
1.0
 23
0.0
 33
0.0
 40
0.0
 40
0.0
 40
0.0
 40
0.0
 40
1.0
 40
1.0
 40
1.0
 40
2.0
 40
2.0
 40
2.0
 40
3.0
 40
3.0
 40
3.0
 40
4.0
 40
4.0
 40
4.0
 40
4.0
 10
4.561876608851586
 20
7.614588468434325
 30
0.0
 10
4.55315774713343
 20
7.595431900921691
 30
0.0
 10
4.558124804450497
 20
7.575780286210412
 30
0.0
 10
4.572966671257594
 20
7.570707685834324
 30
0.0
 10
4.58781858978442
 20
7.565630059598371
 30
0.0
 10
4.606920375425286
 20
7.5770513261715
 30
0.0
 10
4.615639706602375
 20
7.596209904028076
 30
0.0
 10
4.624363627307426
 20
7.615370994814612
 30
0.0
 10
4.619397072576374
 20
7.63501814436971
 30
0.0
 10
4.604550179909412
 20
7.640097722831897
 30
0.0
 10
4.589707810516327
 20
7.64516781027804
 30
0.0
 10
4.570593460225786
 20
7.633751627650516
 30
0.0
 10
4.561876608851586
 20
7.614588468434325
 30
0.0
  0
ENDBLK
  5
D3
330
D0
100
AcDbEntity
  8
0
100
AcDbBlockEnd
  0
BLOCK
  5
D7
330
D5
100
AcDbEntity
  8
0
100
AcDbBlockBegin
  2
block 7
 70
     0
 10
0.0
 20
0.0
 30
0.0
  3
block 7
  1

  0
SPLINE
  5
D9
330
D5
100
AcDbEntity
  8
E5SS
 62
   250
420
  2301728
370
    15
100
AcDbSpline
210
0.0
220
0.0
230
1.0
 70
    11
 71
     3
 72
    17
 73
    13
 74
     0
 42
0.0000000001
 43
0.0000000001
 12
1.0
 22
0.0
 32
0.0
 13
1.0
 23
0.0
 33
0.0
 40
0.0
 40
0.0
 40
0.0
 40
0.0
 40
1.0
 40
1.0
 40
1.0
 40
2.0
 40
2.0
 40
2.0
 40
3.0
 40
3.0
 40
3.0
 40
4.0
 40
4.0
 40
4.0
 40
4.0
 10
4.236452181711607
 20
7.507013455850811
 30
0.0
 10
4.227735832923397
 20
7.487856888338165
 30
0.0
 10
4.2327023876545
 20
7.468205273626886
 30
0.0
 10
4.247544757047535
 20
7.463132673250824
 30
0.0
 10
4.262396675574387
 20
7.458057613592144
 30
0.0
 10
4.281498461215228
 20
7.46947636752375
 30
0.0
 10
4.290215271241474
 20
7.48863494586433
 30
0.0
 10
4.298941713097394
 20
7.507795982231086
 30
0.0
 10
4.29397515836629
 20
7.527443073668488
 30
0.0
 10
4.279128224071327
 20
7.532522710248385
 30
0.0
 10
4.264285896306293
 20
7.537592797694515
 30
0.0
 10
4.245169033085808
 20
7.526179069911209
 30
0.0
 10
4.236452181711607
 20
7.507013455850811
 30
0.0
  0
ENDBLK
  5
D8
330
D5
100
AcDbEntity
  8
0
100
AcDbBlockEnd
  0
BLOCK
  5
DC
330
DA
100
AcDbEntity
  8
0
100
AcDbBlockBegin
  2
block 8
 70
     0
 10
0.0
 20
0.0
 30
0.0
  3
block 8
  1

  0
SPLINE
  5
DE
330
DA
100
AcDbEntity
  8
E5SS
 62
   250
420
  2301728
370
    15
100
AcDbSpline
210
0.0
220
0.0
230
1.0
 70
    11
 71
     3
 72
    17
 73
    13
 74
     0
 42
0.0000000001
 43
0.0000000001
 12
1.0
 22
0.0
 32
0.0
 13
1.0
 23
0.0
 33
0.0
 40
0.0
 40
0.0
 40
0.0
 40
0.0
 40
1.0
 40
1.0
 40
1.0
 40
2.0
 40
2.0
 40
2.0
 40
3.0
 40
3.0
 40
3.0
 40
4.0
 40
4.0
 40
4.0
 40
4.0
 10
4.168603073339733
 20
7.246932243343482
 30
0.0
 10
4.159886724551521
 20
7.227771152556961
 30
0.0
 10
4.164853279282574
 20
7.208119537845694
 30
0.0
 10
4.179695648675672
 20
7.203044424539686
 30
0.0
 10
4.194547567202512
 20
7.197969358310602
 30
0.0
 10
4.213649352843352
 20
7.209390577806769
 30
0.0
 10
4.22236616115558
 20
7.228546690582814
 30
0.0
 10
4.231092604725506
 20
7.247707733519936
 30
0.0
 10
4.226126049994415
 20
7.267354824957338
 30
0.0
 10
4.211279113985433
 20
7.272434461537235
 30
0.0
 10
4.196436787934393
 20
7.277504548983377
 30
0.0
 10
4.177319924713907
 20
7.266093334129992
 30
0.0
 10
4.168603073339733
 20
7.246932243343482
 30
0.0
  0
ENDBLK
  5
DD
330
DA
100
AcDbEntity
  8
0
100
AcDbBlockEnd
  0
BLOCK
  5
E1
330
DF
100
AcDbEntity
  8
0
100
AcDbBlockBegin
  2
block 9
 70
     0
 10
0.0
 20
0.0
 30
0.0
  3
block 9
  1

  0
SPLINE
  5
E3
330
DF
100
AcDbEntity
  8
E5SS
 62
   250
420
  2301728
370
    15
100
AcDbSpline
210
0.0
220
0.0
230
1.0
 70
    11
 71
     3
 72
    17
 73
    13
 74
     0
 42
0.0000000001
 43
0.0000000001
 12
1.0
 22
0.0
 32
0.0
 13
1.0
 23
0.0
 33
0.0
 40
0.0
 40
0.0
 40
0.0
 40
0.0
 40
1.0
 40
1.0
 40
1.0
 40
2.0
 40
2.0
 40
2.0
 40
3.0
 40
3.0
 40
3.0
 40
4.0
 40
4.0
 40
4.0
 40
4.0
 10
4.439412951333073
 20
6.783360497956929
 30
0.0
 10
4.461653926632683
 20
6.788455212114816
 30
0.0
 10
4.474898575171235
 20
6.803483538323007
 30
0.0
 10
4.468999220846424
 20
6.816907107472856
 30
0.0
 10
4.463089777821071
 20
6.830330676622692
 30
0.0
 10
4.44027442129757
 20
6.837074375408721
 30
0.0
 10
4.418030970646896
 20
6.831970112117093
 30
0.0
 10
4.395807623435758
 20
6.82687539795922
 30
0.0
 10
4.382550912833494
 20
6.811852097610894
 30
0.0
 10
4.388445241298415
 20
6.798418513724729
 30
0.0
 10
4.394354647343006
 20
6.785004959311209
 30
0.0
 10
4.417172051191224
 20
6.778246182945521
 30
0.0
 10
4.439412951333073
 20
6.783360497956929
 30
0.0
  0
ENDBLK
  5
E2
330
DF
100
AcDbEntity
  8
0
100
AcDbBlockEnd
  0
BLOCK
  5
E6
330
E4
100
AcDbEntity
  8
0
100
AcDbBlockBegin
  2
block 10
 70
     0
 10
0.0
 20
0.0
 30
0.0
  3
block 10
  1

  0
SPLINE
  5
E8
330
E4
100
AcDbEntity
  8
E5SS
 62
   250
420
  2301728
370
    15
100
AcDbSpline
210
0.0
220
0.0
230
1.0
 70
    11
 71
     3
 72
    17
 73
    13
 74
     0
 42
0.0000000001
 43
0.0000000001
 12
1.0
 22
0.0
 32
0.0
 13
1.0
 23
0.0
 33
0.0
 40
0.0
 40
0.0
 40
0.0
 40
0.0
 40
1.0
 40
1.0
 40
1.0
 40
2.0
 40
2.0
 40
2.0
 40
3.0
 40
3.0
 40
3.0
 40
4.0
 40
4.0
 40
4.0
 40
4.0
 10
4.291152635426695
 20
6.818541517113342
 30
0.0
 10
4.313391060217453
 20
6.823636231271204
 30
0.0
 10
4.326638221685976
 20
6.838664557479407
 30
0.0
 10
4.320738364775176
 20
6.852088126629243
 30
0.0
 10
4.314829461316574
 20
6.865511695779105
 30
0.0
 10
4.292011554882341
 20
6.872255394565134
 30
0.0
 10
4.269768104231692
 20
6.867151131273494
 30
0.0
 10
4.247544757020553
 20
6.862056417115619
 30
0.0
 10
4.234288046418265
 20
6.847033116767307
 30
0.0
 10
4.240182374883211
 20
6.833599533769871
 30
0.0
 10
4.246091780927801
 20
6.820185978467609
 30
0.0
 10
4.268909184776046
 20
6.813427202101934
 30
0.0
 10
4.291152635426695
 20
6.818541517113342
 30
0.0
  0
ENDBLK
  5
E7
330
E4
100
AcDbEntity
  8
0
100
AcDbBlockEnd
  0
BLOCK
  5
EB
330
E9
100
AcDbEntity
  8
0
100
AcDbBlockBegin
  2
block 11
 70
     0
 10
0.0
 20
0.0
 30
0.0
  3
block 11
  1

  0
SPLINE
  5
ED
330
E9
100
AcDbEntity
  8
E5SS
 62
   250
420
  2301728
370
    15
100
AcDbSpline
210
0.0
220
0.0
230
1.0
 70
    11
 71
     3
 72
    17
 73
    13
 74
     0
 42
0.0000000001
 43
0.0000000001
 12
1.0
 22
0.0
 32
0.0
 13
1.0
 23
0.0
 33
0.0
 40
0.0
 40
0.0
 40
0.0
 40
0.0
 40
1.0
 40
1.0
 40
1.0
 40
2.0
 40
2.0
 40
2.0
 40
3.0
 40
3.0
 40
3.0
 40
4.0
 40
4.0
 40
4.0
 40
4.0
 10
4.758555061690913
 20
6.976856103266211
 30
0.0
 10
4.780796028928332
 20
6.981950817424085
 30
0.0
 10
4.794040677466935
 20
6.996979143632264
 30
0.0
 10
4.788141323142099
 20
7.010402712782112
 30
0.0
 10
4.782231888178936
 20
7.023826281931961
 30
0.0
 10
4.759416523593219
 20
7.030569980718016
 30
0.0
 10
4.737173072942546
 20
7.025465717426376
 30
0.0
 10
4.714947212801513
 20
7.020371003268489
 30
0.0
 10
4.701690502199224
 20
7.005347702920176
 30
0.0
 10
4.707587343594089
 20
6.991914123922116
 30
0.0
 10
4.71349674963868
 20
6.97850056462049
 30
0.0
 10
4.736312143142968
 20
6.971741788254803
 30
0.0
 10
4.758555061690913
 20
6.976856103266211
 30
0.0
  0
ENDBLK
  5
EC
330
E9
100
AcDbEntity
  8
0
100
AcDbBlockEnd
  0
BLOCK
  5
F0
330
EE
100
AcDbEntity
  8
0
100
AcDbBlockBegin
  2
block 12
 70
     0
 10
0.0
 20
0.0
 30
0.0
  3
block 12
  1

  0
SPLINE
  5
F2
330
EE
100
AcDbEntity
  8
E5SS
 62
   250
420
  2301728
370
    15
100
AcDbSpline
210
0.0
220
0.0
230
1.0
 70
    11
 71
     3
 72
    17
 73
    13
 74
     0
 42
0.0000000001
 43
0.0000000001
 12
1.0
 22
0.0
 32
0.0
 13
1.0
 23
0.0
 33
0.0
 40
0.0
 40
0.0
 40
0.0
 40
0.0
 40
1.0
 40
1.0
 40
1.0
 40
2.0
 40
2.0
 40
2.0
 40
3.0
 40
3.0
 40
3.0
 40
4.0
 40
4.0
 40
4.0
 40
4.0
 10
4.768606781698382
 20
6.897698810178818
 30
0.0
 10
4.79084774868185
 20
6.902793524336706
 30
0.0
 10
4.804092397220428
 20
6.917821850544897
 30
0.0
 10
4.798193042895617
 20
6.931245419694745
 30
0.0
 10
4.792283608186381
 20
6.944668988844594
 30
0.0
 10
4.769468243346712
 20
6.951412687630636
 30
0.0
 10
4.747224792696088
 20
6.946308424338983
 30
0.0
 10
4.724998932555005
 20
6.941213710181109
 30
0.0
 10
4.711742221952717
 20
6.926190409832783
 30
0.0
 10
4.717639063347607
 20
6.912756828835048
 30
0.0
 10
4.723548469392199
 20
6.899343271533085
 30
0.0
 10
4.746363862896487
 20
6.892584495167435
 30
0.0
 10
4.768606781698382
 20
6.897698810178818
 30
0.0
  0
ENDBLK
  5
F1
330
EE
100
AcDbEntity
  8
0
100
AcDbBlockEnd
  0
BLOCK
  5
F5
330
F3
100
AcDbEntity
  8
0
100
AcDbBlockBegin
  2
block 13
 70
     0
 10
0.0
 20
0.0
 30
0.0
  3
block 13
  1

  0
SPLINE
  5
F7
330
F3
100
AcDbEntity
  8
E5SS
 62
   250
420
  2301728
370
    15
100
AcDbSpline
210
0.0
220
0.0
230
1.0
 70
    11
 71
     3
 72
    17
 73
    13
 74
     0
 42
0.0000000001
 43
0.0000000001
 12
1.0
 22
0.0
 32
0.0
 13
1.0
 23
0.0
 33
0.0
 40
0.0
 40
0.0
 40
0.0
 40
0.0
 40
1.0
 40
1.0
 40
1.0
 40
2.0
 40
2.0
 40
2.0
 40
3.0
 40
3.0
 40
3.0
 40
4.0
 40
4.0
 40
4.0
 40
4.0
 10
4.940742486884447
 20
6.847440211385737
 30
0.0
 10
4.962983449519444
 20
6.852534925543599
 30
0.0
 10
4.976228098057996
 20
6.867563251751827
 30
0.0
 10
4.970328743733186
 20
6.880986820901663
 30
0.0
 10
4.964419313372446
 20
6.894410390051512
 30
0.0
 10
4.941603944184281
 20
6.901154088837554
 30
0.0
 10
4.919360493533658
 20
6.896049825545902
 30
0.0
 10
4.897134633392574
 20
6.890955111388039
 30
0.0
 10
4.883877922790285
 20
6.875931811039713
 30
0.0
 10
4.889774764185177
 20
6.862498228772337
 30
0.0
 10
4.895684170229767
 20
6.849084672740016
 30
0.0
 10
4.918499563734031
 20
6.842325896374367
 30
0.0
 10
4.940742486884447
 20
6.847440211385737
 30
0.0
  0
ENDBLK
  5
F6
330
F3
100
AcDbEntity
  8
0
100
AcDbBlockEnd
  0
BLOCK
  5
FA
330
F8
100
AcDbEntity
  8
0
100
AcDbBlockBegin
  2
block 14
 70
     0
 10
0.0
 20
0.0
 30
0.0
  3
block 14
  1

  0
SPLINE
  5
FC
330
F8
100
AcDbEntity
  8
E5SS
 62
   250
420
  2301728
370
    15
100
AcDbSpline
210
0.0
220
0.0
230
1.0
 70
    11
 71
     3
 72
    17
 73
    13
 74
     0
 42
0.0000000001
 43
0.0000000001
 12
1.0
 22
0.0
 32
0.0
 13
1.0
 23
0.0
 33
0.0
 40
0.0
 40
0.0
 40
0.0
 40
0.0
 40
1.0
 40
1.0
 40
1.0
 40
2.0
 40
2.0
 40
2.0
 40
3.0
 40
3.0
 40
3.0
 40
4.0
 40
4.0
 40
4.0
 40
4.0
 10
4.477106901370083
 20
6.689125625232704
 30
0.0
 10
4.499347875717452
 20
6.694220339390577
 30
0.0
 10
4.512592524256029
 20
6.709248665598794
 30
0.0
 10
4.506693169931219
 20
6.722672234748643
 30
0.0
 10
4.500783727858081
 20
6.736095803898466
 30
0.0
 10
4.477968370382339
 20
6.742839502684508
 30
0.0
 10
4.45572491973169
 20
6.73773523939288
 30
0.0
 10
4.433499059590632
 20
6.732640525235006
 30
0.0
 10
4.420244861918263
 20
6.717617224886667
 30
0.0
 10
4.426139190383209
 20
6.704183638619926
 30
0.0
 10
4.432048596427775
 20
6.690770086586983
 30
0.0
 10
4.454863989932088
 20
6.684011310221308
 30
0.0
 10
4.477106901370083
 20
6.689125625232704
 30
0.0
  0
ENDBLK
  5
FB
330
F8
100
AcDbEntity
  8
0
100
AcDbBlockEnd
  0
BLOCK
  5
101
330
FF
100
AcDbEntity
  8
0
100
AcDbBlockBegin
  2
block 15
 70
     0
 10
0.0
 20
0.0
 30
0.0
  3
block 15
  1

  0
SPLINE
  5
103
330
FF
100
AcDbEntity
  8
E5SS
 62
   250
420
  2301728
370
    15
100
AcDbSpline
210
0.0
220
0.0
230
1.0
 70
     8
 71
     3
 72
    14
 73
    10
 74
     0
 42
0.0000000001
 43
0.0000000001
 12
1.0
 22
0.0
 32
0.0
 13
1.0
 23
0.0
 33
0.0
 40
0.0
 40
0.0
 40
0.0
 40
0.0
 40
1.0
 40
1.0
 40
1.0
 40
2.0
 40
2.0
 40
2.0
 40
3.0
 40
3.0
 40
3.0
 40
3.0
 10
4.273046933445357
 20
7.102513968197286
 30
0.0
 10
4.273046933443336
 20
7.057796701991593
 30
0.0
 10
4.273046933438738
 20
6.955318141486107
 30
0.0
 10
4.273046933438486
 20
6.949405400015116
 30
0.0
 10
4.273046933438183
 20
6.942700902767784
 30
0.0
 10
4.279751430684907
 20
6.929301959992825
 30
0.0
 10
4.288958806214597
 20
6.920084532742331
 30
0.0
 10
4.294958235181285
 20
6.914088375001332
 30
0.0
 10
4.308763209331826
 20
6.905251901582055
 30
0.0
 10
4.319979979255524
 20
6.897965432236042
 30
0.0
  0
SPLINE
  5
104
330
FF
100
AcDbEntity
  8
E5SS
 62
   250
420
  2301728
370
    15
100
AcDbSpline
210
0.0
220
0.0
230
1.0
 70
     8
 71
     3
 72
    29
 73
    25
 74
     0
 42
0.0000000001
 43
0.0000000001
 12
1.0
 22
0.0
 32
0.0
 13
1.0
 23
0.0
 33
0.0
 40
0.0
 40
0.0
 40
0.0
 40
0.0
 40
1.0
 40
1.0
 40
1.0
 40
2.0
 40
2.0
 40
2.0
 40
3.0
 40
3.0
 40
3.0
 40
4.0
 40
4.0
 40
4.0
 40
5.0
 40
5.0
 40
5.0
 40
6.0
 40
6.0
 40
6.0
 40
7.0
 40
7.0
 40
7.0
 40
8.0
 40
8.0
 40
8.0
 40
8.0
 10
4.334191546262647
 20
6.888255761325442
 30
0.0
 10
4.342574680751492
 20
6.881556289937773
 30
0.0
 10
4.380499356833878
 20
6.873929005900713
 30
0.0
 10
4.407066516342158
 20
6.88322990131668
 30
0.0
 10
4.423822733600724
 20
6.889095079942358
 30
0.0
 10
4.429265739987411
 20
6.904589806339054
 30
0.0
 10
4.421309803599065
 20
6.912545742728121
 30
0.0
 10
4.421309803599065
 20
6.912545742728121
 30
0.0
 10
4.419631166357324
 20
6.915058672730955
 30
0.0
 10
4.419631166357324
 20
6.915058672730955
 30
0.0
 10
4.419631166357324
 20
6.915058672730955
 30
0.0
 10
4.378589993553886
 20
6.947726762768538
 30
0.0
 10
4.369372566304087
 20
6.953591941395366
 30
0.0
 10
4.36016519077427
 20
6.959457120022206
 30
0.0
 10
4.355139330768907
 20
6.962804342786082
 30
0.0
 10
4.355973623530518
 20
6.978721241423462
 30
0.0
 10
4.356807916292155
 20
6.994638140060866
 30
0.0
 10
4.359320846301721
 20
7.146253258846627
 30
0.0
 10
4.360165190783164
 20
7.15797859023942
 30
0.0
 10
4.360999483544598
 20
7.169703921632212
 30
0.0
 10
4.352626400776519
 20
7.193154584418228
 30
0.0
 10
4.322471240743476
 20
7.192320291658689
 30
0.0
 10
4.292316080710432
 20
7.19148097303912
 30
0.0
 10
4.273046933447353
 20
7.147087551611397
 30
0.0
 10
4.273046933446014
 20
7.116932391578403
 30
0.0
  0
ENDBLK
  5
102
330
FF
100
AcDbEntity
  8
0
100
AcDbBlockEnd
  0
ENDSEC
  0
SECTION
  2
ENTITIES
  0
INSERT
  5
42
330
1F
100
AcDbEntity
  8
Wood
100
AcDbBlockReference
  2
block 2
 10
0.0
 20
0.0
 30
0.0
  0
INSERT
  5
7F
330
1F
100
AcDbEntity
  8
Wood
100
AcDbBlockReference
  2
block 3
 10
0.0
 20
0.0
 30
0.0
  0
INSERT
  5
BD
330
1F
100
AcDbEntity
  8
E5SS
100
AcDbBlockReference
  2
block 4
 10
0.0
 20
0.0
 30
0.0
  0
MTEXT
  5
134
330
1F
100
AcDbEntity
  8
callout
 62
   250
420
  2236191
100
AcDbMText
 10
3.5510360399882
 20
4.979858557383219
 30
0.0
 40
0.118
 41
0.0
 46
0.0
 71
     7
 72
     1
  1
\fHelvetica Neue LT Std 55 Roman|b0|i0|c0|p34;\W1;SIMPSON Strong-Tie\H0.068794;®\H0.118; ^C
 73
     1
 44
1.0
  0
MTEXT
  5
135
330
1F
100
AcDbEntity
  8
callout
 62
   250
420
  2236191
100
AcDbMText
 10
3.594398127661811
 20
4.779866695404053
 30
0.0
 40
0.118
 41
0.0
 46
0.0
 71
     7
 72
     1
  1
\fHelvetica Neue LT Std 55 Roman|b0|i0|c0|p34;\W1;E5 Beam Connection 
 73
     1
 44
1.0
  0
MTEXT
  5
136
330
1F
100
AcDbEntity
  8
callout
 62
   250
420
  2236191
100
AcDbMText
 10
3.278565406799316
 20
5.864767683876885
 30
0.0
 40
0.118
 41
0.0
 46
0.0
 71
     7
 72
     1
  1
\fHelvetica Neue LT Std 57 Condensed|b0|i0|c0|p34;\W1;E5 / E5SS
 73
     1
 44
1.0
  0
POLYLINE
  5
137
330
1F
100
AcDbEntity
  8
callout
 62
   250
420
  2236191
370
    18
100
AcDb2dPolyline
 66
     1
 10
0.0
 20
0.0
 30
0.0
  0
VERTEX
  5
138
330
137
100
AcDbEntity
  8
callout
 62
   250
420
  2236191
370
    18
100
AcDbVertex
100
AcDb2dVertex
 10
3.579781799075767
 20
6.087239285442871
 30
0.0
  0
VERTEX
  5
139
330
137
100
AcDbEntity
  8
callout
 62
   250
420
  2236191
370
    18
100
AcDbVertex
100
AcDb2dVertex
 10
4.18539990782353
 20
6.810374171103629
 30
0.0
  0
SEQEND
  5
13A
330
137
100
AcDbEntity
  8
callout
 62
   250
420
  2236191
370
    18
  0
MTEXT
  5
13B
330
1F
100
AcDbEntity
  8
callout
 62
   250
420
  2236191
100
AcDbMText
 10
5.473094304402669
 20
7.135401195949978
 30
0.0
 40
0.118
 41
0.0
 46
0.0
 71
     7
 72
     1
  1
\fHelvetica Neue LT Std 57 Condensed|b0|i0|c0|p34;\W1;Beam
 73
     1
 44
1.0
  0
MTEXT
  5
13C
330
1F
100
AcDbEntity
  8
callout
 62
   250
420
  2236191
100
AcDbMText
 10
3.434982193840874
 20
8.428204218546549
 30
0.0
 40
0.118
 41
0.0
 46
0.0
 71
     7
 72
     1
  1
\fHelvetica Neue LT Std 57 Condensed|b0|i0|c0|p34;\W1;Joist
 73
     1
 44
1.0
  0
POLYLINE
  5
13D
330
1F
100
AcDbEntity
  8
callout
 62
   250
420
  2236191
370
    18
100
AcDb2dPolyline
 66
     1
 10
0.0
 20
0.0
 30
0.0
  0
VERTEX
  5
13E
330
13D
100
AcDbEntity
  8
callout
 62
   250
420
  2236191
370
    18
100
AcDbVertex
100
AcDb2dVertex
 10
5.603132387706864
 20
7.079965143733792
 30
0.0
  0
VERTEX
  5
13F
330
13D
100
AcDbEntity
  8
callout
 62
   250
420
  2236191
370
    18
100
AcDbVertex
100
AcDb2dVertex
 10
5.300577662637099
 20
6.806458053531564
 30
0.0
  0
SEQEND
  5
140
330
13D
100
AcDbEntity
  8
callout
 62
   250
420
  2236191
370
    18
  0
POLYLINE
  5
141
330
1F
100
AcDbEntity
  8
callout
 62
   250
420
  2236191
370
    18
100
AcDb2dPolyline
 66
     1
 10
0.0
 20
0.0
 30
0.0
  0
VERTEX
  5
142
330
141
100
AcDbEntity
  8
callout
 62
   250
420
  2236191
370
    18
100
AcDbVertex
100
AcDb2dVertex
 10
3.830082742316803
 20
8.459689415523233
 30
0.0
  0
VERTEX
  5
143
330
141
100
AcDbEntity
  8
callout
 62
   250
420
  2236191
370
    18
100
AcDbVertex
100
AcDb2dVertex
 10
4.348978159366121
 20
8.20005910165489
 30
0.0
  0
SEQEND
  5
144
330
141
100
AcDbEntity
  8
callout
 62
   250
420
  2236191
370
    18
  0
ENDSEC
  0
SECTION
  2
OBJECTS
  0
DICTIONARY
  5
C
330
0
100
AcDbDictionary
281
     1
  3
ACAD_GROUP
350
D
  3
ACAD_LAYOUT
350
1A
  3
ACAD_MATERIAL
350
3B
  3
ACAD_MLEADERSTYLE
350
146
  3
ACAD_MLINESTYLE
350
17
  3
ACAD_PLOTSETTINGS
350
19
  3
ACAD_PLOTSTYLENAME
350
E
  3
ACAD_TABLESTYLE
350
145
  3
ACAD_VISUALSTYLE
350
2A
  0
SUN
  5
3F
330
29
100
AcDbSun
 90
        1
290
     0
 63
     7
421
 16777215
 40
1.0
291
     1
 91
  2455826
 92
 54000000
292
     0
 70
     2
 71
   256
280
     1
  0
DICTIONARY
  5
D
102
{ACAD_REACTORS
330
C
102
}
330
C
100
AcDbDictionary
281
     1
  0
DICTIONARY
  5
1A
102
{ACAD_REACTORS
330
C
102
}
330
C
100
AcDbDictionary
281
     1
  3
Layout1
350
1E
  3
Layout2
350
26
  3
Model
350
22
  0
DICTIONARY
  5
3B
102
{ACAD_REACTORS
330
C
102
}
330
C
100
AcDbDictionary
281
     1
  3
ByBlock
350
3D
  3
ByLayer
350
3C
  3
Global
350
3E
  0
DICTIONARY
  5
146
102
{ACAD_REACTORS
330
C
102
}
330
C
100
AcDbDictionary
281
     1
  0
DICTIONARY
  5
17
102
{ACAD_REACTORS
330
C
102
}
330
C
100
AcDbDictionary
281
     1
  3
Standard
350
18
  0
DICTIONARY
  5
19
102
{ACAD_REACTORS
330
C
102
}
330
C
100
AcDbDictionary
281
     1
  0
ACDBDICTIONARYWDFLT
  5
E
102
{ACAD_REACTORS
330
C
102
}
330
C
100
AcDbDictionary
281
     1
  3
Normal
350
F
100
AcDbDictionaryWithDefault
340
F
  0
DICTIONARY
  5
145
102
{ACAD_REACTORS
330
C
102
}
330
C
100
AcDbDictionary
281
     1
  0
DICTIONARY
  5
2A
102
{ACAD_REACTORS
330
C
102
}
330
C
100
AcDbDictionary
281
     1
  3
2dWireframe
350
2F
  3
3D Hidden
350
31
  3
3dWireframe
350
30
  3
Basic
350
32
  3
Brighten
350
36
  3
ColorChange
350
3A
  3
Conceptual
350
34
  3
Dim
350
35
  3
Facepattern
350
39
  3
Flat
350
2B
  3
FlatWithEdges
350
2C
  3
Gouraud
350
2D
  3
GouraudWithEdges
350
2E
  3
Linepattern
350
38
  3
Realistic
350
33
  3
Thicken
350
37
  0
LAYOUT
  5
1E
102
{ACAD_REACTORS
330
1A
102
}
330
1A
100
AcDbPlotSettings
  1

  2
none_device
  4

  6

 40
0.0
 41
0.0
 42
0.0
 43
0.0
 44
0.0
 45
0.0
 46
0.0
 47
0.0
 48
0.0
 49
0.0
140
0.0
141
0.0
142
1.0
143
1.0
 70
   688
 72
     0
 73
     0
 74
     5
  7

 75
    16
 76
     0
 77
     2
 78
   300
147
1.0
148
0.0
149
0.0
100
AcDbLayout
  1
Layout1
 70
     1
 71
     1
 10
0.0
 20
0.0
 11
12.0
 21
9.0
 12
0.0
 22
0.0
 32
0.0
 14
1.000000000000000E+20
 24
1.000000000000000E+20
 34
1.000000000000000E+20
 15
-1.000000000000000E+20
 25
-1.000000000000000E+20
 35
-1.000000000000000E+20
146
0.0
 13
0.0
 23
0.0
 33
0.0
 16
1.0
 26
0.0
 36
0.0
 17
0.0
 27
1.0
 37
0.0
 76
     0
330
1B
  0
LAYOUT
  5
26
102
{ACAD_REACTORS
330
1A
102
}
330
1A
100
AcDbPlotSettings
  1

  2
none_device
  4

  6

 40
0.0
 41
0.0
 42
0.0
 43
0.0
 44
0.0
 45
0.0
 46
0.0
 47
0.0
 48
0.0
 49
0.0
140
0.0
141
0.0
142
1.0
143
1.0
 70
   688
 72
     0
 73
     0
 74
     5
  7

 75
    16
 76
     0
 77
     2
 78
   300
147
1.0
148
0.0
149
0.0
100
AcDbLayout
  1
Layout2
 70
     1
 71
     2
 10
0.0
 20
0.0
 11
0.0
 21
0.0
 12
0.0
 22
0.0
 32
0.0
 14
0.0
 24
0.0
 34
0.0
 15
0.0
 25
0.0
 35
0.0
146
0.0
 13
0.0
 23
0.0
 33
0.0
 16
1.0
 26
0.0
 36
0.0
 17
0.0
 27
1.0
 37
0.0
 76
     0
330
23
  0
LAYOUT
  5
22
102
{ACAD_REACTORS
330
1A
102
}
330
1A
100
AcDbPlotSettings
  1

  2
none_device
  4

  6

 40
0.0
 41
0.0
 42
0.0
 43
0.0
 44
0.0
 45
0.0
 46
0.0
 47
0.0
 48
0.0
 49
0.0
140
0.0
141
0.0
142
1.0
143
1.0
 70
  1712
 72
     0
 73
     0
 74
     0
  7

 75
     0
 76
     0
 77
     2
 78
   300
147
1.0
148
0.0
149
0.0
100
AcDbLayout
  1
Model
 70
     1
 71
     0
 10
0.0
 20
0.0
 11
12.0
 21
9.0
 12
0.0
 22
0.0
 32
0.0
 14
1.000000000000000E+20
 24
1.000000000000000E+20
 34
1.000000000000000E+20
 15
-1.000000000000000E+20
 25
-1.000000000000000E+20
 35
-1.000000000000000E+20
146
0.0
 13
0.0
 23
0.0
 33
0.0
 16
1.0
 26
0.0
 36
0.0
 17
0.0
 27
1.0
 37
0.0
 76
     0
330
1F
331
29
  0
MATERIAL
  5
3D
102
{ACAD_REACTORS
330
3B
102
}
330
3B
100
AcDbMaterial
  1
ByBlock
 72
     1
 94
      127
  0
MATERIAL
  5
3C
102
{ACAD_REACTORS
330
3B
102
}
330
3B
100
AcDbMaterial
  1
ByLayer
 72
     1
 94
      127
  0
MATERIAL
  5
3E
102
{ACAD_REACTORS
330
3B
102
}
330
3B
100
AcDbMaterial
  1
Global
 72
     1
 94
      127
  0
MLINESTYLE
  5
18
102
{ACAD_REACTORS
330
17
102
}
330
17
100
AcDbMlineStyle
  2
Standard
 70
     0
  3

 62
   256
 51
90.0
 52
90.0
 71
     2
 49
0.5
 62
   256
  6
BYLAYER
 49
-0.5
 62
   256
  6
BYLAYER
  0
ACDBPLACEHOLDER
  5
F
102
{ACAD_REACTORS
330
E
102
}
330
E
  0
VISUALSTYLE
  5
2F
102
{ACAD_REACTORS
330
2A
102
}
330
2A
100
AcDbVisualStyle
  2
2dWireframe
 70
     4
177
     2
291
     0
 71
     0
176
     1
 72
     2
176
     1
 73
     0
176
     1
 90
        0
176
     1
 40
-0.6
176
     1
 41
-30.0
176
     1
 62
     5
 63
     7
421
 16777215
176
     1
 74
     1
176
     1
 91
        4
176
     1
 64
     7
176
     1
 65
   257
176
     1
 75
     1
176
     1
175
     1
176
     1
 42
1.0
176
     1
 92
        0
176
     1
 66
   257
176
     1
 43
1.0
176
     1
 76
     1
176
     1
 77
     6
176
     1
 78
     2
176
     1
 67
     7
176
     1
 79
     5
176
     1
170
     0
176
     1
171
     0
176
     1
290
     0
176
     1
 93
        1
176
     1
 44
0.0
176
     1
173
     0
176
     1
  0
VISUALSTYLE
  5
31
102
{ACAD_REACTORS
330
2A
102
}
330
2A
100
AcDbVisualStyle
  2
3D Hidden
 70
     6
177
     2
291
     0
 71
     1
176
     1
 72
     2
176
     1
 73
     2
176
     1
 90
        0
176
     1
 40
-0.6
176
     1
 41
-30.0
176
     1
 62
     5
 63
     7
421
 16777215
176
     1
 74
     2
176
     1
 91
        2
176
     1
 64
     7
176
     1
 65
   257
176
     1
 75
     2
176
     1
175
     1
176
     1
 42
40.0
176
     1
 92
        0
176
     1
 66
   257
176
     1
 43
1.0
176
     1
 76
     1
176
     1
 77
     6
176
     1
 78
     2
176
     1
 67
     7
176
     1
 79
     3
176
     1
170
     0
176
     1
171
     0
176
     1
290
     0
176
     1
 93
        1
176
     1
 44
0.0
176
     1
173
     0
176
     1
  0
VISUALSTYLE
  5
30
102
{ACAD_REACTORS
330
2A
102
}
330
2A
100
AcDbVisualStyle
  2
3dWireframe
 70
     5
177
     2
291
     0
 71
     0
176
     1
 72
     2
176
     1
 73
     0
176
     1
 90
        0
176
     1
 40
-0.6
176
     1
 41
-30.0
176
     1
 62
     5
 63
     7
421
 16777215
176
     1
 74
     1
176
     1
 91
        4
176
     1
 64
     7
176
     1
 65
   257
176
     1
 75
     1
176
     1
175
     1
176
     1
 42
1.0
176
     1
 92
        0
176
     1
 66
   257
176
     1
 43
1.0
176
     1
 76
     1
176
     1
 77
     6
176
     1
 78
     2
176
     1
 67
     7
176
     1
 79
     5
176
     1
170
     0
176
     1
171
     0
176
     1
290
     0
176
     1
 93
        1
176
     1
 44
0.0
176
     1
173
     0
176
     1
  0
VISUALSTYLE
  5
32
102
{ACAD_REACTORS
330
2A
102
}
330
2A
100
AcDbVisualStyle
  2
Basic
 70
     7
177
     2
291
     1
 71
     1
176
     1
 72
     0
176
     1
 73
     1
176
     1
 90
        0
176
     1
 40
-0.6
176
     1
 41
-30.0
176
     1
 62
     5
 63
     7
421
 16777215
176
     1
 74
     0
176
     1
 91
        4
176
     1
 64
     7
176
     1
 65
   257
176
     1
 75
     1
176
     1
175
     1
176
     1
 42
1.0
176
     1
 92
        8
176
     1
 66
     7
176
     1
 43
1.0
176
     1
 76
     1
176
     1
 77
     6
176
     1
 78
     2
176
     1
 67
     7
176
     1
 79
     5
176
     1
170
     0
176
     1
171
     0
176
     1
290
     0
176
     1
 93
        1
176
     1
 44
0.0
176
     1
173
     0
176
     1
  0
VISUALSTYLE
  5
36
102
{ACAD_REACTORS
330
2A
102
}
330
2A
100
AcDbVisualStyle
  2
Brighten
 70
    12
177
     2
291
     1
 71
     2
176
     1
 72
     2
176
     1
 73
     0
176
     1
 90
        0
176
     1
 40
-0.6
176
     1
 41
-30.0
176
     1
 62
     5
 63
     7
421
 16777215
176
     1
 74
     1
176
     1
 91
        4
176
     1
 64
     7
176
     1
 65
   257
176
     1
 75
     1
176
     1
175
     1
176
     1
 42
1.0
176
     1
 92
        8
176
     1
 66
     7
176
     1
 43
1.0
176
     1
 76
     1
176
     1
 77
     6
176
     1
 78
     2
176
     1
 67
     7
176
     1
 79
     5
176
     1
170
     0
176
     1
171
     0
176
     1
290
     0
176
     1
 93
        1
176
     1
 44
50.0
176
     1
173
     0
176
     1
  0
VISUALSTYLE
  5
3A
102
{ACAD_REACTORS
330
2A
102
}
330
2A
100
AcDbVisualStyle
  2
ColorChange
 70
    16
177
     2
291
     1
 71
     2
176
     1
 72
     2
176
     1
 73
     3
176
     1
 90
        0
176
     1
 40
-0.6
176
     1
 41
-30.0
176
     1
 62
     5
 63
     8
421
  8421504
176
     1
 74
     1
176
     1
 91
        4
176
     1
 64
     7
176
     1
 65
   257
176
     1
 75
     1
176
     1
175
     1
176
     1
 42
1.0
176
     1
 92
        8
176
     1
 66
     8
424
  8421504
176
     1
 43
1.0
176
     1
 76
     1
176
     1
 77
     6
176
     1
 78
     2
176
     1
 67
     7
176
     1
 79
     5
176
     1
170
     0
176
     1
171
     0
176
     1
290
     0
176
     1
 93
        1
176
     1
 44
0.0
176
     1
173
     0
176
     1
  0
VISUALSTYLE
  5
34
102
{ACAD_REACTORS
330
2A
102
}
330
2A
100
AcDbVisualStyle
  2
Conceptual
 70
     9
177
     2
291
     0
 71
     3
176
     1
 72
     2
176
     1
 73
     0
176
     1
 90
        0
176
     1
 40
-0.6
176
     1
 41
-30.0
176
     1
 62
     5
 63
     7
421
 16777215
176
     1
 74
     2
176
     1
 91
        2
176
     1
 64
     7
176
     1
 65
   257
176
     1
 75
     1
176
     1
175
     1
176
     1
 42
40.0
176
     1
 92
        8
176
     1
 66
     7
176
     1
 43
1.0
176
     1
 76
     1
176
     1
 77
     6
176
     1
 78
     2
176
     1
 67
     7
176
     1
 79
     3
176
     1
170
     0
176
     1
171
     0
176
     1
290
     0
176
     1
 93
        1
176
     1
 44
0.0
176
     1
173
     0
176
     1
  0
VISUALSTYLE
  5
35
102
{ACAD_REACTORS
330
2A
102
}
330
2A
100
AcDbVisualStyle
  2
Dim
 70
    11
177
     2
291
     1
 71
     2
176
     1
 72
     2
176
     1
 73
     0
176
     1
 90
        0
176
     1
 40
-0.6
176
     1
 41
-30.0
176
     1
 62
     5
 63
     7
421
 16777215
176
     1
 74
     1
176
     1
 91
        4
176
     1
 64
     7
176
     1
 65
   257
176
     1
 75
     1
176
     1
175
     1
176
     1
 42
1.0
176
     1
 92
        8
176
     1
 66
     7
176
     1
 43
1.0
176
     1
 76
     1
176
     1
 77
     6
176
     1
 78
     2
176
     1
 67
     7
176
     1
 79
     5
176
     1
170
     0
176
     1
171
     0
176
     1
290
     0
176
     1
 93
        1
176
     1
 44
-50.0
176
     1
173
     0
176
     1
  0
VISUALSTYLE
  5
39
102
{ACAD_REACTORS
330
2A
102
}
330
2A
100
AcDbVisualStyle
  2
Facepattern
 70
    15
177
     2
291
     1
 71
     2
176
     1
 72
     2
176
     1
 73
     0
176
     1
 90
        0
176
     1
 40
-0.6
176
     1
 41
-30.0
176
     1
 62
     5
 63
     7
421
 16777215
176
     1
 74
     1
176
     1
 91
        4
176
     1
 64
     7
176
     1
 65
   257
176
     1
 75
     1
176
     1
175
     1
176
     1
 42
1.0
176
     1
 92
        8
176
     1
 66
     7
176
     1
 43
1.0
176
     1
 76
     1
176
     1
 77
     6
176
     1
 78
     2
176
     1
 67
     7
176
     1
 79
     5
176
     1
170
     0
176
     1
171
     0
176
     1
290
     0
176
     1
 93
        1
176
     1
 44
0.0
176
     1
173
     0
176
     1
  0
VISUALSTYLE
  5
2B
102
{ACAD_REACTORS
330
2A
102
}
330
2A
100
AcDbVisualStyle
  2
Flat
 70
     0
177
     2
291
     1
 71
     2
176
     1
 72
     1
176
     1
 73
     1
176
     1
 90
        2
176
     1
 40
-0.6
176
     1
 41
30.0
176
     1
 62
     5
 63
     7
421
 16777215
176
     1
 74
     0
176
     1
 91
        4
176
     1
 64
     7
176
     1
 65
   257
176
     1
 75
     1
176
     1
175
     1
176
     1
 42
1.0
176
     1
 92
        8
176
     1
 66
     7
176
     1
 43
1.0
176
     1
 76
     1
176
     1
 77
     6
176
     1
 78
     2
176
     1
 67
     7
176
     1
 79
     5
176
     1
170
     0
176
     1
171
     0
176
     1
290
     0
176
     1
 93
       13
176
     1
 44
0.0
176
     1
173
     0
176
     1
  0
VISUALSTYLE
  5
2C
102
{ACAD_REACTORS
330
2A
102
}
330
2A
100
AcDbVisualStyle
  2
FlatWithEdges
 70
     1
177
     2
291
     1
 71
     2
176
     1
 72
     1
176
     1
 73
     1
176
     1
 90
        2
176
     1
 40
-0.6
176
     1
 41
30.0
176
     1
 62
     5
 63
     7
421
 16777215
176
     1
 74
     1
176
     1
 91
        4
176
     1
 64
     7
176
     1
 65
   257
176
     1
 75
     1
176
     1
175
     1
176
     1
 42
1.0
176
     1
 92
        0
176
     1
 66
   257
176
     1
 43
1.0
176
     1
 76
     1
176
     1
 77
     6
176
     1
 78
     2
176
     1
 67
     7
176
     1
 79
     5
176
     1
170
     0
176
     1
171
     0
176
     1
290
     0
176
     1
 93
       13
176
     1
 44
0.0
176
     1
173
     0
176
     1
  0
VISUALSTYLE
  5
2D
102
{ACAD_REACTORS
330
2A
102
}
330
2A
100
AcDbVisualStyle
  2
Gouraud
 70
     2
177
     2
291
     1
 71
     2
176
     1
 72
     2
176
     1
 73
     1
176
     1
 90
        2
176
     1
 40
-0.6
176
     1
 41
30.0
176
     1
 62
     5
 63
     7
421
 16777215
176
     1
 74
     0
176
     1
 91
        4
176
     1
 64
     7
176
     1
 65
   257
176
     1
 75
     1
176
     1
175
     1
176
     1
 42
1.0
176
     1
 92
        0
176
     1
 66
     7
176
     1
 43
1.0
176
     1
 76
     1
176
     1
 77
     6
176
     1
 78
     2
176
     1
 67
     7
176
     1
 79
     5
176
     1
170
     0
176
     1
171
     0
176
     1
290
     0
176
     1
 93
       13
176
     1
 44
0.0
176
     1
173
     0
176
     1
  0
VISUALSTYLE
  5
2E
102
{ACAD_REACTORS
330
2A
102
}
330
2A
100
AcDbVisualStyle
  2
GouraudWithEdges
 70
     3
177
     2
291
     1
 71
     2
176
     1
 72
     2
176
     1
 73
     1
176
     1
 90
        2
176
     1
 40
-0.6
176
     1
 41
30.0
176
     1
 62
     5
 63
     7
421
 16777215
176
     1
 74
     1
176
     1
 91
        4
176
     1
 64
     7
176
     1
 65
   257
176
     1
 75
     1
176
     1
175
     1
176
     1
 42
1.0
176
     1
 92
        0
176
     1
 66
   257
176
     1
 43
1.0
176
     1
 76
     1
176
     1
 77
     6
176
     1
 78
     2
176
     1
 67
     7
176
     1
 79
     5
176
     1
170
     0
176
     1
171
     0
176
     1
290
     0
176
     1
 93
       13
176
     1
 44
0.0
176
     1
173
     0
176
     1
  0
VISUALSTYLE
  5
38
102
{ACAD_REACTORS
330
2A
102
}
330
2A
100
AcDbVisualStyle
  2
Linepattern
 70
    14
177
     2
291
     1
 71
     2
176
     1
 72
     2
176
     1
 73
     0
176
     1
 90
        0
176
     1
 40
-0.6
176
     1
 41
-30.0
176
     1
 62
     5
 63
     7
421
 16777215
176
     1
 74
     1
176
     1
 91
        4
176
     1
 64
     7
176
     1
 65
   257
176
     1
 75
     7
176
     1
175
     7
176
     1
 42
1.0
176
     1
 92
        8
176
     1
 66
     7
176
     1
 43
1.0
176
     1
 76
     1
176
     1
 77
     6
176
     1
 78
     2
176
     1
 67
     7
176
     1
 79
     5
176
     1
170
     0
176
     1
171
     0
176
     1
290
     0
176
     1
 93
        1
176
     1
 44
0.0
176
     1
173
     0
176
     1
  0
VISUALSTYLE
  5
33
102
{ACAD_REACTORS
330
2A
102
}
330
2A
100
AcDbVisualStyle
  2
Realistic
 70
     8
177
     2
291
     0
 71
     2
176
     1
 72
     2
176
     1
 73
     0
176
     1
 90
        0
176
     1
 40
-0.6
176
     1
 41
-30.0
176
     1
 62
     5
 63
     7
421
 16777215
176
     1
 74
     1
176
     1
 91
        0
176
     1
 64
     7
176
     1
 65
   257
176
     1
 75
     1
176
     1
175
     1
176
     1
 42
1.0
176
     1
 92
        8
176
     1
 66
     8
424
  7895160
176
     1
 43
1.0
176
     1
 76
     1
176
     1
 77
     6
176
     1
 78
     2
176
     1
 67
     7
176
     1
 79
     5
176
     1
170
     0
176
     1
171
     0
176
     1
290
     0
176
     1
 93
       13
176
     1
 44
0.0
176
     1
173
     0
176
     1
  0
VISUALSTYLE
  5
37
102
{ACAD_REACTORS
330
2A
102
}
330
2A
100
AcDbVisualStyle
  2
Thicken
 70
    13
177
     2
291
     1
 71
     2
176
     1
 72
     2
176
     1
 73
     0
176
     1
 90
        0
176
     1
 40
-0.6
176
     1
 41
-30.0
176
     1
 62
     5
 63
     7
421
 16777215
176
     1
 74
     1
176
     1
 91
        4
176
     1
 64
     7
176
     1
 65
   257
176
     1
 75
     1
176
     1
175
     1
176
     1
 42
1.0
176
     1
 92
       12
176
     1
 66
     7
176
     1
 43
1.0
176
     1
 76
     1
176
     1
 77
     6
176
     1
 78
     2
176
     1
 67
     7
176
     1
 79
     5
176
     1
170
     0
176
     1
171
     0
176
     1
290
     0
176
     1
 93
        1
176
     1
 44
0.0
176
     1
173
     0
176
     1
  0
ENDSEC
  0
EOF
