  0
SECTION
  2
HEADER
  9
$ACADVER
  1
AC1024
  9
$ACADMAINTVER
 70
     6
  9
$DWGCODEPAGE
  3
ANSI_1252
  9
$INSBASE
 10
0.0
 20
0.0
 30
0.0
  9
$EXTMIN
 10
1.000000000000000E+20
 20
1.000000000000000E+20
 30
1.000000000000000E+20
  9
$EXTMAX
 10
-1.000000000000000E+20
 20
-1.000000000000000E+20
 30
-1.000000000000000E+20
  9
$LIMMIN
 10
0.0
 20
0.0
  9
$LIMMAX
 10
12.0
 20
9.0
  9
$ORTHOMODE
 70
     0
  9
$REGENMODE
 70
     1
  9
$FILLMODE
 70
     1
  9
$QTEXTMODE
 70
     0
  9
$MIRRTEXT
 70
     1
  9
$LTSCALE
 40
1.0
  9
$ATTMODE
 70
     1
  9
$TEXTSIZE
 40
0.2
  9
$TRACEWID
 40
0.05
  9
$TEXTSTYLE
  7
Standard
  9
$CLAYER
  8
0
  9
$CELTYPE
  6
ByLayer
  9
$CECOLOR
 62
   256
  9
$CELTSCALE
 40
1.0
  9
$DISPSILH
 70
     0
  9
$DIMSCALE
 40
1.0
  9
$DIMASZ
 40
0.18
  9
$DIMEXO
 40
0.0625
  9
$DIMDLI
 40
0.38
  9
$DIMRND
 40
0.0
  9
$DIMDLE
 40
0.0
  9
$DIMEXE
 40
0.18
  9
$DIMTP
 40
0.0
  9
$DIMTM
 40
0.0
  9
$DIMTXT
 40
0.18
  9
$DIMCEN
 40
0.09
  9
$DIMTSZ
 40
0.0
  9
$DIMTOL
 70
     0
  9
$DIMLIM
 70
     0
  9
$DIMTIH
 70
     1
  9
$DIMTOH
 70
     1
  9
$DIMSE1
 70
     0
  9
$DIMSE2
 70
     0
  9
$DIMTAD
 70
     0
  9
$DIMZIN
 70
     0
  9
$DIMBLK
  1

  9
$DIMASO
 70
     1
  9
$DIMSHO
 70
     1
  9
$DIMPOST
  1

  9
$DIMAPOST
  1

  9
$DIMALT
 70
     0
  9
$DIMALTD
 70
     2
  9
$DIMALTF
 40
25.4
  9
$DIMLFAC
 40
1.0
  9
$DIMTOFL
 70
     0
  9
$DIMTVP
 40
0.0
  9
$DIMTIX
 70
     0
  9
$DIMSOXD
 70
     0
  9
$DIMSAH
 70
     0
  9
$DIMBLK1
  1

  9
$DIMBLK2
  1

  9
$DIMSTYLE
  2
Standard
  9
$DIMCLRD
 70
     0
  9
$DIMCLRE
 70
     0
  9
$DIMCLRT
 70
     0
  9
$DIMTFAC
 40
1.0
  9
$DIMGAP
 40
0.09
  9
$DIMJUST
 70
     0
  9
$DIMSD1
 70
     0
  9
$DIMSD2
 70
     0
  9
$DIMTOLJ
 70
     1
  9
$DIMTZIN
 70
     0
  9
$DIMALTZ
 70
     0
  9
$DIMALTTZ
 70
     0
  9
$DIMUPT
 70
     0
  9
$DIMDEC
 70
     4
  9
$DIMTDEC
 70
     4
  9
$DIMALTU
 70
     2
  9
$DIMALTTD
 70
     2
  9
$DIMTXSTY
  7
Standard
  9
$DIMAUNIT
 70
     0
  9
$DIMADEC
 70
     0
  9
$DIMALTRND
 40
0.0
  9
$DIMAZIN
 70
     0
  9
$DIMDSEP
 70
    46
  9
$DIMATFIT
 70
     3
  9
$DIMFRAC
 70
     0
  9
$DIMLDRBLK
  1

  9
$DIMLUNIT
 70
     2
  9
$DIMLWD
 70
    -2
  9
$DIMLWE
 70
    -2
  9
$DIMTMOVE
 70
     0
  9
$DIMFXL
 40
1.0
  9
$DIMFXLON
 70
     0
  9
$DIMJOGANG
 40
0.7853981633974483
  9
$DIMTFILL
 70
     0
  9
$DIMTFILLCLR
 70
     0
  9
$DIMARCSYM
 70
     0
  9
$DIMLTYPE
  6

  9
$DIMLTEX1
  6

  9
$DIMLTEX2
  6

  9
$DIMTXTDIRECTION
 70
     0
  9
$LUNITS
 70
     2
  9
$LUPREC
 70
     4
  9
$SKETCHINC
 40
0.1
  9
$FILLETRAD
 40
0.5
  9
$AUNITS
 70
     0
  9
$AUPREC
 70
     0
  9
$MENU
  1
.
  9
$ELEVATION
 40
0.0
  9
$PELEVATION
 40
0.0
  9
$THICKNESS
 40
0.0
  9
$LIMCHECK
 70
     0
  9
$CHAMFERA
 40
0.5
  9
$CHAMFERB
 40
0.5
  9
$CHAMFERC
 40
1.0
  9
$CHAMFERD
 40
0.0
  9
$SKPOLY
 70
     0
  9
$TDCREATE
 40
2458782.602748935
  9
$TDUCREATE
 40
2458782.061082269
  9
$TDUPDATE
 40
2458782.602749063
  9
$TDUUPDATE
 40
2458782.061082396
  9
$TDINDWG
 40
0.0000000116
  9
$TDUSRTIMER
 40
0.0000000116
  9
$USRTIMER
 70
     1
  9
$ANGBASE
 50
0.0
  9
$ANGDIR
 70
     0
  9
$PDMODE
 70
     0
  9
$PDSIZE
 40
0.0
  9
$PLINEWID
 40
0.0
  9
$SPLFRAME
 70
     0
  9
$SPLINETYPE
 70
     6
  9
$SPLINESEGS
 70
     8
  9
$HANDSEED
  5
147
  9
$SURFTAB1
 70
     6
  9
$SURFTAB2
 70
     6
  9
$SURFTYPE
 70
     6
  9
$SURFU
 70
     6
  9
$SURFV
 70
     6
  9
$UCSBASE
  2

  9
$UCSNAME
  2

  9
$UCSORG
 10
0.0
 20
0.0
 30
0.0
  9
$UCSXDIR
 10
1.0
 20
0.0
 30
0.0
  9
$UCSYDIR
 10
0.0
 20
1.0
 30
0.0
  9
$UCSORTHOREF
  2

  9
$UCSORTHOVIEW
 70
     0
  9
$UCSORGTOP
 10
0.0
 20
0.0
 30
0.0
  9
$UCSORGBOTTOM
 10
0.0
 20
0.0
 30
0.0
  9
$UCSORGLEFT
 10
0.0
 20
0.0
 30
0.0
  9
$UCSORGRIGHT
 10
0.0
 20
0.0
 30
0.0
  9
$UCSORGFRONT
 10
0.0
 20
0.0
 30
0.0
  9
$UCSORGBACK
 10
0.0
 20
0.0
 30
0.0
  9
$PUCSBASE
  2

  9
$PUCSNAME
  2

  9
$PUCSORG
 10
0.0
 20
0.0
 30
0.0
  9
$PUCSXDIR
 10
1.0
 20
0.0
 30
0.0
  9
$PUCSYDIR
 10
0.0
 20
1.0
 30
0.0
  9
$PUCSORTHOREF
  2

  9
$PUCSORTHOVIEW
 70
     0
  9
$PUCSORGTOP
 10
0.0
 20
0.0
 30
0.0
  9
$PUCSORGBOTTOM
 10
0.0
 20
0.0
 30
0.0
  9
$PUCSORGLEFT
 10
0.0
 20
0.0
 30
0.0
  9
$PUCSORGRIGHT
 10
0.0
 20
0.0
 30
0.0
  9
$PUCSORGFRONT
 10
0.0
 20
0.0
 30
0.0
  9
$PUCSORGBACK
 10
0.0
 20
0.0
 30
0.0
  9
$USERI1
 70
     0
  9
$USERI2
 70
     0
  9
$USERI3
 70
     0
  9
$USERI4
 70
     0
  9
$USERI5
 70
     0
  9
$USERR1
 40
0.0
  9
$USERR2
 40
0.0
  9
$USERR3
 40
0.0
  9
$USERR4
 40
0.0
  9
$USERR5
 40
0.0
  9
$WORLDVIEW
 70
     1
  9
$SHADEDGE
 70
     3
  9
$SHADEDIF
 70
    70
  9
$TILEMODE
 70
     1
  9
$MAXACTVP
 70
    64
  9
$PINSBASE
 10
0.0
 20
0.0
 30
0.0
  9
$PLIMCHECK
 70
     0
  9
$PEXTMIN
 10
1.000000000000000E+20
 20
1.000000000000000E+20
 30
1.000000000000000E+20
  9
$PEXTMAX
 10
-1.000000000000000E+20
 20
-1.000000000000000E+20
 30
-1.000000000000000E+20
  9
$PLIMMIN
 10
0.0
 20
0.0
  9
$PLIMMAX
 10
12.0
 20
9.0
  9
$UNITMODE
 70
     0
  9
$VISRETAIN
 70
     1
  9
$PLINEGEN
 70
     0
  9
$PSLTSCALE
 70
     1
  9
$TREEDEPTH
 70
  3020
  9
$CMLSTYLE
  2
Standard
  9
$CMLJUST
 70
     0
  9
$CMLSCALE
 40
1.0
  9
$PROXYGRAPHICS
 70
     1
  9
$MEASUREMENT
 70
     0
  9
$CELWEIGHT
370
    -1
  9
$ENDCAPS
280
     0
  9
$JOINSTYLE
280
     0
  9
$LWDISPLAY
290
     1
  9
$INSUNITS
 70
     1
  9
$HYPERLINKBASE
  1

  9
$STYLESHEET
  1

  9
$XEDIT
290
     1
  9
$CEPSNTYPE
380
     0
  9
$PSTYLEMODE
290
     1
  9
$FINGERPRINTGUID
  2
{8D3CA75C-C770-4EB0-BB51-7A1FE403BBBE}
  9
$VERSIONGUID
  2
{FAEB1C32-E019-11D5-929B-00C0DF256EC4}
  9
$EXTNAMES
290
     1
  9
$PSVPSCALE
 40
0.0
  9
$OLESTARTUP
290
     0
  9
$SORTENTS
280
   127
  9
$INDEXCTL
280
     0
  9
$HIDETEXT
280
     1
  9
$XCLIPFRAME
280
     2
  9
$HALOGAP
280
     0
  9
$OBSCOLOR
 70
   257
  9
$OBSLTYPE
280
     0
  9
$INTERSECTIONDISPLAY
280
     0
  9
$INTERSECTIONCOLOR
 70
   257
  9
$DIMASSOC
280
     2
  9
$PROJECTNAME
  1

  9
$CAMERADISPLAY
290
     0
  9
$LENSLENGTH
 40
50.0
  9
$CAMERAHEIGHT
 40
0.0
  9
$STEPSPERSEC
 40
2.0
  9
$STEPSIZE
 40
6.0
  9
$3DDWFPREC
 40
2.0
  9
$PSOLWIDTH
 40
0.25
  9
$PSOLHEIGHT
 40
4.0
  9
$LOFTANG1
 40
1.570796326794897
  9
$LOFTANG2
 40
1.570796326794897
  9
$LOFTMAG1
 40
0.0
  9
$LOFTMAG2
 40
0.0
  9
$LOFTPARAM
 70
     7
  9
$LOFTNORMALS
280
     1
  9
$LATITUDE
 40
37.795
  9
$LONGITUDE
 40
-122.394
  9
$NORTHDIRECTION
 40
0.0
  9
$TIMEZONE
 70
 -8000
  9
$LIGHTGLYPHDISPLAY
280
     1
  9
$TILEMODELIGHTSYNCH
280
     1
  9
$CMATERIAL
347
3C
  9
$SOLIDHIST
280
     1
  9
$SHOWHIST
280
     1
  9
$DWFFRAME
280
     2
  9
$DGNFRAME
280
     2
  9
$REALWORLDSCALE
290
     1
  9
$INTERFERECOLOR
 62
   256
  9
$CSHADOW
280
     0
  9
$SHADOWPLANELOCATION
 40
0.0
  0
ENDSEC
  0
SECTION
  2
CLASSES
  0
CLASS
  1
ACDBDICTIONARYWDFLT
  2
AcDbDictionaryWithDefault
  3
ObjectDBX Classes
 90
        0
 91
        4
280
     0
281
     0
  0
CLASS
  1
VISUALSTYLE
  2
AcDbVisualStyle
  3
ObjectDBX Classes
 90
     4095
 91
        4
280
     0
281
     0
  0
CLASS
  1
MATERIAL
  2
AcDbMaterial
  3
ObjectDBX Classes
 90
     1153
 91
        4
280
     0
281
     0
  0
CLASS
  1
SUN
  2
AcDbSun
  3
SCENEOE
 90
     1024
 91
        4
280
     0
281
     0
  0
ENDSEC
  0
SECTION
  2
TABLES
  0
TABLE
  2
VPORT
  5
8
330
0
100
AcDbSymbolTable
 70
     1
  0
VPORT
  5
29
330
8
100
AcDbSymbolTableRecord
100
AcDbViewportTableRecord
  2
*Active
 70
     0
 10
0.0
 20
0.0
 11
1.0
 21
1.0
 12
0.0
 22
0.0
 13
0.0
 23
0.0
 14
0.5
 24
0.5
 15
0.5
 25
0.5
 16
0.0
 26
0.0
 36
1.0
 17
4.134607412258472
 27
6.030765666997644
 37
0.0
 40
11.69291338582677
 41
0.7070707070707065
 42
50.0
 43
0.0
 44
0.0
 50
0.0
 51
0.0
 71
     0
 72
   100
 73
     1
 74
     3
 75
     0
 76
     0
 77
     0
 78
     0
281
     0
 65
     1
110
0.0
120
0.0
130
0.0
111
1.0
121
0.0
131
0.0
112
0.0
122
1.0
132
0.0
 79
     0
146
0.0
 60
     3
 61
     5
292
     1
282
     1
141
0.0
142
0.0
 63
   250
361
3F
  0
ENDTAB
  0
TABLE
  2
LTYPE
  5
5
330
0
100
AcDbSymbolTable
 70
     1
  0
LTYPE
  5
14
330
5
100
AcDbSymbolTableRecord
100
AcDbLinetypeTableRecord
  2
ByBlock
 70
     0
  3

 72
    65
 73
     0
 40
0.0
  0
LTYPE
  5
15
330
5
100
AcDbSymbolTableRecord
100
AcDbLinetypeTableRecord
  2
ByLayer
 70
     0
  3

 72
    65
 73
     0
 40
0.0
  0
LTYPE
  5
16
330
5
100
AcDbSymbolTableRecord
100
AcDbLinetypeTableRecord
  2
Continuous
 70
     0
  3
Solid line
 72
    65
 73
     0
 40
0.0
  0
ENDTAB
  0
TABLE
  2
LAYER
  5
2
330
0
100
AcDbSymbolTable
 70
     4
  0
LAYER
  5
10
330
2
100
AcDbSymbolTableRecord
100
AcDbLayerTableRecord
  2
0
 70
     0
 62
     7
  6
Continuous
370
    -3
390
F
347
3E
  0
LAYER
  5
40
330
2
100
AcDbSymbolTableRecord
100
AcDbLayerTableRecord
  2
Wood
 70
     0
 62
     7
  6
Continuous
370
    -3
390
F
347
3E
  0
LAYER
  5
BB
330
2
100
AcDbSymbolTableRecord
100
AcDbLayerTableRecord
  2
E5SS
 70
     0
 62
     7
  6
Continuous
370
    -3
390
F
347
3E
  0
LAYER
  5
133
330
2
100
AcDbSymbolTableRecord
100
AcDbLayerTableRecord
  2
callout
 70
     0
 62
     7
  6
Continuous
370
    -3
390
F
347
3E
  0
ENDTAB
  0
TABLE
  2
STYLE
  5
3
330
0
100
AcDbSymbolTable
 70
     1
  0
STYLE
  5
11
330
3
100
AcDbSymbolTableRecord
100
AcDbTextStyleTableRecord
  2
Standard
 70
     0
 40
0.0
 41
1.0
 50
0.0
 71
     0
 42
0.2
  3
txt
  4

  0
ENDTAB
  0
TABLE
  2
VIEW
  5
6
330
0
100
AcDbSymbolTable
 70
     0
  0
ENDTAB
  0
TABLE
  2
UCS
  5
7
330
0
100
AcDbSymbolTable
 70
     0
  0
ENDTAB
  0
TABLE
  2
APPID
  5
9
330
0
100
AcDbSymbolTable
 70
     1
  0
APPID
  5
12
330
9
100
AcDbSymbolTableRecord
100
AcDbRegAppTableRecord
  2
ACAD
 70
     0
  0
ENDTAB
  0
TABLE
  2
DIMSTYLE
  5
A
330
0
100
AcDbSymbolTable
 70
     1
100
AcDbDimStyleTable
  0
DIMSTYLE
105
27
330
A
100
AcDbSymbolTableRecord
100
AcDbDimStyleTableRecord
  2
Standard
 70
     0
178
     0
340
11
  0
ENDTAB
  0
TABLE
  2
BLOCK_RECORD
  5
1
330
0
100
AcDbSymbolTable
 70
    15
  0
BLOCK_RECORD
  5
1F
330
1
100
AcDbSymbolTableRecord
100
AcDbBlockTableRecord
  2
*Model_Space
340
22
 70
     0
280
     1
281
     0
  0
BLOCK_RECORD
  5
1B
330
1
100
AcDbSymbolTableRecord
100
AcDbBlockTableRecord
  2
*Paper_Space
340
1E
 70
     0
280
     1
281
     0
  0
BLOCK_RECORD
  5
23
330
1
100
AcDbSymbolTableRecord
100
AcDbBlockTableRecord
  2
*Paper_Space0
340
26
 70
     0
280
     1
281
     0
  0
BLOCK_RECORD
  5
41
330
1
100
AcDbSymbolTableRecord
100
AcDbBlockTableRecord
  2
block 2
340
0
102
{BLKREFS
331
42
102
}
 70
     0
280
     1
281
     0
  0
BLOCK_RECORD
  5
7E
330
1
100
AcDbSymbolTableRecord
100
AcDbBlockTableRecord
  2
block 3
340
0
102
{BLKREFS
331
7F
102
}
 70
     0
280
     1
281
     0
  0
BLOCK_RECORD
  5
BC
330
1
100
AcDbSymbolTableRecord
100
AcDbBlockTableRecord
  2
block 4
340
0
102
{BLKREFS
331
BD
102
}
 70
     0
280
     1
281
     0
  0
BLOCK_RECORD
  5
CB
330
1
100
AcDbSymbolTableRecord
100
AcDbBlockTableRecord
  2
block 5
340
0
102
{BLKREFS
331
CC
102
}
 70
     0
280
     1
281
     0
  0
BLOCK_RECORD
  5
D0
330
1
100
AcDbSymbolTableRecord
100
AcDbBlockTableRecord
  2
block 6
340
0
102
{BLKREFS
331
D1
102
}
 70
     0
280
     1
281
     0
  0
BLOCK_RECORD
  5
D5
330
1
100
AcDbSymbolTableRecord
100
AcDbBlockTableRecord
  2
block 7
340
0
102
{BLKREFS
331
D6
102
}
 70
     0
280
     1
281
     0
  0
BLOCK_RECORD
  5
DA
330
1
100
AcDbSymbolTableRecord
100
AcDbBlockTableRecord
  2
block 8
340
0
102
{BLKREFS
331
DB
102
}
 70
     0
280
     1
281
     0
  0
BLOCK_RECORD
  5
DF
330
1
100
AcDbSymbolTableRecord
100
AcDbBlockTableRecord
  2
block 9
340
0
102
{BLKREFS
331
E0
102
}
 70
     0
280
     1
281
     0
  0
BLOCK_RECORD
  5
E4
330
1
100
AcDbSymbolTableRecord
100
AcDbBlockTableRecord
  2
block 10
340
0
102
{BLKREFS
331
E5
102
}
 70
     0
280
     1
281
     0
  0
BLOCK_RECORD
  5
E9
330
1
100
AcDbSymbolTableRecord
100
AcDbBlockTableRecord
  2
block 11
340
0
102
{BLKREFS
331
EA
102
}
 70
     0
280
     1
281
     0
  0
BLOCK_RECORD
  5
EE
330
1
100
AcDbSymbolTableRecord
100
AcDbBlockTableRecord
  2
block 12
340
0
102
{BLKREFS
331
EF
102
}
 70
     0
280
     1
281
     0
  0
BLOCK_RECORD
  5
F3
330
1
100
AcDbSymbolTableRecord
100
AcDbBlockTableRecord
  2
block 13
340
0
102
{BLKREFS
331
F4
102
}
 70
     0
280
     1
281
     0
  0
BLOCK_RECORD
  5
F8
330
1
100
AcDbSymbolTableRecord
100
AcDbBlockTableRecord
  2
block 14
340
0
102
{BLKREFS
331
F9
102
}
 70
     0
280
     1
281
     0
  0
BLOCK_RECORD
  5
FF
330
1
100
AcDbSymbolTableRecord
100
AcDbBlockTableRecord
  2
block 15
340
0
102
{BLKREFS
331
100
102
}
 70
     0
280
     1
281
     0
  0
ENDTAB
  0
ENDSEC
  0
SECTION
  2
BLOCKS
  0
BLOCK
  5
20
330
1F
100
AcDbEntity
  8
0
100
AcDbBlockBegin
  2
*Model_Space
 70
     0
 10
0.0
 20
0.0
 30
0.0
  3
*Model_Space
  1

  0
ENDBLK
  5
21
330
1F
100
AcDbEntity
  8
0
100
AcDbBlockEnd
  0
BLOCK
  5
1C
330
1B
100
AcDbEntity
 67
     1
  8
0
100
AcDbBlockBegin
  2
*Paper_Space
 70
     0
 10
0.0
 20
0.0
 30
0.0
  3
*Paper_Space
  1

  0
ENDBLK
  5
1D
330
1B
100
AcDbEntity
 67
     1
  8
0
100
AcDbBlockEnd
  0
BLOCK
  5
24
330
23
100
AcDbEntity
  8
0
100
AcDbBlockBegin
  2
*Paper_Space0
 70
     0
 10
0.0
 20
0.0
 30
0.0
  3
*Paper_Space0
  1

  0
ENDBLK
  5
25
330
23
100
AcDbEntity
  8
0
100
AcDbBlockEnd
  0
BLOCK
  5
43
330
41
100
AcDbEntity
  8
0
100
AcDbBlockBegin
  2
block 2
 70
     0
 10
0.0
 20
0.0
 30
0.0
  3
block 2
  1

  0
POLYLINE
  5
45
330
41
100
AcDbEntity
  8
Wood
 62
   250
420
  2301728
370
    20
100
AcDb2dPolyline
 66
     1
 10
0.0
 20
0.0
 30
0.0
  0
VERTEX
  5
46
330
45
100
AcDbEntity
  8
Wood
 62
   250
420
  2301728
370
    20
100
AcDbVertex
100
AcDb2dVertex
 10
2.850938728541349
 20
8.026061782283124
 30
0.0
  0
VERTEX
  5
47
330
45
100
AcDbEntity
  8
Wood
 62
   250
420
  2301728
370
    20
100
AcDbVertex
100
AcDb2dVertex
 10
2.579926351203438
 20
7.903556447756032
 30
0.0
  0
VERTEX
  5
48
330
45
100
AcDbEntity
  8
Wood
 62
   250
420
  2301728
370
    20
100
AcDbVertex
100
AcDb2dVertex
 10
2.588255929898954
 20
7.480071382944667
 30
0.0
  0
VERTEX
  5
49
330
45
100
AcDbEntity
  8
Wood
 62
   250
420
  2301728
370
    20
100
AcDbVertex
100
AcDb2dVertex
 10
5.017016061039865
 20
5.790164932261632
 30
0.0
  0
VERTEX
  5
4A
330
45
100
AcDbEntity
  8
Wood
 62
   250
420
  2301728
370
    20
100
AcDbVertex
100
AcDb2dVertex
 10
5.275747327589468
 20
5.849212111480875
 30
0.0
  0
VERTEX
  5
4B
330
45
100
AcDbEntity
  8
Wood
 62
   250
420
  2301728
370
    20
100
AcDbVertex
100
AcDb2dVertex
 10
5.306909509006118
 20
5.908596425391011
 30
0.0
  0
VERTEX
  5
4C
330
45
100
AcDbEntity
  8
Wood
 62
   250
420
  2301728
370
    20
100
AcDbVertex
100
AcDb2dVertex
 10
5.502060315845938
 20
5.848845035556198
 30
0.0
  0
VERTEX
  5
4D
330
45
100
AcDbEntity
  8
Wood
 62
   250
420
  2301728
370
    20
100
AcDbVertex
100
AcDb2dVertex
 10
5.539607711812171
 20
5.910739974722206
 30
0.0
  0
VERTEX
  5
4E
330
45
100
AcDbEntity
  8
Wood
 62
   250
420
  2301728
370
    20
100
AcDbVertex
100
AcDb2dVertex
 10
5.836185881911584
 20
5.986035333008076
 30
0.0
  0
VERTEX
  5
4F
330
45
100
AcDbEntity
  8
Wood
 62
   250
420
  2301728
370
    20
100
AcDbVertex
100
AcDb2dVertex
 10
5.827748106289871
 20
6.374286047991404
 30
0.0
  0
VERTEX
  5
50
330
45
100
AcDbEntity
  8
Wood
 62
   250
420
  2301728
370
    20
100
AcDbVertex
100
AcDb2dVertex
 10
3.437952839784619
 20
8.296446932276341
 30
0.0
  0
VERTEX
  5
51
330
45
100
AcDbEntity
  8
Wood
 62
   250
420
  2301728
370
    20
100
AcDbVertex
100
AcDb2dVertex
 10
3.130312045960068
 20
8.162794200333375
 30
0.0
  0
VERTEX
  5
52
330
45
100
AcDbEntity
  8
Wood
 62
   250
420
  2301728
370
    20
100
AcDbVertex
100
AcDb2dVertex
 10
3.114647043818447
 20
8.086840108885603
 30
0.0
  0
VERTEX
  5
53
330
45
100
AcDbEntity
  8
Wood
 62
   250
420
  2301728
370
    20
100
AcDbVertex
100
AcDb2dVertex
 10
2.890613992220488
 20
8.14571950482035
 30
0.0
  0
VERTEX
  5
54
330
45
100
AcDbEntity
  8
Wood
 62
   250
420
  2301728
370
    20
100
AcDbVertex
100
AcDb2dVertex
 10
2.850938728541349
 20
8.026061782283124
 30
0.0
  0
SEQEND
  5
56
330
45
100
AcDbEntity
  8
Wood
 62
   250
420
  2301728
370
    20
  0
HATCH
  5
55
330
41
100
AcDbEntity
  8
Wood
 62
    43
420
 15510365
100
AcDbHatch
 10
0.0
 20
0.0
 30
0.0
210
0.0
220
0.0
230
1.0
  2
SOLID
 70
     1
 71
     0
 91
        1
 92
        1
 93
       14
 72
     1
 10
2.850938728541349
 20
8.026061782283124
 11
2.579926351203438
 21
7.903556447756032
 72
     1
 10
2.579926351203438
 20
7.903556447756032
 11
2.588255929898954
 21
7.480071382944667
 72
     1
 10
2.588255929898954
 20
7.480071382944667
 11
5.017016061039865
 21
5.790164932261632
 72
     1
 10
5.017016061039865
 20
5.790164932261632
 11
5.275747327589468
 21
5.849212111480875
 72
     1
 10
5.275747327589468
 20
5.849212111480875
 11
5.306909509006118
 21
5.908596425391011
 72
     1
 10
5.306909509006118
 20
5.908596425391011
 11
5.502060315845938
 21
5.848845035556198
 72
     1
 10
5.502060315845938
 20
5.848845035556198
 11
5.539607711812171
 21
5.910739974722206
 72
     1
 10
5.539607711812171
 20
5.910739974722206
 11
5.836185881911584
 21
5.986035333008076
 72
     1
 10
5.836185881911584
 20
5.986035333008076
 11
5.827748106289871
 21
6.374286047991404
 72
     1
 10
5.827748106289871
 20
6.374286047991404
 11
3.437952839784619
 21
8.296446932276341
 72
     1
 10
3.437952839784619
 20
8.296446932276341
 11
3.130312045960068
 21
8.162794200333375
 72
     1
 10
3.130312045960068
 20
8.162794200333375
 11
3.114647043818447
 21
8.086840108885603
 72
     1
 10
3.114647043818447
 20
8.086840108885603
 11
2.890613992220488
 21
8.14571950482035
 72
     1
 10
2.890613992220488
 20
8.14571950482035
 11
2.850938728541349
 21
8.026061782283124
 97
        0
 75
     2
 76
     1
 98
        0
  0
POLYLINE
  5
57
330
41
100
AcDbEntity
  8
Wood
 62
   250
420
  2301728
370
    15
100
AcDb2dPolyline
 66
     1
 10
0.0
 20
0.0
 30
0.0
  0
VERTEX
  5
58
330
57
100
AcDbEntity
  8
Wood
 62
   250
420
  2301728
370
    15
100
AcDbVertex
100
AcDb2dVertex
 10
5.836185881911584
 20
5.986035333008076
 30
0.0
  0
VERTEX
  5
59
330
57
100
AcDbEntity
  8
Wood
 62
   250
420
  2301728
370
    15
100
AcDbVertex
100
AcDb2dVertex
 10
3.440311304976957
 20
7.863283750028093
 30
0.0
  0
SEQEND
  5
5A
330
57
100
AcDbEntity
  8
Wood
 62
   250
420
  2301728
370
    15
  0
POLYLINE
  5
5B
330
41
100
AcDbEntity
  8
Wood
 62
   250
420
  2301728
370
    20
100
AcDb2dPolyline
 66
     1
 10
0.0
 20
0.0
 30
0.0
  0
VERTEX
  5
5C
330
5B
100
AcDbEntity
  8
Wood
 62
   250
420
  2301728
370
    20
100
AcDbVertex
100
AcDb2dVertex
 10
2.863127323279312
 20
7.606542271954898
 30
0.0
  0
VERTEX
  5
5D
330
5B
100
AcDbEntity
  8
Wood
 62
   250
420
  2301728
370
    20
100
AcDbVertex
100
AcDb2dVertex
 10
2.854797744583872
 20
8.031942038340832
 30
0.0
  0
SEQEND
  5
5E
330
5B
100
AcDbEntity
  8
Wood
 62
   250
420
  2301728
370
    20
  0
POLYLINE
  5
5F
330
41
100
AcDbEntity
  8
Wood
 62
   250
420
  2301728
370
    20
100
AcDb2dPolyline
 66
     1
 10
0.0
 20
0.0
 30
0.0
  0
VERTEX
  5
60
330
5F
100
AcDbEntity
  8
Wood
 62
   250
420
  2301728
370
    20
100
AcDbVertex
100
AcDb2dVertex
 10
2.89107333187658
 20
7.706644705148669
 30
0.0
  0
VERTEX
  5
61
330
5F
100
AcDbEntity
  8
Wood
 62
   250
420
  2301728
370
    20
100
AcDbVertex
100
AcDb2dVertex
 10
2.886602873554617
 20
8.139884722742787
 30
0.0
  0
SEQEND
  5
62
330
5F
100
AcDbEntity
  8
Wood
 62
   250
420
  2301728
370
    20
  0
POLYLINE
  5
63
330
41
100
AcDbEntity
  8
Wood
 62
   250
420
  2301728
370
    20
100
AcDb2dPolyline
 66
     1
 10
0.0
 20
0.0
 30
0.0
  0
VERTEX
  5
64
330
63
100
AcDbEntity
  8
Wood
 62
   250
420
  2301728
370
    20
100
AcDbVertex
100
AcDb2dVertex
 10
3.1151362811027
 20
7.645775341352874
 30
0.0
  0
VERTEX
  5
65
330
63
100
AcDbEntity
  8
Wood
 62
   250
420
  2301728
370
    20
100
AcDbVertex
100
AcDb2dVertex
 10
3.114647043818447
 20
8.086840108885603
 30
0.0
  0
SEQEND
  5
66
330
63
100
AcDbEntity
  8
Wood
 62
   250
420
  2301728
370
    20
  0
POLYLINE
  5
67
330
41
100
AcDbEntity
  8
Wood
 62
   250
420
  2301728
370
    20
100
AcDb2dPolyline
 66
     1
 10
0.0
 20
0.0
 30
0.0
  0
VERTEX
  5
68
330
67
100
AcDbEntity
  8
Wood
 62
   250
420
  2301728
370
    20
100
AcDbVertex
100
AcDb2dVertex
 10
3.140510762047597
 20
7.733474353444257
 30
0.0
  0
VERTEX
  5
69
330
67
100
AcDbEntity
  8
Wood
 62
   250
420
  2301728
370
    20
100
AcDbVertex
100
AcDb2dVertex
 10
3.132272131312611
 20
8.160802753615043
 30
0.0
  0
SEQEND
  5
6A
330
67
100
AcDbEntity
  8
Wood
 62
   250
420
  2301728
370
    20
  0
POLYLINE
  5
6B
330
41
100
AcDbEntity
  8
Wood
 62
   250
420
  2301728
370
    15
100
AcDb2dPolyline
 66
     1
 10
0.0
 20
0.0
 30
0.0
  0
VERTEX
  5
6C
330
6B
100
AcDbEntity
  8
Wood
 62
   250
420
  2301728
370
    15
100
AcDbVertex
100
AcDb2dVertex
 10
2.592268616632939
 20
7.482047148979922
 30
0.0
  0
VERTEX
  5
6D
330
6B
100
AcDbEntity
  8
Wood
 62
   250
420
  2301728
370
    15
100
AcDbVertex
100
AcDb2dVertex
 10
2.863219839308031
 20
7.608518038040225
 30
0.0
  0
VERTEX
  5
6E
330
6B
100
AcDbEntity
  8
Wood
 62
   250
420
  2301728
370
    15
100
AcDbVertex
100
AcDb2dVertex
 10
2.89107333187658
 20
7.706644705148669
 30
0.0
  0
VERTEX
  5
6F
330
6B
100
AcDbEntity
  8
Wood
 62
   250
420
  2301728
370
    15
100
AcDbVertex
100
AcDb2dVertex
 10
3.115136281102574
 20
7.643845138508645
 30
0.0
  0
VERTEX
  5
70
330
6B
100
AcDbEntity
  8
Wood
 62
   250
420
  2301728
370
    15
100
AcDbVertex
100
AcDb2dVertex
 10
3.138550676694877
 20
7.731482906726064
 30
0.0
  0
VERTEX
  5
71
330
6B
100
AcDbEntity
  8
Wood
 62
   250
420
  2301728
370
    15
100
AcDbVertex
100
AcDb2dVertex
 10
3.438443735653095
 20
7.865259516063638
 30
0.0
  0
VERTEX
  5
72
330
6B
100
AcDbEntity
  8
Wood
 62
   250
420
  2301728
370
    15
100
AcDbVertex
100
AcDb2dVertex
 10
3.437891775636962
 20
8.292572162679663
 30
0.0
  0
SEQEND
  5
73
330
6B
100
AcDbEntity
  8
Wood
 62
   250
420
  2301728
370
    15
  0
SPLINE
  5
74
330
41
100
AcDbEntity
  8
Wood
 62
   250
420
  2301728
370
     9
100
AcDbSpline
210
0.0
220
0.0
230
1.0
 70
     8
 71
     3
 72
    32
 73
    28
 74
     0
 42
0.0000000001
 43
0.0000000001
 12
1.0
 22
0.0
 32
0.0
 13
1.0
 23
0.0
 33
0.0
 40
0.0
 40
0.0
 40
0.0
 40
0.0
 40
1.0
 40
1.0
 40
1.0
 40
2.0
 40
2.0
 40
2.0
 40
3.0
 40
3.0
 40
3.0
 40
4.0
 40
4.0
 40
4.0
 40
5.0
 40
5.0
 40
5.0
 40
6.0
 40
6.0
 40
6.0
 40
7.0
 40
7.0
 40
7.0
 40
8.0
 40
8.0
 40
8.0
 40
9.0
 40
9.0
 40
9.0
 40
9.0
 10
3.436085360958878
 20
7.911871913817549
 30
0.0
 10
3.436085360958878
 20
7.911871913817549
 30
0.0
 10
3.371402544320454
 20
7.874630292120514
 30
0.0
 10
3.340041178677615
 20
7.856989523948262
 30
0.0
 10
3.308679813034764
 20
7.839348755776048
 30
0.0
 10
3.228316313576026
 20
7.817787816900717
 30
0.0
 10
3.202835203991488
 20
7.809947475491324
 30
0.0
 10
3.177354094406989
 20
7.802107134081969
 30
0.0
 10
3.138152387353494
 20
7.782506280557413
 30
0.0
 10
3.138152387353494
 20
7.782506280557413
 30
0.0
 10
3.138152387353494
 20
7.782506280557413
 30
0.0
 10
3.112671277766417
 20
7.717823463921832
 30
0.0
 10
3.112671277766417
 20
7.717823463921832
 30
0.0
 10
3.112671277766417
 20
7.717823463921832
 30
0.0
 10
3.083269997476994
 20
7.717823463923158
 30
0.0
 10
3.040148119719535
 20
7.72566380533557
 30
0.0
 10
2.997026241962064
 20
7.733504146748032
 30
0.0
 10
2.891181632921416
 20
7.762905427042242
 30
0.0
 10
2.891181632921416
 20
7.762905427042242
 30
0.0
 10
2.891181632921416
 20
7.762905427042242
 30
0.0
 10
2.861780352628633
 20
7.688422183643663
 30
0.0
 10
2.861780352628633
 20
7.688422183643663
 30
0.0
 10
2.861780352628633
 20
7.688422183643663
 30
0.0
 10
2.785337023874111
 20
7.643340220536616
 30
0.0
 10
2.738294975410238
 20
7.625699452365059
 30
0.0
 10
2.691252926946365
 20
7.608058684193527
 30
0.0
 10
2.591288573961568
 20
7.592378001377028
 30
0.0
 10
2.591288573961568
 20
7.592378001377028
 30
0.0
  0
SPLINE
  5
75
330
41
100
AcDbEntity
  8
Wood
 62
   250
420
  2301728
370
     9
100
AcDbSpline
210
0.0
220
0.0
230
1.0
 70
     8
 71
     3
 72
    32
 73
    28
 74
     0
 42
0.0000000001
 43
0.0000000001
 12
1.0
 22
0.0
 32
0.0
 13
1.0
 23
0.0
 33
0.0
 40
0.0
 40
0.0
 40
0.0
 40
0.0
 40
1.0
 40
1.0
 40
1.0
 40
2.0
 40
2.0
 40
2.0
 40
3.0
 40
3.0
 40
3.0
 40
4.0
 40
4.0
 40
4.0
 40
5.0
 40
5.0
 40
5.0
 40
6.0
 40
6.0
 40
6.0
 40
7.0
 40
7.0
 40
7.0
 40
8.0
 40
8.0
 40
8.0
 40
9.0
 40
9.0
 40
9.0
 40
9.0
 10
3.436085360960975
 20
7.958913962280626
 30
0.0
 10
3.436085360960975
 20
7.958913962280626
 30
0.0
 10
3.371402544322564
 20
7.921672340583604
 30
0.0
 10
3.340041178679737
 20
7.904031572411352
 30
0.0
 10
3.308679813036873
 20
7.886390804239113
 30
0.0
 10
3.228316313578135
 20
7.864829865363807
 30
0.0
 10
3.20283520399361
 20
7.856989523954414
 30
0.0
 10
3.177354094409073
 20
7.849149182545059
 30
0.0
 10
3.138152387355641
 20
7.829548329020503
 30
0.0
 10
3.138152387355641
 20
7.829548329020503
 30
0.0
 10
3.138152387355641
 20
7.829548329020503
 30
0.0
 10
3.112671277768552
 20
7.764865512384922
 30
0.0
 10
3.112671277768552
 20
7.764865512384922
 30
0.0
 10
3.112671277768552
 20
7.764865512384922
 30
0.0
 10
3.083269997479116
 20
7.764865512386235
 30
0.0
 10
3.040148119721632
 20
7.772705853798672
 30
0.0
 10
2.997026241964186
 20
7.780546195211109
 30
0.0
 10
2.891181632923538
 20
7.809947475505307
 30
0.0
 10
2.891181632923538
 20
7.809947475505307
 30
0.0
 10
2.891181632923538
 20
7.809947475505307
 30
0.0
 10
2.861780352630767
 20
7.735464232106753
 30
0.0
 10
2.861780352630767
 20
7.735464232106753
 30
0.0
 10
2.861780352630767
 20
7.735464232106753
 30
0.0
 10
2.785337023876221
 20
7.690382268999706
 30
0.0
 10
2.738294975412335
 20
7.672741500828149
 30
0.0
 10
2.691252926948449
 20
7.655100732656617
 30
0.0
 10
2.591288573963702
 20
7.639420049840131
 30
0.0
 10
2.591288573963702
 20
7.639420049840131
 30
0.0
  0
SPLINE
  5
76
330
41
100
AcDbEntity
  8
Wood
 62
   250
420
  2301728
370
     9
100
AcDbSpline
210
0.0
220
0.0
230
1.0
 70
     8
 71
     3
 72
    32
 73
    28
 74
     0
 42
0.0000000001
 43
0.0000000001
 12
1.0
 22
0.0
 32
0.0
 13
1.0
 23
0.0
 33
0.0
 40
0.0
 40
0.0
 40
0.0
 40
0.0
 40
1.0
 40
1.0
 40
1.0
 40
2.0
 40
2.0
 40
2.0
 40
3.0
 40
3.0
 40
3.0
 40
4.0
 40
4.0
 40
4.0
 40
5.0
 40
5.0
 40
5.0
 40
6.0
 40
6.0
 40
6.0
 40
7.0
 40
7.0
 40
7.0
 40
8.0
 40
8.0
 40
8.0
 40
9.0
 40
9.0
 40
9.0
 40
9.0
 10
3.436085360962756
 20
7.998115669333199
 30
0.0
 10
3.436085360962756
 20
7.998115669333199
 30
0.0
 10
3.371402544324787
 20
7.970674474399326
 30
0.0
 10
3.340041178681922
 20
7.953033706227075
 30
0.0
 10
3.308679813039071
 20
7.935392938054835
 30
0.0
 10
3.228316313580535
 20
7.91833392321741
 30
0.0
 10
3.20283520399601
 20
7.910493581808042
 30
0.0
 10
3.177354094411486
 20
7.902653240398699
 30
0.0
 10
3.138152387358029
 20
7.883052386874169
 30
0.0
 10
3.138152387358029
 20
7.883052386874169
 30
0.0
 10
3.138152387358029
 20
7.883052386874169
 30
0.0
 10
3.112671277770763
 20
7.813867646200631
 30
0.0
 10
3.112671277770763
 20
7.813867646200631
 30
0.0
 10
3.112671277770763
 20
7.813867646200631
 30
0.0
 10
3.047988461134537
 20
7.825628158319293
 30
0.0
 10
3.004866583377027
 20
7.833468499731768
 30
0.0
 10
2.961744705619594
 20
7.841308841144218
 30
0.0
 10
2.891181632925736
 20
7.85894960932103
 30
0.0
 10
2.891181632925736
 20
7.85894960932103
 30
0.0
 10
2.891181632925736
 20
7.85894960932103
 30
0.0
 10
2.861780352632953
 20
7.784466365922462
 30
0.0
 10
2.861780352632953
 20
7.784466365922462
 30
0.0
 10
2.861780352632953
 20
7.784466365922462
 30
0.0
 10
2.785337023878419
 20
7.739384402815428
 30
0.0
 10
2.738294975414545
 20
7.721743634643872
 30
0.0
 10
2.691252926950672
 20
7.704102866472314
 30
0.0
 10
2.587368403260105
 20
7.676661671540197
 30
0.0
 10
2.587368403260105
 20
7.676661671540197
 30
0.0
  0
SPLINE
  5
77
330
41
100
AcDbEntity
  8
Wood
 62
   250
420
  2301728
370
     9
100
AcDbSpline
210
0.0
220
0.0
230
1.0
 70
     8
 71
     3
 72
    32
 73
    28
 74
     0
 42
0.0000000001
 43
0.0000000001
 12
1.0
 22
0.0
 32
0.0
 13
1.0
 23
0.0
 33
0.0
 40
0.0
 40
0.0
 40
0.0
 40
0.0
 40
1.0
 40
1.0
 40
1.0
 40
2.0
 40
2.0
 40
2.0
 40
3.0
 40
3.0
 40
3.0
 40
4.0
 40
4.0
 40
4.0
 40
5.0
 40
5.0
 40
5.0
 40
6.0
 40
6.0
 40
6.0
 40
7.0
 40
7.0
 40
7.0
 40
8.0
 40
8.0
 40
8.0
 40
9.0
 40
9.0
 40
9.0
 40
9.0
 10
3.436085360966091
 20
8.072598912733104
 30
0.0
 10
3.436085360966091
 20
8.072598912733104
 30
0.0
 10
3.351801690800938
 20
8.025556864273792
 30
0.0
 10
3.320440325158112
 20
8.007916096101528
 30
0.0
 10
3.289078959515261
 20
7.990275327929289
 30
0.0
 10
3.228316313583264
 20
7.979096569148901
 30
0.0
 10
3.202835203998739
 20
7.971256227739533
 30
0.0
 10
3.177354094414214
 20
7.963415886330178
 30
0.0
 10
3.138152387360315
 20
7.934014606042498
 30
0.0
 10
3.138152387360315
 20
7.934014606042498
 30
0.0
 10
3.138152387360315
 20
7.934014606042498
 30
0.0
 10
3.112671277773062
 20
7.864829865368986
 30
0.0
 10
3.112671277773062
 20
7.864829865368986
 30
0.0
 10
3.112671277773062
 20
7.864829865368986
 30
0.0
 10
3.049948546489544
 20
7.878550462840217
 30
0.0
 10
3.00682666873206
 20
7.886390804252667
 30
0.0
 10
2.963704790974589
 20
7.894231145665117
 30
0.0
 10
2.889221547575314
 20
7.907951743136841
 30
0.0
 10
2.889221547575314
 20
7.907951743136841
 30
0.0
 10
2.889221547575314
 20
7.907951743136841
 30
0.0
 10
2.855900096577253
 20
7.83346849973845
 30
0.0
 10
2.855900096577253
 20
7.83346849973845
 30
0.0
 10
2.855900096577253
 20
7.83346849973845
 30
0.0
 10
2.804937877407433
 20
7.800147048746074
 30
0.0
 10
2.757895828943548
 20
7.782506280574516
 30
0.0
 10
2.710853780479674
 20
7.76486551240296
 30
0.0
 10
2.587368403262833
 20
7.737424317471701
 30
0.0
 10
2.587368403262833
 20
7.737424317471701
 30
0.0
  0
SPLINE
  5
78
330
41
100
AcDbEntity
  8
Wood
 62
   250
420
  2301728
370
     9
100
AcDbSpline
210
0.0
220
0.0
230
1.0
 70
     8
 71
     3
 72
    32
 73
    28
 74
     0
 42
0.0000000001
 43
0.0000000001
 12
1.0
 22
0.0
 32
0.0
 13
1.0
 23
0.0
 33
0.0
 40
0.0
 40
0.0
 40
0.0
 40
0.0
 40
1.0
 40
1.0
 40
1.0
 40
2.0
 40
2.0
 40
2.0
 40
3.0
 40
3.0
 40
3.0
 40
4.0
 40
4.0
 40
4.0
 40
5.0
 40
5.0
 40
5.0
 40
6.0
 40
6.0
 40
6.0
 40
7.0
 40
7.0
 40
7.0
 40
8.0
 40
8.0
 40
8.0
 40
9.0
 40
9.0
 40
9.0
 40
9.0
 10
3.436085360968971
 20
8.136699976037182
 30
0.0
 10
3.436085360968971
 20
8.136699976037182
 30
0.0
 10
3.351801690803831
 20
8.089657927577907
 30
0.0
 10
3.320440325160992
 20
8.07201715940563
 30
0.0
 10
3.28907895951814
 20
8.054376391233365
 30
0.0
 10
3.228316313586144
 20
8.043197632453005
 30
0.0
 10
3.202835204001606
 20
8.035357291043624
 30
0.0
 10
3.177354094417081
 20
8.027516949634268
 30
0.0
 10
3.138152387363195
 20
7.998115669346589
 30
0.0
 10
3.138152387363195
 20
7.998115669346589
 30
0.0
 10
3.138152387363195
 20
7.998115669346589
 30
0.0
 10
3.112671277775917
 20
7.928930928673076
 30
0.0
 10
3.112671277775917
 20
7.928930928673076
 30
0.0
 10
3.112671277775917
 20
7.928930928673076
 30
0.0
 10
3.049948546492411
 20
7.942651526144295
 30
0.0
 10
3.00682666873494
 20
7.950491867556707
 30
0.0
 10
2.963704790977469
 20
7.958332208969194
 30
0.0
 10
2.889221547578182
 20
7.972052806440931
 30
0.0
 10
2.889221547578182
 20
7.972052806440931
 30
0.0
 10
2.889221547578182
 20
7.972052806440931
 30
0.0
 10
2.855900096580159
 20
7.897569563042516
 30
0.0
 10
2.855900096580159
 20
7.897569563042516
 30
0.0
 10
2.855900096580159
 20
7.897569563042516
 30
0.0
 10
2.804937877410301
 20
7.864248112050139
 30
0.0
 10
2.757895828946428
 20
7.846607343878619
 30
0.0
 10
2.710853780482555
 20
7.828966575707075
 30
0.0
 10
2.587368403265714
 20
7.801525380775792
 30
0.0
 10
2.587368403265714
 20
7.801525380775792
 30
0.0
  0
SPLINE
  5
79
330
41
100
AcDbEntity
  8
Wood
 62
   250
420
  2301728
370
     9
100
AcDbSpline
210
0.0
220
0.0
230
1.0
 70
     8
 71
     3
 72
    32
 73
    28
 74
     0
 42
0.0000000001
 43
0.0000000001
 12
1.0
 22
0.0
 32
0.0
 13
1.0
 23
0.0
 33
0.0
 40
0.0
 40
0.0
 40
0.0
 40
0.0
 40
1.0
 40
1.0
 40
1.0
 40
2.0
 40
2.0
 40
2.0
 40
3.0
 40
3.0
 40
3.0
 40
4.0
 40
4.0
 40
4.0
 40
5.0
 40
5.0
 40
5.0
 40
6.0
 40
6.0
 40
6.0
 40
7.0
 40
7.0
 40
7.0
 40
8.0
 40
8.0
 40
8.0
 40
9.0
 40
9.0
 40
9.0
 40
9.0
 10
3.436085360970828
 20
8.177861768442401
 30
0.0
 10
3.436085360970828
 20
8.177861768442401
 30
0.0
 10
3.351801690805688
 20
8.130819719983087
 30
0.0
 10
3.320440325162824
 20
8.113178951810848
 30
0.0
 10
3.289078959519972
 20
8.095538183638558
 30
0.0
 10
3.228316313588341
 20
8.092199766268726
 30
0.0
 10
3.202835204003804
 20
8.084359424859347
 30
0.0
 10
3.177354094419292
 20
8.076519083449991
 30
0.0
 10
3.138152387365405
 20
8.047117803162285
 30
0.0
 10
3.138152387365405
 20
8.047117803162285
 30
0.0
 10
3.138152387365405
 20
8.047117803162285
 30
0.0
 10
3.112671277777773
 20
7.970092721078281
 30
0.0
 10
3.112671277777773
 20
7.970092721078281
 30
0.0
 10
3.112671277777773
 20
7.970092721078281
 30
0.0
 10
3.051908631847103
 20
7.98831524258733
 30
0.0
 10
3.008786754089619
 20
7.996155583999767
 30
0.0
 10
2.965664876332135
 20
8.00399592541223
 30
0.0
 10
2.88922154758067
 20
8.027516949647179
 30
0.0
 10
2.88922154758067
 20
8.027516949647179
 30
0.0
 10
2.88922154758067
 20
8.027516949647179
 30
0.0
 10
2.855900096582003
 20
7.938731355447721
 30
0.0
 10
2.855900096582003
 20
7.938731355447721
 30
0.0
 10
2.855900096582003
 20
7.938731355447721
 30
0.0
 10
2.779456767827822
 20
7.902071487083908
 30
0.0
 10
2.732414719363962
 20
7.884430718912338
 30
0.0
 10
2.685372670900089
 20
7.866789950740793
 30
0.0
 10
2.581488147209976
 20
7.849149182571788
 30
0.0
 10
2.581488147209976
 20
7.849149182571788
 30
0.0
  0
SPLINE
  5
7A
330
41
100
AcDbEntity
  8
Wood
 62
   250
420
  2301728
370
     9
100
AcDbSpline
210
0.0
220
0.0
230
1.0
 70
     8
 71
     3
 72
    32
 73
    28
 74
     0
 42
0.0000000001
 43
0.0000000001
 12
1.0
 22
0.0
 32
0.0
 13
1.0
 23
0.0
 33
0.0
 40
0.0
 40
0.0
 40
0.0
 40
0.0
 40
1.0
 40
1.0
 40
1.0
 40
2.0
 40
2.0
 40
2.0
 40
3.0
 40
3.0
 40
3.0
 40
4.0
 40
4.0
 40
4.0
 40
5.0
 40
5.0
 40
5.0
 40
6.0
 40
6.0
 40
6.0
 40
7.0
 40
7.0
 40
7.0
 40
8.0
 40
8.0
 40
8.0
 40
9.0
 40
9.0
 40
9.0
 40
9.0
 10
3.436085360973392
 20
8.23528599700128
 30
0.0
 10
3.436085360973392
 20
8.23528599700128
 30
0.0
 10
3.349841605455544
 20
8.186283863189423
 30
0.0
 10
3.318480239812705
 20
8.16864309501716
 30
0.0
 10
3.287118874169841
 20
8.151002326844958
 30
0.0
 10
3.224396142884845
 20
8.131401473321464
 30
0.0
 10
3.198915033300333
 20
8.123561131912059
 30
0.0
 10
3.173433923715796
 20
8.11572079050274
 30
0.0
 10
3.132272131309529
 20
8.092199766273021
 30
0.0
 10
3.132272131309529
 20
8.092199766273021
 30
0.0
 10
3.132272131309529
 20
8.092199766273021
 30
0.0
 10
3.112671277779883
 20
8.017134769541371
 30
0.0
 10
3.112671277779883
 20
8.017134769541371
 30
0.0
 10
3.112671277779883
 20
8.017134769541371
 30
0.0
 10
3.051908631848846
 20
8.027516949639903
 30
0.0
 10
3.008786754091362
 20
8.035357291052353
 30
0.0
 10
2.965664876333904
 20
8.043197632464802
 30
0.0
 10
2.889221547582527
 20
8.068678742052397
 30
0.0
 10
2.889221547582527
 20
8.068678742052397
 30
0.0
 10
2.889221547582527
 20
8.068678742052397
 30
0.0
 10
2.855900096583607
 20
7.97459464512772
 30
0.0
 10
2.855900096583607
 20
7.97459464512772
 30
0.0
 10
2.855900096583607
 20
7.97459464512772
 30
0.0
 10
2.779456767829957
 20
7.949113535546985
 30
0.0
 10
2.732414719366084
 20
7.931472767375415
 30
0.0
 10
2.685372670902186
 20
7.913831999203883
 30
0.0
 10
2.57952806185891
 20
7.884430718919197
 30
0.0
 10
2.57952806185891
 20
7.884430718919197
 30
0.0
  0
SPLINE
  5
7B
330
41
100
AcDbEntity
  8
Wood
 62
   250
420
  2301728
370
     9
100
AcDbSpline
210
0.0
220
0.0
230
1.0
 70
     8
 71
     3
 72
    11
 73
     7
 74
     0
 42
0.0000000001
 43
0.0000000001
 12
1.0
 22
0.0
 32
0.0
 13
1.0
 23
0.0
 33
0.0
 40
0.0
 40
0.0
 40
0.0
 40
0.0
 40
1.0
 40
1.0
 40
1.0
 40
2.0
 40
2.0
 40
2.0
 40
2.0
 10
2.863740437978549
 20
7.627659537712083
 30
0.0
 10
2.863740437978549
 20
7.627659537712083
 30
0.0
 10
2.775536597108662
 20
7.592378001368742
 30
0.0
 10
2.72849454864489
 20
7.576697318549817
 30
0.0
 10
2.681452500181093
 20
7.561016635730892
 30
0.0
 10
2.593248659311813
 20
7.538781427494655
 30
0.0
 10
2.593248659311813
 20
7.538781427494655
 30
0.0
  0
SPLINE
  5
7C
330
41
100
AcDbEntity
  8
Wood
 62
   250
420
  2301728
370
     9
100
AcDbSpline
210
0.0
220
0.0
230
1.0
 70
     8
 71
     3
 72
    11
 73
     7
 74
     0
 42
0.0000000001
 43
0.0000000001
 12
1.0
 22
0.0
 32
0.0
 13
1.0
 23
0.0
 33
0.0
 40
0.0
 40
0.0
 40
0.0
 40
0.0
 40
1.0
 40
1.0
 40
1.0
 40
2.0
 40
2.0
 40
2.0
 40
2.0
 10
3.438045446328323
 20
8.286248216169547
 30
0.0
 10
3.438045446328323
 20
8.286248216169547
 30
0.0
 10
3.328280666578128
 20
8.219605314185122
 30
0.0
 10
3.279278532761433
 20
8.198044375308376
 30
0.0
 10
3.230276398944751
 20
8.176483436431681
 30
0.0
 10
3.132272131312094
 20
8.149042241499249
 30
0.0
 10
3.132272131312094
 20
8.149042241499249
 30
0.0
  0
SPLINE
  5
7D
330
41
100
AcDbEntity
  8
Wood
 62
   250
420
  2301728
370
     9
100
AcDbSpline
210
0.0
220
0.0
230
1.0
 70
     8
 71
     3
 72
    11
 73
     7
 74
     0
 42
0.0000000001
 43
0.0000000001
 12
1.0
 22
0.0
 32
0.0
 13
1.0
 23
0.0
 33
0.0
 40
0.0
 40
0.0
 40
0.0
 40
0.0
 40
1.0
 40
1.0
 40
1.0
 40
2.0
 40
2.0
 40
2.0
 40
2.0
 10
3.114631363135181
 20
8.076519083452784
 30
0.0
 10
3.114631363135181
 20
8.076519083452784
 30
0.0
 10
3.055828802556208
 20
8.074558998102829
 30
0.0
 10
3.000946412683132
 20
8.086319510221049
 30
0.0
 10
2.946064022810067
 20
8.098080022339243
 30
0.0
 10
2.891181632937433
 20
8.11964096122065
 30
0.0
 10
2.891181632937433
 20
8.11964096122065
 30
0.0
  0
ENDBLK
  5
44
330
41
100
AcDbEntity
  8
0
100
AcDbBlockEnd
  0
BLOCK
  5
80
330
7E
100
AcDbEntity
  8
0
100
AcDbBlockBegin
  2
block 3
 70
     0
 10
0.0
 20
0.0
 30
0.0
  3
block 3
  1

  0
POLYLINE
  5
82
330
7E
100
AcDbEntity
  8
Wood
 62
   250
420
  2301728
370
    20
100
AcDb2dPolyline
 66
     1
 10
0.0
 20
0.0
 30
0.0
  0
VERTEX
  5
83
330
82
100
AcDbEntity
  8
Wood
 62
   250
420
  2301728
370
    20
100
AcDbVertex
100
AcDb2dVertex
 10
5.524426398122387
 20
7.3039116619552
 30
0.0
  0
VERTEX
  5
84
330
82
100
AcDbEntity
  8
Wood
 62
   250
420
  2301728
370
    20
100
AcDbVertex
100
AcDb2dVertex
 10
5.280670177523764
 20
7.573208572597941
 30
0.0
  0
VERTEX
  5
85
330
82
100
AcDbEntity
  8
Wood
 62
   250
420
  2301728
370
    20
100
AcDbVertex
100
AcDb2dVertex
 10
2.727575098311149
 20
6.691081871960478
 30
0.0
  0
VERTEX
  5
86
330
82
100
AcDbEntity
  8
Wood
 62
   250
420
  2301728
370
    20
100
AcDbVertex
100
AcDb2dVertex
 10
2.727912232976412
 20
6.348236410745421
 30
0.0
  0
VERTEX
  5
87
330
82
100
AcDbEntity
  8
Wood
 62
   250
420
  2301728
370
    20
100
AcDbVertex
100
AcDb2dVertex
 10
2.681759279226462
 20
6.285513679463419
 30
0.0
  0
VERTEX
  5
88
330
82
100
AcDbEntity
  8
Wood
 62
   250
420
  2301728
370
    20
100
AcDbVertex
100
AcDb2dVertex
 10
2.776531758124419
 20
6.19507377322058
 30
0.0
  0
VERTEX
  5
89
330
82
100
AcDbEntity
  8
Wood
 62
   250
420
  2301728
370
    20
100
AcDbVertex
100
AcDb2dVertex
 10
2.728249367647196
 20
6.128706851251018
 30
0.0
  0
VERTEX
  5
8A
330
82
100
AcDbEntity
  8
Wood
 62
   250
420
  2301728
370
    20
100
AcDbVertex
100
AcDb2dVertex
 10
2.728525347651511
 20
5.831385424281456
 30
0.0
  0
VERTEX
  5
8B
330
82
100
AcDbEntity
  8
Wood
 62
   250
420
  2301728
370
    20
100
AcDbVertex
100
AcDb2dVertex
 10
3.064709778915547
 20
5.628181023656945
 30
0.0
  0
VERTEX
  5
8C
330
82
100
AcDbEntity
  8
Wood
 62
   250
420
  2301728
370
    20
100
AcDbVertex
100
AcDb2dVertex
 10
5.52442639808103
 20
6.382426927567722
 30
0.0
  0
VERTEX
  5
8D
330
82
100
AcDbEntity
  8
Wood
 62
   250
420
  2301728
370
    20
100
AcDbVertex
100
AcDb2dVertex
 10
5.524426398093712
 20
6.66452554765461
 30
0.0
  0
VERTEX
  5
8E
330
82
100
AcDbEntity
  8
Wood
 62
   250
420
  2301728
370
    20
100
AcDbVertex
100
AcDb2dVertex
 10
5.575043643523537
 20
6.772882202082213
 30
0.0
  0
VERTEX
  5
8F
330
82
100
AcDbEntity
  8
Wood
 62
   250
420
  2301728
370
    20
100
AcDbVertex
100
AcDb2dVertex
 10
5.483448068651569
 20
6.871436861684767
 30
0.0
  0
VERTEX
  5
90
330
82
100
AcDbEntity
  8
Wood
 62
   250
420
  2301728
370
    20
100
AcDbVertex
100
AcDb2dVertex
 10
5.524426398105738
 20
6.932705993669552
 30
0.0
  0
VERTEX
  5
91
330
82
100
AcDbEntity
  8
Wood
 62
   250
420
  2301728
370
    20
100
AcDbVertex
100
AcDb2dVertex
 10
5.524426398122387
 20
7.3039116619552
 30
0.0
  0
SEQEND
  5
93
330
82
100
AcDbEntity
  8
Wood
 62
   250
420
  2301728
370
    20
  0
HATCH
  5
92
330
7E
100
AcDbEntity
  8
Wood
 62
    43
420
 15510365
100
AcDbHatch
 10
0.0
 20
0.0
 30
0.0
210
0.0
220
0.0
230
1.0
  2
SOLID
 70
     1
 71
     0
 91
        1
 92
        1
 93
       14
 72
     1
 10
5.524426398122387
 20
7.3039116619552
 11
5.280670177523764
 21
7.573208572597941
 72
     1
 10
5.280670177523764
 20
7.573208572597941
 11
2.727575098311149
 21
6.691081871960478
 72
     1
 10
2.727575098311149
 20
6.691081871960478
 11
2.727912232976412
 21
6.348236410745421
 72
     1
 10
2.727912232976412
 20
6.348236410745421
 11
2.681759279226462
 21
6.285513679463419
 72
     1
 10
2.681759279226462
 20
6.285513679463419
 11
2.776531758124419
 21
6.19507377322058
 72
     1
 10
2.776531758124419
 20
6.19507377322058
 11
2.728249367647196
 21
6.128706851251018
 72
     1
 10
2.728249367647196
 20
6.128706851251018
 11
2.728525347651511
 21
5.831385424281456
 72
     1
 10
2.728525347651511
 20
5.831385424281456
 11
3.064709778915547
 21
5.628181023656945
 72
     1
 10
3.064709778915547
 20
5.628181023656945
 11
5.52442639808103
 21
6.382426927567722
 72
     1
 10
5.52442639808103
 20
6.382426927567722
 11
5.524426398093712
 21
6.66452554765461
 72
     1
 10
5.524426398093712
 20
6.66452554765461
 11
5.575043643523537
 21
6.772882202082213
 72
     1
 10
5.575043643523537
 20
6.772882202082213
 11
5.483448068651569
 21
6.871436861684767
 72
     1
 10
5.483448068651569
 20
6.871436861684767
 11
5.524426398105738
 21
6.932705993669552
 72
     1
 10
5.524426398105738
 20
6.932705993669552
 11
5.524426398122387
 21
7.3039116619552
 97
        0
 75
     2
 76
     1
 98
        0
  0
POLYLINE
  5
94
330
7E
100
AcDbEntity
  8
Wood
 62
   250
420
  2301728
370
    15
100
AcDb2dPolyline
 66
     1
 10
0.0
 20
0.0
 30
0.0
  0
VERTEX
  5
95
330
94
100
AcDbEntity
  8
Wood
 62
   250
420
  2301728
370
    15
100
AcDbVertex
100
AcDb2dVertex
 10
5.280395765567365
 20
7.570498950606482
 30
0.0
  0
VERTEX
  5
96
330
94
100
AcDbEntity
  8
Wood
 62
   250
420
  2301728
370
    15
100
AcDbVertex
100
AcDb2dVertex
 10
5.280395765551146
 20
7.208664058374652
 30
0.0
  0
VERTEX
  5
97
330
94
100
AcDbEntity
  8
Wood
 62
   250
420
  2301728
370
    15
100
AcDbVertex
100
AcDb2dVertex
 10
5.214149583158107
 20
7.086464497153353
 30
0.0
  0
VERTEX
  5
98
330
94
100
AcDbEntity
  8
Wood
 62
   250
420
  2301728
370
    15
100
AcDbVertex
100
AcDb2dVertex
 10
5.336654920789114
 20
7.019239841825803
 30
0.0
  0
VERTEX
  5
99
330
94
100
AcDbEntity
  8
Wood
 62
   250
420
  2301728
370
    15
100
AcDbVertex
100
AcDb2dVertex
 10
5.280395765537478
 20
6.904545055402208
 30
0.0
  0
VERTEX
  5
9A
330
94
100
AcDbEntity
  8
Wood
 62
   250
420
  2301728
370
    15
100
AcDbVertex
100
AcDb2dVertex
 10
5.280395765525074
 20
6.629030754031874
 30
0.0
  0
VERTEX
  5
9B
330
94
100
AcDbEntity
  8
Wood
 62
   250
420
  2301728
370
    15
100
AcDbVertex
100
AcDb2dVertex
 10
5.52411905668997
 20
6.382549236893738
 30
0.0
  0
SEQEND
  5
9C
330
94
100
AcDbEntity
  8
Wood
 62
   250
420
  2301728
370
    15
  0
POLYLINE
  5
9D
330
7E
100
AcDbEntity
  8
Wood
 62
   250
420
  2301728
370
    20
100
AcDb2dPolyline
 66
     1
 10
0.0
 20
0.0
 30
0.0
  0
VERTEX
  5
9E
330
9D
100
AcDbEntity
  8
Wood
 62
   250
420
  2301728
370
    20
100
AcDbVertex
100
AcDb2dVertex
 10
5.523139014001572
 20
6.664464392991653
 30
0.0
  0
VERTEX
  5
9F
330
9D
100
AcDbEntity
  8
Wood
 62
   250
420
  2301728
370
    20
100
AcDbVertex
100
AcDb2dVertex
 10
5.281650220194806
 20
6.903565012725835
 30
0.0
  0
SEQEND
  5
A0
330
9D
100
AcDbEntity
  8
Wood
 62
   250
420
  2301728
370
    20
  0
POLYLINE
  5
A1
330
7E
100
AcDbEntity
  8
Wood
 62
   250
420
  2301728
370
     9
100
AcDb2dPolyline
 66
     1
 10
0.0
 20
0.0
 30
0.0
  0
VERTEX
  5
A2
330
A1
100
AcDbEntity
  8
Wood
 62
   250
420
  2301728
370
     9
100
AcDbVertex
100
AcDb2dVertex
 10
5.489137020522447
 20
6.864087325646286
 30
0.0
  0
VERTEX
  5
A3
330
A1
100
AcDbEntity
  8
Wood
 62
   250
420
  2301728
370
     9
100
AcDbVertex
100
AcDb2dVertex
 10
5.336778798186566
 20
7.0194233058148
 30
0.0
  0
SEQEND
  5
A4
330
A1
100
AcDbEntity
  8
Wood
 62
   250
420
  2301728
370
     9
  0
POLYLINE
  5
A5
330
7E
100
AcDbEntity
  8
Wood
 62
   250
420
  2301728
370
    20
100
AcDb2dPolyline
 66
     1
 10
0.0
 20
0.0
 30
0.0
  0
VERTEX
  5
A6
330
A5
100
AcDbEntity
  8
Wood
 62
   250
420
  2301728
370
    20
100
AcDbVertex
100
AcDb2dVertex
 10
5.523139014013648
 20
6.933715829643283
 30
0.0
  0
VERTEX
  5
A7
330
A5
100
AcDbEntity
  8
Wood
 62
   250
420
  2301728
370
    20
100
AcDbVertex
100
AcDb2dVertex
 10
5.279904960166403
 20
7.208480489049116
 30
0.0
  0
SEQEND
  5
A8
330
A5
100
AcDbEntity
  8
Wood
 62
   250
420
  2301728
370
    20
  0
POLYLINE
  5
A9
330
7E
100
AcDbEntity
  8
Wood
 62
   250
420
  2301728
370
    15
100
AcDb2dPolyline
 66
     1
 10
0.0
 20
0.0
 30
0.0
  0
VERTEX
  5
AA
330
A9
100
AcDbEntity
  8
Wood
 62
   250
420
  2301728
370
    15
100
AcDbVertex
100
AcDb2dVertex
 10
5.279721496146749
 20
6.629153063357913
 30
0.0
  0
VERTEX
  5
AB
330
A9
100
AcDbEntity
  8
Wood
 62
   250
420
  2301728
370
    15
100
AcDbVertex
100
AcDb2dVertex
 10
2.730317649697958
 20
5.831339950301236
 30
0.0
  0
SEQEND
  5
AC
330
A9
100
AcDbEntity
  8
Wood
 62
   250
420
  2301728
370
    15
  0
SPLINE
  5
AD
330
7E
100
AcDbEntity
  8
Wood
 62
   250
420
  2301728
370
     9
100
AcDbSpline
210
0.0
220
0.0
230
1.0
 70
     8
 71
     3
 72
    14
 73
    10
 74
     0
 42
0.0000000001
 43
0.0000000001
 12
1.0
 22
0.0
 32
0.0
 13
1.0
 23
0.0
 33
0.0
 40
0.0
 40
0.0
 40
0.0
 40
0.0
 40
1.0
 40
1.0
 40
1.0
 40
2.0
 40
2.0
 40
2.0
 40
3.0
 40
3.0
 40
3.0
 40
3.0
 10
5.51188341957628
 20
6.397953939697686
 30
0.0
 10
5.51188341957628
 20
6.397953939697686
 30
0.0
 10
5.485039657981209
 20
6.494579875310351
 30
0.0
 10
5.487642651396905
 20
6.531377733686339
 30
0.0
 10
5.490261325495794
 20
6.568175470550247
 30
0.0
 10
5.492879999597284
 20
6.661707728953097
 30
0.0
 10
5.487642651404737
 20
6.705657546764099
 30
0.0
 10
5.487642651404737
 20
6.705657546764099
 30
0.0
 10
5.551469304375713
 20
6.791962456939889
 30
0.0
 10
5.551469304375713
 20
6.791962456939889
 30
0.0
  0
SPLINE
  5
AE
330
7E
100
AcDbEntity
  8
Wood
 62
   250
420
  2301728
370
     9
100
AcDbSpline
210
0.0
220
0.0
230
1.0
 70
     8
 71
     3
 72
    14
 73
    10
 74
     0
 42
0.0000000001
 43
0.0000000001
 12
1.0
 22
0.0
 32
0.0
 13
1.0
 23
0.0
 33
0.0
 40
0.0
 40
0.0
 40
0.0
 40
0.0
 40
1.0
 40
1.0
 40
1.0
 40
2.0
 40
2.0
 40
2.0
 40
3.0
 40
3.0
 40
3.0
 40
3.0
 10
5.470064605506169
 20
6.435763202117591
 30
0.0
 10
5.470064605506169
 20
6.435763202117591
 30
0.0
 10
5.437202597692779
 20
6.543368629703082
 30
0.0
 10
5.445042939303473
 20
6.590349645641582
 30
0.0
 10
5.452883280914167
 20
6.637360332738644
 30
0.0
 10
5.448411150065415
 20
6.743419767135428
 30
0.0
 10
5.448411150065415
 20
6.743419767135428
 30
0.0
 10
5.448411150065415
 20
6.743419767135428
 30
0.0
 10
5.500720341212299
 20
6.805438435758573
 30
0.0
 10
5.524241366039001
 20
6.827090322596783
 30
0.0
  0
SPLINE
  5
AF
330
7E
100
AcDbEntity
  8
Wood
 62
   250
420
  2301728
370
     9
100
AcDbSpline
210
0.0
220
0.0
230
1.0
 70
     8
 71
     3
 72
    14
 73
    10
 74
     0
 42
0.0000000001
 43
0.0000000001
 12
1.0
 22
0.0
 32
0.0
 13
1.0
 23
0.0
 33
0.0
 40
0.0
 40
0.0
 40
0.0
 40
0.0
 40
1.0
 40
1.0
 40
1.0
 40
2.0
 40
2.0
 40
2.0
 40
3.0
 40
3.0
 40
3.0
 40
3.0
 10
5.424844651246657
 20
6.483079662532102
 30
0.0
 10
5.424844651246657
 20
6.483079662532102
 30
0.0
 10
5.408444224673531
 20
6.565235464037035
 30
0.0
 10
5.408444224675273
 20
6.604238026417811
 30
0.0
 10
5.408444224677042
 20
6.643240588798524
 30
0.0
 10
5.41628456629145
 20
6.774077070120281
 30
0.0
 10
5.41628456629145
 20
6.774077070120281
 30
0.0
 10
5.41628456629145
 20
6.774077070120281
 30
0.0
 10
5.490261325509108
 20
6.864087325646247
 30
0.0
 10
5.490261325509108
 20
6.864087325646247
 30
0.0
  0
SPLINE
  5
B0
330
7E
100
AcDbEntity
  8
Wood
 62
   250
420
  2301728
370
     9
100
AcDbSpline
210
0.0
220
0.0
230
1.0
 70
     8
 71
     3
 72
    14
 73
    10
 74
     0
 42
0.0000000001
 43
0.0000000001
 12
1.0
 22
0.0
 32
0.0
 13
1.0
 23
0.0
 33
0.0
 40
0.0
 40
0.0
 40
0.0
 40
0.0
 40
1.0
 40
1.0
 40
1.0
 40
2.0
 40
2.0
 40
2.0
 40
3.0
 40
3.0
 40
3.0
 40
3.0
 10
5.387617141222639
 20
6.524073671632764
 30
0.0
 10
5.387617141222639
 20
6.524073671632764
 30
0.0
 10
5.369242516633246
 20
6.623517425948004
 30
0.0
 10
5.377082858243688
 20
6.664862563272297
 30
0.0
 10
5.384923199854105
 20
6.706207938735714
 30
0.0
 10
5.382243371096769
 20
6.805330123531373
 30
0.0
 10
5.382243371096769
 20
6.805330123531373
 30
0.0
 10
5.382243371096769
 20
6.805330123531373
 30
0.0
 10
5.414064181551945
 20
6.863290746962358
 30
0.0
 10
5.455884563693593
 20
6.896903858655643
 30
0.0
  0
SPLINE
  5
B1
330
7E
100
AcDbEntity
  8
Wood
 62
   250
420
  2301728
370
     9
100
AcDbSpline
210
0.0
220
0.0
230
1.0
 70
     8
 71
     3
 72
    14
 73
    10
 74
     0
 42
0.0000000001
 43
0.0000000001
 12
1.0
 22
0.0
 32
0.0
 13
1.0
 23
0.0
 33
0.0
 40
0.0
 40
0.0
 40
0.0
 40
0.0
 40
1.0
 40
1.0
 40
1.0
 40
2.0
 40
2.0
 40
2.0
 40
3.0
 40
3.0
 40
3.0
 40
3.0
 10
5.350712653272644
 20
6.55933952729894
 30
0.0
 10
5.350712653272644
 20
6.55933952729894
 30
0.0
 10
5.337881150199943
 20
6.645843582149976
 30
0.0
 10
5.345721491810182
 20
6.68231998652795
 30
0.0
 10
5.353561833420346
 20
6.71879639090586
 30
0.0
 10
5.352581790724368
 20
6.831868226660023
 30
0.0
 10
5.352581790724368
 20
6.831868226660023
 30
0.0
 10
5.352581790724368
 20
6.831868226660023
 30
0.0
 10
5.396131752226741
 20
6.906672924055833
 30
0.0
 10
5.422271451150841
 20
6.930730227638693
 30
0.0
  0
SPLINE
  5
B2
330
7E
100
AcDbEntity
  8
Wood
 62
   250
420
  2301728
370
     9
100
AcDbSpline
210
0.0
220
0.0
230
1.0
 70
     8
 71
     3
 72
    14
 73
    10
 74
     0
 42
0.0000000001
 43
0.0000000001
 12
1.0
 22
0.0
 32
0.0
 13
1.0
 23
0.0
 33
0.0
 40
0.0
 40
0.0
 40
0.0
 40
0.0
 40
1.0
 40
1.0
 40
1.0
 40
2.0
 40
2.0
 40
2.0
 40
3.0
 40
3.0
 40
3.0
 40
3.0
 10
5.315998756767915
 20
6.590363637310348
 30
0.0
 10
5.315998756767915
 20
6.590363637310348
 30
0.0
 10
5.3051414517133
 20
6.700205373355415
 30
0.0
 10
5.311757131967397
 20
6.807061386439045
 30
0.0
 10
5.314145300023129
 20
6.845971432791025
 30
0.0
 10
5.319014152163062
 20
6.868557888326197
 30
0.0
 10
5.319014152163062
 20
6.868557888326197
 30
0.0
 10
5.319014152163062
 20
6.868557888326197
 30
0.0
 10
5.353561833430527
 20
6.945507703132294
 30
0.0
 10
5.382320206451898
 20
6.969533645349391
 30
0.0
  0
SPLINE
  5
B3
330
7E
100
AcDbEntity
  8
Wood
 62
   250
420
  2301728
370
     9
100
AcDbSpline
210
0.0
220
0.0
230
1.0
 70
     8
 71
     3
 72
    11
 73
     7
 74
     0
 42
0.0000000001
 43
0.0000000001
 12
1.0
 22
0.0
 32
0.0
 13
1.0
 23
0.0
 33
0.0
 40
0.0
 40
0.0
 40
0.0
 40
0.0
 40
1.0
 40
1.0
 40
1.0
 40
2.0
 40
2.0
 40
2.0
 40
2.0
 10
5.451856196175387
 20
6.902798227328225
 30
0.0
 10
5.451856196175387
 20
6.902798227328225
 30
0.0
 10
5.505942008730295
 20
6.954083468560257
 30
0.0
 10
5.505942008730295
 20
6.954083468560257
 30
0.0
 10
5.505942008730295
 20
6.954083468560257
 30
0.0
 10
5.505942008735221
 20
7.063801206258997
 30
0.0
 10
5.521622691956988
 20
7.165985837519706
 30
0.0
  0
SPLINE
  5
B4
330
7E
100
AcDbEntity
  8
Wood
 62
   250
420
  2301728
370
     9
100
AcDbSpline
210
0.0
220
0.0
230
1.0
 70
     8
 71
     3
 72
    17
 73
    13
 74
     0
 42
0.0000000001
 43
0.0000000001
 12
1.0
 22
0.0
 32
0.0
 13
1.0
 23
0.0
 33
0.0
 40
0.0
 40
0.0
 40
0.0
 40
0.0
 40
1.0
 40
1.0
 40
1.0
 40
2.0
 40
2.0
 40
2.0
 40
3.0
 40
3.0
 40
3.0
 40
4.0
 40
4.0
 40
4.0
 40
4.0
 10
5.420051066407773
 20
6.941571851741249
 30
0.0
 10
5.420051066407773
 20
6.941571851741249
 30
0.0
 10
5.477199316394818
 20
6.988568426221554
 30
0.0
 10
5.477199316394818
 20
6.988568426221554
 30
0.0
 10
5.477199316394818
 20
6.988568426221554
 30
0.0
 10
5.477199316398532
 20
7.071458083681819
 30
0.0
 10
5.482420983911677
 20
7.112834701441443
 30
0.0
 10
5.487642651424848
 20
7.154209644425148
 30
0.0
 10
5.500720341230261
 20
7.205234587613202
 30
0.0
 10
5.500720341231372
 20
7.22962756322819
 30
0.0
 10
5.500720341232459
 20
7.254006320810049
 30
0.0
 10
5.521622691963532
 20
7.312256921352677
 30
0.0
 10
5.521622691963532
 20
7.312256921352677
 30
0.0
  0
SPLINE
  5
B5
330
7E
100
AcDbEntity
  8
Wood
 62
   250
420
  2301728
370
     9
100
AcDbSpline
210
0.0
220
0.0
230
1.0
 70
     8
 71
     3
 72
    17
 73
    13
 74
     0
 42
0.0000000001
 43
0.0000000001
 12
1.0
 22
0.0
 32
0.0
 13
1.0
 23
0.0
 33
0.0
 40
0.0
 40
0.0
 40
0.0
 40
0.0
 40
1.0
 40
1.0
 40
1.0
 40
2.0
 40
2.0
 40
2.0
 40
3.0
 40
3.0
 40
3.0
 40
4.0
 40
4.0
 40
4.0
 40
4.0
 10
5.384923199866257
 20
6.976807914109941
 30
0.0
 10
5.384923199866257
 20
6.976807914109941
 30
0.0
 10
5.440570808469551
 20
7.02663641990782
 30
0.0
 10
5.440570808469551
 20
7.02663641990782
 30
0.0
 10
5.440570808469551
 20
7.02663641990782
 30
0.0
 10
5.431965249522212
 20
7.076174833076404
 30
0.0
 10
5.442408584547441
 20
7.134563423628315
 30
0.0
 10
5.452883280939128
 20
7.192952014180238
 30
0.0
 10
5.46412162660287
 20
7.237391069294542
 30
0.0
 10
5.471961968212756
 20
7.266547730931607
 30
0.0
 10
5.479802309822617
 20
7.295704392568672
 30
0.0
 10
5.498101667139028
 20
7.339362549678172
 30
0.0
 10
5.498101667139028
 20
7.339362549678172
 30
0.0
  0
SPLINE
  5
B6
330
7E
100
AcDbEntity
  8
Wood
 62
   250
420
  2301728
370
     9
100
AcDbSpline
210
0.0
220
0.0
230
1.0
 70
     8
 71
     3
 72
    14
 73
    10
 74
     0
 42
0.0000000001
 43
0.0000000001
 12
1.0
 22
0.0
 32
0.0
 13
1.0
 23
0.0
 33
0.0
 40
0.0
 40
0.0
 40
0.0
 40
0.0
 40
1.0
 40
1.0
 40
1.0
 40
2.0
 40
2.0
 40
2.0
 40
3.0
 40
3.0
 40
3.0
 40
3.0
 10
5.353561833433306
 20
7.006453813052783
 30
0.0
 10
5.353561833433306
 20
7.006453813052783
 30
0.0
 10
5.403972093842488
 20
7.066465354274871
 30
0.0
 10
5.403972093842488
 20
7.066465354274871
 30
0.0
 10
5.403972093842488
 20
7.066465354274871
 30
0.0
 10
5.408444224699198
 20
7.137426716312953
 30
0.0
 10
5.418887559725363
 20
7.215309531747998
 30
0.0
 10
5.429362256117908
 20
7.293192347182993
 30
0.0
 10
5.450248926166978
 20
7.378256915349602
 30
0.0
 10
5.450248926166978
 20
7.378256915349602
 30
0.0
  0
SPLINE
  5
B7
330
7E
100
AcDbEntity
  8
Wood
 62
   250
420
  2301728
370
     9
100
AcDbSpline
210
0.0
220
0.0
230
1.0
 70
     8
 71
     3
 72
    14
 73
    10
 74
     0
 42
0.0000000001
 43
0.0000000001
 12
1.0
 22
0.0
 32
0.0
 13
1.0
 23
0.0
 33
0.0
 40
0.0
 40
0.0
 40
0.0
 40
0.0
 40
1.0
 40
1.0
 40
1.0
 40
2.0
 40
2.0
 40
2.0
 40
3.0
 40
3.0
 40
3.0
 40
3.0
 10
5.319597473586251
 20
7.036115392678564
 30
0.0
 10
5.319597473586251
 20
7.036115392678564
 30
0.0
 10
5.370007733995863
 20
7.104136626685671
 30
0.0
 10
5.370007733995863
 20
7.104136626685671
 30
0.0
 10
5.370007733995863
 20
7.104136626685671
 30
0.0
 10
5.379685851682805
 20
7.223104399180114
 30
0.0
 10
5.387526193293348
 20
7.266884865616046
 30
0.0
 10
5.39536653490389
 20
7.310665332052003
 30
0.0
 10
5.400603883101464
 20
7.378854349367303
 30
0.0
 10
5.418887559734078
 20
7.410337924097298
 30
0.0
  0
SPLINE
  5
B8
330
7E
100
AcDbEntity
  8
Wood
 62
   250
420
  2301728
370
     9
100
AcDbSpline
210
0.0
220
0.0
230
1.0
 70
     8
 71
     3
 72
    17
 73
    13
 74
     0
 42
0.0000000001
 43
0.0000000001
 12
1.0
 22
0.0
 32
0.0
 13
1.0
 23
0.0
 33
0.0
 40
0.0
 40
0.0
 40
0.0
 40
0.0
 40
1.0
 40
1.0
 40
1.0
 40
2.0
 40
2.0
 40
2.0
 40
3.0
 40
3.0
 40
3.0
 40
4.0
 40
4.0
 40
4.0
 40
4.0
 10
5.277102822068526
 20
7.052500138160187
 30
0.0
 10
5.277102822068526
 20
7.052500138160187
 30
0.0
 10
5.337881150221947
 20
7.135864920307135
 30
0.0
 10
5.337881150221947
 20
7.135864920307135
 30
0.0
 10
5.337881150221947
 20
7.135864920307135
 30
0.0
 10
5.353561833442351
 20
7.208802048380195
 30
0.0
 10
5.353561833443791
 20
7.240484763491988
 30
0.0
 10
5.353561833445231
 20
7.272183368342793
 30
0.0
 10
5.361402175056987
 20
7.342776234334425
 30
0.0
 10
5.369242516666973
 20
7.374383786696462
 30
0.0
 10
5.37708285827696
 20
7.405974090307331
 30
0.0
 10
5.398000889690163
 20
7.439831820653567
 30
0.0
 10
5.398000889690163
 20
7.439831820653567
 30
0.0
  0
SPLINE
  5
B9
330
7E
100
AcDbEntity
  8
Wood
 62
   250
420
  2301728
370
     9
100
AcDbSpline
210
0.0
220
0.0
230
1.0
 70
     8
 71
     3
 72
    17
 73
    13
 74
     0
 42
0.0000000001
 43
0.0000000001
 12
1.0
 22
0.0
 32
0.0
 13
1.0
 23
0.0
 33
0.0
 40
0.0
 40
0.0
 40
0.0
 40
0.0
 40
1.0
 40
1.0
 40
1.0
 40
2.0
 40
2.0
 40
2.0
 40
3.0
 40
3.0
 40
3.0
 40
4.0
 40
4.0
 40
4.0
 40
4.0
 10
5.240519788123947
 20
7.07602116239338
 30
0.0
 10
5.240519788123947
 20
7.07602116239338
 30
0.0
 10
5.298679442181032
 20
7.180211459395069
 30
0.0
 10
5.298679442181032
 20
7.180211459395069
 30
0.0
 10
5.298679442181032
 20
7.180211459395069
 30
0.0
 10
5.316963118816198
 20
7.267758279652336
 30
0.0
 10
5.316963118817815
 20
7.304325631990991
 30
0.0
 10
5.316963118819457
 20
7.340892984329634
 30
0.0
 10
5.314360125406488
 20
7.365287321219133
 30
0.0
 10
5.324803460430783
 20
7.401732465606566
 30
0.0
 10
5.335278156821434
 20
7.438177508618777
 30
0.0
 10
5.35356183345473
 20
7.48427087577036
 30
0.0
 10
5.35356183345473
 20
7.48427087577036
 30
0.0
  0
SPLINE
  5
BA
330
7E
100
AcDbEntity
  8
Wood
 62
   250
420
  2301728
370
     9
100
AcDbSpline
210
0.0
220
0.0
230
1.0
 70
     8
 71
     3
 72
     8
 73
     4
 74
     0
 42
0.0000000001
 43
0.0000000001
 12
1.0
 22
0.0
 32
0.0
 13
1.0
 23
0.0
 33
0.0
 40
0.0
 40
0.0
 40
0.0
 40
0.0
 40
1.0
 40
1.0
 40
1.0
 40
1.0
 10
5.28039576556067
 20
7.421792763141537
 30
0.0
 10
5.28039576556067
 20
7.421792763141537
 30
0.0
 10
5.293457774683853
 20
7.494759684512019
 30
0.0
 10
5.319597473608383
 20
7.528571940877845
 30
0.0
  0
ENDBLK
  5
81
330
7E
100
AcDbEntity
  8
0
100
AcDbBlockEnd
  0
BLOCK
  5
BE
330
BC
100
AcDbEntity
  8
0
100
AcDbBlockBegin
  2
block 4
 70
     0
 10
0.0
 20
0.0
 30
0.0
  3
block 4
  1

  0
SPLINE
  5
C0
330
BC
100
AcDbEntity
  8
E5SS
 62
   250
420
  2301728
370
    20
100
AcDbSpline
210
0.0
220
0.0
230
1.0
 70
    11
 71
     3
 72
    44
 73
    40
 74
     0
 42
0.0000000001
 43
0.0000000001
 12
1.0
 22
0.0
 32
0.0
 13
1.0
 23
0.0
 33
0.0
 40
0.0
 40
0.0
 40
0.0
 40
0.0
 40
1.0
 40
1.0
 40
1.0
 40
2.0
 40
2.0
 40
2.0
 40
3.0
 40
3.0
 40
3.0
 40
4.0
 40
4.0
 40
4.0
 40
5.0
 40
5.0
 40
5.0
 40
6.0
 40
6.0
 40
6.0
 40
7.0
 40
7.0
 40
7.0
 40
8.0
 40
8.0
 40
8.0
 40
9.0
 40
9.0
 40
9.0
 40
10.0
 40
10.0
 40
10.0
 40
11.0
 40
11.0
 40
11.0
 40
12.0
 40
12.0
 40
12.0
 40
13.0
 40
13.0
 40
13.0
 40
13.0
 10
3.550395815338157
 20
6.287204542493454
 30
0.0
 10
3.550395815338157
 20
6.287204542493454
 30
0.0
 10
3.569243097112929
 20
6.279666672747667
 30
0.0
 10
3.569243097112929
 20
6.279666672747667
 30
0.0
 10
3.569243097112929
 20
6.279666672747667
 30
0.0
 10
4.096958397690337
 20
6.458084702942894
 30
0.0
 10
4.096958397690337
 20
6.458084702942894
 30
0.0
 10
4.096958397690337
 20
6.458084702942894
 30
0.0
 10
4.134652347731566
 20
6.517138558007495
 30
0.0
 10
4.134652347731566
 20
6.517138558007495
 30
0.0
 10
4.134652347731566
 20
6.517138558007495
 30
0.0
 10
4.135903597912375
 20
7.120241758667362
 30
0.0
 10
4.135903597912375
 20
7.132806408681112
 30
0.0
 10
4.135903597912375
 20
7.145371058694864
 30
0.0
 10
4.134652347731566
 20
7.174269753726472
 30
0.0
 10
4.113287227887642
 20
7.190603798744355
 30
0.0
 10
4.091932537684821
 20
7.206937843762224
 30
0.0
 10
3.809635281887684
 20
7.411309729142077
 30
0.0
 10
3.809635281887684
 20
7.411309729142077
 30
0.0
 10
3.809635281887684
 20
7.411309729142077
 30
0.0
 10
3.206532387981964
 20
7.205249468916614
 30
0.0
 10
3.206532387981964
 20
7.205249468916614
 30
0.0
 10
3.206532387981964
 20
7.205249468916614
 30
0.0
 10
3.206529627194603
 20
7.18347268500242
 30
0.0
 10
3.206529627194603
 20
7.18347268500242
 30
0.0
 10
3.206529627194603
 20
7.18347268500242
 30
0.0
 10
3.491327542828458
 20
6.980759419315531
 30
0.0
 10
3.501379262839464
 20
6.970707699304537
 30
0.0
 10
3.511430982850457
 20
6.960655979293531
 30
0.0
 10
3.513104633496823
 20
6.945578399277046
 30
0.0
 10
3.513104633496823
 20
6.938873980558772
 30
0.0
 10
3.513104633496823
 20
6.932174469906916
 30
0.0
 10
3.513104633496823
 20
6.315670100664255
 30
0.0
 10
3.513104633496823
 20
6.315670100664255
 30
0.0
 10
3.513104633496823
 20
6.315670100664255
 30
0.0
 10
3.550391214025896
 20
6.2872030087227
 30
0.0
 10
3.550391214025896
 20
6.2872030087227
 30
0.0
 10
3.550391214025896
 20
6.2872030087227
 30
0.0
 10
3.550395815338157
 20
6.287204542493454
 30
0.0
 10
3.550395815338157
 20
6.287204542493454
 30
0.0
  0
SPLINE
  5
C1
330
BC
100
AcDbEntity
  8
E5SS
 62
   250
420
  2301728
370
    20
100
AcDbSpline
210
0.0
220
0.0
230
1.0
 70
    11
 71
     3
 72
    11
 73
     7
 74
     0
 42
0.0000000001
 43
0.0000000001
 12
1.0
 22
0.0
 32
0.0
 13
1.0
 23
0.0
 33
0.0
 40
0.0
 40
0.0
 40
0.0
 40
0.0
 40
1.0
 40
1.0
 40
1.0
 40
2.0
 40
2.0
 40
2.0
 40
2.0
 10
3.603577168941266
 20
6.92296202925229
 30
0.0
 10
3.610279133626338
 20
6.901184938583937
 30
0.0
 10
3.596875204256207
 20
6.882755149208302
 30
0.0
 10
3.572585183585097
 20
6.883594428564694
 30
0.0
 10
3.568398602935986
 20
6.909563314702723
 30
0.0
 10
3.584310554242456
 20
6.923801308608681
 30
0.0
 10
3.603577168941266
 20
6.92296202925229
 30
0.0
  0
SPLINE
  5
C2
330
BC
100
AcDbEntity
  8
E5SS
 62
   250
420
  2301728
370
    20
100
AcDbSpline
210
0.0
220
0.0
230
1.0
 70
    11
 71
     3
 72
    11
 73
     7
 74
     0
 42
0.0000000001
 43
0.0000000001
 12
1.0
 22
0.0
 32
0.0
 13
1.0
 23
0.0
 33
0.0
 40
0.0
 40
0.0
 40
0.0
 40
0.0
 40
1.0
 40
1.0
 40
1.0
 40
2.0
 40
2.0
 40
2.0
 40
2.0
 10
3.701169468224078
 20
7.209450773764969
 30
0.0
 10
3.688604818210327
 20
7.165474498716851
 30
0.0
 10
3.559191377101936
 20
7.175526218727845
 30
0.0
 10
3.559191377101936
 20
7.209450773764969
 30
0.0
 10
3.596885327143177
 20
7.255939978815832
 30
0.0
 10
3.679812017233896
 20
7.239605933797962
 30
0.0
 10
3.701169468224078
 20
7.209450773764969
 30
0.0
  0
SPLINE
  5
C3
330
BC
100
AcDbEntity
  8
E5SS
 62
   250
420
  2301728
370
    20
100
AcDbSpline
210
0.0
220
0.0
230
1.0
 70
    11
 71
     3
 72
    11
 73
     7
 74
     0
 42
0.0000000001
 43
0.0000000001
 12
1.0
 22
0.0
 32
0.0
 13
1.0
 23
0.0
 33
0.0
 40
0.0
 40
0.0
 40
0.0
 40
0.0
 40
1.0
 40
1.0
 40
1.0
 40
2.0
 40
2.0
 40
2.0
 40
2.0
 10
3.80629012787401
 20
6.913754189909936
 30
0.0
 10
3.802106308012248
 20
6.939727984114395
 30
0.0
 10
3.818013044498154
 20
6.953961069953935
 30
0.0
 10
3.837277511917919
 20
6.953121790597542
 30
0.0
 10
3.843981623882036
 20
6.93134469992919
 30
0.0
 10
3.830577694511905
 20
6.912914910553568
 30
0.0
 10
3.80629012787401
 20
6.913754189909936
 30
0.0
  0
SPLINE
  5
C4
330
BC
100
AcDbEntity
  8
E5SS
 62
   250
420
  2301728
370
    20
100
AcDbSpline
210
0.0
220
0.0
230
1.0
 70
    11
 71
     3
 72
    26
 73
    22
 74
     0
 42
0.0000000001
 43
0.0000000001
 12
1.0
 22
0.0
 32
0.0
 13
1.0
 23
0.0
 33
0.0
 40
0.0
 40
0.0
 40
0.0
 40
0.0
 40
1.0
 40
1.0
 40
1.0
 40
2.0
 40
2.0
 40
2.0
 40
3.0
 40
3.0
 40
3.0
 40
4.0
 40
4.0
 40
4.0
 40
5.0
 40
5.0
 40
5.0
 40
6.0
 40
6.0
 40
6.0
 40
7.0
 40
7.0
 40
7.0
 40
7.0
 10
3.864507157615435
 20
6.635246268136711
 30
0.0
 10
3.833100747401633
 20
6.625194548125718
 30
0.0
 10
3.760225777321895
 20
6.600065248098227
 30
0.0
 10
3.760225777321895
 20
6.600065248098227
 30
0.0
 10
3.760225777321895
 20
6.600065248098227
 30
0.0
 10
3.728811698254339
 20
6.593478929727982
 30
0.0
 10
3.725044757283412
 20
6.628963943129848
 30
0.0
 10
3.721272908246065
 20
6.664444355219441
 30
0.0
 10
3.756453621530416
 20
6.693043658199953
 30
0.0
 10
3.765251637327399
 20
6.699325983206815
 30
0.0
 10
3.774044131549658
 20
6.705608308213691
 30
0.0
 10
3.85320418742362
 20
6.728224678238424
 30
0.0
 10
3.870794697442875
 20
6.734507003245325
 30
0.0
 10
3.888385207462129
 20
6.7407893282522
 30
0.0
 10
3.903462787478613
 20
6.73701993324807
 30
0.0
 10
3.903462787478613
 20
6.73701993324807
 30
0.0
 10
3.903462787478613
 20
6.73701993324807
 30
0.0
 10
3.91854036749511
 20
6.729481143239809
 30
0.0
 10
3.91854036749511
 20
6.706864773215076
 30
0.0
 10
3.91854036749511
 20
6.684248403190319
 30
0.0
 10
3.895923997470365
 20
6.645297988147704
 30
0.0
 10
3.864507157615435
 20
6.635246268136711
 30
0.0
  0
SPLINE
  5
C5
330
BC
100
AcDbEntity
  8
E5SS
 62
   250
420
  2301728
370
    20
100
AcDbSpline
210
0.0
220
0.0
230
1.0
 70
    11
 71
     3
 72
    11
 73
     7
 74
     0
 42
0.0000000001
 43
0.0000000001
 12
1.0
 22
0.0
 32
0.0
 13
1.0
 23
0.0
 33
0.0
 40
0.0
 40
0.0
 40
0.0
 40
0.0
 40
1.0
 40
1.0
 40
1.0
 40
2.0
 40
2.0
 40
2.0
 40
2.0
 10
4.040844474406261
 20
7.04192374293714
 30
0.0
 10
4.036658200511321
 20
7.067892322321022
 30
0.0
 10
4.052569845063632
 20
7.082130622981126
 30
0.0
 10
4.071834005729228
 20
7.081291343624748
 30
0.0
 10
4.078538424447515
 20
7.059514252956382
 30
0.0
 10
4.065134495077384
 20
7.04108446358076
 30
0.0
 10
4.040844474406261
 20
7.04192374293714
 30
0.0
  0
HATCH
  5
C6
330
BC
100
AcDbEntity
  8
E5SS
 62
   254
420
 13358815
100
AcDbHatch
 10
0.0
 20
0.0
 30
0.0
210
0.0
220
0.0
230
1.0
  2
SOLID
 70
     1
 71
     0
 91
        6
 92
        1
 93
        1
 72
     4
 94
        3
 73
     0
 74
     1
 95
       44
 96
       40
 40
0.0
 40
0.0
 40
0.0
 40
0.0
 40
1.0
 40
1.0
 40
1.0
 40
2.0
 40
2.0
 40
2.0
 40
3.0
 40
3.0
 40
3.0
 40
4.0
 40
4.0
 40
4.0
 40
5.0
 40
5.0
 40
5.0
 40
6.0
 40
6.0
 40
6.0
 40
7.0
 40
7.0
 40
7.0
 40
8.0
 40
8.0
 40
8.0
 40
9.0
 40
9.0
 40
9.0
 40
10.0
 40
10.0
 40
10.0
 40
11.0
 40
11.0
 40
11.0
 40
12.0
 40
12.0
 40
12.0
 40
13.0
 40
13.0
 40
13.0
 40
13.0
 10
3.550395815338157
 20
6.287204542493454
 10
3.550395815338157
 20
6.287204542493454
 10
3.569243097112929
 20
6.279666672747667
 10
3.569243097112929
 20
6.279666672747667
 10
3.569243097112929
 20
6.279666672747667
 10
4.096958397690337
 20
6.458084702942894
 10
4.096958397690337
 20
6.458084702942894
 10
4.096958397690337
 20
6.458084702942894
 10
4.134652347731566
 20
6.517138558007495
 10
4.134652347731566
 20
6.517138558007495
 10
4.134652347731566
 20
6.517138558007495
 10
4.135903597912375
 20
7.120241758667362
 10
4.135903597912375
 20
7.132806408681112
 10
4.135903597912375
 20
7.145371058694864
 10
4.134652347731566
 20
7.174269753726472
 10
4.113287227887642
 20
7.190603798744355
 10
4.091932537684821
 20
7.206937843762224
 10
3.809635281887684
 20
7.411309729142077
 10
3.809635281887684
 20
7.411309729142077
 10
3.809635281887684
 20
7.411309729142077
 10
3.206532387981964
 20
7.205249468916614
 10
3.206532387981964
 20
7.205249468916614
 10
3.206532387981964
 20
7.205249468916614
 10
3.206529627194603
 20
7.18347268500242
 10
3.206529627194603
 20
7.18347268500242
 10
3.206529627194603
 20
7.18347268500242
 10
3.491327542828458
 20
6.980759419315531
 10
3.501379262839464
 20
6.970707699304537
 10
3.511430982850457
 20
6.960655979293531
 10
3.513104633496823
 20
6.945578399277046
 10
3.513104633496823
 20
6.938873980558772
 10
3.513104633496823
 20
6.932174469906916
 10
3.513104633496823
 20
6.315670100664255
 10
3.513104633496823
 20
6.315670100664255
 10
3.513104633496823
 20
6.315670100664255
 10
3.550391214025896
 20
6.2872030087227
 10
3.550391214025896
 20
6.2872030087227
 10
3.550391214025896
 20
6.2872030087227
 10
3.550395815338157
 20
6.287204542493454
 10
3.550395815338157
 20
6.287204542493454
 97
        0
 97
        0
 92
        1
 93
        1
 72
     4
 94
        3
 73
     0
 74
     1
 95
       11
 96
        7
 40
0.0
 40
0.0
 40
0.0
 40
0.0
 40
1.0
 40
1.0
 40
1.0
 40
2.0
 40
2.0
 40
2.0
 40
2.0
 10
3.603577168941266
 20
6.92296202925229
 10
3.610279133626338
 20
6.901184938583937
 10
3.596875204256207
 20
6.882755149208302
 10
3.572585183585097
 20
6.883594428564694
 10
3.568398602935986
 20
6.909563314702723
 10
3.584310554242456
 20
6.923801308608681
 10
3.603577168941266
 20
6.92296202925229
 97
        0
 97
        0
 92
        1
 93
        1
 72
     4
 94
        3
 73
     0
 74
     1
 95
       11
 96
        7
 40
0.0
 40
0.0
 40
0.0
 40
0.0
 40
1.0
 40
1.0
 40
1.0
 40
2.0
 40
2.0
 40
2.0
 40
2.0
 10
3.701169468224078
 20
7.209450773764969
 10
3.688604818210327
 20
7.165474498716851
 10
3.559191377101936
 20
7.175526218727845
 10
3.559191377101936
 20
7.209450773764969
 10
3.596885327143177
 20
7.255939978815832
 10
3.679812017233896
 20
7.239605933797962
 10
3.701169468224078
 20
7.209450773764969
 97
        0
 97
        0
 92
        1
 93
        1
 72
     4
 94
        3
 73
     0
 74
     1
 95
       11
 96
        7
 40
0.0
 40
0.0
 40
0.0
 40
0.0
 40
1.0
 40
1.0
 40
1.0
 40
2.0
 40
2.0
 40
2.0
 40
2.0
 10
3.80629012787401
 20
6.913754189909936
 10
3.802106308012248
 20
6.939727984114395
 10
3.818013044498154
 20
6.953961069953935
 10
3.837277511917919
 20
6.953121790597542
 10
3.843981623882036
 20
6.93134469992919
 10
3.830577694511905
 20
6.912914910553568
 10
3.80629012787401
 20
6.913754189909936
 97
        0
 97
        0
 92
        1
 93
        1
 72
     4
 94
        3
 73
     0
 74
     1
 95
       26
 96
       22
 40
0.0
 40
0.0
 40
0.0
 40
0.0
 40
1.0
 40
1.0
 40
1.0
 40
2.0
 40
2.0
 40
2.0
 40
3.0
 40
3.0
 40
3.0
 40
4.0
 40
4.0
 40
4.0
 40
5.0
 40
5.0
 40
5.0
 40
6.0
 40
6.0
 40
6.0
 40
7.0
 40
7.0
 40
7.0
 40
7.0
 10
3.864507157615435
 20
6.635246268136711
 10
3.833100747401633
 20
6.625194548125718
 10
3.760225777321895
 20
6.600065248098227
 10
3.760225777321895
 20
6.600065248098227
 10
3.760225777321895
 20
6.600065248098227
 10
3.728811698254339
 20
6.593478929727982
 10
3.725044757283412
 20
6.628963943129848
 10
3.721272908246065
 20
6.664444355219441
 10
3.756453621530416
 20
6.693043658199953
 10
3.765251637327399
 20
6.699325983206815
 10
3.774044131549658
 20
6.705608308213691
 10
3.85320418742362
 20
6.728224678238424
 10
3.870794697442875
 20
6.734507003245325
 10
3.888385207462129
 20
6.7407893282522
 10
3.903462787478613
 20
6.73701993324807
 10
3.903462787478613
 20
6.73701993324807
 10
3.903462787478613
 20
6.73701993324807
 10
3.91854036749511
 20
6.729481143239809
 10
3.91854036749511
 20
6.706864773215076
 10
3.91854036749511
 20
6.684248403190319
 10
3.895923997470365
 20
6.645297988147704
 10
3.864507157615435
 20
6.635246268136711
 97
        0
 97
        0
 92
        1
 93
        1
 72
     4
 94
        3
 73
     0
 74
     1
 95
       11
 96
        7
 40
0.0
 40
0.0
 40
0.0
 40
0.0
 40
1.0
 40
1.0
 40
1.0
 40
2.0
 40
2.0
 40
2.0
 40
2.0
 10
4.040844474406261
 20
7.04192374293714
 10
4.036658200511321
 20
7.067892322321022
 10
4.052569845063632
 20
7.082130622981126
 10
4.071834005729228
 20
7.081291343624748
 10
4.078538424447515
 20
7.059514252956382
 10
4.065134495077384
 20
7.04108446358076
 10
4.040844474406261
 20
7.04192374293714
 97
        0
 97
        0
 75
     2
 76
     1
 98
        0
  0
SPLINE
  5
C7
330
BC
100
AcDbEntity
  8
E5SS
 62
   250
420
  2301728
370
    15
100
AcDbSpline
210
0.0
220
0.0
230
1.0
 70
    11
 71
     3
 72
    23
 73
    19
 74
     0
 42
0.0000000001
 43
0.0000000001
 12
1.0
 22
0.0
 32
0.0
 13
1.0
 23
0.0
 33
0.0
 40
0.0
 40
0.0
 40
0.0
 40
0.0
 40
1.0
 40
1.0
 40
1.0
 40
2.0
 40
2.0
 40
2.0
 40
3.0
 40
3.0
 40
3.0
 40
4.0
 40
4.0
 40
4.0
 40
5.0
 40
5.0
 40
5.0
 40
6.0
 40
6.0
 40
6.0
 40
6.0
 10
3.70116929922363
 20
7.209450740880937
 30
0.0
 10
3.691748359653552
 20
7.188719068358245
 30
0.0
 10
3.667247292126755
 20
7.181808510850677
 30
0.0
 10
3.632066272088259
 20
7.179923813348611
 30
0.0
 10
3.596885252049762
 20
7.178039115846559
 30
0.0
 10
3.563588929513344
 20
7.18997553335963
 30
0.0
 10
3.559191302008533
 20
7.209450740880937
 30
0.0
 10
3.559191302008533
 20
7.209450740880937
 30
0.0
 10
3.559819534509213
 20
7.197514323367841
 30
0.0
 10
3.559191302008533
 20
7.193744928363735
 30
0.0
 10
3.558563069507853
 20
7.18997553335963
 30
0.0
 10
3.573640649524337
 20
7.162333303329369
 30
0.0
 10
3.634579202091016
 20
7.162333303329369
 30
0.0
 10
3.695517754657683
 20
7.162333303329369
 30
0.0
 10
3.704941242167984
 20
7.195629625865788
 30
0.0
 10
3.704941242167984
 20
7.195629625865788
 30
0.0
 10
3.704941242167984
 20
7.195629625865788
 30
0.0
 10
3.704313009667304
 20
7.201911950872663
 30
0.0
 10
3.70116929922363
 20
7.209450740880937
 30
0.0
  0
SPLINE
  5
C8
330
BC
100
AcDbEntity
  8
E5SS
 62
   250
420
  2301728
370
    15
100
AcDbSpline
210
0.0
220
0.0
230
1.0
 70
    11
 71
     3
 72
    17
 73
    13
 74
     0
 42
0.0000000001
 43
0.0000000001
 12
1.0
 22
0.0
 32
0.0
 13
1.0
 23
0.0
 33
0.0
 40
0.0
 40
0.0
 40
0.0
 40
0.0
 40
1.0
 40
1.0
 40
1.0
 40
2.0
 40
2.0
 40
2.0
 40
3.0
 40
3.0
 40
3.0
 40
4.0
 40
4.0
 40
4.0
 40
4.0
 10
3.572583176817311
 20
6.883594630407893
 30
0.0
 10
3.572583176817311
 20
6.883594630407893
 30
0.0
 10
3.564205068399777
 20
6.922962190836465
 30
0.0
 10
3.603575141758281
 20
6.922962190836465
 30
0.0
 10
3.603575141758281
 20
6.922962190836465
 30
0.0
 10
3.597714518950675
 20
6.930500980654263
 30
0.0
 10
3.597714518950675
 20
6.930500980654263
 30
0.0
 10
3.597714518950675
 20
6.930500980654263
 30
0.0
 10
3.576774241370016
 20
6.932179617853699
 30
0.0
 10
3.565046428914936
 20
6.917102038218091
 30
0.0
 10
3.553318553316899
 20
6.902024458582495
 30
0.0
 10
3.565044386999501
 20
6.882755311808182
 30
0.0
 10
3.572583176817311
 20
6.883594630407893
 30
0.0
  0
SPLINE
  5
C9
330
BC
100
AcDbEntity
  8
E5SS
 62
   250
420
  2301728
370
    15
100
AcDbSpline
210
0.0
220
0.0
230
1.0
 70
    11
 71
     3
 72
    17
 73
    13
 74
     0
 42
0.0000000001
 43
0.0000000001
 12
1.0
 22
0.0
 32
0.0
 13
1.0
 23
0.0
 33
0.0
 40
0.0
 40
0.0
 40
0.0
 40
0.0
 40
1.0
 40
1.0
 40
1.0
 40
2.0
 40
2.0
 40
2.0
 40
3.0
 40
3.0
 40
3.0
 40
4.0
 40
4.0
 40
4.0
 40
4.0
 10
3.806287709178882
 20
6.913754267457382
 30
0.0
 10
3.806287709178882
 20
6.913754267457382
 30
0.0
 10
3.797907552751667
 20
6.953117350107681
 30
0.0
 10
3.837277626110171
 20
6.953121828880474
 30
0.0
 10
3.837277626110171
 20
6.953121828880474
 30
0.0
 10
3.831417009206386
 20
6.96066061888871
 30
0.0
 10
3.831417009206386
 20
6.96066061888871
 30
0.0
 10
3.831417009206386
 20
6.96066061888871
 30
0.0
 10
3.810479276423469
 20
6.962344281990554
 30
0.0
 10
3.798751394625267
 20
6.947266701974058
 30
0.0
 10
3.787023587777803
 20
6.932189121957562
 30
0.0
 10
3.798746871351366
 20
6.912914948836474
 30
0.0
 10
3.806287709178882
 20
6.913754267457382
 30
0.0
  0
SPLINE
  5
CA
330
BC
100
AcDbEntity
  8
E5SS
 62
   250
420
  2301728
370
    15
100
AcDbSpline
210
0.0
220
0.0
230
1.0
 70
    11
 71
     3
 72
    17
 73
    13
 74
     0
 42
0.0000000001
 43
0.0000000001
 12
1.0
 22
0.0
 32
0.0
 13
1.0
 23
0.0
 33
0.0
 40
0.0
 40
0.0
 40
0.0
 40
0.0
 40
1.0
 40
1.0
 40
1.0
 40
2.0
 40
2.0
 40
2.0
 40
3.0
 40
3.0
 40
3.0
 40
4.0
 40
4.0
 40
4.0
 40
4.0
 10
4.040839569775522
 20
7.041923749317625
 30
0.0
 10
4.040839569775522
 20
7.041923749317625
 30
0.0
 10
4.032461461146353
 20
7.081281259020695
 30
0.0
 10
4.071834048429436
 20
7.08129131074069
 30
0.0
 10
4.071834048429436
 20
7.08129131074069
 30
0.0
 10
4.065973895663003
 20
7.088830100748939
 30
0.0
 10
4.065973895663003
 20
7.088830100748939
 30
0.0
 10
4.065973895663003
 20
7.088830100748939
 30
0.0
 10
4.045031137020108
 20
7.090508737990793
 30
0.0
 10
4.033305805627265
 20
7.075431157974296
 30
0.0
 10
4.021575448374443
 20
7.060353577957799
 30
0.0
 10
4.033300779767261
 20
7.041084430696716
 30
0.0
 10
4.040839569775522
 20
7.041923749317625
 30
0.0
  0
INSERT
  5
CC
330
BC
100
AcDbEntity
  8
E5SS
100
AcDbBlockReference
  2
block 5
 10
0.0
 20
0.0
 30
0.0
  0
INSERT
  5
D1
330
BC
100
AcDbEntity
  8
E5SS
100
AcDbBlockReference
  2
block 6
 10
0.0
 20
0.0
 30
0.0
  0
INSERT
  5
D6
330
BC
100
AcDbEntity
  8
E5SS
100
AcDbBlockReference
  2
block 7
 10
0.0
 20
0.0
 30
0.0
  0
INSERT
  5
DB
330
BC
100
AcDbEntity
  8
E5SS
100
AcDbBlockReference
  2
block 8
 10
0.0
 20
0.0
 30
0.0
  0
INSERT
  5
E0
330
BC
100
AcDbEntity
  8
E5SS
100
AcDbBlockReference
  2
block 9
 10
0.0
 20
0.0
 30
0.0
  0
INSERT
  5
E5
330
BC
100
AcDbEntity
  8
E5SS
100
AcDbBlockReference
  2
block 10
 10
0.0
 20
0.0
 30
0.0
  0
INSERT
  5
EA
330
BC
100
AcDbEntity
  8
E5SS
100
AcDbBlockReference
  2
block 11
 10
0.0
 20
0.0
 30
0.0
  0
INSERT
  5
EF
330
BC
100
AcDbEntity
  8
E5SS
100
AcDbBlockReference
  2
block 12
 10
0.0
 20
0.0
 30
0.0
  0
INSERT
  5
F4
330
BC
100
AcDbEntity
  8
E5SS
100
AcDbBlockReference
  2
block 13
 10
0.0
 20
0.0
 30
0.0
  0
INSERT
  5
F9
330
BC
100
AcDbEntity
  8
E5SS
100
AcDbBlockReference
  2
block 14
 10
0.0
 20
0.0
 30
0.0
  0
SPLINE
  5
FD
330
BC
100
AcDbEntity
  8
E5SS
 62
   250
420
  2301728
370
    15
100
AcDbSpline
210
0.0
220
0.0
230
1.0
 70
     8
 71
     3
 72
    35
 73
    31
 74
     0
 42
0.0000000001
 43
0.0000000001
 12
1.0
 22
0.0
 32
0.0
 13
1.0
 23
0.0
 33
0.0
 40
0.0
 40
0.0
 40
0.0
 40
0.0
 40
1.0
 40
1.0
 40
1.0
 40
2.0
 40
2.0
 40
2.0
 40
3.0
 40
3.0
 40
3.0
 40
4.0
 40
4.0
 40
4.0
 40
5.0
 40
5.0
 40
5.0
 40
6.0
 40
6.0
 40
6.0
 40
7.0
 40
7.0
 40
7.0
 40
8.0
 40
8.0
 40
8.0
 40
9.0
 40
9.0
 40
9.0
 40
10.0
 40
10.0
 40
10.0
 40
10.0
 10
3.678636898063802
 20
7.073963336774455
 30
0.0
 10
3.676386292847029
 20
7.075492208742755
 30
0.0
 10
3.674488990433272
 20
7.076842706984507
 30
0.0
 10
3.673112470753166
 20
7.077944087977054
 30
0.0
 10
3.664736840964135
 20
7.084643559364369
 30
0.0
 10
3.626812204906703
 20
7.092270845494618
 30
0.0
 10
3.600237500673428
 20
7.082969947982544
 30
0.0
 10
3.583481283415103
 20
7.07710476935612
 30
0.0
 10
3.578040758059412
 20
7.061610042959172
 30
0.0
 10
3.585994213417835
 20
7.053654106570459
 30
0.0
 10
3.585994213417835
 20
7.053654106570459
 30
0.0
 10
3.587672850659676
 20
7.051141176567714
 30
0.0
 10
3.587672850659676
 20
7.051141176567714
 30
0.0
 10
3.587672850659676
 20
7.051141176567714
 30
0.0
 10
3.62871402346458
 20
7.018473086531962
 30
0.0
 10
3.63793145071467
 20
7.012607907905564
 30
0.0
 10
3.64714633138927
 20
7.00674272927914
 30
0.0
 10
3.652169712110258
 20
7.003395506515466
 30
0.0
 10
3.651330393489325
 20
6.987478607878049
 30
0.0
 10
3.650496100728421
 20
6.971561709240644
 30
0.0
 10
3.647985649988982
 20
6.819946590454769
 30
0.0
 10
3.64714633138927
 20
6.808221259061926
 30
0.0
 10
3.646304533483835
 20
6.796495927669095
 30
0.0
 10
3.654685121207068
 20
6.773045264883434
 30
0.0
 10
3.684840280478284
 20
6.77387955764435
 30
0.0
 10
3.714995439749487
 20
6.774718876265271
 30
0.0
 10
3.734257083580069
 20
6.819112297693841
 30
0.0
 10
3.734257083580069
 20
6.849267457726846
 30
0.0
 10
3.734257083580069
 20
6.851327925357269
 30
0.0
 10
3.734257083580069
 20
6.853857690984177
 30
0.0
 10
3.734257083580069
 20
6.856785138675605
 30
0.0
  0
SPLINE
  5
FE
330
BC
100
AcDbEntity
  8
E5SS
 62
   250
420
  2301728
370
    15
100
AcDbSpline
210
0.0
220
0.0
230
1.0
 70
     8
 71
     3
 72
    14
 73
    10
 74
     0
 42
0.0000000001
 43
0.0000000001
 12
1.0
 22
0.0
 32
0.0
 13
1.0
 23
0.0
 33
0.0
 40
0.0
 40
0.0
 40
0.0
 40
0.0
 40
1.0
 40
1.0
 40
1.0
 40
2.0
 40
2.0
 40
2.0
 40
3.0
 40
3.0
 40
3.0
 40
3.0
 10
3.734257083580069
 20
6.872932812038571
 30
0.0
 10
3.734257083580069
 20
6.921114768401985
 30
0.0
 10
3.734257083580069
 20
7.011259813177642
 30
0.0
 10
3.734257083580069
 20
7.016794449290134
 30
0.0
 10
3.734257083580069
 20
7.023498946537479
 30
0.0
 10
3.727560089445824
 20
7.036897889312134
 30
0.0
 10
3.718345210802668
 20
7.046115316562211
 30
0.0
 10
3.713108310086656
 20
7.05134936182526
 30
0.0
 10
3.701923941678842
 20
7.058747597459526
 30
0.0
 10
3.691705089012518
 20
7.065389979262792
 30
0.0
  0
INSERT
  5
100
330
BC
100
AcDbEntity
  8
E5SS
100
AcDbBlockReference
  2
block 15
 10
0.0
 20
0.0
 30
0.0
  0
POLYLINE
  5
105
330
BC
100
AcDbEntity
  8
E5SS
 62
   250
420
  2301728
370
    15
100
AcDb2dPolyline
 66
     1
 10
0.0
 20
0.0
 30
0.0
  0
VERTEX
  5
106
330
105
100
AcDbEntity
  8
E5SS
 62
   250
420
  2301728
370
    15
100
AcDbVertex
100
AcDb2dVertex
 10
3.981728103363947
 20
7.112325160297258
 30
0.0
  0
VERTEX
  5
107
330
105
100
AcDbEntity
  8
E5SS
 62
   250
420
  2301728
370
    15
100
AcDbVertex
100
AcDb2dVertex
 10
4.101657741659412
 20
7.153146701810138
 30
0.0
  0
SEQEND
  5
108
330
105
100
AcDbEntity
  8
E5SS
 62
   250
420
  2301728
370
    15
  0
POLYLINE
  5
109
330
BC
100
AcDbEntity
  8
E5SS
 62
   250
420
  2301728
370
    15
100
AcDb2dPolyline
 66
     1
 10
0.0
 20
0.0
 30
0.0
  0
VERTEX
  5
10A
330
109
100
AcDbEntity
  8
E5SS
 62
   250
420
  2301728
370
    15
100
AcDbVertex
100
AcDb2dVertex
 10
3.745176942565371
 20
7.031808090724603
 30
0.0
  0
VERTEX
  5
10B
330
109
100
AcDbEntity
  8
E5SS
 62
   250
420
  2301728
370
    15
100
AcDbVertex
100
AcDb2dVertex
 10
3.869035866063415
 20
7.073967078771046
 30
0.0
  0
SEQEND
  5
10C
330
109
100
AcDbEntity
  8
E5SS
 62
   250
420
  2301728
370
    15
  0
POLYLINE
  5
10D
330
BC
100
AcDbEntity
  8
E5SS
 62
   250
420
  2301728
370
    15
100
AcDb2dPolyline
 66
     1
 10
0.0
 20
0.0
 30
0.0
  0
VERTEX
  5
10E
330
10D
100
AcDbEntity
  8
E5SS
 62
   250
420
  2301728
370
    15
100
AcDbVertex
100
AcDb2dVertex
 10
3.52891164671813
 20
6.958195905465825
 30
0.0
  0
VERTEX
  5
10F
330
10D
100
AcDbEntity
  8
E5SS
 62
   250
420
  2301728
370
    15
100
AcDbVertex
100
AcDb2dVertex
 10
3.637487560212978
 20
6.995152876428316
 30
0.0
  0
SEQEND
  5
110
330
10D
100
AcDbEntity
  8
E5SS
 62
   250
420
  2301728
370
    15
  0
SPLINE
  5
111
330
BC
100
AcDbEntity
  8
E5SS
 62
   250
420
  2301728
370
    15
100
AcDbSpline
210
0.0
220
0.0
230
1.0
 70
    11
 71
     3
 72
    35
 73
    31
 74
     0
 42
0.0000000001
 43
0.0000000001
 12
1.0
 22
0.0
 32
0.0
 13
1.0
 23
0.0
 33
0.0
 40
0.0
 40
0.0
 40
0.0
 40
0.0
 40
1.0
 40
1.0
 40
1.0
 40
2.0
 40
2.0
 40
2.0
 40
3.0
 40
3.0
 40
3.0
 40
4.0
 40
4.0
 40
4.0
 40
5.0
 40
5.0
 40
5.0
 40
6.0
 40
6.0
 40
6.0
 40
7.0
 40
7.0
 40
7.0
 40
8.0
 40
8.0
 40
8.0
 40
9.0
 40
9.0
 40
9.0
 40
10.0
 40
10.0
 40
10.0
 40
10.0
 10
4.119564644828086
 20
6.527187823985287
 30
0.0
 10
4.119564644828086
 20
6.527187823985287
 30
0.0
 10
4.081870694786858
 20
6.46813396892066
 30
0.0
 10
4.081870694786858
 20
6.46813396892066
 30
0.0
 10
4.081870694786858
 20
6.46813396892066
 30
0.0
 10
3.550391214025896
 20
6.2872030087227
 30
0.0
 10
3.550391214025896
 20
6.2872030087227
 30
0.0
 10
3.550391214025896
 20
6.2872030087227
 30
0.0
 10
3.513104633496823
 20
6.315670100664255
 30
0.0
 10
3.513104633496823
 20
6.315670100664255
 30
0.0
 10
3.513104633496823
 20
6.315670100664255
 30
0.0
 10
3.513104633496823
 20
6.932174469906916
 30
0.0
 10
3.513104633496823
 20
6.938873980558772
 30
0.0
 10
3.513104633496823
 20
6.945578399277046
 30
0.0
 10
3.511430982850457
 20
6.960655979293531
 30
0.0
 10
3.501379262839464
 20
6.970707699304537
 30
0.0
 10
3.491327542828458
 20
6.980759419315531
 30
0.0
 10
3.206529627194603
 20
7.18347268500242
 30
0.0
 10
3.206529627194603
 20
7.18347268500242
 30
0.0
 10
3.206529627194603
 20
7.18347268500242
 30
0.0
 10
3.810479162556324
 20
7.394141006080089
 30
0.0
 10
3.810479162556324
 20
7.394141006080089
 30
0.0
 10
3.810479162556324
 20
7.394141006080089
 30
0.0
 10
4.094420620601353
 20
7.188493330187359
 30
0.0
 10
4.102803904786557
 20
7.185146028894628
 30
0.0
 10
4.111181974151186
 20
7.18179381953549
 30
0.0
 10
4.124575780634333
 20
7.151638659502496
 30
0.0
 10
4.124575780634333
 20
7.114783988817635
 30
0.0
 10
4.124575780634333
 20
7.077924410066379
 30
0.0
 10
4.119564644828086
 20
6.527187823985287
 30
0.0
 10
4.119564644828086
 20
6.527187823985287
 30
0.0
  0
POLYLINE
  5
112
330
BC
100
AcDbEntity
  8
E5SS
 62
   250
420
  2301728
370
    15
100
AcDb2dPolyline
 66
     1
 10
0.0
 20
0.0
 30
0.0
  0
VERTEX
  5
113
330
112
100
AcDbEntity
  8
E5SS
 62
   250
420
  2301728
370
    15
100
AcDbVertex
100
AcDb2dVertex
 10
3.809635396778225
 20
7.41130991765408
 30
0.0
  0
VERTEX
  5
114
330
112
100
AcDbEntity
  8
E5SS
 62
   250
420
  2301728
370
    15
100
AcDbVertex
100
AcDb2dVertex
 10
3.810484302283473
 20
7.394151096083014
 30
0.0
  0
SEQEND
  5
115
330
112
100
AcDbEntity
  8
E5SS
 62
   250
420
  2301728
370
    15
  0
POLYLINE
  5
116
330
BC
100
AcDbEntity
  8
E5SS
 62
   250
420
  2301728
370
    15
100
AcDb2dPolyline
 66
     1
 10
0.0
 20
0.0
 30
0.0
  0
VERTEX
  5
117
330
116
100
AcDbEntity
  8
E5SS
 62
   250
420
  2301728
370
    15
100
AcDbVertex
100
AcDb2dVertex
 10
4.134652272638164
 20
6.517138525123439
 30
0.0
  0
VERTEX
  5
118
330
116
100
AcDbEntity
  8
E5SS
 62
   250
420
  2301728
370
    15
100
AcDbVertex
100
AcDb2dVertex
 10
4.119574692621642
 20
6.527190245134445
 30
0.0
  0
SEQEND
  5
119
330
116
100
AcDbEntity
  8
E5SS
 62
   250
420
  2301728
370
    15
  0
POLYLINE
  5
11A
330
BC
100
AcDbEntity
  8
E5SS
 62
   250
420
  2301728
370
    15
100
AcDb2dPolyline
 66
     1
 10
0.0
 20
0.0
 30
0.0
  0
VERTEX
  5
11B
330
11A
100
AcDbEntity
  8
E5SS
 62
   250
420
  2301728
370
    15
100
AcDbVertex
100
AcDb2dVertex
 10
4.081880742580412
 20
6.468136390069831
 30
0.0
  0
VERTEX
  5
11C
330
11A
100
AcDbEntity
  8
E5SS
 62
   250
420
  2301728
370
    15
100
AcDbVertex
100
AcDb2dVertex
 10
4.096958322596921
 20
6.458084670058825
 30
0.0
  0
SEQEND
  5
11D
330
11A
100
AcDbEntity
  8
E5SS
 62
   250
420
  2301728
370
    15
  0
SPLINE
  5
11E
330
BC
100
AcDbEntity
  8
E5SS
 62
   250
420
  2301728
370
    20
100
AcDbSpline
210
0.0
220
0.0
230
1.0
 70
    11
 71
     3
 72
    17
 73
    13
 74
     0
 42
0.0000000001
 43
0.0000000001
 12
1.0
 22
0.0
 32
0.0
 13
1.0
 23
0.0
 33
0.0
 40
0.0
 40
0.0
 40
0.0
 40
0.0
 40
1.0
 40
1.0
 40
1.0
 40
2.0
 40
2.0
 40
2.0
 40
3.0
 40
3.0
 40
3.0
 40
4.0
 40
4.0
 40
4.0
 40
4.0
 10
3.598190646698842
 20
6.652713500959142
 30
0.0
 10
3.606909508416126
 20
6.671874591746056
 30
0.0
 10
3.601942451098175
 20
6.691526206457133
 30
0.0
 10
3.587100584290864
 20
6.696601319762458
 30
0.0
 10
3.57224866576381
 20
6.701676433067809
 30
0.0
 10
3.553146880123462
 20
6.690255115380321
 30
0.0
 10
3.544427546772972
 20
6.671099101566798
 30
0.0
 10
3.535703628243027
 20
6.651937958698404
 30
0.0
 10
3.540670182974988
 20
6.632290919342709
 30
0.0
 10
3.555517075642178
 20
6.627206256903605
 30
0.0
 10
3.570359445035466
 20
6.622141195318009
 30
0.0
 10
3.589473795325514
 20
6.633552410172241
 30
0.0
 10
3.598190646698842
 20
6.652713500959142
 30
0.0
  0
HATCH
  5
11F
330
BC
100
AcDbEntity
  8
E5SS
 62
   254
420
 13358815
100
AcDbHatch
 10
0.0
 20
0.0
 30
0.0
210
0.0
220
0.0
230
1.0
  2
SOLID
 70
     1
 71
     0
 91
        1
 92
        1
 93
        1
 72
     4
 94
        3
 73
     0
 74
     1
 95
       17
 96
       13
 40
0.0
 40
0.0
 40
0.0
 40
0.0
 40
1.0
 40
1.0
 40
1.0
 40
2.0
 40
2.0
 40
2.0
 40
3.0
 40
3.0
 40
3.0
 40
4.0
 40
4.0
 40
4.0
 40
4.0
 10
3.598190646698842
 20
6.652713500959142
 10
3.606909508416126
 20
6.671874591746056
 10
3.601942451098175
 20
6.691526206457133
 10
3.587100584290864
 20
6.696601319762458
 10
3.57224866576381
 20
6.701676433067809
 10
3.553146880123462
 20
6.690255115380321
 10
3.544427546772972
 20
6.671099101566798
 10
3.535703628243027
 20
6.651937958698404
 10
3.540670182974988
 20
6.632290919342709
 10
3.555517075642178
 20
6.627206256903605
 10
3.570359445035466
 20
6.622141195318009
 10
3.589473795325514
 20
6.633552410172241
 10
3.598190646698842
 20
6.652713500959142
 97
        0
 97
        0
 75
     2
 76
     1
 98
        0
  0
SPLINE
  5
120
330
BC
100
AcDbEntity
  8
E5SS
 62
   250
420
  2301728
370
    20
100
AcDbSpline
210
0.0
220
0.0
230
1.0
 70
    11
 71
     3
 72
    17
 73
    13
 74
     0
 42
0.0000000001
 43
0.0000000001
 12
1.0
 22
0.0
 32
0.0
 13
1.0
 23
0.0
 33
0.0
 40
0.0
 40
0.0
 40
0.0
 40
0.0
 40
1.0
 40
1.0
 40
1.0
 40
2.0
 40
2.0
 40
2.0
 40
3.0
 40
3.0
 40
3.0
 40
4.0
 40
4.0
 40
4.0
 40
4.0
 10
3.672322079907227
 20
6.439705497243115
 30
0.0
 10
3.681040941624512
 20
6.458862064756153
 30
0.0
 10
3.676073884306561
 20
6.478513679467205
 30
0.0
 10
3.661232017499262
 20
6.48358627984261
 30
0.0
 10
3.646380098972208
 20
6.488663906077893
 30
0.0
 10
3.627278313331847
 20
6.477242639503932
 30
0.0
 10
3.618558981854082
 20
6.458084061646938
 30
0.0
 10
3.609835061451412
 20
6.438922970860024
 30
0.0
 10
3.614801616183386
 20
6.419275821463846
 30
0.0
 10
3.629648508850575
 20
6.414196242843635
 30
0.0
 10
3.644490878243864
 20
6.409126155398162
 30
0.0
 10
3.663605228533899
 20
6.420542338185239
 30
0.0
 10
3.672322079907227
 20
6.439705497243115
 30
0.0
  0
HATCH
  5
121
330
BC
100
AcDbEntity
  8
E5SS
 62
   254
420
 13358815
100
AcDbHatch
 10
0.0
 20
0.0
 30
0.0
210
0.0
220
0.0
230
1.0
  2
SOLID
 70
     1
 71
     0
 91
        1
 92
        1
 93
        1
 72
     4
 94
        3
 73
     0
 74
     1
 95
       17
 96
       13
 40
0.0
 40
0.0
 40
0.0
 40
0.0
 40
1.0
 40
1.0
 40
1.0
 40
2.0
 40
2.0
 40
2.0
 40
3.0
 40
3.0
 40
3.0
 40
4.0
 40
4.0
 40
4.0
 40
4.0
 10
3.672322079907227
 20
6.439705497243115
 10
3.681040941624512
 20
6.458862064756153
 10
3.676073884306561
 20
6.478513679467205
 10
3.661232017499262
 20
6.48358627984261
 10
3.646380098972208
 20
6.488663906077893
 10
3.627278313331847
 20
6.477242639503932
 10
3.618558981854082
 20
6.458084061646938
 10
3.609835061451412
 20
6.438922970860024
 10
3.614801616183386
 20
6.419275821463846
 10
3.629648508850575
 20
6.414196242843635
 10
3.644490878243864
 20
6.409126155398162
 10
3.663605228533899
 20
6.420542338185239
 10
3.672322079907227
 20
6.439705497243115
 97
        0
 97
        0
 75
     2
 76
     1
 98
        0
  0
SPLINE
  5
122
330
BC
100
AcDbEntity
  8
E5SS
 62
   250
420
  2301728
370
    20
100
AcDbSpline
210
0.0
220
0.0
230
1.0
 70
    11
 71
     3
 72
    17
 73
    13
 74
     0
 42
0.0000000001
 43
0.0000000001
 12
1.0
 22
0.0
 32
0.0
 13
1.0
 23
0.0
 33
0.0
 40
0.0
 40
0.0
 40
0.0
 40
0.0
 40
1.0
 40
1.0
 40
1.0
 40
2.0
 40
2.0
 40
2.0
 40
3.0
 40
3.0
 40
3.0
 40
4.0
 40
4.0
 40
4.0
 40
4.0
 10
3.99774650704238
 20
6.547280509841256
 30
0.0
 10
4.006462855829719
 20
6.566437077354268
 30
0.0
 10
4.001496301097745
 20
6.586088692065332
 30
0.0
 10
3.986653931704457
 20
6.591161292440725
 30
0.0
 10
3.971802013177403
 20
6.596236352257468
 30
0.0
 10
3.952700227537055
 20
6.584817598324977
 30
0.0
 10
3.943983417210145
 20
6.565659019983993
 30
0.0
 10
3.93525697565662
 20
6.546497983458165
 30
0.0
 10
3.940223530388594
 20
6.526850892020989
 30
0.0
 10
3.955070464382263
 20
6.52177125544175
 30
0.0
 10
3.969912792449059
 20
6.516701167996289
 30
0.0
 10
3.989029655669039
 20
6.528114895780454
 30
0.0
 10
3.99774650704238
 20
6.547280509841256
 30
0.0
  0
HATCH
  5
123
330
BC
100
AcDbEntity
  8
E5SS
 62
   254
420
 13358815
100
AcDbHatch
 10
0.0
 20
0.0
 30
0.0
210
0.0
220
0.0
230
1.0
  2
SOLID
 70
     1
 71
     0
 91
        1
 92
        1
 93
        1
 72
     4
 94
        3
 73
     0
 74
     1
 95
       17
 96
       13
 40
0.0
 40
0.0
 40
0.0
 40
0.0
 40
1.0
 40
1.0
 40
1.0
 40
2.0
 40
2.0
 40
2.0
 40
3.0
 40
3.0
 40
3.0
 40
4.0
 40
4.0
 40
4.0
 40
4.0
 10
3.99774650704238
 20
6.547280509841256
 10
4.006462855829719
 20
6.566437077354268
 10
4.001496301097745
 20
6.586088692065332
 10
3.986653931704457
 20
6.591161292440725
 10
3.971802013177403
 20
6.596236352257468
 10
3.952700227537055
 20
6.584817598324977
 10
3.943983417210145
 20
6.565659019983993
 10
3.93525697565662
 20
6.546497983458165
 10
3.940223530388594
 20
6.526850892020989
 10
3.955070464382263
 20
6.52177125544175
 10
3.969912792449059
 20
6.516701167996289
 10
3.989029655669039
 20
6.528114895780454
 10
3.99774650704238
 20
6.547280509841256
 97
        0
 97
        0
 75
     2
 76
     1
 98
        0
  0
SPLINE
  5
124
330
BC
100
AcDbEntity
  8
E5SS
 62
   250
420
  2301728
370
    20
100
AcDbSpline
210
0.0
220
0.0
230
1.0
 70
    11
 71
     3
 72
    17
 73
    13
 74
     0
 42
0.0000000001
 43
0.0000000001
 12
1.0
 22
0.0
 32
0.0
 13
1.0
 23
0.0
 33
0.0
 40
0.0
 40
0.0
 40
0.0
 40
0.0
 40
1.0
 40
1.0
 40
1.0
 40
2.0
 40
2.0
 40
2.0
 40
3.0
 40
3.0
 40
3.0
 40
4.0
 40
4.0
 40
4.0
 40
4.0
 10
4.065595615402597
 20
6.807361722351616
 30
0.0
 10
4.074311964189948
 20
6.826522813138517
 30
0.0
 10
4.069345409457987
 20
6.846174427849582
 30
0.0
 10
4.054503040064686
 20
6.85124954115492
 30
0.0
 10
4.039651121537619
 20
6.856324607542028
 30
0.0
 10
4.020549335897259
 20
6.844903387886309
 30
0.0
 10
4.011832527284367
 20
6.825747275268579
 30
0.0
 10
4.003106084016837
 20
6.806586232172346
 30
0.0
 10
4.008072638748811
 20
6.786939140735171
 30
0.0
 10
4.022919574456497
 20
6.781859504155944
 30
0.0
 10
4.037761900809301
 20
6.776789416710471
 30
0.0
 10
4.056878764029269
 20
6.788200631564703
 30
0.0
 10
4.065595615402597
 20
6.807361722351616
 30
0.0
  0
HATCH
  5
125
330
BC
100
AcDbEntity
  8
E5SS
 62
   254
420
 13358815
100
AcDbHatch
 10
0.0
 20
0.0
 30
0.0
210
0.0
220
0.0
230
1.0
  2
SOLID
 70
     1
 71
     0
 91
        1
 92
        1
 93
        1
 72
     4
 94
        3
 73
     0
 74
     1
 95
       17
 96
       13
 40
0.0
 40
0.0
 40
0.0
 40
0.0
 40
1.0
 40
1.0
 40
1.0
 40
2.0
 40
2.0
 40
2.0
 40
3.0
 40
3.0
 40
3.0
 40
4.0
 40
4.0
 40
4.0
 40
4.0
 10
4.065595615402597
 20
6.807361722351616
 10
4.074311964189948
 20
6.826522813138517
 10
4.069345409457987
 20
6.846174427849582
 10
4.054503040064686
 20
6.85124954115492
 10
4.039651121537619
 20
6.856324607542028
 10
4.020549335897259
 20
6.844903387886309
 10
4.011832527284367
 20
6.825747275268579
 10
4.003106084016837
 20
6.806586232172346
 10
4.008072638748811
 20
6.786939140735171
 10
4.022919574456497
 20
6.781859504155944
 10
4.037761900809301
 20
6.776789416710471
 10
4.056878764029269
 20
6.788200631564703
 10
4.065595615402597
 20
6.807361722351616
 97
        0
 97
        0
 75
     2
 76
     1
 98
        0
  0
SPLINE
  5
126
330
BC
100
AcDbEntity
  8
E5SS
 62
   250
420
  2301728
370
    20
100
AcDbSpline
210
0.0
220
0.0
230
1.0
 70
    11
 71
     3
 72
    17
 73
    13
 74
     0
 42
0.0000000001
 43
0.0000000001
 12
1.0
 22
0.0
 32
0.0
 13
1.0
 23
0.0
 33
0.0
 40
0.0
 40
0.0
 40
0.0
 40
0.0
 40
1.0
 40
1.0
 40
1.0
 40
2.0
 40
2.0
 40
2.0
 40
3.0
 40
3.0
 40
3.0
 40
4.0
 40
4.0
 40
4.0
 40
4.0
 10
3.803220389165782
 20
7.258717775664902
 30
0.0
 10
3.780974425585416
 20
7.253613512372251
 30
0.0
 10
3.767730279633509
 20
7.238585186163466
 30
0.0
 10
3.773637172748749
 20
7.225171166147649
 30
0.0
 10
3.779531501214289
 20
7.2117380478643
 30
0.0
 10
3.802353930922727
 20
7.204999374939158
 30
0.0
 10
3.824589842783325
 20
7.210089025101625
 30
0.0
 10
3.846828267573856
 20
7.215193326530803
 30
0.0
 10
3.860080454901587
 20
7.23021662687971
 30
0.0
 10
3.85417607471628
 20
7.243645221889172
 30
0.0
 10
3.848276217804874
 20
7.257063765178865
 30
0.0
 10
3.825458813956339
 20
7.263812489823762
 30
0.0
 10
3.803220389165782
 20
7.258717775664902
 30
0.0
  0
HATCH
  5
127
330
BC
100
AcDbEntity
  8
E5SS
 62
   254
420
 13358815
100
AcDbHatch
 10
0.0
 20
0.0
 30
0.0
210
0.0
220
0.0
230
1.0
  2
SOLID
 70
     1
 71
     0
 91
        1
 92
        1
 93
        1
 72
     4
 94
        3
 73
     0
 74
     1
 95
       17
 96
       13
 40
0.0
 40
0.0
 40
0.0
 40
0.0
 40
1.0
 40
1.0
 40
1.0
 40
2.0
 40
2.0
 40
2.0
 40
3.0
 40
3.0
 40
3.0
 40
4.0
 40
4.0
 40
4.0
 40
4.0
 10
3.803220389165782
 20
7.258717775664902
 10
3.780974425585416
 20
7.253613512372251
 10
3.767730279633509
 20
7.238585186163466
 10
3.773637172748749
 20
7.225171166147649
 10
3.779531501214289
 20
7.2117380478643
 10
3.802353930922727
 20
7.204999374939158
 10
3.824589842783325
 20
7.210089025101625
 10
3.846828267573856
 20
7.215193326530803
 10
3.860080454901587
 20
7.23021662687971
 10
3.85417607471628
 20
7.243645221889172
 10
3.848276217804874
 20
7.257063765178865
 10
3.825458813956339
 20
7.263812489823762
 10
3.803220389165782
 20
7.258717775664902
 97
        0
 97
        0
 75
     2
 76
     1
 98
        0
  0
SPLINE
  5
128
330
BC
100
AcDbEntity
  8
E5SS
 62
   250
420
  2301728
370
    20
100
AcDbSpline
210
0.0
220
0.0
230
1.0
 70
    11
 71
     3
 72
    17
 73
    13
 74
     0
 42
0.0000000001
 43
0.0000000001
 12
1.0
 22
0.0
 32
0.0
 13
1.0
 23
0.0
 33
0.0
 40
0.0
 40
0.0
 40
0.0
 40
0.0
 40
1.0
 40
1.0
 40
1.0
 40
2.0
 40
2.0
 40
2.0
 40
3.0
 40
3.0
 40
3.0
 40
4.0
 40
4.0
 40
4.0
 40
4.0
 10
3.951483255582565
 20
7.223536756515159
 30
0.0
 10
3.929234779072266
 20
7.218432493222508
 30
0.0
 10
3.915993146050293
 20
7.20340416701371
 30
0.0
 10
3.921897566885364
 20
7.189990146997906
 30
0.0
 10
3.927791854701139
 20
7.176557028714556
 30
0.0
 10
3.950614284409564
 20
7.169818355789415
 30
0.0
 10
3.972852709200108
 20
7.174908005063141
 30
0.0
 10
3.995091133990639
 20
7.180012307381061
 30
0.0
 10
4.008343321318358
 20
7.195035607729955
 30
0.0
 10
4.002438941133075
 20
7.208464202739416
 30
0.0
 10
3.996539084221644
 20
7.221882746029122
 30
0.0
 10
3.973716654513232
 20
7.228631470674018
 30
0.0
 10
3.951483255582565
 20
7.223536756515159
 30
0.0
  0
HATCH
  5
129
330
BC
100
AcDbEntity
  8
E5SS
 62
   254
420
 13358815
100
AcDbHatch
 10
0.0
 20
0.0
 30
0.0
210
0.0
220
0.0
230
1.0
  2
SOLID
 70
     1
 71
     0
 91
        1
 92
        1
 93
        1
 72
     4
 94
        3
 73
     0
 74
     1
 95
       17
 96
       13
 40
0.0
 40
0.0
 40
0.0
 40
0.0
 40
1.0
 40
1.0
 40
1.0
 40
2.0
 40
2.0
 40
2.0
 40
3.0
 40
3.0
 40
3.0
 40
4.0
 40
4.0
 40
4.0
 40
4.0
 10
3.951483255582565
 20
7.223536756515159
 10
3.929234779072266
 20
7.218432493222508
 10
3.915993146050293
 20
7.20340416701371
 10
3.921897566885364
 20
7.189990146997906
 10
3.927791854701139
 20
7.176557028714556
 10
3.950614284409564
 20
7.169818355789415
 10
3.972852709200108
 20
7.174908005063141
 10
3.995091133990639
 20
7.180012307381061
 10
4.008343321318358
 20
7.195035607729955
 10
4.002438941133075
 20
7.208464202739416
 10
3.996539084221644
 20
7.221882746029122
 10
3.973716654513232
 20
7.228631470674018
 10
3.951483255582565
 20
7.223536756515159
 97
        0
 97
        0
 75
     2
 76
     1
 98
        0
  0
SPLINE
  5
12A
330
BC
100
AcDbEntity
  8
E5SS
 62
   250
420
  2301728
370
    20
100
AcDbSpline
210
0.0
220
0.0
230
1.0
 70
    11
 71
     3
 72
    17
 73
    13
 74
     0
 42
0.0000000001
 43
0.0000000001
 12
1.0
 22
0.0
 32
0.0
 13
1.0
 23
0.0
 33
0.0
 40
0.0
 40
0.0
 40
0.0
 40
0.0
 40
1.0
 40
1.0
 40
1.0
 40
2.0
 40
2.0
 40
2.0
 40
3.0
 40
3.0
 40
3.0
 40
4.0
 40
4.0
 40
4.0
 40
4.0
 10
3.484078286878811
 20
7.065222170341295
 30
0.0
 10
3.461832323298444
 20
7.060117907048657
 30
0.0
 10
3.448588177346525
 20
7.04508958083986
 30
0.0
 10
3.454495070461765
 20
7.031675560824042
 30
0.0
 10
3.460389398927317
 20
7.018242442540705
 30
0.0
 10
3.48321182863573
 20
7.011503769615564
 30
0.0
 10
3.505450253426286
 20
7.016593414889914
 30
0.0
 10
3.52768867821683
 20
7.021697721207197
 30
0.0
 10
3.540938352614615
 20
7.036721021556104
 30
0.0
 10
3.535035982773252
 20
7.050149616565565
 30
0.0
 10
3.529136659175644
 20
7.063568159855271
 30
0.0
 10
3.506316711669342
 20
7.070316884500167
 30
0.0
 10
3.484078286878811
 20
7.065222170341295
 30
0.0
  0
HATCH
  5
12B
330
BC
100
AcDbEntity
  8
E5SS
 62
   254
420
 13358815
100
AcDbHatch
 10
0.0
 20
0.0
 30
0.0
210
0.0
220
0.0
230
1.0
  2
SOLID
 70
     1
 71
     0
 91
        1
 92
        1
 93
        1
 72
     4
 94
        3
 73
     0
 74
     1
 95
       17
 96
       13
 40
0.0
 40
0.0
 40
0.0
 40
0.0
 40
1.0
 40
1.0
 40
1.0
 40
2.0
 40
2.0
 40
2.0
 40
3.0
 40
3.0
 40
3.0
 40
4.0
 40
4.0
 40
4.0
 40
4.0
 10
3.484078286878811
 20
7.065222170341295
 10
3.461832323298444
 20
7.060117907048657
 10
3.448588177346525
 20
7.04508958083986
 10
3.454495070461765
 20
7.031675560824042
 10
3.460389398927317
 20
7.018242442540705
 10
3.48321182863573
 20
7.011503769615564
 10
3.505450253426286
 20
7.016593414889914
 10
3.52768867821683
 20
7.021697721207197
 10
3.540938352614615
 20
7.036721021556104
 10
3.535035982773252
 20
7.050149616565565
 10
3.529136659175644
 20
7.063568159855271
 10
3.506316711669342
 20
7.070316884500167
 10
3.484078286878811
 20
7.065222170341295
 97
        0
 97
        0
 75
     2
 76
     1
 98
        0
  0
SPLINE
  5
12C
330
BC
100
AcDbEntity
  8
E5SS
 62
   250
420
  2301728
370
    20
100
AcDbSpline
210
0.0
220
0.0
230
1.0
 70
    11
 71
     3
 72
    17
 73
    13
 74
     0
 42
0.0000000001
 43
0.0000000001
 12
1.0
 22
0.0
 32
0.0
 13
1.0
 23
0.0
 33
0.0
 40
0.0
 40
0.0
 40
0.0
 40
0.0
 40
1.0
 40
1.0
 40
1.0
 40
2.0
 40
2.0
 40
2.0
 40
3.0
 40
3.0
 40
3.0
 40
4.0
 40
4.0
 40
4.0
 40
4.0
 10
3.47402656712173
 20
7.144379463428221
 30
0.0
 10
3.451780603541376
 20
7.139275200135582
 30
0.0
 10
3.438536457589457
 20
7.124246873926798
 30
0.0
 10
3.444443350704697
 20
7.11083285391098
 30
0.0
 10
3.45033767917025
 20
7.097399735627631
 30
0.0
 10
3.473160108878675
 20
7.090661062702489
 30
0.0
 10
3.495398533669218
 20
7.095750709976528
 30
0.0
 10
3.517636958459762
 20
7.10085501429411
 30
0.0
 10
3.530886632857548
 20
7.115878314643042
 30
0.0
 10
3.524984263016197
 20
7.129306909652491
 30
0.0
 10
3.519084939164637
 20
7.142725452942196
 30
0.0
 10
3.496264991912274
 20
7.149474177587093
 30
0.0
 10
3.47402656712173
 20
7.144379463428221
 30
0.0
  0
HATCH
  5
12D
330
BC
100
AcDbEntity
  8
E5SS
 62
   254
420
 13358815
100
AcDbHatch
 10
0.0
 20
0.0
 30
0.0
210
0.0
220
0.0
230
1.0
  2
SOLID
 70
     1
 71
     0
 91
        1
 92
        1
 93
        1
 72
     4
 94
        3
 73
     0
 74
     1
 95
       17
 96
       13
 40
0.0
 40
0.0
 40
0.0
 40
0.0
 40
1.0
 40
1.0
 40
1.0
 40
2.0
 40
2.0
 40
2.0
 40
3.0
 40
3.0
 40
3.0
 40
4.0
 40
4.0
 40
4.0
 40
4.0
 10
3.47402656712173
 20
7.144379463428221
 10
3.451780603541376
 20
7.139275200135582
 10
3.438536457589457
 20
7.124246873926798
 10
3.444443350704697
 20
7.11083285391098
 10
3.45033767917025
 20
7.097399735627631
 10
3.473160108878675
 20
7.090661062702489
 10
3.495398533669218
 20
7.095750709976528
 10
3.517636958459762
 20
7.10085501429411
 10
3.530886632857548
 20
7.115878314643042
 10
3.524984263016197
 20
7.129306909652491
 10
3.519084939164637
 20
7.142725452942196
 10
3.496264991912274
 20
7.149474177587093
 10
3.47402656712173
 20
7.144379463428221
 97
        0
 97
        0
 75
     2
 76
     1
 98
        0
  0
SPLINE
  5
12E
330
BC
100
AcDbEntity
  8
E5SS
 62
   250
420
  2301728
370
    20
100
AcDbSpline
210
0.0
220
0.0
230
1.0
 70
    11
 71
     3
 72
    17
 73
    13
 74
     0
 42
0.0000000001
 43
0.0000000001
 12
1.0
 22
0.0
 32
0.0
 13
1.0
 23
0.0
 33
0.0
 40
0.0
 40
0.0
 40
0.0
 40
0.0
 40
1.0
 40
1.0
 40
1.0
 40
2.0
 40
2.0
 40
2.0
 40
3.0
 40
3.0
 40
3.0
 40
4.0
 40
4.0
 40
4.0
 40
4.0
 10
3.301890866281913
 20
7.194638062213571
 30
0.0
 10
3.279644902701547
 20
7.189533798920934
 30
0.0
 10
3.266400756749628
 20
7.174505472712136
 30
0.0
 10
3.272307649864855
 20
7.161091452696332
 30
0.0
 10
3.278201978330419
 20
7.147658334412982
 30
0.0
 10
3.301024408038857
 20
7.140919661487828
 30
0.0
 10
3.323262832829401
 20
7.146009310031533
 30
0.0
 10
3.345501257619933
 20
7.151113613079461
 30
0.0
 10
3.358750932017705
 20
7.166136913428367
 30
0.0
 10
3.352848562176367
 20
7.179565508437841
 30
0.0
 10
3.346949233976311
 20
7.192984051727535
 30
0.0
 10
3.324129291072444
 20
7.199732776372444
 30
0.0
 10
3.301890866281913
 20
7.194638062213571
 30
0.0
  0
HATCH
  5
12F
330
BC
100
AcDbEntity
  8
E5SS
 62
   254
420
 13358815
100
AcDbHatch
 10
0.0
 20
0.0
 30
0.0
210
0.0
220
0.0
230
1.0
  2
SOLID
 70
     1
 71
     0
 91
        1
 92
        1
 93
        1
 72
     4
 94
        3
 73
     0
 74
     1
 95
       17
 96
       13
 40
0.0
 40
0.0
 40
0.0
 40
0.0
 40
1.0
 40
1.0
 40
1.0
 40
2.0
 40
2.0
 40
2.0
 40
3.0
 40
3.0
 40
3.0
 40
4.0
 40
4.0
 40
4.0
 40
4.0
 10
3.301890866281913
 20
7.194638062213571
 10
3.279644902701547
 20
7.189533798920934
 10
3.266400756749628
 20
7.174505472712136
 10
3.272307649864855
 20
7.161091452696332
 10
3.278201978330419
 20
7.147658334412982
 10
3.301024408038857
 20
7.140919661487828
 10
3.323262832829401
 20
7.146009310031533
 10
3.345501257619933
 20
7.151113613079461
 10
3.358750932017705
 20
7.166136913428367
 10
3.352848562176367
 20
7.179565508437841
 10
3.346949233976311
 20
7.192984051727535
 10
3.324129291072444
 20
7.199732776372444
 10
3.301890866281913
 20
7.194638062213571
 97
        0
 97
        0
 75
     2
 76
     1
 98
        0
  0
SPLINE
  5
130
330
BC
100
AcDbEntity
  8
E5SS
 62
   250
420
  2301728
370
    20
100
AcDbSpline
210
0.0
220
0.0
230
1.0
 70
    11
 71
     3
 72
    17
 73
    13
 74
     0
 42
0.0000000001
 43
0.0000000001
 12
1.0
 22
0.0
 32
0.0
 13
1.0
 23
0.0
 33
0.0
 40
0.0
 40
0.0
 40
0.0
 40
0.0
 40
1.0
 40
1.0
 40
1.0
 40
2.0
 40
2.0
 40
2.0
 40
3.0
 40
3.0
 40
3.0
 40
4.0
 40
4.0
 40
4.0
 40
4.0
 10
3.765526440076756
 20
7.352952648387422
 30
0.0
 10
3.743280476496415
 20
7.347848385094797
 30
0.0
 10
3.730036330544496
 20
7.332820058886
 30
0.0
 10
3.735943223659736
 20
7.319406038870182
 30
0.0
 10
3.741837552125276
 20
7.305972920586832
 30
0.0
 10
3.764659981833713
 20
7.299234247661691
 30
0.0
 10
3.786898406624244
 20
7.304323900204736
 30
0.0
 10
3.809136831414788
 20
7.309428199253325
 30
0.0
 10
3.822386505812574
 20
7.324451499602244
 30
0.0
 10
3.816482125627267
 20
7.337880094611705
 30
0.0
 10
3.81058226871586
 20
7.351298637901398
 30
0.0
 10
3.787764864867313
 20
7.358047362546294
 30
0.0
 10
3.765526440076756
 20
7.352952648387422
 30
0.0
  0
HATCH
  5
131
330
BC
100
AcDbEntity
  8
E5SS
 62
   254
420
 13358815
100
AcDbHatch
 10
0.0
 20
0.0
 30
0.0
210
0.0
220
0.0
230
1.0
  2
SOLID
 70
     1
 71
     0
 91
        1
 92
        1
 93
        1
 72
     4
 94
        3
 73
     0
 74
     1
 95
       17
 96
       13
 40
0.0
 40
0.0
 40
0.0
 40
0.0
 40
1.0
 40
1.0
 40
1.0
 40
2.0
 40
2.0
 40
2.0
 40
3.0
 40
3.0
 40
3.0
 40
4.0
 40
4.0
 40
4.0
 40
4.0
 10
3.765526440076756
 20
7.352952648387422
 10
3.743280476496415
 20
7.347848385094797
 10
3.730036330544496
 20
7.332820058886
 10
3.735943223659736
 20
7.319406038870182
 10
3.741837552125276
 20
7.305972920586832
 10
3.764659981833713
 20
7.299234247661691
 10
3.786898406624244
 20
7.304323900204736
 10
3.809136831414788
 20
7.309428199253325
 10
3.822386505812574
 20
7.324451499602244
 10
3.816482125627267
 20
7.337880094611705
 10
3.81058226871586
 20
7.351298637901398
 10
3.787764864867313
 20
7.358047362546294
 10
3.765526440076756
 20
7.352952648387422
 97
        0
 97
        0
 75
     2
 76
     1
 98
        0
  0
SPLINE
  5
132
330
BC
100
AcDbEntity
  8
E5SS
 62
   250
420
  2301728
370
    15
100
AcDbSpline
210
0.0
220
0.0
230
1.0
 70
    11
 71
     3
 72
    44
 73
    40
 74
     0
 42
0.0000000001
 43
0.0000000001
 12
1.0
 22
0.0
 32
0.0
 13
1.0
 23
0.0
 33
0.0
 40
0.0
 40
0.0
 40
0.0
 40
0.0
 40
1.0
 40
1.0
 40
1.0
 40
2.0
 40
2.0
 40
2.0
 40
3.0
 40
3.0
 40
3.0
 40
4.0
 40
4.0
 40
4.0
 40
5.0
 40
5.0
 40
5.0
 40
6.0
 40
6.0
 40
6.0
 40
7.0
 40
7.0
 40
7.0
 40
8.0
 40
8.0
 40
8.0
 40
9.0
 40
9.0
 40
9.0
 40
10.0
 40
10.0
 40
10.0
 40
11.0
 40
11.0
 40
11.0
 40
12.0
 40
12.0
 40
12.0
 40
13.0
 40
13.0
 40
13.0
 40
13.0
 10
3.914705633856884
 20
6.724533812296904
 30
0.0
 10
3.91023867991401
 20
6.733597783942564
 30
0.0
 10
3.903462787478613
 20
6.73701993324807
 30
0.0
 10
3.903462787478613
 20
6.73701993324807
 30
0.0
 10
3.903462787478613
 20
6.73701993324807
 30
0.0
 10
3.888385207462129
 20
6.7407893282522
 30
0.0
 10
3.870794697442875
 20
6.734507003245325
 30
0.0
 10
3.85320418742362
 20
6.728224678238424
 30
0.0
 10
3.774044131549658
 20
6.705608308213691
 30
0.0
 10
3.765251637327399
 20
6.699325983206815
 30
0.0
 10
3.761384694503338
 20
6.69656488909613
 30
0.0
 10
3.752422565235722
 20
6.689486843822287
 30
0.0
 10
3.743909830798922
 20
6.679413651020733
 30
0.0
 10
3.740716213335708
 20
6.67592156176886
 30
0.0
 10
3.737521062101728
 20
6.671687740980537
 30
0.0
 10
3.734686960503167
 20
6.666599916636591
 30
0.0
 10
3.728115366332177
 20
6.655726709009943
 30
0.0
 10
3.723564054997849
 20
6.642890888326974
 30
0.0
 10
3.725044757283412
 20
6.628963943129848
 30
0.0
 10
3.726237724175563
 20
6.617725698063825
 30
0.0
 10
3.730209576919176
 20
6.610726181852568
 30
0.0
 10
3.735072550470641
 20
6.606381929569983
 30
0.0
 10
3.735081139586858
 20
6.606370272912247
 30
0.0
 10
3.735087888178188
 20
6.606359229762814
 30
0.0
 10
3.735096477294392
 20
6.60634757310509
 30
0.0
 10
3.735096477294392
 20
6.60634757310509
 30
0.0
 10
3.71373411823783
 20
6.611373433110593
 30
0.0
 10
3.71373411823783
 20
6.639015663140841
 30
0.0
 10
3.711221188235072
 20
6.659119103162841
 30
0.0
 10
3.723785838248823
 20
6.693671890700645
 30
0.0
 10
3.761479481535919
 20
6.708121238216449
 30
0.0
 10
3.796776147889229
 20
6.721647869246882
 30
0.0
 10
3.860742977431881
 20
6.744558723256305
 30
0.0
 10
3.872045947623683
 20
6.747071653259063
 30
0.0
 10
3.883359347456626
 20
6.749584583261808
 30
0.0
 10
3.910373344986182
 20
6.742674025754253
 30
0.0
 10
3.915399204991672
 20
6.723827050733625
 30
0.0
 10
3.915399204991672
 20
6.723827050733625
 30
0.0
 10
3.915166685345437
 20
6.724097607894564
 30
0.0
 10
3.914705633856884
 20
6.724533812296904
 30
0.0
  0
ENDBLK
  5
BF
330
BC
100
AcDbEntity
  8
0
100
AcDbBlockEnd
  0
BLOCK
  5
CD
330
CB
100
AcDbEntity
  8
0
100
AcDbBlockBegin
  2
block 5
 70
     0
 10
0.0
 20
0.0
 30
0.0
  3
block 5
  1

  0
SPLINE
  5
CF
330
CB
100
AcDbEntity
  8
E5SS
 62
   250
420
  2301728
370
    15
100
AcDbSpline
210
0.0
220
0.0
230
1.0
 70
    11
 71
     3
 72
    17
 73
    13
 74
     0
 42
0.0000000001
 43
0.0000000001
 12
1.0
 22
0.0
 32
0.0
 13
1.0
 23
0.0
 33
0.0
 40
0.0
 40
0.0
 40
0.0
 40
0.0
 40
1.0
 40
1.0
 40
1.0
 40
2.0
 40
2.0
 40
2.0
 40
3.0
 40
3.0
 40
3.0
 40
4.0
 40
4.0
 40
4.0
 40
4.0
 10
3.606254930245516
 20
6.647546074664723
 30
0.0
 10
3.6149737919628
 20
6.666707165451637
 30
0.0
 10
3.610006734644849
 20
6.686358780162713
 30
0.0
 10
3.59516486783755
 20
6.691433893468039
 30
0.0
 10
3.580312949310496
 20
6.69650900677339
 30
0.0
 10
3.561211163670135
 20
6.685087688927196
 30
0.0
 10
3.552491830621193
 20
6.66593167527238
 30
0.0
 10
3.543767911789725
 20
6.646770532245277
 30
0.0
 10
3.548734466521675
 20
6.62712349304829
 30
0.0
 10
3.563581359188864
 20
6.622038830609186
 30
0.0
 10
3.578423728582152
 20
6.61697376902359
 30
0.0
 10
3.5975380788722
 20
6.628384983877809
 30
0.0
 10
3.606254930245516
 20
6.647546074664723
 30
0.0
  0
ENDBLK
  5
CE
330
CB
100
AcDbEntity
  8
0
100
AcDbBlockEnd
  0
BLOCK
  5
D2
330
D0
100
AcDbEntity
  8
0
100
AcDbBlockBegin
  2
block 6
 70
     0
 10
0.0
 20
0.0
 30
0.0
  3
block 6
  1

  0
SPLINE
  5
D4
330
D0
100
AcDbEntity
  8
E5SS
 62
   250
420
  2301728
370
    15
100
AcDbSpline
210
0.0
220
0.0
230
1.0
 70
    11
 71
     3
 72
    17
 73
    13
 74
     0
 42
0.0000000001
 43
0.0000000001
 12
1.0
 22
0.0
 32
0.0
 13
1.0
 23
0.0
 33
0.0
 40
0.0
 40
0.0
 40
0.0
 40
0.0
 40
1.0
 40
1.0
 40
1.0
 40
2.0
 40
2.0
 40
2.0
 40
3.0
 40
3.0
 40
3.0
 40
4.0
 40
4.0
 40
4.0
 40
4.0
 10
3.680386363453913
 20
6.434538070948697
 30
0.0
 10
3.689105225171197
 20
6.453694638461721
 30
0.0
 10
3.684138167853247
 20
6.473346253172773
 30
0.0
 10
3.669296301045935
 20
6.478418853548192
 30
0.0
 10
3.654444382518881
 20
6.483496479783475
 30
0.0
 10
3.635342596878533
 20
6.4720752132095
 30
0.0
 10
3.626623265702316
 20
6.452916635352519
 30
0.0
 10
3.617899344998111
 20
6.433755544565606
 30
0.0
 10
3.62286589973006
 20
6.414108395010721
 30
0.0
 10
3.637712792397249
 20
6.409028816549203
 30
0.0
 10
3.652555161790537
 20
6.40395872910373
 30
0.0
 10
3.671669512080585
 20
6.415374911732114
 30
0.0
 10
3.680386363453913
 20
6.434538070948697
 30
0.0
  0
ENDBLK
  5
D3
330
D0
100
AcDbEntity
  8
0
100
AcDbBlockEnd
  0
BLOCK
  5
D7
330
D5
100
AcDbEntity
  8
0
100
AcDbBlockBegin
  2
block 7
 70
     0
 10
0.0
 20
0.0
 30
0.0
  3
block 7
  1

  0
SPLINE
  5
D9
330
D5
100
AcDbEntity
  8
E5SS
 62
   250
420
  2301728
370
    15
100
AcDbSpline
210
0.0
220
0.0
230
1.0
 70
    11
 71
     3
 72
    17
 73
    13
 74
     0
 42
0.0000000001
 43
0.0000000001
 12
1.0
 22
0.0
 32
0.0
 13
1.0
 23
0.0
 33
0.0
 40
0.0
 40
0.0
 40
0.0
 40
0.0
 40
1.0
 40
1.0
 40
1.0
 40
2.0
 40
2.0
 40
2.0
 40
3.0
 40
3.0
 40
3.0
 40
4.0
 40
4.0
 40
4.0
 40
4.0
 10
4.005810790589067
 20
6.542113083546824
 30
0.0
 10
4.014527139376406
 20
6.56126965105985
 30
0.0
 10
4.009560584644419
 20
6.580921265770914
 30
0.0
 10
3.994718215251156
 20
6.585993866146307
 30
0.0
 10
3.979866296724089
 20
6.591068925804317
 30
0.0
 10
3.960764511083741
 20
6.579650171871852
 30
0.0
 10
3.952047701058366
 20
6.56049159353088
 30
0.0
 10
3.943321259203306
 20
6.541330557163733
 30
0.0
 10
3.948287813935281
 20
6.521683465726558
 30
0.0
 10
3.963134748230484
 20
6.516603829147331
 30
0.0
 10
3.977977075995745
 20
6.511533741701858
 30
0.0
 10
3.997093939215726
 20
6.522947469486022
 30
0.0
 10
4.005810790589067
 20
6.542113083546824
 30
0.0
  0
ENDBLK
  5
D8
330
D5
100
AcDbEntity
  8
0
100
AcDbBlockEnd
  0
BLOCK
  5
DC
330
DA
100
AcDbEntity
  8
0
100
AcDbBlockBegin
  2
block 8
 70
     0
 10
0.0
 20
0.0
 30
0.0
  3
block 8
  1

  0
SPLINE
  5
DE
330
DA
100
AcDbEntity
  8
E5SS
 62
   250
420
  2301728
370
    15
100
AcDbSpline
210
0.0
220
0.0
230
1.0
 70
    11
 71
     3
 72
    17
 73
    13
 74
     0
 42
0.0000000001
 43
0.0000000001
 12
1.0
 22
0.0
 32
0.0
 13
1.0
 23
0.0
 33
0.0
 40
0.0
 40
0.0
 40
0.0
 40
0.0
 40
1.0
 40
1.0
 40
1.0
 40
2.0
 40
2.0
 40
2.0
 40
3.0
 40
3.0
 40
3.0
 40
4.0
 40
4.0
 40
4.0
 40
4.0
 10
4.07365989894927
 20
6.802194296057185
 30
0.0
 10
4.082376247736621
 20
6.821355386844099
 30
0.0
 10
4.07740969300466
 20
6.84100700155515
 30
0.0
 10
4.06256732361136
 20
6.846082114860501
 30
0.0
 10
4.047715405084293
 20
6.851157181088903
 30
0.0
 10
4.02861361944397
 20
6.839735961591877
 30
0.0
 10
4.019896811132589
 20
6.820579848815441
 30
0.0
 10
4.011170367563535
 20
6.801418805877928
 30
0.0
 10
4.016136922295496
 20
6.781771714440752
 30
0.0
 10
4.030983858304719
 20
6.776692077861526
 30
0.0
 10
4.045826184355974
 20
6.771621990416052
 30
0.0
 10
4.064943047575954
 20
6.783033205270284
 30
0.0
 10
4.07365989894927
 20
6.802194296057185
 30
0.0
  0
ENDBLK
  5
DD
330
DA
100
AcDbEntity
  8
0
100
AcDbBlockEnd
  0
BLOCK
  5
E1
330
DF
100
AcDbEntity
  8
0
100
AcDbBlockBegin
  2
block 9
 70
     0
 10
0.0
 20
0.0
 30
0.0
  3
block 9
  1

  0
SPLINE
  5
E3
330
DF
100
AcDbEntity
  8
E5SS
 62
   250
420
  2301728
370
    15
100
AcDbSpline
210
0.0
220
0.0
230
1.0
 70
    11
 71
     3
 72
    17
 73
    13
 74
     0
 42
0.0000000001
 43
0.0000000001
 12
1.0
 22
0.0
 32
0.0
 13
1.0
 23
0.0
 33
0.0
 40
0.0
 40
0.0
 40
0.0
 40
0.0
 40
1.0
 40
1.0
 40
1.0
 40
2.0
 40
2.0
 40
2.0
 40
3.0
 40
3.0
 40
3.0
 40
4.0
 40
4.0
 40
4.0
 40
4.0
 10
3.802850020935112
 20
7.265766041431586
 30
0.0
 10
3.78060904563573
 20
7.260671327272702
 30
0.0
 10
3.767364397097834
 20
7.245643001063917
 30
0.0
 10
3.773263751423264
 20
7.232219431914333
 30
0.0
 10
3.779173194449224
 20
7.218795862764763
 30
0.0
 10
3.80198855097304
 20
7.212052163979756
 30
0.0
 10
3.824232001623462
 20
7.217156427272382
 30
0.0
 10
3.846455348834373
 20
7.222251141431254
 30
0.0
 10
3.859712059435979
 20
7.237274441780174
 30
0.0
 10
3.853817730970427
 20
7.250708025666072
 30
0.0
 10
3.847908324925255
 20
7.264121580079328
 30
0.0
 10
3.825090921076708
 20
7.270880356443993
 30
0.0
 10
3.802850020935112
 20
7.265766041431586
 30
0.0
  0
ENDBLK
  5
E2
330
DF
100
AcDbEntity
  8
0
100
AcDbBlockEnd
  0
BLOCK
  5
E6
330
E4
100
AcDbEntity
  8
0
100
AcDbBlockBegin
  2
block 10
 70
     0
 10
0.0
 20
0.0
 30
0.0
  3
block 10
  1

  0
SPLINE
  5
E8
330
E4
100
AcDbEntity
  8
E5SS
 62
   250
420
  2301728
370
    15
100
AcDbSpline
210
0.0
220
0.0
230
1.0
 70
    11
 71
     3
 72
    17
 73
    13
 74
     0
 42
0.0000000001
 43
0.0000000001
 12
1.0
 22
0.0
 32
0.0
 13
1.0
 23
0.0
 33
0.0
 40
0.0
 40
0.0
 40
0.0
 40
0.0
 40
1.0
 40
1.0
 40
1.0
 40
2.0
 40
2.0
 40
2.0
 40
3.0
 40
3.0
 40
3.0
 40
4.0
 40
4.0
 40
4.0
 40
4.0
 10
3.951110336843069
 20
7.23058502228183
 30
0.0
 10
3.928871912052525
 20
7.225490308122971
 30
0.0
 10
3.915624750584672
 20
7.210461981914174
 30
0.0
 10
3.921524607496091
 20
7.197038412764591
 30
0.0
 10
3.927433510955287
 20
7.183614843615007
 30
0.0
 10
3.950251417389823
 20
7.176871144830001
 30
0.0
 10
3.972494868040245
 20
7.181975408122639
 30
0.0
 10
3.994718215251156
 20
7.187070122281511
 30
0.0
 10
4.007974925852775
 20
7.202093422630418
 30
0.0
 10
4.002080597387223
 20
7.215527005627589
 30
0.0
 10
3.996171191342038
 20
7.228940560929585
 30
0.0
 10
3.97335378749349
 20
7.235699337294236
 30
0.0
 10
3.951110336843069
 20
7.23058502228183
 30
0.0
  0
ENDBLK
  5
E7
330
E4
100
AcDbEntity
  8
0
100
AcDbBlockEnd
  0
BLOCK
  5
EB
330
E9
100
AcDbEntity
  8
0
100
AcDbBlockBegin
  2
block 11
 70
     0
 10
0.0
 20
0.0
 30
0.0
  3
block 11
  1

  0
SPLINE
  5
ED
330
E9
100
AcDbEntity
  8
E5SS
 62
   250
420
  2301728
370
    15
100
AcDbSpline
210
0.0
220
0.0
230
1.0
 70
    11
 71
     3
 72
    17
 73
    13
 74
     0
 42
0.0000000001
 43
0.0000000001
 12
1.0
 22
0.0
 32
0.0
 13
1.0
 23
0.0
 33
0.0
 40
0.0
 40
0.0
 40
0.0
 40
0.0
 40
1.0
 40
1.0
 40
1.0
 40
2.0
 40
2.0
 40
2.0
 40
3.0
 40
3.0
 40
3.0
 40
4.0
 40
4.0
 40
4.0
 40
4.0
 10
3.48370791058595
 20
7.07227043610798
 30
0.0
 10
3.461466943348783
 20
7.067175721949107
 30
0.0
 10
3.44822229481085
 20
7.052147395740323
 30
0.0
 10
3.45412164913628
 20
7.03872382659074
 30
0.0
 10
3.460031084100036
 20
7.025300257441156
 30
0.0
 10
3.482846448686069
 20
7.018556558656137
 30
0.0
 10
3.50508989933649
 20
7.023660821948775
 30
0.0
 10
3.527315759477321
 20
7.02875553610766
 30
0.0
 10
3.54057247007894
 20
7.043778836456568
 30
0.0
 10
3.534675628683456
 20
7.057212415454361
 30
0.0
 10
3.528766222638258
 20
7.070625974755721
 30
0.0
 10
3.505950829133667
 20
7.077384751120386
 30
0.0
 10
3.48370791058595
 20
7.07227043610798
 30
0.0
  0
ENDBLK
  5
EC
330
E9
100
AcDbEntity
  8
0
100
AcDbBlockEnd
  0
BLOCK
  5
F0
330
EE
100
AcDbEntity
  8
0
100
AcDbBlockBegin
  2
block 12
 70
     0
 10
0.0
 20
0.0
 30
0.0
  3
block 12
  1

  0
SPLINE
  5
F2
330
EE
100
AcDbEntity
  8
E5SS
 62
   250
420
  2301728
370
    15
100
AcDbSpline
210
0.0
220
0.0
230
1.0
 70
    11
 71
     3
 72
    17
 73
    13
 74
     0
 42
0.0000000001
 43
0.0000000001
 12
1.0
 22
0.0
 32
0.0
 13
1.0
 23
0.0
 33
0.0
 40
0.0
 40
0.0
 40
0.0
 40
0.0
 40
1.0
 40
1.0
 40
1.0
 40
2.0
 40
2.0
 40
2.0
 40
3.0
 40
3.0
 40
3.0
 40
4.0
 40
4.0
 40
4.0
 40
4.0
 10
3.473656190574944
 20
7.151427729194918
 30
0.0
 10
3.45141522359169
 20
7.146333015036033
 30
0.0
 10
3.438170575053782
 20
7.131304688827249
 30
0.0
 10
3.444069929379212
 20
7.117881119677665
 30
0.0
 10
3.44997936408903
 20
7.104457550528082
 30
0.0
 10
3.472794728929001
 20
7.097713851743062
 30
0.0
 10
3.495038179579423
 20
7.102818115035713
 30
0.0
 10
3.517264039720253
 20
7.107912829194586
 30
0.0
 10
3.530520750321873
 20
7.122936129543505
 30
0.0
 10
3.524623908926376
 20
7.136369710540976
 30
0.0
 10
3.518714502881191
 20
7.149783267842672
 30
0.0
 10
3.495899109376599
 20
7.156542044207299
 30
0.0
 10
3.473656190574944
 20
7.151427729194918
 30
0.0
  0
ENDBLK
  5
F1
330
EE
100
AcDbEntity
  8
0
100
AcDbBlockEnd
  0
BLOCK
  5
F5
330
F3
100
AcDbEntity
  8
0
100
AcDbBlockBegin
  2
block 13
 70
     0
 10
0.0
 20
0.0
 30
0.0
  3
block 13
  1

  0
SPLINE
  5
F7
330
F3
100
AcDbEntity
  8
E5SS
 62
   250
420
  2301728
370
    15
100
AcDbSpline
210
0.0
220
0.0
230
1.0
 70
    11
 71
     3
 72
    17
 73
    13
 74
     0
 42
0.0000000001
 43
0.0000000001
 12
1.0
 22
0.0
 32
0.0
 13
1.0
 23
0.0
 33
0.0
 40
0.0
 40
0.0
 40
0.0
 40
0.0
 40
1.0
 40
1.0
 40
1.0
 40
2.0
 40
2.0
 40
2.0
 40
3.0
 40
3.0
 40
3.0
 40
4.0
 40
4.0
 40
4.0
 40
4.0
 10
3.301520485386593
 20
7.201686327980269
 30
0.0
 10
3.27927952275186
 20
7.196591613821409
 30
0.0
 10
3.266034874213978
 20
7.181563287612587
 30
0.0
 10
3.271934228539395
 20
7.168139718463016
 30
0.0
 10
3.277843658900704
 20
7.154716149313432
 30
0.0
 10
3.300659028089171
 20
7.147972450528414
 30
0.0
 10
3.322902478739593
 20
7.153076713821065
 30
0.0
 10
3.345128338880436
 20
7.158171427979924
 30
0.0
 10
3.358385049482043
 20
7.173194728328856
 30
0.0
 10
3.352488208086558
 20
7.186628310595956
 30
0.0
 10
3.346578802041373
 20
7.200041866628011
 30
0.0
 10
3.323763408536782
 20
7.20680064299265
 30
0.0
 10
3.301520485386593
 20
7.201686327980269
 30
0.0
  0
ENDBLK
  5
F6
330
F3
100
AcDbEntity
  8
0
100
AcDbBlockEnd
  0
BLOCK
  5
FA
330
F8
100
AcDbEntity
  8
0
100
AcDbBlockBegin
  2
block 14
 70
     0
 10
0.0
 20
0.0
 30
0.0
  3
block 14
  1

  0
SPLINE
  5
FC
330
F8
100
AcDbEntity
  8
E5SS
 62
   250
420
  2301728
370
    15
100
AcDbSpline
210
0.0
220
0.0
230
1.0
 70
    11
 71
     3
 72
    17
 73
    13
 74
     0
 42
0.0000000001
 43
0.0000000001
 12
1.0
 22
0.0
 32
0.0
 13
1.0
 23
0.0
 33
0.0
 40
0.0
 40
0.0
 40
0.0
 40
0.0
 40
1.0
 40
1.0
 40
1.0
 40
2.0
 40
2.0
 40
2.0
 40
3.0
 40
3.0
 40
3.0
 40
4.0
 40
4.0
 40
4.0
 40
4.0
 10
3.76515607089387
 20
7.36000091415412
 30
0.0
 10
3.742915096546742
 20
7.354906199995248
 30
0.0
 10
3.729670448008821
 20
7.339877873786437
 30
0.0
 10
3.735569802334238
 20
7.326454304636854
 30
0.0
 10
3.741479244407982
 20
7.313030735487295
 30
0.0
 10
3.764294601884027
 20
7.306287036702277
 30
0.0
 10
3.786538052534449
 20
7.311391299994916
 30
0.0
 10
3.808763912675279
 20
7.316486014153788
 30
0.0
 10
3.822018110346953
 20
7.331509314502707
 30
0.0
 10
3.816123781881414
 20
7.344942900769183
 30
0.0
 10
3.810214375836242
 20
7.358356452801861
 30
0.0
 10
3.787398982331625
 20
7.365115229166513
 30
0.0
 10
3.76515607089387
 20
7.36000091415412
 30
0.0
  0
ENDBLK
  5
FB
330
F8
100
AcDbEntity
  8
0
100
AcDbBlockEnd
  0
BLOCK
  5
101
330
FF
100
AcDbEntity
  8
0
100
AcDbBlockBegin
  2
block 15
 70
     0
 10
0.0
 20
0.0
 30
0.0
  3
block 15
  1

  0
SPLINE
  5
103
330
FF
100
AcDbEntity
  8
E5SS
 62
   250
420
  2301728
370
    15
100
AcDbSpline
210
0.0
220
0.0
230
1.0
 70
     8
 71
     3
 72
    14
 73
    10
 74
     0
 42
0.0000000001
 43
0.0000000001
 12
1.0
 22
0.0
 32
0.0
 13
1.0
 23
0.0
 33
0.0
 40
0.0
 40
0.0
 40
0.0
 40
0.0
 40
1.0
 40
1.0
 40
1.0
 40
2.0
 40
2.0
 40
2.0
 40
3.0
 40
3.0
 40
3.0
 40
3.0
 10
3.969216038837152
 20
6.946612571198695
 30
0.0
 10
3.969216038837152
 20
6.991329837404388
 30
0.0
 10
3.969216038837152
 20
7.093808397909874
 30
0.0
 10
3.969216038837152
 20
7.099721139380866
 30
0.0
 10
3.969216038837152
 20
7.106425636628197
 30
0.0
 10
3.962511541589808
 20
7.119824579402852
 30
0.0
 10
3.953304166059727
 20
7.129042006652942
 30
0.0
 10
3.947304737092761
 20
7.135038164393664
 30
0.0
 10
3.933499762941829
 20
7.143874637812321
 30
0.0
 10
3.922282993017789
 20
7.151161107157829
 30
0.0
  0
SPLINE
  5
104
330
FF
100
AcDbEntity
  8
E5SS
 62
   250
420
  2301728
370
    15
100
AcDbSpline
210
0.0
220
0.0
230
1.0
 70
     8
 71
     3
 72
    29
 73
    25
 74
     0
 42
0.0000000001
 43
0.0000000001
 12
1.0
 22
0.0
 32
0.0
 13
1.0
 23
0.0
 33
0.0
 40
0.0
 40
0.0
 40
0.0
 40
0.0
 40
1.0
 40
1.0
 40
1.0
 40
2.0
 40
2.0
 40
2.0
 40
3.0
 40
3.0
 40
3.0
 40
4.0
 40
4.0
 40
4.0
 40
5.0
 40
5.0
 40
5.0
 40
6.0
 40
6.0
 40
6.0
 40
7.0
 40
7.0
 40
7.0
 40
8.0
 40
8.0
 40
8.0
 40
8.0
 10
3.908071426010236
 20
7.160870778067798
 30
0.0
 10
3.899688291521089
 20
7.167570249455088
 30
0.0
 10
3.861763615438387
 20
7.175197533490442
 30
0.0
 10
3.835196455930511
 20
7.165896638073288
 30
0.0
 10
3.818440238672186
 20
7.160031459446852
 30
0.0
 10
3.812997232286218
 20
7.144536733049916
 30
0.0
 10
3.820953168674931
 20
7.136580796661203
 30
0.0
 10
3.820953168674931
 20
7.136580796661203
 30
0.0
 10
3.82263180591676
 20
7.134067866658445
 30
0.0
 10
3.82263180591676
 20
7.134067866658445
 30
0.0
 10
3.82263180591676
 20
7.134067866658445
 30
0.0
 10
3.863672978721663
 20
7.101399776622706
 30
0.0
 10
3.872890405971753
 20
7.095534597996296
 30
0.0
 10
3.882097781501822
 20
7.089669419369872
 30
0.0
 10
3.887123641507325
 20
7.08632219660621
 30
0.0
 10
3.886289348746421
 20
7.070405297968793
 30
0.0
 10
3.885455055985504
 20
7.054488399331376
 30
0.0
 10
3.882942125982746
 20
6.902873280545489
 30
0.0
 10
3.882097781501822
 20
6.891147949152658
 30
0.0
 10
3.881263488740918
 20
6.879422617759827
 30
0.0
 10
3.88963657151007
 20
6.855971954974178
 30
0.0
 10
3.919791731543063
 20
6.856806247735082
 30
0.0
 10
3.949946891576057
 20
6.857645566356003
 30
0.0
 10
3.969216038837152
 20
6.902038987784585
 30
0.0
 10
3.969216038837152
 20
6.932194147817578
 30
0.0
  0
ENDBLK
  5
102
330
FF
100
AcDbEntity
  8
0
100
AcDbBlockEnd
  0
ENDSEC
  0
SECTION
  2
ENTITIES
  0
INSERT
  5
42
330
1F
100
AcDbEntity
  8
Wood
100
AcDbBlockReference
  2
block 2
 10
0.0
 20
0.0
 30
0.0
  0
INSERT
  5
7F
330
1F
100
AcDbEntity
  8
Wood
100
AcDbBlockReference
  2
block 3
 10
0.0
 20
0.0
 30
0.0
  0
INSERT
  5
BD
330
1F
100
AcDbEntity
  8
E5SS
100
AcDbBlockReference
  2
block 4
 10
0.0
 20
0.0
 30
0.0
  0
MTEXT
  5
134
330
1F
100
AcDbEntity
  8
callout
 62
   250
420
  2236191
100
AcDbMText
 10
3.5510360399882
 20
4.979858557383219
 30
0.0
 40
0.118
 41
0.0
 46
0.0
 71
     7
 72
     1
  1
\fHelvetica Neue LT Std 55 Roman|b0|i0|c0|p34;\W1;SIMPSON Strong-Tie\H0.068794;®\H0.118; ^C
 73
     1
 44
1.0
  0
MTEXT
  5
135
330
1F
100
AcDbEntity
  8
callout
 62
   250
420
  2236191
100
AcDbMText
 10
3.038998550838894
 20
4.779866695404053
 30
0.0
 40
0.118
 41
0.0
 46
0.0
 71
     7
 72
     1
  1
\fHelvetica Neue LT Std 55 Roman|b0|i0|c0|p34;\W1;E5 Purlin-to-Truss/Rafter Installation 
 73
     1
 44
1.0
  0
MTEXT
  5
136
330
1F
100
AcDbEntity
  8
callout
 62
   250
420
  2236191
100
AcDbMText
 10
4.328210618760851
 20
5.565347671508789
 30
0.0
 40
0.118
 41
0.0
 46
0.0
 71
     7
 72
     1
  1
\fHelvetica Neue LT Std 57 Condensed|b0|i0|c0|p34;\W1;E5
 73
     1
 44
1.0
  0
POLYLINE
  5
137
330
1F
100
AcDbEntity
  8
callout
 62
   250
420
  2236191
370
    18
100
AcDb2dPolyline
 66
     1
 10
0.0
 20
0.0
 30
0.0
  0
VERTEX
  5
138
330
137
100
AcDbEntity
  8
callout
 62
   250
420
  2236191
370
    18
100
AcDbVertex
100
AcDb2dVertex
 10
4.384721757223411
 20
5.740406866176929
 30
0.0
  0
VERTEX
  5
139
330
137
100
AcDbEntity
  8
callout
 62
   250
420
  2236191
370
    18
100
AcDbVertex
100
AcDb2dVertex
 10
4.002042909622307
 20
6.435763202117591
 30
0.0
  0
SEQEND
  5
13A
330
137
100
AcDbEntity
  8
callout
 62
   250
420
  2236191
370
    18
  0
MTEXT
  5
13B
330
1F
100
AcDbEntity
  8
callout
 62
   250
420
  2236191
100
AcDbMText
 10
4.812886767917209
 20
7.88443120320638
 30
0.0
 40
0.118
 41
0.0
 46
0.0
 71
     7
 72
     1
  1
\fHelvetica Neue LT Std 57 Condensed|b0|i0|c0|p34;\W1;Truss / Rafter
 73
     1
 44
1.0
  0
MTEXT
  5
13C
330
1F
100
AcDbEntity
  8
callout
 62
   250
420
  2236191
100
AcDbMText
 10
4.171042760213216
 20
8.177859624226887
 30
0.0
 40
0.118
 41
0.0
 46
0.0
 71
     7
 72
     1
  1
\fHelvetica Neue LT Std 57 Condensed|b0|i0|c0|p34;\W1;Purlin
 73
     1
 44
1.0
  0
POLYLINE
  5
13D
330
1F
100
AcDbEntity
  8
callout
 62
   250
420
  2236191
370
    18
100
AcDb2dPolyline
 66
     1
 10
0.0
 20
0.0
 30
0.0
  0
VERTEX
  5
13E
330
13D
100
AcDbEntity
  8
callout
 62
   250
420
  2236191
370
    18
100
AcDbVertex
100
AcDb2dVertex
 10
5.052327434870929
 20
7.844995935598692
 30
0.0
  0
VERTEX
  5
13F
330
13D
100
AcDbEntity
  8
callout
 62
   250
420
  2236191
370
    18
100
AcDbVertex
100
AcDb2dVertex
 10
4.971767058629085
 20
7.466478630847708
 30
0.0
  0
SEQEND
  5
140
330
13D
100
AcDbEntity
  8
callout
 62
   250
420
  2236191
370
    18
  0
POLYLINE
  5
141
330
1F
100
AcDbEntity
  8
callout
 62
   250
420
  2236191
370
    18
100
AcDb2dPolyline
 66
     1
 10
0.0
 20
0.0
 30
0.0
  0
VERTEX
  5
142
330
141
100
AcDbEntity
  8
callout
 62
   250
420
  2236191
370
    18
100
AcDbVertex
100
AcDb2dVertex
 10
4.122160930701335
 20
8.24911701033573
 30
0.0
  0
VERTEX
  5
143
330
141
100
AcDbEntity
  8
callout
 62
   250
420
  2236191
370
    18
100
AcDbVertex
100
AcDb2dVertex
 10
3.793781026186593
 20
8.010247092895067
 30
0.0
  0
SEQEND
  5
144
330
141
100
AcDbEntity
  8
callout
 62
   250
420
  2236191
370
    18
  0
ENDSEC
  0
SECTION
  2
OBJECTS
  0
DICTIONARY
  5
C
330
0
100
AcDbDictionary
281
     1
  3
ACAD_GROUP
350
D
  3
ACAD_LAYOUT
350
1A
  3
ACAD_MATERIAL
350
3B
  3
ACAD_MLEADERSTYLE
350
146
  3
ACAD_MLINESTYLE
350
17
  3
ACAD_PLOTSETTINGS
350
19
  3
ACAD_PLOTSTYLENAME
350
E
  3
ACAD_TABLESTYLE
350
145
  3
ACAD_VISUALSTYLE
350
2A
  0
SUN
  5
3F
330
29
100
AcDbSun
 90
        1
290
     0
 63
     7
421
 16777215
 40
1.0
291
     1
 91
  2455826
 92
 54000000
292
     0
 70
     2
 71
   256
280
     1
  0
DICTIONARY
  5
D
102
{ACAD_REACTORS
330
C
102
}
330
C
100
AcDbDictionary
281
     1
  0
DICTIONARY
  5
1A
102
{ACAD_REACTORS
330
C
102
}
330
C
100
AcDbDictionary
281
     1
  3
Layout1
350
1E
  3
Layout2
350
26
  3
Model
350
22
  0
DICTIONARY
  5
3B
102
{ACAD_REACTORS
330
C
102
}
330
C
100
AcDbDictionary
281
     1
  3
ByBlock
350
3D
  3
ByLayer
350
3C
  3
Global
350
3E
  0
DICTIONARY
  5
146
102
{ACAD_REACTORS
330
C
102
}
330
C
100
AcDbDictionary
281
     1
  0
DICTIONARY
  5
17
102
{ACAD_REACTORS
330
C
102
}
330
C
100
AcDbDictionary
281
     1
  3
Standard
350
18
  0
DICTIONARY
  5
19
102
{ACAD_REACTORS
330
C
102
}
330
C
100
AcDbDictionary
281
     1
  0
ACDBDICTIONARYWDFLT
  5
E
102
{ACAD_REACTORS
330
C
102
}
330
C
100
AcDbDictionary
281
     1
  3
Normal
350
F
100
AcDbDictionaryWithDefault
340
F
  0
DICTIONARY
  5
145
102
{ACAD_REACTORS
330
C
102
}
330
C
100
AcDbDictionary
281
     1
  0
DICTIONARY
  5
2A
102
{ACAD_REACTORS
330
C
102
}
330
C
100
AcDbDictionary
281
     1
  3
2dWireframe
350
2F
  3
3D Hidden
350
31
  3
3dWireframe
350
30
  3
Basic
350
32
  3
Brighten
350
36
  3
ColorChange
350
3A
  3
Conceptual
350
34
  3
Dim
350
35
  3
Facepattern
350
39
  3
Flat
350
2B
  3
FlatWithEdges
350
2C
  3
Gouraud
350
2D
  3
GouraudWithEdges
350
2E
  3
Linepattern
350
38
  3
Realistic
350
33
  3
Thicken
350
37
  0
LAYOUT
  5
1E
102
{ACAD_REACTORS
330
1A
102
}
330
1A
100
AcDbPlotSettings
  1

  2
none_device
  4

  6

 40
0.0
 41
0.0
 42
0.0
 43
0.0
 44
0.0
 45
0.0
 46
0.0
 47
0.0
 48
0.0
 49
0.0
140
0.0
141
0.0
142
1.0
143
1.0
 70
   688
 72
     0
 73
     0
 74
     5
  7

 75
    16
 76
     0
 77
     2
 78
   300
147
1.0
148
0.0
149
0.0
100
AcDbLayout
  1
Layout1
 70
     1
 71
     1
 10
0.0
 20
0.0
 11
12.0
 21
9.0
 12
0.0
 22
0.0
 32
0.0
 14
1.000000000000000E+20
 24
1.000000000000000E+20
 34
1.000000000000000E+20
 15
-1.000000000000000E+20
 25
-1.000000000000000E+20
 35
-1.000000000000000E+20
146
0.0
 13
0.0
 23
0.0
 33
0.0
 16
1.0
 26
0.0
 36
0.0
 17
0.0
 27
1.0
 37
0.0
 76
     0
330
1B
  0
LAYOUT
  5
26
102
{ACAD_REACTORS
330
1A
102
}
330
1A
100
AcDbPlotSettings
  1

  2
none_device
  4

  6

 40
0.0
 41
0.0
 42
0.0
 43
0.0
 44
0.0
 45
0.0
 46
0.0
 47
0.0
 48
0.0
 49
0.0
140
0.0
141
0.0
142
1.0
143
1.0
 70
   688
 72
     0
 73
     0
 74
     5
  7

 75
    16
 76
     0
 77
     2
 78
   300
147
1.0
148
0.0
149
0.0
100
AcDbLayout
  1
Layout2
 70
     1
 71
     2
 10
0.0
 20
0.0
 11
0.0
 21
0.0
 12
0.0
 22
0.0
 32
0.0
 14
0.0
 24
0.0
 34
0.0
 15
0.0
 25
0.0
 35
0.0
146
0.0
 13
0.0
 23
0.0
 33
0.0
 16
1.0
 26
0.0
 36
0.0
 17
0.0
 27
1.0
 37
0.0
 76
     0
330
23
  0
LAYOUT
  5
22
102
{ACAD_REACTORS
330
1A
102
}
330
1A
100
AcDbPlotSettings
  1

  2
none_device
  4

  6

 40
0.0
 41
0.0
 42
0.0
 43
0.0
 44
0.0
 45
0.0
 46
0.0
 47
0.0
 48
0.0
 49
0.0
140
0.0
141
0.0
142
1.0
143
1.0
 70
  1712
 72
     0
 73
     0
 74
     0
  7

 75
     0
 76
     0
 77
     2
 78
   300
147
1.0
148
0.0
149
0.0
100
AcDbLayout
  1
Model
 70
     1
 71
     0
 10
0.0
 20
0.0
 11
12.0
 21
9.0
 12
0.0
 22
0.0
 32
0.0
 14
1.000000000000000E+20
 24
1.000000000000000E+20
 34
1.000000000000000E+20
 15
-1.000000000000000E+20
 25
-1.000000000000000E+20
 35
-1.000000000000000E+20
146
0.0
 13
0.0
 23
0.0
 33
0.0
 16
1.0
 26
0.0
 36
0.0
 17
0.0
 27
1.0
 37
0.0
 76
     0
330
1F
331
29
  0
MATERIAL
  5
3D
102
{ACAD_REACTORS
330
3B
102
}
330
3B
100
AcDbMaterial
  1
ByBlock
 72
     1
 94
      127
  0
MATERIAL
  5
3C
102
{ACAD_REACTORS
330
3B
102
}
330
3B
100
AcDbMaterial
  1
ByLayer
 72
     1
 94
      127
  0
MATERIAL
  5
3E
102
{ACAD_REACTORS
330
3B
102
}
330
3B
100
AcDbMaterial
  1
Global
 72
     1
 94
      127
  0
MLINESTYLE
  5
18
102
{ACAD_REACTORS
330
17
102
}
330
17
100
AcDbMlineStyle
  2
Standard
 70
     0
  3

 62
   256
 51
90.0
 52
90.0
 71
     2
 49
0.5
 62
   256
  6
BYLAYER
 49
-0.5
 62
   256
  6
BYLAYER
  0
ACDBPLACEHOLDER
  5
F
102
{ACAD_REACTORS
330
E
102
}
330
E
  0
VISUALSTYLE
  5
2F
102
{ACAD_REACTORS
330
2A
102
}
330
2A
100
AcDbVisualStyle
  2
2dWireframe
 70
     4
177
     2
291
     0
 71
     0
176
     1
 72
     2
176
     1
 73
     0
176
     1
 90
        0
176
     1
 40
-0.6
176
     1
 41
-30.0
176
     1
 62
     5
 63
     7
421
 16777215
176
     1
 74
     1
176
     1
 91
        4
176
     1
 64
     7
176
     1
 65
   257
176
     1
 75
     1
176
     1
175
     1
176
     1
 42
1.0
176
     1
 92
        0
176
     1
 66
   257
176
     1
 43
1.0
176
     1
 76
     1
176
     1
 77
     6
176
     1
 78
     2
176
     1
 67
     7
176
     1
 79
     5
176
     1
170
     0
176
     1
171
     0
176
     1
290
     0
176
     1
 93
        1
176
     1
 44
0.0
176
     1
173
     0
176
     1
  0
VISUALSTYLE
  5
31
102
{ACAD_REACTORS
330
2A
102
}
330
2A
100
AcDbVisualStyle
  2
3D Hidden
 70
     6
177
     2
291
     0
 71
     1
176
     1
 72
     2
176
     1
 73
     2
176
     1
 90
        0
176
     1
 40
-0.6
176
     1
 41
-30.0
176
     1
 62
     5
 63
     7
421
 16777215
176
     1
 74
     2
176
     1
 91
        2
176
     1
 64
     7
176
     1
 65
   257
176
     1
 75
     2
176
     1
175
     1
176
     1
 42
40.0
176
     1
 92
        0
176
     1
 66
   257
176
     1
 43
1.0
176
     1
 76
     1
176
     1
 77
     6
176
     1
 78
     2
176
     1
 67
     7
176
     1
 79
     3
176
     1
170
     0
176
     1
171
     0
176
     1
290
     0
176
     1
 93
        1
176
     1
 44
0.0
176
     1
173
     0
176
     1
  0
VISUALSTYLE
  5
30
102
{ACAD_REACTORS
330
2A
102
}
330
2A
100
AcDbVisualStyle
  2
3dWireframe
 70
     5
177
     2
291
     0
 71
     0
176
     1
 72
     2
176
     1
 73
     0
176
     1
 90
        0
176
     1
 40
-0.6
176
     1
 41
-30.0
176
     1
 62
     5
 63
     7
421
 16777215
176
     1
 74
     1
176
     1
 91
        4
176
     1
 64
     7
176
     1
 65
   257
176
     1
 75
     1
176
     1
175
     1
176
     1
 42
1.0
176
     1
 92
        0
176
     1
 66
   257
176
     1
 43
1.0
176
     1
 76
     1
176
     1
 77
     6
176
     1
 78
     2
176
     1
 67
     7
176
     1
 79
     5
176
     1
170
     0
176
     1
171
     0
176
     1
290
     0
176
     1
 93
        1
176
     1
 44
0.0
176
     1
173
     0
176
     1
  0
VISUALSTYLE
  5
32
102
{ACAD_REACTORS
330
2A
102
}
330
2A
100
AcDbVisualStyle
  2
Basic
 70
     7
177
     2
291
     1
 71
     1
176
     1
 72
     0
176
     1
 73
     1
176
     1
 90
        0
176
     1
 40
-0.6
176
     1
 41
-30.0
176
     1
 62
     5
 63
     7
421
 16777215
176
     1
 74
     0
176
     1
 91
        4
176
     1
 64
     7
176
     1
 65
   257
176
     1
 75
     1
176
     1
175
     1
176
     1
 42
1.0
176
     1
 92
        8
176
     1
 66
     7
176
     1
 43
1.0
176
     1
 76
     1
176
     1
 77
     6
176
     1
 78
     2
176
     1
 67
     7
176
     1
 79
     5
176
     1
170
     0
176
     1
171
     0
176
     1
290
     0
176
     1
 93
        1
176
     1
 44
0.0
176
     1
173
     0
176
     1
  0
VISUALSTYLE
  5
36
102
{ACAD_REACTORS
330
2A
102
}
330
2A
100
AcDbVisualStyle
  2
Brighten
 70
    12
177
     2
291
     1
 71
     2
176
     1
 72
     2
176
     1
 73
     0
176
     1
 90
        0
176
     1
 40
-0.6
176
     1
 41
-30.0
176
     1
 62
     5
 63
     7
421
 16777215
176
     1
 74
     1
176
     1
 91
        4
176
     1
 64
     7
176
     1
 65
   257
176
     1
 75
     1
176
     1
175
     1
176
     1
 42
1.0
176
     1
 92
        8
176
     1
 66
     7
176
     1
 43
1.0
176
     1
 76
     1
176
     1
 77
     6
176
     1
 78
     2
176
     1
 67
     7
176
     1
 79
     5
176
     1
170
     0
176
     1
171
     0
176
     1
290
     0
176
     1
 93
        1
176
     1
 44
50.0
176
     1
173
     0
176
     1
  0
VISUALSTYLE
  5
3A
102
{ACAD_REACTORS
330
2A
102
}
330
2A
100
AcDbVisualStyle
  2
ColorChange
 70
    16
177
     2
291
     1
 71
     2
176
     1
 72
     2
176
     1
 73
     3
176
     1
 90
        0
176
     1
 40
-0.6
176
     1
 41
-30.0
176
     1
 62
     5
 63
     8
421
  8421504
176
     1
 74
     1
176
     1
 91
        4
176
     1
 64
     7
176
     1
 65
   257
176
     1
 75
     1
176
     1
175
     1
176
     1
 42
1.0
176
     1
 92
        8
176
     1
 66
     8
424
  8421504
176
     1
 43
1.0
176
     1
 76
     1
176
     1
 77
     6
176
     1
 78
     2
176
     1
 67
     7
176
     1
 79
     5
176
     1
170
     0
176
     1
171
     0
176
     1
290
     0
176
     1
 93
        1
176
     1
 44
0.0
176
     1
173
     0
176
     1
  0
VISUALSTYLE
  5
34
102
{ACAD_REACTORS
330
2A
102
}
330
2A
100
AcDbVisualStyle
  2
Conceptual
 70
     9
177
     2
291
     0
 71
     3
176
     1
 72
     2
176
     1
 73
     0
176
     1
 90
        0
176
     1
 40
-0.6
176
     1
 41
-30.0
176
     1
 62
     5
 63
     7
421
 16777215
176
     1
 74
     2
176
     1
 91
        2
176
     1
 64
     7
176
     1
 65
   257
176
     1
 75
     1
176
     1
175
     1
176
     1
 42
40.0
176
     1
 92
        8
176
     1
 66
     7
176
     1
 43
1.0
176
     1
 76
     1
176
     1
 77
     6
176
     1
 78
     2
176
     1
 67
     7
176
     1
 79
     3
176
     1
170
     0
176
     1
171
     0
176
     1
290
     0
176
     1
 93
        1
176
     1
 44
0.0
176
     1
173
     0
176
     1
  0
VISUALSTYLE
  5
35
102
{ACAD_REACTORS
330
2A
102
}
330
2A
100
AcDbVisualStyle
  2
Dim
 70
    11
177
     2
291
     1
 71
     2
176
     1
 72
     2
176
     1
 73
     0
176
     1
 90
        0
176
     1
 40
-0.6
176
     1
 41
-30.0
176
     1
 62
     5
 63
     7
421
 16777215
176
     1
 74
     1
176
     1
 91
        4
176
     1
 64
     7
176
     1
 65
   257
176
     1
 75
     1
176
     1
175
     1
176
     1
 42
1.0
176
     1
 92
        8
176
     1
 66
     7
176
     1
 43
1.0
176
     1
 76
     1
176
     1
 77
     6
176
     1
 78
     2
176
     1
 67
     7
176
     1
 79
     5
176
     1
170
     0
176
     1
171
     0
176
     1
290
     0
176
     1
 93
        1
176
     1
 44
-50.0
176
     1
173
     0
176
     1
  0
VISUALSTYLE
  5
39
102
{ACAD_REACTORS
330
2A
102
}
330
2A
100
AcDbVisualStyle
  2
Facepattern
 70
    15
177
     2
291
     1
 71
     2
176
     1
 72
     2
176
     1
 73
     0
176
     1
 90
        0
176
     1
 40
-0.6
176
     1
 41
-30.0
176
     1
 62
     5
 63
     7
421
 16777215
176
     1
 74
     1
176
     1
 91
        4
176
     1
 64
     7
176
     1
 65
   257
176
     1
 75
     1
176
     1
175
     1
176
     1
 42
1.0
176
     1
 92
        8
176
     1
 66
     7
176
     1
 43
1.0
176
     1
 76
     1
176
     1
 77
     6
176
     1
 78
     2
176
     1
 67
     7
176
     1
 79
     5
176
     1
170
     0
176
     1
171
     0
176
     1
290
     0
176
     1
 93
        1
176
     1
 44
0.0
176
     1
173
     0
176
     1
  0
VISUALSTYLE
  5
2B
102
{ACAD_REACTORS
330
2A
102
}
330
2A
100
AcDbVisualStyle
  2
Flat
 70
     0
177
     2
291
     1
 71
     2
176
     1
 72
     1
176
     1
 73
     1
176
     1
 90
        2
176
     1
 40
-0.6
176
     1
 41
30.0
176
     1
 62
     5
 63
     7
421
 16777215
176
     1
 74
     0
176
     1
 91
        4
176
     1
 64
     7
176
     1
 65
   257
176
     1
 75
     1
176
     1
175
     1
176
     1
 42
1.0
176
     1
 92
        8
176
     1
 66
     7
176
     1
 43
1.0
176
     1
 76
     1
176
     1
 77
     6
176
     1
 78
     2
176
     1
 67
     7
176
     1
 79
     5
176
     1
170
     0
176
     1
171
     0
176
     1
290
     0
176
     1
 93
       13
176
     1
 44
0.0
176
     1
173
     0
176
     1
  0
VISUALSTYLE
  5
2C
102
{ACAD_REACTORS
330
2A
102
}
330
2A
100
AcDbVisualStyle
  2
FlatWithEdges
 70
     1
177
     2
291
     1
 71
     2
176
     1
 72
     1
176
     1
 73
     1
176
     1
 90
        2
176
     1
 40
-0.6
176
     1
 41
30.0
176
     1
 62
     5
 63
     7
421
 16777215
176
     1
 74
     1
176
     1
 91
        4
176
     1
 64
     7
176
     1
 65
   257
176
     1
 75
     1
176
     1
175
     1
176
     1
 42
1.0
176
     1
 92
        0
176
     1
 66
   257
176
     1
 43
1.0
176
     1
 76
     1
176
     1
 77
     6
176
     1
 78
     2
176
     1
 67
     7
176
     1
 79
     5
176
     1
170
     0
176
     1
171
     0
176
     1
290
     0
176
     1
 93
       13
176
     1
 44
0.0
176
     1
173
     0
176
     1
  0
VISUALSTYLE
  5
2D
102
{ACAD_REACTORS
330
2A
102
}
330
2A
100
AcDbVisualStyle
  2
Gouraud
 70
     2
177
     2
291
     1
 71
     2
176
     1
 72
     2
176
     1
 73
     1
176
     1
 90
        2
176
     1
 40
-0.6
176
     1
 41
30.0
176
     1
 62
     5
 63
     7
421
 16777215
176
     1
 74
     0
176
     1
 91
        4
176
     1
 64
     7
176
     1
 65
   257
176
     1
 75
     1
176
     1
175
     1
176
     1
 42
1.0
176
     1
 92
        0
176
     1
 66
     7
176
     1
 43
1.0
176
     1
 76
     1
176
     1
 77
     6
176
     1
 78
     2
176
     1
 67
     7
176
     1
 79
     5
176
     1
170
     0
176
     1
171
     0
176
     1
290
     0
176
     1
 93
       13
176
     1
 44
0.0
176
     1
173
     0
176
     1
  0
VISUALSTYLE
  5
2E
102
{ACAD_REACTORS
330
2A
102
}
330
2A
100
AcDbVisualStyle
  2
GouraudWithEdges
 70
     3
177
     2
291
     1
 71
     2
176
     1
 72
     2
176
     1
 73
     1
176
     1
 90
        2
176
     1
 40
-0.6
176
     1
 41
30.0
176
     1
 62
     5
 63
     7
421
 16777215
176
     1
 74
     1
176
     1
 91
        4
176
     1
 64
     7
176
     1
 65
   257
176
     1
 75
     1
176
     1
175
     1
176
     1
 42
1.0
176
     1
 92
        0
176
     1
 66
   257
176
     1
 43
1.0
176
     1
 76
     1
176
     1
 77
     6
176
     1
 78
     2
176
     1
 67
     7
176
     1
 79
     5
176
     1
170
     0
176
     1
171
     0
176
     1
290
     0
176
     1
 93
       13
176
     1
 44
0.0
176
     1
173
     0
176
     1
  0
VISUALSTYLE
  5
38
102
{ACAD_REACTORS
330
2A
102
}
330
2A
100
AcDbVisualStyle
  2
Linepattern
 70
    14
177
     2
291
     1
 71
     2
176
     1
 72
     2
176
     1
 73
     0
176
     1
 90
        0
176
     1
 40
-0.6
176
     1
 41
-30.0
176
     1
 62
     5
 63
     7
421
 16777215
176
     1
 74
     1
176
     1
 91
        4
176
     1
 64
     7
176
     1
 65
   257
176
     1
 75
     7
176
     1
175
     7
176
     1
 42
1.0
176
     1
 92
        8
176
     1
 66
     7
176
     1
 43
1.0
176
     1
 76
     1
176
     1
 77
     6
176
     1
 78
     2
176
     1
 67
     7
176
     1
 79
     5
176
     1
170
     0
176
     1
171
     0
176
     1
290
     0
176
     1
 93
        1
176
     1
 44
0.0
176
     1
173
     0
176
     1
  0
VISUALSTYLE
  5
33
102
{ACAD_REACTORS
330
2A
102
}
330
2A
100
AcDbVisualStyle
  2
Realistic
 70
     8
177
     2
291
     0
 71
     2
176
     1
 72
     2
176
     1
 73
     0
176
     1
 90
        0
176
     1
 40
-0.6
176
     1
 41
-30.0
176
     1
 62
     5
 63
     7
421
 16777215
176
     1
 74
     1
176
     1
 91
        0
176
     1
 64
     7
176
     1
 65
   257
176
     1
 75
     1
176
     1
175
     1
176
     1
 42
1.0
176
     1
 92
        8
176
     1
 66
     8
424
  7895160
176
     1
 43
1.0
176
     1
 76
     1
176
     1
 77
     6
176
     1
 78
     2
176
     1
 67
     7
176
     1
 79
     5
176
     1
170
     0
176
     1
171
     0
176
     1
290
     0
176
     1
 93
       13
176
     1
 44
0.0
176
     1
173
     0
176
     1
  0
VISUALSTYLE
  5
37
102
{ACAD_REACTORS
330
2A
102
}
330
2A
100
AcDbVisualStyle
  2
Thicken
 70
    13
177
     2
291
     1
 71
     2
176
     1
 72
     2
176
     1
 73
     0
176
     1
 90
        0
176
     1
 40
-0.6
176
     1
 41
-30.0
176
     1
 62
     5
 63
     7
421
 16777215
176
     1
 74
     1
176
     1
 91
        4
176
     1
 64
     7
176
     1
 65
   257
176
     1
 75
     1
176
     1
175
     1
176
     1
 42
1.0
176
     1
 92
       12
176
     1
 66
     7
176
     1
 43
1.0
176
     1
 76
     1
176
     1
 77
     6
176
     1
 78
     2
176
     1
 67
     7
176
     1
 79
     5
176
     1
170
     0
176
     1
171
     0
176
     1
290
     0
176
     1
 93
        1
176
     1
 44
0.0
176
     1
173
     0
176
     1
  0
ENDSEC
  0
EOF
