  0
SECTION
  2
HEADER
  9
$ACADVER
  1
AC1024
  9
$ACADMAINTVER
 70
     6
  9
$DWGCODEPAGE
  3
ANSI_1252
  9
$INSBASE
 10
0.0
 20
0.0
 30
0.0
  9
$EXTMIN
 10
1.000000000000000E+20
 20
1.000000000000000E+20
 30
1.000000000000000E+20
  9
$EXTMAX
 10
-1.000000000000000E+20
 20
-1.000000000000000E+20
 30
-1.000000000000000E+20
  9
$LIMMIN
 10
0.0
 20
0.0
  9
$LIMMAX
 10
12.0
 20
9.0
  9
$ORTHOMODE
 70
     0
  9
$REGENMODE
 70
     1
  9
$FILLMODE
 70
     1
  9
$QTEXTMODE
 70
     0
  9
$MIRRTEXT
 70
     1
  9
$LTSCALE
 40
1.0
  9
$ATTMODE
 70
     1
  9
$TEXTSIZE
 40
0.2
  9
$TRACEWID
 40
0.05
  9
$TEXTSTYLE
  7
Standard
  9
$CLAYER
  8
0
  9
$CELTYPE
  6
ByLayer
  9
$CECOLOR
 62
   256
  9
$CELTSCALE
 40
1.0
  9
$DISPSILH
 70
     0
  9
$DIMSCALE
 40
1.0
  9
$DIMASZ
 40
0.18
  9
$DIMEXO
 40
0.0625
  9
$DIMDLI
 40
0.38
  9
$DIMRND
 40
0.0
  9
$DIMDLE
 40
0.0
  9
$DIMEXE
 40
0.18
  9
$DIMTP
 40
0.0
  9
$DIMTM
 40
0.0
  9
$DIMTXT
 40
0.18
  9
$DIMCEN
 40
0.09
  9
$DIMTSZ
 40
0.0
  9
$DIMTOL
 70
     0
  9
$DIMLIM
 70
     0
  9
$DIMTIH
 70
     1
  9
$DIMTOH
 70
     1
  9
$DIMSE1
 70
     0
  9
$DIMSE2
 70
     0
  9
$DIMTAD
 70
     0
  9
$DIMZIN
 70
     0
  9
$DIMBLK
  1

  9
$DIMASO
 70
     1
  9
$DIMSHO
 70
     1
  9
$DIMPOST
  1

  9
$DIMAPOST
  1

  9
$DIMALT
 70
     0
  9
$DIMALTD
 70
     2
  9
$DIMALTF
 40
25.4
  9
$DIMLFAC
 40
1.0
  9
$DIMTOFL
 70
     0
  9
$DIMTVP
 40
0.0
  9
$DIMTIX
 70
     0
  9
$DIMSOXD
 70
     0
  9
$DIMSAH
 70
     0
  9
$DIMBLK1
  1

  9
$DIMBLK2
  1

  9
$DIMSTYLE
  2
Standard
  9
$DIMCLRD
 70
     0
  9
$DIMCLRE
 70
     0
  9
$DIMCLRT
 70
     0
  9
$DIMTFAC
 40
1.0
  9
$DIMGAP
 40
0.09
  9
$DIMJUST
 70
     0
  9
$DIMSD1
 70
     0
  9
$DIMSD2
 70
     0
  9
$DIMTOLJ
 70
     1
  9
$DIMTZIN
 70
     0
  9
$DIMALTZ
 70
     0
  9
$DIMALTTZ
 70
     0
  9
$DIMUPT
 70
     0
  9
$DIMDEC
 70
     4
  9
$DIMTDEC
 70
     4
  9
$DIMALTU
 70
     2
  9
$DIMALTTD
 70
     2
  9
$DIMTXSTY
  7
Standard
  9
$DIMAUNIT
 70
     0
  9
$DIMADEC
 70
     0
  9
$DIMALTRND
 40
0.0
  9
$DIMAZIN
 70
     0
  9
$DIMDSEP
 70
    46
  9
$DIMATFIT
 70
     3
  9
$DIMFRAC
 70
     0
  9
$DIMLDRBLK
  1

  9
$DIMLUNIT
 70
     2
  9
$DIMLWD
 70
    -2
  9
$DIMLWE
 70
    -2
  9
$DIMTMOVE
 70
     0
  9
$DIMFXL
 40
1.0
  9
$DIMFXLON
 70
     0
  9
$DIMJOGANG
 40
0.7853981633974483
  9
$DIMTFILL
 70
     0
  9
$DIMTFILLCLR
 70
     0
  9
$DIMARCSYM
 70
     0
  9
$DIMLTYPE
  6

  9
$DIMLTEX1
  6

  9
$DIMLTEX2
  6

  9
$DIMTXTDIRECTION
 70
     0
  9
$LUNITS
 70
     2
  9
$LUPREC
 70
     4
  9
$SKETCHINC
 40
0.1
  9
$FILLETRAD
 40
0.5
  9
$AUNITS
 70
     0
  9
$AUPREC
 70
     0
  9
$MENU
  1
.
  9
$ELEVATION
 40
0.0
  9
$PELEVATION
 40
0.0
  9
$THICKNESS
 40
0.0
  9
$LIMCHECK
 70
     0
  9
$CHAMFERA
 40
0.5
  9
$CHAMFERB
 40
0.5
  9
$CHAMFERC
 40
1.0
  9
$CHAMFERD
 40
0.0
  9
$SKPOLY
 70
     0
  9
$TDCREATE
 40
2458782.601078438
  9
$TDUCREATE
 40
2458782.059411771
  9
$TDUPDATE
 40
2458782.601078565
  9
$TDUUPDATE
 40
2458782.059411898
  9
$TDINDWG
 40
0.0000000116
  9
$TDUSRTIMER
 40
0.0000000116
  9
$USRTIMER
 70
     1
  9
$ANGBASE
 50
0.0
  9
$ANGDIR
 70
     0
  9
$PDMODE
 70
     0
  9
$PDSIZE
 40
0.0
  9
$PLINEWID
 40
0.0
  9
$SPLFRAME
 70
     0
  9
$SPLINETYPE
 70
     6
  9
$SPLINESEGS
 70
     8
  9
$HANDSEED
  5
153
  9
$SURFTAB1
 70
     6
  9
$SURFTAB2
 70
     6
  9
$SURFTYPE
 70
     6
  9
$SURFU
 70
     6
  9
$SURFV
 70
     6
  9
$UCSBASE
  2

  9
$UCSNAME
  2

  9
$UCSORG
 10
0.0
 20
0.0
 30
0.0
  9
$UCSXDIR
 10
1.0
 20
0.0
 30
0.0
  9
$UCSYDIR
 10
0.0
 20
1.0
 30
0.0
  9
$UCSORTHOREF
  2

  9
$UCSORTHOVIEW
 70
     0
  9
$UCSORGTOP
 10
0.0
 20
0.0
 30
0.0
  9
$UCSORGBOTTOM
 10
0.0
 20
0.0
 30
0.0
  9
$UCSORGLEFT
 10
0.0
 20
0.0
 30
0.0
  9
$UCSORGRIGHT
 10
0.0
 20
0.0
 30
0.0
  9
$UCSORGFRONT
 10
0.0
 20
0.0
 30
0.0
  9
$UCSORGBACK
 10
0.0
 20
0.0
 30
0.0
  9
$PUCSBASE
  2

  9
$PUCSNAME
  2

  9
$PUCSORG
 10
0.0
 20
0.0
 30
0.0
  9
$PUCSXDIR
 10
1.0
 20
0.0
 30
0.0
  9
$PUCSYDIR
 10
0.0
 20
1.0
 30
0.0
  9
$PUCSORTHOREF
  2

  9
$PUCSORTHOVIEW
 70
     0
  9
$PUCSORGTOP
 10
0.0
 20
0.0
 30
0.0
  9
$PUCSORGBOTTOM
 10
0.0
 20
0.0
 30
0.0
  9
$PUCSORGLEFT
 10
0.0
 20
0.0
 30
0.0
  9
$PUCSORGRIGHT
 10
0.0
 20
0.0
 30
0.0
  9
$PUCSORGFRONT
 10
0.0
 20
0.0
 30
0.0
  9
$PUCSORGBACK
 10
0.0
 20
0.0
 30
0.0
  9
$USERI1
 70
     0
  9
$USERI2
 70
     0
  9
$USERI3
 70
     0
  9
$USERI4
 70
     0
  9
$USERI5
 70
     0
  9
$USERR1
 40
0.0
  9
$USERR2
 40
0.0
  9
$USERR3
 40
0.0
  9
$USERR4
 40
0.0
  9
$USERR5
 40
0.0
  9
$WORLDVIEW
 70
     1
  9
$SHADEDGE
 70
     3
  9
$SHADEDIF
 70
    70
  9
$TILEMODE
 70
     1
  9
$MAXACTVP
 70
    64
  9
$PINSBASE
 10
0.0
 20
0.0
 30
0.0
  9
$PLIMCHECK
 70
     0
  9
$PEXTMIN
 10
1.000000000000000E+20
 20
1.000000000000000E+20
 30
1.000000000000000E+20
  9
$PEXTMAX
 10
-1.000000000000000E+20
 20
-1.000000000000000E+20
 30
-1.000000000000000E+20
  9
$PLIMMIN
 10
0.0
 20
0.0
  9
$PLIMMAX
 10
12.0
 20
9.0
  9
$UNITMODE
 70
     0
  9
$VISRETAIN
 70
     1
  9
$PLINEGEN
 70
     0
  9
$PSLTSCALE
 70
     1
  9
$TREEDEPTH
 70
  3020
  9
$CMLSTYLE
  2
Standard
  9
$CMLJUST
 70
     0
  9
$CMLSCALE
 40
1.0
  9
$PROXYGRAPHICS
 70
     1
  9
$MEASUREMENT
 70
     0
  9
$CELWEIGHT
370
    -1
  9
$ENDCAPS
280
     0
  9
$JOINSTYLE
280
     0
  9
$LWDISPLAY
290
     1
  9
$INSUNITS
 70
     1
  9
$HYPERLINKBASE
  1

  9
$STYLESHEET
  1

  9
$XEDIT
290
     1
  9
$CEPSNTYPE
380
     0
  9
$PSTYLEMODE
290
     1
  9
$FINGERPRINTGUID
  2
{AF5E14F2-C0D3-4379-97EE-6BB725D6280D}
  9
$VERSIONGUID
  2
{FAEB1C32-E019-11D5-929B-00C0DF256EC4}
  9
$EXTNAMES
290
     1
  9
$PSVPSCALE
 40
0.0
  9
$OLESTARTUP
290
     0
  9
$SORTENTS
280
   127
  9
$INDEXCTL
280
     0
  9
$HIDETEXT
280
     1
  9
$XCLIPFRAME
280
     2
  9
$HALOGAP
280
     0
  9
$OBSCOLOR
 70
   257
  9
$OBSLTYPE
280
     0
  9
$INTERSECTIONDISPLAY
280
     0
  9
$INTERSECTIONCOLOR
 70
   257
  9
$DIMASSOC
280
     2
  9
$PROJECTNAME
  1

  9
$CAMERADISPLAY
290
     0
  9
$LENSLENGTH
 40
50.0
  9
$CAMERAHEIGHT
 40
0.0
  9
$STEPSPERSEC
 40
2.0
  9
$STEPSIZE
 40
6.0
  9
$3DDWFPREC
 40
2.0
  9
$PSOLWIDTH
 40
0.25
  9
$PSOLHEIGHT
 40
4.0
  9
$LOFTANG1
 40
1.570796326794897
  9
$LOFTANG2
 40
1.570796326794897
  9
$LOFTMAG1
 40
0.0
  9
$LOFTMAG2
 40
0.0
  9
$LOFTPARAM
 70
     7
  9
$LOFTNORMALS
280
     1
  9
$LATITUDE
 40
37.795
  9
$LONGITUDE
 40
-122.394
  9
$NORTHDIRECTION
 40
0.0
  9
$TIMEZONE
 70
 -8000
  9
$LIGHTGLYPHDISPLAY
280
     1
  9
$TILEMODELIGHTSYNCH
280
     1
  9
$CMATERIAL
347
3C
  9
$SOLIDHIST
280
     1
  9
$SHOWHIST
280
     1
  9
$DWFFRAME
280
     2
  9
$DGNFRAME
280
     2
  9
$REALWORLDSCALE
290
     1
  9
$INTERFERECOLOR
 62
   256
  9
$CSHADOW
280
     0
  9
$SHADOWPLANELOCATION
 40
0.0
  0
ENDSEC
  0
SECTION
  2
CLASSES
  0
CLASS
  1
ACDBDICTIONARYWDFLT
  2
AcDbDictionaryWithDefault
  3
ObjectDBX Classes
 90
        0
 91
        4
280
     0
281
     0
  0
CLASS
  1
VISUALSTYLE
  2
AcDbVisualStyle
  3
ObjectDBX Classes
 90
     4095
 91
        4
280
     0
281
     0
  0
CLASS
  1
MATERIAL
  2
AcDbMaterial
  3
ObjectDBX Classes
 90
     1153
 91
        4
280
     0
281
     0
  0
CLASS
  1
SUN
  2
AcDbSun
  3
SCENEOE
 90
     1024
 91
        4
280
     0
281
     0
  0
ENDSEC
  0
SECTION
  2
TABLES
  0
TABLE
  2
VPORT
  5
8
330
0
100
AcDbSymbolTable
 70
     1
  0
VPORT
  5
29
330
8
100
AcDbSymbolTableRecord
100
AcDbViewportTableRecord
  2
*Active
 70
     0
 10
0.0
 20
0.0
 11
1.0
 21
1.0
 12
0.0
 22
0.0
 13
0.0
 23
0.0
 14
0.5
 24
0.5
 15
0.5
 25
0.5
 16
0.0
 26
0.0
 36
1.0
 17
2.528706880520076
 27
2.018968004508275
 37
0.0
 40
11.69291338582677
 41
0.7070707070707065
 42
50.0
 43
0.0
 44
0.0
 50
0.0
 51
0.0
 71
     0
 72
   100
 73
     1
 74
     3
 75
     0
 76
     0
 77
     0
 78
     0
281
     0
 65
     1
110
0.0
120
0.0
130
0.0
111
1.0
121
0.0
131
0.0
112
0.0
122
1.0
132
0.0
 79
     0
146
0.0
 60
     3
 61
     5
292
     1
282
     1
141
0.0
142
0.0
 63
   250
361
3F
  0
ENDTAB
  0
TABLE
  2
LTYPE
  5
5
330
0
100
AcDbSymbolTable
 70
     1
  0
LTYPE
  5
14
330
5
100
AcDbSymbolTableRecord
100
AcDbLinetypeTableRecord
  2
ByBlock
 70
     0
  3

 72
    65
 73
     0
 40
0.0
  0
LTYPE
  5
15
330
5
100
AcDbSymbolTableRecord
100
AcDbLinetypeTableRecord
  2
ByLayer
 70
     0
  3

 72
    65
 73
     0
 40
0.0
  0
LTYPE
  5
16
330
5
100
AcDbSymbolTableRecord
100
AcDbLinetypeTableRecord
  2
Continuous
 70
     0
  3
Solid line
 72
    65
 73
     0
 40
0.0
  0
ENDTAB
  0
TABLE
  2
LAYER
  5
2
330
0
100
AcDbSymbolTable
 70
     4
  0
LAYER
  5
10
330
2
100
AcDbSymbolTableRecord
100
AcDbLayerTableRecord
  2
0
 70
     0
 62
     7
  6
Continuous
370
    -3
390
F
347
3E
  0
LAYER
  5
40
330
2
100
AcDbSymbolTableRecord
100
AcDbLayerTableRecord
  2
Layer 1
 70
     0
 62
     7
  6
Continuous
370
    -3
390
F
347
3E
  0
LAYER
  5
C7
330
2
100
AcDbSymbolTableRecord
100
AcDbLayerTableRecord
  2
E5
 70
     0
 62
     7
  6
Continuous
370
    -3
390
F
347
3E
  0
LAYER
  5
13F
330
2
100
AcDbSymbolTableRecord
100
AcDbLayerTableRecord
  2
callout
 70
     0
 62
     7
  6
Continuous
370
    -3
390
F
347
3E
  0
ENDTAB
  0
TABLE
  2
STYLE
  5
3
330
0
100
AcDbSymbolTable
 70
     1
  0
STYLE
  5
11
330
3
100
AcDbSymbolTableRecord
100
AcDbTextStyleTableRecord
  2
Standard
 70
     0
 40
0.0
 41
1.0
 50
0.0
 71
     0
 42
0.2
  3
txt
  4

  0
ENDTAB
  0
TABLE
  2
VIEW
  5
6
330
0
100
AcDbSymbolTable
 70
     0
  0
ENDTAB
  0
TABLE
  2
UCS
  5
7
330
0
100
AcDbSymbolTable
 70
     0
  0
ENDTAB
  0
TABLE
  2
APPID
  5
9
330
0
100
AcDbSymbolTable
 70
     1
  0
APPID
  5
12
330
9
100
AcDbSymbolTableRecord
100
AcDbRegAppTableRecord
  2
ACAD
 70
     0
  0
ENDTAB
  0
TABLE
  2
DIMSTYLE
  5
A
330
0
100
AcDbSymbolTable
 70
     1
100
AcDbDimStyleTable
  0
DIMSTYLE
105
27
330
A
100
AcDbSymbolTableRecord
100
AcDbDimStyleTableRecord
  2
Standard
 70
     0
178
     0
340
11
  0
ENDTAB
  0
TABLE
  2
BLOCK_RECORD
  5
1
330
0
100
AcDbSymbolTable
 70
    13
  0
BLOCK_RECORD
  5
1F
330
1
100
AcDbSymbolTableRecord
100
AcDbBlockTableRecord
  2
*Model_Space
340
22
 70
     0
280
     1
281
     0
  0
BLOCK_RECORD
  5
1B
330
1
100
AcDbSymbolTableRecord
100
AcDbBlockTableRecord
  2
*Paper_Space
340
1E
 70
     0
280
     1
281
     0
  0
BLOCK_RECORD
  5
23
330
1
100
AcDbSymbolTableRecord
100
AcDbBlockTableRecord
  2
*Paper_Space0
340
26
 70
     0
280
     1
281
     0
  0
BLOCK_RECORD
  5
C8
330
1
100
AcDbSymbolTableRecord
100
AcDbBlockTableRecord
  2
block 2
340
0
102
{BLKREFS
331
C9
102
}
 70
     0
280
     1
281
     0
  0
BLOCK_RECORD
  5
D7
330
1
100
AcDbSymbolTableRecord
100
AcDbBlockTableRecord
  2
block 3
340
0
102
{BLKREFS
331
D8
102
}
 70
     0
280
     1
281
     0
  0
BLOCK_RECORD
  5
DC
330
1
100
AcDbSymbolTableRecord
100
AcDbBlockTableRecord
  2
block 4
340
0
102
{BLKREFS
331
DD
102
}
 70
     0
280
     1
281
     0
  0
BLOCK_RECORD
  5
E1
330
1
100
AcDbSymbolTableRecord
100
AcDbBlockTableRecord
  2
block 5
340
0
102
{BLKREFS
331
E2
102
}
 70
     0
280
     1
281
     0
  0
BLOCK_RECORD
  5
E6
330
1
100
AcDbSymbolTableRecord
100
AcDbBlockTableRecord
  2
block 6
340
0
102
{BLKREFS
331
E7
102
}
 70
     0
280
     1
281
     0
  0
BLOCK_RECORD
  5
EB
330
1
100
AcDbSymbolTableRecord
100
AcDbBlockTableRecord
  2
block 7
340
0
102
{BLKREFS
331
EC
102
}
 70
     0
280
     1
281
     0
  0
BLOCK_RECORD
  5
F0
330
1
100
AcDbSymbolTableRecord
100
AcDbBlockTableRecord
  2
block 8
340
0
102
{BLKREFS
331
F1
102
}
 70
     0
280
     1
281
     0
  0
BLOCK_RECORD
  5
F5
330
1
100
AcDbSymbolTableRecord
100
AcDbBlockTableRecord
  2
block 9
340
0
102
{BLKREFS
331
F6
102
}
 70
     0
280
     1
281
     0
  0
BLOCK_RECORD
  5
FA
330
1
100
AcDbSymbolTableRecord
100
AcDbBlockTableRecord
  2
block 10
340
0
102
{BLKREFS
331
FB
102
}
 70
     0
280
     1
281
     0
  0
BLOCK_RECORD
  5
FF
330
1
100
AcDbSymbolTableRecord
100
AcDbBlockTableRecord
  2
block 11
340
0
102
{BLKREFS
331
100
102
}
 70
     0
280
     1
281
     0
  0
BLOCK_RECORD
  5
104
330
1
100
AcDbSymbolTableRecord
100
AcDbBlockTableRecord
  2
block 12
340
0
102
{BLKREFS
331
105
102
}
 70
     0
280
     1
281
     0
  0
BLOCK_RECORD
  5
10B
330
1
100
AcDbSymbolTableRecord
100
AcDbBlockTableRecord
  2
block 13
340
0
102
{BLKREFS
331
10C
102
}
 70
     0
280
     1
281
     0
  0
ENDTAB
  0
ENDSEC
  0
SECTION
  2
BLOCKS
  0
BLOCK
  5
20
330
1F
100
AcDbEntity
  8
0
100
AcDbBlockBegin
  2
*Model_Space
 70
     0
 10
0.0
 20
0.0
 30
0.0
  3
*Model_Space
  1

  0
ENDBLK
  5
21
330
1F
100
AcDbEntity
  8
0
100
AcDbBlockEnd
  0
BLOCK
  5
1C
330
1B
100
AcDbEntity
 67
     1
  8
0
100
AcDbBlockBegin
  2
*Paper_Space
 70
     0
 10
0.0
 20
0.0
 30
0.0
  3
*Paper_Space
  1

  0
ENDBLK
  5
1D
330
1B
100
AcDbEntity
 67
     1
  8
0
100
AcDbBlockEnd
  0
BLOCK
  5
24
330
23
100
AcDbEntity
  8
0
100
AcDbBlockBegin
  2
*Paper_Space0
 70
     0
 10
0.0
 20
0.0
 30
0.0
  3
*Paper_Space0
  1

  0
ENDBLK
  5
25
330
23
100
AcDbEntity
  8
0
100
AcDbBlockEnd
  0
BLOCK
  5
CA
330
C8
100
AcDbEntity
  8
0
100
AcDbBlockBegin
  2
block 2
 70
     0
 10
0.0
 20
0.0
 30
0.0
  3
block 2
  1

  0
SPLINE
  5
CC
330
C8
100
AcDbEntity
  8
E5
 62
   250
420
  2301728
370
    25
100
AcDbSpline
210
0.0
220
0.0
230
1.0
 70
    11
 71
     3
 72
    44
 73
    40
 74
     0
 42
0.0000000001
 43
0.0000000001
 12
1.0
 22
0.0
 32
0.0
 13
1.0
 23
0.0
 33
0.0
 40
0.0
 40
0.0
 40
0.0
 40
0.0
 40
1.0
 40
1.0
 40
1.0
 40
2.0
 40
2.0
 40
2.0
 40
3.0
 40
3.0
 40
3.0
 40
4.0
 40
4.0
 40
4.0
 40
5.0
 40
5.0
 40
5.0
 40
6.0
 40
6.0
 40
6.0
 40
7.0
 40
7.0
 40
7.0
 40
8.0
 40
8.0
 40
8.0
 40
9.0
 40
9.0
 40
9.0
 40
10.0
 40
10.0
 40
10.0
 40
11.0
 40
11.0
 40
11.0
 40
12.0
 40
12.0
 40
12.0
 40
13.0
 40
13.0
 40
13.0
 40
13.0
 10
2.808769931547204
 20
3.456805568820755
 30
0.0
 10
2.808769931547204
 20
3.456805568820755
 30
0.0
 10
2.855983346386918
 20
3.436496800396627
 30
0.0
 10
2.855983346386918
 20
3.436496800396627
 30
0.0
 10
2.855983346386918
 20
3.436496800396627
 30
0.0
 10
2.868141795551537
 20
2.742789256988595
 30
0.0
 10
2.868122990981849
 20
2.735250784743812
 30
0.0
 10
2.868104172635943
 20
2.727706789808735
 30
0.0
 10
2.870184666475653
 20
2.711267293549225
 30
0.0
 10
2.882905789979632
 20
2.703117159956794
 30
0.0
 10
2.895626913483561
 20
2.694967026364414
 30
0.0
 10
3.256288110738321
 20
2.584188904191604
 30
0.0
 10
3.256288110738321
 20
2.584188904191604
 30
0.0
 10
3.256288110738321
 20
2.584188904191604
 30
0.0
 10
3.256223484705641
 20
2.559684204534177
 30
0.0
 10
3.256223484705641
 20
2.559684204534177
 30
0.0
 10
3.256223484705641
 20
2.559684204534177
 30
0.0
 10
2.518463035043042
 20
2.110421726900843
 30
0.0
 10
2.518463035043042
 20
2.110421726900843
 30
0.0
 10
2.518463035043042
 20
2.110421726900843
 30
0.0
 10
2.133200486674923
 20
2.251630177198876
 30
0.0
 10
2.106160606698874
 20
2.263295615805191
 30
0.0
 10
2.079107498040457
 20
2.274957775254178
 30
0.0
 10
2.077601559735891
 20
2.307081973240858
 30
0.0
 10
2.077636826914209
 20
2.321220060381317
 30
0.0
 10
2.077672094092501
 20
2.33535814752175
 30
0.0
 10
2.067063082576043
 20
3.056046399366146
 30
0.0
 10
2.067063082576043
 20
3.056046399366146
 30
0.0
 10
2.067063082576043
 20
3.056046399366146
 30
0.0
 10
2.115038852988745
 20
3.1343466693761
 30
0.0
 10
2.115038852988745
 20
3.1343466693761
 30
0.0
 10
2.115038852988745
 20
3.1343466693761
 30
0.0
 10
2.784879852366405
 20
3.459358486402102
 30
0.0
 10
2.784879852366405
 20
3.459358486402102
 30
0.0
 10
2.784879852366405
 20
3.459358486402102
 30
0.0
 10
2.80876409105877
 20
3.45680239629299
 30
0.0
 10
2.80876409105877
 20
3.45680239629299
 30
0.0
 10
2.80876409105877
 20
3.45680239629299
 30
0.0
 10
2.808769931547204
 20
3.456805568820755
 30
0.0
 10
2.808769931547204
 20
3.456805568820755
 30
0.0
  0
SPLINE
  5
CD
330
C8
100
AcDbEntity
  8
E5
 62
   250
420
  2301728
370
    25
100
AcDbSpline
210
0.0
220
0.0
230
1.0
 70
    11
 71
     3
 72
    11
 73
     7
 74
     0
 42
0.0000000001
 43
0.0000000001
 12
1.0
 22
0.0
 32
0.0
 13
1.0
 23
0.0
 33
0.0
 40
0.0
 40
0.0
 40
0.0
 40
0.0
 40
1.0
 40
1.0
 40
1.0
 40
2.0
 40
2.0
 40
2.0
 40
2.0
 10
2.792834587722786
 20
2.778751714652672
 30
0.0
 10
2.762028120201623
 20
2.772059130113196
 30
0.0
 10
2.744975198998418
 20
2.747107132206161
 30
0.0
 10
2.753414669522928
 20
2.724710103328309
 30
0.0
 10
2.777849581051997
 20
2.729823291374259
 30
0.0
 10
2.79807184553316
 20
2.75084710750323
 30
0.0
 10
2.792834587722786
 20
2.778751714652672
 30
0.0
  0
SPLINE
  5
CE
330
C8
100
AcDbEntity
  8
E5
 62
   250
420
  2301728
370
    25
100
AcDbSpline
210
0.0
220
0.0
230
1.0
 70
    11
 71
     3
 72
    11
 73
     7
 74
     0
 42
0.0000000001
 43
0.0000000001
 12
1.0
 22
0.0
 32
0.0
 13
1.0
 23
0.0
 33
0.0
 40
0.0
 40
0.0
 40
0.0
 40
0.0
 40
1.0
 40
1.0
 40
1.0
 40
2.0
 40
2.0
 40
2.0
 40
2.0
 10
2.808908307308557
 20
2.416300374129049
 30
0.0
 10
2.809003528689901
 20
2.45447320940827
 30
0.0
 10
2.644887138013827
 20
2.425095123142455
 30
0.0
 10
2.628827031331614
 20
2.37166139800095
 30
0.0
 10
2.655831619121601
 20
2.34444493155239
 30
0.0
 10
2.760967804074148
 20
2.352138191259529
 30
0.0
 10
2.808908307308557
 20
2.416300374129049
 30
0.0
  0
SPLINE
  5
CF
330
C8
100
AcDbEntity
  8
E5
 62
   250
420
  2301728
370
    25
100
AcDbSpline
210
0.0
220
0.0
230
1.0
 70
    11
 71
     3
 72
    11
 73
     7
 74
     0
 42
0.0000000001
 43
0.0000000001
 12
1.0
 22
0.0
 32
0.0
 13
1.0
 23
0.0
 33
0.0
 40
0.0
 40
0.0
 40
0.0
 40
0.0
 40
1.0
 40
1.0
 40
1.0
 40
2.0
 40
2.0
 40
2.0
 40
2.0
 10
2.456910647948904
 20
2.617296377000482
 30
0.0
 10
2.481342835925665
 20
2.622408889925787
 30
0.0
 10
2.501558472289364
 20
2.6434255437858
 30
0.0
 10
2.496324729965307
 20
2.671336541637806
 30
0.0
 10
2.465521375075279
 20
2.664644728664724
 30
0.0
 10
2.448468453872162
 20
2.639692730757714
 30
0.0
 10
2.456910647948904
 20
2.617296377000482
 30
0.0
  0
SPLINE
  5
D0
330
C8
100
AcDbEntity
  8
E5
 62
   250
420
  2301728
370
    25
100
AcDbSpline
210
0.0
220
0.0
230
1.0
 70
    11
 71
     3
 72
    26
 73
    22
 74
     0
 42
0.0000000001
 43
0.0000000001
 12
1.0
 22
0.0
 32
0.0
 13
1.0
 23
0.0
 33
0.0
 40
0.0
 40
0.0
 40
0.0
 40
0.0
 40
1.0
 40
1.0
 40
1.0
 40
2.0
 40
2.0
 40
2.0
 40
3.0
 40
3.0
 40
3.0
 40
4.0
 40
4.0
 40
4.0
 40
5.0
 40
5.0
 40
5.0
 40
6.0
 40
6.0
 40
6.0
 40
7.0
 40
7.0
 40
7.0
 40
7.0
 10
2.354530187874464
 20
2.868841843458047
 30
0.0
 10
2.354466706953505
 20
2.84339328660523
 30
0.0
 10
2.373569552516478
 20
2.839650938500931
 30
0.0
 10
2.373569552516478
 20
2.839650938500931
 30
0.0
 10
2.373569552516478
 20
2.839650938500931
 30
0.0
 10
2.392682978232895
 20
2.840150016538751
 30
0.0
 10
2.41501195200351
 20
2.852749648318927
 30
0.0
 10
2.437340925774202
 20
2.865349280099079
 30
0.0
 10
2.537808939222107
 20
2.915686351908865
 30
0.0
 10
2.548978741191932
 20
2.925519821571823
 30
0.0
 10
2.560155546581932
 20
2.935355027259283
 30
0.0
 10
2.604858112025416
 20
2.978596823548716
 30
0.0
 10
2.60017358637669
 20
3.017334454038228
 30
0.0
 10
2.595495298905537
 20
3.056078805182652
 30
0.0
 10
2.555632020523717
 20
3.03879087804133
 30
0.0
 10
2.555632020523717
 20
3.03879087804133
 30
0.0
 10
2.555632020523717
 20
3.03879087804133
 30
0.0
 10
2.463128791129356
 20
2.987602266890665
 30
0.0
 10
2.423265512832371
 20
2.966417386382103
 30
0.0
 10
2.383389005852905
 20
2.945229226716163
 30
0.0
 10
2.354593668795347
 20
2.894290400310827
 30
0.0
 10
2.354530187874464
 20
2.868841843458047
 30
0.0
  0
SPLINE
  5
D1
330
C8
100
AcDbEntity
  8
E5
 62
   250
420
  2301728
370
    25
100
AcDbSpline
210
0.0
220
0.0
230
1.0
 70
    11
 71
     3
 72
    11
 73
     7
 74
     0
 42
0.0000000001
 43
0.0000000001
 12
1.0
 22
0.0
 32
0.0
 13
1.0
 23
0.0
 33
0.0
 40
0.0
 40
0.0
 40
0.0
 40
0.0
 40
1.0
 40
1.0
 40
1.0
 40
2.0
 40
2.0
 40
2.0
 40
2.0
 10
2.159045607688666
 20
2.399330177710403
 30
0.0
 10
2.183477406586525
 20
2.404442594189908
 30
0.0
 10
2.203699282849837
 20
2.425466659041224
 30
0.0
 10
2.198462413257327
 20
2.453371017468347
 30
0.0
 10
2.167655945736164
 20
2.446678432928846
 30
0.0
 10
2.150603024533022
 20
2.42172643502181
 30
0.0
 10
2.159045607688666
 20
2.399330177710403
 30
0.0
  0
HATCH
  5
D2
330
C8
100
AcDbEntity
  8
E5
 62
   254
420
 13358815
100
AcDbHatch
 10
0.0
 20
0.0
 30
0.0
210
0.0
220
0.0
230
1.0
  2
SOLID
 70
     1
 71
     0
 91
        6
 92
        1
 93
        1
 72
     4
 94
        3
 73
     0
 74
     1
 95
       44
 96
       40
 40
0.0
 40
0.0
 40
0.0
 40
0.0
 40
1.0
 40
1.0
 40
1.0
 40
2.0
 40
2.0
 40
2.0
 40
3.0
 40
3.0
 40
3.0
 40
4.0
 40
4.0
 40
4.0
 40
5.0
 40
5.0
 40
5.0
 40
6.0
 40
6.0
 40
6.0
 40
7.0
 40
7.0
 40
7.0
 40
8.0
 40
8.0
 40
8.0
 40
9.0
 40
9.0
 40
9.0
 40
10.0
 40
10.0
 40
10.0
 40
11.0
 40
11.0
 40
11.0
 40
12.0
 40
12.0
 40
12.0
 40
13.0
 40
13.0
 40
13.0
 40
13.0
 10
2.808769931547204
 20
3.456805568820755
 10
2.808769931547204
 20
3.456805568820755
 10
2.855983346386918
 20
3.436496800396627
 10
2.855983346386918
 20
3.436496800396627
 10
2.855983346386918
 20
3.436496800396627
 10
2.868141795551537
 20
2.742789256988595
 10
2.868122990981849
 20
2.735250784743812
 10
2.868104172635943
 20
2.727706789808735
 10
2.870184666475653
 20
2.711267293549225
 10
2.882905789979632
 20
2.703117159956794
 10
2.895626913483561
 20
2.694967026364414
 10
3.256288110738321
 20
2.584188904191604
 10
3.256288110738321
 20
2.584188904191604
 10
3.256288110738321
 20
2.584188904191604
 10
3.256223484705641
 20
2.559684204534177
 10
3.256223484705641
 20
2.559684204534177
 10
3.256223484705641
 20
2.559684204534177
 10
2.518463035043042
 20
2.110421726900843
 10
2.518463035043042
 20
2.110421726900843
 10
2.518463035043042
 20
2.110421726900843
 10
2.133200486674923
 20
2.251630177198876
 10
2.106160606698874
 20
2.263295615805191
 10
2.079107498040457
 20
2.274957775254178
 10
2.077601559735891
 20
2.307081973240858
 10
2.077636826914209
 20
2.321220060381317
 10
2.077672094092501
 20
2.33535814752175
 10
2.067063082576043
 20
3.056046399366146
 10
2.067063082576043
 20
3.056046399366146
 10
2.067063082576043
 20
3.056046399366146
 10
2.115038852988745
 20
3.1343466693761
 10
2.115038852988745
 20
3.1343466693761
 10
2.115038852988745
 20
3.1343466693761
 10
2.784879852366405
 20
3.459358486402102
 10
2.784879852366405
 20
3.459358486402102
 10
2.784879852366405
 20
3.459358486402102
 10
2.80876409105877
 20
3.45680239629299
 10
2.80876409105877
 20
3.45680239629299
 10
2.80876409105877
 20
3.45680239629299
 10
2.808769931547204
 20
3.456805568820755
 10
2.808769931547204
 20
3.456805568820755
 97
        0
 97
        0
 92
        1
 93
        1
 72
     4
 94
        3
 73
     0
 74
     1
 95
       11
 96
        7
 40
0.0
 40
0.0
 40
0.0
 40
0.0
 40
1.0
 40
1.0
 40
1.0
 40
2.0
 40
2.0
 40
2.0
 40
2.0
 10
2.792834587722786
 20
2.778751714652672
 10
2.762028120201623
 20
2.772059130113196
 10
2.744975198998418
 20
2.747107132206161
 10
2.753414669522928
 20
2.724710103328309
 10
2.777849581051997
 20
2.729823291374259
 10
2.79807184553316
 20
2.75084710750323
 10
2.792834587722786
 20
2.778751714652672
 97
        0
 97
        0
 92
        1
 93
        1
 72
     4
 94
        3
 73
     0
 74
     1
 95
       11
 96
        7
 40
0.0
 40
0.0
 40
0.0
 40
0.0
 40
1.0
 40
1.0
 40
1.0
 40
2.0
 40
2.0
 40
2.0
 40
2.0
 10
2.808908307308557
 20
2.416300374129049
 10
2.809003528689901
 20
2.45447320940827
 10
2.644887138013827
 20
2.425095123142455
 10
2.628827031331614
 20
2.37166139800095
 10
2.655831619121601
 20
2.34444493155239
 10
2.760967804074148
 20
2.352138191259529
 10
2.808908307308557
 20
2.416300374129049
 97
        0
 97
        0
 92
        1
 93
        1
 72
     4
 94
        3
 73
     0
 74
     1
 95
       11
 96
        7
 40
0.0
 40
0.0
 40
0.0
 40
0.0
 40
1.0
 40
1.0
 40
1.0
 40
2.0
 40
2.0
 40
2.0
 40
2.0
 10
2.456910647948904
 20
2.617296377000482
 10
2.481342835925665
 20
2.622408889925787
 10
2.501558472289364
 20
2.6434255437858
 10
2.496324729965307
 20
2.671336541637806
 10
2.465521375075279
 20
2.664644728664724
 10
2.448468453872162
 20
2.639692730757714
 10
2.456910647948904
 20
2.617296377000482
 97
        0
 97
        0
 92
        1
 93
        1
 72
     4
 94
        3
 73
     0
 74
     1
 95
       26
 96
       22
 40
0.0
 40
0.0
 40
0.0
 40
0.0
 40
1.0
 40
1.0
 40
1.0
 40
2.0
 40
2.0
 40
2.0
 40
3.0
 40
3.0
 40
3.0
 40
4.0
 40
4.0
 40
4.0
 40
5.0
 40
5.0
 40
5.0
 40
6.0
 40
6.0
 40
6.0
 40
7.0
 40
7.0
 40
7.0
 40
7.0
 10
2.354530187874464
 20
2.868841843458047
 10
2.354466706953505
 20
2.84339328660523
 10
2.373569552516478
 20
2.839650938500931
 10
2.373569552516478
 20
2.839650938500931
 10
2.373569552516478
 20
2.839650938500931
 10
2.392682978232895
 20
2.840150016538751
 10
2.41501195200351
 20
2.852749648318927
 10
2.437340925774202
 20
2.865349280099079
 10
2.537808939222107
 20
2.915686351908865
 10
2.548978741191932
 20
2.925519821571823
 10
2.560155546581932
 20
2.935355027259283
 10
2.604858112025416
 20
2.978596823548716
 10
2.60017358637669
 20
3.017334454038228
 10
2.595495298905537
 20
3.056078805182652
 10
2.555632020523717
 20
3.03879087804133
 10
2.555632020523717
 20
3.03879087804133
 10
2.555632020523717
 20
3.03879087804133
 10
2.463128791129356
 20
2.987602266890665
 10
2.423265512832371
 20
2.966417386382103
 10
2.383389005852905
 20
2.945229226716163
 10
2.354593668795347
 20
2.894290400310827
 10
2.354530187874464
 20
2.868841843458047
 97
        0
 97
        0
 92
        1
 93
        1
 72
     4
 94
        3
 73
     0
 74
     1
 95
       11
 96
        7
 40
0.0
 40
0.0
 40
0.0
 40
0.0
 40
1.0
 40
1.0
 40
1.0
 40
2.0
 40
2.0
 40
2.0
 40
2.0
 10
2.159045607688666
 20
2.399330177710403
 10
2.183477406586525
 20
2.404442594189908
 10
2.203699282849837
 20
2.425466659041224
 10
2.198462413257327
 20
2.453371017468347
 10
2.167655945736164
 20
2.446678432928846
 10
2.150603024533022
 20
2.42172643502181
 10
2.159045607688666
 20
2.399330177710403
 97
        0
 97
        0
 75
     2
 76
     1
 98
        0
  0
SPLINE
  5
D3
330
C8
100
AcDbEntity
  8
E5
 62
   250
420
  2301728
370
    20
100
AcDbSpline
210
0.0
220
0.0
230
1.0
 70
    11
 71
     3
 72
    23
 73
    19
 74
     0
 42
0.0000000001
 43
0.0000000001
 12
1.0
 22
0.0
 32
0.0
 13
1.0
 23
0.0
 33
0.0
 40
0.0
 40
0.0
 40
0.0
 40
0.0
 40
1.0
 40
1.0
 40
1.0
 40
2.0
 40
2.0
 40
2.0
 40
3.0
 40
3.0
 40
3.0
 40
4.0
 40
4.0
 40
4.0
 40
5.0
 40
5.0
 40
5.0
 40
6.0
 40
6.0
 40
6.0
 40
6.0
 10
2.628827245779601
 20
2.371661488137988
 30
0.0
 10
2.640834708552095
 20
2.397951345940681
 30
0.0
 10
2.671930615038768
 20
2.41343061316037
 30
0.0
 10
2.716558585478474
 20
2.426612502651311
 30
0.0
 10
2.761186555918433
 20
2.439794392142251
 30
0.0
 10
2.803385231728321
 20
2.436831822756226
 30
0.0
 10
2.80890840264735
 20
2.416300434741035
 30
0.0
 10
2.80890840264735
 20
2.416300434741035
 30
0.0
 10
2.808145072888869
 20
2.429534096516969
 30
0.0
 10
2.808952486620178
 20
2.433973043666558
 30
0.0
 10
2.809759900351587
 20
2.438411990816197
 30
0.0
 10
2.79071348227391
 20
2.464775278345238
 30
0.0
 10
2.713420625216536
 20
2.445615740617945
 30
0.0
 10
2.636127768159061
 20
2.426456202890626
 30
0.0
 10
2.624081806467908
 20
2.386027456856002
 30
0.0
 10
2.624081806467908
 20
2.386027456856002
 30
0.0
 10
2.624081806467908
 20
2.386027456856002
 30
0.0
 10
2.624861006456664
 20
2.379155934293244
 30
0.0
 10
2.628827245779601
 20
2.371661488137988
 30
0.0
  0
SPLINE
  5
D4
330
C8
100
AcDbEntity
  8
E5
 62
   250
420
  2301728
370
    20
100
AcDbSpline
210
0.0
220
0.0
230
1.0
 70
    11
 71
     3
 72
    17
 73
    13
 74
     0
 42
0.0000000001
 43
0.0000000001
 12
1.0
 22
0.0
 32
0.0
 13
1.0
 23
0.0
 33
0.0
 40
0.0
 40
0.0
 40
0.0
 40
0.0
 40
1.0
 40
1.0
 40
1.0
 40
2.0
 40
2.0
 40
2.0
 40
3.0
 40
3.0
 40
3.0
 40
4.0
 40
4.0
 40
4.0
 40
4.0
 10
2.792837132487698
 20
2.778752118476025
 30
0.0
 10
2.792837132487698
 20
2.778752118476025
 30
0.0
 10
2.803353205694066
 20
2.737088805056096
 30
0.0
 10
2.753417240294993
 20
2.724710558870925
 30
0.0
 10
2.753417240294993
 20
2.724710558870925
 30
0.0
 10
2.760829539791176
 20
2.718070330543381
 30
0.0
 10
2.760829539791176
 20
2.718070330543381
 30
0.0
 10
2.760829539791176
 20
2.718070330543381
 30
0.0
 10
2.787384925335446
 20
2.722765262390491
 30
0.0
 10
2.80230249476065
 20
2.743418278678948
 30
0.0
 10
2.817220144274592
 20
2.764071314820032
 30
0.0
 10
2.802401491028554
 20
2.782066794703269
 30
0.0
 10
2.792837132487698
 20
2.778752118476025
 30
0.0
  0
SPLINE
  5
D5
330
C8
100
AcDbEntity
  8
E5
 62
   250
420
  2301728
370
    20
100
AcDbSpline
210
0.0
220
0.0
230
1.0
 70
    11
 71
     3
 72
    17
 73
    13
 74
     0
 42
0.0000000001
 43
0.0000000001
 12
1.0
 22
0.0
 32
0.0
 13
1.0
 23
0.0
 33
0.0
 40
0.0
 40
0.0
 40
0.0
 40
0.0
 40
1.0
 40
1.0
 40
1.0
 40
2.0
 40
2.0
 40
2.0
 40
3.0
 40
3.0
 40
3.0
 40
4.0
 40
4.0
 40
4.0
 40
4.0
 10
2.496327797556937
 20
2.671337214835186
 30
0.0
 10
2.496327797556937
 20
2.671337214835186
 30
0.0
 10
2.506846480973359
 20
2.629679583843186
 30
0.0
 10
2.456910503002935
 20
2.617296298020569
 30
0.0
 10
2.456910503002935
 20
2.617296298020569
 30
0.0
 10
2.464322795010439
 20
2.610656067622547
 30
0.0
 10
2.464322795010439
 20
2.610656067622547
 30
0.0
 10
2.464322795010439
 20
2.610656067622547
 30
0.0
 10
2.49087493869312
 20
2.615344544083617
 30
0.0
 10
2.505792596072322
 20
2.635997582602663
 30
0.0
 10
2.520710158385984
 20
2.656650597556639
 30
0.0
 10
2.505894753739413
 20
2.674652534995832
 30
0.0
 10
2.496327797556937
 20
2.671337214835186
 30
0.0
  0
SPLINE
  5
D6
330
C8
100
AcDbEntity
  8
E5
 62
   250
420
  2301728
370
    20
100
AcDbSpline
210
0.0
220
0.0
230
1.0
 70
    11
 71
     3
 72
    17
 73
    13
 74
     0
 42
0.0000000001
 43
0.0000000001
 12
1.0
 22
0.0
 32
0.0
 13
1.0
 23
0.0
 33
0.0
 40
0.0
 40
0.0
 40
0.0
 40
0.0
 40
1.0
 40
1.0
 40
1.0
 40
2.0
 40
2.0
 40
2.0
 40
3.0
 40
3.0
 40
3.0
 40
4.0
 40
4.0
 40
4.0
 40
4.0
 10
2.198468634144016
 20
2.453372552341484
 30
0.0
 10
2.198468634144016
 20
2.453372552341484
 30
0.0
 10
2.20898473582982
 20
2.411720548338785
 30
0.0
 10
2.159045553621177
 20
2.399330201287158
 30
0.0
 10
2.159045553621177
 20
2.399330201287158
 30
0.0
 10
2.166457256928955
 20
2.392689824960826
 30
0.0
 10
2.166457256928955
 20
2.392689824960826
 30
0.0
 10
2.166457256928955
 20
2.392689824960826
 30
0.0
 10
2.193015789387181
 20
2.397385536824787
 30
0.0
 10
2.207930211899275
 20
2.418037773477282
 30
0.0
 10
2.222851009079995
 20
2.438691590297796
 30
0.0
 10
2.208032992926443
 20
2.456687228652438
 30
0.0
 10
2.198468634144016
 20
2.453372552341484
 30
0.0
  0
INSERT
  5
D8
330
C8
100
AcDbEntity
  8
E5
100
AcDbBlockReference
  2
block 3
 10
0.0
 20
0.0
 30
0.0
  0
INSERT
  5
DD
330
C8
100
AcDbEntity
  8
E5
100
AcDbBlockReference
  2
block 4
 10
0.0
 20
0.0
 30
0.0
  0
INSERT
  5
E2
330
C8
100
AcDbEntity
  8
E5
100
AcDbBlockReference
  2
block 5
 10
0.0
 20
0.0
 30
0.0
  0
INSERT
  5
E7
330
C8
100
AcDbEntity
  8
E5
100
AcDbBlockReference
  2
block 6
 10
0.0
 20
0.0
 30
0.0
  0
INSERT
  5
EC
330
C8
100
AcDbEntity
  8
E5
100
AcDbBlockReference
  2
block 7
 10
0.0
 20
0.0
 30
0.0
  0
INSERT
  5
F1
330
C8
100
AcDbEntity
  8
E5
100
AcDbBlockReference
  2
block 8
 10
0.0
 20
0.0
 30
0.0
  0
INSERT
  5
F6
330
C8
100
AcDbEntity
  8
E5
100
AcDbBlockReference
  2
block 9
 10
0.0
 20
0.0
 30
0.0
  0
INSERT
  5
FB
330
C8
100
AcDbEntity
  8
E5
100
AcDbBlockReference
  2
block 10
 10
0.0
 20
0.0
 30
0.0
  0
INSERT
  5
100
330
C8
100
AcDbEntity
  8
E5
100
AcDbBlockReference
  2
block 11
 10
0.0
 20
0.0
 30
0.0
  0
INSERT
  5
105
330
C8
100
AcDbEntity
  8
E5
100
AcDbBlockReference
  2
block 12
 10
0.0
 20
0.0
 30
0.0
  0
SPLINE
  5
109
330
C8
100
AcDbEntity
  8
E5
 62
   250
420
  2301728
370
    20
100
AcDbSpline
210
0.0
220
0.0
230
1.0
 70
     8
 71
     3
 72
    35
 73
    31
 74
     0
 42
0.0000000001
 43
0.0000000001
 12
1.0
 22
0.0
 32
0.0
 13
1.0
 23
0.0
 33
0.0
 40
0.0
 40
0.0
 40
0.0
 40
0.0
 40
1.0
 40
1.0
 40
1.0
 40
2.0
 40
2.0
 40
2.0
 40
3.0
 40
3.0
 40
3.0
 40
4.0
 40
4.0
 40
4.0
 40
5.0
 40
5.0
 40
5.0
 40
6.0
 40
6.0
 40
6.0
 40
7.0
 40
7.0
 40
7.0
 40
8.0
 40
8.0
 40
8.0
 40
9.0
 40
9.0
 40
9.0
 40
10.0
 40
10.0
 40
10.0
 40
10.0
 10
2.657787044480023
 20
2.531199969119623
 30
0.0
 10
2.660637361608476
 20
2.530187247802056
 30
0.0
 10
2.663040059424879
 20
2.52926415642057
 30
0.0
 10
2.664782909357958
 20
2.528457640572115
 30
0.0
 10
2.675387533397927
 20
2.523552573298932
 30
0.0
 10
2.723468735444309
 20
2.526893932625348
 30
0.0
 10
2.757201497524445
 20
2.545714842585716
 30
0.0
 10
2.778471105433381
 20
2.557582781974866
 30
0.0
 10
2.785415216163074
 20
2.576728412990886
 30
0.0
 10
2.775349593783226
 20
2.583180023783825
 30
0.0
 10
2.775349593783226
 20
2.583180023783825
 30
0.0
 10
2.773227507898734
 20
2.585479865079858
 30
0.0
 10
2.773227507898734
 20
2.585479865079858
 30
0.0
 10
2.773227507898734
 20
2.585479865079858
 30
0.0
 10
2.721263658584424
 20
2.609335239267188
 30
0.0
 10
2.709588979048148
 20
2.613036870122338
 30
0.0
 10
2.697917529521192
 20
2.616739301639932
 30
0.0
 10
2.691555400733427
 20
2.618926299499789
 30
0.0
 10
2.692664646855014
 20
2.637100316355296
 30
0.0
 10
2.693767518307923
 20
2.655272753042759
 30
0.0
 10
2.69737726997414
 20
2.826663527480125
 30
0.0
 10
2.698474750938153
 20
2.840121078458954
 30
0.0
 10
2.699575376588276
 20
2.853579408950054
 30
0.0
 10
2.689011482237093
 20
2.877331815187265
 30
0.0
 10
2.650761129722898
 20
2.866912038080727
 30
0.0
 10
2.612510763101884
 20
2.856486605739317
 30
0.0
 10
2.587955194759641
 20
2.800477911047538
 30
0.0
 10
2.58787055353178
 20
2.766546501910448
 30
0.0
 10
2.587864770093372
 20
2.76422800749338
 30
0.0
 10
2.587857669402562
 20
2.761381446161497
 30
0.0
 10
2.587849452474933
 20
2.758087402116088
 30
0.0
  0
SPLINE
  5
10A
330
C8
100
AcDbEntity
  8
E5
 62
   250
420
  2301728
370
    20
100
AcDbSpline
210
0.0
220
0.0
230
1.0
 70
     8
 71
     3
 72
    14
 73
    10
 74
     0
 42
0.0000000001
 43
0.0000000001
 12
1.0
 22
0.0
 32
0.0
 13
1.0
 23
0.0
 33
0.0
 40
0.0
 40
0.0
 40
0.0
 40
0.0
 40
1.0
 40
1.0
 40
1.0
 40
2.0
 40
2.0
 40
2.0
 40
3.0
 40
3.0
 40
3.0
 40
3.0
 10
2.587804128261749
 20
2.73991759930651
 30
0.0
 10
2.587668888390883
 20
2.685701946907304
 30
0.0
 10
2.587415864123386
 20
2.584268282067999
 30
0.0
 10
2.587400329190182
 20
2.578040558449477
 30
0.0
 10
2.587381510623901
 20
2.570496475151332
 30
0.0
 10
2.595838192897165
 20
2.557525204181755
 30
0.0
 10
2.607500230564331
 20
2.550050730376445
 30
0.0
 10
2.614127886455688
 20
2.54580776062749
 30
0.0
 10
2.628293079343039
 20
2.540999513227575
 30
0.0
 10
2.641235759036009
 20
2.536738207802172
 30
0.0
  0
INSERT
  5
10C
330
C8
100
AcDbEntity
  8
E5
100
AcDbBlockReference
  2
block 13
 10
0.0
 20
0.0
 30
0.0
  0
POLYLINE
  5
111
330
C8
100
AcDbEntity
  8
E5
 62
   250
420
  2301728
370
    20
100
AcDb2dPolyline
 66
     1
 10
0.0
 20
0.0
 30
0.0
  0
VERTEX
  5
112
330
111
100
AcDbEntity
  8
E5
 62
   250
420
  2301728
370
    20
100
AcDbVertex
100
AcDb2dVertex
 10
2.273246456477813
 20
2.392740051284944
 30
0.0
  0
VERTEX
  5
113
330
111
100
AcDbEntity
  8
E5
 62
   250
420
  2301728
370
    20
100
AcDbVertex
100
AcDb2dVertex
 10
2.121016277833519
 20
2.309099761291463
 30
0.0
  0
SEQEND
  5
114
330
111
100
AcDbEntity
  8
E5
 62
   250
420
  2301728
370
    20
  0
POLYLINE
  5
115
330
C8
100
AcDbEntity
  8
E5
 62
   250
420
  2301728
370
    20
100
AcDb2dPolyline
 66
     1
 10
0.0
 20
0.0
 30
0.0
  0
VERTEX
  5
116
330
115
100
AcDbEntity
  8
E5
 62
   250
420
  2301728
370
    20
100
AcDbVertex
100
AcDb2dVertex
 10
2.573507726157939
 20
2.557713513797504
 30
0.0
  0
VERTEX
  5
117
330
115
100
AcDbEntity
  8
E5
 62
   250
420
  2301728
370
    20
100
AcDbVertex
100
AcDb2dVertex
 10
2.416289991503036
 20
2.471332895737659
 30
0.0
  0
SEQEND
  5
118
330
115
100
AcDbEntity
  8
E5
 62
   250
420
  2301728
370
    20
  0
POLYLINE
  5
119
330
C8
100
AcDbEntity
  8
E5
 62
   250
420
  2301728
370
    20
100
AcDb2dPolyline
 66
     1
 10
0.0
 20
0.0
 30
0.0
  0
VERTEX
  5
11A
330
119
100
AcDbEntity
  8
E5
 62
   250
420
  2301728
370
    20
100
AcDbVertex
100
AcDb2dVertex
 10
2.848019557339158
 20
2.70853938401001
 30
0.0
  0
VERTEX
  5
11B
330
119
100
AcDbEntity
  8
E5
 62
   250
420
  2301728
370
    20
100
AcDbVertex
100
AcDb2dVertex
 10
2.710200991864364
 20
2.632817310466837
 30
0.0
  0
SEQEND
  5
11C
330
119
100
AcDbEntity
  8
E5
 62
   250
420
  2301728
370
    20
  0
SPLINE
  5
11D
330
C8
100
AcDbEntity
  8
E5
 62
   250
420
  2301728
370
    20
100
AcDbSpline
210
0.0
220
0.0
230
1.0
 70
    11
 71
     3
 72
    35
 73
    31
 74
     0
 42
0.0000000001
 43
0.0000000001
 12
1.0
 22
0.0
 32
0.0
 13
1.0
 23
0.0
 33
0.0
 40
0.0
 40
0.0
 40
0.0
 40
0.0
 40
1.0
 40
1.0
 40
1.0
 40
2.0
 40
2.0
 40
2.0
 40
3.0
 40
3.0
 40
3.0
 40
4.0
 40
4.0
 40
4.0
 40
5.0
 40
5.0
 40
5.0
 40
6.0
 40
6.0
 40
6.0
 40
7.0
 40
7.0
 40
7.0
 40
8.0
 40
8.0
 40
8.0
 40
9.0
 40
9.0
 40
9.0
 40
10.0
 40
10.0
 40
10.0
 40
10.0
 10
2.08617172119495
 20
3.049482377890399
 30
0.0
 10
2.08617172119495
 20
3.049482377890399
 30
0.0
 10
2.134147491607627
 20
3.127782647900378
 30
0.0
 10
2.134147491607627
 20
3.127782647900378
 30
0.0
 10
2.134147491607627
 20
3.127782647900378
 30
0.0
 10
2.808769931547204
 20
3.456805568820755
 30
0.0
 10
2.808769931547204
 20
3.456805568820755
 30
0.0
 10
2.808769931547204
 20
3.456805568820755
 30
0.0
 10
2.855983346386918
 20
3.436496800396627
 30
0.0
 10
2.855983346386918
 20
3.436496800396627
 30
0.0
 10
2.855983346386918
 20
3.436496800396627
 30
0.0
 10
2.868141795551537
 20
2.742789256988595
 30
0.0
 10
2.868122990981849
 20
2.735250784743812
 30
0.0
 10
2.868104172635943
 20
2.727706789808735
 30
0.0
 10
2.870184666475653
 20
2.711267293549225
 30
0.0
 10
2.882905789979632
 20
2.703117159956794
 30
0.0
 10
2.895626913483561
 20
2.694967026364414
 30
0.0
 10
3.256288110738321
 20
2.584188904191604
 30
0.0
 10
3.256288110738321
 20
2.584188904191604
 30
0.0
 10
3.256288110738321
 20
2.584188904191604
 30
0.0
 10
2.517440869155431
 20
2.129475120292732
 30
0.0
 10
2.517440869155431
 20
2.129475120292732
 30
0.0
 10
2.517440869155431
 20
2.129475120292732
 30
0.0
 10
2.130096438869411
 20
2.271602175386003
 30
0.0
 10
2.119472697131982
 20
2.272732882773653
 30
0.0
 10
2.108855583512006
 20
2.27387075243026
 30
0.0
 10
2.091951872927249
 20
2.303591048407952
 30
0.0
 10
2.092055318724786
 20
2.345060929789851
 30
0.0
 10
2.092158778298615
 20
2.386536333862018
 30
0.0
 10
2.08617172119495
 20
3.049482377890399
 30
0.0
 10
2.08617172119495
 20
3.049482377890399
 30
0.0
  0
POLYLINE
  5
11E
330
C8
100
AcDbEntity
  8
E5
 62
   250
420
  2301728
370
    20
100
AcDb2dPolyline
 66
     1
 10
0.0
 20
0.0
 30
0.0
  0
VERTEX
  5
11F
330
11E
100
AcDbEntity
  8
E5
 62
   250
420
  2301728
370
    20
100
AcDbVertex
100
AcDb2dVertex
 10
2.518462888789776
 20
2.110421478659519
 30
0.0
  0
VERTEX
  5
120
330
11E
100
AcDbEntity
  8
E5
 62
   250
420
  2301728
370
    20
100
AcDbVertex
100
AcDb2dVertex
 10
2.517434321739554
 20
2.129462150777297
 30
0.0
  0
SEQEND
  5
121
330
11E
100
AcDbEntity
  8
E5
 62
   250
420
  2301728
370
    20
  0
POLYLINE
  5
122
330
C8
100
AcDbEntity
  8
E5
 62
   250
420
  2301728
370
    20
100
AcDb2dPolyline
 66
     1
 10
0.0
 20
0.0
 30
0.0
  0
VERTEX
  5
123
330
122
100
AcDbEntity
  8
E5
 62
   250
420
  2301728
370
    20
100
AcDbVertex
100
AcDb2dVertex
 10
2.067063177914873
 20
3.056046459978107
 30
0.0
  0
VERTEX
  5
124
330
122
100
AcDbEntity
  8
E5
 62
   250
420
  2301728
370
    20
100
AcDbVertex
100
AcDb2dVertex
 10
2.086158970042093
 20
3.049476494445697
 30
0.0
  0
SEQEND
  5
125
330
122
100
AcDbEntity
  8
E5
 62
   250
420
  2301728
370
    20
  0
POLYLINE
  5
126
330
C8
100
AcDbEntity
  8
E5
 62
   250
420
  2301728
370
    20
100
AcDb2dPolyline
 66
     1
 10
0.0
 20
0.0
 30
0.0
  0
VERTEX
  5
127
330
126
100
AcDbEntity
  8
E5
 62
   250
420
  2301728
370
    20
100
AcDbVertex
100
AcDb2dVertex
 10
2.134134740454796
 20
3.127776764455676
 30
0.0
  0
VERTEX
  5
128
330
126
100
AcDbEntity
  8
E5
 62
   250
420
  2301728
370
    20
100
AcDbVertex
100
AcDb2dVertex
 10
2.115038948327538
 20
3.134346729988086
 30
0.0
  0
SEQEND
  5
129
330
126
100
AcDbEntity
  8
E5
 62
   250
420
  2301728
370
    20
  0
SPLINE
  5
12A
330
C8
100
AcDbEntity
  8
E5
 62
   250
420
  2301728
370
    25
100
AcDbSpline
210
0.0
220
0.0
230
1.0
 70
    11
 71
     3
 72
    17
 73
    13
 74
     0
 42
0.0000000001
 43
0.0000000001
 12
1.0
 22
0.0
 32
0.0
 13
1.0
 23
0.0
 33
0.0
 40
0.0
 40
0.0
 40
0.0
 40
0.0
 40
1.0
 40
1.0
 40
1.0
 40
2.0
 40
2.0
 40
2.0
 40
3.0
 40
3.0
 40
3.0
 40
4.0
 40
4.0
 40
4.0
 40
4.0
 10
2.761005341666153
 20
3.0304946866145
 30
0.0
 10
2.749892784372276
 20
3.006192828788749
 30
0.0
 10
2.756137709937396
 20
2.985641975590473
 30
0.0
 10
2.774948498254995
 20
2.984597713757012
 30
0.0
 10
2.793772035909493
 20
2.983556612259564
 30
0.0
 10
2.818032296341774
 20
3.002413935253773
 30
0.0
 10
2.829145437592438
 20
3.02671022861552
 30
0.0
 10
2.840264408960593
 20
3.051013734944516
 30
0.0
 10
2.834020108020013
 20
3.071559597844902
 30
0.0
 10
2.815202971836975
 20
3.072613024456283
 30
0.0
 10
2.79639151783878
 20
3.073645817803506
 30
0.0
 10
2.77211534909265
 20
3.054795912372987
 30
0.0
 10
2.761005341666153
 20
3.0304946866145
 30
0.0
  0
HATCH
  5
12B
330
C8
100
AcDbEntity
  8
E5
 62
   254
420
 13358815
100
AcDbHatch
 10
0.0
 20
0.0
 30
0.0
210
0.0
220
0.0
230
1.0
  2
SOLID
 70
     1
 71
     0
 91
        1
 92
        1
 93
        1
 72
     4
 94
        3
 73
     0
 74
     1
 95
       17
 96
       13
 40
0.0
 40
0.0
 40
0.0
 40
0.0
 40
1.0
 40
1.0
 40
1.0
 40
2.0
 40
2.0
 40
2.0
 40
3.0
 40
3.0
 40
3.0
 40
4.0
 40
4.0
 40
4.0
 40
4.0
 10
2.761005341666153
 20
3.0304946866145
 10
2.749892784372276
 20
3.006192828788749
 10
2.756137709937396
 20
2.985641975590473
 10
2.774948498254995
 20
2.984597713757012
 10
2.793772035909493
 20
2.983556612259564
 10
2.818032296341774
 20
3.002413935253773
 10
2.829145437592438
 20
3.02671022861552
 10
2.840264408960593
 20
3.051013734944516
 10
2.834020108020013
 20
3.071559597844902
 10
2.815202971836975
 20
3.072613024456283
 10
2.79639151783878
 20
3.073645817803506
 10
2.77211534909265
 20
3.054795912372987
 10
2.761005341666153
 20
3.0304946866145
 97
        0
 97
        0
 75
     2
 76
     1
 98
        0
  0
SPLINE
  5
12C
330
C8
100
AcDbEntity
  8
E5
 62
   250
420
  2301728
370
    25
100
AcDbSpline
210
0.0
220
0.0
230
1.0
 70
    11
 71
     3
 72
    17
 73
    13
 74
     0
 42
0.0000000001
 43
0.0000000001
 12
1.0
 22
0.0
 32
0.0
 13
1.0
 23
0.0
 33
0.0
 40
0.0
 40
0.0
 40
0.0
 40
0.0
 40
1.0
 40
1.0
 40
1.0
 40
2.0
 40
2.0
 40
2.0
 40
3.0
 40
3.0
 40
3.0
 40
4.0
 40
4.0
 40
4.0
 40
4.0
 10
2.66757686489556
 20
3.246869628032123
 30
0.0
 10
2.656464320297876
 20
3.222572859917641
 30
0.0
 10
2.662709245862996
 20
3.202022006719314
 30
0.0
 10
2.681520041234029
 20
3.200980572503264
 30
0.0
 10
2.700343571835143
 20
3.199936643388481
 30
0.0
 10
2.724603832123926
 20
3.218793908868343
 30
0.0
 10
2.735716978196125
 20
3.243093086772912
 30
0.0
 10
2.746835951793476
 20
3.26739653508725
 30
0.0
 10
2.740591651161644
 20
3.287942521808165
 30
0.0
 10
2.72177450070914
 20
3.28899022796779
 30
0.0
 10
2.70296306081784
 20
3.290028676549708
 30
0.0
 10
2.678686878127362
 20
3.271173181065579
 30
0.0
 10
2.66757686489556
 20
3.246869628032123
 30
0.0
  0
HATCH
  5
12D
330
C8
100
AcDbEntity
  8
E5
 62
   254
420
 13358815
100
AcDbHatch
 10
0.0
 20
0.0
 30
0.0
210
0.0
220
0.0
230
1.0
  2
SOLID
 70
     1
 71
     0
 91
        1
 92
        1
 93
        1
 72
     4
 94
        3
 73
     0
 74
     1
 95
       17
 96
       13
 40
0.0
 40
0.0
 40
0.0
 40
0.0
 40
1.0
 40
1.0
 40
1.0
 40
2.0
 40
2.0
 40
2.0
 40
3.0
 40
3.0
 40
3.0
 40
4.0
 40
4.0
 40
4.0
 40
4.0
 10
2.66757686489556
 20
3.246869628032123
 10
2.656464320297876
 20
3.222572859917641
 10
2.662709245862996
 20
3.202022006719314
 10
2.681520041234029
 20
3.200980572503264
 10
2.700343571835143
 20
3.199936643388481
 10
2.724603832123926
 20
3.218793908868343
 10
2.735716978196125
 20
3.243093086772912
 10
2.746835951793476
 20
3.26739653508725
 10
2.740591651161644
 20
3.287942521808165
 10
2.72177450070914
 20
3.28899022796779
 10
2.70296306081784
 20
3.290028676549708
 10
2.678686878127362
 20
3.271173181065579
 10
2.66757686489556
 20
3.246869628032123
 97
        0
 97
        0
 75
     2
 76
     1
 98
        0
  0
SPLINE
  5
12E
330
C8
100
AcDbEntity
  8
E5
 62
   250
420
  2301728
370
    25
100
AcDbSpline
210
0.0
220
0.0
230
1.0
 70
    11
 71
     3
 72
    17
 73
    13
 74
     0
 42
0.0000000001
 43
0.0000000001
 12
1.0
 22
0.0
 32
0.0
 13
1.0
 23
0.0
 33
0.0
 40
0.0
 40
0.0
 40
0.0
 40
0.0
 40
1.0
 40
1.0
 40
1.0
 40
2.0
 40
2.0
 40
2.0
 40
3.0
 40
3.0
 40
3.0
 40
4.0
 40
4.0
 40
4.0
 40
4.0
 10
2.254515134266335
 20
3.065174075025324
 30
0.0
 10
2.243405777002913
 20
3.040878096994851
 30
0.0
 10
2.249650065101163
 20
3.020327085779778
 30
0.0
 10
2.268461497939016
 20
3.019285809580449
 30
0.0
 10
2.28728503574372
 20
3.018244768269899
 30
0.0
 10
2.311545288979801
 20
3.037099206457015
 30
0.0
 10
2.322655237292047
 20
3.061397592237452
 30
0.0
 10
2.333777408498463
 20
3.085701772164485
 30
0.0
 10
2.327533107704085
 20
3.106247693668327
 30
0.0
 10
2.308715904996714
 20
3.107295452051681
 30
0.0
 10
2.289904517522801
 20
3.108333913626969
 30
0.0
 10
2.265625154388961
 20
3.08948039049508
 30
0.0
 10
2.254515134266335
 20
3.065174075025324
 30
0.0
  0
HATCH
  5
12F
330
C8
100
AcDbEntity
  8
E5
 62
   254
420
 13358815
100
AcDbHatch
 10
0.0
 20
0.0
 30
0.0
210
0.0
220
0.0
230
1.0
  2
SOLID
 70
     1
 71
     0
 91
        1
 92
        1
 93
        1
 72
     4
 94
        3
 73
     0
 74
     1
 95
       17
 96
       13
 40
0.0
 40
0.0
 40
0.0
 40
0.0
 40
1.0
 40
1.0
 40
1.0
 40
2.0
 40
2.0
 40
2.0
 40
3.0
 40
3.0
 40
3.0
 40
4.0
 40
4.0
 40
4.0
 40
4.0
 10
2.254515134266335
 20
3.065174075025324
 10
2.243405777002913
 20
3.040878096994851
 10
2.249650065101163
 20
3.020327085779778
 10
2.268461497939016
 20
3.019285809580449
 10
2.28728503574372
 20
3.018244768269899
 10
2.311545288979801
 20
3.037099206457015
 10
2.322655237292047
 20
3.061397592237452
 10
2.333777408498463
 20
3.085701772164485
 10
2.327533107704085
 20
3.106247693668327
 10
2.308715904996714
 20
3.107295452051681
 10
2.289904517522801
 20
3.108333913626969
 10
2.265625154388961
 20
3.08948039049508
 10
2.254515134266335
 20
3.065174075025324
 97
        0
 97
        0
 75
     2
 76
     1
 98
        0
  0
SPLINE
  5
130
330
C8
100
AcDbEntity
  8
E5
 62
   250
420
  2301728
370
    25
100
AcDbSpline
210
0.0
220
0.0
230
1.0
 70
    11
 71
     3
 72
    17
 73
    13
 74
     0
 42
0.0000000001
 43
0.0000000001
 12
1.0
 22
0.0
 32
0.0
 13
1.0
 23
0.0
 33
0.0
 40
0.0
 40
0.0
 40
0.0
 40
0.0
 40
1.0
 40
1.0
 40
1.0
 40
2.0
 40
2.0
 40
2.0
 40
3.0
 40
3.0
 40
3.0
 40
4.0
 40
4.0
 40
4.0
 40
4.0
 10
2.167727099203337
 20
2.751191327668999
 30
0.0
 10
2.156617729243761
 20
2.726890259927308
 30
0.0
 10
2.162862017341998
 20
2.706339248712184
 30
0.0
 10
2.181673443126442
 20
2.705295144895571
 30
0.0
 10
2.20049698091264
 20
2.704254096191789
 30
0.0
 10
2.224757241069773
 20
2.723111308877984
 30
0.0
 10
2.235867180287035
 20
2.747406919620491
 30
0.0
 10
2.246989353685902
 20
2.771711107479556
 30
0.0
 10
2.240745052891384
 20
2.792257028983386
 30
0.0
 10
2.221927848010068
 20
2.793304786827801
 30
0.0
 10
2.203116462710227
 20
2.794343248942015
 30
0.0
 10
2.178837106629847
 20
2.775492553427512
 30
0.0
 10
2.167727099203337
 20
2.751191327668999
 30
0.0
  0
HATCH
  5
131
330
C8
100
AcDbEntity
  8
E5
 62
   254
420
 13358815
100
AcDbHatch
 10
0.0
 20
0.0
 30
0.0
210
0.0
220
0.0
230
1.0
  2
SOLID
 70
     1
 71
     0
 91
        1
 92
        1
 93
        1
 72
     4
 94
        3
 73
     0
 74
     1
 95
       17
 96
       13
 40
0.0
 40
0.0
 40
0.0
 40
0.0
 40
1.0
 40
1.0
 40
1.0
 40
2.0
 40
2.0
 40
2.0
 40
3.0
 40
3.0
 40
3.0
 40
4.0
 40
4.0
 40
4.0
 40
4.0
 10
2.167727099203337
 20
2.751191327668999
 10
2.156617729243761
 20
2.726890259927308
 10
2.162862017341998
 20
2.706339248712184
 10
2.181673443126442
 20
2.705295144895571
 10
2.20049698091264
 20
2.704254096191789
 10
2.224757241069773
 20
2.723111308877984
 10
2.235867180287035
 20
2.747406919620491
 10
2.246989353685902
 20
2.771711107479556
 10
2.240745052891384
 20
2.792257028983386
 10
2.221927848010068
 20
2.793304786827801
 10
2.203116462710227
 20
2.794343248942015
 10
2.178837106629847
 20
2.775492553427512
 10
2.167727099203337
 20
2.751191327668999
 97
        0
 97
        0
 75
     2
 76
     1
 98
        0
  0
SPLINE
  5
132
330
C8
100
AcDbEntity
  8
E5
 62
   250
420
  2301728
370
    25
100
AcDbSpline
210
0.0
220
0.0
230
1.0
 70
    11
 71
     3
 72
    17
 73
    13
 74
     0
 42
0.0000000001
 43
0.0000000001
 12
1.0
 22
0.0
 32
0.0
 13
1.0
 23
0.0
 33
0.0
 40
0.0
 40
0.0
 40
0.0
 40
0.0
 40
1.0
 40
1.0
 40
1.0
 40
2.0
 40
2.0
 40
2.0
 40
3.0
 40
3.0
 40
3.0
 40
4.0
 40
4.0
 40
4.0
 40
4.0
 10
2.49925004226927
 20
2.28413924822227
 30
0.0
 10
2.527480564221883
 20
2.296877002304351
 30
0.0
 10
2.544321272919206
 20
2.317951343910611
 30
0.0
 10
2.536866776314102
 20
2.331187993886412
 30
0.0
 10
2.529428269986207
 20
2.344450084174216
 30
0.0
 10
2.500499814991725
 20
2.344857079898752
 30
0.0
 10
2.472282083392972
 20
2.332138929245654
 30
0.0
 10
2.444061123336029
 20
2.319403502503367
 30
0.0
 10
2.427210229276018
 20
2.298332287863028
 30
0.0
 10
2.434661497636966
 20
2.285078447622482
 30
0.0
 10
2.442107057010086
 20
2.271834495700154
 30
0.0
 10
2.471029109122405
 20
2.271414609338181
 30
0.0
 10
2.49925004226927
 20
2.28413924822227
 30
0.0
  0
HATCH
  5
133
330
C8
100
AcDbEntity
  8
E5
 62
   254
420
 13358815
100
AcDbHatch
 10
0.0
 20
0.0
 30
0.0
210
0.0
220
0.0
230
1.0
  2
SOLID
 70
     1
 71
     0
 91
        1
 92
        1
 93
        1
 72
     4
 94
        3
 73
     0
 74
     1
 95
       17
 96
       13
 40
0.0
 40
0.0
 40
0.0
 40
0.0
 40
1.0
 40
1.0
 40
1.0
 40
2.0
 40
2.0
 40
2.0
 40
3.0
 40
3.0
 40
3.0
 40
4.0
 40
4.0
 40
4.0
 40
4.0
 10
2.49925004226927
 20
2.28413924822227
 10
2.527480564221883
 20
2.296877002304351
 10
2.544321272919206
 20
2.317951343910611
 10
2.536866776314102
 20
2.331187993886412
 10
2.529428269986207
 20
2.344450084174216
 10
2.500499814991725
 20
2.344857079898752
 10
2.472282083392972
 20
2.332138929245654
 10
2.444061123336029
 20
2.319403502503367
 10
2.427210229276018
 20
2.298332287863028
 10
2.434661497636966
 20
2.285078447622482
 10
2.442107057010086
 20
2.271834495700154
 10
2.471029109122405
 20
2.271414609338181
 10
2.49925004226927
 20
2.28413924822227
 97
        0
 97
        0
 75
     2
 76
     1
 98
        0
  0
SPLINE
  5
134
330
C8
100
AcDbEntity
  8
E5
 62
   250
420
  2301728
370
    25
100
AcDbSpline
210
0.0
220
0.0
230
1.0
 70
    11
 71
     3
 72
    17
 73
    13
 74
     0
 42
0.0000000001
 43
0.0000000001
 12
1.0
 22
0.0
 32
0.0
 13
1.0
 23
0.0
 33
0.0
 40
0.0
 40
0.0
 40
0.0
 40
0.0
 40
1.0
 40
1.0
 40
1.0
 40
2.0
 40
2.0
 40
2.0
 40
3.0
 40
3.0
 40
3.0
 40
4.0
 40
4.0
 40
4.0
 40
4.0
 10
2.311296070729402
 20
2.277110934623528
 30
0.0
 10
2.33952978001629
 20
2.289849478789645
 30
0.0
 10
2.356367301379325
 20
2.310923030311844
 30
0.0
 10
2.348915940549331
 20
2.324160457591145
 30
0.0
 10
2.341477485780653
 20
2.337422560659547
 30
0.0
 10
2.312549030786108
 20
2.337829556384034
 30
0.0
 10
2.28432811185563
 20
2.325110616646953
 30
0.0
 10
2.25610715179611
 20
2.312375188904626
 30
0.0
 10
2.239256257736151
 20
2.291303974264287
 30
0.0
 10
2.246707526097124
 20
2.27805013402374
 30
0.0
 10
2.254153085470193
 20
2.264806182101438
 30
0.0
 10
2.283081512250962
 20
2.26438787590751
 30
0.0
 10
2.311296070729402
 20
2.277110934623528
 30
0.0
  0
HATCH
  5
135
330
C8
100
AcDbEntity
  8
E5
 62
   254
420
 13358815
100
AcDbHatch
 10
0.0
 20
0.0
 30
0.0
210
0.0
220
0.0
230
1.0
  2
SOLID
 70
     1
 71
     0
 91
        1
 92
        1
 93
        1
 72
     4
 94
        3
 73
     0
 74
     1
 95
       17
 96
       13
 40
0.0
 40
0.0
 40
0.0
 40
0.0
 40
1.0
 40
1.0
 40
1.0
 40
2.0
 40
2.0
 40
2.0
 40
3.0
 40
3.0
 40
3.0
 40
4.0
 40
4.0
 40
4.0
 40
4.0
 10
2.311296070729402
 20
2.277110934623528
 10
2.33952978001629
 20
2.289849478789645
 10
2.356367301379325
 20
2.310923030311844
 10
2.348915940549331
 20
2.324160457591145
 10
2.341477485780653
 20
2.337422560659547
 10
2.312549030786108
 20
2.337829556384034
 10
2.28432811185563
 20
2.325110616646953
 10
2.25610715179611
 20
2.312375188904626
 10
2.239256257736151
 20
2.291303974264287
 10
2.246707526097124
 20
2.27805013402374
 10
2.254153085470193
 20
2.264806182101438
 10
2.283081512250962
 20
2.26438787590751
 10
2.311296070729402
 20
2.277110934623528
 97
        0
 97
        0
 75
     2
 76
     1
 98
        0
  0
SPLINE
  5
136
330
C8
100
AcDbEntity
  8
E5
 62
   250
420
  2301728
370
    25
100
AcDbSpline
210
0.0
220
0.0
230
1.0
 70
    11
 71
     3
 72
    17
 73
    13
 74
     0
 42
0.0000000001
 43
0.0000000001
 12
1.0
 22
0.0
 32
0.0
 13
1.0
 23
0.0
 33
0.0
 40
0.0
 40
0.0
 40
0.0
 40
0.0
 40
1.0
 40
1.0
 40
1.0
 40
2.0
 40
2.0
 40
2.0
 40
3.0
 40
3.0
 40
3.0
 40
4.0
 40
4.0
 40
4.0
 40
4.0
 10
2.904584604154605
 20
2.602206453959095
 30
0.0
 10
2.932815126107193
 20
2.614944208041126
 30
0.0
 10
2.949655834804465
 20
2.63601854964736
 30
0.0
 10
2.942201338199361
 20
2.649255199623238
 30
0.0
 10
2.934762831871542
 20
2.662517289911016
 30
0.0
 10
2.905834376876985
 20
2.662924285635528
 30
0.0
 10
2.8776134579578
 20
2.65020535039869
 30
0.0
 10
2.849392497887114
 20
2.637469918156133
 30
0.0
 10
2.832544791161328
 20
2.616399493599778
 30
0.0
 10
2.839993509654833
 20
2.603145021292044
 30
0.0
 10
2.847438392586734
 20
2.589900901691888
 30
0.0
 10
2.87636367100764
 20
2.58948181507502
 30
0.0
 10
2.904584604154605
 20
2.602206453959095
 30
0.0
  0
HATCH
  5
137
330
C8
100
AcDbEntity
  8
E5
 62
   254
420
 13358815
100
AcDbHatch
 10
0.0
 20
0.0
 30
0.0
210
0.0
220
0.0
230
1.0
  2
SOLID
 70
     1
 71
     0
 91
        1
 92
        1
 93
        1
 72
     4
 94
        3
 73
     0
 74
     1
 95
       17
 96
       13
 40
0.0
 40
0.0
 40
0.0
 40
0.0
 40
1.0
 40
1.0
 40
1.0
 40
2.0
 40
2.0
 40
2.0
 40
3.0
 40
3.0
 40
3.0
 40
4.0
 40
4.0
 40
4.0
 40
4.0
 10
2.904584604154605
 20
2.602206453959095
 10
2.932815126107193
 20
2.614944208041126
 10
2.949655834804465
 20
2.63601854964736
 10
2.942201338199361
 20
2.649255199623238
 10
2.934762831871542
 20
2.662517289911016
 10
2.905834376876985
 20
2.662924285635528
 10
2.8776134579578
 20
2.65020535039869
 10
2.849392497887114
 20
2.637469918156133
 10
2.832544791161328
 20
2.616399493599778
 10
2.839993509654833
 20
2.603145021292044
 10
2.847438392586734
 20
2.589900901691888
 10
2.87636367100764
 20
2.58948181507502
 10
2.904584604154605
 20
2.602206453959095
 97
        0
 97
        0
 75
     2
 76
     1
 98
        0
  0
SPLINE
  5
138
330
C8
100
AcDbEntity
  8
E5
 62
   250
420
  2301728
370
    25
100
AcDbSpline
210
0.0
220
0.0
230
1.0
 70
    11
 71
     3
 72
    17
 73
    13
 74
     0
 42
0.0000000001
 43
0.0000000001
 12
1.0
 22
0.0
 32
0.0
 13
1.0
 23
0.0
 33
0.0
 40
0.0
 40
0.0
 40
0.0
 40
0.0
 40
1.0
 40
1.0
 40
1.0
 40
2.0
 40
2.0
 40
2.0
 40
3.0
 40
3.0
 40
3.0
 40
4.0
 40
4.0
 40
4.0
 40
4.0
 10
2.917111757861499
 20
2.516296843264525
 30
0.0
 10
2.945342279814086
 20
2.529034597346556
 30
0.0
 10
2.962182988511358
 20
2.55010893895274
 30
0.0
 10
2.954728491906306
 20
2.563345588928642
 30
0.0
 10
2.947289985578436
 20
2.576607679216472
 30
0.0
 10
2.918361530583878
 20
2.577014674940933
 30
0.0
 10
2.890140611659085
 20
2.564295737453992
 30
0.0
 10
2.861919651593957
 20
2.551560307461563
 30
0.0
 10
2.845071944868171
 20
2.530489882905234
 30
0.0
 10
2.852520663361777
 20
2.517235410597499
 30
0.0
 10
2.85996554661574
 20
2.503991291077126
 30
0.0
 10
2.888890824714584
 20
2.503572204380412
 30
0.0
 10
2.917111757861499
 20
2.516296843264525
 30
0.0
  0
HATCH
  5
139
330
C8
100
AcDbEntity
  8
E5
 62
   254
420
 13358815
100
AcDbHatch
 10
0.0
 20
0.0
 30
0.0
210
0.0
220
0.0
230
1.0
  2
SOLID
 70
     1
 71
     0
 91
        1
 92
        1
 93
        1
 72
     4
 94
        3
 73
     0
 74
     1
 95
       17
 96
       13
 40
0.0
 40
0.0
 40
0.0
 40
0.0
 40
1.0
 40
1.0
 40
1.0
 40
2.0
 40
2.0
 40
2.0
 40
3.0
 40
3.0
 40
3.0
 40
4.0
 40
4.0
 40
4.0
 40
4.0
 10
2.917111757861499
 20
2.516296843264525
 10
2.945342279814086
 20
2.529034597346556
 10
2.962182988511358
 20
2.55010893895274
 10
2.954728491906306
 20
2.563345588928642
 10
2.947289985578436
 20
2.576607679216472
 10
2.918361530583878
 20
2.577014674940933
 10
2.890140611659085
 20
2.564295737453992
 10
2.861919651593957
 20
2.551560307461563
 10
2.845071944868171
 20
2.530489882905234
 10
2.852520663361777
 20
2.517235410597499
 10
2.85996554661574
 20
2.503991291077126
 10
2.888890824714584
 20
2.503572204380412
 10
2.917111757861499
 20
2.516296843264525
 97
        0
 97
        0
 75
     2
 76
     1
 98
        0
  0
SPLINE
  5
13A
330
C8
100
AcDbEntity
  8
E5
 62
   250
420
  2301728
370
    25
100
AcDbSpline
210
0.0
220
0.0
230
1.0
 70
    11
 71
     3
 72
    17
 73
    13
 74
     0
 42
0.0000000001
 43
0.0000000001
 12
1.0
 22
0.0
 32
0.0
 13
1.0
 23
0.0
 33
0.0
 40
0.0
 40
0.0
 40
0.0
 40
0.0
 40
1.0
 40
1.0
 40
1.0
 40
2.0
 40
2.0
 40
2.0
 40
3.0
 40
3.0
 40
3.0
 40
4.0
 40
4.0
 40
4.0
 40
4.0
 10
3.135303083984202
 20
2.54164302859638
 30
0.0
 10
3.16353360593679
 20
2.554380782678461
 30
0.0
 10
3.180374314634087
 20
2.575455124284645
 30
0.0
 10
3.172919818029009
 20
2.588691774260547
 30
0.0
 10
3.16548131170119
 20
2.601953864548325
 30
0.0
 10
3.136552856706658
 20
2.602360860272837
 30
0.0
 10
3.108331937778201
 20
2.589641921357219
 30
0.0
 10
3.080110977716686
 20
2.576906492793442
 30
0.0
 10
3.063263270990951
 20
2.555836068237113
 30
0.0
 10
3.070711989484531
 20
2.542581595929353
 30
0.0
 10
3.078156878254024
 20
2.529337477776203
 30
0.0
 10
3.107082150837262
 20
2.528918389712317
 30
0.0
 10
3.135303083984202
 20
2.54164302859638
 30
0.0
  0
HATCH
  5
13B
330
C8
100
AcDbEntity
  8
E5
 62
   254
420
 13358815
100
AcDbHatch
 10
0.0
 20
0.0
 30
0.0
210
0.0
220
0.0
230
1.0
  2
SOLID
 70
     1
 71
     0
 91
        1
 92
        1
 93
        1
 72
     4
 94
        3
 73
     0
 74
     1
 95
       17
 96
       13
 40
0.0
 40
0.0
 40
0.0
 40
0.0
 40
1.0
 40
1.0
 40
1.0
 40
2.0
 40
2.0
 40
2.0
 40
3.0
 40
3.0
 40
3.0
 40
4.0
 40
4.0
 40
4.0
 40
4.0
 10
3.135303083984202
 20
2.54164302859638
 10
3.16353360593679
 20
2.554380782678461
 10
3.180374314634087
 20
2.575455124284645
 10
3.172919818029009
 20
2.588691774260547
 10
3.16548131170119
 20
2.601953864548325
 10
3.136552856706658
 20
2.602360860272837
 10
3.108331937778201
 20
2.589641921357219
 10
3.080110977716686
 20
2.576906492793442
 10
3.063263270990951
 20
2.555836068237113
 10
3.070711989484531
 20
2.542581595929353
 10
3.078156878254024
 20
2.529337477776203
 10
3.107082150837262
 20
2.528918389712317
 10
3.135303083984202
 20
2.54164302859638
 97
        0
 97
        0
 75
     2
 76
     1
 98
        0
  0
SPLINE
  5
13C
330
C8
100
AcDbEntity
  8
E5
 62
   250
420
  2301728
370
    25
100
AcDbSpline
210
0.0
220
0.0
230
1.0
 70
    11
 71
     3
 72
    17
 73
    13
 74
     0
 42
0.0000000001
 43
0.0000000001
 12
1.0
 22
0.0
 32
0.0
 13
1.0
 23
0.0
 33
0.0
 40
0.0
 40
0.0
 40
0.0
 40
0.0
 40
1.0
 40
1.0
 40
1.0
 40
2.0
 40
2.0
 40
2.0
 40
3.0
 40
3.0
 40
3.0
 40
4.0
 40
4.0
 40
4.0
 40
4.0
 10
2.574573329683542
 20
2.189954857498151
 30
0.0
 10
2.602803851636104
 20
2.202692611580157
 30
0.0
 10
2.619644560333402
 20
2.223766953186441
 30
0.0
 10
2.612190063728298
 20
2.237003603162268
 30
0.0
 10
2.604751557400479
 20
2.250265693450072
 30
0.0
 10
2.575823102405921
 20
2.250672689174583
 30
0.0
 10
2.547602183466324
 20
2.237953745758811
 30
0.0
 10
2.519381223416
 20
2.225218321695188
 30
0.0
 10
2.50253351669024
 20
2.204147897138859
 30
0.0
 10
2.5099847850512
 20
2.190894056898325
 30
0.0
 10
2.517430344424282
 20
2.17765010497601
 30
0.0
 10
2.546352396536627
 20
2.177230218614075
 30
0.0
 10
2.574573329683542
 20
2.189954857498151
 30
0.0
  0
HATCH
  5
13D
330
C8
100
AcDbEntity
  8
E5
 62
   254
420
 13358815
100
AcDbHatch
 10
0.0
 20
0.0
 30
0.0
210
0.0
220
0.0
230
1.0
  2
SOLID
 70
     1
 71
     0
 91
        1
 92
        1
 93
        1
 72
     4
 94
        3
 73
     0
 74
     1
 95
       17
 96
       13
 40
0.0
 40
0.0
 40
0.0
 40
0.0
 40
1.0
 40
1.0
 40
1.0
 40
2.0
 40
2.0
 40
2.0
 40
3.0
 40
3.0
 40
3.0
 40
4.0
 40
4.0
 40
4.0
 40
4.0
 10
2.574573329683542
 20
2.189954857498151
 10
2.602803851636104
 20
2.202692611580157
 10
2.619644560333402
 20
2.223766953186441
 10
2.612190063728298
 20
2.237003603162268
 10
2.604751557400479
 20
2.250265693450072
 10
2.575823102405921
 20
2.250672689174583
 10
2.547602183466324
 20
2.237953745758811
 10
2.519381223416
 20
2.225218321695188
 10
2.50253351669024
 20
2.204147897138859
 10
2.5099847850512
 20
2.190894056898325
 10
2.517430344424282
 20
2.17765010497601
 10
2.546352396536627
 20
2.177230218614075
 10
2.574573329683542
 20
2.189954857498151
 97
        0
 97
        0
 75
     2
 76
     1
 98
        0
  0
SPLINE
  5
13E
330
C8
100
AcDbEntity
  8
E5
 62
   250
420
  2301728
370
    20
100
AcDbSpline
210
0.0
220
0.0
230
1.0
 70
    11
 71
     3
 72
    44
 73
    40
 74
     0
 42
0.0000000001
 43
0.0000000001
 12
1.0
 22
0.0
 32
0.0
 13
1.0
 23
0.0
 33
0.0
 40
0.0
 40
0.0
 40
0.0
 40
0.0
 40
1.0
 40
1.0
 40
1.0
 40
2.0
 40
2.0
 40
2.0
 40
3.0
 40
3.0
 40
3.0
 40
4.0
 40
4.0
 40
4.0
 40
5.0
 40
5.0
 40
5.0
 40
6.0
 40
6.0
 40
6.0
 40
7.0
 40
7.0
 40
7.0
 40
8.0
 40
8.0
 40
8.0
 40
9.0
 40
9.0
 40
9.0
 40
10.0
 40
10.0
 40
10.0
 40
11.0
 40
11.0
 40
11.0
 40
12.0
 40
12.0
 40
12.0
 40
13.0
 40
13.0
 40
13.0
 40
13.0
 10
2.359344468677237
 20
2.850165827418121
 30
0.0
 10
2.364984794278926
 20
2.841371242930765
 30
0.0
 10
2.373569552516478
 20
2.839650938500931
 30
0.0
 10
2.373569552516478
 20
2.839650938500931
 30
0.0
 10
2.373569552516478
 20
2.839650938500931
 30
0.0
 10
2.392682978232895
 20
2.840150016538751
 30
0.0
 10
2.41501195200351
 20
2.852749648318927
 30
0.0
 10
2.437340925774202
 20
2.865349280099079
 30
0.0
 10
2.537808939222107
 20
2.915686351908865
 30
0.0
 10
2.548978741191932
 20
2.925519821571823
 30
0.0
 10
2.553891219745032
 20
2.929842475838452
 30
0.0
 10
2.565278415817248
 20
2.940624646194414
 30
0.0
 10
2.576104018258952
 20
2.95463574519585
 30
0.0
 10
2.580164520435498
 20
2.959569236606689
 30
0.0
 10
2.584229049940985
 20
2.965337826816494
 30
0.0
 10
2.587838030652544
 20
2.971953848424871
 30
0.0
 10
2.596203787371173
 20
2.986254836892941
 30
0.0
 10
2.602012579258801
 20
3.0021290190724
 30
0.0
 10
2.60017358637669
 20
3.017334454038228
 30
0.0
 10
2.598692002701253
 20
3.029604956394501
 30
0.0
 10
2.593673855805239
 20
3.036232222807307
 30
0.0
 10
2.587517981771195
 20
3.039591538711748
 30
0.0
 10
2.587507120280659
 20
3.039601954618686
 30
0.0
 10
2.587498591541538
 20
3.039612258864117
 30
0.0
 10
2.587487730051053
 20
3.039622674771004
 30
0.0
 10
2.587487730051053
 20
3.039622674771004
 30
0.0
 10
2.614569077459894
 20
3.040683925736201
 30
0.0
 10
2.614491489667646
 20
3.009580134027222
 30
0.0
 10
2.617622396494046
 20
2.987749278632514
 30
0.0
 10
2.601588740195464
 20
2.944919118846327
 30
0.0
 10
2.553738557344685
 20
2.91680915463073
 30
0.0
 10
2.508931226916375
 20
2.890491083705431
 30
0.0
 10
2.42773307550754
 20
2.844599514726547
 30
0.0
 10
2.413389632010636
 20
2.83821815874214
 30
0.0
 10
2.399032959831377
 20
2.831833523600431
 30
0.0
 10
2.364788512929168
 20
2.83111606820522
 30
0.0
 10
2.358466745073302
 20
2.85074303085595
 30
0.0
 10
2.358466745073302
 20
2.85074303085595
 30
0.0
 10
2.358760907460767
 20
2.850511698473509
 30
0.0
 10
2.359344468677237
 20
2.850165827418121
 30
0.0
  0
ENDBLK
  5
CB
330
C8
100
AcDbEntity
  8
0
100
AcDbBlockEnd
  0
BLOCK
  5
D9
330
D7
100
AcDbEntity
  8
0
100
AcDbBlockBegin
  2
block 3
 70
     0
 10
0.0
 20
0.0
 30
0.0
  3
block 3
  1

  0
SPLINE
  5
DB
330
D7
100
AcDbEntity
  8
E5
 62
   250
420
  2301728
370
    20
100
AcDbSpline
210
0.0
220
0.0
230
1.0
 70
    11
 71
     3
 72
    17
 73
    13
 74
     0
 42
0.0000000001
 43
0.0000000001
 12
1.0
 22
0.0
 32
0.0
 13
1.0
 23
0.0
 33
0.0
 40
0.0
 40
0.0
 40
0.0
 40
0.0
 40
1.0
 40
1.0
 40
1.0
 40
2.0
 40
2.0
 40
2.0
 40
3.0
 40
3.0
 40
3.0
 40
4.0
 40
4.0
 40
4.0
 40
4.0
 10
2.75079132077806
 20
3.033773744525357
 30
0.0
 10
2.739678763484259
 20
3.009471886699644
 30
0.0
 10
2.745923689049328
 20
2.988921033501305
 30
0.0
 10
2.764734477366952
 20
2.987876771667869
 30
0.0
 10
2.783558015021425
 20
2.986835670170447
 30
0.0
 10
2.807818275454136
 20
3.005692993343195
 30
0.0
 10
2.818931416321826
 20
3.029989286431525
 30
0.0
 10
2.830050388073005
 20
3.054292793033963
 30
0.0
 10
2.82380608713192
 20
3.074838655755734
 30
0.0
 10
2.804988950948932
 20
3.075892082367141
 30
0.0
 10
2.786177496950661
 20
3.076924875714338
 30
0.0
 10
2.761901328204531
 20
3.058074970283845
 30
0.0
 10
2.75079132077806
 20
3.033773744525357
 30
0.0
  0
ENDBLK
  5
DA
330
D7
100
AcDbEntity
  8
0
100
AcDbBlockEnd
  0
BLOCK
  5
DE
330
DC
100
AcDbEntity
  8
0
100
AcDbBlockBegin
  2
block 4
 70
     0
 10
0.0
 20
0.0
 30
0.0
  3
block 4
  1

  0
SPLINE
  5
E0
330
DC
100
AcDbEntity
  8
E5
 62
   250
420
  2301728
370
    20
100
AcDbSpline
210
0.0
220
0.0
230
1.0
 70
    11
 71
     3
 72
    17
 73
    13
 74
     0
 42
0.0000000001
 43
0.0000000001
 12
1.0
 22
0.0
 32
0.0
 13
1.0
 23
0.0
 33
0.0
 40
0.0
 40
0.0
 40
0.0
 40
0.0
 40
1.0
 40
1.0
 40
1.0
 40
2.0
 40
2.0
 40
2.0
 40
3.0
 40
3.0
 40
3.0
 40
4.0
 40
4.0
 40
4.0
 40
4.0
 10
2.657362844007518
 20
3.250148685942981
 30
0.0
 10
2.646250299409858
 20
3.225851917828499
 30
0.0
 10
2.652495224974978
 20
3.205301064630172
 30
0.0
 10
2.671306020346012
 20
3.204259630414122
 30
0.0
 10
2.69012955094705
 20
3.203215701299314
 30
0.0
 10
2.714389811235858
 20
3.222072966779175
 30
0.0
 10
2.725502956925589
 20
3.246372144588981
 30
0.0
 10
2.736621930905408
 20
3.270675592998107
 30
0.0
 10
2.730377630274107
 20
3.291221579897612
 30
0.0
 10
2.711560479821072
 20
3.292269285878622
 30
0.0
 10
2.692749039929797
 20
3.293307734460566
 30
0.0
 10
2.668472857239824
 20
3.274452239155001
 30
0.0
 10
2.657362844007518
 20
3.250148685942981
 30
0.0
  0
ENDBLK
  5
DF
330
DC
100
AcDbEntity
  8
0
100
AcDbBlockEnd
  0
BLOCK
  5
E3
330
E1
100
AcDbEntity
  8
0
100
AcDbBlockBegin
  2
block 5
 70
     0
 10
0.0
 20
0.0
 30
0.0
  3
block 5
  1

  0
SPLINE
  5
E5
330
E1
100
AcDbEntity
  8
E5
 62
   250
420
  2301728
370
    20
100
AcDbSpline
210
0.0
220
0.0
230
1.0
 70
    11
 71
     3
 72
    17
 73
    13
 74
     0
 42
0.0000000001
 43
0.0000000001
 12
1.0
 22
0.0
 32
0.0
 13
1.0
 23
0.0
 33
0.0
 40
0.0
 40
0.0
 40
0.0
 40
0.0
 40
1.0
 40
1.0
 40
1.0
 40
2.0
 40
2.0
 40
2.0
 40
3.0
 40
3.0
 40
3.0
 40
4.0
 40
4.0
 40
4.0
 40
4.0
 10
2.244301113378318
 20
3.068453132936181
 30
0.0
 10
2.233191756114833
 20
3.044157154905734
 30
0.0
 10
2.239436044213095
 20
3.023606143690636
 30
0.0
 10
2.258247477050948
 20
3.022564867491332
 30
0.0
 10
2.277071014856081
 20
3.021523826359346
 30
0.0
 10
2.301331268092263
 20
3.040378264546411
 30
0.0
 10
2.312441216021953
 20
3.064676650232084
 30
0.0
 10
2.323563387610395
 20
3.088980830075318
 30
0.0
 10
2.317319086815953
 20
3.109526751579197
 30
0.0
 10
2.298501883726153
 20
3.110574509867698
 30
0.0
 10
2.279690496634796
 20
3.111612971537801
 30
0.0
 10
2.255411133500957
 20
3.092759448405912
 30
0.0
 10
2.244301113378318
 20
3.068453132936181
 30
0.0
  0
ENDBLK
  5
E4
330
E1
100
AcDbEntity
  8
0
100
AcDbBlockEnd
  0
BLOCK
  5
E8
330
E6
100
AcDbEntity
  8
0
100
AcDbBlockBegin
  2
block 6
 70
     0
 10
0.0
 20
0.0
 30
0.0
  3
block 6
  1

  0
SPLINE
  5
EA
330
E6
100
AcDbEntity
  8
E5
 62
   250
420
  2301728
370
    20
100
AcDbSpline
210
0.0
220
0.0
230
1.0
 70
    11
 71
     3
 72
    17
 73
    13
 74
     0
 42
0.0000000001
 43
0.0000000001
 12
1.0
 22
0.0
 32
0.0
 13
1.0
 23
0.0
 33
0.0
 40
0.0
 40
0.0
 40
0.0
 40
0.0
 40
1.0
 40
1.0
 40
1.0
 40
2.0
 40
2.0
 40
2.0
 40
3.0
 40
3.0
 40
3.0
 40
4.0
 40
4.0
 40
4.0
 40
4.0
 10
2.15751307831527
 20
2.754470385579856
 30
0.0
 10
2.146403708355681
 20
2.73016931783814
 30
0.0
 10
2.152647996453905
 20
2.709618306623017
 30
0.0
 10
2.171459422238361
 20
2.708574202806378
 30
0.0
 10
2.190282960025077
 20
2.707533154281262
 30
0.0
 10
2.214543220181655
 20
2.726390366788867
 30
0.0
 10
2.225653159016916
 20
2.750685977615098
 30
0.0
 10
2.236775332797808
 20
2.774990165390414
 30
0.0
 10
2.230531032003404
 20
2.795536086894256
 30
0.0
 10
2.211713826739558
 20
2.796583844643869
 30
0.0
 10
2.192902441822197
 20
2.797622306852872
 30
0.0
 10
2.168623085741754
 20
2.778771611338344
 30
0.0
 10
2.15751307831527
 20
2.754470385579856
 30
0.0
  0
ENDBLK
  5
E9
330
E6
100
AcDbEntity
  8
0
100
AcDbBlockEnd
  0
BLOCK
  5
ED
330
EB
100
AcDbEntity
  8
0
100
AcDbBlockBegin
  2
block 7
 70
     0
 10
0.0
 20
0.0
 30
0.0
  3
block 7
  1

  0
SPLINE
  5
EF
330
EB
100
AcDbEntity
  8
E5
 62
   250
420
  2301728
370
    20
100
AcDbSpline
210
0.0
220
0.0
230
1.0
 70
    11
 71
     3
 72
    17
 73
    13
 74
     0
 42
0.0000000001
 43
0.0000000001
 12
1.0
 22
0.0
 32
0.0
 13
1.0
 23
0.0
 33
0.0
 40
0.0
 40
0.0
 40
0.0
 40
0.0
 40
1.0
 40
1.0
 40
1.0
 40
2.0
 40
2.0
 40
2.0
 40
3.0
 40
3.0
 40
3.0
 40
4.0
 40
4.0
 40
4.0
 40
4.0
 10
2.499700024114873
 20
2.276324793751226
 30
0.0
 10
2.527924192260065
 20
2.289050234534418
 30
0.0
 10
2.544765538424119
 20
2.31012473415741
 30
0.0
 10
2.537320630624865
 20
2.323374499331294
 30
0.0
 10
2.529862926583089
 20
2.336621092542044
 30
0.0
 10
2.500943457136802
 20
2.337035967363514
 30
0.0
 10
2.472716122518376
 20
2.324299003365468
 30
0.0
 10
2.44451431337686
 20
2.311579104985463
 30
0.0
 10
2.427657682115283
 20
2.290506468193901
 30
0.0
 10
2.435096187136272
 20
2.277243853997359
 30
0.0
 10
2.442553872382442
 20
2.26400851801423
 30
0.0
 10
2.471475896281011
 20
2.263577321182866
 30
0.0
 10
2.499700024114873
 20
2.276324793751226
 30
0.0
  0
ENDBLK
  5
EE
330
EB
100
AcDbEntity
  8
0
100
AcDbBlockEnd
  0
BLOCK
  5
F2
330
F0
100
AcDbEntity
  8
0
100
AcDbBlockBegin
  2
block 8
 70
     0
 10
0.0
 20
0.0
 30
0.0
  3
block 8
  1

  0
SPLINE
  5
F4
330
F0
100
AcDbEntity
  8
E5
 62
   250
420
  2301728
370
    20
100
AcDbSpline
210
0.0
220
0.0
230
1.0
 70
    11
 71
     3
 72
    17
 73
    13
 74
     0
 42
0.0000000001
 43
0.0000000001
 12
1.0
 22
0.0
 32
0.0
 13
1.0
 23
0.0
 33
0.0
 40
0.0
 40
0.0
 40
0.0
 40
0.0
 40
1.0
 40
1.0
 40
1.0
 40
2.0
 40
2.0
 40
2.0
 40
3.0
 40
3.0
 40
3.0
 40
4.0
 40
4.0
 40
4.0
 40
4.0
 10
2.311749287573308
 20
2.269297282051588
 30
0.0
 10
2.339970220720273
 20
2.282021920935676
 30
0.0
 10
2.356814754218577
 20
2.303097210642742
 30
0.0
 10
2.349369208952339
 20
2.316346817799765
 30
0.0
 10
2.341912189282905
 20
2.329593580654369
 30
0.0
 10
2.312989485596859
 20
2.330007653764773
 30
0.0
 10
2.284762150978458
 20
2.317270689766727
 30
0.0
 10
2.25656034183698
 20
2.304550791386721
 30
0.0
 10
2.239703710575441
 20
2.283478154595185
 30
0.0
 10
2.247142215598867
 20
2.270215541398708
 30
0.0
 10
2.254599900842575
 20
2.256980204415489
 30
0.0
 10
2.283521924741144
 20
2.256549007584125
 30
0.0
 10
2.311749287573308
 20
2.269297282051588
 30
0.0
  0
ENDBLK
  5
F3
330
F0
100
AcDbEntity
  8
0
100
AcDbBlockEnd
  0
BLOCK
  5
F7
330
F5
100
AcDbEntity
  8
0
100
AcDbBlockBegin
  2
block 9
 70
     0
 10
0.0
 20
0.0
 30
0.0
  3
block 9
  1

  0
SPLINE
  5
F9
330
F5
100
AcDbEntity
  8
E5
 62
   250
420
  2301728
370
    20
100
AcDbSpline
210
0.0
220
0.0
230
1.0
 70
    11
 71
     3
 72
    17
 73
    13
 74
     0
 42
0.0000000001
 43
0.0000000001
 12
1.0
 22
0.0
 32
0.0
 13
1.0
 23
0.0
 33
0.0
 40
0.0
 40
0.0
 40
0.0
 40
0.0
 40
1.0
 40
1.0
 40
1.0
 40
2.0
 40
2.0
 40
2.0
 40
3.0
 40
3.0
 40
3.0
 40
4.0
 40
4.0
 40
4.0
 40
4.0
 10
2.905034596226086
 20
2.594392002022838
 30
0.0
 10
2.933258754145325
 20
2.607117440271193
 30
0.0
 10
2.950100100309555
 20
2.628191939894224
 30
0.0
 10
2.942655192510099
 20
2.641441705068044
 30
0.0
 10
2.935197498694277
 20
2.654688300813657
 30
0.0
 10
2.906278019022011
 20
2.655103173100315
 30
0.0
 10
2.878050684403585
 20
2.642366209102256
 30
0.0
 10
2.849845687927907
 20
2.629645520638228
 30
0.0
 10
2.832989056666343
 20
2.608572883846667
 30
0.0
 10
2.840430749035249
 20
2.595311065234404
 30
0.0
 10
2.847888434267714
 20
2.582075723751005
 30
0.0
 10
2.876807908298891
 20
2.581643894852454
 30
0.0
 10
2.905034596226086
 20
2.594392002022838
 30
0.0
  0
ENDBLK
  5
F8
330
F5
100
AcDbEntity
  8
0
100
AcDbBlockEnd
  0
BLOCK
  5
FC
330
FA
100
AcDbEntity
  8
0
100
AcDbBlockBegin
  2
block 10
 70
     0
 10
0.0
 20
0.0
 30
0.0
  3
block 10
  1

  0
SPLINE
  5
FE
330
FA
100
AcDbEntity
  8
E5
 62
   250
420
  2301728
370
    20
100
AcDbSpline
210
0.0
220
0.0
230
1.0
 70
    11
 71
     3
 72
    17
 73
    13
 74
     0
 42
0.0000000001
 43
0.0000000001
 12
1.0
 22
0.0
 32
0.0
 13
1.0
 23
0.0
 33
0.0
 40
0.0
 40
0.0
 40
0.0
 40
0.0
 40
1.0
 40
1.0
 40
1.0
 40
2.0
 40
2.0
 40
2.0
 40
3.0
 40
3.0
 40
3.0
 40
4.0
 40
4.0
 40
4.0
 40
4.0
 10
2.917561750254991
 20
2.508482391408102
 30
0.0
 10
2.945785907852269
 20
2.521207829576598
 30
0.0
 10
2.962627254016373
 20
2.542282329199654
 30
0.0
 10
2.955182346217018
 20
2.555532094373474
 30
0.0
 10
2.947724652723259
 20
2.568778690198883
 30
0.0
 10
2.918805172728879
 20
2.56919356240572
 30
0.0
 10
2.89057783811058
 20
2.556456598407673
 30
0.0
 10
2.862372841634801
 20
2.543735909943684
 30
0.0
 10
2.845516210373237
 20
2.522663273152072
 30
0.0
 10
2.852957902736509
 20
2.509401452289694
 30
0.0
 10
2.860415587974608
 20
2.496166113056435
 30
0.0
 10
2.88933506200581
 20
2.495734284157859
 30
0.0
 10
2.917561750254991
 20
2.508482391408102
 30
0.0
  0
ENDBLK
  5
FD
330
FA
100
AcDbEntity
  8
0
100
AcDbBlockEnd
  0
BLOCK
  5
101
330
FF
100
AcDbEntity
  8
0
100
AcDbBlockBegin
  2
block 11
 70
     0
 10
0.0
 20
0.0
 30
0.0
  3
block 11
  1

  0
SPLINE
  5
103
330
FF
100
AcDbEntity
  8
E5
 62
   250
420
  2301728
370
    20
100
AcDbSpline
210
0.0
220
0.0
230
1.0
 70
    11
 71
     3
 72
    17
 73
    13
 74
     0
 42
0.0000000001
 43
0.0000000001
 12
1.0
 22
0.0
 32
0.0
 13
1.0
 23
0.0
 33
0.0
 40
0.0
 40
0.0
 40
0.0
 40
0.0
 40
1.0
 40
1.0
 40
1.0
 40
2.0
 40
2.0
 40
2.0
 40
3.0
 40
3.0
 40
3.0
 40
4.0
 40
4.0
 40
4.0
 40
4.0
 10
3.135753081893275
 20
2.533828578107154
 30
0.0
 10
3.163977233974997
 20
2.546554014908477
 30
0.0
 10
3.180818580139127
 20
2.567628514531533
 30
0.0
 10
3.173373672339721
 20
2.580878279705353
 30
0.0
 10
3.165915984361542
 20
2.594124876898023
 30
0.0
 10
3.136996498851683
 20
2.594539747737599
 30
0.0
 10
3.108769164233232
 20
2.581802783739527
 30
0.0
 10
3.080564167757555
 20
2.569082095275512
 30
0.0
 10
3.063707536495965
 20
2.548009458483925
 30
0.0
 10
3.071149228855675
 20
2.534747636192959
 30
0.0
 10
3.078606914097311
 20
2.521512298388289
 30
0.0
 10
3.107526388128589
 20
2.521080469489713
 30
0.0
 10
3.135753081893275
 20
2.533828578107154
 30
0.0
  0
ENDBLK
  5
102
330
FF
100
AcDbEntity
  8
0
100
AcDbBlockEnd
  0
BLOCK
  5
106
330
104
100
AcDbEntity
  8
0
100
AcDbBlockBegin
  2
block 12
 70
     0
 10
0.0
 20
0.0
 30
0.0
  3
block 12
  1

  0
SPLINE
  5
108
330
104
100
AcDbEntity
  8
E5
 62
   250
420
  2301728
370
    20
100
AcDbSpline
210
0.0
220
0.0
230
1.0
 70
    11
 71
     3
 72
    17
 73
    13
 74
     0
 42
0.0000000001
 43
0.0000000001
 12
1.0
 22
0.0
 32
0.0
 13
1.0
 23
0.0
 33
0.0
 40
0.0
 40
0.0
 40
0.0
 40
0.0
 40
1.0
 40
1.0
 40
1.0
 40
2.0
 40
2.0
 40
2.0
 40
3.0
 40
3.0
 40
3.0
 40
4.0
 40
4.0
 40
4.0
 40
4.0
 10
2.575023312736878
 20
2.182140403326482
 30
0.0
 10
2.603247479674337
 20
2.194865843810248
 30
0.0
 10
2.620088825838466
 20
2.215940343433279
 30
0.0
 10
2.612643918039112
 20
2.229190108607099
 30
0.0
 10
2.605186215205094
 20
2.242436702117225
 30
0.0
 10
2.576266744550998
 20
2.24285157663937
 30
0.0
 10
2.548039409932623
 20
2.230114612641311
 30
0.0
 10
2.519834413456869
 20
2.217393924177284
 30
0.0
 10
2.502980969529517
 20
2.196322077469707
 30
0.0
 10
2.510419474543773
 20
2.183059460594551
 30
0.0
 10
2.517877159796651
 20
2.16982412729006
 30
0.0
 10
2.546796633827878
 20
2.169392298391509
 30
0.0
 10
2.575023312736878
 20
2.182140403326482
 30
0.0
  0
ENDBLK
  5
107
330
104
100
AcDbEntity
  8
0
100
AcDbBlockEnd
  0
BLOCK
  5
10D
330
10B
100
AcDbEntity
  8
0
100
AcDbBlockBegin
  2
block 13
 70
     0
 10
0.0
 20
0.0
 30
0.0
  3
block 13
  1

  0
SPLINE
  5
10F
330
10B
100
AcDbEntity
  8
E5
 62
   250
420
  2301728
370
    20
100
AcDbSpline
210
0.0
220
0.0
230
1.0
 70
     8
 71
     3
 72
    14
 73
    10
 74
     0
 42
0.0000000001
 43
0.0000000001
 12
1.0
 22
0.0
 32
0.0
 13
1.0
 23
0.0
 33
0.0
 40
0.0
 40
0.0
 40
0.0
 40
0.0
 40
1.0
 40
1.0
 40
1.0
 40
2.0
 40
2.0
 40
2.0
 40
3.0
 40
3.0
 40
3.0
 40
3.0
 10
2.289581561560605
 20
2.624804933114824
 30
0.0
 10
2.289456046580287
 20
2.574487844647845
 30
0.0
 10
2.289168403895398
 20
2.417509504606364
 30
0.0
 10
2.289151807674481
 20
2.410856326518317
 30
0.0
 10
2.289132989108124
 20
2.403312243220133
 30
0.0
 10
2.297599188132709
 20
2.390343331285597
 30
0.0
 10
2.30925170904858
 20
2.382866498445297
 30
0.0
 10
2.316844396573906
 20
2.378005723533116
 30
0.0
 10
2.334329459921428
 20
2.372403069812157
 30
0.0
 10
2.348536063751681
 20
2.367730772170515
 30
0.0
  0
SPLINE
  5
110
330
10B
100
AcDbEntity
  8
E5
 62
   250
420
  2301728
370
    20
100
AcDbSpline
210
0.0
220
0.0
230
1.0
 70
     8
 71
     3
 72
    29
 73
    25
 74
     0
 42
0.0000000001
 43
0.0000000001
 12
1.0
 22
0.0
 32
0.0
 13
1.0
 23
0.0
 33
0.0
 40
0.0
 40
0.0
 40
0.0
 40
0.0
 40
1.0
 40
1.0
 40
1.0
 40
2.0
 40
2.0
 40
2.0
 40
3.0
 40
3.0
 40
3.0
 40
4.0
 40
4.0
 40
4.0
 40
5.0
 40
5.0
 40
5.0
 40
6.0
 40
6.0
 40
6.0
 40
7.0
 40
7.0
 40
7.0
 40
8.0
 40
8.0
 40
8.0
 40
8.0
 10
2.366534387842206
 20
2.361273408640929
 30
0.0
 10
2.377148530646372
 20
2.356370700901708
 30
0.0
 10
2.425229783465625
 20
2.359712075169606
 30
0.0
 10
2.458952976008706
 20
2.378530610654555
 30
0.0
 10
2.480222583917541
 20
2.390398550043705
 30
0.0
 10
2.487169841520831
 20
2.409544961114231
 30
0.0
 10
2.477101072267462
 20
2.415995791852588
 30
0.0
 10
2.477101072267462
 20
2.415995791852588
 30
0.0
 10
2.47497898638302
 20
2.418295633148672
 30
0.0
 10
2.47497898638302
 20
2.418295633148672
 30
0.0
 10
2.47497898638302
 20
2.418295633148672
 30
0.0
 10
2.423015137068647
 20
2.442151007336002
 30
0.0
 10
2.411340457532345
 20
2.445852638191152
 30
0.0
 10
2.399678527333334
 20
2.449557429382417
 30
0.0
 10
2.393313253886251
 20
2.451743647736596
 30
0.0
 10
2.394416125339212
 20
2.469916084424085
 30
0.0
 10
2.395518996792147
 20
2.488088521111599
 30
0.0
 10
2.399131893090776
 20
2.701146741714587
 30
0.0
 10
2.400235748750283
 20
2.714605872868131
 30
0.0
 10
2.401326855072512
 20
2.728061843685547
 30
0.0
 10
2.390772479807664
 20
2.751816609536516
 30
0.0
 10
2.352522126327244
 20
2.741396832190503
 30
0.0
 10
2.314271758739967
 20
2.730971399609631
 30
0.0
 10
2.289706673243927
 20
2.674960345783019
 30
0.0
 10
2.289622032016041
 20
2.641028936645928
 30
0.0
  0
ENDBLK
  5
10E
330
10B
100
AcDbEntity
  8
0
100
AcDbBlockEnd
  0
ENDSEC
  0
SECTION
  2
ENTITIES
  0
POLYLINE
  5
41
330
1F
100
AcDbEntity
  8
Layer 1
 62
     7
420
 16777215
370
    53
100
AcDb2dPolyline
 66
     1
 10
0.0
 20
0.0
 30
0.0
  0
VERTEX
  5
42
330
41
100
AcDbEntity
  8
Layer 1
 62
     7
420
 16777215
370
    53
100
AcDbVertex
100
AcDb2dVertex
 10
0.7366093774005549
 20
2.73653387082556
 30
0.0
  0
VERTEX
  5
43
330
41
100
AcDbEntity
  8
Layer 1
 62
     7
420
 16777215
370
    53
100
AcDbVertex
100
AcDb2dVertex
 10
1.237569037173292
 20
2.940455558639074
 30
0.0
  0
VERTEX
  5
44
330
41
100
AcDbEntity
  8
Layer 1
 62
     7
420
 16777215
370
    53
100
AcDbVertex
100
AcDb2dVertex
 10
1.300754508742481
 20
2.942427607857919
 30
0.0
  0
VERTEX
  5
45
330
41
100
AcDbEntity
  8
Layer 1
 62
     7
420
 16777215
370
    53
100
AcDbVertex
100
AcDb2dVertex
 10
1.300282565339684
 20
3.01084254614241
 30
0.0
  0
VERTEX
  5
46
330
41
100
AcDbEntity
  8
Layer 1
 62
     7
420
 16777215
370
    53
100
AcDbVertex
100
AcDb2dVertex
 10
1.43988510940014
 20
3.01697359659848
 30
0.0
  0
VERTEX
  5
47
330
41
100
AcDbEntity
  8
Layer 1
 62
     7
420
 16777215
370
    53
100
AcDbVertex
100
AcDb2dVertex
 10
1.472002543472867
 20
3.034380723357079
 30
0.0
  0
VERTEX
  5
48
330
41
100
AcDbEntity
  8
Layer 1
 62
     7
420
 16777215
370
    53
100
AcDbVertex
100
AcDb2dVertex
 10
2.859709444104384
 20
2.77695899856648
 30
0.0
  0
VERTEX
  5
49
330
41
100
AcDbEntity
  8
Layer 1
 62
     7
420
 16777215
370
    53
100
AcDbVertex
100
AcDb2dVertex
 10
2.919705249185376
 20
2.760580034221082
 30
0.0
  0
VERTEX
  5
4A
330
41
100
AcDbEntity
  8
Layer 1
 62
     7
420
 16777215
370
    53
100
AcDbVertex
100
AcDb2dVertex
 10
3.713948072074698
 20
2.502856944676978
 30
0.0
  0
VERTEX
  5
4B
330
41
100
AcDbEntity
  8
Layer 1
 62
     7
420
 16777215
370
    53
100
AcDbVertex
100
AcDb2dVertex
 10
3.719788371684343
 20
2.075489634604133
 30
0.0
  0
VERTEX
  5
4C
330
41
100
AcDbEntity
  8
Layer 1
 62
     7
420
 16777215
370
    53
100
AcDbVertex
100
AcDb2dVertex
 10
3.429353558845024
 20
1.874142566604102
 30
0.0
  0
VERTEX
  5
4D
330
41
100
AcDbEntity
  8
Layer 1
 62
     7
420
 16777215
370
    53
100
AcDbVertex
100
AcDb2dVertex
 10
3.383347504632765
 20
1.874264766235178
 30
0.0
  0
VERTEX
  5
4E
330
41
100
AcDbEntity
  8
Layer 1
 62
     7
420
 16777215
370
    53
100
AcDbVertex
100
AcDb2dVertex
 10
3.386802804546126
 20
1.733406515620876
 30
0.0
  0
VERTEX
  5
4F
330
41
100
AcDbEntity
  8
Layer 1
 62
     7
420
 16777215
370
    53
100
AcDbVertex
100
AcDb2dVertex
 10
3.23602974514074
 20
1.748673170836001
 30
0.0
  0
VERTEX
  5
50
330
41
100
AcDbEntity
  8
Layer 1
 62
     7
420
 16777215
370
    53
100
AcDbVertex
100
AcDb2dVertex
 10
2.808320328558466
 20
1.400686685396017
 30
0.0
  0
VERTEX
  5
51
330
41
100
AcDbEntity
  8
Layer 1
 62
     7
420
 16777215
370
    53
100
AcDbVertex
100
AcDb2dVertex
 10
0.7374521334769876
 20
2.344967522566738
 30
0.0
  0
VERTEX
  5
52
330
41
100
AcDbEntity
  8
Layer 1
 62
     7
420
 16777215
370
    53
100
AcDbVertex
100
AcDb2dVertex
 10
0.7366093774005549
 20
2.73653387082556
 30
0.0
  0
SEQEND
  5
54
330
41
100
AcDbEntity
  8
Layer 1
 62
     7
420
 16777215
370
    53
  0
HATCH
  5
53
330
1F
100
AcDbEntity
  8
Layer 1
 62
    43
420
 15510365
100
AcDbHatch
 10
0.0
 20
0.0
 30
0.0
210
0.0
220
0.0
230
1.0
  2
SOLID
 70
     1
 71
     0
 91
        1
 92
        1
 93
       16
 72
     1
 10
0.7366093774005549
 20
2.73653387082556
 11
1.237569037173292
 21
2.940455558639074
 72
     1
 10
1.237569037173292
 20
2.940455558639074
 11
1.300754508742481
 21
2.942427607857919
 72
     1
 10
1.300754508742481
 20
2.942427607857919
 11
1.300282565339684
 21
3.01084254614241
 72
     1
 10
1.300282565339684
 20
3.01084254614241
 11
1.43988510940014
 21
3.01697359659848
 72
     1
 10
1.43988510940014
 20
3.01697359659848
 11
1.472002543472867
 21
3.034380723357079
 72
     1
 10
1.472002543472867
 20
3.034380723357079
 11
2.859709444104384
 21
2.77695899856648
 72
     1
 10
2.859709444104384
 20
2.77695899856648
 11
2.919705249185376
 21
2.760580034221082
 72
     1
 10
2.919705249185376
 20
2.760580034221082
 11
3.713948072074698
 21
2.502856944676978
 72
     1
 10
3.713948072074698
 20
2.502856944676978
 11
3.719788371684343
 21
2.075489634604133
 72
     1
 10
3.719788371684343
 20
2.075489634604133
 11
3.429353558845024
 21
1.874142566604102
 72
     1
 10
3.429353558845024
 20
1.874142566604102
 11
3.383347504632765
 21
1.874264766235178
 72
     1
 10
3.383347504632765
 20
1.874264766235178
 11
3.386802804546126
 21
1.733406515620876
 72
     1
 10
3.386802804546126
 20
1.733406515620876
 11
3.23602974514074
 21
1.748673170836001
 72
     1
 10
3.23602974514074
 20
1.748673170836001
 11
2.808320328558466
 21
1.400686685396017
 72
     1
 10
2.808320328558466
 20
1.400686685396017
 11
0.7374521334769875
 21
2.344967522566738
 72
     1
 10
0.7374521334769876
 20
2.344967522566738
 11
0.7366093774005549
 21
2.73653387082556
 97
        0
 75
     2
 76
     1
 98
        0
  0
POLYLINE
  5
55
330
1F
100
AcDbEntity
  8
Layer 1
 62
     7
420
 16777215
370
    40
100
AcDb2dPolyline
 66
     1
 10
0.0
 20
0.0
 30
0.0
  0
VERTEX
  5
56
330
55
100
AcDbEntity
  8
Layer 1
 62
     7
420
 16777215
370
    40
100
AcDbVertex
100
AcDb2dVertex
 10
0.7366093774005549
 20
2.722644981936671
 30
0.0
  0
VERTEX
  5
57
330
55
100
AcDbEntity
  8
Layer 1
 62
     7
420
 16777215
370
    40
100
AcDbVertex
100
AcDb2dVertex
 10
2.801156901908826
 20
1.856306977993174
 30
0.0
  0
VERTEX
  5
58
330
55
100
AcDbEntity
  8
Layer 1
 62
     7
420
 16777215
370
    40
100
AcDbVertex
100
AcDb2dVertex
 10
2.807123614929929
 20
1.4046813491983
 30
0.0
  0
SEQEND
  5
59
330
55
100
AcDbEntity
  8
Layer 1
 62
     7
420
 16777215
370
    40
  0
POLYLINE
  5
5A
330
1F
100
AcDbEntity
  8
Layer 1
 62
     7
420
 16777215
370
    40
100
AcDb2dPolyline
 66
     1
 10
0.0
 20
0.0
 30
0.0
  0
VERTEX
  5
5B
330
5A
100
AcDbEntity
  8
Layer 1
 62
     7
420
 16777215
370
    40
100
AcDbVertex
100
AcDb2dVertex
 10
1.47702115590798
 20
3.93447765447695
 30
0.0
  0
VERTEX
  5
5C
330
5A
100
AcDbEntity
  8
Layer 1
 62
     7
420
 16777215
370
    40
100
AcDbVertex
100
AcDb2dVertex
 10
2.009672492673758
 20
4.100559594458787
 30
0.0
  0
VERTEX
  5
5D
330
5A
100
AcDbEntity
  8
Layer 1
 62
     7
420
 16777215
370
    40
100
AcDbVertex
100
AcDb2dVertex
 10
2.075142184891118
 20
4.216893643249048
 30
0.0
  0
VERTEX
  5
5E
330
5A
100
AcDbEntity
  8
Layer 1
 62
     7
420
 16777215
370
    40
100
AcDbVertex
100
AcDb2dVertex
 10
2.251981451019269
 20
4.175392120265302
 30
0.0
  0
VERTEX
  5
5F
330
5A
100
AcDbEntity
  8
Layer 1
 62
     7
420
 16777215
370
    40
100
AcDbVertex
100
AcDb2dVertex
 10
2.490833496955398
 20
4.252794514606231
 30
0.0
  0
VERTEX
  5
60
330
5A
100
AcDbEntity
  8
Layer 1
 62
     7
420
 16777215
370
    40
100
AcDbVertex
100
AcDb2dVertex
 10
2.909663810534716
 20
4.116995939233498
 30
0.0
  0
VERTEX
  5
61
330
5A
100
AcDbEntity
  8
Layer 1
 62
     7
420
 16777215
370
    40
100
AcDbVertex
100
AcDb2dVertex
 10
2.914395885903862
 20
2.759471809980583
 30
0.0
  0
VERTEX
  5
62
330
5A
100
AcDbEntity
  8
Layer 1
 62
     7
420
 16777215
370
    40
100
AcDbVertex
100
AcDb2dVertex
 10
1.935765804142584
 20
2.219447660089044
 30
0.0
  0
VERTEX
  5
63
330
5A
100
AcDbEntity
  8
Layer 1
 62
     7
420
 16777215
370
    40
100
AcDbVertex
100
AcDb2dVertex
 10
1.475727525330664
 20
2.413256316189126
 30
0.0
  0
VERTEX
  5
64
330
5A
100
AcDbEntity
  8
Layer 1
 62
     7
420
 16777215
370
    40
100
AcDbVertex
100
AcDb2dVertex
 10
1.47702115590798
 20
3.93447765447695
 30
0.0
  0
SEQEND
  5
66
330
5A
100
AcDbEntity
  8
Layer 1
 62
     7
420
 16777215
370
    40
  0
HATCH
  5
65
330
1F
100
AcDbEntity
  8
Layer 1
 62
    43
420
 15510365
100
AcDbHatch
 10
0.0
 20
0.0
 30
0.0
210
0.0
220
0.0
230
1.0
  2
SOLID
 70
     1
 71
     0
 91
        1
 92
        1
 93
        9
 72
     1
 10
1.47702115590798
 20
3.93447765447695
 11
2.009672492673758
 21
4.100559594458787
 72
     1
 10
2.009672492673758
 20
4.100559594458787
 11
2.075142184891118
 21
4.216893643249048
 72
     1
 10
2.075142184891118
 20
4.216893643249048
 11
2.251981451019269
 21
4.175392120265302
 72
     1
 10
2.251981451019269
 20
4.175392120265302
 11
2.490833496955398
 21
4.252794514606231
 72
     1
 10
2.490833496955398
 20
4.252794514606231
 11
2.909663810534716
 21
4.116995939233498
 72
     1
 10
2.909663810534716
 20
4.116995939233498
 11
2.914395885903862
 21
2.759471809980583
 72
     1
 10
2.914395885903862
 20
2.759471809980583
 11
1.935765804142584
 21
2.219447660089044
 72
     1
 10
1.935765804142584
 20
2.219447660089044
 11
1.475727525330664
 21
2.413256316189126
 72
     1
 10
1.475727525330664
 20
2.413256316189126
 11
1.47702115590798
 21
3.93447765447695
 97
        0
 75
     2
 76
     1
 98
        0
  0
POLYLINE
  5
67
330
1F
100
AcDbEntity
  8
Layer 1
 62
     7
420
 16777215
370
    40
100
AcDb2dPolyline
 66
     1
 10
0.0
 20
0.0
 30
0.0
  0
VERTEX
  5
68
330
67
100
AcDbEntity
  8
Layer 1
 62
     7
420
 16777215
370
    40
100
AcDbVertex
100
AcDb2dVertex
 10
1.935765804142584
 20
2.219447660089044
 30
0.0
  0
VERTEX
  5
69
330
67
100
AcDbEntity
  8
Layer 1
 62
     7
420
 16777215
370
    40
100
AcDbVertex
100
AcDb2dVertex
 10
1.932127904797198
 20
3.766540307380246
 30
0.0
  0
VERTEX
  5
6A
330
67
100
AcDbEntity
  8
Layer 1
 62
     7
420
 16777215
370
    40
100
AcDbVertex
100
AcDb2dVertex
 10
2.454632458402759
 20
3.94478321754496
 30
0.0
  0
VERTEX
  5
6B
330
67
100
AcDbEntity
  8
Layer 1
 62
     7
420
 16777215
370
    40
100
AcDbVertex
100
AcDb2dVertex
 10
2.522857776570062
 20
4.064981302945638
 30
0.0
  0
VERTEX
  5
6C
330
67
100
AcDbEntity
  8
Layer 1
 62
     7
420
 16777215
370
    40
100
AcDbVertex
100
AcDb2dVertex
 10
2.612607084929373
 20
3.949043349511309
 30
0.0
  0
VERTEX
  5
6D
330
67
100
AcDbEntity
  8
Layer 1
 62
     7
420
 16777215
370
    40
100
AcDbVertex
100
AcDb2dVertex
 10
2.65404540120739
 20
4.012186848537769
 30
0.0
  0
VERTEX
  5
6E
330
67
100
AcDbEntity
  8
Layer 1
 62
     7
420
 16777215
370
    40
100
AcDbVertex
100
AcDb2dVertex
 10
2.90439658505703
 20
4.115841363408789
 30
0.0
  0
SEQEND
  5
6F
330
67
100
AcDbEntity
  8
Layer 1
 62
     7
420
 16777215
370
    40
  0
POLYLINE
  5
70
330
1F
100
AcDbEntity
  8
Layer 1
 62
     7
420
 16777215
370
    40
100
AcDb2dPolyline
 66
     1
 10
0.0
 20
0.0
 30
0.0
  0
VERTEX
  5
71
330
70
100
AcDbEntity
  8
Layer 1
 62
     7
420
 16777215
370
    40
100
AcDbVertex
100
AcDb2dVertex
 10
2.801199039712654
 20
1.871510566361293
 30
0.0
  0
VERTEX
  5
72
330
70
100
AcDbEntity
  8
Layer 1
 62
     7
420
 16777215
370
    40
100
AcDbVertex
100
AcDb2dVertex
 10
3.229485527759127
 20
2.195794408261071
 30
0.0
  0
VERTEX
  5
73
330
70
100
AcDbEntity
  8
Layer 1
 62
     7
420
 16777215
370
    40
100
AcDbVertex
100
AcDb2dVertex
 10
3.379394978634309
 20
2.1950527829138
 30
0.0
  0
VERTEX
  5
74
330
70
100
AcDbEntity
  8
Layer 1
 62
     7
420
 16777215
370
    40
100
AcDbVertex
100
AcDb2dVertex
 10
3.326516248618772
 20
2.312457131921128
 30
0.0
  0
VERTEX
  5
75
330
70
100
AcDbEntity
  8
Layer 1
 62
     7
420
 16777215
370
    40
100
AcDbVertex
100
AcDb2dVertex
 10
3.421161969782133
 20
2.310809543791707
 30
0.0
  0
VERTEX
  5
76
330
70
100
AcDbEntity
  8
Layer 1
 62
     7
420
 16777215
370
    40
100
AcDbVertex
100
AcDb2dVertex
 10
3.711272321532028
 20
2.501622160836367
 30
0.0
  0
SEQEND
  5
77
330
70
100
AcDbEntity
  8
Layer 1
 62
     7
420
 16777215
370
    40
  0
POLYLINE
  5
78
330
1F
100
AcDbEntity
  8
Layer 1
 62
     7
420
 16777215
370
    40
100
AcDb2dPolyline
 66
     1
 10
0.0
 20
0.0
 30
0.0
  0
VERTEX
  5
79
330
78
100
AcDbEntity
  8
Layer 1
 62
     7
420
 16777215
370
    40
100
AcDbVertex
100
AcDb2dVertex
 10
2.258032708397372
 20
4.176934550259337
 30
0.0
  0
VERTEX
  5
7A
330
78
100
AcDbEntity
  8
Layer 1
 62
     7
420
 16777215
370
    40
100
AcDbVertex
100
AcDb2dVertex
 10
2.521543077090832
 20
4.065023440749479
 30
0.0
  0
SEQEND
  5
7B
330
78
100
AcDbEntity
  8
Layer 1
 62
     7
420
 16777215
370
    40
  0
POLYLINE
  5
7C
330
1F
100
AcDbEntity
  8
Layer 1
 62
     7
420
 16777215
370
    40
100
AcDb2dPolyline
 66
     1
 10
0.0
 20
0.0
 30
0.0
  0
VERTEX
  5
7D
330
7C
100
AcDbEntity
  8
Layer 1
 62
     7
420
 16777215
370
    40
100
AcDbVertex
100
AcDb2dVertex
 10
2.450764208011959
 20
3.946224330435661
 30
0.0
  0
VERTEX
  5
7E
330
7C
100
AcDbEntity
  8
Layer 1
 62
     7
420
 16777215
370
    40
100
AcDbVertex
100
AcDb2dVertex
 10
2.009672492673758
 20
4.100559594458787
 30
0.0
  0
SEQEND
  5
7F
330
7C
100
AcDbEntity
  8
Layer 1
 62
     7
420
 16777215
370
    40
  0
POLYLINE
  5
80
330
1F
100
AcDbEntity
  8
Layer 1
 62
     7
420
 16777215
370
    40
100
AcDb2dPolyline
 66
     1
 10
0.0
 20
0.0
 30
0.0
  0
VERTEX
  5
81
330
80
100
AcDbEntity
  8
Layer 1
 62
     7
420
 16777215
370
    40
100
AcDbVertex
100
AcDb2dVertex
 10
2.545658542217855
 20
4.036630988534575
 30
0.0
  0
VERTEX
  5
82
330
80
100
AcDbEntity
  8
Layer 1
 62
     7
420
 16777215
370
    40
100
AcDbVertex
100
AcDb2dVertex
 10
2.650055150023768
 20
4.010994532626088
 30
0.0
  0
SEQEND
  5
83
330
80
100
AcDbEntity
  8
Layer 1
 62
     7
420
 16777215
370
    40
  0
POLYLINE
  5
84
330
1F
100
AcDbEntity
  8
Layer 1
 62
     7
420
 16777215
370
    40
100
AcDb2dPolyline
 66
     1
 10
0.0
 20
0.0
 30
0.0
  0
VERTEX
  5
85
330
84
100
AcDbEntity
  8
Layer 1
 62
     7
420
 16777215
370
    40
100
AcDbVertex
100
AcDb2dVertex
 10
1.47702115590798
 20
3.93447765447695
 30
0.0
  0
VERTEX
  5
86
330
84
100
AcDbEntity
  8
Layer 1
 62
     7
420
 16777215
370
    40
100
AcDbVertex
100
AcDb2dVertex
 10
1.932170042601001
 20
3.767855006859476
 30
0.0
  0
SEQEND
  5
87
330
84
100
AcDbEntity
  8
Layer 1
 62
     7
420
 16777215
370
    40
  0
SPLINE
  5
88
330
1F
100
AcDbEntity
  8
Layer 1
 62
     7
420
 16777215
370
     9
100
AcDbSpline
210
0.0
220
0.0
230
1.0
 70
     8
 71
     3
 72
     8
 73
     4
 74
     0
 42
0.0000000001
 43
0.0000000001
 12
1.0
 22
0.0
 32
0.0
 13
1.0
 23
0.0
 33
0.0
 40
0.0
 40
0.0
 40
0.0
 40
0.0
 40
1.0
 40
1.0
 40
1.0
 40
1.0
 10
2.589894808669619
 20
4.020787174297703
 30
0.0
 10
2.585693669628603
 20
4.013029604614202
 30
0.0
 10
2.577341956911191
 20
3.998812309604823
 30
0.0
 10
2.577341956911191
 20
3.998812309604823
 30
0.0
  0
SPLINE
  5
89
330
1F
100
AcDbEntity
  8
Layer 1
 62
     7
420
 16777215
370
     9
100
AcDbSpline
210
0.0
220
0.0
230
1.0
 70
     8
 71
     3
 72
    23
 73
    19
 74
     0
 42
0.0000000001
 43
0.0000000001
 12
1.0
 22
0.0
 32
0.0
 13
1.0
 23
0.0
 33
0.0
 40
0.0
 40
0.0
 40
0.0
 40
0.0
 40
1.0
 40
1.0
 40
1.0
 40
2.0
 40
2.0
 40
2.0
 40
3.0
 40
3.0
 40
3.0
 40
4.0
 40
4.0
 40
4.0
 40
5.0
 40
5.0
 40
5.0
 40
6.0
 40
6.0
 40
6.0
 40
6.0
 10
2.600096370974774
 20
3.970478850315279
 30
0.0
 10
2.613597323319178
 20
3.980583495671668
 30
0.0
 10
2.620221584164584
 20
3.981674864790635
 30
0.0
 10
2.627338461145352
 20
3.999882609821889
 30
0.0
 10
2.634501887794992
 20
4.018069285951242
 30
0.0
 10
2.644909925338905
 20
4.015106998342579
 30
0.0
 10
2.652975100990311
 20
4.020108755656186
 30
0.0
 10
2.661040276641744
 20
4.025127368091325
 30
0.0
 10
2.698037268396976
 20
4.030537862101988
 30
0.0
 10
2.718200207525544
 20
4.044367674095775
 30
0.0
 10
2.738363146654112
 20
4.058213971651917
 30
0.0
 10
2.758155273109044
 20
4.060207089772677
 30
0.0
 10
2.788936938800614
 20
4.076341654855911
 30
0.0
 10
2.819676466688356
 20
4.09247200615875
 30
0.0
 10
2.872841733769873
 20
4.110536482657014
 30
0.0
 10
2.890248860528522
 20
4.120514714601932
 30
0.0
 10
2.907698125090974
 20
4.13049294654685
 30
0.0
 10
2.863477370014051
 20
4.125018977081102
 30
0.0
 10
2.869073270361544
 20
4.135368021699643
 30
0.0
  0
SPLINE
  5
8A
330
1F
100
AcDbEntity
  8
Layer 1
 62
     7
420
 16777215
370
     9
100
AcDbSpline
210
0.0
220
0.0
230
1.0
 70
     8
 71
     3
 72
    17
 73
    13
 74
     0
 42
0.0000000001
 43
0.0000000001
 12
1.0
 22
0.0
 32
0.0
 13
1.0
 23
0.0
 33
0.0
 40
0.0
 40
0.0
 40
0.0
 40
0.0
 40
1.0
 40
1.0
 40
1.0
 40
2.0
 40
2.0
 40
2.0
 40
3.0
 40
3.0
 40
3.0
 40
4.0
 40
4.0
 40
4.0
 40
4.0
 10
2.596641071061438
 20
4.02714576889438
 30
0.0
 10
2.625901562035046
 20
4.03806788764488
 30
0.0
 10
2.659232564857803
 20
4.051484564381629
 30
0.0
 10
2.675405053964469
 20
4.064117477967303
 30
0.0
 10
2.691573329290754
 20
4.076771646053063
 30
0.0
 10
2.724988607721166
 20
4.094136449409714
 30
0.0
 10
2.739597985406388
 20
4.097633887126878
 30
0.0
 10
2.754164823087144
 20
4.101110255942154
 30
0.0
 10
2.795438801930257
 20
4.116911932375197
 30
0.0
 10
2.806217854931067
 20
4.125781940079605
 30
0.0
 10
2.817042853949513
 20
4.134647734003642
 30
0.0
 10
2.821053566625298
 20
4.137015341079733
 30
0.0
 10
2.834179492515684
 20
4.136602390602282
 30
0.0
  0
SPLINE
  5
8B
330
1F
100
AcDbEntity
  8
Layer 1
 62
     7
420
 16777215
370
     9
100
AcDbSpline
210
0.0
220
0.0
230
1.0
 70
     8
 71
     3
 72
    17
 73
    13
 74
     0
 42
0.0000000001
 43
0.0000000001
 12
1.0
 22
0.0
 32
0.0
 13
1.0
 23
0.0
 33
0.0
 40
0.0
 40
0.0
 40
0.0
 40
0.0
 40
1.0
 40
1.0
 40
1.0
 40
2.0
 40
2.0
 40
2.0
 40
3.0
 40
3.0
 40
3.0
 40
4.0
 40
4.0
 40
4.0
 40
4.0
 10
2.541870353654303
 20
4.042020413643336
 30
0.0
 10
2.555367092218325
 20
4.053439758478943
 30
0.0
 10
2.600757934494772
 20
4.074365391856682
 30
0.0
 10
2.623390148927279
 20
4.082860373107084
 30
0.0
 10
2.645980225555958
 20
4.091359568137881
 30
0.0
 10
2.686268179789648
 20
4.116397851168573
 30
0.0
 10
2.707581480962542
 20
4.126253883482415
 30
0.0
 10
2.728979258575211
 20
4.136109915796244
 30
0.0
 10
2.778154076877071
 20
4.152981892446355
 30
0.0
 10
2.786261188257943
 20
4.159298349239192
 30
0.0
 10
2.794326363909375
 20
4.165614806032029
 30
0.0
 10
2.782805350845895
 20
4.165694599109947
 30
0.0
 10
2.782805350845895
 20
4.165694599109947
 30
0.0
  0
SPLINE
  5
8C
330
1F
100
AcDbEntity
  8
Layer 1
 62
     7
420
 16777215
370
     9
100
AcDbSpline
210
0.0
220
0.0
230
1.0
 70
     8
 71
     3
 72
    17
 73
    13
 74
     0
 42
0.0000000001
 43
0.0000000001
 12
1.0
 22
0.0
 32
0.0
 13
1.0
 23
0.0
 33
0.0
 40
0.0
 40
0.0
 40
0.0
 40
0.0
 40
1.0
 40
1.0
 40
1.0
 40
2.0
 40
2.0
 40
2.0
 40
3.0
 40
3.0
 40
3.0
 40
4.0
 40
4.0
 40
4.0
 40
4.0
 10
2.512449739026174
 20
4.067922707027025
 30
0.0
 10
2.527181310976403
 20
4.076670329725718
 30
0.0
 10
2.544339628958242
 20
4.078768792356022
 30
0.0
 10
2.564460430282982
 20
4.091296361432139
 30
0.0
 10
2.584585445388105
 20
4.103807075386726
 30
0.0
 10
2.633840324274994
 20
4.123312664775628
 30
0.0
 10
2.646064501163614
 20
4.134753265576086
 30
0.0
 10
2.658242326467997
 20
4.146214748505106
 30
0.0
 10
2.698365943266784
 20
4.166006687607566
 30
0.0
 10
2.711614068788246
 20
4.170839893705887
 30
0.0
 10
2.724946469917363
 20
4.175698382486504
 30
0.0
 10
2.726635658351925
 20
4.179296682183513
 30
0.0
 10
2.726635658351925
 20
4.179296682183513
 30
0.0
  0
SPLINE
  5
8D
330
1F
100
AcDbEntity
  8
Layer 1
 62
     7
420
 16777215
370
     9
100
AcDbSpline
210
0.0
220
0.0
230
1.0
 70
     8
 71
     3
 72
    38
 73
    34
 74
     0
 42
0.0000000001
 43
0.0000000001
 12
1.0
 22
0.0
 32
0.0
 13
1.0
 23
0.0
 33
0.0
 40
0.0
 40
0.0
 40
0.0
 40
0.0
 40
1.0
 40
1.0
 40
1.0
 40
2.0
 40
2.0
 40
2.0
 40
3.0
 40
3.0
 40
3.0
 40
4.0
 40
4.0
 40
4.0
 40
5.0
 40
5.0
 40
5.0
 40
6.0
 40
6.0
 40
6.0
 40
7.0
 40
7.0
 40
7.0
 40
8.0
 40
8.0
 40
8.0
 40
9.0
 40
9.0
 40
9.0
 40
10.0
 40
10.0
 40
10.0
 40
11.0
 40
11.0
 40
11.0
 40
11.0
 10
2.206145829267686
 20
3.86447699102204
 30
0.0
 10
2.219790050145068
 20
3.879827792954201
 30
0.0
 10
2.243821239664435
 20
3.890897394018098
 30
0.0
 10
2.262627341509945
 20
3.903467100898031
 30
0.0
 10
2.281429229575072
 20
3.916041021558347
 30
0.0
 10
2.346776535741381
 20
3.945541698013749
 30
0.0
 10
2.352170174630525
 20
3.949329886577301
 30
0.0
 10
2.357559599739286
 20
3.953092792458556
 30
0.0
 10
2.363033300455704
 20
3.959514593760938
 30
0.0
 10
2.369779562847523
 20
3.965873188357591
 30
0.0
 10
2.376572176823528
 20
3.972227752131023
 30
0.0
 10
2.387886177149577
 20
3.9968783679893
 30
0.0
 10
2.387886177149577
 20
3.9968783679893
 30
0.0
 10
2.387886177149577
 20
3.9968783679893
 30
0.0
 10
2.417311005558102
 20
4.055146339533723
 30
0.0
 10
2.422742568470691
 20
4.060228158674578
 30
0.0
 10
2.42817413138328
 20
4.065310163124094
 30
0.0
 10
2.439408263398971
 20
4.087326980312152
 30
0.0
 10
2.439408263398971
 20
4.087326980312152
 30
0.0
 10
2.439408263398971
 20
4.087326980312152
 30
0.0
 10
2.472203922596312
 20
4.084979904639302
 30
0.0
 10
2.47882798535703
 20
4.087407042139413
 30
0.0
 10
2.485494185921602
 20
4.089817324518005
 30
0.0
 10
2.501750950635899
 20
4.132861628620288
 30
0.0
 10
2.517754888527305
 20
4.13895054127253
 30
0.0
 10
2.533725116175623
 20
4.145022598803166
 30
0.0
 10
2.587341257758024
 20
4.149749922893256
 30
0.0
 10
2.600673658887141
 20
4.155923111153091
 30
0.0
 10
2.614048197820062
 20
4.162075230511024
 30
0.0
 10
2.672809564662228
 20
4.19048875162783
 30
0.0
 10
2.672809564662228
 20
4.19048875162783
 30
0.0
 10
2.672809564662228
 20
4.19048875162783
 30
0.0
 10
2.675219378878334
 20
4.193185302323059
 30
0.0
 10
2.689617866444122
 20
4.191415514562575
 30
0.0
  0
SPLINE
  5
8E
330
1F
100
AcDbEntity
  8
Layer 1
 62
     7
420
 16777215
370
     9
100
AcDbSpline
210
0.0
220
0.0
230
1.0
 70
     8
 71
     3
 72
    26
 73
    22
 74
     0
 42
0.0000000001
 43
0.0000000001
 12
1.0
 22
0.0
 32
0.0
 13
1.0
 23
0.0
 33
0.0
 40
0.0
 40
0.0
 40
0.0
 40
0.0
 40
1.0
 40
1.0
 40
1.0
 40
2.0
 40
2.0
 40
2.0
 40
3.0
 40
3.0
 40
3.0
 40
4.0
 40
4.0
 40
4.0
 40
5.0
 40
5.0
 40
5.0
 40
6.0
 40
6.0
 40
6.0
 40
7.0
 40
7.0
 40
7.0
 40
7.0
 10
2.030557600743704
 20
3.801598960159683
 30
0.0
 10
2.050762677676099
 20
3.816743286853112
 30
0.0
 10
2.08707703700942
 20
3.841907983295275
 30
0.0
 10
2.104484163768095
 20
3.851886215240193
 30
0.0
 10
2.121891290526694
 20
3.861864447185111
 30
0.0
 10
2.172937026076005
 20
3.895772737920235
 30
0.0
 10
2.172937026076005
 20
3.895772737920235
 30
0.0
 10
2.172937026076005
 20
3.895772737920235
 30
0.0
 10
2.215774317440883
 20
3.919412045864065
 30
0.0
 10
2.242624714581653
 20
3.936983510057606
 30
0.0
 10
2.269495803532853
 20
3.954554974251146
 30
0.0
 10
2.307933908178787
 20
3.963875856456462
 30
0.0
 10
2.318898164733127
 20
3.97799202073664
 30
0.0
 10
2.320933420657739
 20
3.977970951834739
 30
0.0
 10
2.326900324353523
 20
3.981695933692562
 30
0.0
 10
2.33247917890478
 20
3.992023909409188
 30
0.0
 10
2.338075079252247
 20
4.002372954027729
 30
0.0
 10
2.349494424087879
 20
4.030950812579476
 30
0.0
 10
2.359329387499782
 20
4.050372126360748
 30
0.0
 10
2.369122404849248
 20
4.06979765392244
 30
0.0
 10
2.377764676671682
 20
4.093209417725638
 30
0.0
 10
2.381839402301213
 20
4.098333374670321
 30
0.0
  0
SPLINE
  5
8F
330
1F
100
AcDbEntity
  8
Layer 1
 62
     7
420
 16777215
370
     9
100
AcDbSpline
210
0.0
220
0.0
230
1.0
 70
     8
 71
     3
 72
    35
 73
    31
 74
     0
 42
0.0000000001
 43
0.0000000001
 12
1.0
 22
0.0
 32
0.0
 13
1.0
 23
0.0
 33
0.0
 40
0.0
 40
0.0
 40
0.0
 40
0.0
 40
1.0
 40
1.0
 40
1.0
 40
2.0
 40
2.0
 40
2.0
 40
3.0
 40
3.0
 40
3.0
 40
4.0
 40
4.0
 40
4.0
 40
5.0
 40
5.0
 40
5.0
 40
6.0
 40
6.0
 40
6.0
 40
7.0
 40
7.0
 40
7.0
 40
8.0
 40
8.0
 40
8.0
 40
9.0
 40
9.0
 40
9.0
 40
10.0
 40
10.0
 40
10.0
 40
10.0
 10
2.349203673241492
 20
4.133725453598635
 30
0.0
 10
2.342352066340128
 20
4.12475450131674
 30
0.0
 10
2.327747103535608
 20
4.092143331288942
 30
0.0
 10
2.319349039234011
 20
4.07662819192189
 30
0.0
 10
2.310976257614685
 20
4.061113052554838
 30
0.0
 10
2.296801100409172
 20
4.028666943612317
 30
0.0
 10
2.295317849714643
 20
4.023462924840373
 30
0.0
 10
2.293859881702398
 20
4.018233623386132
 30
0.0
 10
2.279764786324158
 20
3.988421127182455
 30
0.0
 10
2.279764786324158
 20
3.988421127182455
 30
0.0
 10
2.279764786324158
 20
3.988421127182455
 30
0.0
 10
2.274413285238805
 20
3.98597292078043
 30
0.0
 10
2.26624697885821
 20
3.977022851248749
 30
0.0
 10
2.258076458697234
 20
3.968072781717082
 30
0.0
 10
2.251330196305452
 20
3.963012031478115
 30
0.0
 10
2.24075360754624
 20
3.960707093609054
 30
0.0
 10
2.230139094763621
 20
3.958423224641958
 30
0.0
 10
2.211497330353015
 20
3.951120743239711
 30
0.0
 10
2.20071426635511
 20
3.942250735535291
 30
0.0
 10
2.189914347235673
 20
3.933384941611255
 30
0.0
 10
2.164606382260545
 20
3.9236511089285
 30
0.0
 10
2.155243362251364
 20
3.91867463429719
 30
0.0
 10
2.145880342242259
 20
3.91371501478741
 30
0.0
 10
2.127242791612048
 20
3.906408500899197
 30
0.0
 10
2.115081821429158
 20
3.896265750224946
 30
0.0
 10
2.10292085124628
 20
3.886123180845124
 30
0.0
 10
2.060125881620681
 20
3.863798572380523
 30
0.0
 10
2.037388138743179
 20
3.851351065131666
 30
0.0
 10
2.014633724679596
 20
3.838924626784723
 30
0.0
 10
1.927459036133769
 20
3.785097796183196
 30
0.0
 10
1.915256108422808
 20
3.773640527324144
 30
0.0
  0
SPLINE
  5
90
330
1F
100
AcDbEntity
  8
Layer 1
 62
     7
420
 16777215
370
     9
100
AcDbSpline
210
0.0
220
0.0
230
1.0
 70
     8
 71
     3
 72
    29
 73
    25
 74
     0
 42
0.0000000001
 43
0.0000000001
 12
1.0
 22
0.0
 32
0.0
 13
1.0
 23
0.0
 33
0.0
 40
0.0
 40
0.0
 40
0.0
 40
0.0
 40
1.0
 40
1.0
 40
1.0
 40
2.0
 40
2.0
 40
2.0
 40
3.0
 40
3.0
 40
3.0
 40
4.0
 40
4.0
 40
4.0
 40
5.0
 40
5.0
 40
5.0
 40
6.0
 40
6.0
 40
6.0
 40
7.0
 40
7.0
 40
7.0
 40
8.0
 40
8.0
 40
8.0
 40
8.0
 10
1.870956454989583
 20
3.786867583943704
 30
0.0
 10
1.893959482095726
 20
3.807194860507163
 30
0.0
 10
1.915340384032561
 20
3.818369806080631
 30
0.0
 10
1.927374760526138
 20
3.824564063242355
 30
0.0
 10
1.939409317297532
 20
3.830754106623746
 30
0.0
 10
1.987370565607155
 20
3.850301833816514
 30
0.0
 10
2.000972648680671
 20
3.864333722489088
 30
0.0
 10
2.014570517973867
 20
3.878386860650052
 30
0.0
 10
2.069341235380964
 20
3.905586632430249
 30
0.0
 10
2.080061092673152
 20
3.911839882517357
 30
0.0
 10
2.090780949965316
 20
3.918076277482934
 30
0.0
 10
2.133538179502946
 20
3.939081972687922
 30
0.0
 10
2.152344281348456
 20
3.951655893348238
 30
0.0
 10
2.171150383193978
 20
3.964225600228183
 30
0.0
 10
2.222111843135634
 20
3.995500278224451
 30
0.0
 10
2.230118025861707
 20
3.99920419118036
 30
0.0
 10
2.23143272534095
 20
3.999162053376545
 30
0.0
 10
2.242316920068005
 20
4.010644604917868
 30
0.0
 10
2.247976215802181
 20
4.023627262275277
 30
0.0
 10
2.253656203076364
 20
4.036609919632661
 30
0.0
 10
2.266761060064886
 20
4.076956866791698
 30
0.0
 10
2.272420167118046
 20
4.089939524149082
 30
0.0
 10
2.278096129292812
 20
4.102901112604564
 30
0.0
 10
2.28778782417175
 20
4.160061849736368
 30
0.0
 10
2.28778782417175
 20
4.160061849736368
 30
0.0
  0
SPLINE
  5
91
330
1F
100
AcDbEntity
  8
Layer 1
 62
     7
420
 16777215
370
     9
100
AcDbSpline
210
0.0
220
0.0
230
1.0
 70
     8
 71
     3
 72
    23
 73
    19
 74
     0
 42
0.0000000001
 43
0.0000000001
 12
1.0
 22
0.0
 32
0.0
 13
1.0
 23
0.0
 33
0.0
 40
0.0
 40
0.0
 40
0.0
 40
0.0
 40
1.0
 40
1.0
 40
1.0
 40
2.0
 40
2.0
 40
2.0
 40
3.0
 40
3.0
 40
3.0
 40
4.0
 40
4.0
 40
4.0
 40
5.0
 40
5.0
 40
5.0
 40
6.0
 40
6.0
 40
6.0
 40
6.0
 10
1.81310151909204
 20
3.820118793688544
 30
0.0
 10
1.832114096176332
 20
3.839253570403861
 30
0.0
 10
1.879249174781661
 20
3.841865845491459
 30
0.0
 10
1.896841887687666
 20
3.857090234012149
 30
0.0
 10
1.914413352325078
 20
3.872319016746498
 30
0.0
 10
1.990910141128148
 20
3.921202902526475
 30
0.0
 10
2.021548538286677
 20
3.933406010513168
 30
0.0
 10
2.052182721664874
 20
3.945583835817565
 30
0.0
 10
2.157733706457217
 20
3.997514465247125
 30
0.0
 10
2.167467539139984
 20
4.014306380069974
 30
0.0
 10
2.168803307521128
 20
4.015583155525759
 30
0.0
 10
2.172713695715755
 20
4.01414204263507
 30
0.0
 10
2.179687502248195
 20
4.027082562188639
 30
0.0
 10
2.186682377682561
 20
4.040023081742194
 30
0.0
 10
2.199235229440976
 20
4.063295790792785
 30
0.0
 10
2.203596492136487
 20
4.076320585953996
 30
0.0
 10
2.207957754831998
 20
4.089324312213295
 30
0.0
 10
2.226144430961338
 20
4.165944287149866
 30
0.0
 10
2.22902665674274
 20
4.173743994637195
 30
0.0
  0
SPLINE
  5
92
330
1F
100
AcDbEntity
  8
Layer 1
 62
     7
420
 16777215
370
     9
100
AcDbSpline
210
0.0
220
0.0
230
1.0
 70
     8
 71
     3
 72
    17
 73
    13
 74
     0
 42
0.0000000001
 43
0.0000000001
 12
1.0
 22
0.0
 32
0.0
 13
1.0
 23
0.0
 33
0.0
 40
0.0
 40
0.0
 40
0.0
 40
0.0
 40
1.0
 40
1.0
 40
1.0
 40
2.0
 40
2.0
 40
2.0
 40
3.0
 40
3.0
 40
3.0
 40
4.0
 40
4.0
 40
4.0
 40
4.0
 10
1.683227518936633
 20
3.868636798507244
 30
0.0
 10
1.695552826554427
 20
3.884046593364739
 30
0.0
 10
1.779934584954895
 20
3.917626477979398
 30
0.0
 10
1.794581685563218
 20
3.923736459533504
 30
0.0
 10
1.809254068853887
 20
3.929867509989524
 30
0.0
 10
1.873303530662446
 20
3.945525649140235
 30
0.0
 10
1.890811788150257
 20
3.958137493823996
 30
0.0
 10
1.908303370616649
 20
3.970728269605843
 30
0.0
 10
1.964308545575603
 20
3.981388865223329
 30
0.0
 10
1.985870459791057
 20
3.997805753592211
 30
0.0
 10
2.007432374006511
 20
4.014243710862918
 30
0.0
 10
2.084506093477633
 20
4.081811595915913
 30
0.0
 10
2.136422201538052
 20
4.197145804592651
 30
0.0
  0
SPLINE
  5
93
330
1F
100
AcDbEntity
  8
Layer 1
 62
     7
420
 16777215
370
     9
100
AcDbSpline
210
0.0
220
0.0
230
1.0
 70
     8
 71
     3
 72
     8
 73
     4
 74
     0
 42
0.0000000001
 43
0.0000000001
 12
1.0
 22
0.0
 32
0.0
 13
1.0
 23
0.0
 33
0.0
 40
0.0
 40
0.0
 40
0.0
 40
0.0
 40
1.0
 40
1.0
 40
1.0
 40
1.0
 10
1.600991380998696
 20
3.888327794233002
 30
0.0
 10
1.615887094649578
 20
3.902317545101722
 30
0.0
 10
2.020963984019974
 20
4.073302530412067
 30
0.0
 10
2.035986287390718
 20
4.091244807279256
 30
0.0
  0
SPLINE
  5
94
330
1F
100
AcDbEntity
  8
Layer 1
 62
     7
420
 16777215
370
     9
100
AcDbSpline
210
0.0
220
0.0
230
1.0
 70
     8
 71
     3
 72
    11
 73
     7
 74
     0
 42
0.0000000001
 43
0.0000000001
 12
1.0
 22
0.0
 32
0.0
 13
1.0
 23
0.0
 33
0.0
 40
0.0
 40
0.0
 40
0.0
 40
0.0
 40
1.0
 40
1.0
 40
1.0
 40
2.0
 40
2.0
 40
2.0
 40
2.0
 10
2.391054939996972
 20
4.125824615382107
 30
0.0
 10
2.414715509735843
 20
4.125082990034849
 30
0.0
 10
2.423935068318845
 20
4.152574230746646
 30
0.0
 10
2.450764208011959
 20
4.170145694940199
 30
0.0
 10
2.477593347705073
 20
4.18771715913374
 30
0.0
 10
2.558869818713245
 20
4.223146893336144
 30
0.0
 10
2.581417757538095
 20
4.230348244009241
 30
0.0
  0
SPLINE
  5
95
330
1F
100
AcDbEntity
  8
Layer 1
 62
     7
420
 16777215
370
     9
100
AcDbSpline
210
0.0
220
0.0
230
1.0
 70
     8
 71
     3
 72
    11
 73
     7
 74
     0
 42
0.0000000001
 43
0.0000000001
 12
1.0
 22
0.0
 32
0.0
 13
1.0
 23
0.0
 33
0.0
 40
0.0
 40
0.0
 40
0.0
 40
0.0
 40
1.0
 40
1.0
 40
1.0
 40
2.0
 40
2.0
 40
2.0
 40
2.0
 10
2.189809002726103
 20
4.181543702124549
 30
0.0
 10
2.183905496410716
 20
4.160677061672168
 30
0.0
 10
2.154484881782587
 20
4.062082222042742
 30
0.0
 10
2.150304811643511
 20
4.054324652359203
 30
0.0
 10
2.146107886382879
 20
4.046546013773764
 30
0.0
 10
1.753372084754447
 20
3.831631024232858
 30
0.0
 10
1.753372084754447
 20
3.831631024232858
 30
0.0
  0
POLYLINE
  5
96
330
1F
100
AcDbEntity
  8
Layer 1
 62
     7
420
 16777215
370
    40
100
AcDb2dPolyline
 66
     1
 10
0.0
 20
0.0
 30
0.0
  0
VERTEX
  5
97
330
96
100
AcDbEntity
  8
Layer 1
 62
     7
420
 16777215
370
    40
100
AcDbVertex
100
AcDb2dVertex
 10
1.300754508742481
 20
2.942427607857919
 30
0.0
  0
VERTEX
  5
98
330
96
100
AcDbEntity
  8
Layer 1
 62
     7
420
 16777215
370
    40
100
AcDbVertex
100
AcDb2dVertex
 10
1.369085171419341
 20
2.940270152302244
 30
0.0
  0
VERTEX
  5
99
330
96
100
AcDbEntity
  8
Layer 1
 62
     7
420
 16777215
370
    40
100
AcDbVertex
100
AcDb2dVertex
 10
1.305528721915455
 20
3.010678208707519
 30
0.0
  0
SEQEND
  5
9A
330
96
100
AcDbEntity
  8
Layer 1
 62
     7
420
 16777215
370
    40
  0
POLYLINE
  5
9B
330
1F
100
AcDbEntity
  8
Layer 1
 62
     7
420
 16777215
370
    40
100
AcDb2dPolyline
 66
     1
 10
0.0
 20
0.0
 30
0.0
  0
VERTEX
  5
9C
330
9B
100
AcDbEntity
  8
Layer 1
 62
     7
420
 16777215
370
    40
100
AcDbVertex
100
AcDb2dVertex
 10
2.801199039712654
 20
1.871510566361293
 30
0.0
  0
VERTEX
  5
9D
330
9B
100
AcDbEntity
  8
Layer 1
 62
     7
420
 16777215
370
    40
100
AcDbVertex
100
AcDb2dVertex
 10
3.229485527759127
 20
2.195794408261071
 30
0.0
  0
VERTEX
  5
9E
330
9B
100
AcDbEntity
  8
Layer 1
 62
     7
420
 16777215
370
    40
100
AcDbVertex
100
AcDb2dVertex
 10
3.379394978634309
 20
2.1950527829138
 30
0.0
  0
VERTEX
  5
9F
330
9B
100
AcDbEntity
  8
Layer 1
 62
     7
420
 16777215
370
    40
100
AcDbVertex
100
AcDb2dVertex
 10
3.326516248618772
 20
2.312457131921128
 30
0.0
  0
VERTEX
  5
A0
330
9B
100
AcDbEntity
  8
Layer 1
 62
     7
420
 16777215
370
    40
100
AcDbVertex
100
AcDb2dVertex
 10
3.421161969782133
 20
2.310809543791707
 30
0.0
  0
VERTEX
  5
A1
330
9B
100
AcDbEntity
  8
Layer 1
 62
     7
420
 16777215
370
    40
100
AcDbVertex
100
AcDb2dVertex
 10
3.711272321532028
 20
2.501622160836367
 30
0.0
  0
SEQEND
  5
A2
330
9B
100
AcDbEntity
  8
Layer 1
 62
     7
420
 16777215
370
    40
  0
POLYLINE
  5
A3
330
1F
100
AcDbEntity
  8
Layer 1
 62
     7
420
 16777215
370
    40
100
AcDb2dPolyline
 66
     1
 10
0.0
 20
0.0
 30
0.0
  0
VERTEX
  5
A4
330
A3
100
AcDbEntity
  8
Layer 1
 62
     7
420
 16777215
370
    40
100
AcDbVertex
100
AcDb2dVertex
 10
3.23076251952999
 20
2.195752270457256
 30
0.0
  0
VERTEX
  5
A5
330
A3
100
AcDbEntity
  8
Layer 1
 62
     7
420
 16777215
370
    40
100
AcDbVertex
100
AcDb2dVertex
 10
3.23866314143144
 20
1.818037424562539
 30
0.0
  0
SEQEND
  5
A6
330
A3
100
AcDbEntity
  8
Layer 1
 62
     7
420
 16777215
370
    40
  0
POLYLINE
  5
A7
330
1F
100
AcDbEntity
  8
Layer 1
 62
     7
420
 16777215
370
    40
100
AcDb2dPolyline
 66
     1
 10
0.0
 20
0.0
 30
0.0
  0
VERTEX
  5
A8
330
A7
100
AcDbEntity
  8
Layer 1
 62
     7
420
 16777215
370
    40
100
AcDbVertex
100
AcDb2dVertex
 10
3.428118921193042
 20
1.876814235494142
 30
0.0
  0
VERTEX
  5
A9
330
A7
100
AcDbEntity
  8
Layer 1
 62
     7
420
 16777215
370
    40
100
AcDbVertex
100
AcDb2dVertex
 10
3.421204107585961
 20
2.31212845705132
 30
0.0
  0
SEQEND
  5
AA
330
A7
100
AcDbEntity
  8
Layer 1
 62
     7
420
 16777215
370
    40
  0
SPLINE
  5
AB
330
1F
100
AcDbEntity
  8
Layer 1
 62
     7
420
 16777215
370
     9
100
AcDbSpline
210
0.0
220
0.0
230
1.0
 70
     8
 71
     3
 72
    11
 73
     7
 74
     0
 42
0.0000000001
 43
0.0000000001
 12
1.0
 22
0.0
 32
0.0
 13
1.0
 23
0.0
 33
0.0
 40
0.0
 40
0.0
 40
0.0
 40
0.0
 40
1.0
 40
1.0
 40
1.0
 40
2.0
 40
2.0
 40
2.0
 40
2.0
 10
3.563499257310594
 20
2.403643339390745
 30
0.0
 10
3.593867972524726
 20
2.406647764803223
 30
0.0
 10
3.612429675108059
 20
2.411341916148937
 30
0.0
 10
3.641399415235305
 20
2.413069566105592
 30
0.0
 10
3.670411293166378
 20
2.414797216062286
 30
0.0
 10
3.694278373275311
 20
2.420599591648485
 30
0.0
 10
3.711681286693217
 20
2.430598892495317
 30
0.0
  0
SPLINE
  5
AC
330
1F
100
AcDbEntity
  8
Layer 1
 62
     7
420
 16777215
370
     9
100
AcDbSpline
210
0.0
220
0.0
230
1.0
 70
     8
 71
     3
 72
    14
 73
    10
 74
     0
 42
0.0000000001
 43
0.0000000001
 12
1.0
 22
0.0
 32
0.0
 13
1.0
 23
0.0
 33
0.0
 40
0.0
 40
0.0
 40
0.0
 40
0.0
 40
1.0
 40
1.0
 40
1.0
 40
2.0
 40
2.0
 40
2.0
 40
3.0
 40
3.0
 40
3.0
 40
3.0
 10
3.44931002273486
 20
2.327024170702202
 30
0.0
 10
3.47589054938544
 20
2.335375883419614
 30
0.0
 10
3.533998580855192
 20
2.344102622591044
 30
0.0
 10
3.548603543659712
 20
2.348872621983635
 30
0.0
 10
3.563254858048443
 20
2.353689115380714
 30
0.0
 10
3.604238086045168
 20
2.360270897917328
 30
0.0
 10
3.632141739735744
 20
2.368626824415123
 30
0.0
 10
3.659999041842108
 20
2.376940613109089
 30
0.0
 10
3.703864495620236
 20
2.391339100674877
 30
0.0
 10
3.712957833684893
 20
2.388461088673883
 30
0.0
  0
SPLINE
  5
AD
330
1F
100
AcDbEntity
  8
Layer 1
 62
     7
420
 16777215
370
     9
100
AcDbSpline
210
0.0
220
0.0
230
1.0
 70
     8
 71
     3
 72
    20
 73
    16
 74
     0
 42
0.0000000001
 43
0.0000000001
 12
1.0
 22
0.0
 32
0.0
 13
1.0
 23
0.0
 33
0.0
 40
0.0
 40
0.0
 40
0.0
 40
0.0
 40
1.0
 40
1.0
 40
1.0
 40
2.0
 40
2.0
 40
2.0
 40
3.0
 40
3.0
 40
3.0
 40
4.0
 40
4.0
 40
4.0
 40
5.0
 40
5.0
 40
5.0
 40
5.0
 10
3.341167563007502
 20
2.276492656829658
 30
0.0
 10
3.350547438138139
 20
2.281426853187023
 30
0.0
 10
3.413551882411967
 20
2.276863329033163
 30
0.0
 10
3.419969469933979
 20
2.272704327795976
 30
0.0
 10
3.426387057455991
 20
2.268549540339172
 30
0.0
 10
3.438362621302051
 20
2.272127039883634
 30
0.0
 10
3.451695022431143
 20
2.278262444634897
 30
0.0
 10
3.465069561364089
 20
2.284431278599476
 30
0.0
 10
3.498156164924669
 20
2.291261816598964
 30
0.0
 10
3.517906153575798
 20
2.291961304142369
 30
0.0
 10
3.537660356007286
 20
2.292665005466195
 30
0.0
 10
3.606421050088177
 20
2.30496503040168
 30
0.0
 10
3.627738339236405
 20
2.313527432138206
 30
0.0
 10
3.649051640409299
 20
2.322043623911352
 30
0.0
 10
3.699503461081248
 20
2.336239708397961
 30
0.0
 10
3.71382165866324
 20
2.331836307898622
 30
0.0
  0
SPLINE
  5
AE
330
1F
100
AcDbEntity
  8
Layer 1
 62
     7
420
 16777215
370
     9
100
AcDbSpline
210
0.0
220
0.0
230
1.0
 70
     8
 71
     3
 72
    20
 73
    16
 74
     0
 42
0.0000000001
 43
0.0000000001
 12
1.0
 22
0.0
 32
0.0
 13
1.0
 23
0.0
 33
0.0
 40
0.0
 40
0.0
 40
0.0
 40
0.0
 40
1.0
 40
1.0
 40
1.0
 40
2.0
 40
2.0
 40
2.0
 40
3.0
 40
3.0
 40
3.0
 40
4.0
 40
4.0
 40
4.0
 40
5.0
 40
5.0
 40
5.0
 40
5.0
 10
3.36597830189756
 20
2.228387999516978
 30
0.0
 10
3.383014615982574
 20
2.226491798344985
 30
0.0
 10
3.410421043588055
 20
2.220360747888978
 30
0.0
 10
3.418321881804559
 20
2.220154411697182
 30
0.0
 10
3.426184795997642
 20
2.219909873388095
 30
0.0
 10
3.439352859691856
 20
2.219454785106803
 30
0.0
 10
3.456591435235193
 20
2.224191074256332
 30
0.0
 10
3.473834224558939
 20
2.228923149625504
 30
0.0
 10
3.522760428576021
 20
2.236617512603276
 30
0.0
 10
3.549138693768251
 20
2.239701999843027
 30
0.0
 10
3.57555909676431
 20
2.242828624886581
 30
0.0
 10
3.620537214724916
 20
2.251926316581211
 30
0.0
 10
3.63790197751814
 20
2.259291864839611
 30
0.0
 10
3.655224828669134
 20
2.266615415143772
 30
0.0
 10
3.701643833358831
 20
2.278300228143469
 30
0.0
 10
3.714647559618141
 20
2.273981103251761
 30
0.0
  0
SPLINE
  5
AF
330
1F
100
AcDbEntity
  8
Layer 1
 62
     7
420
 16777215
370
     9
100
AcDbSpline
210
0.0
220
0.0
230
1.0
 70
     8
 71
     3
 72
    11
 73
     7
 74
     0
 42
0.0000000001
 43
0.0000000001
 12
1.0
 22
0.0
 32
0.0
 13
1.0
 23
0.0
 33
0.0
 40
0.0
 40
0.0
 40
0.0
 40
0.0
 40
1.0
 40
1.0
 40
1.0
 40
2.0
 40
2.0
 40
2.0
 40
2.0
 10
3.428654071301581
 20
2.046171494451869
 30
0.0
 10
3.452230172539682
 20
2.044115169625393
 30
0.0
 10
3.511695264704612
 20
2.051480857733395
 30
0.0
 10
3.518276966249434
 20
2.052593295754264
 30
0.0
 10
3.524901029010152
 20
2.053705733775145
 30
0.0
 10
3.673645143964854
 20
2.061273683341483
 30
0.0
 10
3.689527107673636
 20
2.063414283775614
 30
0.0
  0
SPLINE
  5
B0
330
1F
100
AcDbEntity
  8
Layer 1
 62
     7
420
 16777215
370
     9
100
AcDbSpline
210
0.0
220
0.0
230
1.0
 70
     8
 71
     3
 72
    17
 73
    13
 74
     0
 42
0.0000000001
 43
0.0000000001
 12
1.0
 22
0.0
 32
0.0
 13
1.0
 23
0.0
 33
0.0
 40
0.0
 40
0.0
 40
0.0
 40
0.0
 40
1.0
 40
1.0
 40
1.0
 40
2.0
 40
2.0
 40
2.0
 40
3.0
 40
3.0
 40
3.0
 40
4.0
 40
4.0
 40
4.0
 40
4.0
 10
3.42729324151805
 20
2.087036736597901
 30
0.0
 10
3.436592833541555
 20
2.090656373946167
 30
0.0
 10
3.485603313166267
 20
2.100942211858978
 30
0.0
 10
3.497456677381251
 20
2.100575612965751
 30
0.0
 10
3.509263690012024
 20
2.100242724315561
 30
0.0
 10
3.559757420331253
 20
2.117034639138397
 30
0.0
 10
3.578272996424377
 20
2.120409877224486
 30
0.0
 10
3.596834473913759
 20
2.123780901530217
 30
0.0
 10
3.621851688042549
 20
2.125592827094541
 30
0.0
 10
3.640329115018251
 20
2.127649151921017
 30
0.0
 10
3.658806541993954
 20
2.1297096905279
 30
0.0
 10
3.703864495620236
 20
2.140117728071787
 30
0.0
 10
3.713164308923625
 20
2.143779503223881
 30
0.0
  0
SPLINE
  5
B1
330
1F
100
AcDbEntity
  8
Layer 1
 62
     7
420
 16777215
370
     9
100
AcDbSpline
210
0.0
220
0.0
230
1.0
 70
     8
 71
     3
 72
    23
 73
    19
 74
     0
 42
0.0000000001
 43
0.0000000001
 12
1.0
 22
0.0
 32
0.0
 13
1.0
 23
0.0
 33
0.0
 40
0.0
 40
0.0
 40
0.0
 40
0.0
 40
1.0
 40
1.0
 40
1.0
 40
2.0
 40
2.0
 40
2.0
 40
3.0
 40
3.0
 40
3.0
 40
4.0
 40
4.0
 40
4.0
 40
5.0
 40
5.0
 40
5.0
 40
6.0
 40
6.0
 40
6.0
 40
6.0
 10
3.381286966025906
 20
2.130531377702419
 30
0.0
 10
3.393346805479597
 20
2.136746703766082
 30
0.0
 10
3.404989480675466
 20
2.131108665614761
 30
0.0
 10
3.415443869803564
 20
2.128146378006111
 30
0.0
 10
3.425851907347452
 20
2.125179876617077
 30
0.0
 10
3.457661735452272
 20
2.133413603483796
 30
0.0
 10
3.464327936016818
 20
2.135840740983907
 30
0.0
 10
3.470994136581364
 20
2.138267878484018
 30
0.0
 10
3.509305827815827
 20
2.143615165788977
 30
0.0
 10
3.51979814096737
 20
2.14328649091917
 30
0.0
 10
3.530332591922742
 20
2.142957953146113
 30
0.0
 10
3.580535571395608
 20
2.150614255003714
 30
0.0
 10
3.603252061435746
 20
2.161721780091044
 30
0.0
 10
3.625968551475908
 20
2.172833656810288
 30
0.0
 10
3.653741804975071
 20
2.178551618937314
 30
0.0
 10
3.670820029863459
 20
2.178016606811235
 30
0.0
 10
3.687940619556103
 20
2.177485532500655
 30
0.0
 10
3.718431534401311
 20
2.185715045586992
 30
0.0
 10
3.718431534401311
 20
2.185715045586992
 30
0.0
  0
SPLINE
  5
B2
330
1F
100
AcDbEntity
  8
Layer 1
 62
     7
420
 16777215
370
     9
100
AcDbSpline
210
0.0
220
0.0
230
1.0
 70
     8
 71
     3
 72
    20
 73
    16
 74
     0
 42
0.0000000001
 43
0.0000000001
 12
1.0
 22
0.0
 32
0.0
 13
1.0
 23
0.0
 33
0.0
 40
0.0
 40
0.0
 40
0.0
 40
0.0
 40
1.0
 40
1.0
 40
1.0
 40
2.0
 40
2.0
 40
2.0
 40
3.0
 40
3.0
 40
3.0
 40
4.0
 40
4.0
 40
4.0
 40
5.0
 40
5.0
 40
5.0
 40
5.0
 10
3.380343079220286
 20
2.183161494675397
 30
0.0
 10
3.400013006044143
 20
2.181227369479997
 30
0.0
 10
3.411782094651471
 20
2.179583995130959
 30
0.0
 10
3.420917570519956
 20
2.177978544805367
 30
0.0
 10
3.430090970411887
 20
2.176373232420739
 30
0.0
 10
3.469637299298332
 20
2.17904884502242
 30
0.0
 10
3.480293949884778
 20
2.183983181849915
 30
0.0
 10
3.490992738275029
 20
2.188921732457794
 30
0.0
 10
3.551979006175568
 20
2.204108196955038
 30
0.0
 10
3.573169883287619
 20
2.208718072693109
 30
0.0
 10
3.59436519860982
 20
2.21328594950075
 30
0.0
 10
3.663247866516738
 20
2.229538361561291
 30
0.0
 10
3.673946654906988
 20
2.234476912169169
 30
0.0
 10
3.684607519273817
 20
2.239415462777022
 30
0.0
 10
3.708432233554479
 20
2.243898925103634
 30
0.0
 10
3.714976234487949
 20
2.242419888189501
 30
0.0
  0
SPLINE
  5
B3
330
1F
100
AcDbEntity
  8
Layer 1
 62
     7
420
 16777215
370
     9
100
AcDbSpline
210
0.0
220
0.0
230
1.0
 70
     8
 71
     3
 72
     8
 73
     4
 74
     0
 42
0.0000000001
 43
0.0000000001
 12
1.0
 22
0.0
 32
0.0
 13
1.0
 23
0.0
 33
0.0
 40
0.0
 40
0.0
 40
0.0
 40
0.0
 40
1.0
 40
1.0
 40
1.0
 40
1.0
 10
2.807494427603564
 20
1.528032686071533
 30
0.0
 10
2.83025305544753
 20
1.540459124418501
 30
0.0
 10
2.980825682338744
 20
1.544904662721668
 30
0.0
 10
3.004650396619404
 20
1.549430384604218
 30
0.0
  0
SPLINE
  5
B4
330
1F
100
AcDbEntity
  8
Layer 1
 62
     7
420
 16777215
370
     9
100
AcDbSpline
210
0.0
220
0.0
230
1.0
 70
     8
 71
     3
 72
    17
 73
    13
 74
     0
 42
0.0000000001
 43
0.0000000001
 12
1.0
 22
0.0
 32
0.0
 13
1.0
 23
0.0
 33
0.0
 40
0.0
 40
0.0
 40
0.0
 40
0.0
 40
1.0
 40
1.0
 40
1.0
 40
2.0
 40
2.0
 40
2.0
 40
3.0
 40
3.0
 40
3.0
 40
4.0
 40
4.0
 40
4.0
 40
4.0
 10
2.806302130540871
 20
1.572804102631835
 30
0.0
 10
2.806302130540871
 20
1.572804102631835
 30
0.0
 10
2.822188082982873
 20
1.576217264741343
 30
0.0
 10
2.834121305838355
 20
1.579798978066163
 30
0.0
 10
2.846092655904006
 20
1.583376477610626
 30
0.0
 10
2.921481400720975
 20
1.596751139491112
 30
0.0
 10
2.942714640066596
 20
1.602675591760847
 30
0.0
 10
2.963947879412217
 20
1.608604380758505
 30
0.0
 10
2.989171568779739
 20
1.615679318020132
 30
0.0
 10
3.009005833038499
 20
1.620331331562031
 30
0.0
 10
3.028882235101087
 20
1.624979131323521
 30
0.0
 10
3.097812329589563
 20
1.645003284448851
 30
0.0
 10
3.109867955262871
 20
1.652533309991718
 30
0.0
  0
SPLINE
  5
B5
330
1F
100
AcDbEntity
  8
Layer 1
 62
     7
420
 16777215
370
     9
100
AcDbSpline
210
0.0
220
0.0
230
1.0
 70
     8
 71
     3
 72
    17
 73
    13
 74
     0
 42
0.0000000001
 43
0.0000000001
 12
1.0
 22
0.0
 32
0.0
 13
1.0
 23
0.0
 33
0.0
 40
0.0
 40
0.0
 40
0.0
 40
0.0
 40
1.0
 40
1.0
 40
1.0
 40
2.0
 40
2.0
 40
2.0
 40
3.0
 40
3.0
 40
3.0
 40
4.0
 40
4.0
 40
4.0
 40
4.0
 10
2.806508402994142
 20
1.621443893154265
 30
0.0
 10
2.825023753993289
 20
1.624814917545235
 30
0.0
 10
2.901853611700946
 20
1.642141858820044
 30
0.0
 10
2.923128988850395
 20
1.649343209493104
 30
0.0
 10
2.944400152219461
 20
1.656582484189635
 30
0.0
 10
2.895387730442861
 20
1.651255997037272
 30
0.0
 10
2.911560011706696
 20
1.663888910622922
 30
0.0
 10
2.927732500813363
 20
1.6765639620124
 30
0.0
 10
2.98357351843755
 20
1.695820938358843
 30
0.0
 10
2.992789056133283
 20
1.695534401292813
 30
0.0
 10
3.002008807609425
 20
1.695243776233029
 30
0.0
 10
3.198095551405534
 20
1.729708428941346
 30
0.0
 10
3.208587864557078
 20
1.729379754071589
 30
0.0
  0
SPLINE
  5
B6
330
1F
100
AcDbEntity
  8
Layer 1
 62
     7
420
 16777215
370
     9
100
AcDbSpline
210
0.0
220
0.0
230
1.0
 70
     8
 71
     3
 72
    23
 73
    19
 74
     0
 42
0.0000000001
 43
0.0000000001
 12
1.0
 22
0.0
 32
0.0
 13
1.0
 23
0.0
 33
0.0
 40
0.0
 40
0.0
 40
0.0
 40
0.0
 40
1.0
 40
1.0
 40
1.0
 40
2.0
 40
2.0
 40
2.0
 40
3.0
 40
3.0
 40
3.0
 40
4.0
 40
4.0
 40
4.0
 40
5.0
 40
5.0
 40
5.0
 40
6.0
 40
6.0
 40
6.0
 40
6.0
 10
2.804452078167666
 20
1.680697949316659
 30
0.0
 10
2.830868470789381
 20
1.685143487619825
 30
0.0
 10
2.880207421877862
 20
1.707240551943768
 30
0.0
 10
2.896051236114721
 20
1.708062239118286
 30
0.0
 10
2.911852912547778
 20
1.708888140073213
 30
0.0
 10
2.897608184861408
 20
1.722199203551049
 30
0.0
 10
2.902959685946724
 20
1.724668478854962
 30
0.0
 10
2.908264835447855
 20
1.727137754158927
 30
0.0
 10
2.954768115745209
 20
1.741456179897442
 30
0.0
 10
2.962668953961712
 20
1.741207566854882
 30
0.0
 10
2.97056979217824
 20
1.740963294534291
 30
0.0
 10
3.046118660649704
 20
1.760919631482567
 30
0.0
 10
3.055502749560749
 20
1.765942457698101
 30
0.0
 10
3.064844700667966
 20
1.770876794525571
 30
0.0
 10
3.120559304880695
 20
1.786227596457744
 30
0.0
 10
3.120559304880695
 20
1.786227596457744
 30
0.0
 10
3.120559304880695
 20
1.786227596457744
 30
0.0
 10
3.194755549849484
 20
1.802315938448222
 30
0.0
 10
3.203928949741415
 20
1.800710359631163
 30
0.0
  0
SPLINE
  5
B7
330
1F
100
AcDbEntity
  8
Layer 1
 62
     7
420
 16777215
370
     9
100
AcDbSpline
210
0.0
220
0.0
230
1.0
 70
     8
 71
     3
 72
    32
 73
    28
 74
     0
 42
0.0000000001
 43
0.0000000001
 12
1.0
 22
0.0
 32
0.0
 13
1.0
 23
0.0
 33
0.0
 40
0.0
 40
0.0
 40
0.0
 40
0.0
 40
1.0
 40
1.0
 40
1.0
 40
2.0
 40
2.0
 40
2.0
 40
3.0
 40
3.0
 40
3.0
 40
4.0
 40
4.0
 40
4.0
 40
5.0
 40
5.0
 40
5.0
 40
6.0
 40
6.0
 40
6.0
 40
7.0
 40
7.0
 40
7.0
 40
8.0
 40
8.0
 40
8.0
 40
9.0
 40
9.0
 40
9.0
 40
9.0
 10
2.806053314712876
 20
1.733248004462388
 30
0.0
 10
2.82062035349395
 20
1.735426655370803
 30
0.0
 10
2.910740474526872
 20
1.757565731047736
 30
0.0
 10
2.930696938416708
 20
1.764851357328451
 30
0.0
 10
2.950699753890755
 20
1.77209484580539
 30
0.0
 10
2.91402928701061
 20
1.784828749420537
 30
0.0
 10
2.937605388248711
 20
1.78145338328477
 30
0.0
 10
2.961185703267195
 20
1.778078145198682
 30
0.0
 10
3.032908459151688
 20
1.800836773042647
 30
0.0
 10
3.050113324451988
 20
1.802935235672925
 30
0.0
 10
3.067271838168077
 20
1.805033698303254
 30
0.0
 10
3.103358653360778
 20
1.823591187106204
 30
0.0
 10
3.117761354706949
 20
1.821821399345734
 30
0.0
 10
3.13216405605312
 20
1.820051611585212
 30
0.0
 10
3.165372859244801
 20
1.830876813386971
 30
0.0
 10
3.178747398177721
 20
1.837007863842953
 30
0.0
 10
3.192122152449605
 20
1.843181052102813
 30
0.0
 10
3.229198990693147
 20
1.852518789429622
 30
0.0
 10
3.234381940563177
 20
1.849720968944894
 30
0.0
 10
3.239564890433207
 20
1.846922889082129
 30
0.0
 10
3.264379843103673
 20
1.842190813712983
 30
0.0
 10
3.276191069514829
 20
1.840547439363945
 30
0.0
 10
3.28800229592596
 20
1.838815575626894
 30
0.0
 10
3.308864722597971
 20
1.834247837692651
 30
0.0
 10
3.325736699248081
 20
1.825811849367609
 30
0.0
 10
3.342566538094363
 20
1.817380074822924
 30
0.0
 10
3.348941987812547
 20
1.811944298129977
 30
0.0
 10
3.36198785187566
 20
1.808901948694054
 30
0.0
  0
SPLINE
  5
B8
330
1F
100
AcDbEntity
  8
Layer 1
 62
     7
420
 16777215
370
     9
100
AcDbSpline
210
0.0
220
0.0
230
1.0
 70
     8
 71
     3
 72
    29
 73
    25
 74
     0
 42
0.0000000001
 43
0.0000000001
 12
1.0
 22
0.0
 32
0.0
 13
1.0
 23
0.0
 33
0.0
 40
0.0
 40
0.0
 40
0.0
 40
0.0
 40
1.0
 40
1.0
 40
1.0
 40
2.0
 40
2.0
 40
2.0
 40
3.0
 40
3.0
 40
3.0
 40
4.0
 40
4.0
 40
4.0
 40
5.0
 40
5.0
 40
5.0
 40
6.0
 40
6.0
 40
6.0
 40
7.0
 40
7.0
 40
7.0
 40
8.0
 40
8.0
 40
8.0
 40
8.0
 10
2.8039969898864
 20
1.79250218419611
 30
0.0
 10
2.830417392882433
 20
1.795633023020047
 30
0.0
 10
2.825021603998569
 20
1.798118884696174
 30
0.0
 10
2.847611680627248
 20
1.805320235369234
 30
0.0
 10
2.870201757255927
 20
1.812479448238516
 30
0.0
 10
2.931187800726724
 20
1.827708050539564
 30
0.0
 10
2.945754839507799
 20
1.831205488256779
 30
0.0
 10
2.960322087772056
 20
1.834660788170115
 30
0.0
 10
3.012172445891161
 20
1.851448618945192
 30
0.0
 10
3.030607946321778
 20
1.853509027819453
 30
0.0
 10
3.049123086062183
 20
1.855565352645954
 30
0.0
 10
3.115418492814468
 20
1.871860041383671
 30
0.0
 10
3.125868668162184
 20
1.871531366513864
 30
0.0
 10
3.136403119117555
 20
1.871244829447884
 30
0.0
 10
3.235616578215159
 20
1.889187106315047
 30
0.0
 10
3.235616578215159
 20
1.889187106315047
 30
0.0
 10
3.235616578215159
 20
1.889187106315047
 30
0.0
 10
3.249977358557999
 20
1.88605626749111
 30
0.0
 10
3.272116343885298
 20
1.87881699279463
 30
0.0
 10
3.294255546013068
 20
1.871531366513864
 30
0.0
 10
3.321577698010894
 20
1.862808841122842
 30
0.0
 10
3.339810725724444
 20
1.856922189928961
 30
0.0
 10
3.358077463681032
 20
1.851119814342787
 30
0.0
 10
3.382728078916595
 20
1.841120513495955
 30
0.0
 10
3.382728078916595
 20
1.841120513495955
 30
0.0
  0
SPLINE
  5
B9
330
1F
100
AcDbEntity
  8
Layer 1
 62
     7
420
 16777215
370
     9
100
AcDbSpline
210
0.0
220
0.0
230
1.0
 70
     8
 71
     3
 72
    26
 73
    22
 74
     0
 42
0.0000000001
 43
0.0000000001
 12
1.0
 22
0.0
 32
0.0
 13
1.0
 23
0.0
 33
0.0
 40
0.0
 40
0.0
 40
0.0
 40
0.0
 40
1.0
 40
1.0
 40
1.0
 40
2.0
 40
2.0
 40
2.0
 40
3.0
 40
3.0
 40
3.0
 40
4.0
 40
4.0
 40
4.0
 40
5.0
 40
5.0
 40
5.0
 40
6.0
 40
6.0
 40
6.0
 40
7.0
 40
7.0
 40
7.0
 40
7.0
 10
2.80436780256001
 20
1.846409076624847
 30
0.0
 10
2.842759555621746
 20
1.854436328252834
 30
0.0
 10
2.923457663720203
 20
1.869003496859174
 30
0.0
 10
2.945967678521609
 20
1.873571104968202
 30
0.0
 10
2.968435555519211
 20
1.878096705098617
 30
0.0
 10
2.940858426703749
 20
1.883957804860832
 30
0.0
 10
2.972584188993904
 20
1.889553705208325
 30
0.0
 10
3.004309531698077
 20
1.895111681532348
 30
0.0
 10
3.065253437365022
 20
1.90897923276998
 30
0.0
 10
3.103485066772237
 20
1.911692907336096
 30
0.0
 10
3.141712482399043
 20
1.914490857509867
 30
0.0
 10
3.223889627411634
 20
1.934245059941329
 30
0.0
 10
3.234297664955546
 20
1.931282772332704
 30
0.0
 10
3.244752270752138
 20
1.928320484724029
 30
0.0
 10
3.256479004887145
 20
1.925358328715194
 30
0.0
 10
3.273435257144885
 20
1.919555821529179
 30
0.0
 10
3.290303237833844
 20
1.913753445942954
 30
0.0
 10
3.34804023881078
 20
1.9079889943802
 30
0.0
 10
3.361001827266237
 20
1.902313032205459
 30
0.0
 10
3.37396341572172
 20
1.89663285625031
 30
0.0
 10
3.382812354524225
 20
1.885854006032787
 30
0.0
 10
3.382812354524225
 20
1.885854006032787
 30
0.0
  0
SPLINE
  5
BA
330
1F
100
AcDbEntity
  8
Layer 1
 62
     7
420
 16777215
370
     9
100
AcDbSpline
210
0.0
220
0.0
230
1.0
 70
     8
 71
     3
 72
    35
 73
    31
 74
     0
 42
0.0000000001
 43
0.0000000001
 12
1.0
 22
0.0
 32
0.0
 13
1.0
 23
0.0
 33
0.0
 40
0.0
 40
0.0
 40
0.0
 40
0.0
 40
1.0
 40
1.0
 40
1.0
 40
2.0
 40
2.0
 40
2.0
 40
3.0
 40
3.0
 40
3.0
 40
4.0
 40
4.0
 40
4.0
 40
5.0
 40
5.0
 40
5.0
 40
6.0
 40
6.0
 40
6.0
 40
7.0
 40
7.0
 40
7.0
 40
8.0
 40
8.0
 40
8.0
 40
9.0
 40
9.0
 40
9.0
 40
10.0
 40
10.0
 40
10.0
 40
10.0
 10
2.853500481815824
 20
1.902743106553771
 30
0.0
 10
2.865147370792076
 20
1.897109412718136
 30
0.0
 10
2.920866188785188
 20
1.911141301745071
 30
0.0
 10
2.940700453043923
 20
1.914474271137654
 30
0.0
 10
2.960492579498855
 20
1.917807371419915
 30
0.0
 10
2.885139608710637
 20
1.912021582205903
 30
0.0
 10
2.897115380443135
 20
1.915561157726895
 30
0.0
 10
2.909048598598929
 20
1.919142871051715
 30
0.0
 10
2.971062804482952
 20
1.925067446269016
 30
0.0
 10
2.980569093025072
 20
1.935315360158408
 30
0.0
 10
2.990113515826427
 20
1.945521136243971
 30
0.0
 10
3.032415446846976
 20
1.952103061200887
 30
0.0
 10
3.050892873822679
 20
1.954159386027337
 30
0.0
 10
3.069370300798381
 20
1.956219924634246
 30
0.0
 10
3.103729466034388
 20
1.961693625350613
 30
0.0
 10
3.126197343031991
 20
1.964942450025268
 30
0.0
 10
3.148665220029594
 20
1.968195488480281
 30
0.0
 10
3.168006471983643
 20
1.979673959213111
 30
0.0
 10
3.187183386502763
 20
1.980128914522538
 30
0.0
 10
3.212200600631579
 20
1.980664064631027
 30
0.0
 10
3.228128690476069
 20
1.985396140000173
 30
0.0
 10
3.233353778149926
 20
1.98395502710951
 30
0.0
 10
3.238536728019981
 20
1.982429638611191
 30
0.0
 10
3.250347954431138
 20
1.980744126458325
 30
0.0
 10
3.268618906168108
 20
1.976260797017352
 30
0.0
 10
3.286890075638085
 20
1.971730850220916
 30
0.0
 10
3.309071197836702
 20
1.967083050459375
 30
0.0
 10
3.329975762312516
 20
1.962473174721304
 30
0.0
 10
3.350876113007947
 20
1.957863298983284
 30
0.0
 10
3.383385648826915
 20
1.94502812393926
 30
0.0
 10
3.383385648826915
 20
1.94502812393926
 30
0.0
  0
SPLINE
  5
BB
330
1F
100
AcDbEntity
  8
Layer 1
 62
     7
420
 16777215
370
     9
100
AcDbSpline
210
0.0
220
0.0
230
1.0
 70
     8
 71
     3
 72
    32
 73
    28
 74
     0
 42
0.0000000001
 43
0.0000000001
 12
1.0
 22
0.0
 32
0.0
 13
1.0
 23
0.0
 33
0.0
 40
0.0
 40
0.0
 40
0.0
 40
0.0
 40
1.0
 40
1.0
 40
1.0
 40
2.0
 40
2.0
 40
2.0
 40
3.0
 40
3.0
 40
3.0
 40
4.0
 40
4.0
 40
4.0
 40
5.0
 40
5.0
 40
5.0
 40
6.0
 40
6.0
 40
6.0
 40
7.0
 40
7.0
 40
7.0
 40
8.0
 40
8.0
 40
8.0
 40
9.0
 40
9.0
 40
9.0
 40
9.0
 10
2.963969217063474
 20
1.962823187242369
 30
0.0
 10
2.986314894430001
 20
1.962123699698926
 30
0.0
 10
2.921454444943795
 20
1.954694536135877
 30
0.0
 10
2.953348340505752
 20
1.965561875741463
 30
0.0
 10
2.98523823043782
 20
1.976382863762764
 30
0.0
 10
3.03819702228063
 20
1.987865415304138
 30
0.0
 10
3.056674660822738
 20
1.989921740130638
 30
0.0
 10
3.075194014035863
 20
1.99193606043496
 30
0.0
 10
3.125477055335978
 20
2.002225978846506
 30
0.0
 10
3.153254509621294
 20
2.007901941021234
 30
0.0
 10
3.181073673698013
 20
2.013624254780186
 30
0.0
 10
3.235473578431487
 20
2.027698281256562
 30
0.0
 10
3.245923753779203
 20
2.026092830930957
 30
0.0
 10
3.256420280711129
 20
2.024403104997709
 30
0.0
 10
3.269588344405343
 20
2.026627981039496
 30
0.0
 10
3.291765470556558
 20
2.020699192041826
 30
0.0
 10
3.31398894829201
 20
2.01473261287822
 30
0.0
 10
3.333494537680938
 20
2.008850041607212
 30
0.0
 10
3.355633739808733
 20
2.001564415326496
 30
0.0
 10
3.377768728156146
 20
1.994325140629952
 30
0.0
 10
3.38550522893777
 20
1.99012821536932
 30
0.0
 10
3.394682842610084
 20
1.988522898239201
 30
0.0
 10
3.403860456282372
 20
1.986875176914307
 30
0.0
 10
3.433980558453944
 20
1.983335601393315
 30
0.0
 10
3.441839258866644
 20
1.981772288871576
 30
0.0
 10
3.449660035255925
 20
1.980208976349786
 30
0.0
 10
3.581633573039021
 20
1.988173290021374
 30
0.0
 10
3.601590036928858
 20
1.995416911516966
 30
0.0
  0
SPLINE
  5
BC
330
1F
100
AcDbEntity
  8
Layer 1
 62
     7
420
 16777215
370
     9
100
AcDbSpline
210
0.0
220
0.0
230
1.0
 70
     8
 71
     3
 72
    32
 73
    28
 74
     0
 42
0.0000000001
 43
0.0000000001
 12
1.0
 22
0.0
 32
0.0
 13
1.0
 23
0.0
 33
0.0
 40
0.0
 40
0.0
 40
0.0
 40
0.0
 40
1.0
 40
1.0
 40
1.0
 40
2.0
 40
2.0
 40
2.0
 40
3.0
 40
3.0
 40
3.0
 40
4.0
 40
4.0
 40
4.0
 40
5.0
 40
5.0
 40
5.0
 40
6.0
 40
6.0
 40
6.0
 40
7.0
 40
7.0
 40
7.0
 40
8.0
 40
8.0
 40
8.0
 40
9.0
 40
9.0
 40
9.0
 40
9.0
 10
2.991989244108709
 20
2.01777904223699
 30
0.0
 10
3.015813958389344
 20
2.023665827514012
 30
0.0
 10
3.043506923060805
 20
2.025393477514386
 30
0.0
 10
3.067415912949097
 20
2.033867255736002
 30
0.0
 10
3.091409178445019
 20
2.042303244061069
 30
0.0
 10
3.180725811171669
 20
2.088621924269609
 30
0.0
 10
3.199161100343543
 20
2.08936354961688
 30
0.0
 10
3.217596389515443
 20
2.090105174964126
 30
0.0
 10
3.22111355238783
 20
2.068475034014568
 30
0.0
 10
3.237037428451938
 20
2.073249247187543
 30
0.0
 10
3.252961520339365
 20
2.07798145801203
 30
0.0
 10
3.258355159364807
 20
2.081807435143661
 30
0.0
 10
3.272673369143755
 20
2.077408248424705
 30
0.0
 10
3.287033932686098
 20
2.073004847925366
 30
0.0
 10
3.284400319947256
 20
2.074403823012251
 30
0.0
 10
3.307938497161912
 20
2.069709671666525
 30
0.0
 10
3.331476674376568
 20
2.065019734101207
 30
0.0
 10
3.356333764850862
 20
2.06028765873206
 30
0.0
 10
3.37328580332822
 20
2.055804196405448
 30
0.0
 10
3.390242055585961
 20
2.051358658102282
 30
0.0
 10
3.41254559514866
 20
2.049302333275806
 30
0.0
 10
3.421681291102711
 20
2.046378104347582
 30
0.0
 10
3.430774409081828
 20
2.043499957689581
 30
0.0
 10
3.430896608712904
 20
2.047406132103851
 30
0.0
 10
3.443942472776017
 20
2.044401706691373
 30
0.0
 10
3.456984123058772
 20
2.041359357255474
 30
0.0
 10
3.593588874231197
 20
1.991421039698657
 30
0.0
 10
3.593588874231197
 20
1.991421039698657
 30
0.0
  0
SPLINE
  5
BD
330
1F
100
AcDbEntity
  8
Layer 1
 62
     7
420
 16777215
370
     9
100
AcDbSpline
210
0.0
220
0.0
230
1.0
 70
     8
 71
     3
 72
    26
 73
    22
 74
     0
 42
0.0000000001
 43
0.0000000001
 12
1.0
 22
0.0
 32
0.0
 13
1.0
 23
0.0
 33
0.0
 40
0.0
 40
0.0
 40
0.0
 40
0.0
 40
1.0
 40
1.0
 40
1.0
 40
2.0
 40
2.0
 40
2.0
 40
3.0
 40
3.0
 40
3.0
 40
4.0
 40
4.0
 40
4.0
 40
5.0
 40
5.0
 40
5.0
 40
6.0
 40
6.0
 40
6.0
 40
7.0
 40
7.0
 40
7.0
 40
7.0
 10
3.105069716945258
 20
2.105472025769801
 30
0.0
 10
3.12773985540121
 20
2.116579687287589
 30
0.0
 10
3.152845558918013
 20
2.119748313704513
 30
0.0
 10
3.173914460828731
 20
2.120409877224486
 30
0.0
 10
3.194983362739473
 20
2.121067226964101
 30
0.0
 10
3.228107890323498
 20
2.129212464442806
 30
0.0
 10
3.244031766387631
 20
2.133944539811953
 30
0.0
 10
3.257157692278017
 20
2.132216889855259
 30
0.0
 10
3.260988018645371
 20
2.128184302029556
 30
0.0
 10
3.2806158076654
 20
2.124935477354926
 30
0.0
 10
3.300201458881626
 20
2.121682438899913
 30
0.0
 10
3.326166773596393
 20
2.110368438573851
 30
0.0
 10
3.336785500159395
 20
2.112673376442886
 30
0.0
 10
3.347362088918594
 20
2.114978450701895
 30
0.0
 10
3.382707278764024
 20
2.10987542626914
 30
0.0
 10
3.390237524299866
 20
2.097815586815449
 30
0.0
 10
3.397729405826365
 20
2.085717823338288
 30
0.0
 10
3.402790156065318
 20
2.079009484969914
 30
0.0
 10
3.41332460702069
 20
2.078680810100107
 30
0.0
 10
3.423816920172233
 20
2.078352135230312
 30
0.0
 10
3.715997399296182
 20
2.104360125247581
 30
0.0
 10
3.715997399296182
 20
2.104360125247581
 30
0.0
  0
SPLINE
  5
BE
330
1F
100
AcDbEntity
  8
Layer 1
 62
     7
420
 16777215
370
     9
100
AcDbSpline
210
0.0
220
0.0
230
1.0
 70
     8
 71
     3
 72
    11
 73
     7
 74
     0
 42
0.0000000001
 43
0.0000000001
 12
1.0
 22
0.0
 32
0.0
 13
1.0
 23
0.0
 33
0.0
 40
0.0
 40
0.0
 40
0.0
 40
0.0
 40
1.0
 40
1.0
 40
1.0
 40
2.0
 40
2.0
 40
2.0
 40
2.0
 10
3.257056509778876
 20
2.194972721086553
 30
0.0
 10
3.287260670578714
 20
2.192667783217517
 30
0.0
 10
3.296438284251028
 20
2.192419170174983
 30
0.0
 10
3.314624960380367
 20
2.185217819501898
 30
0.0
 10
3.332811636509708
 20
2.178100882421012
 30
0.0
 10
3.361288364332242
 20
2.162749942504294
 30
0.0
 10
3.377090040765274
 20
2.163575843459196
 30
0.0
  0
POLYLINE
  5
BF
330
1F
100
AcDbEntity
  8
Layer 1
 62
     7
420
 16777215
370
    40
100
AcDb2dPolyline
 66
     1
 10
0.0
 20
0.0
 30
0.0
  0
VERTEX
  5
C0
330
BF
100
AcDbEntity
  8
Layer 1
 62
     7
420
 16777215
370
    40
100
AcDbVertex
100
AcDb2dVertex
 10
3.23076251952999
 20
2.195752270457256
 30
0.0
  0
VERTEX
  5
C1
330
BF
100
AcDbEntity
  8
Layer 1
 62
     7
420
 16777215
370
    40
100
AcDbVertex
100
AcDb2dVertex
 10
3.23866314143144
 20
1.748592980118095
 30
0.0
  0
SEQEND
  5
C2
330
BF
100
AcDbEntity
  8
Layer 1
 62
     7
420
 16777215
370
    40
  0
POLYLINE
  5
C3
330
1F
100
AcDbEntity
  8
Layer 1
 62
     7
420
 16777215
370
    40
100
AcDb2dPolyline
 66
     1
 10
0.0
 20
0.0
 30
0.0
  0
VERTEX
  5
C4
330
C3
100
AcDbEntity
  8
Layer 1
 62
     7
420
 16777215
370
    40
100
AcDbVertex
100
AcDb2dVertex
 10
3.383385648826915
 20
1.875583679494816
 30
0.0
  0
VERTEX
  5
C5
330
C3
100
AcDbEntity
  8
Layer 1
 62
     7
420
 16777215
370
    40
100
AcDbVertex
100
AcDb2dVertex
 10
3.378038141351251
 20
2.193780221238399
 30
0.0
  0
SEQEND
  5
C6
330
C3
100
AcDbEntity
  8
Layer 1
 62
     7
420
 16777215
370
    40
  0
INSERT
  5
C9
330
1F
100
AcDbEntity
  8
E5
100
AcDbBlockReference
  2
block 2
 10
0.0
 20
0.0
 30
0.0
  0
MTEXT
  5
140
330
1F
100
AcDbEntity
  8
callout
 62
   250
420
  2236191
100
AcDbMText
 10
1.557369126213921
 20
0.9670424328909979
 30
0.0
 40
0.118
 41
0.0
 46
0.0
 71
     7
 72
     1
  1
\fHelvetica Neue LT Std 55 Roman|b0|i0|c0|p34;\W1;SIMPSON Strong-Tie\H0.068794;®\H0.118; ^C
 73
     1
 44
1.0
  0
MTEXT
  5
141
330
1F
100
AcDbEntity
  8
callout
 62
   250
420
  2236191
100
AcDbMText
 10
1.043581962585449
 20
0.7670505709118313
 30
0.0
 40
0.118
 41
0.0
 46
0.0
 71
     7
 72
     1
  1
\fHelvetica Neue LT Std 55 Roman|b0|i0|c0|p34;\W1;E5 Stud-to-Bottom Plate Installation 
 73
     1
 44
1.0
  0
MTEXT
  5
142
330
1F
100
AcDbEntity
  8
callout
 62
   250
420
  2236191
100
AcDbMText
 10
3.428651173909505
 20
3.292311244540744
 30
0.0
 40
0.118
 41
0.0
 46
0.0
 71
     7
 72
     1
  1
\fHelvetica Neue LT Std 57 Condensed|b0|i0|c0|p34;\W1;E5
 73
     1
 44
1.0
  0
POLYLINE
  5
143
330
1F
100
AcDbEntity
  8
callout
 62
   250
420
  2236191
370
    18
100
AcDb2dPolyline
 66
     1
 10
0.0
 20
0.0
 30
0.0
  0
VERTEX
  5
144
330
143
100
AcDbEntity
  8
callout
 62
   250
420
  2236191
370
    18
100
AcDbVertex
100
AcDb2dVertex
 10
3.36597830189756
 20
3.352627135196068
 30
0.0
  0
VERTEX
  5
145
330
143
100
AcDbEntity
  8
callout
 62
   250
420
  2236191
370
    18
100
AcDbVertex
100
AcDb2dVertex
 10
2.864763493976878
 20
2.933139612044897
 30
0.0
  0
SEQEND
  5
146
330
143
100
AcDbEntity
  8
callout
 62
   250
420
  2236191
370
    18
  0
MTEXT
  5
147
330
1F
100
AcDbEntity
  8
callout
 62
   250
420
  2236191
100
AcDbMText
 10
0.549577448103163
 20
3.248435550265842
 30
0.0
 40
0.118
 41
0.0
 46
0.0
 71
     7
 72
     1
  1
\fHelvetica Neue LT Std 57 Condensed|b0|i0|c0|p34;\W1;Bottom Plate
 73
     1
 44
1.0
  0
MTEXT
  5
148
330
1F
100
AcDbEntity
  8
callout
 62
   250
420
  2236191
100
AcDbMText
 10
0.5912441147698296
 20
3.728722254435221
 30
0.0
 40
0.118
 41
0.0
 46
0.0
 71
     7
 72
     1
  1
\fHelvetica Neue LT Std 57 Condensed|b0|i0|c0|p34;\W1;Stud
 73
     1
 44
1.0
  0
POLYLINE
  5
149
330
1F
100
AcDbEntity
  8
callout
 62
   250
420
  2236191
370
    18
100
AcDb2dPolyline
 66
     1
 10
0.0
 20
0.0
 30
0.0
  0
VERTEX
  5
14A
330
149
100
AcDbEntity
  8
callout
 62
   250
420
  2236191
370
    18
100
AcDbVertex
100
AcDb2dVertex
 10
0.7643871551783327
 20
3.175070422756132
 30
0.0
  0
VERTEX
  5
14B
330
149
100
AcDbEntity
  8
callout
 62
   250
420
  2236191
370
    18
100
AcDbVertex
100
AcDb2dVertex
 10
1.010976702508957
 20
2.866603558460686
 30
0.0
  0
SEQEND
  5
14C
330
149
100
AcDbEntity
  8
callout
 62
   250
420
  2236191
370
    18
  0
POLYLINE
  5
14D
330
1F
100
AcDbEntity
  8
callout
 62
   250
420
  2236191
370
    18
100
AcDb2dPolyline
 66
     1
 10
0.0
 20
0.0
 30
0.0
  0
VERTEX
  5
14E
330
14D
100
AcDbEntity
  8
callout
 62
   250
420
  2236191
370
    18
100
AcDbVertex
100
AcDb2dVertex
 10
0.9392921146953388
 20
3.75957498867164
 30
0.0
  0
VERTEX
  5
14F
330
14D
100
AcDbEntity
  8
callout
 62
   250
420
  2236191
370
    18
100
AcDbVertex
100
AcDb2dVertex
 10
1.485992391524014
 20
3.451108124376169
 30
0.0
  0
SEQEND
  5
150
330
14D
100
AcDbEntity
  8
callout
 62
   250
420
  2236191
370
    18
  0
ENDSEC
  0
SECTION
  2
OBJECTS
  0
DICTIONARY
  5
C
330
0
100
AcDbDictionary
281
     1
  3
ACAD_GROUP
350
D
  3
ACAD_LAYOUT
350
1A
  3
ACAD_MATERIAL
350
3B
  3
ACAD_MLEADERSTYLE
350
152
  3
ACAD_MLINESTYLE
350
17
  3
ACAD_PLOTSETTINGS
350
19
  3
ACAD_PLOTSTYLENAME
350
E
  3
ACAD_TABLESTYLE
350
151
  3
ACAD_VISUALSTYLE
350
2A
  0
SUN
  5
3F
330
29
100
AcDbSun
 90
        1
290
     0
 63
     7
421
 16777215
 40
1.0
291
     1
 91
  2455826
 92
 54000000
292
     0
 70
     2
 71
   256
280
     1
  0
DICTIONARY
  5
D
102
{ACAD_REACTORS
330
C
102
}
330
C
100
AcDbDictionary
281
     1
  0
DICTIONARY
  5
1A
102
{ACAD_REACTORS
330
C
102
}
330
C
100
AcDbDictionary
281
     1
  3
Layout1
350
1E
  3
Layout2
350
26
  3
Model
350
22
  0
DICTIONARY
  5
3B
102
{ACAD_REACTORS
330
C
102
}
330
C
100
AcDbDictionary
281
     1
  3
ByBlock
350
3D
  3
ByLayer
350
3C
  3
Global
350
3E
  0
DICTIONARY
  5
152
102
{ACAD_REACTORS
330
C
102
}
330
C
100
AcDbDictionary
281
     1
  0
DICTIONARY
  5
17
102
{ACAD_REACTORS
330
C
102
}
330
C
100
AcDbDictionary
281
     1
  3
Standard
350
18
  0
DICTIONARY
  5
19
102
{ACAD_REACTORS
330
C
102
}
330
C
100
AcDbDictionary
281
     1
  0
ACDBDICTIONARYWDFLT
  5
E
102
{ACAD_REACTORS
330
C
102
}
330
C
100
AcDbDictionary
281
     1
  3
Normal
350
F
100
AcDbDictionaryWithDefault
340
F
  0
DICTIONARY
  5
151
102
{ACAD_REACTORS
330
C
102
}
330
C
100
AcDbDictionary
281
     1
  0
DICTIONARY
  5
2A
102
{ACAD_REACTORS
330
C
102
}
330
C
100
AcDbDictionary
281
     1
  3
2dWireframe
350
2F
  3
3D Hidden
350
31
  3
3dWireframe
350
30
  3
Basic
350
32
  3
Brighten
350
36
  3
ColorChange
350
3A
  3
Conceptual
350
34
  3
Dim
350
35
  3
Facepattern
350
39
  3
Flat
350
2B
  3
FlatWithEdges
350
2C
  3
Gouraud
350
2D
  3
GouraudWithEdges
350
2E
  3
Linepattern
350
38
  3
Realistic
350
33
  3
Thicken
350
37
  0
LAYOUT
  5
1E
102
{ACAD_REACTORS
330
1A
102
}
330
1A
100
AcDbPlotSettings
  1

  2
none_device
  4

  6

 40
0.0
 41
0.0
 42
0.0
 43
0.0
 44
0.0
 45
0.0
 46
0.0
 47
0.0
 48
0.0
 49
0.0
140
0.0
141
0.0
142
1.0
143
1.0
 70
   688
 72
     0
 73
     0
 74
     5
  7

 75
    16
 76
     0
 77
     2
 78
   300
147
1.0
148
0.0
149
0.0
100
AcDbLayout
  1
Layout1
 70
     1
 71
     1
 10
0.0
 20
0.0
 11
12.0
 21
9.0
 12
0.0
 22
0.0
 32
0.0
 14
1.000000000000000E+20
 24
1.000000000000000E+20
 34
1.000000000000000E+20
 15
-1.000000000000000E+20
 25
-1.000000000000000E+20
 35
-1.000000000000000E+20
146
0.0
 13
0.0
 23
0.0
 33
0.0
 16
1.0
 26
0.0
 36
0.0
 17
0.0
 27
1.0
 37
0.0
 76
     0
330
1B
  0
LAYOUT
  5
26
102
{ACAD_REACTORS
330
1A
102
}
330
1A
100
AcDbPlotSettings
  1

  2
none_device
  4

  6

 40
0.0
 41
0.0
 42
0.0
 43
0.0
 44
0.0
 45
0.0
 46
0.0
 47
0.0
 48
0.0
 49
0.0
140
0.0
141
0.0
142
1.0
143
1.0
 70
   688
 72
     0
 73
     0
 74
     5
  7

 75
    16
 76
     0
 77
     2
 78
   300
147
1.0
148
0.0
149
0.0
100
AcDbLayout
  1
Layout2
 70
     1
 71
     2
 10
0.0
 20
0.0
 11
0.0
 21
0.0
 12
0.0
 22
0.0
 32
0.0
 14
0.0
 24
0.0
 34
0.0
 15
0.0
 25
0.0
 35
0.0
146
0.0
 13
0.0
 23
0.0
 33
0.0
 16
1.0
 26
0.0
 36
0.0
 17
0.0
 27
1.0
 37
0.0
 76
     0
330
23
  0
LAYOUT
  5
22
102
{ACAD_REACTORS
330
1A
102
}
330
1A
100
AcDbPlotSettings
  1

  2
none_device
  4

  6

 40
0.0
 41
0.0
 42
0.0
 43
0.0
 44
0.0
 45
0.0
 46
0.0
 47
0.0
 48
0.0
 49
0.0
140
0.0
141
0.0
142
1.0
143
1.0
 70
  1712
 72
     0
 73
     0
 74
     0
  7

 75
     0
 76
     0
 77
     2
 78
   300
147
1.0
148
0.0
149
0.0
100
AcDbLayout
  1
Model
 70
     1
 71
     0
 10
0.0
 20
0.0
 11
12.0
 21
9.0
 12
0.0
 22
0.0
 32
0.0
 14
1.000000000000000E+20
 24
1.000000000000000E+20
 34
1.000000000000000E+20
 15
-1.000000000000000E+20
 25
-1.000000000000000E+20
 35
-1.000000000000000E+20
146
0.0
 13
0.0
 23
0.0
 33
0.0
 16
1.0
 26
0.0
 36
0.0
 17
0.0
 27
1.0
 37
0.0
 76
     0
330
1F
331
29
  0
MATERIAL
  5
3D
102
{ACAD_REACTORS
330
3B
102
}
330
3B
100
AcDbMaterial
  1
ByBlock
 72
     1
 94
      127
  0
MATERIAL
  5
3C
102
{ACAD_REACTORS
330
3B
102
}
330
3B
100
AcDbMaterial
  1
ByLayer
 72
     1
 94
      127
  0
MATERIAL
  5
3E
102
{ACAD_REACTORS
330
3B
102
}
330
3B
100
AcDbMaterial
  1
Global
 72
     1
 94
      127
  0
MLINESTYLE
  5
18
102
{ACAD_REACTORS
330
17
102
}
330
17
100
AcDbMlineStyle
  2
Standard
 70
     0
  3

 62
   256
 51
90.0
 52
90.0
 71
     2
 49
0.5
 62
   256
  6
BYLAYER
 49
-0.5
 62
   256
  6
BYLAYER
  0
ACDBPLACEHOLDER
  5
F
102
{ACAD_REACTORS
330
E
102
}
330
E
  0
VISUALSTYLE
  5
2F
102
{ACAD_REACTORS
330
2A
102
}
330
2A
100
AcDbVisualStyle
  2
2dWireframe
 70
     4
177
     2
291
     0
 71
     0
176
     1
 72
     2
176
     1
 73
     0
176
     1
 90
        0
176
     1
 40
-0.6
176
     1
 41
-30.0
176
     1
 62
     5
 63
     7
421
 16777215
176
     1
 74
     1
176
     1
 91
        4
176
     1
 64
     7
176
     1
 65
   257
176
     1
 75
     1
176
     1
175
     1
176
     1
 42
1.0
176
     1
 92
        0
176
     1
 66
   257
176
     1
 43
1.0
176
     1
 76
     1
176
     1
 77
     6
176
     1
 78
     2
176
     1
 67
     7
176
     1
 79
     5
176
     1
170
     0
176
     1
171
     0
176
     1
290
     0
176
     1
 93
        1
176
     1
 44
0.0
176
     1
173
     0
176
     1
  0
VISUALSTYLE
  5
31
102
{ACAD_REACTORS
330
2A
102
}
330
2A
100
AcDbVisualStyle
  2
3D Hidden
 70
     6
177
     2
291
     0
 71
     1
176
     1
 72
     2
176
     1
 73
     2
176
     1
 90
        0
176
     1
 40
-0.6
176
     1
 41
-30.0
176
     1
 62
     5
 63
     7
421
 16777215
176
     1
 74
     2
176
     1
 91
        2
176
     1
 64
     7
176
     1
 65
   257
176
     1
 75
     2
176
     1
175
     1
176
     1
 42
40.0
176
     1
 92
        0
176
     1
 66
   257
176
     1
 43
1.0
176
     1
 76
     1
176
     1
 77
     6
176
     1
 78
     2
176
     1
 67
     7
176
     1
 79
     3
176
     1
170
     0
176
     1
171
     0
176
     1
290
     0
176
     1
 93
        1
176
     1
 44
0.0
176
     1
173
     0
176
     1
  0
VISUALSTYLE
  5
30
102
{ACAD_REACTORS
330
2A
102
}
330
2A
100
AcDbVisualStyle
  2
3dWireframe
 70
     5
177
     2
291
     0
 71
     0
176
     1
 72
     2
176
     1
 73
     0
176
     1
 90
        0
176
     1
 40
-0.6
176
     1
 41
-30.0
176
     1
 62
     5
 63
     7
421
 16777215
176
     1
 74
     1
176
     1
 91
        4
176
     1
 64
     7
176
     1
 65
   257
176
     1
 75
     1
176
     1
175
     1
176
     1
 42
1.0
176
     1
 92
        0
176
     1
 66
   257
176
     1
 43
1.0
176
     1
 76
     1
176
     1
 77
     6
176
     1
 78
     2
176
     1
 67
     7
176
     1
 79
     5
176
     1
170
     0
176
     1
171
     0
176
     1
290
     0
176
     1
 93
        1
176
     1
 44
0.0
176
     1
173
     0
176
     1
  0
VISUALSTYLE
  5
32
102
{ACAD_REACTORS
330
2A
102
}
330
2A
100
AcDbVisualStyle
  2
Basic
 70
     7
177
     2
291
     1
 71
     1
176
     1
 72
     0
176
     1
 73
     1
176
     1
 90
        0
176
     1
 40
-0.6
176
     1
 41
-30.0
176
     1
 62
     5
 63
     7
421
 16777215
176
     1
 74
     0
176
     1
 91
        4
176
     1
 64
     7
176
     1
 65
   257
176
     1
 75
     1
176
     1
175
     1
176
     1
 42
1.0
176
     1
 92
        8
176
     1
 66
     7
176
     1
 43
1.0
176
     1
 76
     1
176
     1
 77
     6
176
     1
 78
     2
176
     1
 67
     7
176
     1
 79
     5
176
     1
170
     0
176
     1
171
     0
176
     1
290
     0
176
     1
 93
        1
176
     1
 44
0.0
176
     1
173
     0
176
     1
  0
VISUALSTYLE
  5
36
102
{ACAD_REACTORS
330
2A
102
}
330
2A
100
AcDbVisualStyle
  2
Brighten
 70
    12
177
     2
291
     1
 71
     2
176
     1
 72
     2
176
     1
 73
     0
176
     1
 90
        0
176
     1
 40
-0.6
176
     1
 41
-30.0
176
     1
 62
     5
 63
     7
421
 16777215
176
     1
 74
     1
176
     1
 91
        4
176
     1
 64
     7
176
     1
 65
   257
176
     1
 75
     1
176
     1
175
     1
176
     1
 42
1.0
176
     1
 92
        8
176
     1
 66
     7
176
     1
 43
1.0
176
     1
 76
     1
176
     1
 77
     6
176
     1
 78
     2
176
     1
 67
     7
176
     1
 79
     5
176
     1
170
     0
176
     1
171
     0
176
     1
290
     0
176
     1
 93
        1
176
     1
 44
50.0
176
     1
173
     0
176
     1
  0
VISUALSTYLE
  5
3A
102
{ACAD_REACTORS
330
2A
102
}
330
2A
100
AcDbVisualStyle
  2
ColorChange
 70
    16
177
     2
291
     1
 71
     2
176
     1
 72
     2
176
     1
 73
     3
176
     1
 90
        0
176
     1
 40
-0.6
176
     1
 41
-30.0
176
     1
 62
     5
 63
     8
421
  8421504
176
     1
 74
     1
176
     1
 91
        4
176
     1
 64
     7
176
     1
 65
   257
176
     1
 75
     1
176
     1
175
     1
176
     1
 42
1.0
176
     1
 92
        8
176
     1
 66
     8
424
  8421504
176
     1
 43
1.0
176
     1
 76
     1
176
     1
 77
     6
176
     1
 78
     2
176
     1
 67
     7
176
     1
 79
     5
176
     1
170
     0
176
     1
171
     0
176
     1
290
     0
176
     1
 93
        1
176
     1
 44
0.0
176
     1
173
     0
176
     1
  0
VISUALSTYLE
  5
34
102
{ACAD_REACTORS
330
2A
102
}
330
2A
100
AcDbVisualStyle
  2
Conceptual
 70
     9
177
     2
291
     0
 71
     3
176
     1
 72
     2
176
     1
 73
     0
176
     1
 90
        0
176
     1
 40
-0.6
176
     1
 41
-30.0
176
     1
 62
     5
 63
     7
421
 16777215
176
     1
 74
     2
176
     1
 91
        2
176
     1
 64
     7
176
     1
 65
   257
176
     1
 75
     1
176
     1
175
     1
176
     1
 42
40.0
176
     1
 92
        8
176
     1
 66
     7
176
     1
 43
1.0
176
     1
 76
     1
176
     1
 77
     6
176
     1
 78
     2
176
     1
 67
     7
176
     1
 79
     3
176
     1
170
     0
176
     1
171
     0
176
     1
290
     0
176
     1
 93
        1
176
     1
 44
0.0
176
     1
173
     0
176
     1
  0
VISUALSTYLE
  5
35
102
{ACAD_REACTORS
330
2A
102
}
330
2A
100
AcDbVisualStyle
  2
Dim
 70
    11
177
     2
291
     1
 71
     2
176
     1
 72
     2
176
     1
 73
     0
176
     1
 90
        0
176
     1
 40
-0.6
176
     1
 41
-30.0
176
     1
 62
     5
 63
     7
421
 16777215
176
     1
 74
     1
176
     1
 91
        4
176
     1
 64
     7
176
     1
 65
   257
176
     1
 75
     1
176
     1
175
     1
176
     1
 42
1.0
176
     1
 92
        8
176
     1
 66
     7
176
     1
 43
1.0
176
     1
 76
     1
176
     1
 77
     6
176
     1
 78
     2
176
     1
 67
     7
176
     1
 79
     5
176
     1
170
     0
176
     1
171
     0
176
     1
290
     0
176
     1
 93
        1
176
     1
 44
-50.0
176
     1
173
     0
176
     1
  0
VISUALSTYLE
  5
39
102
{ACAD_REACTORS
330
2A
102
}
330
2A
100
AcDbVisualStyle
  2
Facepattern
 70
    15
177
     2
291
     1
 71
     2
176
     1
 72
     2
176
     1
 73
     0
176
     1
 90
        0
176
     1
 40
-0.6
176
     1
 41
-30.0
176
     1
 62
     5
 63
     7
421
 16777215
176
     1
 74
     1
176
     1
 91
        4
176
     1
 64
     7
176
     1
 65
   257
176
     1
 75
     1
176
     1
175
     1
176
     1
 42
1.0
176
     1
 92
        8
176
     1
 66
     7
176
     1
 43
1.0
176
     1
 76
     1
176
     1
 77
     6
176
     1
 78
     2
176
     1
 67
     7
176
     1
 79
     5
176
     1
170
     0
176
     1
171
     0
176
     1
290
     0
176
     1
 93
        1
176
     1
 44
0.0
176
     1
173
     0
176
     1
  0
VISUALSTYLE
  5
2B
102
{ACAD_REACTORS
330
2A
102
}
330
2A
100
AcDbVisualStyle
  2
Flat
 70
     0
177
     2
291
     1
 71
     2
176
     1
 72
     1
176
     1
 73
     1
176
     1
 90
        2
176
     1
 40
-0.6
176
     1
 41
30.0
176
     1
 62
     5
 63
     7
421
 16777215
176
     1
 74
     0
176
     1
 91
        4
176
     1
 64
     7
176
     1
 65
   257
176
     1
 75
     1
176
     1
175
     1
176
     1
 42
1.0
176
     1
 92
        8
176
     1
 66
     7
176
     1
 43
1.0
176
     1
 76
     1
176
     1
 77
     6
176
     1
 78
     2
176
     1
 67
     7
176
     1
 79
     5
176
     1
170
     0
176
     1
171
     0
176
     1
290
     0
176
     1
 93
       13
176
     1
 44
0.0
176
     1
173
     0
176
     1
  0
VISUALSTYLE
  5
2C
102
{ACAD_REACTORS
330
2A
102
}
330
2A
100
AcDbVisualStyle
  2
FlatWithEdges
 70
     1
177
     2
291
     1
 71
     2
176
     1
 72
     1
176
     1
 73
     1
176
     1
 90
        2
176
     1
 40
-0.6
176
     1
 41
30.0
176
     1
 62
     5
 63
     7
421
 16777215
176
     1
 74
     1
176
     1
 91
        4
176
     1
 64
     7
176
     1
 65
   257
176
     1
 75
     1
176
     1
175
     1
176
     1
 42
1.0
176
     1
 92
        0
176
     1
 66
   257
176
     1
 43
1.0
176
     1
 76
     1
176
     1
 77
     6
176
     1
 78
     2
176
     1
 67
     7
176
     1
 79
     5
176
     1
170
     0
176
     1
171
     0
176
     1
290
     0
176
     1
 93
       13
176
     1
 44
0.0
176
     1
173
     0
176
     1
  0
VISUALSTYLE
  5
2D
102
{ACAD_REACTORS
330
2A
102
}
330
2A
100
AcDbVisualStyle
  2
Gouraud
 70
     2
177
     2
291
     1
 71
     2
176
     1
 72
     2
176
     1
 73
     1
176
     1
 90
        2
176
     1
 40
-0.6
176
     1
 41
30.0
176
     1
 62
     5
 63
     7
421
 16777215
176
     1
 74
     0
176
     1
 91
        4
176
     1
 64
     7
176
     1
 65
   257
176
     1
 75
     1
176
     1
175
     1
176
     1
 42
1.0
176
     1
 92
        0
176
     1
 66
     7
176
     1
 43
1.0
176
     1
 76
     1
176
     1
 77
     6
176
     1
 78
     2
176
     1
 67
     7
176
     1
 79
     5
176
     1
170
     0
176
     1
171
     0
176
     1
290
     0
176
     1
 93
       13
176
     1
 44
0.0
176
     1
173
     0
176
     1
  0
VISUALSTYLE
  5
2E
102
{ACAD_REACTORS
330
2A
102
}
330
2A
100
AcDbVisualStyle
  2
GouraudWithEdges
 70
     3
177
     2
291
     1
 71
     2
176
     1
 72
     2
176
     1
 73
     1
176
     1
 90
        2
176
     1
 40
-0.6
176
     1
 41
30.0
176
     1
 62
     5
 63
     7
421
 16777215
176
     1
 74
     1
176
     1
 91
        4
176
     1
 64
     7
176
     1
 65
   257
176
     1
 75
     1
176
     1
175
     1
176
     1
 42
1.0
176
     1
 92
        0
176
     1
 66
   257
176
     1
 43
1.0
176
     1
 76
     1
176
     1
 77
     6
176
     1
 78
     2
176
     1
 67
     7
176
     1
 79
     5
176
     1
170
     0
176
     1
171
     0
176
     1
290
     0
176
     1
 93
       13
176
     1
 44
0.0
176
     1
173
     0
176
     1
  0
VISUALSTYLE
  5
38
102
{ACAD_REACTORS
330
2A
102
}
330
2A
100
AcDbVisualStyle
  2
Linepattern
 70
    14
177
     2
291
     1
 71
     2
176
     1
 72
     2
176
     1
 73
     0
176
     1
 90
        0
176
     1
 40
-0.6
176
     1
 41
-30.0
176
     1
 62
     5
 63
     7
421
 16777215
176
     1
 74
     1
176
     1
 91
        4
176
     1
 64
     7
176
     1
 65
   257
176
     1
 75
     7
176
     1
175
     7
176
     1
 42
1.0
176
     1
 92
        8
176
     1
 66
     7
176
     1
 43
1.0
176
     1
 76
     1
176
     1
 77
     6
176
     1
 78
     2
176
     1
 67
     7
176
     1
 79
     5
176
     1
170
     0
176
     1
171
     0
176
     1
290
     0
176
     1
 93
        1
176
     1
 44
0.0
176
     1
173
     0
176
     1
  0
VISUALSTYLE
  5
33
102
{ACAD_REACTORS
330
2A
102
}
330
2A
100
AcDbVisualStyle
  2
Realistic
 70
     8
177
     2
291
     0
 71
     2
176
     1
 72
     2
176
     1
 73
     0
176
     1
 90
        0
176
     1
 40
-0.6
176
     1
 41
-30.0
176
     1
 62
     5
 63
     7
421
 16777215
176
     1
 74
     1
176
     1
 91
        0
176
     1
 64
     7
176
     1
 65
   257
176
     1
 75
     1
176
     1
175
     1
176
     1
 42
1.0
176
     1
 92
        8
176
     1
 66
     8
424
  7895160
176
     1
 43
1.0
176
     1
 76
     1
176
     1
 77
     6
176
     1
 78
     2
176
     1
 67
     7
176
     1
 79
     5
176
     1
170
     0
176
     1
171
     0
176
     1
290
     0
176
     1
 93
       13
176
     1
 44
0.0
176
     1
173
     0
176
     1
  0
VISUALSTYLE
  5
37
102
{ACAD_REACTORS
330
2A
102
}
330
2A
100
AcDbVisualStyle
  2
Thicken
 70
    13
177
     2
291
     1
 71
     2
176
     1
 72
     2
176
     1
 73
     0
176
     1
 90
        0
176
     1
 40
-0.6
176
     1
 41
-30.0
176
     1
 62
     5
 63
     7
421
 16777215
176
     1
 74
     1
176
     1
 91
        4
176
     1
 64
     7
176
     1
 65
   257
176
     1
 75
     1
176
     1
175
     1
176
     1
 42
1.0
176
     1
 92
       12
176
     1
 66
     7
176
     1
 43
1.0
176
     1
 76
     1
176
     1
 77
     6
176
     1
 78
     2
176
     1
 67
     7
176
     1
 79
     5
176
     1
170
     0
176
     1
171
     0
176
     1
290
     0
176
     1
 93
        1
176
     1
 44
0.0
176
     1
173
     0
176
     1
  0
ENDSEC
  0
EOF
