  0
SECTION
  2
HEADER
  9
$ACADVER
  1
AC1024
  9
$ACADMAINTVER
 70
     6
  9
$DWGCODEPAGE
  3
ANSI_1252
  9
$INSBASE
 10
0.0
 20
0.0
 30
0.0
  9
$EXTMIN
 10
1.000000000000000E+20
 20
1.000000000000000E+20
 30
1.000000000000000E+20
  9
$EXTMAX
 10
-1.000000000000000E+20
 20
-1.000000000000000E+20
 30
-1.000000000000000E+20
  9
$LIMMIN
 10
0.0
 20
0.0
  9
$LIMMAX
 10
12.0
 20
9.0
  9
$ORTHOMODE
 70
     0
  9
$REGENMODE
 70
     1
  9
$FILLMODE
 70
     1
  9
$QTEXTMODE
 70
     0
  9
$MIRRTEXT
 70
     1
  9
$LTSCALE
 40
1.0
  9
$ATTMODE
 70
     1
  9
$TEXTSIZE
 40
0.2
  9
$TRACEWID
 40
0.05
  9
$TEXTSTYLE
  7
Standard
  9
$CLAYER
  8
0
  9
$CELTYPE
  6
ByLayer
  9
$CECOLOR
 62
   256
  9
$CELTSCALE
 40
1.0
  9
$DISPSILH
 70
     0
  9
$DIMSCALE
 40
1.0
  9
$DIMASZ
 40
0.18
  9
$DIMEXO
 40
0.0625
  9
$DIMDLI
 40
0.38
  9
$DIMRND
 40
0.0
  9
$DIMDLE
 40
0.0
  9
$DIMEXE
 40
0.18
  9
$DIMTP
 40
0.0
  9
$DIMTM
 40
0.0
  9
$DIMTXT
 40
0.18
  9
$DIMCEN
 40
0.09
  9
$DIMTSZ
 40
0.0
  9
$DIMTOL
 70
     0
  9
$DIMLIM
 70
     0
  9
$DIMTIH
 70
     1
  9
$DIMTOH
 70
     1
  9
$DIMSE1
 70
     0
  9
$DIMSE2
 70
     0
  9
$DIMTAD
 70
     0
  9
$DIMZIN
 70
     0
  9
$DIMBLK
  1

  9
$DIMASO
 70
     1
  9
$DIMSHO
 70
     1
  9
$DIMPOST
  1

  9
$DIMAPOST
  1

  9
$DIMALT
 70
     0
  9
$DIMALTD
 70
     2
  9
$DIMALTF
 40
25.4
  9
$DIMLFAC
 40
1.0
  9
$DIMTOFL
 70
     0
  9
$DIMTVP
 40
0.0
  9
$DIMTIX
 70
     0
  9
$DIMSOXD
 70
     0
  9
$DIMSAH
 70
     0
  9
$DIMBLK1
  1

  9
$DIMBLK2
  1

  9
$DIMSTYLE
  2
Standard
  9
$DIMCLRD
 70
     0
  9
$DIMCLRE
 70
     0
  9
$DIMCLRT
 70
     0
  9
$DIMTFAC
 40
1.0
  9
$DIMGAP
 40
0.09
  9
$DIMJUST
 70
     0
  9
$DIMSD1
 70
     0
  9
$DIMSD2
 70
     0
  9
$DIMTOLJ
 70
     1
  9
$DIMTZIN
 70
     0
  9
$DIMALTZ
 70
     0
  9
$DIMALTTZ
 70
     0
  9
$DIMUPT
 70
     0
  9
$DIMDEC
 70
     4
  9
$DIMTDEC
 70
     4
  9
$DIMALTU
 70
     2
  9
$DIMALTTD
 70
     2
  9
$DIMTXSTY
  7
Standard
  9
$DIMAUNIT
 70
     0
  9
$DIMADEC
 70
     0
  9
$DIMALTRND
 40
0.0
  9
$DIMAZIN
 70
     0
  9
$DIMDSEP
 70
    46
  9
$DIMATFIT
 70
     3
  9
$DIMFRAC
 70
     0
  9
$DIMLDRBLK
  1

  9
$DIMLUNIT
 70
     2
  9
$DIMLWD
 70
    -2
  9
$DIMLWE
 70
    -2
  9
$DIMTMOVE
 70
     0
  9
$DIMFXL
 40
1.0
  9
$DIMFXLON
 70
     0
  9
$DIMJOGANG
 40
0.7853981633974483
  9
$DIMTFILL
 70
     0
  9
$DIMTFILLCLR
 70
     0
  9
$DIMARCSYM
 70
     0
  9
$DIMLTYPE
  6

  9
$DIMLTEX1
  6

  9
$DIMLTEX2
  6

  9
$DIMTXTDIRECTION
 70
     0
  9
$LUNITS
 70
     2
  9
$LUPREC
 70
     4
  9
$SKETCHINC
 40
0.1
  9
$FILLETRAD
 40
0.5
  9
$AUNITS
 70
     0
  9
$AUPREC
 70
     0
  9
$MENU
  1
.
  9
$ELEVATION
 40
0.0
  9
$PELEVATION
 40
0.0
  9
$THICKNESS
 40
0.0
  9
$LIMCHECK
 70
     0
  9
$CHAMFERA
 40
0.5
  9
$CHAMFERB
 40
0.5
  9
$CHAMFERC
 40
1.0
  9
$CHAMFERD
 40
0.0
  9
$SKPOLY
 70
     0
  9
$TDCREATE
 40
2458782.601628623
  9
$TDUCREATE
 40
2458782.059961956
  9
$TDUPDATE
 40
2458782.601628738
  9
$TDUUPDATE
 40
2458782.059962072
  9
$TDINDWG
 40
0.0000000116
  9
$TDUSRTIMER
 40
0.0000000116
  9
$USRTIMER
 70
     1
  9
$ANGBASE
 50
0.0
  9
$ANGDIR
 70
     0
  9
$PDMODE
 70
     0
  9
$PDSIZE
 40
0.0
  9
$PLINEWID
 40
0.0
  9
$SPLFRAME
 70
     0
  9
$SPLINETYPE
 70
     6
  9
$SPLINESEGS
 70
     8
  9
$HANDSEED
  5
1E8
  9
$SURFTAB1
 70
     6
  9
$SURFTAB2
 70
     6
  9
$SURFTYPE
 70
     6
  9
$SURFU
 70
     6
  9
$SURFV
 70
     6
  9
$UCSBASE
  2

  9
$UCSNAME
  2

  9
$UCSORG
 10
0.0
 20
0.0
 30
0.0
  9
$UCSXDIR
 10
1.0
 20
0.0
 30
0.0
  9
$UCSYDIR
 10
0.0
 20
1.0
 30
0.0
  9
$UCSORTHOREF
  2

  9
$UCSORTHOVIEW
 70
     0
  9
$UCSORGTOP
 10
0.0
 20
0.0
 30
0.0
  9
$UCSORGBOTTOM
 10
0.0
 20
0.0
 30
0.0
  9
$UCSORGLEFT
 10
0.0
 20
0.0
 30
0.0
  9
$UCSORGRIGHT
 10
0.0
 20
0.0
 30
0.0
  9
$UCSORGFRONT
 10
0.0
 20
0.0
 30
0.0
  9
$UCSORGBACK
 10
0.0
 20
0.0
 30
0.0
  9
$PUCSBASE
  2

  9
$PUCSNAME
  2

  9
$PUCSORG
 10
0.0
 20
0.0
 30
0.0
  9
$PUCSXDIR
 10
1.0
 20
0.0
 30
0.0
  9
$PUCSYDIR
 10
0.0
 20
1.0
 30
0.0
  9
$PUCSORTHOREF
  2

  9
$PUCSORTHOVIEW
 70
     0
  9
$PUCSORGTOP
 10
0.0
 20
0.0
 30
0.0
  9
$PUCSORGBOTTOM
 10
0.0
 20
0.0
 30
0.0
  9
$PUCSORGLEFT
 10
0.0
 20
0.0
 30
0.0
  9
$PUCSORGRIGHT
 10
0.0
 20
0.0
 30
0.0
  9
$PUCSORGFRONT
 10
0.0
 20
0.0
 30
0.0
  9
$PUCSORGBACK
 10
0.0
 20
0.0
 30
0.0
  9
$USERI1
 70
     0
  9
$USERI2
 70
     0
  9
$USERI3
 70
     0
  9
$USERI4
 70
     0
  9
$USERI5
 70
     0
  9
$USERR1
 40
0.0
  9
$USERR2
 40
0.0
  9
$USERR3
 40
0.0
  9
$USERR4
 40
0.0
  9
$USERR5
 40
0.0
  9
$WORLDVIEW
 70
     1
  9
$SHADEDGE
 70
     3
  9
$SHADEDIF
 70
    70
  9
$TILEMODE
 70
     1
  9
$MAXACTVP
 70
    64
  9
$PINSBASE
 10
0.0
 20
0.0
 30
0.0
  9
$PLIMCHECK
 70
     0
  9
$PEXTMIN
 10
1.000000000000000E+20
 20
1.000000000000000E+20
 30
1.000000000000000E+20
  9
$PEXTMAX
 10
-1.000000000000000E+20
 20
-1.000000000000000E+20
 30
-1.000000000000000E+20
  9
$PLIMMIN
 10
0.0
 20
0.0
  9
$PLIMMAX
 10
12.0
 20
9.0
  9
$UNITMODE
 70
     0
  9
$VISRETAIN
 70
     1
  9
$PLINEGEN
 70
     0
  9
$PSLTSCALE
 70
     1
  9
$TREEDEPTH
 70
  3020
  9
$CMLSTYLE
  2
Standard
  9
$CMLJUST
 70
     0
  9
$CMLSCALE
 40
1.0
  9
$PROXYGRAPHICS
 70
     1
  9
$MEASUREMENT
 70
     0
  9
$CELWEIGHT
370
    -1
  9
$ENDCAPS
280
     0
  9
$JOINSTYLE
280
     0
  9
$LWDISPLAY
290
     1
  9
$INSUNITS
 70
     1
  9
$HYPERLINKBASE
  1

  9
$STYLESHEET
  1

  9
$XEDIT
290
     1
  9
$CEPSNTYPE
380
     0
  9
$PSTYLEMODE
290
     1
  9
$FINGERPRINTGUID
  2
{C1995D04-75F1-461D-9196-2CC44E53888A}
  9
$VERSIONGUID
  2
{FAEB1C32-E019-11D5-929B-00C0DF256EC4}
  9
$EXTNAMES
290
     1
  9
$PSVPSCALE
 40
0.0
  9
$OLESTARTUP
290
     0
  9
$SORTENTS
280
   127
  9
$INDEXCTL
280
     0
  9
$HIDETEXT
280
     1
  9
$XCLIPFRAME
280
     2
  9
$HALOGAP
280
     0
  9
$OBSCOLOR
 70
   257
  9
$OBSLTYPE
280
     0
  9
$INTERSECTIONDISPLAY
280
     0
  9
$INTERSECTIONCOLOR
 70
   257
  9
$DIMASSOC
280
     2
  9
$PROJECTNAME
  1

  9
$CAMERADISPLAY
290
     0
  9
$LENSLENGTH
 40
50.0
  9
$CAMERAHEIGHT
 40
0.0
  9
$STEPSPERSEC
 40
2.0
  9
$STEPSIZE
 40
6.0
  9
$3DDWFPREC
 40
2.0
  9
$PSOLWIDTH
 40
0.25
  9
$PSOLHEIGHT
 40
4.0
  9
$LOFTANG1
 40
1.570796326794897
  9
$LOFTANG2
 40
1.570796326794897
  9
$LOFTMAG1
 40
0.0
  9
$LOFTMAG2
 40
0.0
  9
$LOFTPARAM
 70
     7
  9
$LOFTNORMALS
280
     1
  9
$LATITUDE
 40
37.795
  9
$LONGITUDE
 40
-122.394
  9
$NORTHDIRECTION
 40
0.0
  9
$TIMEZONE
 70
 -8000
  9
$LIGHTGLYPHDISPLAY
280
     1
  9
$TILEMODELIGHTSYNCH
280
     1
  9
$CMATERIAL
347
3C
  9
$SOLIDHIST
280
     1
  9
$SHOWHIST
280
     1
  9
$DWFFRAME
280
     2
  9
$DGNFRAME
280
     2
  9
$REALWORLDSCALE
290
     1
  9
$INTERFERECOLOR
 62
   256
  9
$CSHADOW
280
     0
  9
$SHADOWPLANELOCATION
 40
0.0
  0
ENDSEC
  0
SECTION
  2
CLASSES
  0
CLASS
  1
ACDBDICTIONARYWDFLT
  2
AcDbDictionaryWithDefault
  3
ObjectDBX Classes
 90
        0
 91
        4
280
     0
281
     0
  0
CLASS
  1
VISUALSTYLE
  2
AcDbVisualStyle
  3
ObjectDBX Classes
 90
     4095
 91
        4
280
     0
281
     0
  0
CLASS
  1
MATERIAL
  2
AcDbMaterial
  3
ObjectDBX Classes
 90
     1153
 91
        4
280
     0
281
     0
  0
CLASS
  1
SUN
  2
AcDbSun
  3
SCENEOE
 90
     1024
 91
        4
280
     0
281
     0
  0
ENDSEC
  0
SECTION
  2
TABLES
  0
TABLE
  2
VPORT
  5
8
330
0
100
AcDbSymbolTable
 70
     1
  0
VPORT
  5
29
330
8
100
AcDbSymbolTableRecord
100
AcDbViewportTableRecord
  2
*Active
 70
     0
 10
0.0
 20
0.0
 11
1.0
 21
1.0
 12
0.0
 22
0.0
 13
0.0
 23
0.0
 14
0.5
 24
0.5
 15
0.5
 25
0.5
 16
0.0
 26
0.0
 36
1.0
 17
5.846010980273881
 27
-8.278350694444422
 37
0.0
 40
11.69291338582671
 41
0.7070707070707096
 42
50.0
 43
0.0
 44
0.0
 50
0.0
 51
0.0
 71
     0
 72
   100
 73
     1
 74
     3
 75
     0
 76
     0
 77
     0
 78
     0
281
     0
 65
     1
110
0.0
120
0.0
130
0.0
111
1.0
121
0.0
131
0.0
112
0.0
122
1.0
132
0.0
 79
     0
146
0.0
 60
     3
 61
     5
292
     1
282
     1
141
0.0
142
0.0
 63
   250
361
3F
  0
ENDTAB
  0
TABLE
  2
LTYPE
  5
5
330
0
100
AcDbSymbolTable
 70
     1
  0
LTYPE
  5
14
330
5
100
AcDbSymbolTableRecord
100
AcDbLinetypeTableRecord
  2
ByBlock
 70
     0
  3

 72
    65
 73
     0
 40
0.0
  0
LTYPE
  5
15
330
5
100
AcDbSymbolTableRecord
100
AcDbLinetypeTableRecord
  2
ByLayer
 70
     0
  3

 72
    65
 73
     0
 40
0.0
  0
LTYPE
  5
16
330
5
100
AcDbSymbolTableRecord
100
AcDbLinetypeTableRecord
  2
Continuous
 70
     0
  3
Solid line
 72
    65
 73
     0
 40
0.0
  0
ENDTAB
  0
TABLE
  2
LAYER
  5
2
330
0
100
AcDbSymbolTable
 70
     6
  0
LAYER
  5
10
330
2
100
AcDbSymbolTableRecord
100
AcDbLayerTableRecord
  2
0
 70
     0
 62
     7
  6
Continuous
370
    -3
390
F
347
3E
  0
LAYER
  5
40
330
2
100
AcDbSymbolTableRecord
100
AcDbLayerTableRecord
  2
fill layer_
 70
     0
 62
     7
  6
Continuous
370
    -3
390
F
347
3E
  0
LAYER
  5
63
330
2
100
AcDbSymbolTableRecord
100
AcDbLayerTableRecord
  2
Wood
 70
     0
 62
     7
  6
Continuous
370
    -3
390
F
347
3E
  0
LAYER
  5
DD
330
2
100
AcDbSymbolTableRecord
100
AcDbLayerTableRecord
  2
plate
 70
     0
 62
     7
  6
Continuous
370
    -3
390
F
347
3E
  0
LAYER
  5
158
330
2
100
AcDbSymbolTableRecord
100
AcDbLayerTableRecord
  2
Layer 5
 70
     0
 62
     7
  6
Continuous
370
    -3
390
F
347
3E
  0
LAYER
  5
1D2
330
2
100
AcDbSymbolTableRecord
100
AcDbLayerTableRecord
  2
callout
 70
     0
 62
     7
  6
Continuous
370
    -3
390
F
347
3E
  0
ENDTAB
  0
TABLE
  2
STYLE
  5
3
330
0
100
AcDbSymbolTable
 70
     1
  0
STYLE
  5
11
330
3
100
AcDbSymbolTableRecord
100
AcDbTextStyleTableRecord
  2
Standard
 70
     0
 40
0.0
 41
1.0
 50
0.0
 71
     0
 42
0.2
  3
txt
  4

  0
ENDTAB
  0
TABLE
  2
VIEW
  5
6
330
0
100
AcDbSymbolTable
 70
     0
  0
ENDTAB
  0
TABLE
  2
UCS
  5
7
330
0
100
AcDbSymbolTable
 70
     0
  0
ENDTAB
  0
TABLE
  2
APPID
  5
9
330
0
100
AcDbSymbolTable
 70
     1
  0
APPID
  5
12
330
9
100
AcDbSymbolTableRecord
100
AcDbRegAppTableRecord
  2
ACAD
 70
     0
  0
ENDTAB
  0
TABLE
  2
DIMSTYLE
  5
A
330
0
100
AcDbSymbolTable
 70
     1
100
AcDbDimStyleTable
  0
DIMSTYLE
105
27
330
A
100
AcDbSymbolTableRecord
100
AcDbDimStyleTableRecord
  2
Standard
 70
     0
178
     0
340
11
  0
ENDTAB
  0
TABLE
  2
BLOCK_RECORD
  5
1
330
0
100
AcDbSymbolTable
 70
    14
  0
BLOCK_RECORD
  5
1F
330
1
100
AcDbSymbolTableRecord
100
AcDbBlockTableRecord
  2
*Model_Space
340
22
 70
     0
280
     1
281
     0
  0
BLOCK_RECORD
  5
1B
330
1
100
AcDbSymbolTableRecord
100
AcDbBlockTableRecord
  2
*Paper_Space
340
1E
 70
     0
280
     1
281
     0
  0
BLOCK_RECORD
  5
23
330
1
100
AcDbSymbolTableRecord
100
AcDbBlockTableRecord
  2
*Paper_Space0
340
26
 70
     0
280
     1
281
     0
  0
BLOCK_RECORD
  5
DE
330
1
100
AcDbSymbolTableRecord
100
AcDbBlockTableRecord
  2
block 2
340
0
102
{BLKREFS
331
DF
102
}
 70
     0
280
     1
281
     0
  0
BLOCK_RECORD
  5
159
330
1
100
AcDbSymbolTableRecord
100
AcDbBlockTableRecord
  2
block 3
340
0
102
{BLKREFS
331
15A
102
}
 70
     0
280
     1
281
     0
  0
BLOCK_RECORD
  5
164
330
1
100
AcDbSymbolTableRecord
100
AcDbBlockTableRecord
  2
block 4
340
0
102
{BLKREFS
331
165
102
}
 70
     0
280
     1
281
     0
  0
BLOCK_RECORD
  5
169
330
1
100
AcDbSymbolTableRecord
100
AcDbBlockTableRecord
  2
block 5
340
0
102
{BLKREFS
331
16A
102
}
 70
     0
280
     1
281
     0
  0
BLOCK_RECORD
  5
16E
330
1
100
AcDbSymbolTableRecord
100
AcDbBlockTableRecord
  2
block 6
340
0
102
{BLKREFS
331
16F
102
}
 70
     0
280
     1
281
     0
  0
BLOCK_RECORD
  5
173
330
1
100
AcDbSymbolTableRecord
100
AcDbBlockTableRecord
  2
block 7
340
0
102
{BLKREFS
331
174
102
}
 70
     0
280
     1
281
     0
  0
BLOCK_RECORD
  5
178
330
1
100
AcDbSymbolTableRecord
100
AcDbBlockTableRecord
  2
block 8
340
0
102
{BLKREFS
331
179
102
}
 70
     0
280
     1
281
     0
  0
BLOCK_RECORD
  5
17D
330
1
100
AcDbSymbolTableRecord
100
AcDbBlockTableRecord
  2
block 9
340
0
102
{BLKREFS
331
17E
102
}
 70
     0
280
     1
281
     0
  0
BLOCK_RECORD
  5
184
330
1
100
AcDbSymbolTableRecord
100
AcDbBlockTableRecord
  2
block 10
340
0
102
{BLKREFS
331
185
102
}
 70
     0
280
     1
281
     0
  0
BLOCK_RECORD
  5
1B6
330
1
100
AcDbSymbolTableRecord
100
AcDbBlockTableRecord
  2
block 11
340
0
102
{BLKREFS
331
1B7
102
}
 70
     0
280
     1
281
     0
  0
BLOCK_RECORD
  5
1BD
330
1
100
AcDbSymbolTableRecord
100
AcDbBlockTableRecord
  2
block 12
340
0
102
{BLKREFS
331
1BE
102
}
 70
     0
280
     1
281
     0
  0
BLOCK_RECORD
  5
1C4
330
1
100
AcDbSymbolTableRecord
100
AcDbBlockTableRecord
  2
block 13
340
0
102
{BLKREFS
331
1C5
102
}
 70
     0
280
     1
281
     0
  0
BLOCK_RECORD
  5
1CB
330
1
100
AcDbSymbolTableRecord
100
AcDbBlockTableRecord
  2
block 14
340
0
102
{BLKREFS
331
1CC
102
}
 70
     0
280
     1
281
     0
  0
ENDTAB
  0
ENDSEC
  0
SECTION
  2
BLOCKS
  0
BLOCK
  5
20
330
1F
100
AcDbEntity
  8
0
100
AcDbBlockBegin
  2
*Model_Space
 70
     0
 10
0.0
 20
0.0
 30
0.0
  3
*Model_Space
  1

  0
ENDBLK
  5
21
330
1F
100
AcDbEntity
  8
0
100
AcDbBlockEnd
  0
BLOCK
  5
1C
330
1B
100
AcDbEntity
 67
     1
  8
0
100
AcDbBlockBegin
  2
*Paper_Space
 70
     0
 10
0.0
 20
0.0
 30
0.0
  3
*Paper_Space
  1

  0
ENDBLK
  5
1D
330
1B
100
AcDbEntity
 67
     1
  8
0
100
AcDbBlockEnd
  0
BLOCK
  5
24
330
23
100
AcDbEntity
  8
0
100
AcDbBlockBegin
  2
*Paper_Space0
 70
     0
 10
0.0
 20
0.0
 30
0.0
  3
*Paper_Space0
  1

  0
ENDBLK
  5
25
330
23
100
AcDbEntity
  8
0
100
AcDbBlockEnd
  0
BLOCK
  5
E0
330
DE
100
AcDbEntity
  8
0
100
AcDbBlockBegin
  2
block 2
 70
     0
 10
0.0
 20
0.0
 30
0.0
  3
block 2
  1

  0
POLYLINE
  5
E2
330
DE
100
AcDbEntity
  8
plate
370
     0
100
AcDb2dPolyline
 66
     1
 10
0.0
 20
0.0
 30
0.0
  0
VERTEX
  5
E3
330
E2
100
AcDbEntity
  8
plate
370
     0
100
AcDbVertex
100
AcDb2dVertex
 10
6.568606091279333
 20
-6.991862811082986
 30
0.0
  0
VERTEX
  5
E4
330
E2
100
AcDbEntity
  8
plate
370
     0
100
AcDbVertex
100
AcDb2dVertex
 10
6.840550419633423
 20
-7.108308242676887
 30
0.0
  0
VERTEX
  5
E5
330
E2
100
AcDbEntity
  8
plate
370
     0
100
AcDbVertex
100
AcDb2dVertex
 10
7.018404097954797
 20
-7.09187838027919
 30
0.0
  0
VERTEX
  5
E6
330
E2
100
AcDbEntity
  8
plate
370
     0
100
AcDbVertex
100
AcDb2dVertex
 10
7.026729290503706
 20
-7.179723819858812
 30
0.0
  0
VERTEX
  5
E7
330
E2
100
AcDbEntity
  8
plate
370
     0
100
AcDbVertex
100
AcDb2dVertex
 10
7.247668857555809
 20
-7.270838780703634
 30
0.0
  0
VERTEX
  5
E8
330
E2
100
AcDbEntity
  8
plate
370
     0
100
AcDbVertex
100
AcDb2dVertex
 10
7.276718876696602
 20
-7.63536958513997
 30
0.0
  0
VERTEX
  5
E9
330
E2
100
AcDbEntity
  8
plate
370
     0
100
AcDbVertex
100
AcDb2dVertex
 10
4.769422965806585
 20
-7.973300926636183
 30
0.0
  0
VERTEX
  5
EA
330
E2
100
AcDbEntity
  8
plate
370
     0
100
AcDbVertex
100
AcDb2dVertex
 10
4.634071934077269
 20
-7.949171939024305
 30
0.0
  0
VERTEX
  5
EB
330
E2
100
AcDbEntity
  8
plate
370
     0
100
AcDbVertex
100
AcDb2dVertex
 10
4.676152863011894
 20
-7.913069874704193
 30
0.0
  0
VERTEX
  5
EC
330
E2
100
AcDbEntity
  8
plate
370
     0
100
AcDbVertex
100
AcDb2dVertex
 10
4.432794724272727
 20
-7.964982825106921
 30
0.0
  0
VERTEX
  5
ED
330
E2
100
AcDbEntity
  8
plate
370
     0
100
AcDbVertex
100
AcDb2dVertex
 10
4.496157300371679
 20
-7.924600390135474
 30
0.0
  0
VERTEX
  5
EE
330
E2
100
AcDbEntity
  8
plate
370
     0
100
AcDbVertex
100
AcDb2dVertex
 10
4.303606281166013
 20
-7.890301036808245
 30
0.0
  0
VERTEX
  5
EF
330
E2
100
AcDbEntity
  8
plate
370
     0
100
AcDbVertex
100
AcDb2dVertex
 10
4.309692982285481
 20
-7.619239943979247
 30
0.0
  0
VERTEX
  5
F0
330
E2
100
AcDbEntity
  8
plate
370
     0
100
AcDbVertex
100
AcDb2dVertex
 10
6.568606091279333
 20
-6.991862811082986
 30
0.0
  0
SEQEND
  5
F2
330
E2
100
AcDbEntity
  8
plate
370
     0
  0
HATCH
  5
F1
330
DE
100
AcDbEntity
  8
plate
 62
    33
420
 15180889
100
AcDbHatch
 10
0.0
 20
0.0
 30
0.0
210
0.0
220
0.0
230
1.0
  2
SOLID
 70
     1
 71
     0
 91
        1
 92
        1
 93
       13
 72
     1
 10
6.568606091279333
 20
-6.991862811082986
 11
6.840550419633423
 21
-7.108308242676887
 72
     1
 10
6.840550419633423
 20
-7.108308242676887
 11
7.018404097954797
 21
-7.09187838027919
 72
     1
 10
7.018404097954797
 20
-7.09187838027919
 11
7.026729290503706
 21
-7.179723819858812
 72
     1
 10
7.026729290503706
 20
-7.179723819858812
 11
7.247668857555809
 21
-7.270838780703634
 72
     1
 10
7.247668857555809
 20
-7.270838780703634
 11
7.276718876696602
 21
-7.63536958513997
 72
     1
 10
7.276718876696602
 20
-7.63536958513997
 11
4.769422965806585
 21
-7.973300926636183
 72
     1
 10
4.769422965806585
 20
-7.973300926636183
 11
4.634071934077269
 21
-7.949171939024305
 72
     1
 10
4.634071934077269
 20
-7.949171939024305
 11
4.676152863011894
 21
-7.913069874704193
 72
     1
 10
4.676152863011894
 20
-7.913069874704193
 11
4.432794724272727
 21
-7.964982825106921
 72
     1
 10
4.432794724272727
 20
-7.964982825106921
 11
4.496157300371679
 21
-7.924600390135474
 72
     1
 10
4.496157300371679
 20
-7.924600390135474
 11
4.303606281166013
 21
-7.890301036808245
 72
     1
 10
4.303606281166013
 20
-7.890301036808245
 11
4.309692982285481
 21
-7.619239943979247
 72
     1
 10
4.309692982285481
 20
-7.619239943979247
 11
6.568606091279333
 21
-6.991862811082986
 97
        0
 75
     2
 76
     1
 98
        0
  0
POLYLINE
  5
F3
330
DE
100
AcDbEntity
  8
plate
 62
   250
420
  2301728
370
    35
100
AcDb2dPolyline
 66
     1
 10
0.0
 20
0.0
 30
0.0
  0
VERTEX
  5
F4
330
F3
100
AcDbEntity
  8
plate
 62
   250
420
  2301728
370
    35
100
AcDbVertex
100
AcDb2dVertex
 10
5.399276852623769
 20
-6.964029222495014
 30
0.0
  0
VERTEX
  5
1E4
330
F3
100
AcDbEntity
  8
0
100
AcDbVertex
100
AcDb2dVertex
 10
5.399276852623769
 20
-6.964029222495014
 30
0.0
  0
SEQEND
  5
F5
330
F3
100
AcDbEntity
  8
plate
 62
   250
420
  2301728
370
    35
  0
POLYLINE
  5
F6
330
DE
100
AcDbEntity
  8
plate
 62
   250
420
  2301728
370
    35
100
AcDb2dPolyline
 66
     1
 10
0.0
 20
0.0
 30
0.0
  0
VERTEX
  5
F7
330
F6
100
AcDbEntity
  8
plate
 62
   250
420
  2301728
370
    35
100
AcDbVertex
100
AcDb2dVertex
 10
4.769422965806585
 20
-7.973300926636183
 30
0.0
  0
VERTEX
  5
F8
330
F6
100
AcDbEntity
  8
plate
 62
   250
420
  2301728
370
    35
100
AcDbVertex
100
AcDb2dVertex
 10
4.634071934077269
 20
-7.949171939024305
 30
0.0
  0
VERTEX
  5
F9
330
F6
100
AcDbEntity
  8
plate
 62
   250
420
  2301728
370
    35
100
AcDbVertex
100
AcDb2dVertex
 10
4.676152863011894
 20
-7.913069874704193
 30
0.0
  0
VERTEX
  5
FA
330
F6
100
AcDbEntity
  8
plate
 62
   250
420
  2301728
370
    35
100
AcDbVertex
100
AcDb2dVertex
 10
4.432794724272727
 20
-7.964982825106921
 30
0.0
  0
VERTEX
  5
FB
330
F6
100
AcDbEntity
  8
plate
 62
   250
420
  2301728
370
    35
100
AcDbVertex
100
AcDb2dVertex
 10
4.496157300371679
 20
-7.924600390135474
 30
0.0
  0
VERTEX
  5
FC
330
F6
100
AcDbEntity
  8
plate
 62
   250
420
  2301728
370
    35
100
AcDbVertex
100
AcDb2dVertex
 10
4.303606281166013
 20
-7.890301036808245
 30
0.0
  0
VERTEX
  5
FD
330
F6
100
AcDbEntity
  8
plate
 62
   250
420
  2301728
370
    35
100
AcDbVertex
100
AcDb2dVertex
 10
4.311383441839729
 20
-7.619239943979247
 30
0.0
  0
VERTEX
  5
FE
330
F6
100
AcDbEntity
  8
plate
 62
   250
420
  2301728
370
    35
100
AcDbVertex
100
AcDb2dVertex
 10
6.568606091279333
 20
-6.991862811082986
 30
0.0
  0
VERTEX
  5
FF
330
F6
100
AcDbEntity
  8
plate
 62
   250
420
  2301728
370
    35
100
AcDbVertex
100
AcDb2dVertex
 10
6.840550419633423
 20
-7.108308242676887
 30
0.0
  0
VERTEX
  5
100
330
F6
100
AcDbEntity
  8
plate
 62
   250
420
  2301728
370
    35
100
AcDbVertex
100
AcDb2dVertex
 10
7.018404097954797
 20
-7.09187838027919
 30
0.0
  0
VERTEX
  5
101
330
F6
100
AcDbEntity
  8
plate
 62
   250
420
  2301728
370
    35
100
AcDbVertex
100
AcDb2dVertex
 10
7.026729290503706
 20
-7.179723819858812
 30
0.0
  0
VERTEX
  5
102
330
F6
100
AcDbEntity
  8
plate
 62
   250
420
  2301728
370
    35
100
AcDbVertex
100
AcDb2dVertex
 10
7.247668857555809
 20
-7.270838780703634
 30
0.0
  0
VERTEX
  5
103
330
F6
100
AcDbEntity
  8
plate
 62
   250
420
  2301728
370
    35
100
AcDbVertex
100
AcDb2dVertex
 10
7.276718876696602
 20
-7.63536958513997
 30
0.0
  0
VERTEX
  5
104
330
F6
100
AcDbEntity
  8
plate
 62
   250
420
  2301728
370
    35
100
AcDbVertex
100
AcDb2dVertex
 10
4.769422965806585
 20
-7.973300926636183
 30
0.0
  0
SEQEND
  5
105
330
F6
100
AcDbEntity
  8
plate
 62
   250
420
  2301728
370
    35
  0
POLYLINE
  5
106
330
DE
100
AcDbEntity
  8
plate
 62
   250
420
  2301728
370
    35
100
AcDb2dPolyline
 66
     1
 10
0.0
 20
0.0
 30
0.0
  0
VERTEX
  5
107
330
106
100
AcDbEntity
  8
plate
 62
   250
420
  2301728
370
    35
100
AcDbVertex
100
AcDb2dVertex
 10
4.301962051929851
 20
-7.889040847844044
 30
0.0
  0
VERTEX
  5
108
330
106
100
AcDbEntity
  8
plate
 62
   250
420
  2301728
370
    35
100
AcDbVertex
100
AcDb2dVertex
 10
6.593434341758817
 20
-7.387785296568469
 30
0.0
  0
VERTEX
  5
109
330
106
100
AcDbEntity
  8
plate
 62
   250
420
  2301728
370
    35
100
AcDbVertex
100
AcDb2dVertex
 10
6.865448710897327
 20
-7.489584910899339
 30
0.0
  0
VERTEX
  5
10A
330
106
100
AcDbEntity
  8
plate
 62
   250
420
  2301728
370
    35
100
AcDbVertex
100
AcDb2dVertex
 10
7.05069289957545
 20
-7.483010019540339
 30
0.0
  0
VERTEX
  5
10B
330
106
100
AcDbEntity
  8
plate
 62
   250
420
  2301728
370
    35
100
AcDbVertex
100
AcDb2dVertex
 10
6.844143431367911
 20
-7.546203667823647
 30
0.0
  0
VERTEX
  5
10C
330
106
100
AcDbEntity
  8
plate
 62
   250
420
  2301728
370
    35
100
AcDbVertex
100
AcDb2dVertex
 10
7.022531673837041
 20
-7.540290979840442
 30
0.0
  0
VERTEX
  5
10D
330
106
100
AcDbEntity
  8
plate
 62
   250
420
  2301728
370
    35
100
AcDbVertex
100
AcDb2dVertex
 10
7.276718876696602
 20
-7.63536958513997
 30
0.0
  0
SEQEND
  5
10E
330
106
100
AcDbEntity
  8
plate
 62
   250
420
  2301728
370
    35
  0
POLYLINE
  5
10F
330
DE
100
AcDbEntity
  8
plate
 62
   250
420
  2301728
370
    40
100
AcDb2dPolyline
 66
     1
 10
0.0
 20
0.0
 30
0.0
  0
VERTEX
  5
110
330
10F
100
AcDbEntity
  8
plate
 62
   250
420
  2301728
370
    40
100
AcDbVertex
100
AcDb2dVertex
 10
6.568606091279333
 20
-6.991862811082986
 30
0.0
  0
VERTEX
  5
111
330
10F
100
AcDbEntity
  8
plate
 62
   250
420
  2301728
370
    40
100
AcDbVertex
100
AcDb2dVertex
 10
6.593434341758817
 20
-7.387785296568469
 30
0.0
  0
SEQEND
  5
112
330
10F
100
AcDbEntity
  8
plate
 62
   250
420
  2301728
370
    40
  0
POLYLINE
  5
113
330
DE
100
AcDbEntity
  8
plate
 62
   250
420
  2301728
370
    40
100
AcDb2dPolyline
 66
     1
 10
0.0
 20
0.0
 30
0.0
  0
VERTEX
  5
114
330
113
100
AcDbEntity
  8
plate
 62
   250
420
  2301728
370
    40
100
AcDbVertex
100
AcDb2dVertex
 10
6.840550419633423
 20
-7.108308242676887
 30
0.0
  0
VERTEX
  5
115
330
113
100
AcDbEntity
  8
plate
 62
   250
420
  2301728
370
    40
100
AcDbVertex
100
AcDb2dVertex
 10
6.865448710897327
 20
-7.489584910899339
 30
0.0
  0
SEQEND
  5
116
330
113
100
AcDbEntity
  8
plate
 62
   250
420
  2301728
370
    40
  0
POLYLINE
  5
117
330
DE
100
AcDbEntity
  8
plate
 62
   250
420
  2301728
370
    40
100
AcDb2dPolyline
 66
     1
 10
0.0
 20
0.0
 30
0.0
  0
VERTEX
  5
118
330
117
100
AcDbEntity
  8
plate
 62
   250
420
  2301728
370
    40
100
AcDbVertex
100
AcDb2dVertex
 10
7.026729290503706
 20
-7.179723819858812
 30
0.0
  0
VERTEX
  5
119
330
117
100
AcDbEntity
  8
plate
 62
   250
420
  2301728
370
    40
100
AcDbVertex
100
AcDb2dVertex
 10
7.05069289957545
 20
-7.483010019540339
 30
0.0
  0
SEQEND
  5
11A
330
117
100
AcDbEntity
  8
plate
 62
   250
420
  2301728
370
    40
  0
POLYLINE
  5
11B
330
DE
100
AcDbEntity
  8
plate
 62
   250
420
  2301728
370
    40
100
AcDb2dPolyline
 66
     1
 10
0.0
 20
0.0
 30
0.0
  0
VERTEX
  5
11C
330
11B
100
AcDbEntity
  8
plate
 62
   250
420
  2301728
370
    40
100
AcDbVertex
100
AcDb2dVertex
 10
7.018262553794582
 20
-7.49268526018563
 30
0.0
  0
VERTEX
  5
11D
330
11B
100
AcDbEntity
  8
plate
 62
   250
420
  2301728
370
    40
100
AcDbVertex
100
AcDb2dVertex
 10
7.022531673837041
 20
-7.540290979840442
 30
0.0
  0
SEQEND
  5
11E
330
11B
100
AcDbEntity
  8
plate
 62
   250
420
  2301728
370
    40
  0
POLYLINE
  5
11F
330
DE
100
AcDbEntity
  8
plate
 62
   250
420
  2301728
370
    15
100
AcDb2dPolyline
 66
     1
 10
0.0
 20
0.0
 30
0.0
  0
VERTEX
  5
120
330
11F
100
AcDbEntity
  8
plate
 62
   250
420
  2301728
370
    15
100
AcDbVertex
100
AcDb2dVertex
 10
6.572253847534916
 20
-7.049978339152491
 30
0.0
  0
VERTEX
  5
121
330
11F
100
AcDbEntity
  8
plate
 62
   250
420
  2301728
370
    15
100
AcDbVertex
100
AcDb2dVertex
 10
6.844095932445144
 20
-7.162567669887721
 30
0.0
  0
VERTEX
  5
122
330
11F
100
AcDbEntity
  8
plate
 62
   250
420
  2301728
370
    15
100
AcDbVertex
100
AcDb2dVertex
 10
7.023191828356933
 20
-7.142397352827212
 30
0.0
  0
SEQEND
  5
123
330
11F
100
AcDbEntity
  8
plate
 62
   250
420
  2301728
370
    15
  0
POLYLINE
  5
124
330
DE
100
AcDbEntity
  8
plate
 62
   250
420
  2301728
370
    15
100
AcDb2dPolyline
 66
     1
 10
0.0
 20
0.0
 30
0.0
  0
VERTEX
  5
125
330
124
100
AcDbEntity
  8
plate
 62
   250
420
  2301728
370
    15
100
AcDbVertex
100
AcDb2dVertex
 10
6.575697921969144
 20
-7.104913965138532
 30
0.0
  0
VERTEX
  5
126
330
124
100
AcDbEntity
  8
plate
 62
   250
420
  2301728
370
    15
100
AcDbVertex
100
AcDb2dVertex
 10
6.847618098328667
 20
-7.216589175307338
 30
0.0
  0
VERTEX
  5
127
330
124
100
AcDbEntity
  8
plate
 62
   250
420
  2301728
370
    15
100
AcDbVertex
100
AcDb2dVertex
 10
7.026234174613819
 20
-7.192743224381514
 30
0.0
  0
SEQEND
  5
128
330
124
100
AcDbEntity
  8
plate
 62
   250
420
  2301728
370
    15
  0
POLYLINE
  5
129
330
DE
100
AcDbEntity
  8
plate
 62
   250
420
  2301728
370
    15
100
AcDb2dPolyline
 66
     1
 10
0.0
 20
0.0
 30
0.0
  0
VERTEX
  5
12A
330
129
100
AcDbEntity
  8
plate
 62
   250
420
  2301728
370
    15
100
AcDbVertex
100
AcDb2dVertex
 10
6.582003202700561
 20
-7.164230151163994
 30
0.0
  0
VERTEX
  5
12B
330
129
100
AcDbEntity
  8
plate
 62
   250
420
  2301728
370
    15
100
AcDbVertex
100
AcDb2dVertex
 10
6.851958211763606
 20
-7.283048907870907
 30
0.0
  0
VERTEX
  5
12C
330
129
100
AcDbEntity
  8
plate
 62
   250
420
  2301728
370
    15
100
AcDbVertex
100
AcDb2dVertex
 10
7.030353699831216
 20
-7.255592143877467
 30
0.0
  0
SEQEND
  5
12D
330
129
100
AcDbEntity
  8
plate
 62
   250
420
  2301728
370
    15
  0
POLYLINE
  5
12E
330
DE
100
AcDbEntity
  8
plate
 62
   250
420
  2301728
370
    15
100
AcDb2dPolyline
 66
     1
 10
0.0
 20
0.0
 30
0.0
  0
VERTEX
  5
12F
330
12E
100
AcDbEntity
  8
plate
 62
   250
420
  2301728
370
    15
100
AcDbVertex
100
AcDb2dVertex
 10
6.583174574440085
 20
-7.229186483182692
 30
0.0
  0
VERTEX
  5
130
330
12E
100
AcDbEntity
  8
plate
 62
   250
420
  2301728
370
    15
100
AcDbVertex
100
AcDb2dVertex
 10
6.856109134573999
 20
-7.351587325558285
 30
0.0
  0
VERTEX
  5
131
330
12E
100
AcDbEntity
  8
plate
 62
   250
420
  2301728
370
    15
100
AcDbVertex
100
AcDb2dVertex
 10
7.038585504667505
 20
-7.334546085183042
 30
0.0
  0
SEQEND
  5
132
330
12E
100
AcDbEntity
  8
plate
 62
   250
420
  2301728
370
    15
  0
POLYLINE
  5
133
330
DE
100
AcDbEntity
  8
plate
 62
   250
420
  2301728
370
    15
100
AcDb2dPolyline
 66
     1
 10
0.0
 20
0.0
 30
0.0
  0
VERTEX
  5
134
330
133
100
AcDbEntity
  8
plate
 62
   250
420
  2301728
370
    15
100
AcDbVertex
100
AcDb2dVertex
 10
6.587058215176562
 20
-7.312067975544298
 30
0.0
  0
VERTEX
  5
135
330
133
100
AcDbEntity
  8
plate
 62
   250
420
  2301728
370
    15
100
AcDbVertex
100
AcDb2dVertex
 10
6.86154977389765
 20
-7.429858438688888
 30
0.0
  0
VERTEX
  5
136
330
133
100
AcDbEntity
  8
plate
 62
   250
420
  2301728
370
    15
100
AcDbVertex
100
AcDb2dVertex
 10
7.035919929526876
 20
-7.404458261820031
 30
0.0
  0
SEQEND
  5
137
330
133
100
AcDbEntity
  8
plate
 62
   250
420
  2301728
370
    15
  0
POLYLINE
  5
138
330
DE
100
AcDbEntity
  8
plate
 62
   250
420
  2301728
370
    15
100
AcDb2dPolyline
 66
     1
 10
0.0
 20
0.0
 30
0.0
  0
VERTEX
  5
139
330
138
100
AcDbEntity
  8
plate
 62
   250
420
  2301728
370
    15
100
AcDbVertex
100
AcDb2dVertex
 10
7.031124148459867
 20
-7.23537836741851
 30
0.0
  0
VERTEX
  5
13A
330
138
100
AcDbEntity
  8
plate
 62
   250
420
  2301728
370
    15
100
AcDbVertex
100
AcDb2dVertex
 10
7.250868996844322
 20
-7.311007050431057
 30
0.0
  0
SEQEND
  5
13B
330
138
100
AcDbEntity
  8
plate
 62
   250
420
  2301728
370
    15
  0
POLYLINE
  5
13C
330
DE
100
AcDbEntity
  8
plate
 62
   250
420
  2301728
370
    15
100
AcDb2dPolyline
 66
     1
 10
0.0
 20
0.0
 30
0.0
  0
VERTEX
  5
13D
330
13C
100
AcDbEntity
  8
plate
 62
   250
420
  2301728
370
    15
100
AcDbVertex
100
AcDb2dVertex
 10
7.034796056710093
 20
-7.281768697117816
 30
0.0
  0
VERTEX
  5
13E
330
13C
100
AcDbEntity
  8
plate
 62
   250
420
  2301728
370
    15
100
AcDbVertex
100
AcDb2dVertex
 10
7.255209110279288
 20
-7.365488930833786
 30
0.0
  0
SEQEND
  5
13F
330
13C
100
AcDbEntity
  8
plate
 62
   250
420
  2301728
370
    15
  0
POLYLINE
  5
140
330
DE
100
AcDbEntity
  8
plate
 62
   250
420
  2301728
370
    15
100
AcDb2dPolyline
 66
     1
 10
0.0
 20
0.0
 30
0.0
  0
VERTEX
  5
141
330
140
100
AcDbEntity
  8
plate
 62
   250
420
  2301728
370
    15
100
AcDbVertex
100
AcDb2dVertex
 10
7.04022864536882
 20
-7.350601754794424
 30
0.0
  0
VERTEX
  5
142
330
140
100
AcDbEntity
  8
plate
 62
   250
420
  2301728
370
    15
100
AcDbVertex
100
AcDb2dVertex
 10
7.259658712756592
 20
-7.421309949987365
 30
0.0
  0
SEQEND
  5
143
330
140
100
AcDbEntity
  8
plate
 62
   250
420
  2301728
370
    15
  0
POLYLINE
  5
144
330
DE
100
AcDbEntity
  8
plate
 62
   250
420
  2301728
370
    15
100
AcDb2dPolyline
 66
     1
 10
0.0
 20
0.0
 30
0.0
  0
VERTEX
  5
145
330
144
100
AcDbEntity
  8
plate
 62
   250
420
  2301728
370
    15
100
AcDbVertex
100
AcDb2dVertex
 10
7.045402002618529
 20
-7.416039823195471
 30
0.0
  0
VERTEX
  5
146
330
144
100
AcDbEntity
  8
plate
 62
   250
420
  2301728
370
    15
100
AcDbVertex
100
AcDb2dVertex
 10
7.264446443158678
 20
-7.481367155585694
 30
0.0
  0
SEQEND
  5
147
330
144
100
AcDbEntity
  8
plate
 62
   250
420
  2301728
370
    15
  0
POLYLINE
  5
148
330
DE
100
AcDbEntity
  8
plate
 62
   250
420
  2301728
370
    15
100
AcDb2dPolyline
 66
     1
 10
0.0
 20
0.0
 30
0.0
  0
VERTEX
  5
149
330
148
100
AcDbEntity
  8
plate
 62
   250
420
  2301728
370
    15
100
AcDbVertex
100
AcDb2dVertex
 10
7.049466931644651
 20
-7.467558361906779
 30
0.0
  0
VERTEX
  5
14A
330
148
100
AcDbEntity
  8
plate
 62
   250
420
  2301728
370
    15
100
AcDbVertex
100
AcDb2dVertex
 10
7.268629568628612
 20
-7.533849903661639
 30
0.0
  0
SEQEND
  5
14B
330
148
100
AcDbEntity
  8
plate
 62
   250
420
  2301728
370
    15
  0
POLYLINE
  5
14C
330
DE
100
AcDbEntity
  8
plate
 62
   250
420
  2301728
370
    15
100
AcDb2dPolyline
 66
     1
 10
0.0
 20
0.0
 30
0.0
  0
VERTEX
  5
14D
330
14C
100
AcDbEntity
  8
plate
 62
   250
420
  2301728
370
    15
100
AcDbVertex
100
AcDb2dVertex
 10
7.023703045576617
 20
-7.509711768561488
 30
0.0
  0
VERTEX
  5
14E
330
14C
100
AcDbEntity
  8
plate
 62
   250
420
  2301728
370
    15
100
AcDbVertex
100
AcDb2dVertex
 10
7.273275758717595
 20
-7.592180518923239
 30
0.0
  0
SEQEND
  5
14F
330
14C
100
AcDbEntity
  8
plate
 62
   250
420
  2301728
370
    15
  0
ENDBLK
  5
E1
330
DE
100
AcDbEntity
  8
0
100
AcDbBlockEnd
  0
BLOCK
  5
15B
330
159
100
AcDbEntity
  8
0
100
AcDbBlockBegin
  2
block 3
 70
     0
 10
0.0
 20
0.0
 30
0.0
  3
block 3
  1

  0
SPLINE
  5
15D
330
159
100
AcDbEntity
  8
Layer 5
 62
   250
420
  2301728
370
    13
100
AcDbSpline
210
0.0
220
0.0
230
1.0
 70
    11
 71
     3
 72
    44
 73
    40
 74
     0
 42
0.0000000001
 43
0.0000000001
 12
1.0
 22
0.0
 32
0.0
 13
1.0
 23
0.0
 33
0.0
 40
0.0
 40
0.0
 40
0.0
 40
0.0
 40
1.0
 40
1.0
 40
1.0
 40
2.0
 40
2.0
 40
2.0
 40
3.0
 40
3.0
 40
3.0
 40
4.0
 40
4.0
 40
4.0
 40
5.0
 40
5.0
 40
5.0
 40
6.0
 40
6.0
 40
6.0
 40
7.0
 40
7.0
 40
7.0
 40
8.0
 40
8.0
 40
8.0
 40
9.0
 40
9.0
 40
9.0
 40
10.0
 40
10.0
 40
10.0
 40
11.0
 40
11.0
 40
11.0
 40
12.0
 40
12.0
 40
12.0
 40
13.0
 40
13.0
 40
13.0
 40
13.0
 10
6.22674475175884
 20
-8.367224014844092
 30
0.0
 10
6.22674475175884
 20
-8.367224014844092
 30
0.0
 10
6.250933012342961
 20
-8.362397713415476
 30
0.0
 10
6.250933012342961
 20
-8.362397713415476
 30
0.0
 10
6.250933012342961
 20
-8.362397713415476
 30
0.0
 10
6.250004643003749
 20
-8.121532869144428
 30
0.0
 10
6.250082340227562
 20
-8.119882045072067
 30
0.0
 10
6.25016009437248
 20
-8.118230011604863
 30
0.0
 10
6.251405854488616
 20
-8.11461297315106
 30
0.0
 10
6.257954101744038
 20
-8.112726044962148
 30
0.0
 10
6.264502348999612
 20
-8.11083911677315
 30
0.0
 10
6.462205759703515
 20
-8.084957722932586
 30
0.0
 10
6.462205759703515
 20
-8.084957722932586
 30
0.0
 10
6.462205759703515
 20
-8.084957722932586
 30
0.0
 10
6.462456548302675
 20
-8.079591551214207
 30
0.0
 10
6.462456548302675
 20
-8.079591551214207
 30
0.0
 10
6.462456548302675
 20
-8.079591551214207
 30
0.0
 10
6.065823896312268
 20
-7.986066607554108
 30
0.0
 10
6.065823896312268
 20
-7.986066607554108
 30
0.0
 10
6.065823896312268
 20
-7.986066607554108
 30
0.0
 10
5.882070883977904
 20
-8.01467524943492
 30
0.0
 10
5.86821748245221
 20
-8.017446857479474
 30
0.0
 10
5.854357407437874
 20
-8.020217853432062
 30
0.0
 10
5.853221633960275
 20
-8.027265337717987
 30
0.0
 10
5.853075916089943
 20
-8.030361388725396
 30
0.0
 10
5.85293019821961
 20
-8.033457439732842
 30
0.0
 10
5.854385974116477
 20
-8.284169955899566
 30
0.0
 10
5.854385974116477
 20
-8.284169955899566
 30
0.0
 10
5.854385974116477
 20
-8.284169955899566
 30
0.0
 10
5.877819873722855
 20
-8.3009335679481
 30
0.0
 10
5.877819873722855
 20
-8.3009335679481
 30
0.0
 10
5.877819873722855
 20
-8.3009335679481
 30
0.0
 10
6.214594822233216
 20
-8.367974666550985
 30
0.0
 10
6.214594822233216
 20
-8.367974666550985
 30
0.0
 10
6.214594822233216
 20
-8.367974666550985
 30
0.0
 10
6.226741825360477
 20
-8.367223366867645
 30
0.0
 10
6.226741825360477
 20
-8.367223366867645
 30
0.0
 10
6.226741825360477
 20
-8.367223366867645
 30
0.0
 10
6.22674475175884
 20
-8.367224014844092
 30
0.0
 10
6.22674475175884
 20
-8.367224014844092
 30
0.0
  0
SPLINE
  5
15E
330
159
100
AcDbEntity
  8
Layer 5
 62
   250
420
  2301728
370
    13
100
AcDbSpline
210
0.0
220
0.0
230
1.0
 70
    11
 71
     3
 72
    11
 73
     7
 74
     0
 42
0.0000000001
 43
0.0000000001
 12
1.0
 22
0.0
 32
0.0
 13
1.0
 23
0.0
 33
0.0
 40
0.0
 40
0.0
 40
0.0
 40
0.0
 40
1.0
 40
1.0
 40
1.0
 40
2.0
 40
2.0
 40
2.0
 40
2.0
 10
6.223731371133125
 20
-8.050504585958883
 30
0.0
 10
6.223337932883118
 20
-8.058863923678928
 30
0.0
 10
6.140415139468764
 20
-8.053745783562956
 30
0.0
 10
6.132885560816121
 20
-8.042172214265735
 30
0.0
 10
6.146901018510889
 20
-8.03599511213737
 30
0.0
 10
6.200151753656428
 20
-8.036837024917796
 30
0.0
 10
6.223731371133125
 20
-8.050504585958883
 30
0.0
  0
SPLINE
  5
15F
330
159
100
AcDbEntity
  8
Layer 5
 62
   250
420
  2301728
370
    13
100
AcDbSpline
210
0.0
220
0.0
230
1.0
 70
    11
 71
     3
 72
    26
 73
    22
 74
     0
 42
0.0000000001
 43
0.0000000001
 12
1.0
 22
0.0
 32
0.0
 13
1.0
 23
0.0
 33
0.0
 40
0.0
 40
0.0
 40
0.0
 40
0.0
 40
1.0
 40
1.0
 40
1.0
 40
2.0
 40
2.0
 40
2.0
 40
3.0
 40
3.0
 40
3.0
 40
4.0
 40
4.0
 40
4.0
 40
5.0
 40
5.0
 40
5.0
 40
6.0
 40
6.0
 40
6.0
 40
7.0
 40
7.0
 40
7.0
 40
7.0
 10
5.987970348022827
 20
-8.208944900136126
 30
0.0
 10
5.990176964947699
 20
-8.201054356395389
 30
0.0
 10
5.997967580350683
 20
-8.202399246643784
 30
0.0
 10
5.997967580350683
 20
-8.202399246643784
 30
0.0
 10
5.997967580350683
 20
-8.202399246643784
 30
0.0
 10
6.007658805150716
 20
-8.202355300267097
 30
0.0
 10
6.018841373894373
 20
-8.204935672850473
 30
0.0
 10
6.030023942637677
 20
-8.2075160454339
 30
0.0
 10
6.08041284153713
 20
-8.217734661130383
 30
0.0
 10
6.085965929929519
 20
-8.219798698149537
 30
0.0
 10
6.091522551345431
 20
-8.221863059217412
 30
0.0
 10
6.110874389627725
 20
-8.226782588975311
 30
0.0
 10
6.110876601692325
 20
-8.239496234258947
 30
0.0
 10
6.110878923778324
 20
-8.252842217746547
 30
0.0
 10
6.088030595232945
 20
-8.244552457416678
 30
0.0
 10
6.088030595232945
 20
-8.244552457416678
 30
0.0
 10
6.088030595232945
 20
-8.244552457416678
 30
0.0
 10
6.041692402018978
 20
-8.234083488928743
 30
0.0
 10
6.021713335061955
 20
-8.229763477240743
 30
0.0
 10
6.001727594616164
 20
-8.225442853460738
 30
0.0
 10
5.983290340387308
 20
-8.225679932184448
 30
0.0
 10
5.987970348022827
 20
-8.208944900136126
 30
0.0
  0
SPLINE
  5
160
330
159
100
AcDbEntity
  8
Layer 5
 62
   250
420
  2301728
370
    13
100
AcDbSpline
210
0.0
220
0.0
230
1.0
 70
    11
 71
     3
 72
    11
 73
     7
 74
     0
 42
0.0000000001
 43
0.0000000001
 12
1.0
 22
0.0
 32
0.0
 13
1.0
 23
0.0
 33
0.0
 40
0.0
 40
0.0
 40
0.0
 40
0.0
 40
1.0
 40
1.0
 40
1.0
 40
2.0
 40
2.0
 40
2.0
 40
2.0
 10
5.895518165012239
 20
-8.102695576799482
 30
0.0
 10
5.911721052015537
 20
-8.091383803621852
 30
0.0
 10
5.936031716840767
 20
-8.105530263081668
 30
0.0
 10
5.925409263406891
 20
-8.12086385386639
 30
0.0
 10
5.90556759239962
 20
-8.122892999802236
 30
0.0
 10
5.892480110949211
 20
-8.114314165058481
 30
0.0
 10
5.895518165012239
 20
-8.102695576799482
 30
0.0
  0
HATCH
  5
161
330
159
100
AcDbEntity
  8
Layer 5
 62
     9
420
 11978450
100
AcDbHatch
 10
0.0
 20
0.0
 30
0.0
210
0.0
220
0.0
230
1.0
  2
SOLID
 70
     1
 71
     0
 91
        4
 92
        1
 93
        1
 72
     4
 94
        3
 73
     0
 74
     1
 95
       44
 96
       40
 40
0.0
 40
0.0
 40
0.0
 40
0.0
 40
1.0
 40
1.0
 40
1.0
 40
2.0
 40
2.0
 40
2.0
 40
3.0
 40
3.0
 40
3.0
 40
4.0
 40
4.0
 40
4.0
 40
5.0
 40
5.0
 40
5.0
 40
6.0
 40
6.0
 40
6.0
 40
7.0
 40
7.0
 40
7.0
 40
8.0
 40
8.0
 40
8.0
 40
9.0
 40
9.0
 40
9.0
 40
10.0
 40
10.0
 40
10.0
 40
11.0
 40
11.0
 40
11.0
 40
12.0
 40
12.0
 40
12.0
 40
13.0
 40
13.0
 40
13.0
 40
13.0
 10
6.22674475175884
 20
-8.367224014844092
 10
6.22674475175884
 20
-8.367224014844092
 10
6.250933012342961
 20
-8.362397713415476
 10
6.250933012342961
 20
-8.362397713415476
 10
6.250933012342961
 20
-8.362397713415476
 10
6.250004643003749
 20
-8.121532869144428
 10
6.250082340227562
 20
-8.119882045072067
 10
6.25016009437248
 20
-8.118230011604863
 10
6.251405854488616
 20
-8.11461297315106
 10
6.257954101744038
 20
-8.112726044962148
 10
6.264502348999612
 20
-8.11083911677315
 10
6.462205759703515
 20
-8.084957722932586
 10
6.462205759703515
 20
-8.084957722932586
 10
6.462205759703515
 20
-8.084957722932586
 10
6.462456548302675
 20
-8.079591551214207
 10
6.462456548302675
 20
-8.079591551214207
 10
6.462456548302675
 20
-8.079591551214207
 10
6.065823896312268
 20
-7.986066607554108
 10
6.065823896312268
 20
-7.986066607554108
 10
6.065823896312268
 20
-7.986066607554108
 10
5.882070883977904
 20
-8.01467524943492
 10
5.86821748245221
 20
-8.017446857479474
 10
5.854357407437874
 20
-8.020217853432062
 10
5.853221633960275
 20
-8.027265337717987
 10
5.853075916089943
 20
-8.030361388725396
 10
5.85293019821961
 20
-8.033457439732842
 10
5.854385974116477
 20
-8.284169955899566
 10
5.854385974116477
 20
-8.284169955899566
 10
5.854385974116477
 20
-8.284169955899566
 10
5.877819873722855
 20
-8.3009335679481
 10
5.877819873722855
 20
-8.3009335679481
 10
5.877819873722855
 20
-8.3009335679481
 10
6.214594822233216
 20
-8.367974666550985
 10
6.214594822233216
 20
-8.367974666550985
 10
6.214594822233216
 20
-8.367974666550985
 10
6.226741825360477
 20
-8.367223366867645
 10
6.226741825360477
 20
-8.367223366867645
 10
6.226741825360477
 20
-8.367223366867645
 10
6.22674475175884
 20
-8.367224014844092
 10
6.22674475175884
 20
-8.367224014844092
 97
        0
 97
        0
 92
        1
 93
        1
 72
     4
 94
        3
 73
     0
 74
     1
 95
       11
 96
        7
 40
0.0
 40
0.0
 40
0.0
 40
0.0
 40
1.0
 40
1.0
 40
1.0
 40
2.0
 40
2.0
 40
2.0
 40
2.0
 10
6.223731371133125
 20
-8.050504585958883
 10
6.223337932883118
 20
-8.058863923678928
 10
6.140415139468764
 20
-8.053745783562956
 10
6.132885560816121
 20
-8.042172214265735
 10
6.146901018510889
 20
-8.03599511213737
 10
6.200151753656428
 20
-8.036837024917796
 10
6.223731371133125
 20
-8.050504585958883
 97
        0
 97
        0
 92
        1
 93
        1
 72
     4
 94
        3
 73
     0
 74
     1
 95
       26
 96
       22
 40
0.0
 40
0.0
 40
0.0
 40
0.0
 40
1.0
 40
1.0
 40
1.0
 40
2.0
 40
2.0
 40
2.0
 40
3.0
 40
3.0
 40
3.0
 40
4.0
 40
4.0
 40
4.0
 40
5.0
 40
5.0
 40
5.0
 40
6.0
 40
6.0
 40
6.0
 40
7.0
 40
7.0
 40
7.0
 40
7.0
 10
5.987970348022827
 20
-8.208944900136126
 10
5.990176964947699
 20
-8.201054356395389
 10
5.997967580350683
 20
-8.202399246643784
 10
5.997967580350683
 20
-8.202399246643784
 10
5.997967580350683
 20
-8.202399246643784
 10
6.007658805150716
 20
-8.202355300267097
 10
6.018841373894373
 20
-8.204935672850473
 10
6.030023942637677
 20
-8.2075160454339
 10
6.08041284153713
 20
-8.217734661130383
 10
6.085965929929519
 20
-8.219798698149537
 10
6.091522551345431
 20
-8.221863059217412
 10
6.110874389627725
 20
-8.226782588975311
 10
6.110876601692325
 20
-8.239496234258947
 10
6.110878923778324
 20
-8.252842217746547
 10
6.088030595232945
 20
-8.244552457416678
 10
6.088030595232945
 20
-8.244552457416678
 10
6.088030595232945
 20
-8.244552457416678
 10
6.041692402018978
 20
-8.234083488928743
 10
6.021713335061955
 20
-8.229763477240743
 10
6.001727594616164
 20
-8.225442853460738
 10
5.983290340387308
 20
-8.225679932184448
 10
5.987970348022827
 20
-8.208944900136126
 97
        0
 97
        0
 92
        1
 93
        1
 72
     4
 94
        3
 73
     0
 74
     1
 95
       11
 96
        7
 40
0.0
 40
0.0
 40
0.0
 40
0.0
 40
1.0
 40
1.0
 40
1.0
 40
2.0
 40
2.0
 40
2.0
 40
2.0
 10
5.895518165012239
 20
-8.102695576799482
 10
5.911721052015537
 20
-8.091383803621852
 10
5.936031716840767
 20
-8.105530263081668
 10
5.925409263406891
 20
-8.12086385386639
 10
5.90556759239962
 20
-8.122892999802236
 10
5.892480110949211
 20
-8.114314165058481
 10
5.895518165012239
 20
-8.102695576799482
 97
        0
 97
        0
 75
     2
 76
     1
 98
        0
  0
SPLINE
  5
162
330
159
100
AcDbEntity
  8
Layer 5
 62
   250
420
  2301728
370
     5
100
AcDbSpline
210
0.0
220
0.0
230
1.0
 70
    11
 71
     3
 72
    23
 73
    19
 74
     0
 42
0.0000000001
 43
0.0000000001
 12
1.0
 22
0.0
 32
0.0
 13
1.0
 23
0.0
 33
0.0
 40
0.0
 40
0.0
 40
0.0
 40
0.0
 40
1.0
 40
1.0
 40
1.0
 40
2.0
 40
2.0
 40
2.0
 40
3.0
 40
3.0
 40
3.0
 40
4.0
 40
4.0
 40
4.0
 40
5.0
 40
5.0
 40
5.0
 40
6.0
 40
6.0
 40
6.0
 40
6.0
 10
6.132885668571007
 20
-8.042172232286918
 30
0.0
 10
6.138673297164384
 20
-8.047833609994793
 30
0.0
 10
6.15427035517372
 20
-8.050974350052709
 30
0.0
 10
6.176759352850695
 20
-8.053503451863282
 30
0.0
 10
6.199248350527569
 20
-8.056032553673793
 30
0.0
 10
6.220691699182225
 20
-8.055045390760508
 30
0.0
 10
6.223731418800955
 20
-8.05050459846887
 30
0.0
 10
6.223731418800955
 20
-8.05050459846887
 30
0.0
 10
6.22319100726405
 20
-8.053408977387384
 30
0.0
 10
6.223549271462995
 20
-8.05437466222818
 30
0.0
 10
6.223907535661813
 20
-8.055340347068938
 30
0.0
 10
6.213939446907842
 20
-8.061266790359797
 30
0.0
 10
6.174947429592394
 20
-8.057690445119444
 30
0.0
 10
6.135955412276846
 20
-8.05411409987899
 30
0.0
 10
6.130311871233996
 20
-8.045356521630916
 30
0.0
 10
6.130311871233996
 20
-8.045356521630916
 30
0.0
 10
6.130311871233996
 20
-8.045356521630916
 30
0.0
 10
6.130786709729237
 20
-8.043845365665737
 30
0.0
 10
6.132885668571007
 20
-8.042172232286918
 30
0.0
  0
SPLINE
  5
163
330
159
100
AcDbEntity
  8
Layer 5
 62
   250
420
  2301728
370
     9
100
AcDbSpline
210
0.0
220
0.0
230
1.0
 70
     8
 71
     3
 72
    14
 73
    10
 74
     0
 42
0.0000000001
 43
0.0000000001
 12
1.0
 22
0.0
 32
0.0
 13
1.0
 23
0.0
 33
0.0
 40
0.0
 40
0.0
 40
0.0
 40
0.0
 40
1.0
 40
1.0
 40
1.0
 40
2.0
 40
2.0
 40
2.0
 40
3.0
 40
3.0
 40
3.0
 40
3.0
 10
5.895518388531475
 20
-8.102695545241078
 30
0.0
 10
5.895518388531475
 20
-8.102695545241078
 30
0.0
 10
5.899475056235511
 20
-8.098440148471797
 30
0.0
 10
5.899475056235511
 20
-8.098440148471797
 30
0.0
 10
5.89946316007005
 20
-8.09713610214452
 30
0.0
 10
5.917676500030994
 20
-8.087344742365
 30
0.0
 10
5.929070760598607
 20
-8.101309707638544
 30
0.0
 10
5.937481916057878
 20
-8.111618584729614
 30
0.0
 10
5.931696084243513
 20
-8.120798707452371
 30
0.0
 10
5.925413393760234
 20
-8.12086382701975
 30
0.0
  0
INSERT
  5
165
330
159
100
AcDbEntity
  8
Layer 5
100
AcDbBlockReference
  2
block 4
 10
0.0
 20
0.0
 30
0.0
  0
INSERT
  5
16A
330
159
100
AcDbEntity
  8
Layer 5
100
AcDbBlockReference
  2
block 5
 10
0.0
 20
0.0
 30
0.0
  0
INSERT
  5
16F
330
159
100
AcDbEntity
  8
Layer 5
100
AcDbBlockReference
  2
block 6
 10
0.0
 20
0.0
 30
0.0
  0
INSERT
  5
174
330
159
100
AcDbEntity
  8
Layer 5
100
AcDbBlockReference
  2
block 7
 10
0.0
 20
0.0
 30
0.0
  0
INSERT
  5
179
330
159
100
AcDbEntity
  8
Layer 5
100
AcDbBlockReference
  2
block 8
 10
0.0
 20
0.0
 30
0.0
  0
INSERT
  5
17E
330
159
100
AcDbEntity
  8
Layer 5
100
AcDbBlockReference
  2
block 9
 10
0.0
 20
0.0
 30
0.0
  0
SPLINE
  5
182
330
159
100
AcDbEntity
  8
Layer 5
 62
   250
420
  2301728
370
     5
100
AcDbSpline
210
0.0
220
0.0
230
1.0
 70
     8
 71
     3
 72
    35
 73
    31
 74
     0
 42
0.0000000001
 43
0.0000000001
 12
1.0
 22
0.0
 32
0.0
 13
1.0
 23
0.0
 33
0.0
 40
0.0
 40
0.0
 40
0.0
 40
0.0
 40
1.0
 40
1.0
 40
1.0
 40
2.0
 40
2.0
 40
2.0
 40
3.0
 40
3.0
 40
3.0
 40
4.0
 40
4.0
 40
4.0
 40
5.0
 40
5.0
 40
5.0
 40
6.0
 40
6.0
 40
6.0
 40
7.0
 40
7.0
 40
7.0
 40
8.0
 40
8.0
 40
8.0
 40
9.0
 40
9.0
 40
9.0
 40
10.0
 40
10.0
 40
10.0
 40
10.0
 10
6.145731896511203
 20
-8.076880011506319
 30
0.0
 10
6.147189695163964
 20
-8.076635365608656
 30
0.0
 10
6.148419361529275
 20
-8.07641393817942
 30
0.0
 10
6.149312911798106
 20
-8.076223332088501
 30
0.0
 10
6.154749821872529
 20
-8.075064064380083
 30
0.0
 10
6.179104658802695
 20
-8.0754103382292
 30
0.0
 10
6.196000827901091
 20
-8.0792617781586
 30
0.0
 10
6.206654405622303
 20
-8.081690399101337
 30
0.0
 10
6.209955869744944
 20
-8.085827741279747
 30
0.0
 10
6.204774519549144
 20
-8.087321390547407
 30
0.0
 10
6.204774519549144
 20
-8.087321390547407
 30
0.0
 10
6.203671286590785
 20
-8.087842085341865
 30
0.0
 10
6.203671286590785
 20
-8.087842085341865
 30
0.0
 10
6.203671286590785
 20
-8.087842085341865
 30
0.0
 10
6.177031899435051
 20
-8.093483204745956
 30
0.0
 10
6.171066034229524
 20
-8.094387491486486
 30
0.0
 10
6.165101798470535
 20
-8.095291927679707
 30
0.0
 10
6.161848729140198
 20
-8.09582190486319
 30
0.0
 10
6.162201178433937
 20
-8.099793239982976
 30
0.0
 10
6.162550411891364
 20
-8.103764280146367
 30
0.0
 10
6.162398395356351
 20
-8.19695869103187
 30
0.0
 10
6.162799456118035
 20
-8.199897183534226
 30
0.0
 10
6.163202103283411
 20
-8.20283582154146
 30
0.0
 10
6.157567749770528
 20
-8.208122453483131
 30
0.0
 10
6.138282407046669
 20
-8.206147137889982
 30
0.0
 10
6.118997122610052
 20
-8.2041705838764
 30
0.0
 10
6.107187257056466
 20
-8.192101194329654
 30
0.0
 10
6.107536979945457
 20
-8.184670671911741
 30
0.0
 10
6.107560876110938
 20
-8.184162952804956
 30
0.0
 10
6.107590214935221
 20
-8.1835395941432
 30
0.0
 10
6.107624165856578
 20
-8.182818242783343
 30
0.0
  0
SPLINE
  5
183
330
159
100
AcDbEntity
  8
Layer 5
 62
   250
420
  2301728
370
     5
100
AcDbSpline
210
0.0
220
0.0
230
1.0
 70
     8
 71
     3
 72
    14
 73
    10
 74
     0
 42
0.0000000001
 43
0.0000000001
 12
1.0
 22
0.0
 32
0.0
 13
1.0
 23
0.0
 33
0.0
 40
0.0
 40
0.0
 40
0.0
 40
0.0
 40
1.0
 40
1.0
 40
1.0
 40
2.0
 40
2.0
 40
2.0
 40
3.0
 40
3.0
 40
3.0
 40
3.0
 10
6.107811437652597
 20
-8.178839300247798
 30
0.0
 10
6.108370225367732
 20
-8.16696680126251
 30
0.0
 10
6.109415677802821
 20
-8.089066542427569
 30
0.0
 10
6.109479865455316
 20
-8.087702754682368
 30
0.0
 10
6.109557620510764
 20
-8.08605070186478
 30
0.0
 10
6.113998138985102
 20
-8.08314210444539
 30
0.0
 10
6.120001250972109
 20
-8.08141164172404
 30
0.0
 10
6.123412825093838
 20
-8.080429264273233
 30
0.0
 10
6.130655032784564
 20
-8.079262652801642
 30
0.0
 10
6.137270681577067
 20
-8.078225627081792
 30
0.0
  0
INSERT
  5
185
330
159
100
AcDbEntity
  8
Layer 5
100
AcDbBlockReference
  2
block 10
 10
0.0
 20
0.0
 30
0.0
  0
POLYLINE
  5
18A
330
159
100
AcDbEntity
  8
Layer 5
 62
   250
420
  2301728
370
     5
100
AcDb2dPolyline
 66
     1
 10
0.0
 20
0.0
 30
0.0
  0
VERTEX
  5
18B
330
18A
100
AcDbEntity
  8
Layer 5
 62
   250
420
  2301728
370
     5
100
AcDbVertex
100
AcDb2dVertex
 10
5.952241478492017
 20
-8.049639553585418
 30
0.0
  0
VERTEX
  5
18C
330
18A
100
AcDbEntity
  8
Layer 5
 62
   250
420
  2301728
370
     5
100
AcDbVertex
100
AcDb2dVertex
 10
5.872926603857523
 20
-8.029407277157764
 30
0.0
  0
SEQEND
  5
18D
330
18A
100
AcDbEntity
  8
Layer 5
 62
   250
420
  2301728
370
     5
  0
POLYLINE
  5
18E
330
159
100
AcDbEntity
  8
Layer 5
 62
   250
420
  2301728
370
     5
100
AcDb2dPolyline
 66
     1
 10
0.0
 20
0.0
 30
0.0
  0
VERTEX
  5
18F
330
18E
100
AcDbEntity
  8
Layer 5
 62
   250
420
  2301728
370
     5
100
AcDbVertex
100
AcDb2dVertex
 10
6.10266682679167
 20
-8.083362386835486
 30
0.0
  0
VERTEX
  5
190
330
18E
100
AcDbEntity
  8
Layer 5
 62
   250
420
  2301728
370
     5
100
AcDbVertex
100
AcDb2dVertex
 10
6.023903646580189
 20
-8.065705006463467
 30
0.0
  0
SEQEND
  5
191
330
18E
100
AcDbEntity
  8
Layer 5
 62
   250
420
  2301728
370
     5
  0
POLYLINE
  5
192
330
159
100
AcDbEntity
  8
Layer 5
 62
   250
420
  2301728
370
     5
100
AcDb2dPolyline
 66
     1
 10
0.0
 20
0.0
 30
0.0
  0
VERTEX
  5
193
330
192
100
AcDbEntity
  8
Layer 5
 62
   250
420
  2301728
370
     5
100
AcDbVertex
100
AcDb2dVertex
 10
6.240192182165629
 20
-8.11419325862241
 30
0.0
  0
VERTEX
  5
194
330
192
100
AcDbEntity
  8
Layer 5
 62
   250
420
  2301728
370
     5
100
AcDbVertex
100
AcDb2dVertex
 10
6.171147627282734
 20
-8.098714630602165
 30
0.0
  0
SEQEND
  5
195
330
192
100
AcDbEntity
  8
Layer 5
 62
   250
420
  2301728
370
     5
  0
SPLINE
  5
196
330
159
100
AcDbEntity
  8
Layer 5
 62
   250
420
  2301728
370
     5
100
AcDbSpline
210
0.0
220
0.0
230
1.0
 70
    11
 71
     3
 72
    38
 73
    34
 74
     0
 42
0.0000000001
 43
0.0000000001
 12
1.0
 22
0.0
 32
0.0
 13
1.0
 23
0.0
 33
0.0
 40
0.0
 40
0.0
 40
0.0
 40
0.0
 40
1.0
 40
1.0
 40
1.0
 40
2.0
 40
2.0
 40
2.0
 40
3.0
 40
3.0
 40
3.0
 40
4.0
 40
4.0
 40
4.0
 40
5.0
 40
5.0
 40
5.0
 40
6.0
 40
6.0
 40
6.0
 40
7.0
 40
7.0
 40
7.0
 40
8.0
 40
8.0
 40
8.0
 40
9.0
 40
9.0
 40
9.0
 40
10.0
 40
10.0
 40
10.0
 40
11.0
 40
11.0
 40
11.0
 40
11.0
 10
5.864156506600819
 20
-8.282579182805824
 30
0.0
 10
5.864156506600819
 20
-8.282579182805824
 30
0.0
 10
5.88759040620726
 20
-8.299342794854384
 30
0.0
 10
5.88759040620726
 20
-8.299342794854384
 30
0.0
 10
5.88759040620726
 20
-8.299342794854384
 30
0.0
 10
6.22674475175884
 20
-8.367224014844092
 30
0.0
 10
6.22674475175884
 20
-8.367224014844092
 30
0.0
 10
6.22674475175884
 20
-8.367224014844092
 30
0.0
 10
6.250933012342961
 20
-8.362397713415476
 30
0.0
 10
6.250933012342961
 20
-8.362397713415476
 30
0.0
 10
6.250933012342961
 20
-8.362397713415476
 30
0.0
 10
6.250004643003749
 20
-8.121532869144428
 30
0.0
 10
6.250082340227562
 20
-8.119882045072067
 30
0.0
 10
6.25016009437248
 20
-8.118230011604863
 30
0.0
 10
6.251405854488616
 20
-8.11461297315106
 30
0.0
 10
6.257954101744038
 20
-8.112726044962148
 30
0.0
 10
6.264502348999612
 20
-8.11083911677315
 30
0.0
 10
6.462205759703515
 20
-8.084957722932586
 30
0.0
 10
6.462205759703515
 20
-8.084957722932586
 30
0.0
 10
6.462205759703515
 20
-8.084957722932586
 30
0.0
 10
6.065084819191219
 20
-7.990247621148405
 30
0.0
 10
6.065084819191219
 20
-7.990247621148405
 30
0.0
 10
6.065084819191219
 20
-7.990247621148405
 30
0.0
 10
5.880264955063567
 20
-8.019074135627015
 30
0.0
 10
5.874862023879914
 20
-8.01940694705786
 30
0.0
 10
5.871266492635641
 20
-8.019629569340825
 30
0.0
 10
5.866110106028322
 20
-8.0226501028327
 30
0.0
 10
5.862939613880926
 20
-8.027324959735324
 30
0.0
 10
5.861348764498138
 20
-8.029670650206235
 30
0.0
 10
5.860257904666089
 20
-8.032432850434109
 30
0.0
 10
5.860115095960105
 20
-8.035467090756356
 30
0.0
 10
5.859687618926121
 20
-8.044549646641446
 30
0.0
 10
5.864156506600819
 20
-8.282579182805824
 30
0.0
 10
5.864156506600819
 20
-8.282579182805824
 30
0.0
  0
POLYLINE
  5
197
330
159
100
AcDbEntity
  8
Layer 5
 62
   250
420
  2301728
370
     5
100
AcDb2dPolyline
 66
     1
 10
0.0
 20
0.0
 30
0.0
  0
VERTEX
  5
198
330
197
100
AcDbEntity
  8
Layer 5
 62
   250
420
  2301728
370
     5
100
AcDbVertex
100
AcDb2dVertex
 10
6.065823824984843
 20
-7.986066554360225
 30
0.0
  0
VERTEX
  5
199
330
197
100
AcDbEntity
  8
Layer 5
 62
   250
420
  2301728
370
     5
100
AcDbVertex
100
AcDb2dVertex
 10
6.065081647514135
 20
-7.990244833235364
 30
0.0
  0
SEQEND
  5
19A
330
197
100
AcDbEntity
  8
Layer 5
 62
   250
420
  2301728
370
     5
  0
POLYLINE
  5
19B
330
159
100
AcDbEntity
  8
Layer 5
 62
   250
420
  2301728
370
     5
100
AcDb2dPolyline
 66
     1
 10
0.0
 20
0.0
 30
0.0
  0
VERTEX
  5
19C
330
19B
100
AcDbEntity
  8
Layer 5
 62
   250
420
  2301728
370
     5
100
AcDbVertex
100
AcDb2dVertex
 10
5.854386021784219
 20
-8.284169968409515
 30
0.0
  0
VERTEX
  5
19D
330
19B
100
AcDbEntity
  8
Layer 5
 62
   250
420
  2301728
370
     5
100
AcDbVertex
100
AcDb2dVertex
 10
5.864150105519431
 20
-8.282577996529122
 30
0.0
  0
SEQEND
  5
19E
330
19B
100
AcDbEntity
  8
Layer 5
 62
   250
420
  2301728
370
     5
  0
POLYLINE
  5
19F
330
159
100
AcDbEntity
  8
Layer 5
 62
   250
420
  2301728
370
     5
100
AcDb2dPolyline
 66
     1
 10
0.0
 20
0.0
 30
0.0
  0
VERTEX
  5
1A0
330
19F
100
AcDbEntity
  8
Layer 5
 62
   250
420
  2301728
370
     5
100
AcDbVertex
100
AcDb2dVertex
 10
5.887584005125796
 20
-8.299341608577757
 30
0.0
  0
VERTEX
  5
1A1
330
19F
100
AcDbEntity
  8
Layer 5
 62
   250
420
  2301728
370
     5
100
AcDbVertex
100
AcDb2dVertex
 10
5.877819921390583
 20
-8.300933580458125
 30
0.0
  0
SEQEND
  5
1A2
330
19F
100
AcDbEntity
  8
Layer 5
 62
   250
420
  2301728
370
     5
  0
SPLINE
  5
1A3
330
159
100
AcDbEntity
  8
Layer 5
 62
   250
420
  2301728
370
     9
100
AcDbSpline
210
0.0
220
0.0
230
1.0
 70
    11
 71
     3
 72
    17
 73
    13
 74
     0
 42
0.0000000001
 43
0.0000000001
 12
1.0
 22
0.0
 32
0.0
 13
1.0
 23
0.0
 33
0.0
 40
0.0
 40
0.0
 40
0.0
 40
0.0
 40
1.0
 40
1.0
 40
1.0
 40
2.0
 40
2.0
 40
2.0
 40
3.0
 40
3.0
 40
3.0
 40
4.0
 40
4.0
 40
4.0
 40
4.0
 10
6.068158839230338
 20
-8.02404321282817
 30
0.0
 10
6.082333899454296
 20
-8.026606517632949
 30
0.0
 10
6.090633981305346
 20
-8.031086911072874
 30
0.0
 10
6.086698840391793
 20
-8.034045592904262
 30
0.0
 10
6.082771517578016
 20
-8.037009718123853
 30
0.0
 10
6.068090253086565
 20
-8.037330795595153
 30
0.0
 10
6.05392145506039
 20
-8.034771681519334
 30
0.0
 10
6.039751219033254
 20
-8.032208809751813
 30
0.0
 10
6.031445933556799
 20
-8.027729182802192
 30
0.0
 10
6.035379635584882
 20
-8.024766762073568
 30
0.0
 10
6.039310326785881
 20
-8.021806552725
 30
0.0
 10
6.053988492015151
 20
-8.021482703456563
 30
0.0
 10
6.068158839230338
 20
-8.02404321282817
 30
0.0
  0
HATCH
  5
1A4
330
159
100
AcDbEntity
  8
Layer 5
 62
     9
420
 11978450
100
AcDbHatch
 10
0.0
 20
0.0
 30
0.0
210
0.0
220
0.0
230
1.0
  2
SOLID
 70
     1
 71
     0
 91
        1
 92
        1
 93
        1
 72
     4
 94
        3
 73
     0
 74
     1
 95
       17
 96
       13
 40
0.0
 40
0.0
 40
0.0
 40
0.0
 40
1.0
 40
1.0
 40
1.0
 40
2.0
 40
2.0
 40
2.0
 40
3.0
 40
3.0
 40
3.0
 40
4.0
 40
4.0
 40
4.0
 40
4.0
 10
6.068158839230338
 20
-8.02404321282817
 10
6.082333899454296
 20
-8.026606517632949
 10
6.090633981305346
 20
-8.031086911072874
 10
6.086698840391793
 20
-8.034045592904262
 10
6.082771517578016
 20
-8.037009718123853
 10
6.068090253086565
 20
-8.037330795595153
 10
6.05392145506039
 20
-8.034771681519334
 10
6.039751219033254
 20
-8.032208809751813
 10
6.031445933556799
 20
-8.027729182802192
 10
6.035379635584882
 20
-8.024766762073568
 10
6.039310326785881
 20
-8.021806552725
 10
6.053988492015151
 20
-8.021482703456563
 10
6.068158839230338
 20
-8.02404321282817
 97
        0
 97
        0
 75
     2
 76
     1
 98
        0
  0
SPLINE
  5
1A5
330
159
100
AcDbEntity
  8
Layer 5
 62
   250
420
  2301728
370
     9
100
AcDbSpline
210
0.0
220
0.0
230
1.0
 70
    11
 71
     3
 72
    17
 73
    13
 74
     0
 42
0.0000000001
 43
0.0000000001
 12
1.0
 22
0.0
 32
0.0
 13
1.0
 23
0.0
 33
0.0
 40
0.0
 40
0.0
 40
0.0
 40
0.0
 40
1.0
 40
1.0
 40
1.0
 40
2.0
 40
2.0
 40
2.0
 40
3.0
 40
3.0
 40
3.0
 40
4.0
 40
4.0
 40
4.0
 40
4.0
 10
5.972883655450636
 20
-8.024010944549406
 30
0.0
 10
5.987060323592914
 20
-8.026574396832327
 30
0.0
 10
5.995358797525796
 20
-8.031054642794086
 30
0.0
 10
5.991425238520302
 20
-8.034013469717959
 30
0.0
 10
5.987497941716835
 20
-8.036977597323268
 30
0.0
 10
5.972816677225333
 20
-8.037298674794593
 30
0.0
 10
5.958646271270482
 20
-8.034739413459482
 30
0.0
 10
5.944476035253577
 20
-8.032176541473039
 30
0.0
 10
5.936170749777173
 20
-8.027696914523403
 30
0.0
 10
5.940104451805306
 20
-8.024734493794792
 30
0.0
 10
5.944035143006431
 20
-8.021774284446236
 30
0.0
 10
5.958716524072088
 20
-8.021450730134157
 30
0.0
 10
5.972883655450636
 20
-8.024010944549406
 30
0.0
  0
HATCH
  5
1A6
330
159
100
AcDbEntity
  8
Layer 5
 62
     9
420
 11978450
100
AcDbHatch
 10
0.0
 20
0.0
 30
0.0
210
0.0
220
0.0
230
1.0
  2
SOLID
 70
     1
 71
     0
 91
        1
 92
        1
 93
        1
 72
     4
 94
        3
 73
     0
 74
     1
 95
       17
 96
       13
 40
0.0
 40
0.0
 40
0.0
 40
0.0
 40
1.0
 40
1.0
 40
1.0
 40
2.0
 40
2.0
 40
2.0
 40
3.0
 40
3.0
 40
3.0
 40
4.0
 40
4.0
 40
4.0
 40
4.0
 10
5.972883655450636
 20
-8.024010944549406
 10
5.987060323592914
 20
-8.026574396832327
 10
5.995358797525796
 20
-8.031054642794086
 10
5.991425238520302
 20
-8.034013469717959
 10
5.987497941716835
 20
-8.036977597323268
 10
5.972816677225333
 20
-8.037298674794593
 10
5.958646271270482
 20
-8.034739413459482
 10
5.944476035253577
 20
-8.032176541473039
 10
5.936170749777173
 20
-8.027696914523403
 10
5.940104451805306
 20
-8.024734493794792
 10
5.944035143006431
 20
-8.021774284446236
 10
5.958716524072088
 20
-8.021450730134157
 10
5.972883655450636
 20
-8.024010944549406
 97
        0
 97
        0
 75
     2
 76
     1
 98
        0
  0
SPLINE
  5
1A7
330
159
100
AcDbEntity
  8
Layer 5
 62
   250
420
  2301728
370
     9
100
AcDbSpline
210
0.0
220
0.0
230
1.0
 70
    11
 71
     3
 72
    17
 73
    13
 74
     0
 42
0.0000000001
 43
0.0000000001
 12
1.0
 22
0.0
 32
0.0
 13
1.0
 23
0.0
 33
0.0
 40
0.0
 40
0.0
 40
0.0
 40
0.0
 40
1.0
 40
1.0
 40
1.0
 40
2.0
 40
2.0
 40
2.0
 40
3.0
 40
3.0
 40
3.0
 40
4.0
 40
4.0
 40
4.0
 40
4.0
 10
6.270120395380874
 20
-8.090452122253838
 30
0.0
 10
6.284295455604857
 20
-8.093015427058566
 30
0.0
 10
6.292595537455933
 20
-8.097495820498454
 30
0.0
 10
6.288660396542404
 20
-8.100454502329866
 30
0.0
 10
6.284733073728729
 20
-8.103418627549393
 30
0.0
 10
6.270051809237303
 20
-8.103739705020795
 30
0.0
 10
6.255881403236117
 20
-8.101180444671197
 30
0.0
 10
6.241711167265596
 20
-8.098617571699277
 30
0.0
 10
6.233407489707436
 20
-8.094138092227846
 30
0.0
 10
6.237339905400833
 20
-8.091175553516626
 30
0.0
 10
6.241270255356944
 20
-8.088215312869073
 30
0.0
 10
6.255950048165914
 20
-8.087891612882231
 30
0.0
 10
6.270120395380874
 20
-8.090452122253838
 30
0.0
  0
HATCH
  5
1A8
330
159
100
AcDbEntity
  8
Layer 5
 62
     9
420
 11978450
100
AcDbHatch
 10
0.0
 20
0.0
 30
0.0
210
0.0
220
0.0
230
1.0
  2
SOLID
 70
     1
 71
     0
 91
        1
 92
        1
 93
        1
 72
     4
 94
        3
 73
     0
 74
     1
 95
       17
 96
       13
 40
0.0
 40
0.0
 40
0.0
 40
0.0
 40
1.0
 40
1.0
 40
1.0
 40
2.0
 40
2.0
 40
2.0
 40
3.0
 40
3.0
 40
3.0
 40
4.0
 40
4.0
 40
4.0
 40
4.0
 10
6.270120395380874
 20
-8.090452122253838
 10
6.284295455604857
 20
-8.093015427058566
 10
6.292595537455933
 20
-8.097495820498454
 10
6.288660396542404
 20
-8.100454502329866
 10
6.284733073728729
 20
-8.103418627549393
 10
6.270051809237303
 20
-8.103739705020795
 10
6.255881403236117
 20
-8.101180444671197
 10
6.241711167265596
 20
-8.098617571699277
 10
6.233407489707436
 20
-8.094138092227846
 10
6.237339905400833
 20
-8.091175553516626
 10
6.241270255356944
 20
-8.088215312869073
 10
6.255950048165914
 20
-8.087891612882231
 10
6.270120395380874
 20
-8.090452122253838
 97
        0
 97
        0
 75
     2
 76
     1
 98
        0
  0
SPLINE
  5
1A9
330
159
100
AcDbEntity
  8
Layer 5
 62
   250
420
  2301728
370
     9
100
AcDbSpline
210
0.0
220
0.0
230
1.0
 70
    11
 71
     3
 72
    17
 73
    13
 74
     0
 42
0.0000000001
 43
0.0000000001
 12
1.0
 22
0.0
 32
0.0
 13
1.0
 23
0.0
 33
0.0
 40
0.0
 40
0.0
 40
0.0
 40
0.0
 40
1.0
 40
1.0
 40
1.0
 40
2.0
 40
2.0
 40
2.0
 40
3.0
 40
3.0
 40
3.0
 40
4.0
 40
4.0
 40
4.0
 40
4.0
 10
6.277470090738133
 20
-8.071536914001866
 30
0.0
 10
6.291645150962191
 20
-8.074100218806581
 30
0.0
 10
6.299945232813216
 20
-8.07858061224657
 30
0.0
 10
6.296010091899689
 20
-8.081539294077958
 30
0.0
 10
6.292082769085886
 20
-8.08450341929751
 30
0.0
 10
6.277401504594409
 20
-8.084824496768936
 30
0.0
 10
6.263231098616542
 20
-8.082265235926595
 30
0.0
 10
6.249060862622855
 20
-8.079702363447343
 30
0.0
 10
6.240757185064543
 20
-8.075222883975862
 30
0.0
 10
6.244689600758116
 20
-8.072260345264693
 30
0.0
 10
6.248619950876673
 20
-8.069300104632058
 30
0.0
 10
6.263299743522995
 20
-8.06897640463026
 30
0.0
 10
6.277470090738133
 20
-8.071536914001866
 30
0.0
  0
HATCH
  5
1AA
330
159
100
AcDbEntity
  8
Layer 5
 62
     9
420
 11978450
100
AcDbHatch
 10
0.0
 20
0.0
 30
0.0
210
0.0
220
0.0
230
1.0
  2
SOLID
 70
     1
 71
     0
 91
        1
 92
        1
 93
        1
 72
     4
 94
        3
 73
     0
 74
     1
 95
       17
 96
       13
 40
0.0
 40
0.0
 40
0.0
 40
0.0
 40
1.0
 40
1.0
 40
1.0
 40
2.0
 40
2.0
 40
2.0
 40
3.0
 40
3.0
 40
3.0
 40
4.0
 40
4.0
 40
4.0
 40
4.0
 10
6.277470090738133
 20
-8.071536914001866
 10
6.291645150962191
 20
-8.074100218806581
 10
6.299945232813216
 20
-8.07858061224657
 10
6.296010091899689
 20
-8.081539294077958
 10
6.292082769085886
 20
-8.08450341929751
 10
6.277401504594409
 20
-8.084824496768936
 10
6.263231098616542
 20
-8.082265235926595
 10
6.249060862622855
 20
-8.079702363447343
 10
6.240757185064543
 20
-8.075222883975862
 10
6.244689600758116
 20
-8.072260345264693
 10
6.248619950876673
 20
-8.069300104632058
 10
6.263299743522995
 20
-8.06897640463026
 10
6.277470090738133
 20
-8.071536914001866
 97
        0
 97
        0
 75
     2
 76
     1
 98
        0
  0
SPLINE
  5
1AB
330
159
100
AcDbEntity
  8
Layer 5
 62
   250
420
  2301728
370
     9
100
AcDbSpline
210
0.0
220
0.0
230
1.0
 70
    11
 71
     3
 72
    17
 73
    13
 74
     0
 42
0.0000000001
 43
0.0000000001
 12
1.0
 22
0.0
 32
0.0
 13
1.0
 23
0.0
 33
0.0
 40
0.0
 40
0.0
 40
0.0
 40
0.0
 40
1.0
 40
1.0
 40
1.0
 40
2.0
 40
2.0
 40
2.0
 40
3.0
 40
3.0
 40
3.0
 40
4.0
 40
4.0
 40
4.0
 40
4.0
 10
6.388195358850074
 20
-8.069254963595515
 30
0.0
 10
6.402370419074107
 20
-8.071818268400294
 30
0.0
 10
6.410670500925183
 20
-8.07629866184013
 30
0.0
 10
6.406735360011579
 20
-8.079257343671568
 30
0.0
 10
6.402808037197852
 20
-8.082221468891122
 30
0.0
 10
6.388126772706401
 20
-8.082542546362472
 30
0.0
 10
6.373956366743287
 20
-8.079983285207366
 30
0.0
 10
6.359786130734796
 20
-8.077420413040954
 30
0.0
 10
6.351482453176636
 20
-8.072940933569486
 30
0.0
 10
6.355414868870134
 20
-8.06997839485838
 30
0.0
 10
6.359345221771086
 20
-8.06701815448087
 30
0.0
 10
6.374025011635062
 20
-8.06669445422392
 30
0.0
 10
6.388195358850074
 20
-8.069254963595515
 30
0.0
  0
HATCH
  5
1AC
330
159
100
AcDbEntity
  8
Layer 5
 62
     9
420
 11978450
100
AcDbHatch
 10
0.0
 20
0.0
 30
0.0
210
0.0
220
0.0
230
1.0
  2
SOLID
 70
     1
 71
     0
 91
        1
 92
        1
 93
        1
 72
     4
 94
        3
 73
     0
 74
     1
 95
       17
 96
       13
 40
0.0
 40
0.0
 40
0.0
 40
0.0
 40
1.0
 40
1.0
 40
1.0
 40
2.0
 40
2.0
 40
2.0
 40
3.0
 40
3.0
 40
3.0
 40
4.0
 40
4.0
 40
4.0
 40
4.0
 10
6.388195358850074
 20
-8.069254963595515
 10
6.402370419074107
 20
-8.071818268400294
 10
6.410670500925183
 20
-8.07629866184013
 10
6.406735360011579
 20
-8.079257343671568
 10
6.402808037197852
 20
-8.082221468891122
 10
6.388126772706401
 20
-8.082542546362472
 10
6.373956366743287
 20
-8.079983285207366
 10
6.359786130734796
 20
-8.077420413040954
 10
6.351482453176636
 20
-8.072940933569486
 10
6.355414868870134
 20
-8.06997839485838
 10
6.359345221771086
 20
-8.06701815448087
 10
6.374025011635062
 20
-8.06669445422392
 10
6.388195358850074
 20
-8.069254963595515
 97
        0
 97
        0
 75
     2
 76
     1
 98
        0
  0
SPLINE
  5
1AD
330
159
100
AcDbEntity
  8
Layer 5
 62
   250
420
  2301728
370
     9
100
AcDbSpline
210
0.0
220
0.0
230
1.0
 70
    11
 71
     3
 72
    17
 73
    13
 74
     0
 42
0.0000000001
 43
0.0000000001
 12
1.0
 22
0.0
 32
0.0
 13
1.0
 23
0.0
 33
0.0
 40
0.0
 40
0.0
 40
0.0
 40
0.0
 40
1.0
 40
1.0
 40
1.0
 40
2.0
 40
2.0
 40
2.0
 40
3.0
 40
3.0
 40
3.0
 40
4.0
 40
4.0
 40
4.0
 40
4.0
 10
6.093370496218691
 20
-8.003035003116906
 30
0.0
 10
6.107545556442826
 20
-8.005598307921648
 30
0.0
 10
6.1158456382938
 20
-8.010078701361547
 30
0.0
 10
6.111910497380197
 20
-8.013037383192934
 30
0.0
 10
6.107983174566495
 20
-8.016001508412513
 30
0.0
 10
6.09330191007512
 20
-8.016322585883902
 30
0.0
 10
6.079131504158138
 20
-8.01376332374323
 30
0.0
 10
6.06496126810354
 20
-8.011200452562345
 30
0.0
 10
6.056657590545228
 20
-8.006720973090864
 30
0.0
 10
6.060591292573412
 20
-8.003758552362266
 30
0.0
 10
6.06452198377441
 20
-8.000798343013697
 30
0.0
 10
6.079200149003706
 20
-8.000474493745287
 30
0.0
 10
6.093370496218691
 20
-8.003035003116906
 30
0.0
  0
HATCH
  5
1AE
330
159
100
AcDbEntity
  8
Layer 5
 62
     9
420
 11978450
100
AcDbHatch
 10
0.0
 20
0.0
 30
0.0
210
0.0
220
0.0
230
1.0
  2
SOLID
 70
     1
 71
     0
 91
        1
 92
        1
 93
        1
 72
     4
 94
        3
 73
     0
 74
     1
 95
       17
 96
       13
 40
0.0
 40
0.0
 40
0.0
 40
0.0
 40
1.0
 40
1.0
 40
1.0
 40
2.0
 40
2.0
 40
2.0
 40
3.0
 40
3.0
 40
3.0
 40
4.0
 40
4.0
 40
4.0
 40
4.0
 10
6.093370496218691
 20
-8.003035003116906
 10
6.107545556442826
 20
-8.005598307921648
 10
6.1158456382938
 20
-8.010078701361547
 10
6.111910497380197
 20
-8.013037383192934
 10
6.107983174566495
 20
-8.016001508412513
 10
6.09330191007512
 20
-8.016322585883902
 10
6.079131504158138
 20
-8.01376332374323
 10
6.06496126810354
 20
-8.011200452562345
 10
6.056657590545228
 20
-8.006720973090864
 10
6.060591292573412
 20
-8.003758552362266
 10
6.06452198377441
 20
-8.000798343013697
 10
6.079200149003706
 20
-8.000474493745287
 10
6.093370496218691
 20
-8.003035003116906
 97
        0
 97
        0
 75
     2
 76
     1
 98
        0
  0
SPLINE
  5
1AF
330
159
100
AcDbEntity
  8
Layer 5
 62
   250
420
  2301728
370
     5
100
AcDbSpline
210
0.0
220
0.0
230
1.0
 70
    11
 71
     3
 72
    44
 73
    40
 74
     0
 42
0.0000000001
 43
0.0000000001
 12
1.0
 22
0.0
 32
0.0
 13
1.0
 23
0.0
 33
0.0
 40
0.0
 40
0.0
 40
0.0
 40
0.0
 40
1.0
 40
1.0
 40
1.0
 40
2.0
 40
2.0
 40
2.0
 40
3.0
 40
3.0
 40
3.0
 40
4.0
 40
4.0
 40
4.0
 40
5.0
 40
5.0
 40
5.0
 40
6.0
 40
6.0
 40
6.0
 40
7.0
 40
7.0
 40
7.0
 40
8.0
 40
8.0
 40
8.0
 40
9.0
 40
9.0
 40
9.0
 40
10.0
 40
10.0
 40
10.0
 40
11.0
 40
11.0
 40
11.0
 40
12.0
 40
12.0
 40
12.0
 40
13.0
 40
13.0
 40
13.0
 40
13.0
 10
5.990628948582323
 20
-8.204816130214365
 30
0.0
 10
5.993592283510932
 20
-8.20284483551816
 30
0.0
 10
5.997967580350683
 20
-8.202399246643784
 30
0.0
 10
5.997967580350683
 20
-8.202399246643784
 30
0.0
 10
5.997967580350683
 20
-8.202399246643784
 30
0.0
 10
6.007658805150716
 20
-8.202355300267097
 30
0.0
 10
6.018841373894373
 20
-8.204935672850473
 30
0.0
 10
6.030023942637677
 20
-8.2075160454339
 30
0.0
 10
6.08041284153713
 20
-8.217734661130383
 30
0.0
 10
6.085965929929519
 20
-8.219798698149537
 30
0.0
 10
6.088408202393035
 20
-8.220706000473204
 30
0.0
 10
6.094060604793614
 20
-8.222976066140165
 30
0.0
 10
6.099390722272497
 20
-8.225957791097926
 30
0.0
 10
6.101393684473199
 20
-8.227005701742302
 30
0.0
 10
6.103389025876544
 20
-8.228236472207906
 30
0.0
 10
6.105143442538873
 20
-8.229656488207562
 30
0.0
 10
6.10922222785689
 20
-8.232721423424966
 30
0.0
 10
6.11198555783858
 20
-8.23615139962673
 30
0.0
 10
6.110876601692325
 20
-8.239496234258947
 30
0.0
 10
6.109982937383923
 20
-8.242195433770677
 30
0.0
 10
6.107360339307408
 20
-8.243687083091446
 30
0.0
 10
6.104198344781985
 20
-8.244472151901794
 30
0.0
 10
6.104192713780245
 20
-8.24447452013904
 30
0.0
 10
6.102672457793283
 20
-8.24702817286738
 30
0.0
 10
6.10266682679167
 20
-8.247030541104676
 30
0.0
 10
6.10266682679167
 20
-8.247030541104676
 30
0.0
 10
6.118492590516502
 20
-8.24709696039718
 30
0.0
 10
6.118230378300445
 20
-8.237683189168768
 30
0.0
 10
6.120071445132958
 20
-8.232876985711199
 30
0.0
 10
6.112432578077485
 20
-8.223625454669495
 30
0.0
 10
6.088481576310212
 20
-8.217852841699974
 30
0.0
 10
6.066053598133648
 20
-8.212448268108322
 30
0.0
 10
6.025389621149897
 20
-8.203048744661576
 30
0.0
 10
6.018186469389193
 20
-8.201766188811966
 30
0.0
 10
6.010976644139595
 20
-8.200483020870353
 30
0.0
 10
5.992721124622777
 20
-8.197411895676648
 30
0.0
 10
5.990176964947699
 20
-8.20494957896901
 30
0.0
 10
5.990176964947699
 20
-8.20494957896901
 30
0.0
 10
5.990328882264268
 20
-8.204896557123623
 30
0.0
 10
5.990628948582323
 20
-8.204816130214365
 30
0.0
  0
ENDBLK
  5
15C
330
159
100
AcDbEntity
  8
0
100
AcDbBlockEnd
  0
BLOCK
  5
166
330
164
100
AcDbEntity
  8
0
100
AcDbBlockBegin
  2
block 4
 70
     0
 10
0.0
 20
0.0
 30
0.0
  3
block 4
  1

  0
SPLINE
  5
168
330
164
100
AcDbEntity
  8
Layer 5
 62
   250
420
  2301728
370
     5
100
AcDbSpline
210
0.0
220
0.0
230
1.0
 70
    11
 71
     3
 72
    17
 73
    13
 74
     0
 42
0.0000000001
 43
0.0000000001
 12
1.0
 22
0.0
 32
0.0
 13
1.0
 23
0.0
 33
0.0
 40
0.0
 40
0.0
 40
0.0
 40
0.0
 40
1.0
 40
1.0
 40
1.0
 40
2.0
 40
2.0
 40
2.0
 40
3.0
 40
3.0
 40
3.0
 40
4.0
 40
4.0
 40
4.0
 40
4.0
 10
6.068477564180082
 20
-8.022328188200492
 30
0.0
 10
6.082649543358457
 20
-8.024888847255637
 30
0.0
 10
6.09094994679314
 20
-8.02936927019117
 30
0.0
 10
6.087019518888559
 20
-8.032330747455754
 30
0.0
 10
6.083082635648806
 20
-8.035291632637431
 30
0.0
 10
6.068405838703685
 20
-8.035614363638249
 30
0.0
 10
6.054232386397794
 20
-8.033051206311635
 30
0.0
 10
6.040071686691943
 20
-8.030491581808986
 30
0.0
 10
6.031763506962912
 20
-8.026011689398704
 30
0.0
 10
6.035690835176283
 20
-8.023047449450132
 30
0.0
 10
6.039627578608209
 20
-8.02008902982584
 30
0.0
 10
6.054305860411861
 20
-8.019762703716626
 30
0.0
 10
6.068477564180082
 20
-8.022328188200492
 30
0.0
  0
ENDBLK
  5
167
330
164
100
AcDbEntity
  8
0
100
AcDbBlockEnd
  0
BLOCK
  5
16B
330
169
100
AcDbEntity
  8
0
100
AcDbBlockBegin
  2
block 5
 70
     0
 10
0.0
 20
0.0
 30
0.0
  3
block 5
  1

  0
SPLINE
  5
16D
330
169
100
AcDbEntity
  8
Layer 5
 62
   250
420
  2301728
370
     5
100
AcDbSpline
210
0.0
220
0.0
230
1.0
 70
    11
 71
     3
 72
    17
 73
    13
 74
     0
 42
0.0000000001
 43
0.0000000001
 12
1.0
 22
0.0
 32
0.0
 13
1.0
 23
0.0
 33
0.0
 40
0.0
 40
0.0
 40
0.0
 40
0.0
 40
1.0
 40
1.0
 40
1.0
 40
2.0
 40
2.0
 40
2.0
 40
3.0
 40
3.0
 40
3.0
 40
4.0
 40
4.0
 40
4.0
 40
4.0
 10
5.973204012363895
 20
-8.022296069605293
 30
0.0
 10
5.987374359578957
 20
-8.024856578976848
 30
0.0
 10
5.995676370931784
 20
-8.029337149390573
 30
0.0
 10
5.991745621443467
 20
-8.032298597159485
 30
0.0
 10
5.987809083449847
 20
-8.035259514007155
 30
0.0
 10
5.973130654924185
 20
-8.03558209535946
 30
0.0
 10
5.95895720261832
 20
-8.033018938032871
 30
0.0
 10
5.944796502912368
 20
-8.030459313530134
 30
0.0
 10
5.936488323183337
 20
-8.025979421119978
 30
0.0
 10
5.940415651386401
 20
-8.023015181390367
 30
0.0
 10
5.944352394828734
 20
-8.020056761547101
 30
0.0
 10
5.959030676632159
 20
-8.019730435437888
 30
0.0
 10
5.973204012363895
 20
-8.022296069605293
 30
0.0
  0
ENDBLK
  5
16C
330
169
100
AcDbEntity
  8
0
100
AcDbBlockEnd
  0
BLOCK
  5
170
330
16E
100
AcDbEntity
  8
0
100
AcDbBlockBegin
  2
block 6
 70
     0
 10
0.0
 20
0.0
 30
0.0
  3
block 6
  1

  0
SPLINE
  5
172
330
16E
100
AcDbEntity
  8
Layer 5
 62
   250
420
  2301728
370
     5
100
AcDbSpline
210
0.0
220
0.0
230
1.0
 70
    11
 71
     3
 72
    17
 73
    13
 74
     0
 42
0.0000000001
 43
0.0000000001
 12
1.0
 22
0.0
 32
0.0
 13
1.0
 23
0.0
 33
0.0
 40
0.0
 40
0.0
 40
0.0
 40
0.0
 40
1.0
 40
1.0
 40
1.0
 40
2.0
 40
2.0
 40
2.0
 40
3.0
 40
3.0
 40
3.0
 40
4.0
 40
4.0
 40
4.0
 40
4.0
 10
6.270439125489373
 20
-8.088737098099248
 30
0.0
 10
6.28461109950922
 20
-8.091297756681241
 30
0.0
 10
6.292911502943777
 20
-8.095778179616799
 30
0.0
 10
6.288981075039348
 20
-8.098739656881333
 30
0.0
 10
6.285044196958197
 20
-8.101700542536188
 30
0.0
 10
6.270367394854323
 20
-8.102023273063853
 30
0.0
 10
6.256193942548457
 20
-8.099460115737276
 30
0.0
 10
6.242031634924388
 20
-8.096900343756412
 30
0.0
 10
6.233723455195281
 20
-8.092420451346191
 30
0.0
 10
6.23765239127028
 20
-8.089456360080248
 30
0.0
 10
6.241589134758997
 20
-8.086497939251405
 30
0.0
 10
6.256266130227964
 20
-8.086171495159862
 30
0.0
 10
6.270439125489373
 20
-8.088737098099248
 30
0.0
  0
ENDBLK
  5
171
330
16E
100
AcDbEntity
  8
0
100
AcDbBlockEnd
  0
BLOCK
  5
175
330
173
100
AcDbEntity
  8
0
100
AcDbBlockBegin
  2
block 7
 70
     0
 10
0.0
 20
0.0
 30
0.0
  3
block 7
  1

  0
SPLINE
  5
177
330
173
100
AcDbEntity
  8
Layer 5
 62
   250
420
  2301728
370
     5
100
AcDbSpline
210
0.0
220
0.0
230
1.0
 70
    11
 71
     3
 72
    17
 73
    13
 74
     0
 42
0.0000000001
 43
0.0000000001
 12
1.0
 22
0.0
 32
0.0
 13
1.0
 23
0.0
 33
0.0
 40
0.0
 40
0.0
 40
0.0
 40
0.0
 40
1.0
 40
1.0
 40
1.0
 40
2.0
 40
2.0
 40
2.0
 40
3.0
 40
3.0
 40
3.0
 40
4.0
 40
4.0
 40
4.0
 40
4.0
 10
6.277788821009052
 20
-8.069821889862169
 30
0.0
 10
6.291960794866251
 20
-8.072382548429333
 30
0.0
 10
6.300261198300859
 20
-8.07686297136484
 30
0.0
 10
6.296330770396454
 20
-8.079824448629399
 30
0.0
 10
6.29239389247775
 20
-8.082785334299135
 30
0.0
 10
6.277717090211505
 20
-8.08310806481197
 30
0.0
 10
6.26354363790564
 20
-8.080544907485343
 30
0.0
 10
6.24938133028157
 20
-8.077985135504452
 30
0.0
 10
6.241073150552438
 20
-8.07350524309412
 30
0.0
 10
6.245002086650579
 20
-8.070541151335533
 30
0.0
 10
6.248938830116104
 20
-8.06758273099951
 30
0.0
 10
6.263615825585096
 20
-8.067256286907813
 30
0.0
 10
6.277788821009052
 20
-8.069821889862169
 30
0.0
  0
ENDBLK
  5
176
330
173
100
AcDbEntity
  8
0
100
AcDbBlockEnd
  0
BLOCK
  5
17A
330
178
100
AcDbEntity
  8
0
100
AcDbBlockBegin
  2
block 8
 70
     0
 10
0.0
 20
0.0
 30
0.0
  3
block 8
  1

  0
SPLINE
  5
17C
330
178
100
AcDbEntity
  8
Layer 5
 62
   250
420
  2301728
370
     5
100
AcDbSpline
210
0.0
220
0.0
230
1.0
 70
    11
 71
     3
 72
    17
 73
    13
 74
     0
 42
0.0000000001
 43
0.0000000001
 12
1.0
 22
0.0
 32
0.0
 13
1.0
 23
0.0
 33
0.0
 40
0.0
 40
0.0
 40
0.0
 40
0.0
 40
1.0
 40
1.0
 40
1.0
 40
2.0
 40
2.0
 40
2.0
 40
3.0
 40
3.0
 40
3.0
 40
4.0
 40
4.0
 40
4.0
 40
4.0
 10
6.388514091903517
 20
-8.067539939711057
 30
0.0
 10
6.402686062978319
 20
-8.070100598022956
 30
0.0
 10
6.410986466412951
 20
-8.074581020958489
 30
0.0
 10
6.407056038508547
 20
-8.07754249822306
 30
0.0
 10
6.403119163372139
 20
-8.080503384147985
 30
0.0
 10
6.388442358323573
 20
-8.080826114405605
 30
0.0
 10
6.374268906017631
 20
-8.078262957078953
 30
0.0
 10
6.360106598393713
 20
-8.075703185098165
 30
0.0
 10
6.35179841866448
 20
-8.071223292687856
 30
0.0
 10
6.355727354777299
 20
-8.068259200616366
 30
0.0
 10
6.359664098228197
 20
-8.065300780593134
 30
0.0
 10
6.374341093697138
 20
-8.064974336501438
 30
0.0
 10
6.388514091903517
 20
-8.067539939711057
 30
0.0
  0
ENDBLK
  5
17B
330
178
100
AcDbEntity
  8
0
100
AcDbBlockEnd
  0
BLOCK
  5
17F
330
17D
100
AcDbEntity
  8
0
100
AcDbBlockBegin
  2
block 9
 70
     0
 10
0.0
 20
0.0
 30
0.0
  3
block 9
  1

  0
SPLINE
  5
181
330
17D
100
AcDbEntity
  8
Layer 5
 62
   250
420
  2301728
370
     5
100
AcDbSpline
210
0.0
220
0.0
230
1.0
 70
    11
 71
     3
 72
    17
 73
    13
 74
     0
 42
0.0000000001
 43
0.0000000001
 12
1.0
 22
0.0
 32
0.0
 13
1.0
 23
0.0
 33
0.0
 40
0.0
 40
0.0
 40
0.0
 40
0.0
 40
1.0
 40
1.0
 40
1.0
 40
2.0
 40
2.0
 40
2.0
 40
3.0
 40
3.0
 40
3.0
 40
4.0
 40
4.0
 40
4.0
 40
4.0
 10
6.093689221777772
 20
-8.001319978545046
 30
0.0
 10
6.107861200346886
 20
-8.00388063754431
 30
0.0
 10
6.116161603781519
 20
-8.00836106047988
 30
0.0
 10
6.112231175877114
 20
-8.011322537744414
 30
0.0
 10
6.108294293246495
 20
-8.014283422982013
 30
0.0
 10
6.093617495692166
 20
-8.014606153926922
 30
0.0
 10
6.079444043386325
 20
-8.012042996600371
 30
0.0
 10
6.065281735762255
 20
-8.009483224619492
 30
0.0
 10
6.056975163951265
 20
-8.005003479687376
 30
0.0
 10
6.060902492192351
 20
-8.002039239152218
 30
0.0
 10
6.064839235596663
 20
-7.999080820114525
 30
0.0
 10
6.079516231065806
 20
-7.998754376022841
 30
0.0
 10
6.093689221777772
 20
-8.001319978545046
 30
0.0
  0
ENDBLK
  5
180
330
17D
100
AcDbEntity
  8
0
100
AcDbBlockEnd
  0
BLOCK
  5
186
330
184
100
AcDbEntity
  8
0
100
AcDbBlockBegin
  2
block 10
 70
     0
 10
0.0
 20
0.0
 30
0.0
  3
block 10
  1

  0
SPLINE
  5
188
330
184
100
AcDbEntity
  8
Layer 5
 62
   250
420
  2301728
370
     5
100
AcDbSpline
210
0.0
220
0.0
230
1.0
 70
     8
 71
     3
 72
    14
 73
    10
 74
     0
 42
0.0000000001
 43
0.0000000001
 12
1.0
 22
0.0
 32
0.0
 13
1.0
 23
0.0
 33
0.0
 40
0.0
 40
0.0
 40
0.0
 40
0.0
 40
1.0
 40
1.0
 40
1.0
 40
2.0
 40
2.0
 40
2.0
 40
3.0
 40
3.0
 40
3.0
 40
3.0
 10
5.958325579377035
 20
-8.146894689187622
 30
0.0
 10
5.958844185529667
 20
-8.135875923290161
 30
0.0
 10
5.960032675267408
 20
-8.054936567165743
 30
0.0
 10
5.96010124797696
 20
-8.053479610611614
 30
0.0
 10
5.960179003032636
 20
-8.051827557794013
 30
0.0
 10
5.964624322433438
 20
-8.048919400715274
 30
0.0
 10
5.970622633493854
 20
-8.047188497653362
 30
0.0
 10
5.974530955938639
 20
-8.046063079384982
 30
0.0
 10
5.983466658934958
 20
-8.04469586964381
 30
0.0
 10
5.990728302789724
 20
-8.043558700035607
 30
0.0
  0
SPLINE
  5
189
330
184
100
AcDbEntity
  8
Layer 5
 62
   250
420
  2301728
370
     5
100
AcDbSpline
210
0.0
220
0.0
230
1.0
 70
     8
 71
     3
 72
    29
 73
    25
 74
     0
 42
0.0000000001
 43
0.0000000001
 12
1.0
 22
0.0
 32
0.0
 13
1.0
 23
0.0
 33
0.0
 40
0.0
 40
0.0
 40
0.0
 40
0.0
 40
1.0
 40
1.0
 40
1.0
 40
2.0
 40
2.0
 40
2.0
 40
3.0
 40
3.0
 40
3.0
 40
4.0
 40
4.0
 40
4.0
 40
5.0
 40
5.0
 40
5.0
 40
6.0
 40
6.0
 40
6.0
 40
7.0
 40
7.0
 40
7.0
 40
8.0
 40
8.0
 40
8.0
 40
8.0
 10
5.999934294320004
 20
-8.042000188017747
 30
0.0
 10
6.005376006336418
 20
-8.04084136074314
 30
0.0
 10
6.029730868852564
 20
-8.041187637457444
 30
0.0
 10
6.046622210422862
 20
-8.045038634087835
 30
0.0
 10
6.057275788144048
 20
-8.047467255030622
 30
0.0
 10
6.060578839773572
 20
-8.05160474281504
 30
0.0
 10
6.055395902070864
 20
-8.053098246476615
 30
0.0
 10
6.055395902070864
 20
-8.053098246476615
 30
0.0
 10
6.05429266911253
 20
-8.053618941271022
 30
0.0
 10
6.05429266911253
 20
-8.053618941271022
 30
0.0
 10
6.05429266911253
 20
-8.053618941271022
 30
0.0
 10
6.027653281956797
 20
-8.059260060675241
 30
0.0
 10
6.02168741675132
 20
-8.060164347415782
 30
0.0
 10
6.015727983218691
 20
-8.061069224068849
 30
0.0
 10
6.012473327498204
 20
-8.06159905574873
 30
0.0
 10
6.012822560955631
 20
-8.065570095912197
 30
0.0
 10
6.013171794413034
 20
-8.069541136075523
 30
0.0
 10
6.01302136425415
 20
-8.162735692463432
 30
0.0
 10
6.013425640866166
 20
-8.16567447992333
 30
0.0
 10
6.013823485805106
 20
-8.168612677470694
 30
0.0
 10
6.008193934396685
 20
-8.173899749861043
 30
0.0
 10
5.988908591185438
 20
-8.171924434223204
 30
0.0
 10
5.969623306261458
 20
-8.169947880165005
 30
0.0
 10
5.957808639578186
 20
-8.157878050258761
 30
0.0
 10
5.95815836246705
 20
-8.150447527841026
 30
0.0
  0
ENDBLK
  5
187
330
184
100
AcDbEntity
  8
0
100
AcDbBlockEnd
  0
BLOCK
  5
1B8
330
1B6
100
AcDbEntity
  8
0
100
AcDbBlockBegin
  2
block 11
 70
     0
 10
0.0
 20
0.0
 30
0.0
  3
block 11
  1

  0
SPLINE
  5
1BA
330
1B6
100
AcDbEntity
  8
Layer 5
 62
   250
420
  2301728
370
     9
100
AcDbSpline
210
0.0
220
0.0
230
1.0
 70
    11
 71
     3
 72
    17
 73
    13
 74
     0
 42
0.0000000001
 43
0.0000000001
 12
1.0
 22
0.0
 32
0.0
 13
1.0
 23
0.0
 33
0.0
 40
0.0
 40
0.0
 40
0.0
 40
0.0
 40
1.0
 40
1.0
 40
1.0
 40
2.0
 40
2.0
 40
2.0
 40
3.0
 40
3.0
 40
3.0
 40
4.0
 40
4.0
 40
4.0
 40
4.0
 10
5.930623511932809
 20
-8.18650410681875
 30
0.0
 10
5.934146991426511
 20
-8.19273523647957
 30
0.0
 10
5.928463878188368
 20
-8.199223695173057
 30
0.0
 10
5.917930917169087
 20
-8.200994743568293
 30
0.0
 10
5.907391577798863
 20
-8.202765843670274
 30
0.0
 10
5.895994400976784
 20
-8.19914951097164
 30
0.0
 10
5.892470015754573
 20
-8.19292001930474
 30
0.0
 10
5.888939781707273
 20
-8.186688976361918
 30
0.0
 10
5.894622351102472
 20
-8.180202003096559
 30
0.0
 10
5.905158908946001
 20
-8.178429437152646
 30
0.0
 10
5.915691236719264
 20
-8.176660039538067
 30
0.0
 10
5.927099696438543
 20
-8.18027298069276
 30
0.0
 10
5.930623511932809
 20
-8.18650410681875
 30
0.0
  0
SPLINE
  5
1BB
330
1B6
100
AcDbEntity
  8
Layer 5
 62
   250
420
  2301728
370
     9
100
AcDbSpline
210
0.0
220
0.0
230
1.0
 70
    11
 71
     3
 72
    17
 73
    13
 74
     0
 42
0.0000000001
 43
0.0000000001
 12
1.0
 22
0.0
 32
0.0
 13
1.0
 23
0.0
 33
0.0
 40
0.0
 40
0.0
 40
0.0
 40
0.0
 40
1.0
 40
1.0
 40
1.0
 40
2.0
 40
2.0
 40
2.0
 40
3.0
 40
3.0
 40
3.0
 40
4.0
 40
4.0
 40
4.0
 40
4.0
 10
5.92461089705686
 20
-8.188257794892833
 30
0.0
 10
5.928134376550562
 20
-8.194488924553827
 30
0.0
 10
5.922451263312395
 20
-8.20097738324729
 30
0.0
 10
5.911918302293265
 20
-8.202748431642501
 30
0.0
 10
5.901378962903891
 20
-8.20451953179645
 30
0.0
 10
5.889981786100836
 20
-8.200903199045658
 30
0.0
 10
5.886457400657845
 20
-8.194673707433164
 30
0.0
 10
5.882927166831147
 20
-8.188442664436126
 30
0.0
 10
5.88860973622665
 20
-8.181955691170792
 30
0.0
 10
5.899146293868423
 20
-8.18018312522895
 30
0.0
 10
5.909678621843366
 20
-8.178413727612122
 30
0.0
 10
5.921087081562594
 20
-8.182026668767094
 30
0.0
 10
5.92461089705686
 20
-8.188257794892833
 30
0.0
  0
HATCH
  5
1BC
330
1B6
100
AcDbEntity
  8
Layer 5
 62
     9
420
 11978450
100
AcDbHatch
 10
0.0
 20
0.0
 30
0.0
210
0.0
220
0.0
230
1.0
  2
SOLID
 70
     1
 71
     0
 91
        1
 92
        1
 93
        1
 72
     4
 94
        3
 73
     0
 74
     1
 95
       17
 96
       13
 40
0.0
 40
0.0
 40
0.0
 40
0.0
 40
1.0
 40
1.0
 40
1.0
 40
2.0
 40
2.0
 40
2.0
 40
3.0
 40
3.0
 40
3.0
 40
4.0
 40
4.0
 40
4.0
 40
4.0
 10
5.92461089705686
 20
-8.188257794892833
 10
5.928134376550562
 20
-8.194488924553827
 10
5.922451263312395
 20
-8.20097738324729
 10
5.911918302293265
 20
-8.202748431642501
 10
5.901378962903891
 20
-8.20451953179645
 10
5.889981786100836
 20
-8.200903199045658
 10
5.886457400657845
 20
-8.194673707433164
 10
5.882927166831147
 20
-8.188442664436126
 10
5.88860973622665
 20
-8.181955691170792
 10
5.899146293868423
 20
-8.18018312522895
 10
5.909678621843366
 20
-8.178413727612122
 10
5.921087081562594
 20
-8.182026668767094
 10
5.92461089705686
 20
-8.188257794892833
 97
        0
 97
        0
 75
     2
 76
     1
 98
        0
  0
ENDBLK
  5
1B9
330
1B6
100
AcDbEntity
  8
0
100
AcDbBlockEnd
  0
BLOCK
  5
1BF
330
1BD
100
AcDbEntity
  8
0
100
AcDbBlockBegin
  2
block 12
 70
     0
 10
0.0
 20
0.0
 30
0.0
  3
block 12
  1

  0
SPLINE
  5
1C1
330
1BD
100
AcDbEntity
  8
Layer 5
 62
   250
420
  2301728
370
     9
100
AcDbSpline
210
0.0
220
0.0
230
1.0
 70
    11
 71
     3
 72
    17
 73
    13
 74
     0
 42
0.0000000001
 43
0.0000000001
 12
1.0
 22
0.0
 32
0.0
 13
1.0
 23
0.0
 33
0.0
 40
0.0
 40
0.0
 40
0.0
 40
0.0
 40
1.0
 40
1.0
 40
1.0
 40
2.0
 40
2.0
 40
2.0
 40
3.0
 40
3.0
 40
3.0
 40
4.0
 40
4.0
 40
4.0
 40
4.0
 10
5.950746099925001
 20
-8.273506453279627
 30
0.0
 10
5.954269579418729
 20
-8.279737582940419
 30
0.0
 10
5.948586466180586
 20
-8.286226041633931
 30
0.0
 10
5.938053505161305
 20
-8.287997090029142
 30
0.0
 10
5.927514165791081
 20
-8.289768190131124
 30
0.0
 10
5.916116988969002
 20
-8.286151857432463
 30
0.0
 10
5.912592603746766
 20
-8.27992236576559
 30
0.0
 10
5.90906236969949
 20
-8.273691322822792
 30
0.0
 10
5.91474493909469
 20
-8.26720434955742
 30
0.0
 10
5.925281496938194
 20
-8.265431783613495
 30
0.0
 10
5.935813824711456
 20
-8.263662385998941
 30
0.0
 10
5.94722228443076
 20
-8.267275327153609
 30
0.0
 10
5.950746099925001
 20
-8.273506453279627
 30
0.0
  0
SPLINE
  5
1C2
330
1BD
100
AcDbEntity
  8
Layer 5
 62
   250
420
  2301728
370
     9
100
AcDbSpline
210
0.0
220
0.0
230
1.0
 70
    11
 71
     3
 72
    17
 73
    13
 74
     0
 42
0.0000000001
 43
0.0000000001
 12
1.0
 22
0.0
 32
0.0
 13
1.0
 23
0.0
 33
0.0
 40
0.0
 40
0.0
 40
0.0
 40
0.0
 40
1.0
 40
1.0
 40
1.0
 40
2.0
 40
2.0
 40
2.0
 40
3.0
 40
3.0
 40
3.0
 40
4.0
 40
4.0
 40
4.0
 40
4.0
 10
5.944733485049079
 20
-8.275260141353707
 30
0.0
 10
5.94825696454278
 20
-8.281491271014703
 30
0.0
 10
5.942573851304612
 20
-8.28797972970814
 30
0.0
 10
5.932040890285432
 20
-8.2897507781034
 30
0.0
 10
5.921501550896108
 20
-8.291521878257324
 30
0.0
 10
5.910104374093053
 20
-8.28790554550652
 30
0.0
 10
5.906579988650062
 20
-8.281676053894014
 30
0.0
 10
5.903049754823365
 20
-8.275445010896975
 30
0.0
 10
5.908732324218868
 20
-8.268958037631666
 30
0.0
 10
5.91926888186064
 20
-8.267185471689825
 30
0.0
 10
5.929801209835583
 20
-8.265416074072997
 30
0.0
 10
5.941209669554811
 20
-8.269029015227943
 30
0.0
 10
5.944733485049079
 20
-8.275260141353707
 30
0.0
  0
HATCH
  5
1C3
330
1BD
100
AcDbEntity
  8
Layer 5
 62
     9
420
 11978450
100
AcDbHatch
 10
0.0
 20
0.0
 30
0.0
210
0.0
220
0.0
230
1.0
  2
SOLID
 70
     1
 71
     0
 91
        1
 92
        1
 93
        1
 72
     4
 94
        3
 73
     0
 74
     1
 95
       17
 96
       13
 40
0.0
 40
0.0
 40
0.0
 40
0.0
 40
1.0
 40
1.0
 40
1.0
 40
2.0
 40
2.0
 40
2.0
 40
3.0
 40
3.0
 40
3.0
 40
4.0
 40
4.0
 40
4.0
 40
4.0
 10
5.944733485049079
 20
-8.275260141353707
 10
5.94825696454278
 20
-8.281491271014703
 10
5.942573851304612
 20
-8.28797972970814
 10
5.932040890285432
 20
-8.2897507781034
 10
5.921501550896108
 20
-8.291521878257324
 10
5.910104374093053
 20
-8.28790554550652
 10
5.906579988650062
 20
-8.281676053894014
 10
5.903049754823365
 20
-8.275445010896975
 10
5.908732324218868
 20
-8.268958037631666
 10
5.91926888186064
 20
-8.267185471689825
 10
5.929801209835583
 20
-8.265416074072997
 10
5.941209669554811
 20
-8.269029015227943
 10
5.944733485049079
 20
-8.275260141353707
 97
        0
 97
        0
 75
     2
 76
     1
 98
        0
  0
ENDBLK
  5
1C0
330
1BD
100
AcDbEntity
  8
0
100
AcDbBlockEnd
  0
BLOCK
  5
1C6
330
1C4
100
AcDbEntity
  8
0
100
AcDbBlockBegin
  2
block 13
 70
     0
 10
0.0
 20
0.0
 30
0.0
  3
block 13
  1

  0
SPLINE
  5
1C8
330
1C4
100
AcDbEntity
  8
Layer 5
 62
   250
420
  2301728
370
     9
100
AcDbSpline
210
0.0
220
0.0
230
1.0
 70
    11
 71
     3
 72
    17
 73
    13
 74
     0
 42
0.0000000001
 43
0.0000000001
 12
1.0
 22
0.0
 32
0.0
 13
1.0
 23
0.0
 33
0.0
 40
0.0
 40
0.0
 40
0.0
 40
0.0
 40
1.0
 40
1.0
 40
1.0
 40
2.0
 40
2.0
 40
2.0
 40
3.0
 40
3.0
 40
3.0
 40
4.0
 40
4.0
 40
4.0
 40
4.0
 10
6.22228825719862
 20
-8.241974076558183
 30
0.0
 10
6.225811736692322
 20
-8.248205206219001
 30
0.0
 10
6.220128623454179
 20
-8.254693664912514
 30
0.0
 10
6.209595662434897
 20
-8.256464713307725
 30
0.0
 10
6.199056323064648
 20
-8.258235813409732
 30
0.0
 10
6.187659146242595
 20
-8.254619480711046
 30
0.0
 10
6.184134761020358
 20
-8.248389989044174
 30
0.0
 10
6.180604526973083
 20
-8.24215894610135
 30
0.0
 10
6.186287096368283
 20
-8.235671972836005
 30
0.0
 10
6.196823654211786
 20
-8.233899406892053
 30
0.0
 10
6.207355981985074
 20
-8.232130009277524
 30
0.0
 10
6.218764441704352
 20
-8.235742950432217
 30
0.0
 10
6.22228825719862
 20
-8.241974076558183
 30
0.0
  0
SPLINE
  5
1C9
330
1C4
100
AcDbEntity
  8
Layer 5
 62
   250
420
  2301728
370
     9
100
AcDbSpline
210
0.0
220
0.0
230
1.0
 70
    11
 71
     3
 72
    17
 73
    13
 74
     0
 42
0.0000000001
 43
0.0000000001
 12
1.0
 22
0.0
 32
0.0
 13
1.0
 23
0.0
 33
0.0
 40
0.0
 40
0.0
 40
0.0
 40
0.0
 40
1.0
 40
1.0
 40
1.0
 40
2.0
 40
2.0
 40
2.0
 40
3.0
 40
3.0
 40
3.0
 40
4.0
 40
4.0
 40
4.0
 40
4.0
 10
6.216275642322671
 20
-8.24372776463229
 30
0.0
 10
6.219799121816373
 20
-8.249958894293286
 30
0.0
 10
6.214116008578205
 20
-8.256447352986747
 30
0.0
 10
6.20358304755905
 20
-8.258218401381958
 30
0.0
 10
6.193043708169676
 20
-8.259989501535907
 30
0.0
 10
6.181646531366646
 20
-8.256373168785103
 30
0.0
 10
6.178122145923655
 20
-8.250143677172597
 30
0.0
 10
6.174591912096957
 20
-8.243912634175583
 30
0.0
 10
6.180274481492435
 20
-8.237425660910251
 30
0.0
 10
6.190811039134233
 20
-8.235653094968407
 30
0.0
 10
6.201343367109176
 20
-8.233883697351555
 30
0.0
 10
6.212751826828379
 20
-8.237496638506551
 30
0.0
 10
6.216275642322671
 20
-8.24372776463229
 30
0.0
  0
HATCH
  5
1CA
330
1C4
100
AcDbEntity
  8
Layer 5
 62
     9
420
 11978450
100
AcDbHatch
 10
0.0
 20
0.0
 30
0.0
210
0.0
220
0.0
230
1.0
  2
SOLID
 70
     1
 71
     0
 91
        1
 92
        1
 93
        1
 72
     4
 94
        3
 73
     0
 74
     1
 95
       17
 96
       13
 40
0.0
 40
0.0
 40
0.0
 40
0.0
 40
1.0
 40
1.0
 40
1.0
 40
2.0
 40
2.0
 40
2.0
 40
3.0
 40
3.0
 40
3.0
 40
4.0
 40
4.0
 40
4.0
 40
4.0
 10
6.216275642322671
 20
-8.24372776463229
 10
6.219799121816373
 20
-8.249958894293286
 10
6.214116008578205
 20
-8.256447352986747
 10
6.20358304755905
 20
-8.258218401381958
 10
6.193043708169676
 20
-8.259989501535907
 10
6.181646531366646
 20
-8.256373168785103
 10
6.178122145923655
 20
-8.250143677172597
 10
6.174591912096957
 20
-8.243912634175583
 10
6.180274481492435
 20
-8.237425660910251
 10
6.190811039134233
 20
-8.235653094968407
 10
6.201343367109176
 20
-8.233883697351555
 10
6.212751826828379
 20
-8.237496638506551
 10
6.216275642322671
 20
-8.24372776463229
 97
        0
 97
        0
 75
     2
 76
     1
 98
        0
  0
ENDBLK
  5
1C7
330
1C4
100
AcDbEntity
  8
0
100
AcDbBlockEnd
  0
BLOCK
  5
1CD
330
1CB
100
AcDbEntity
  8
0
100
AcDbBlockBegin
  2
block 14
 70
     0
 10
0.0
 20
0.0
 30
0.0
  3
block 14
  1

  0
SPLINE
  5
1CF
330
1CB
100
AcDbEntity
  8
Layer 5
 62
   250
420
  2301728
370
     9
100
AcDbSpline
210
0.0
220
0.0
230
1.0
 70
    11
 71
     3
 72
    17
 73
    13
 74
     0
 42
0.0000000001
 43
0.0000000001
 12
1.0
 22
0.0
 32
0.0
 13
1.0
 23
0.0
 33
0.0
 40
0.0
 40
0.0
 40
0.0
 40
0.0
 40
1.0
 40
1.0
 40
1.0
 40
2.0
 40
2.0
 40
2.0
 40
3.0
 40
3.0
 40
3.0
 40
4.0
 40
4.0
 40
4.0
 40
4.0
 10
6.199106369367049
 20
-8.318897496316644
 30
0.0
 10
6.202629848860751
 20
-8.325128625977438
 30
0.0
 10
6.196946735622608
 20
-8.331617084670976
 30
0.0
 10
6.186413774603326
 20
-8.333388133066212
 30
0.0
 10
6.175874435233077
 20
-8.335159233168168
 30
0.0
 10
6.164477258411049
 20
-8.331542900469532
 30
0.0
 10
6.160952873188787
 20
-8.32531340880266
 30
0.0
 10
6.157422639141512
 20
-8.319082365859812
 30
0.0
 10
6.163105208536737
 20
-8.312595392594453
 30
0.0
 10
6.173641766380241
 20
-8.31082282665054
 30
0.0
 10
6.184174094153503
 20
-8.309053429035986
 30
0.0
 10
6.195582553872756
 20
-8.312666370190678
 30
0.0
 10
6.199106369367049
 20
-8.318897496316644
 30
0.0
  0
SPLINE
  5
1D0
330
1CB
100
AcDbEntity
  8
Layer 5
 62
   250
420
  2301728
370
     9
100
AcDbSpline
210
0.0
220
0.0
230
1.0
 70
    11
 71
     3
 72
    17
 73
    13
 74
     0
 42
0.0000000001
 43
0.0000000001
 12
1.0
 22
0.0
 32
0.0
 13
1.0
 23
0.0
 33
0.0
 40
0.0
 40
0.0
 40
0.0
 40
0.0
 40
1.0
 40
1.0
 40
1.0
 40
2.0
 40
2.0
 40
2.0
 40
3.0
 40
3.0
 40
3.0
 40
4.0
 40
4.0
 40
4.0
 40
4.0
 10
6.1930937544911
 20
-8.320651184390751
 30
0.0
 10
6.196617233984802
 20
-8.326882314051748
 30
0.0
 10
6.190934120746634
 20
-8.333370772745209
 30
0.0
 10
6.180401159727479
 20
-8.33514182114042
 30
0.0
 10
6.16986182033813
 20
-8.336912921294369
 30
0.0
 10
6.1584646435351
 20
-8.333296588543565
 30
0.0
 10
6.154940258092084
 20
-8.327067096931058
 30
0.0
 10
6.151410024265386
 20
-8.32083605393402
 30
0.0
 10
6.157092593660864
 20
-8.314349080668686
 30
0.0
 10
6.167629151302663
 20
-8.312576514726869
 30
0.0
 10
6.17816147927763
 20
-8.310807117110041
 30
0.0
 10
6.189569938996834
 20
-8.314420058264988
 30
0.0
 10
6.1930937544911
 20
-8.320651184390751
 30
0.0
  0
HATCH
  5
1D1
330
1CB
100
AcDbEntity
  8
Layer 5
 62
     9
420
 11978450
100
AcDbHatch
 10
0.0
 20
0.0
 30
0.0
210
0.0
220
0.0
230
1.0
  2
SOLID
 70
     1
 71
     0
 91
        1
 92
        1
 93
        1
 72
     4
 94
        3
 73
     0
 74
     1
 95
       17
 96
       13
 40
0.0
 40
0.0
 40
0.0
 40
0.0
 40
1.0
 40
1.0
 40
1.0
 40
2.0
 40
2.0
 40
2.0
 40
3.0
 40
3.0
 40
3.0
 40
4.0
 40
4.0
 40
4.0
 40
4.0
 10
6.1930937544911
 20
-8.320651184390751
 10
6.196617233984802
 20
-8.326882314051748
 10
6.190934120746634
 20
-8.333370772745209
 10
6.180401159727479
 20
-8.33514182114042
 10
6.16986182033813
 20
-8.336912921294369
 10
6.1584646435351
 20
-8.333296588543565
 10
6.154940258092084
 20
-8.327067096931058
 10
6.151410024265386
 20
-8.32083605393402
 10
6.157092593660864
 20
-8.314349080668686
 10
6.167629151302663
 20
-8.312576514726869
 10
6.17816147927763
 20
-8.310807117110041
 10
6.189569938996834
 20
-8.314420058264988
 10
6.1930937544911
 20
-8.320651184390751
 97
        0
 97
        0
 75
     2
 76
     1
 98
        0
  0
ENDBLK
  5
1CE
330
1CB
100
AcDbEntity
  8
0
100
AcDbBlockEnd
  0
ENDSEC
  0
SECTION
  2
ENTITIES
  0
POLYLINE
  5
41
330
1F
100
AcDbEntity
  8
fill layer_
370
     0
100
AcDb2dPolyline
 66
     1
 10
0.0
 20
0.0
 30
0.0
  0
VERTEX
  5
42
330
41
100
AcDbEntity
  8
fill layer_
370
     0
100
AcDbVertex
100
AcDb2dVertex
 10
5.547555843352066
 20
-8.047682391924784
 30
0.0
  0
VERTEX
  5
43
330
41
100
AcDbEntity
  8
fill layer_
370
     0
100
AcDbVertex
100
AcDb2dVertex
 10
5.781915614422991
 20
-8.010663454064645
 30
0.0
  0
VERTEX
  5
44
330
41
100
AcDbEntity
  8
fill layer_
370
     0
100
AcDbVertex
100
AcDb2dVertex
 10
6.290931143278309
 20
-8.115495816439736
 30
0.0
  0
VERTEX
  5
45
330
41
100
AcDbEntity
  8
fill layer_
370
     0
100
AcDbVertex
100
AcDb2dVertex
 10
6.310661563321648
 20
-9.501605570390716
 30
0.0
  0
VERTEX
  5
46
330
41
100
AcDbEntity
  8
fill layer_
370
     0
100
AcDbVertex
100
AcDb2dVertex
 10
6.134961257606443
 20
-9.532818081751328
 30
0.0
  0
VERTEX
  5
47
330
41
100
AcDbEntity
  8
fill layer_
370
     0
100
AcDbVertex
100
AcDb2dVertex
 10
6.110065828554625
 20
-9.619527331363743
 30
0.0
  0
VERTEX
  5
48
330
41
100
AcDbEntity
  8
fill layer_
370
     0
100
AcDbVertex
100
AcDb2dVertex
 10
6.02974966714295
 20
-9.46269997936065
 30
0.0
  0
VERTEX
  5
49
330
41
100
AcDbEntity
  8
fill layer_
370
     0
100
AcDbVertex
100
AcDb2dVertex
 10
6.010908470750008
 20
-9.554868093264657
 30
0.0
  0
VERTEX
  5
4A
330
41
100
AcDbEntity
  8
fill layer_
370
     0
100
AcDbVertex
100
AcDb2dVertex
 10
5.783135681546885
 20
-9.595342860368165
 30
0.0
  0
VERTEX
  5
4B
330
41
100
AcDbEntity
  8
fill layer_
370
     0
100
AcDbVertex
100
AcDb2dVertex
 10
5.540596645015271
 20
-9.556499814701256
 30
0.0
  0
VERTEX
  5
4C
330
41
100
AcDbEntity
  8
fill layer_
370
     0
100
AcDbVertex
100
AcDb2dVertex
 10
5.547555843352066
 20
-8.047682391924784
 30
0.0
  0
SEQEND
  5
4E
330
41
100
AcDbEntity
  8
fill layer_
370
     0
  0
HATCH
  5
4D
330
1F
100
AcDbEntity
  8
fill layer_
 62
    33
420
 15180889
100
AcDbHatch
 10
0.0
 20
0.0
 30
0.0
210
0.0
220
0.0
230
1.0
  2
SOLID
 70
     1
 71
     0
 91
        1
 92
        1
 93
       10
 72
     1
 10
5.547555843352066
 20
-8.047682391924784
 11
5.781915614422991
 21
-8.010663454064645
 72
     1
 10
5.781915614422991
 20
-8.010663454064645
 11
6.290931143278309
 21
-8.115495816439736
 72
     1
 10
6.290931143278309
 20
-8.115495816439736
 11
6.310661563321648
 21
-9.501605570390716
 72
     1
 10
6.310661563321648
 20
-9.501605570390716
 11
6.134961257606443
 21
-9.532818081751328
 72
     1
 10
6.134961257606443
 20
-9.532818081751328
 11
6.110065828554625
 21
-9.619527331363743
 72
     1
 10
6.110065828554625
 20
-9.619527331363743
 11
6.02974966714295
 21
-9.46269997936065
 72
     1
 10
6.02974966714295
 20
-9.46269997936065
 11
6.010908470750008
 21
-9.554868093264657
 72
     1
 10
6.010908470750008
 20
-9.554868093264657
 11
5.783135681546885
 21
-9.595342860368165
 72
     1
 10
5.783135681546885
 20
-9.595342860368165
 11
5.540596645015271
 21
-9.556499814701256
 72
     1
 10
5.540596645015271
 20
-9.556499814701256
 11
5.547555843352066
 21
-8.047682391924784
 97
        0
 75
     2
 76
     1
 98
        0
  0
POLYLINE
  5
4F
330
1F
100
AcDbEntity
  8
fill layer_
370
     0
100
AcDb2dPolyline
 66
     1
 10
0.0
 20
0.0
 30
0.0
  0
VERTEX
  5
50
330
4F
100
AcDbEntity
  8
fill layer_
370
     0
100
AcDbVertex
100
AcDb2dVertex
 10
7.098577504245718
 20
-7.212408249192903
 30
0.0
  0
VERTEX
  5
51
330
4F
100
AcDbEntity
  8
fill layer_
370
     0
100
AcDbVertex
100
AcDb2dVertex
 10
7.248748125701872
 20
-7.2757492843847
 30
0.0
  0
VERTEX
  5
52
330
4F
100
AcDbEntity
  8
fill layer_
370
     0
100
AcDbVertex
100
AcDb2dVertex
 10
7.252776363673471
 20
-7.360394537012628
 30
0.0
  0
VERTEX
  5
53
330
4F
100
AcDbEntity
  8
fill layer_
370
     0
100
AcDbVertex
100
AcDb2dVertex
 10
7.373548106462244
 20
-7.338876593190257
 30
0.0
  0
VERTEX
  5
54
330
4F
100
AcDbEntity
  8
fill layer_
370
     0
100
AcDbVertex
100
AcDb2dVertex
 10
7.539955187100986
 20
-7.413347536171904
 30
0.0
  0
VERTEX
  5
55
330
4F
100
AcDbEntity
  8
fill layer_
370
     0
100
AcDbVertex
100
AcDb2dVertex
 10
7.714858936354276
 20
-7.395688367495532
 30
0.0
  0
VERTEX
  5
56
330
4F
100
AcDbEntity
  8
fill layer_
370
     0
100
AcDbVertex
100
AcDb2dVertex
 10
7.723046045014674
 20
-7.490106531046649
 30
0.0
  0
VERTEX
  5
57
330
4F
100
AcDbEntity
  8
fill layer_
370
     0
100
AcDbVertex
100
AcDb2dVertex
 10
7.839298079368366
 20
-7.537353615068152
 30
0.0
  0
VERTEX
  5
58
330
4F
100
AcDbEntity
  8
fill layer_
370
     0
100
AcDbVertex
100
AcDb2dVertex
 10
7.867866267058186
 20
-7.929159146207894
 30
0.0
  0
VERTEX
  5
59
330
4F
100
AcDbEntity
  8
fill layer_
370
     0
100
AcDbVertex
100
AcDb2dVertex
 10
5.166853583918269
 20
-8.24945038541009
 30
0.0
  0
VERTEX
  5
5A
330
4F
100
AcDbEntity
  8
fill layer_
370
     0
100
AcDbVertex
100
AcDb2dVertex
 10
5.044002618060428
 20
-8.227090813934687
 30
0.0
  0
VERTEX
  5
5B
330
4F
100
AcDbEntity
  8
fill layer_
370
     0
100
AcDbVertex
100
AcDb2dVertex
 10
5.08219724944052
 20
-8.193636170061609
 30
0.0
  0
VERTEX
  5
5C
330
4F
100
AcDbEntity
  8
fill layer_
370
     0
100
AcDbVertex
100
AcDb2dVertex
 10
4.8613139505732
 20
-8.24174226318486
 30
0.0
  0
VERTEX
  5
5D
330
4F
100
AcDbEntity
  8
fill layer_
370
     0
100
AcDbVertex
100
AcDb2dVertex
 10
4.918824806408856
 20
-8.204321134888207
 30
0.0
  0
VERTEX
  5
5E
330
4F
100
AcDbEntity
  8
fill layer_
370
     0
100
AcDbVertex
100
AcDb2dVertex
 10
4.744056440153448
 20
-8.17253700641105
 30
0.0
  0
VERTEX
  5
5F
330
4F
100
AcDbEntity
  8
fill layer_
370
     0
100
AcDbVertex
100
AcDb2dVertex
 10
4.749581016522484
 20
-8.014294862458858
 30
0.0
  0
VERTEX
  5
60
330
4F
100
AcDbEntity
  8
fill layer_
370
     0
100
AcDbVertex
100
AcDb2dVertex
 10
7.098577504245718
 20
-7.212408249192903
 30
0.0
  0
SEQEND
  5
62
330
4F
100
AcDbEntity
  8
fill layer_
370
     0
  0
HATCH
  5
61
330
1F
100
AcDbEntity
  8
fill layer_
 62
    33
420
 15180889
100
AcDbHatch
 10
0.0
 20
0.0
 30
0.0
210
0.0
220
0.0
230
1.0
  2
SOLID
 70
     1
 71
     0
 91
        1
 92
        1
 93
       16
 72
     1
 10
7.098577504245718
 20
-7.212408249192903
 11
7.248748125701872
 21
-7.2757492843847
 72
     1
 10
7.248748125701872
 20
-7.2757492843847
 11
7.252776363673471
 21
-7.360394537012628
 72
     1
 10
7.252776363673471
 20
-7.360394537012628
 11
7.373548106462244
 21
-7.338876593190257
 72
     1
 10
7.373548106462244
 20
-7.338876593190257
 11
7.539955187100986
 21
-7.413347536171904
 72
     1
 10
7.539955187100986
 20
-7.413347536171904
 11
7.714858936354276
 21
-7.395688367495532
 72
     1
 10
7.714858936354276
 20
-7.395688367495532
 11
7.723046045014674
 21
-7.490106531046649
 72
     1
 10
7.723046045014674
 20
-7.490106531046649
 11
7.839298079368366
 21
-7.537353615068152
 72
     1
 10
7.839298079368366
 20
-7.537353615068152
 11
7.867866267058186
 21
-7.929159146207894
 72
     1
 10
7.867866267058186
 20
-7.929159146207894
 11
5.166853583918269
 21
-8.24945038541009
 72
     1
 10
5.166853583918269
 20
-8.24945038541009
 11
5.044002618060428
 21
-8.227090813934687
 72
     1
 10
5.044002618060428
 20
-8.227090813934687
 11
5.08219724944052
 21
-8.193636170061609
 72
     1
 10
5.08219724944052
 20
-8.193636170061609
 11
4.8613139505732
 21
-8.24174226318486
 72
     1
 10
4.8613139505732
 20
-8.24174226318486
 11
4.918824806408856
 21
-8.204321134888207
 72
     1
 10
4.918824806408856
 20
-8.204321134888207
 11
4.744056440153448
 21
-8.17253700641105
 72
     1
 10
4.744056440153448
 20
-8.17253700641105
 11
4.749581016522484
 21
-8.014294862458858
 72
     1
 10
4.749581016522484
 20
-8.014294862458858
 11
7.098577504245718
 21
-7.212408249192903
 97
        0
 75
     2
 76
     1
 98
        0
  0
POLYLINE
  5
64
330
1F
100
AcDbEntity
  8
Wood
 62
   250
420
  2301728
370
    40
100
AcDb2dPolyline
 66
     1
 10
0.0
 20
0.0
 30
0.0
  0
VERTEX
  5
65
330
64
100
AcDbEntity
  8
Wood
 62
   250
420
  2301728
370
    40
100
AcDbVertex
100
AcDb2dVertex
 10
6.067473192311253
 20
-7.285186327565043
 30
0.0
  0
VERTEX
  5
1E5
330
64
100
AcDbEntity
  8
0
100
AcDbVertex
100
AcDb2dVertex
 10
6.067473192311253
 20
-7.285186327565043
 30
0.0
  0
SEQEND
  5
66
330
64
100
AcDbEntity
  8
Wood
 62
   250
420
  2301728
370
    40
  0
POLYLINE
  5
67
330
1F
100
AcDbEntity
  8
Wood
 62
   250
420
  2301728
370
    40
100
AcDb2dPolyline
 66
     1
 10
0.0
 20
0.0
 30
0.0
  0
VERTEX
  5
68
330
67
100
AcDbEntity
  8
Wood
 62
   250
420
  2301728
370
    40
100
AcDbVertex
100
AcDb2dVertex
 10
5.543156217843463
 20
-8.196562487991008
 30
0.0
  0
VERTEX
  5
69
330
67
100
AcDbEntity
  8
Wood
 62
   250
420
  2301728
370
    40
100
AcDbVertex
100
AcDb2dVertex
 10
5.166853583918269
 20
-8.24945038541009
 30
0.0
  0
VERTEX
  5
6A
330
67
100
AcDbEntity
  8
Wood
 62
   250
420
  2301728
370
    40
100
AcDbVertex
100
AcDb2dVertex
 10
5.044002618060428
 20
-8.227090813934687
 30
0.0
  0
VERTEX
  5
6B
330
67
100
AcDbEntity
  8
Wood
 62
   250
420
  2301728
370
    40
100
AcDbVertex
100
AcDb2dVertex
 10
5.08219724944052
 20
-8.193636170061609
 30
0.0
  0
VERTEX
  5
6C
330
67
100
AcDbEntity
  8
Wood
 62
   250
420
  2301728
370
    40
100
AcDbVertex
100
AcDb2dVertex
 10
4.8613139505732
 20
-8.24174226318486
 30
0.0
  0
VERTEX
  5
6D
330
67
100
AcDbEntity
  8
Wood
 62
   250
420
  2301728
370
    40
100
AcDbVertex
100
AcDb2dVertex
 10
4.918824806408856
 20
-8.204321134888207
 30
0.0
  0
VERTEX
  5
6E
330
67
100
AcDbEntity
  8
Wood
 62
   250
420
  2301728
370
    40
100
AcDbVertex
100
AcDb2dVertex
 10
4.744056440153448
 20
-8.17253700641105
 30
0.0
  0
VERTEX
  5
6F
330
67
100
AcDbEntity
  8
Wood
 62
   250
420
  2301728
370
    40
100
AcDbVertex
100
AcDb2dVertex
 10
4.749581016522484
 20
-8.014294862458858
 30
0.0
  0
VERTEX
  5
70
330
67
100
AcDbEntity
  8
Wood
 62
   250
420
  2301728
370
    40
100
AcDbVertex
100
AcDb2dVertex
 10
7.098577504245718
 20
-7.212408249192903
 30
0.0
  0
VERTEX
  5
71
330
67
100
AcDbEntity
  8
Wood
 62
   250
420
  2301728
370
    40
100
AcDbVertex
100
AcDb2dVertex
 10
7.248748125701872
 20
-7.2757492843847
 30
0.0
  0
VERTEX
  5
72
330
67
100
AcDbEntity
  8
Wood
 62
   250
420
  2301728
370
    40
100
AcDbVertex
100
AcDb2dVertex
 10
7.252776363673471
 20
-7.360394537012628
 30
0.0
  0
VERTEX
  5
73
330
67
100
AcDbEntity
  8
Wood
 62
   250
420
  2301728
370
    40
100
AcDbVertex
100
AcDb2dVertex
 10
7.373548106462244
 20
-7.338876593190257
 30
0.0
  0
VERTEX
  5
74
330
67
100
AcDbEntity
  8
Wood
 62
   250
420
  2301728
370
    40
100
AcDbVertex
100
AcDb2dVertex
 10
7.539955187100986
 20
-7.413347536171904
 30
0.0
  0
VERTEX
  5
75
330
67
100
AcDbEntity
  8
Wood
 62
   250
420
  2301728
370
    40
100
AcDbVertex
100
AcDb2dVertex
 10
7.714858936354276
 20
-7.395688367495532
 30
0.0
  0
VERTEX
  5
76
330
67
100
AcDbEntity
  8
Wood
 62
   250
420
  2301728
370
    40
100
AcDbVertex
100
AcDb2dVertex
 10
7.723046045014674
 20
-7.490106531046649
 30
0.0
  0
VERTEX
  5
77
330
67
100
AcDbEntity
  8
Wood
 62
   250
420
  2301728
370
    40
100
AcDbVertex
100
AcDb2dVertex
 10
7.839298079368366
 20
-7.537353615068152
 30
0.0
  0
VERTEX
  5
78
330
67
100
AcDbEntity
  8
Wood
 62
   250
420
  2301728
370
    40
100
AcDbVertex
100
AcDb2dVertex
 10
7.867866267058186
 20
-7.929159146207894
 30
0.0
  0
VERTEX
  5
79
330
67
100
AcDbEntity
  8
Wood
 62
   250
420
  2301728
370
    40
100
AcDbVertex
100
AcDb2dVertex
 10
6.293390205216156
 20
-8.114908365054033
 30
0.0
  0
SEQEND
  5
7A
330
67
100
AcDbEntity
  8
Wood
 62
   250
420
  2301728
370
    40
  0
POLYLINE
  5
7B
330
1F
100
AcDbEntity
  8
Wood
 62
   250
420
  2301728
370
    40
100
AcDb2dPolyline
 66
     1
 10
0.0
 20
0.0
 30
0.0
  0
VERTEX
  5
7C
330
7B
100
AcDbEntity
  8
Wood
 62
   250
420
  2301728
370
    40
100
AcDbVertex
100
AcDb2dVertex
 10
5.687713591025613
 20
-8.025554792492496
 30
0.0
  0
VERTEX
  5
7D
330
7B
100
AcDbEntity
  8
Wood
 62
   250
420
  2301728
370
    40
100
AcDbVertex
100
AcDb2dVertex
 10
7.397964548884223
 20
-7.764422576761312
 30
0.0
  0
VERTEX
  5
7E
330
7B
100
AcDbEntity
  8
Wood
 62
   250
420
  2301728
370
    40
100
AcDbVertex
100
AcDb2dVertex
 10
7.564440508592043
 20
-7.823151881061423
 30
0.0
  0
VERTEX
  5
7F
330
7B
100
AcDbEntity
  8
Wood
 62
   250
420
  2301728
370
    40
100
AcDbVertex
100
AcDb2dVertex
 10
7.746612187204366
 20
-7.81608504673703
 30
0.0
  0
VERTEX
  5
80
330
7B
100
AcDbEntity
  8
Wood
 62
   250
420
  2301728
370
    40
100
AcDbVertex
100
AcDb2dVertex
 10
7.543488604173919
 20
-7.884006935995721
 30
0.0
  0
VERTEX
  5
81
330
7B
100
AcDbEntity
  8
Wood
 62
   250
420
  2301728
370
    40
100
AcDbVertex
100
AcDb2dVertex
 10
7.718918051149936
 20
-7.877651852069903
 30
0.0
  0
VERTEX
  5
82
330
7B
100
AcDbEntity
  8
Wood
 62
   250
420
  2301728
370
    40
100
AcDbVertex
100
AcDb2dVertex
 10
7.867866267058186
 20
-7.929159146207894
 30
0.0
  0
SEQEND
  5
83
330
7B
100
AcDbEntity
  8
Wood
 62
   250
420
  2301728
370
    40
  0
POLYLINE
  5
84
330
1F
100
AcDbEntity
  8
Wood
 62
   250
420
  2301728
370
    40
100
AcDb2dPolyline
 66
     1
 10
0.0
 20
0.0
 30
0.0
  0
VERTEX
  5
85
330
84
100
AcDbEntity
  8
Wood
 62
   250
420
  2301728
370
    40
100
AcDbVertex
100
AcDb2dVertex
 10
4.742564060323174
 20
-8.171369229060803
 30
0.0
  0
VERTEX
  5
86
330
84
100
AcDbEntity
  8
Wood
 62
   250
420
  2301728
370
    40
100
AcDbVertex
100
AcDb2dVertex
 10
5.629386478635549
 20
-8.033363462326848
 30
0.0
  0
SEQEND
  5
87
330
84
100
AcDbEntity
  8
Wood
 62
   250
420
  2301728
370
    40
  0
POLYLINE
  5
88
330
1F
100
AcDbEntity
  8
Wood
 62
   250
420
  2301728
370
    40
100
AcDb2dPolyline
 66
     1
 10
0.0
 20
0.0
 30
0.0
  0
VERTEX
  5
89
330
88
100
AcDbEntity
  8
Wood
 62
   250
420
  2301728
370
    40
100
AcDbVertex
100
AcDb2dVertex
 10
7.373548106462244
 20
-7.338876593190257
 30
0.0
  0
VERTEX
  5
8A
330
88
100
AcDbEntity
  8
Wood
 62
   250
420
  2301728
370
    40
100
AcDbVertex
100
AcDb2dVertex
 10
7.397964548884223
 20
-7.764422576761312
 30
0.0
  0
SEQEND
  5
8B
330
88
100
AcDbEntity
  8
Wood
 62
   250
420
  2301728
370
    40
  0
POLYLINE
  5
8C
330
1F
100
AcDbEntity
  8
Wood
 62
   250
420
  2301728
370
    40
100
AcDb2dPolyline
 66
     1
 10
0.0
 20
0.0
 30
0.0
  0
VERTEX
  5
8D
330
8C
100
AcDbEntity
  8
Wood
 62
   250
420
  2301728
370
    40
100
AcDbVertex
100
AcDb2dVertex
 10
7.539955187100986
 20
-7.413347536171904
 30
0.0
  0
VERTEX
  5
8E
330
8C
100
AcDbEntity
  8
Wood
 62
   250
420
  2301728
370
    40
100
AcDbVertex
100
AcDb2dVertex
 10
7.564440508592043
 20
-7.823151881061423
 30
0.0
  0
SEQEND
  5
8F
330
8C
100
AcDbEntity
  8
Wood
 62
   250
420
  2301728
370
    40
  0
POLYLINE
  5
90
330
1F
100
AcDbEntity
  8
Wood
 62
   250
420
  2301728
370
    40
100
AcDb2dPolyline
 66
     1
 10
0.0
 20
0.0
 30
0.0
  0
VERTEX
  5
91
330
90
100
AcDbEntity
  8
Wood
 62
   250
420
  2301728
370
    40
100
AcDbVertex
100
AcDb2dVertex
 10
7.723046045014674
 20
-7.490106531046649
 30
0.0
  0
VERTEX
  5
92
330
90
100
AcDbEntity
  8
Wood
 62
   250
420
  2301728
370
    40
100
AcDbVertex
100
AcDb2dVertex
 10
7.746612187204366
 20
-7.81608504673703
 30
0.0
  0
SEQEND
  5
93
330
90
100
AcDbEntity
  8
Wood
 62
   250
420
  2301728
370
    40
  0
POLYLINE
  5
94
330
1F
100
AcDbEntity
  8
Wood
 62
   250
420
  2301728
370
    40
100
AcDb2dPolyline
 66
     1
 10
0.0
 20
0.0
 30
0.0
  0
VERTEX
  5
95
330
94
100
AcDbEntity
  8
Wood
 62
   250
420
  2301728
370
    40
100
AcDbVertex
100
AcDb2dVertex
 10
7.714719739883675
 20
-7.826484203005318
 30
0.0
  0
VERTEX
  5
96
330
94
100
AcDbEntity
  8
Wood
 62
   250
420
  2301728
370
    40
100
AcDbVertex
100
AcDb2dVertex
 10
7.718918051149936
 20
-7.877651852069903
 30
0.0
  0
SEQEND
  5
97
330
94
100
AcDbEntity
  8
Wood
 62
   250
420
  2301728
370
    40
  0
POLYLINE
  5
98
330
1F
100
AcDbEntity
  8
Wood
 62
   250
420
  2301728
370
    15
100
AcDb2dPolyline
 66
     1
 10
0.0
 20
0.0
 30
0.0
  0
VERTEX
  5
99
330
98
100
AcDbEntity
  8
Wood
 62
   250
420
  2301728
370
    15
100
AcDbVertex
100
AcDb2dVertex
 10
7.377135360048946
 20
-7.401340409870853
 30
0.0
  0
VERTEX
  5
9A
330
98
100
AcDbEntity
  8
Wood
 62
   250
420
  2301728
370
    15
100
AcDbVertex
100
AcDb2dVertex
 10
7.543441893081081
 20
-7.471666732900871
 30
0.0
  0
VERTEX
  5
9B
330
98
100
AcDbEntity
  8
Wood
 62
   250
420
  2301728
370
    15
100
AcDbVertex
100
AcDb2dVertex
 10
7.71956725616893
 20
-7.449987243285754
 30
0.0
  0
SEQEND
  5
9C
330
98
100
AcDbEntity
  8
Wood
 62
   250
420
  2301728
370
    15
  0
POLYLINE
  5
9D
330
1F
100
AcDbEntity
  8
Wood
 62
   250
420
  2301728
370
    15
100
AcDb2dPolyline
 66
     1
 10
0.0
 20
0.0
 30
0.0
  0
VERTEX
  5
9E
330
9D
100
AcDbEntity
  8
Wood
 62
   250
420
  2301728
370
    15
100
AcDbVertex
100
AcDb2dVertex
 10
7.380522310135878
 20
-7.460386399554054
 30
0.0
  0
VERTEX
  5
9F
330
9D
100
AcDbEntity
  8
Wood
 62
   250
420
  2301728
370
    15
100
AcDbVertex
100
AcDb2dVertex
 10
7.546905639371491
 20
-7.52973020618299
 30
0.0
  0
VERTEX
  5
A0
330
9D
100
AcDbEntity
  8
Wood
 62
   250
420
  2301728
370
    15
100
AcDbVertex
100
AcDb2dVertex
 10
7.722559141250384
 20
-7.504100066413393
 30
0.0
  0
SEQEND
  5
A1
330
9D
100
AcDbEntity
  8
Wood
 62
   250
420
  2301728
370
    15
  0
POLYLINE
  5
A2
330
1F
100
AcDbEntity
  8
Wood
 62
   250
420
  2301728
370
    15
100
AcDb2dPolyline
 66
     1
 10
0.0
 20
0.0
 30
0.0
  0
VERTEX
  5
A3
330
A2
100
AcDbEntity
  8
Wood
 62
   250
420
  2301728
370
    15
100
AcDbVertex
100
AcDb2dVertex
 10
7.386723009780781
 20
-7.524140709170827
 30
0.0
  0
VERTEX
  5
A4
330
A2
100
AcDbEntity
  8
Wood
 62
   250
420
  2301728
370
    15
100
AcDbVertex
100
AcDb2dVertex
 10
7.551173766514719
 20
-7.601162552913542
 30
0.0
  0
VERTEX
  5
A5
330
A2
100
AcDbEntity
  8
Wood
 62
   250
420
  2301728
370
    15
100
AcDbVertex
100
AcDb2dVertex
 10
7.726610338911642
 20
-7.571651433773821
 30
0.0
  0
SEQEND
  5
A6
330
A2
100
AcDbEntity
  8
Wood
 62
   250
420
  2301728
370
    15
  0
POLYLINE
  5
A7
330
1F
100
AcDbEntity
  8
Wood
 62
   250
420
  2301728
370
    15
100
AcDb2dPolyline
 66
     1
 10
0.0
 20
0.0
 30
0.0
  0
VERTEX
  5
A8
330
A7
100
AcDbEntity
  8
Wood
 62
   250
420
  2301728
370
    15
100
AcDbVertex
100
AcDb2dVertex
 10
7.387874952832767
 20
-7.59395716873405
 30
0.0
  0
VERTEX
  5
A9
330
A7
100
AcDbEntity
  8
Wood
 62
   250
420
  2301728
370
    15
100
AcDbVertex
100
AcDb2dVertex
 10
7.555255841000037
 20
-7.674829115022084
 30
0.0
  0
VERTEX
  5
AA
330
A7
100
AcDbEntity
  8
Wood
 62
   250
420
  2301728
370
    15
100
AcDbVertex
100
AcDb2dVertex
 10
7.734705608813227
 20
-7.656512824175731
 30
0.0
  0
SEQEND
  5
AB
330
A7
100
AcDbEntity
  8
Wood
 62
   250
420
  2301728
370
    15
  0
POLYLINE
  5
AC
330
1F
100
AcDbEntity
  8
Wood
 62
   250
420
  2301728
370
    15
100
AcDb2dPolyline
 66
     1
 10
0.0
 20
0.0
 30
0.0
  0
VERTEX
  5
AD
330
AC
100
AcDbEntity
  8
Wood
 62
   250
420
  2301728
370
    15
100
AcDbVertex
100
AcDb2dVertex
 10
7.391694178456772
 20
-7.683039975293
 30
0.0
  0
VERTEX
  5
AE
330
AC
100
AcDbEntity
  8
Wood
 62
   250
420
  2301728
370
    15
100
AcDbVertex
100
AcDb2dVertex
 10
7.560606240412729
 20
-7.758956587048614
 30
0.0
  0
VERTEX
  5
AF
330
AC
100
AcDbEntity
  8
Wood
 62
   250
420
  2301728
370
    15
100
AcDbVertex
100
AcDb2dVertex
 10
7.732084245620651
 20
-7.731655931883071
 30
0.0
  0
SEQEND
  5
B0
330
AC
100
AcDbEntity
  8
Wood
 62
   250
420
  2301728
370
    15
  0
POLYLINE
  5
B1
330
1F
100
AcDbEntity
  8
Wood
 62
   250
420
  2301728
370
    15
100
AcDb2dPolyline
 66
     1
 10
0.0
 20
0.0
 30
0.0
  0
VERTEX
  5
B2
330
B1
100
AcDbEntity
  8
Wood
 62
   250
420
  2301728
370
    15
100
AcDbVertex
100
AcDb2dVertex
 10
7.727368008671647
 20
-7.549925233064666
 30
0.0
  0
VERTEX
  5
B3
330
B1
100
AcDbEntity
  8
Wood
 62
   250
420
  2301728
370
    15
100
AcDbVertex
100
AcDb2dVertex
 10
7.842445140283644
 20
-7.580527333349285
 30
0.0
  0
SEQEND
  5
B4
330
B1
100
AcDbEntity
  8
Wood
 62
   250
420
  2301728
370
    15
  0
POLYLINE
  5
B5
330
1F
100
AcDbEntity
  8
Wood
 62
   250
420
  2301728
370
    15
100
AcDb2dPolyline
 66
     1
 10
0.0
 20
0.0
 30
0.0
  0
VERTEX
  5
B6
330
B5
100
AcDbEntity
  8
Wood
 62
   250
420
  2301728
370
    15
100
AcDbVertex
100
AcDb2dVertex
 10
7.730979013661479
 20
-7.599786554923879
 30
0.0
  0
VERTEX
  5
B7
330
B5
100
AcDbEntity
  8
Wood
 62
   250
420
  2301728
370
    15
100
AcDbVertex
100
AcDb2dVertex
 10
7.846713267426846
 20
-7.639085627542486
 30
0.0
  0
SEQEND
  5
B8
330
B5
100
AcDbEntity
  8
Wood
 62
   250
420
  2301728
370
    15
  0
POLYLINE
  5
B9
330
1F
100
AcDbEntity
  8
Wood
 62
   250
420
  2301728
370
    15
100
AcDb2dPolyline
 66
     1
 10
0.0
 20
0.0
 30
0.0
  0
VERTEX
  5
BA
330
B9
100
AcDbEntity
  8
Wood
 62
   250
420
  2301728
370
    15
100
AcDbVertex
100
AcDb2dVertex
 10
7.736321495939769
 20
-7.673769802415525
 30
0.0
  0
VERTEX
  5
BB
330
B9
100
AcDbEntity
  8
Wood
 62
   250
420
  2301728
370
    15
100
AcDbVertex
100
AcDb2dVertex
 10
7.851089067597614
 20
-7.699083256801966
 30
0.0
  0
SEQEND
  5
BC
330
B9
100
AcDbEntity
  8
Wood
 62
   250
420
  2301728
370
    15
  0
POLYLINE
  5
BD
330
1F
100
AcDbEntity
  8
Wood
 62
   250
420
  2301728
370
    15
100
AcDb2dPolyline
 66
     1
 10
0.0
 20
0.0
 30
0.0
  0
VERTEX
  5
BE
330
BD
100
AcDbEntity
  8
Wood
 62
   250
420
  2301728
370
    15
100
AcDbVertex
100
AcDb2dVertex
 10
7.741409046491121
 20
-7.744104042580172
 30
0.0
  0
VERTEX
  5
BF
330
BD
100
AcDbEntity
  8
Wood
 62
   250
420
  2301728
370
    15
100
AcDbVertex
100
AcDb2dVertex
 10
7.855797387412243
 20
-7.76363403015734
 30
0.0
  0
SEQEND
  5
C0
330
BD
100
AcDbEntity
  8
Wood
 62
   250
420
  2301728
370
    15
  0
POLYLINE
  5
C1
330
1F
100
AcDbEntity
  8
Wood
 62
   250
420
  2301728
370
    15
100
AcDb2dPolyline
 66
     1
 10
0.0
 20
0.0
 30
0.0
  0
VERTEX
  5
C2
330
C1
100
AcDbEntity
  8
Wood
 62
   250
420
  2301728
370
    15
100
AcDbVertex
100
AcDb2dVertex
 10
7.745406553508296
 20
-7.799477273532615
 30
0.0
  0
VERTEX
  5
C3
330
C1
100
AcDbEntity
  8
Wood
 62
   250
420
  2301728
370
    15
100
AcDbVertex
100
AcDb2dVertex
 10
7.859911130435067
 20
-7.820043614026063
 30
0.0
  0
SEQEND
  5
C4
330
C1
100
AcDbEntity
  8
Wood
 62
   250
420
  2301728
370
    15
  0
POLYLINE
  5
C5
330
1F
100
AcDbEntity
  8
Wood
 62
   250
420
  2301728
370
    15
100
AcDb2dPolyline
 66
     1
 10
0.0
 20
0.0
 30
0.0
  0
VERTEX
  5
C6
330
C5
100
AcDbEntity
  8
Wood
 62
   250
420
  2301728
370
    15
100
AcDbVertex
100
AcDb2dVertex
 10
7.720069994201948
 20
-7.844784659582526
 30
0.0
  0
VERTEX
  5
C7
330
C5
100
AcDbEntity
  8
Wood
 62
   250
420
  2301728
370
    15
100
AcDbVertex
100
AcDb2dVertex
 10
7.86448025756239
 20
-7.882738611036315
 30
0.0
  0
SEQEND
  5
C8
330
C5
100
AcDbEntity
  8
Wood
 62
   250
420
  2301728
370
    15
  0
POLYLINE
  5
C9
330
1F
100
AcDbEntity
  8
Wood
 62
   250
420
  2301728
370
    40
100
AcDb2dPolyline
 66
     1
 10
0.0
 20
0.0
 30
0.0
  0
VERTEX
  5
CA
330
C9
100
AcDbEntity
  8
Wood
 62
   250
420
  2301728
370
    40
100
AcDbVertex
100
AcDb2dVertex
 10
4.749581016522484
 20
-8.014294862458858
 30
0.0
  0
VERTEX
  5
CB
330
C9
100
AcDbEntity
  8
Wood
 62
   250
420
  2301728
370
    40
100
AcDbVertex
100
AcDb2dVertex
 10
4.75111535716495
 20
-7.921353244506589
 30
0.0
  0
SEQEND
  5
CC
330
C9
100
AcDbEntity
  8
Wood
 62
   250
420
  2301728
370
    40
  0
POLYLINE
  5
CD
330
1F
100
AcDbEntity
  8
Wood
 62
   250
420
  2301728
370
    40
100
AcDb2dPolyline
 66
     1
 10
0.0
 20
0.0
 30
0.0
  0
VERTEX
  5
CE
330
CD
100
AcDbEntity
  8
Wood
 62
   250
420
  2301728
370
    40
100
AcDbVertex
100
AcDb2dVertex
 10
5.781915614422991
 20
-8.010663454064645
 30
0.0
  0
VERTEX
  5
CF
330
CD
100
AcDbEntity
  8
Wood
 62
   250
420
  2301728
370
    40
100
AcDbVertex
100
AcDb2dVertex
 10
6.290931143278309
 20
-8.115495816439736
 30
0.0
  0
VERTEX
  5
D0
330
CD
100
AcDbEntity
  8
Wood
 62
   250
420
  2301728
370
    40
100
AcDbVertex
100
AcDb2dVertex
 10
6.310661563321648
 20
-9.501605570390716
 30
0.0
  0
VERTEX
  5
D1
330
CD
100
AcDbEntity
  8
Wood
 62
   250
420
  2301728
370
    40
100
AcDbVertex
100
AcDb2dVertex
 10
6.134961257606443
 20
-9.532818081751328
 30
0.0
  0
VERTEX
  5
D2
330
CD
100
AcDbEntity
  8
Wood
 62
   250
420
  2301728
370
    40
100
AcDbVertex
100
AcDb2dVertex
 10
6.110065828554625
 20
-9.619527331363743
 30
0.0
  0
VERTEX
  5
D3
330
CD
100
AcDbEntity
  8
Wood
 62
   250
420
  2301728
370
    40
100
AcDbVertex
100
AcDb2dVertex
 10
6.02974966714295
 20
-9.46269997936065
 30
0.0
  0
VERTEX
  5
D4
330
CD
100
AcDbEntity
  8
Wood
 62
   250
420
  2301728
370
    40
100
AcDbVertex
100
AcDb2dVertex
 10
6.010908470750008
 20
-9.554868093264657
 30
0.0
  0
VERTEX
  5
D5
330
CD
100
AcDbEntity
  8
Wood
 62
   250
420
  2301728
370
    40
100
AcDbVertex
100
AcDb2dVertex
 10
5.783135681546885
 20
-9.595342860368165
 30
0.0
  0
VERTEX
  5
D6
330
CD
100
AcDbEntity
  8
Wood
 62
   250
420
  2301728
370
    40
100
AcDbVertex
100
AcDb2dVertex
 10
5.540596645015271
 20
-9.556499814701256
 30
0.0
  0
VERTEX
  5
D7
330
CD
100
AcDbEntity
  8
Wood
 62
   250
420
  2301728
370
    40
100
AcDbVertex
100
AcDb2dVertex
 10
5.547555843352066
 20
-8.047682391924784
 30
0.0
  0
SEQEND
  5
D8
330
CD
100
AcDbEntity
  8
Wood
 62
   250
420
  2301728
370
    40
  0
POLYLINE
  5
D9
330
1F
100
AcDbEntity
  8
Wood
 62
   250
420
  2301728
370
    40
100
AcDb2dPolyline
 66
     1
 10
0.0
 20
0.0
 30
0.0
  0
VERTEX
  5
DA
330
D9
100
AcDbEntity
  8
Wood
 62
   250
420
  2301728
370
    40
100
AcDbVertex
100
AcDb2dVertex
 10
5.781915614422991
 20
-8.010663454064645
 30
0.0
  0
VERTEX
  5
DB
330
D9
100
AcDbEntity
  8
Wood
 62
   250
420
  2301728
370
    40
100
AcDbVertex
100
AcDb2dVertex
 10
5.783135681546885
 20
-9.595342860368165
 30
0.0
  0
SEQEND
  5
DC
330
D9
100
AcDbEntity
  8
Wood
 62
   250
420
  2301728
370
    40
  0
INSERT
  5
DF
330
1F
100
AcDbEntity
  8
plate
100
AcDbBlockReference
  2
block 2
 10
0.0
 20
0.0
 30
0.0
  0
POLYLINE
  5
150
330
1F
100
AcDbEntity
  8
plate
 62
   250
420
  2301728
370
    35
100
AcDb2dPolyline
 66
     1
 10
0.0
 20
0.0
 30
0.0
  0
VERTEX
  5
151
330
150
100
AcDbEntity
  8
plate
 62
   250
420
  2301728
370
    35
100
AcDbVertex
100
AcDb2dVertex
 10
7.373548106462244
 20
-7.338876593190257
 30
0.0
  0
VERTEX
  5
152
330
150
100
AcDbEntity
  8
plate
 62
   250
420
  2301728
370
    35
100
AcDbVertex
100
AcDb2dVertex
 10
7.397964548884223
 20
-7.764422576761312
 30
0.0
  0
VERTEX
  5
153
330
150
100
AcDbEntity
  8
plate
 62
   250
420
  2301728
370
    35
100
AcDbVertex
100
AcDb2dVertex
 10
4.742564060323174
 20
-8.171369229060803
 30
0.0
  0
VERTEX
  5
154
330
150
100
AcDbEntity
  8
plate
 62
   250
420
  2301728
370
    35
100
AcDbVertex
100
AcDb2dVertex
 10
4.75111535716495
 20
-7.921353244506589
 30
0.0
  0
VERTEX
  5
155
330
150
100
AcDbEntity
  8
plate
 62
   250
420
  2301728
370
    35
100
AcDbVertex
100
AcDb2dVertex
 10
7.373548106462244
 20
-7.338876593190257
 30
0.0
  0
SEQEND
  5
157
330
150
100
AcDbEntity
  8
plate
 62
   250
420
  2301728
370
    35
  0
HATCH
  5
156
330
1F
100
AcDbEntity
  8
plate
 62
    33
420
 15180889
100
AcDbHatch
 10
0.0
 20
0.0
 30
0.0
210
0.0
220
0.0
230
1.0
  2
SOLID
 70
     1
 71
     0
 91
        1
 92
        1
 93
        4
 72
     1
 10
7.373548106462244
 20
-7.338876593190257
 11
7.397964548884223
 21
-7.764422576761312
 72
     1
 10
7.397964548884223
 20
-7.764422576761312
 11
4.742564060323174
 21
-8.171369229060803
 72
     1
 10
4.742564060323174
 20
-8.171369229060803
 11
4.75111535716495
 21
-7.921353244506589
 72
     1
 10
4.75111535716495
 20
-7.921353244506589
 11
7.373548106462244
 21
-7.338876593190257
 97
        0
 75
     2
 76
     1
 98
        0
  0
INSERT
  5
15A
330
1F
100
AcDbEntity
  8
Layer 5
100
AcDbBlockReference
  2
block 3
 10
0.0
 20
0.0
 30
0.0
  0
SPLINE
  5
1B0
330
1F
100
AcDbEntity
  8
Layer 5
 62
   250
420
  2301728
370
    13
100
AcDbSpline
210
0.0
220
0.0
230
1.0
 70
    11
 71
     3
 72
    11
 73
     7
 74
     0
 42
0.0000000001
 43
0.0000000001
 12
1.0
 22
0.0
 32
0.0
 13
1.0
 23
0.0
 33
0.0
 40
0.0
 40
0.0
 40
0.0
 40
0.0
 40
1.0
 40
1.0
 40
1.0
 40
2.0
 40
2.0
 40
2.0
 40
2.0
 10
6.045358893341775
 20
-8.132100941888968
 30
0.0
 10
6.061561780345023
 20
-8.120789168711338
 30
0.0
 10
6.085872445170278
 20
-8.134935628171155
 30
0.0
 10
6.075249991736402
 20
-8.150269218955877
 30
0.0
 10
6.055408320729106
 20
-8.152298364891697
 30
0.0
 10
6.042320839278722
 20
-8.143719530147967
 30
0.0
 10
6.045358893341775
 20
-8.132100941888968
 30
0.0
  0
HATCH
  5
1B1
330
1F
100
AcDbEntity
  8
Layer 5
 62
     9
420
 11978450
100
AcDbHatch
 10
0.0
 20
0.0
 30
0.0
210
0.0
220
0.0
230
1.0
  2
SOLID
 70
     1
 71
     0
 91
        1
 92
        1
 93
        1
 72
     4
 94
        3
 73
     0
 74
     1
 95
       11
 96
        7
 40
0.0
 40
0.0
 40
0.0
 40
0.0
 40
1.0
 40
1.0
 40
1.0
 40
2.0
 40
2.0
 40
2.0
 40
2.0
 10
6.045358893341775
 20
-8.132100941888968
 10
6.061561780345023
 20
-8.120789168711338
 10
6.085872445170278
 20
-8.134935628171155
 10
6.075249991736402
 20
-8.150269218955877
 10
6.055408320729106
 20
-8.152298364891697
 10
6.042320839278722
 20
-8.143719530147967
 10
6.045358893341775
 20
-8.132100941888968
 97
        0
 97
        0
 75
     2
 76
     1
 98
        0
  0
SPLINE
  5
1B2
330
1F
100
AcDbEntity
  8
Layer 5
 62
   250
420
  2301728
370
     9
100
AcDbSpline
210
0.0
220
0.0
230
1.0
 70
     8
 71
     3
 72
    14
 73
    10
 74
     0
 42
0.0000000001
 43
0.0000000001
 12
1.0
 22
0.0
 32
0.0
 13
1.0
 23
0.0
 33
0.0
 40
0.0
 40
0.0
 40
0.0
 40
0.0
 40
1.0
 40
1.0
 40
1.0
 40
2.0
 40
2.0
 40
2.0
 40
3.0
 40
3.0
 40
3.0
 40
3.0
 10
6.045359116860987
 20
-8.132100910330564
 30
0.0
 10
6.045359116860987
 20
-8.132100910330564
 30
0.0
 10
6.049315784565023
 20
-8.127845513561244
 30
0.0
 10
6.049315784565023
 20
-8.127845513561244
 30
0.0
 10
6.049303888399562
 20
-8.126541467233967
 30
0.0
 10
6.06751722836053
 20
-8.116750107454486
 30
0.0
 10
6.078911488928118
 20
-8.130715072728055
 30
0.0
 10
6.087322644387389
 20
-8.1410239498191
 30
0.0
 10
6.08153681257305
 20
-8.150204072541857
 30
0.0
 10
6.075254122089746
 20
-8.150269192109237
 30
0.0
  0
SPLINE
  5
1B3
330
1F
100
AcDbEntity
  8
Layer 5
 62
   250
420
  2301728
370
    13
100
AcDbSpline
210
0.0
220
0.0
230
1.0
 70
    11
 71
     3
 72
    11
 73
     7
 74
     0
 42
0.0000000001
 43
0.0000000001
 12
1.0
 22
0.0
 32
0.0
 13
1.0
 23
0.0
 33
0.0
 40
0.0
 40
0.0
 40
0.0
 40
0.0
 40
1.0
 40
1.0
 40
1.0
 40
2.0
 40
2.0
 40
2.0
 40
2.0
 10
6.200203309329784
 20
-8.156522443423707
 30
0.0
 10
6.216406196333082
 20
-8.145210670246064
 30
0.0
 10
6.240716861158312
 20
-8.159357129705919
 30
0.0
 10
6.230094407724462
 20
-8.174690720490641
 30
0.0
 10
6.210252736717166
 20
-8.176719866426462
 30
0.0
 10
6.197165255266756
 20
-8.168141031682707
 30
0.0
 10
6.200203309329784
 20
-8.156522443423707
 30
0.0
  0
HATCH
  5
1B4
330
1F
100
AcDbEntity
  8
Layer 5
 62
     9
420
 11978450
100
AcDbHatch
 10
0.0
 20
0.0
 30
0.0
210
0.0
220
0.0
230
1.0
  2
SOLID
 70
     1
 71
     0
 91
        1
 92
        1
 93
        1
 72
     4
 94
        3
 73
     0
 74
     1
 95
       11
 96
        7
 40
0.0
 40
0.0
 40
0.0
 40
0.0
 40
1.0
 40
1.0
 40
1.0
 40
2.0
 40
2.0
 40
2.0
 40
2.0
 10
6.200203309329784
 20
-8.156522443423707
 10
6.216406196333082
 20
-8.145210670246064
 10
6.240716861158312
 20
-8.159357129705919
 10
6.230094407724462
 20
-8.174690720490641
 10
6.210252736717166
 20
-8.176719866426462
 10
6.197165255266756
 20
-8.168141031682707
 10
6.200203309329784
 20
-8.156522443423707
 97
        0
 97
        0
 75
     2
 76
     1
 98
        0
  0
SPLINE
  5
1B5
330
1F
100
AcDbEntity
  8
Layer 5
 62
   250
420
  2301728
370
     9
100
AcDbSpline
210
0.0
220
0.0
230
1.0
 70
     8
 71
     3
 72
    14
 73
    10
 74
     0
 42
0.0000000001
 43
0.0000000001
 12
1.0
 22
0.0
 32
0.0
 13
1.0
 23
0.0
 33
0.0
 40
0.0
 40
0.0
 40
0.0
 40
0.0
 40
1.0
 40
1.0
 40
1.0
 40
2.0
 40
2.0
 40
2.0
 40
3.0
 40
3.0
 40
3.0
 40
3.0
 10
6.200203532849021
 20
-8.156522411865302
 30
0.0
 10
6.200203532849021
 20
-8.156522411865302
 30
0.0
 10
6.204160200553082
 20
-8.152267015095983
 30
0.0
 10
6.204160200553082
 20
-8.152267015095983
 30
0.0
 10
6.204148304387596
 20
-8.150962968768706
 30
0.0
 10
6.222361644348539
 20
-8.141171608989225
 30
0.0
 10
6.233755904916178
 20
-8.155136574262794
 30
0.0
 10
6.242167060375449
 20
-8.165445451353865
 30
0.0
 10
6.236381228561109
 20
-8.174625574076622
 30
0.0
 10
6.23009853807778
 20
-8.174690693644
 30
0.0
  0
INSERT
  5
1B7
330
1F
100
AcDbEntity
  8
Layer 5
100
AcDbBlockReference
  2
block 11
 10
0.0
 20
0.0
 30
0.0
  0
INSERT
  5
1BE
330
1F
100
AcDbEntity
  8
Layer 5
100
AcDbBlockReference
  2
block 12
 10
0.0
 20
0.0
 30
0.0
  0
INSERT
  5
1C5
330
1F
100
AcDbEntity
  8
Layer 5
100
AcDbBlockReference
  2
block 13
 10
0.0
 20
0.0
 30
0.0
  0
INSERT
  5
1CC
330
1F
100
AcDbEntity
  8
Layer 5
100
AcDbBlockReference
  2
block 14
 10
0.0
 20
0.0
 30
0.0
  0
POLYLINE
  5
1D3
330
1F
100
AcDbEntity
  8
callout
 62
   250
420
  2301728
370
    18
100
AcDb2dPolyline
 66
     1
 10
0.0
 20
0.0
 30
0.0
  0
VERTEX
  5
1D4
330
1D3
100
AcDbEntity
  8
callout
 62
   250
420
  2301728
370
    18
100
AcDbVertex
100
AcDb2dVertex
 10
7.274608601600725
 20
-8.279642162939783
 30
0.0
  0
VERTEX
  5
1D5
330
1D3
100
AcDbEntity
  8
callout
 62
   250
420
  2301728
370
    18
100
AcDbVertex
100
AcDb2dVertex
 10
6.949276117871023
 20
-8.036524055044563
 30
0.0
  0
SEQEND
  5
1D6
330
1D3
100
AcDbEntity
  8
callout
 62
   250
420
  2301728
370
    18
  0
POLYLINE
  5
1D7
330
1F
100
AcDbEntity
  8
callout
 62
   250
420
  2301728
370
    18
100
AcDb2dPolyline
 66
     1
 10
0.0
 20
0.0
 30
0.0
  0
VERTEX
  5
1D8
330
1D7
100
AcDbEntity
  8
callout
 62
   250
420
  2301728
370
    18
100
AcDbVertex
100
AcDb2dVertex
 10
6.646054584806911
 20
-9.061686304355362
 30
0.0
  0
VERTEX
  5
1D9
330
1D7
100
AcDbEntity
  8
callout
 62
   250
420
  2301728
370
    18
100
AcDbVertex
100
AcDb2dVertex
 10
6.294396716849152
 20
-8.886265641899525
 30
0.0
  0
SEQEND
  5
1DA
330
1D7
100
AcDbEntity
  8
callout
 62
   250
420
  2301728
370
    18
  0
MTEXT
  5
1DB
330
1F
100
AcDbEntity
  8
callout
 62
   250
420
  2301728
100
AcDbMText
 10
6.723169538709852
 20
-9.11275863647461
 30
0.0
 40
0.118
 41
0.0
 46
0.0
 71
     7
 72
     1
  1
\fHelvetica Neue LT Std 57 Condensed|b0|i0|c0|p34;\W1;Stud 
 73
     1
 44
1.0
  0
POLYLINE
  5
1DC
330
1F
100
AcDbEntity
  8
callout
 62
   250
420
  2301728
370
    18
100
AcDb2dPolyline
 66
     1
 10
0.0
 20
0.0
 30
0.0
  0
VERTEX
  5
1DD
330
1DC
100
AcDbEntity
  8
callout
 62
   250
420
  2301728
370
    18
100
AcDbVertex
100
AcDb2dVertex
 10
6.638100321195073
 20
-8.515103513591056
 30
0.0
  0
VERTEX
  5
1DE
330
1DC
100
AcDbEntity
  8
callout
 62
   250
420
  2301728
370
    18
100
AcDbVertex
100
AcDb2dVertex
 10
6.255287121687009
 20
-8.307366769657063
 30
0.0
  0
SEQEND
  5
1DF
330
1DC
100
AcDbEntity
  8
callout
 62
   250
420
  2301728
370
    18
  0
MTEXT
  5
1E0
330
1F
100
AcDbEntity
  8
callout
 62
   250
420
  2301728
100
AcDbMText
 10
6.687437269422743
 20
-8.580064879523382
 30
0.0
 40
0.118
 41
0.0
 46
0.0
 71
     7
 72
     1
  1
\fHelvetica Neue LT Std 57 Condensed|b0|i0|c0|p34;\W1;E5
 73
     1
 44
1.0
  0
MTEXT
  5
1E1
330
1F
100
AcDbEntity
  8
callout
 62
   250
420
  2301728
100
AcDbMText
 10
7.096334669325087
 20
-8.463978343539768
 30
0.0
 40
0.118
 41
0.0
 46
0.0
 71
     7
 72
     1
  1
\fHelvetica Neue LT Std 57 Condensed|b0|i0|c0|p34;\W1;Top Plate
 73
     1
 44
1.0
  0
MTEXT
  5
1E2
330
1F
100
AcDbEntity
  8
callout
 62
   250
420
  2236191
100
AcDbMText
 10
5.186858654022217
 20
-10.02086867226495
 30
0.0
 40
0.118
 41
0.0
 46
0.0
 71
     7
 72
     1
  1
\fHelvetica Neue LT Std 55 Roman|b0|i0|c0|p34;\W1;SIMPSON Strong-Tie\H0.068794;®\H0.118; ^C
 73
     1
 44
1.0
  0
MTEXT
  5
1E3
330
1F
100
AcDbEntity
  8
callout
 62
   250
420
  2236191
100
AcDbMText
 10
4.813567638397217
 20
-10.22086053424411
 30
0.0
 40
0.118
 41
0.0
 46
0.0
 71
     7
 72
     1
  1
\fHelvetica Neue LT Std 55 Roman|b0|i0|c0|p34;\W1;E5 Stud-to-Top Plate Installation 
 73
     1
 44
1.0
  0
ENDSEC
  0
SECTION
  2
OBJECTS
  0
DICTIONARY
  5
C
330
0
100
AcDbDictionary
281
     1
  3
ACAD_GROUP
350
D
  3
ACAD_LAYOUT
350
1A
  3
ACAD_MATERIAL
350
3B
  3
ACAD_MLEADERSTYLE
350
1E7
  3
ACAD_MLINESTYLE
350
17
  3
ACAD_PLOTSETTINGS
350
19
  3
ACAD_PLOTSTYLENAME
350
E
  3
ACAD_TABLESTYLE
350
1E6
  3
ACAD_VISUALSTYLE
350
2A
  0
SUN
  5
3F
330
29
100
AcDbSun
 90
        1
290
     0
 63
     7
421
 16777215
 40
1.0
291
     1
 91
  2455826
 92
 54000000
292
     0
 70
     2
 71
   256
280
     1
  0
DICTIONARY
  5
D
102
{ACAD_REACTORS
330
C
102
}
330
C
100
AcDbDictionary
281
     1
  0
DICTIONARY
  5
1A
102
{ACAD_REACTORS
330
C
102
}
330
C
100
AcDbDictionary
281
     1
  3
Layout1
350
1E
  3
Layout2
350
26
  3
Model
350
22
  0
DICTIONARY
  5
3B
102
{ACAD_REACTORS
330
C
102
}
330
C
100
AcDbDictionary
281
     1
  3
ByBlock
350
3D
  3
ByLayer
350
3C
  3
Global
350
3E
  0
DICTIONARY
  5
1E7
102
{ACAD_REACTORS
330
C
102
}
330
C
100
AcDbDictionary
281
     1
  0
DICTIONARY
  5
17
102
{ACAD_REACTORS
330
C
102
}
330
C
100
AcDbDictionary
281
     1
  3
Standard
350
18
  0
DICTIONARY
  5
19
102
{ACAD_REACTORS
330
C
102
}
330
C
100
AcDbDictionary
281
     1
  0
ACDBDICTIONARYWDFLT
  5
E
102
{ACAD_REACTORS
330
C
102
}
330
C
100
AcDbDictionary
281
     1
  3
Normal
350
F
100
AcDbDictionaryWithDefault
340
F
  0
DICTIONARY
  5
1E6
102
{ACAD_REACTORS
330
C
102
}
330
C
100
AcDbDictionary
281
     1
  0
DICTIONARY
  5
2A
102
{ACAD_REACTORS
330
C
102
}
330
C
100
AcDbDictionary
281
     1
  3
2dWireframe
350
2F
  3
3D Hidden
350
31
  3
3dWireframe
350
30
  3
Basic
350
32
  3
Brighten
350
36
  3
ColorChange
350
3A
  3
Conceptual
350
34
  3
Dim
350
35
  3
Facepattern
350
39
  3
Flat
350
2B
  3
FlatWithEdges
350
2C
  3
Gouraud
350
2D
  3
GouraudWithEdges
350
2E
  3
Linepattern
350
38
  3
Realistic
350
33
  3
Thicken
350
37
  0
LAYOUT
  5
1E
102
{ACAD_REACTORS
330
1A
102
}
330
1A
100
AcDbPlotSettings
  1

  2
none_device
  4

  6

 40
0.0
 41
0.0
 42
0.0
 43
0.0
 44
0.0
 45
0.0
 46
0.0
 47
0.0
 48
0.0
 49
0.0
140
0.0
141
0.0
142
1.0
143
1.0
 70
   688
 72
     0
 73
     0
 74
     5
  7

 75
    16
 76
     0
 77
     2
 78
   300
147
1.0
148
0.0
149
0.0
100
AcDbLayout
  1
Layout1
 70
     1
 71
     1
 10
0.0
 20
0.0
 11
12.0
 21
9.0
 12
0.0
 22
0.0
 32
0.0
 14
1.000000000000000E+20
 24
1.000000000000000E+20
 34
1.000000000000000E+20
 15
-1.000000000000000E+20
 25
-1.000000000000000E+20
 35
-1.000000000000000E+20
146
0.0
 13
0.0
 23
0.0
 33
0.0
 16
1.0
 26
0.0
 36
0.0
 17
0.0
 27
1.0
 37
0.0
 76
     0
330
1B
  0
LAYOUT
  5
26
102
{ACAD_REACTORS
330
1A
102
}
330
1A
100
AcDbPlotSettings
  1

  2
none_device
  4

  6

 40
0.0
 41
0.0
 42
0.0
 43
0.0
 44
0.0
 45
0.0
 46
0.0
 47
0.0
 48
0.0
 49
0.0
140
0.0
141
0.0
142
1.0
143
1.0
 70
   688
 72
     0
 73
     0
 74
     5
  7

 75
    16
 76
     0
 77
     2
 78
   300
147
1.0
148
0.0
149
0.0
100
AcDbLayout
  1
Layout2
 70
     1
 71
     2
 10
0.0
 20
0.0
 11
0.0
 21
0.0
 12
0.0
 22
0.0
 32
0.0
 14
0.0
 24
0.0
 34
0.0
 15
0.0
 25
0.0
 35
0.0
146
0.0
 13
0.0
 23
0.0
 33
0.0
 16
1.0
 26
0.0
 36
0.0
 17
0.0
 27
1.0
 37
0.0
 76
     0
330
23
  0
LAYOUT
  5
22
102
{ACAD_REACTORS
330
1A
102
}
330
1A
100
AcDbPlotSettings
  1

  2
none_device
  4

  6

 40
0.0
 41
0.0
 42
0.0
 43
0.0
 44
0.0
 45
0.0
 46
0.0
 47
0.0
 48
0.0
 49
0.0
140
0.0
141
0.0
142
1.0
143
1.0
 70
  1712
 72
     0
 73
     0
 74
     0
  7

 75
     0
 76
     0
 77
     2
 78
   300
147
1.0
148
0.0
149
0.0
100
AcDbLayout
  1
Model
 70
     1
 71
     0
 10
0.0
 20
0.0
 11
12.0
 21
9.0
 12
0.0
 22
0.0
 32
0.0
 14
1.000000000000000E+20
 24
1.000000000000000E+20
 34
1.000000000000000E+20
 15
-1.000000000000000E+20
 25
-1.000000000000000E+20
 35
-1.000000000000000E+20
146
0.0
 13
0.0
 23
0.0
 33
0.0
 16
1.0
 26
0.0
 36
0.0
 17
0.0
 27
1.0
 37
0.0
 76
     0
330
1F
331
29
  0
MATERIAL
  5
3D
102
{ACAD_REACTORS
330
3B
102
}
330
3B
100
AcDbMaterial
  1
ByBlock
 72
     1
 94
      127
  0
MATERIAL
  5
3C
102
{ACAD_REACTORS
330
3B
102
}
330
3B
100
AcDbMaterial
  1
ByLayer
 72
     1
 94
      127
  0
MATERIAL
  5
3E
102
{ACAD_REACTORS
330
3B
102
}
330
3B
100
AcDbMaterial
  1
Global
 72
     1
 94
      127
  0
MLINESTYLE
  5
18
102
{ACAD_REACTORS
330
17
102
}
330
17
100
AcDbMlineStyle
  2
Standard
 70
     0
  3

 62
   256
 51
90.0
 52
90.0
 71
     2
 49
0.5
 62
   256
  6
BYLAYER
 49
-0.5
 62
   256
  6
BYLAYER
  0
ACDBPLACEHOLDER
  5
F
102
{ACAD_REACTORS
330
E
102
}
330
E
  0
VISUALSTYLE
  5
2F
102
{ACAD_REACTORS
330
2A
102
}
330
2A
100
AcDbVisualStyle
  2
2dWireframe
 70
     4
177
     2
291
     0
 71
     0
176
     1
 72
     2
176
     1
 73
     0
176
     1
 90
        0
176
     1
 40
-0.6
176
     1
 41
-30.0
176
     1
 62
     5
 63
     7
421
 16777215
176
     1
 74
     1
176
     1
 91
        4
176
     1
 64
     7
176
     1
 65
   257
176
     1
 75
     1
176
     1
175
     1
176
     1
 42
1.0
176
     1
 92
        0
176
     1
 66
   257
176
     1
 43
1.0
176
     1
 76
     1
176
     1
 77
     6
176
     1
 78
     2
176
     1
 67
     7
176
     1
 79
     5
176
     1
170
     0
176
     1
171
     0
176
     1
290
     0
176
     1
 93
        1
176
     1
 44
0.0
176
     1
173
     0
176
     1
  0
VISUALSTYLE
  5
31
102
{ACAD_REACTORS
330
2A
102
}
330
2A
100
AcDbVisualStyle
  2
3D Hidden
 70
     6
177
     2
291
     0
 71
     1
176
     1
 72
     2
176
     1
 73
     2
176
     1
 90
        0
176
     1
 40
-0.6
176
     1
 41
-30.0
176
     1
 62
     5
 63
     7
421
 16777215
176
     1
 74
     2
176
     1
 91
        2
176
     1
 64
     7
176
     1
 65
   257
176
     1
 75
     2
176
     1
175
     1
176
     1
 42
40.0
176
     1
 92
        0
176
     1
 66
   257
176
     1
 43
1.0
176
     1
 76
     1
176
     1
 77
     6
176
     1
 78
     2
176
     1
 67
     7
176
     1
 79
     3
176
     1
170
     0
176
     1
171
     0
176
     1
290
     0
176
     1
 93
        1
176
     1
 44
0.0
176
     1
173
     0
176
     1
  0
VISUALSTYLE
  5
30
102
{ACAD_REACTORS
330
2A
102
}
330
2A
100
AcDbVisualStyle
  2
3dWireframe
 70
     5
177
     2
291
     0
 71
     0
176
     1
 72
     2
176
     1
 73
     0
176
     1
 90
        0
176
     1
 40
-0.6
176
     1
 41
-30.0
176
     1
 62
     5
 63
     7
421
 16777215
176
     1
 74
     1
176
     1
 91
        4
176
     1
 64
     7
176
     1
 65
   257
176
     1
 75
     1
176
     1
175
     1
176
     1
 42
1.0
176
     1
 92
        0
176
     1
 66
   257
176
     1
 43
1.0
176
     1
 76
     1
176
     1
 77
     6
176
     1
 78
     2
176
     1
 67
     7
176
     1
 79
     5
176
     1
170
     0
176
     1
171
     0
176
     1
290
     0
176
     1
 93
        1
176
     1
 44
0.0
176
     1
173
     0
176
     1
  0
VISUALSTYLE
  5
32
102
{ACAD_REACTORS
330
2A
102
}
330
2A
100
AcDbVisualStyle
  2
Basic
 70
     7
177
     2
291
     1
 71
     1
176
     1
 72
     0
176
     1
 73
     1
176
     1
 90
        0
176
     1
 40
-0.6
176
     1
 41
-30.0
176
     1
 62
     5
 63
     7
421
 16777215
176
     1
 74
     0
176
     1
 91
        4
176
     1
 64
     7
176
     1
 65
   257
176
     1
 75
     1
176
     1
175
     1
176
     1
 42
1.0
176
     1
 92
        8
176
     1
 66
     7
176
     1
 43
1.0
176
     1
 76
     1
176
     1
 77
     6
176
     1
 78
     2
176
     1
 67
     7
176
     1
 79
     5
176
     1
170
     0
176
     1
171
     0
176
     1
290
     0
176
     1
 93
        1
176
     1
 44
0.0
176
     1
173
     0
176
     1
  0
VISUALSTYLE
  5
36
102
{ACAD_REACTORS
330
2A
102
}
330
2A
100
AcDbVisualStyle
  2
Brighten
 70
    12
177
     2
291
     1
 71
     2
176
     1
 72
     2
176
     1
 73
     0
176
     1
 90
        0
176
     1
 40
-0.6
176
     1
 41
-30.0
176
     1
 62
     5
 63
     7
421
 16777215
176
     1
 74
     1
176
     1
 91
        4
176
     1
 64
     7
176
     1
 65
   257
176
     1
 75
     1
176
     1
175
     1
176
     1
 42
1.0
176
     1
 92
        8
176
     1
 66
     7
176
     1
 43
1.0
176
     1
 76
     1
176
     1
 77
     6
176
     1
 78
     2
176
     1
 67
     7
176
     1
 79
     5
176
     1
170
     0
176
     1
171
     0
176
     1
290
     0
176
     1
 93
        1
176
     1
 44
50.0
176
     1
173
     0
176
     1
  0
VISUALSTYLE
  5
3A
102
{ACAD_REACTORS
330
2A
102
}
330
2A
100
AcDbVisualStyle
  2
ColorChange
 70
    16
177
     2
291
     1
 71
     2
176
     1
 72
     2
176
     1
 73
     3
176
     1
 90
        0
176
     1
 40
-0.6
176
     1
 41
-30.0
176
     1
 62
     5
 63
     8
421
  8421504
176
     1
 74
     1
176
     1
 91
        4
176
     1
 64
     7
176
     1
 65
   257
176
     1
 75
     1
176
     1
175
     1
176
     1
 42
1.0
176
     1
 92
        8
176
     1
 66
     8
424
  8421504
176
     1
 43
1.0
176
     1
 76
     1
176
     1
 77
     6
176
     1
 78
     2
176
     1
 67
     7
176
     1
 79
     5
176
     1
170
     0
176
     1
171
     0
176
     1
290
     0
176
     1
 93
        1
176
     1
 44
0.0
176
     1
173
     0
176
     1
  0
VISUALSTYLE
  5
34
102
{ACAD_REACTORS
330
2A
102
}
330
2A
100
AcDbVisualStyle
  2
Conceptual
 70
     9
177
     2
291
     0
 71
     3
176
     1
 72
     2
176
     1
 73
     0
176
     1
 90
        0
176
     1
 40
-0.6
176
     1
 41
-30.0
176
     1
 62
     5
 63
     7
421
 16777215
176
     1
 74
     2
176
     1
 91
        2
176
     1
 64
     7
176
     1
 65
   257
176
     1
 75
     1
176
     1
175
     1
176
     1
 42
40.0
176
     1
 92
        8
176
     1
 66
     7
176
     1
 43
1.0
176
     1
 76
     1
176
     1
 77
     6
176
     1
 78
     2
176
     1
 67
     7
176
     1
 79
     3
176
     1
170
     0
176
     1
171
     0
176
     1
290
     0
176
     1
 93
        1
176
     1
 44
0.0
176
     1
173
     0
176
     1
  0
VISUALSTYLE
  5
35
102
{ACAD_REACTORS
330
2A
102
}
330
2A
100
AcDbVisualStyle
  2
Dim
 70
    11
177
     2
291
     1
 71
     2
176
     1
 72
     2
176
     1
 73
     0
176
     1
 90
        0
176
     1
 40
-0.6
176
     1
 41
-30.0
176
     1
 62
     5
 63
     7
421
 16777215
176
     1
 74
     1
176
     1
 91
        4
176
     1
 64
     7
176
     1
 65
   257
176
     1
 75
     1
176
     1
175
     1
176
     1
 42
1.0
176
     1
 92
        8
176
     1
 66
     7
176
     1
 43
1.0
176
     1
 76
     1
176
     1
 77
     6
176
     1
 78
     2
176
     1
 67
     7
176
     1
 79
     5
176
     1
170
     0
176
     1
171
     0
176
     1
290
     0
176
     1
 93
        1
176
     1
 44
-50.0
176
     1
173
     0
176
     1
  0
VISUALSTYLE
  5
39
102
{ACAD_REACTORS
330
2A
102
}
330
2A
100
AcDbVisualStyle
  2
Facepattern
 70
    15
177
     2
291
     1
 71
     2
176
     1
 72
     2
176
     1
 73
     0
176
     1
 90
        0
176
     1
 40
-0.6
176
     1
 41
-30.0
176
     1
 62
     5
 63
     7
421
 16777215
176
     1
 74
     1
176
     1
 91
        4
176
     1
 64
     7
176
     1
 65
   257
176
     1
 75
     1
176
     1
175
     1
176
     1
 42
1.0
176
     1
 92
        8
176
     1
 66
     7
176
     1
 43
1.0
176
     1
 76
     1
176
     1
 77
     6
176
     1
 78
     2
176
     1
 67
     7
176
     1
 79
     5
176
     1
170
     0
176
     1
171
     0
176
     1
290
     0
176
     1
 93
        1
176
     1
 44
0.0
176
     1
173
     0
176
     1
  0
VISUALSTYLE
  5
2B
102
{ACAD_REACTORS
330
2A
102
}
330
2A
100
AcDbVisualStyle
  2
Flat
 70
     0
177
     2
291
     1
 71
     2
176
     1
 72
     1
176
     1
 73
     1
176
     1
 90
        2
176
     1
 40
-0.6
176
     1
 41
30.0
176
     1
 62
     5
 63
     7
421
 16777215
176
     1
 74
     0
176
     1
 91
        4
176
     1
 64
     7
176
     1
 65
   257
176
     1
 75
     1
176
     1
175
     1
176
     1
 42
1.0
176
     1
 92
        8
176
     1
 66
     7
176
     1
 43
1.0
176
     1
 76
     1
176
     1
 77
     6
176
     1
 78
     2
176
     1
 67
     7
176
     1
 79
     5
176
     1
170
     0
176
     1
171
     0
176
     1
290
     0
176
     1
 93
       13
176
     1
 44
0.0
176
     1
173
     0
176
     1
  0
VISUALSTYLE
  5
2C
102
{ACAD_REACTORS
330
2A
102
}
330
2A
100
AcDbVisualStyle
  2
FlatWithEdges
 70
     1
177
     2
291
     1
 71
     2
176
     1
 72
     1
176
     1
 73
     1
176
     1
 90
        2
176
     1
 40
-0.6
176
     1
 41
30.0
176
     1
 62
     5
 63
     7
421
 16777215
176
     1
 74
     1
176
     1
 91
        4
176
     1
 64
     7
176
     1
 65
   257
176
     1
 75
     1
176
     1
175
     1
176
     1
 42
1.0
176
     1
 92
        0
176
     1
 66
   257
176
     1
 43
1.0
176
     1
 76
     1
176
     1
 77
     6
176
     1
 78
     2
176
     1
 67
     7
176
     1
 79
     5
176
     1
170
     0
176
     1
171
     0
176
     1
290
     0
176
     1
 93
       13
176
     1
 44
0.0
176
     1
173
     0
176
     1
  0
VISUALSTYLE
  5
2D
102
{ACAD_REACTORS
330
2A
102
}
330
2A
100
AcDbVisualStyle
  2
Gouraud
 70
     2
177
     2
291
     1
 71
     2
176
     1
 72
     2
176
     1
 73
     1
176
     1
 90
        2
176
     1
 40
-0.6
176
     1
 41
30.0
176
     1
 62
     5
 63
     7
421
 16777215
176
     1
 74
     0
176
     1
 91
        4
176
     1
 64
     7
176
     1
 65
   257
176
     1
 75
     1
176
     1
175
     1
176
     1
 42
1.0
176
     1
 92
        0
176
     1
 66
     7
176
     1
 43
1.0
176
     1
 76
     1
176
     1
 77
     6
176
     1
 78
     2
176
     1
 67
     7
176
     1
 79
     5
176
     1
170
     0
176
     1
171
     0
176
     1
290
     0
176
     1
 93
       13
176
     1
 44
0.0
176
     1
173
     0
176
     1
  0
VISUALSTYLE
  5
2E
102
{ACAD_REACTORS
330
2A
102
}
330
2A
100
AcDbVisualStyle
  2
GouraudWithEdges
 70
     3
177
     2
291
     1
 71
     2
176
     1
 72
     2
176
     1
 73
     1
176
     1
 90
        2
176
     1
 40
-0.6
176
     1
 41
30.0
176
     1
 62
     5
 63
     7
421
 16777215
176
     1
 74
     1
176
     1
 91
        4
176
     1
 64
     7
176
     1
 65
   257
176
     1
 75
     1
176
     1
175
     1
176
     1
 42
1.0
176
     1
 92
        0
176
     1
 66
   257
176
     1
 43
1.0
176
     1
 76
     1
176
     1
 77
     6
176
     1
 78
     2
176
     1
 67
     7
176
     1
 79
     5
176
     1
170
     0
176
     1
171
     0
176
     1
290
     0
176
     1
 93
       13
176
     1
 44
0.0
176
     1
173
     0
176
     1
  0
VISUALSTYLE
  5
38
102
{ACAD_REACTORS
330
2A
102
}
330
2A
100
AcDbVisualStyle
  2
Linepattern
 70
    14
177
     2
291
     1
 71
     2
176
     1
 72
     2
176
     1
 73
     0
176
     1
 90
        0
176
     1
 40
-0.6
176
     1
 41
-30.0
176
     1
 62
     5
 63
     7
421
 16777215
176
     1
 74
     1
176
     1
 91
        4
176
     1
 64
     7
176
     1
 65
   257
176
     1
 75
     7
176
     1
175
     7
176
     1
 42
1.0
176
     1
 92
        8
176
     1
 66
     7
176
     1
 43
1.0
176
     1
 76
     1
176
     1
 77
     6
176
     1
 78
     2
176
     1
 67
     7
176
     1
 79
     5
176
     1
170
     0
176
     1
171
     0
176
     1
290
     0
176
     1
 93
        1
176
     1
 44
0.0
176
     1
173
     0
176
     1
  0
VISUALSTYLE
  5
33
102
{ACAD_REACTORS
330
2A
102
}
330
2A
100
AcDbVisualStyle
  2
Realistic
 70
     8
177
     2
291
     0
 71
     2
176
     1
 72
     2
176
     1
 73
     0
176
     1
 90
        0
176
     1
 40
-0.6
176
     1
 41
-30.0
176
     1
 62
     5
 63
     7
421
 16777215
176
     1
 74
     1
176
     1
 91
        0
176
     1
 64
     7
176
     1
 65
   257
176
     1
 75
     1
176
     1
175
     1
176
     1
 42
1.0
176
     1
 92
        8
176
     1
 66
     8
424
  7895160
176
     1
 43
1.0
176
     1
 76
     1
176
     1
 77
     6
176
     1
 78
     2
176
     1
 67
     7
176
     1
 79
     5
176
     1
170
     0
176
     1
171
     0
176
     1
290
     0
176
     1
 93
       13
176
     1
 44
0.0
176
     1
173
     0
176
     1
  0
VISUALSTYLE
  5
37
102
{ACAD_REACTORS
330
2A
102
}
330
2A
100
AcDbVisualStyle
  2
Thicken
 70
    13
177
     2
291
     1
 71
     2
176
     1
 72
     2
176
     1
 73
     0
176
     1
 90
        0
176
     1
 40
-0.6
176
     1
 41
-30.0
176
     1
 62
     5
 63
     7
421
 16777215
176
     1
 74
     1
176
     1
 91
        4
176
     1
 64
     7
176
     1
 65
   257
176
     1
 75
     1
176
     1
175
     1
176
     1
 42
1.0
176
     1
 92
       12
176
     1
 66
     7
176
     1
 43
1.0
176
     1
 76
     1
176
     1
 77
     6
176
     1
 78
     2
176
     1
 67
     7
176
     1
 79
     5
176
     1
170
     0
176
     1
171
     0
176
     1
290
     0
176
     1
 93
        1
176
     1
 44
0.0
176
     1
173
     0
176
     1
  0
ENDSEC
  0
EOF
