  0
SECTION
  2
HEADER
  9
$ACADVER
  1
AC1024
  9
$ACADMAINTVER
 70
     6
  9
$DWGCODEPAGE
  3
ANSI_1252
  9
$INSBASE
 10
0.0
 20
0.0
 30
0.0
  9
$EXTMIN
 10
1.000000000000000E+20
 20
1.000000000000000E+20
 30
1.000000000000000E+20
  9
$EXTMAX
 10
-1.000000000000000E+20
 20
-1.000000000000000E+20
 30
-1.000000000000000E+20
  9
$LIMMIN
 10
0.0
 20
0.0
  9
$LIMMAX
 10
12.0
 20
9.0
  9
$ORTHOMODE
 70
     0
  9
$REGENMODE
 70
     1
  9
$FILLMODE
 70
     1
  9
$QTEXTMODE
 70
     0
  9
$MIRRTEXT
 70
     1
  9
$LTSCALE
 40
1.0
  9
$ATTMODE
 70
     1
  9
$TEXTSIZE
 40
0.2
  9
$TRACEWID
 40
0.05
  9
$TEXTSTYLE
  7
Standard
  9
$CLAYER
  8
0
  9
$CELTYPE
  6
ByLayer
  9
$CECOLOR
 62
   256
  9
$CELTSCALE
 40
1.0
  9
$DISPSILH
 70
     0
  9
$DIMSCALE
 40
1.0
  9
$DIMASZ
 40
0.18
  9
$DIMEXO
 40
0.0625
  9
$DIMDLI
 40
0.38
  9
$DIMRND
 40
0.0
  9
$DIMDLE
 40
0.0
  9
$DIMEXE
 40
0.18
  9
$DIMTP
 40
0.0
  9
$DIMTM
 40
0.0
  9
$DIMTXT
 40
0.18
  9
$DIMCEN
 40
0.09
  9
$DIMTSZ
 40
0.0
  9
$DIMTOL
 70
     0
  9
$DIMLIM
 70
     0
  9
$DIMTIH
 70
     1
  9
$DIMTOH
 70
     1
  9
$DIMSE1
 70
     0
  9
$DIMSE2
 70
     0
  9
$DIMTAD
 70
     0
  9
$DIMZIN
 70
     0
  9
$DIMBLK
  1

  9
$DIMASO
 70
     1
  9
$DIMSHO
 70
     1
  9
$DIMPOST
  1

  9
$DIMAPOST
  1

  9
$DIMALT
 70
     0
  9
$DIMALTD
 70
     2
  9
$DIMALTF
 40
25.4
  9
$DIMLFAC
 40
1.0
  9
$DIMTOFL
 70
     0
  9
$DIMTVP
 40
0.0
  9
$DIMTIX
 70
     0
  9
$DIMSOXD
 70
     0
  9
$DIMSAH
 70
     0
  9
$DIMBLK1
  1

  9
$DIMBLK2
  1

  9
$DIMSTYLE
  2
Standard
  9
$DIMCLRD
 70
     0
  9
$DIMCLRE
 70
     0
  9
$DIMCLRT
 70
     0
  9
$DIMTFAC
 40
1.0
  9
$DIMGAP
 40
0.09
  9
$DIMJUST
 70
     0
  9
$DIMSD1
 70
     0
  9
$DIMSD2
 70
     0
  9
$DIMTOLJ
 70
     1
  9
$DIMTZIN
 70
     0
  9
$DIMALTZ
 70
     0
  9
$DIMALTTZ
 70
     0
  9
$DIMUPT
 70
     0
  9
$DIMDEC
 70
     4
  9
$DIMTDEC
 70
     4
  9
$DIMALTU
 70
     2
  9
$DIMALTTD
 70
     2
  9
$DIMTXSTY
  7
Standard
  9
$DIMAUNIT
 70
     0
  9
$DIMADEC
 70
     0
  9
$DIMALTRND
 40
0.0
  9
$DIMAZIN
 70
     0
  9
$DIMDSEP
 70
    46
  9
$DIMATFIT
 70
     3
  9
$DIMFRAC
 70
     0
  9
$DIMLDRBLK
  1

  9
$DIMLUNIT
 70
     2
  9
$DIMLWD
 70
    -2
  9
$DIMLWE
 70
    -2
  9
$DIMTMOVE
 70
     0
  9
$DIMFXL
 40
1.0
  9
$DIMFXLON
 70
     0
  9
$DIMJOGANG
 40
0.7853981633974483
  9
$DIMTFILL
 70
     0
  9
$DIMTFILLCLR
 70
     0
  9
$DIMARCSYM
 70
     0
  9
$DIMLTYPE
  6

  9
$DIMLTEX1
  6

  9
$DIMLTEX2
  6

  9
$DIMTXTDIRECTION
 70
     0
  9
$LUNITS
 70
     2
  9
$LUPREC
 70
     4
  9
$SKETCHINC
 40
0.1
  9
$FILLETRAD
 40
0.5
  9
$AUNITS
 70
     0
  9
$AUPREC
 70
     0
  9
$MENU
  1
.
  9
$ELEVATION
 40
0.0
  9
$PELEVATION
 40
0.0
  9
$THICKNESS
 40
0.0
  9
$LIMCHECK
 70
     0
  9
$CHAMFERA
 40
0.5
  9
$CHAMFERB
 40
0.5
  9
$CHAMFERC
 40
1.0
  9
$CHAMFERD
 40
0.0
  9
$SKPOLY
 70
     0
  9
$TDCREATE
 40
2458768.401197697
  9
$TDUCREATE
 40
2458767.85953103
  9
$TDUPDATE
 40
2458768.401197824
  9
$TDUUPDATE
 40
2458767.859531157
  9
$TDINDWG
 40
0.0000000116
  9
$TDUSRTIMER
 40
0.0000000116
  9
$USRTIMER
 70
     1
  9
$ANGBASE
 50
0.0
  9
$ANGDIR
 70
     0
  9
$PDMODE
 70
     0
  9
$PDSIZE
 40
0.0
  9
$PLINEWID
 40
0.0
  9
$SPLFRAME
 70
     0
  9
$SPLINETYPE
 70
     6
  9
$SPLINESEGS
 70
     8
  9
$HANDSEED
  5
147
  9
$SURFTAB1
 70
     6
  9
$SURFTAB2
 70
     6
  9
$SURFTYPE
 70
     6
  9
$SURFU
 70
     6
  9
$SURFV
 70
     6
  9
$UCSBASE
  2

  9
$UCSNAME
  2

  9
$UCSORG
 10
0.0
 20
0.0
 30
0.0
  9
$UCSXDIR
 10
1.0
 20
0.0
 30
0.0
  9
$UCSYDIR
 10
0.0
 20
1.0
 30
0.0
  9
$UCSORTHOREF
  2

  9
$UCSORTHOVIEW
 70
     0
  9
$UCSORGTOP
 10
0.0
 20
0.0
 30
0.0
  9
$UCSORGBOTTOM
 10
0.0
 20
0.0
 30
0.0
  9
$UCSORGLEFT
 10
0.0
 20
0.0
 30
0.0
  9
$UCSORGRIGHT
 10
0.0
 20
0.0
 30
0.0
  9
$UCSORGFRONT
 10
0.0
 20
0.0
 30
0.0
  9
$UCSORGBACK
 10
0.0
 20
0.0
 30
0.0
  9
$PUCSBASE
  2

  9
$PUCSNAME
  2

  9
$PUCSORG
 10
0.0
 20
0.0
 30
0.0
  9
$PUCSXDIR
 10
1.0
 20
0.0
 30
0.0
  9
$PUCSYDIR
 10
0.0
 20
1.0
 30
0.0
  9
$PUCSORTHOREF
  2

  9
$PUCSORTHOVIEW
 70
     0
  9
$PUCSORGTOP
 10
0.0
 20
0.0
 30
0.0
  9
$PUCSORGBOTTOM
 10
0.0
 20
0.0
 30
0.0
  9
$PUCSORGLEFT
 10
0.0
 20
0.0
 30
0.0
  9
$PUCSORGRIGHT
 10
0.0
 20
0.0
 30
0.0
  9
$PUCSORGFRONT
 10
0.0
 20
0.0
 30
0.0
  9
$PUCSORGBACK
 10
0.0
 20
0.0
 30
0.0
  9
$USERI1
 70
     0
  9
$USERI2
 70
     0
  9
$USERI3
 70
     0
  9
$USERI4
 70
     0
  9
$USERI5
 70
     0
  9
$USERR1
 40
0.0
  9
$USERR2
 40
0.0
  9
$USERR3
 40
0.0
  9
$USERR4
 40
0.0
  9
$USERR5
 40
0.0
  9
$WORLDVIEW
 70
     1
  9
$SHADEDGE
 70
     3
  9
$SHADEDIF
 70
    70
  9
$TILEMODE
 70
     1
  9
$MAXACTVP
 70
    64
  9
$PINSBASE
 10
0.0
 20
0.0
 30
0.0
  9
$PLIMCHECK
 70
     0
  9
$PEXTMIN
 10
1.000000000000000E+20
 20
1.000000000000000E+20
 30
1.000000000000000E+20
  9
$PEXTMAX
 10
-1.000000000000000E+20
 20
-1.000000000000000E+20
 30
-1.000000000000000E+20
  9
$PLIMMIN
 10
0.0
 20
0.0
  9
$PLIMMAX
 10
12.0
 20
9.0
  9
$UNITMODE
 70
     0
  9
$VISRETAIN
 70
     1
  9
$PLINEGEN
 70
     0
  9
$PSLTSCALE
 70
     1
  9
$TREEDEPTH
 70
  3020
  9
$CMLSTYLE
  2
Standard
  9
$CMLJUST
 70
     0
  9
$CMLSCALE
 40
1.0
  9
$PROXYGRAPHICS
 70
     1
  9
$MEASUREMENT
 70
     0
  9
$CELWEIGHT
370
    -1
  9
$ENDCAPS
280
     0
  9
$JOINSTYLE
280
     0
  9
$LWDISPLAY
290
     1
  9
$INSUNITS
 70
     1
  9
$HYPERLINKBASE
  1

  9
$STYLESHEET
  1

  9
$XEDIT
290
     1
  9
$CEPSNTYPE
380
     0
  9
$PSTYLEMODE
290
     1
  9
$FINGERPRINTGUID
  2
{75B25A65-F48B-461D-9761-5E9124B1F5C2}
  9
$VERSIONGUID
  2
{FAEB1C32-E019-11D5-929B-00C0DF256EC4}
  9
$EXTNAMES
290
     1
  9
$PSVPSCALE
 40
0.0
  9
$OLESTARTUP
290
     0
  9
$SORTENTS
280
   127
  9
$INDEXCTL
280
     0
  9
$HIDETEXT
280
     1
  9
$XCLIPFRAME
280
     2
  9
$HALOGAP
280
     0
  9
$OBSCOLOR
 70
   257
  9
$OBSLTYPE
280
     0
  9
$INTERSECTIONDISPLAY
280
     0
  9
$INTERSECTIONCOLOR
 70
   257
  9
$DIMASSOC
280
     2
  9
$PROJECTNAME
  1

  9
$CAMERADISPLAY
290
     0
  9
$LENSLENGTH
 40
50.0
  9
$CAMERAHEIGHT
 40
0.0
  9
$STEPSPERSEC
 40
2.0
  9
$STEPSIZE
 40
6.0
  9
$3DDWFPREC
 40
2.0
  9
$PSOLWIDTH
 40
0.25
  9
$PSOLHEIGHT
 40
4.0
  9
$LOFTANG1
 40
1.570796326794897
  9
$LOFTANG2
 40
1.570796326794897
  9
$LOFTMAG1
 40
0.0
  9
$LOFTMAG2
 40
0.0
  9
$LOFTPARAM
 70
     7
  9
$LOFTNORMALS
280
     1
  9
$LATITUDE
 40
37.795
  9
$LONGITUDE
 40
-122.394
  9
$NORTHDIRECTION
 40
0.0
  9
$TIMEZONE
 70
 -8000
  9
$LIGHTGLYPHDISPLAY
280
     1
  9
$TILEMODELIGHTSYNCH
280
     1
  9
$CMATERIAL
347
3C
  9
$SOLIDHIST
280
     1
  9
$SHOWHIST
280
     1
  9
$DWFFRAME
280
     2
  9
$DGNFRAME
280
     2
  9
$REALWORLDSCALE
290
     1
  9
$INTERFERECOLOR
 62
   256
  9
$CSHADOW
280
     0
  9
$SHADOWPLANELOCATION
 40
0.0
  0
ENDSEC
  0
SECTION
  2
CLASSES
  0
CLASS
  1
ACDBDICTIONARYWDFLT
  2
AcDbDictionaryWithDefault
  3
ObjectDBX Classes
 90
        0
 91
        4
280
     0
281
     0
  0
CLASS
  1
VISUALSTYLE
  2
AcDbVisualStyle
  3
ObjectDBX Classes
 90
     4095
 91
        4
280
     0
281
     0
  0
CLASS
  1
MATERIAL
  2
AcDbMaterial
  3
ObjectDBX Classes
 90
     1153
 91
        4
280
     0
281
     0
  0
CLASS
  1
SUN
  2
AcDbSun
  3
SCENEOE
 90
     1024
 91
        4
280
     0
281
     0
  0
ENDSEC
  0
SECTION
  2
TABLES
  0
TABLE
  2
VPORT
  5
8
330
0
100
AcDbSymbolTable
 70
     1
  0
VPORT
  5
29
330
8
100
AcDbSymbolTableRecord
100
AcDbViewportTableRecord
  2
*Active
 70
     0
 10
0.0
 20
0.0
 11
1.0
 21
1.0
 12
0.0
 22
0.0
 13
0.0
 23
0.0
 14
0.5
 24
0.5
 15
0.5
 25
0.5
 16
0.0
 26
0.0
 36
1.0
 17
2.588321509056034
 27
2.80787076240055
 37
0.0
 40
11.69291338582677
 41
0.7070707070707065
 42
50.0
 43
0.0
 44
0.0
 50
0.0
 51
0.0
 71
     0
 72
   100
 73
     1
 74
     3
 75
     0
 76
     0
 77
     0
 78
     0
281
     0
 65
     1
110
0.0
120
0.0
130
0.0
111
1.0
121
0.0
131
0.0
112
0.0
122
1.0
132
0.0
 79
     0
146
0.0
 60
     3
 61
     5
292
     1
282
     1
141
0.0
142
0.0
 63
   250
361
3F
  0
ENDTAB
  0
TABLE
  2
LTYPE
  5
5
330
0
100
AcDbSymbolTable
 70
     1
  0
LTYPE
  5
14
330
5
100
AcDbSymbolTableRecord
100
AcDbLinetypeTableRecord
  2
ByBlock
 70
     0
  3

 72
    65
 73
     0
 40
0.0
  0
LTYPE
  5
15
330
5
100
AcDbSymbolTableRecord
100
AcDbLinetypeTableRecord
  2
ByLayer
 70
     0
  3

 72
    65
 73
     0
 40
0.0
  0
LTYPE
  5
16
330
5
100
AcDbSymbolTableRecord
100
AcDbLinetypeTableRecord
  2
Continuous
 70
     0
  3
Solid line
 72
    65
 73
     0
 40
0.0
  0
ENDTAB
  0
TABLE
  2
LAYER
  5
2
330
0
100
AcDbSymbolTable
 70
     3
  0
LAYER
  5
10
330
2
100
AcDbSymbolTableRecord
100
AcDbLayerTableRecord
  2
0
 70
     0
 62
     7
  6
Continuous
370
    -3
390
F
347
3E
  0
LAYER
  5
40
330
2
100
AcDbSymbolTableRecord
100
AcDbLayerTableRecord
  2
Layer 1
 70
     0
 62
     7
  6
Continuous
370
    -3
390
F
347
3E
  0
LAYER
  5
10F
330
2
100
AcDbSymbolTableRecord
100
AcDbLayerTableRecord
  2
Callout
 70
     0
 62
     7
  6
Continuous
370
    -3
390
F
347
3E
  0
ENDTAB
  0
TABLE
  2
STYLE
  5
3
330
0
100
AcDbSymbolTable
 70
     1
  0
STYLE
  5
11
330
3
100
AcDbSymbolTableRecord
100
AcDbTextStyleTableRecord
  2
Standard
 70
     0
 40
0.0
 41
1.0
 50
0.0
 71
     0
 42
0.2
  3
txt
  4

  0
ENDTAB
  0
TABLE
  2
VIEW
  5
6
330
0
100
AcDbSymbolTable
 70
     0
  0
ENDTAB
  0
TABLE
  2
UCS
  5
7
330
0
100
AcDbSymbolTable
 70
     0
  0
ENDTAB
  0
TABLE
  2
APPID
  5
9
330
0
100
AcDbSymbolTable
 70
     1
  0
APPID
  5
12
330
9
100
AcDbSymbolTableRecord
100
AcDbRegAppTableRecord
  2
ACAD
 70
     0
  0
ENDTAB
  0
TABLE
  2
DIMSTYLE
  5
A
330
0
100
AcDbSymbolTable
 70
     1
100
AcDbDimStyleTable
  0
DIMSTYLE
105
27
330
A
100
AcDbSymbolTableRecord
100
AcDbDimStyleTableRecord
  2
Standard
 70
     0
178
     0
340
11
  0
ENDTAB
  0
TABLE
  2
BLOCK_RECORD
  5
1
330
0
100
AcDbSymbolTable
 70
     3
  0
BLOCK_RECORD
  5
1F
330
1
100
AcDbSymbolTableRecord
100
AcDbBlockTableRecord
  2
*Model_Space
340
22
 70
     0
280
     1
281
     0
  0
BLOCK_RECORD
  5
1B
330
1
100
AcDbSymbolTableRecord
100
AcDbBlockTableRecord
  2
*Paper_Space
340
1E
 70
     0
280
     1
281
     0
  0
BLOCK_RECORD
  5
23
330
1
100
AcDbSymbolTableRecord
100
AcDbBlockTableRecord
  2
*Paper_Space0
340
26
 70
     0
280
     1
281
     0
  0
BLOCK_RECORD
  5
110
330
1
100
AcDbSymbolTableRecord
100
AcDbBlockTableRecord
  2
block 2
340
0
102
{BLKREFS
331
111
102
}
 70
     0
280
     1
281
     0
  0
BLOCK_RECORD
  5
127
330
1
100
AcDbSymbolTableRecord
100
AcDbBlockTableRecord
  2
block 3
340
0
102
{BLKREFS
331
128
102
}
 70
     0
280
     1
281
     0
  0
ENDTAB
  0
ENDSEC
  0
SECTION
  2
BLOCKS
  0
BLOCK
  5
20
330
1F
100
AcDbEntity
  8
0
100
AcDbBlockBegin
  2
*Model_Space
 70
     0
 10
0.0
 20
0.0
 30
0.0
  3
*Model_Space
  1

  0
ENDBLK
  5
21
330
1F
100
AcDbEntity
  8
0
100
AcDbBlockEnd
  0
BLOCK
  5
1C
330
1B
100
AcDbEntity
 67
     1
  8
0
100
AcDbBlockBegin
  2
*Paper_Space
 70
     0
 10
0.0
 20
0.0
 30
0.0
  3
*Paper_Space
  1

  0
ENDBLK
  5
1D
330
1B
100
AcDbEntity
 67
     1
  8
0
100
AcDbBlockEnd
  0
BLOCK
  5
24
330
23
100
AcDbEntity
  8
0
100
AcDbBlockBegin
  2
*Paper_Space0
 70
     0
 10
0.0
 20
0.0
 30
0.0
  3
*Paper_Space0
  1

  0
ENDBLK
  5
25
330
23
100
AcDbEntity
  8
0
100
AcDbBlockEnd
  0
BLOCK
  5
112
330
110
100
AcDbEntity
  8
0
100
AcDbBlockBegin
  2
block 2
 70
     0
 10
0.0
 20
0.0
 30
0.0
  3
block 2
  1

  0
POLYLINE
  5
114
330
110
100
AcDbEntity
  8
Callout
 62
   250
420
  2301728
370
   120
100
AcDb2dPolyline
 66
     1
 10
0.0
 20
0.0
 30
0.0
  0
VERTEX
  5
115
330
114
100
AcDbEntity
  8
Callout
 62
   250
420
  2301728
370
   120
100
AcDbVertex
100
AcDb2dVertex
 10
3.019431425921286
 20
2.382439170120822
 30
0.0
  0
VERTEX
  5
116
330
114
100
AcDbEntity
  8
Callout
 62
   250
420
  2301728
370
   120
100
AcDbVertex
100
AcDb2dVertex
 10
3.849795662644586
 20
2.588161766224605
 30
0.0
  0
SEQEND
  5
117
330
114
100
AcDbEntity
  8
Callout
 62
   250
420
  2301728
370
   120
  0
POLYLINE
  5
118
330
110
100
AcDbEntity
  8
Callout
370
     0
100
AcDb2dPolyline
 66
     1
 10
0.0
 20
0.0
 30
0.0
  0
VERTEX
  5
119
330
118
100
AcDbEntity
  8
Callout
370
     0
100
AcDbVertex
100
AcDb2dVertex
 10
3.06553900297187
 20
2.304896560719094
 30
0.0
  0
VERTEX
  5
11A
330
118
100
AcDbEntity
  8
Callout
370
     0
100
AcDbVertex
100
AcDb2dVertex
 10
3.06553900297187
 20
2.48650846792331
 30
0.0
  0
VERTEX
  5
11B
330
118
100
AcDbEntity
  8
Callout
370
     0
100
AcDbVertex
100
AcDb2dVertex
 10
2.837404393062166
 20
2.344053566459491
 30
0.0
  0
VERTEX
  5
11C
330
118
100
AcDbEntity
  8
Callout
370
     0
100
AcDbVertex
100
AcDb2dVertex
 10
3.06553900297187
 20
2.304896560719094
 30
0.0
  0
SEQEND
  5
11E
330
118
100
AcDbEntity
  8
Callout
370
     0
  0
HATCH
  5
11D
330
110
100
AcDbEntity
  8
Callout
 62
   250
420
  2301728
100
AcDbHatch
 10
0.0
 20
0.0
 30
0.0
210
0.0
220
0.0
230
1.0
  2
SOLID
 70
     1
 71
     0
 91
        1
 92
        1
 93
        3
 72
     1
 10
3.06553900297187
 20
2.304896560719094
 11
3.06553900297187
 21
2.48650846792331
 72
     1
 10
3.06553900297187
 20
2.48650846792331
 11
2.837404393062166
 21
2.344053566459491
 72
     1
 10
2.837404393062166
 20
2.344053566459491
 11
3.06553900297187
 21
2.304896560719094
 97
        0
 75
     2
 76
     1
 98
        0
  0
POLYLINE
  5
11F
330
110
100
AcDbEntity
  8
Callout
370
     0
100
AcDb2dPolyline
 66
     1
 10
0.0
 20
0.0
 30
0.0
  0
VERTEX
  5
120
330
11F
100
AcDbEntity
  8
Callout
370
     0
100
AcDbVertex
100
AcDb2dVertex
 10
3.743951344800431
 20
2.658602704939881
 30
0.0
  0
VERTEX
  5
121
330
11F
100
AcDbEntity
  8
Callout
370
     0
100
AcDbVertex
100
AcDb2dVertex
 10
3.743951344800431
 20
2.476986026176392
 30
0.0
  0
VERTEX
  5
122
330
11F
100
AcDbEntity
  8
Callout
370
     0
100
AcDbVertex
100
AcDb2dVertex
 10
3.972085954710135
 20
2.619440985329725
 30
0.0
  0
VERTEX
  5
123
330
11F
100
AcDbEntity
  8
Callout
370
     0
100
AcDbVertex
100
AcDb2dVertex
 10
3.743951344800431
 20
2.658602704939881
 30
0.0
  0
SEQEND
  5
125
330
11F
100
AcDbEntity
  8
Callout
370
     0
  0
HATCH
  5
124
330
110
100
AcDbEntity
  8
Callout
 62
   250
420
  2301728
100
AcDbHatch
 10
0.0
 20
0.0
 30
0.0
210
0.0
220
0.0
230
1.0
  2
SOLID
 70
     1
 71
     0
 91
        1
 92
        1
 93
        3
 72
     1
 10
3.743951344800431
 20
2.658602704939881
 11
3.743951344800431
 21
2.476986026176392
 72
     1
 10
3.743951344800431
 20
2.476986026176392
 11
3.972085954710135
 21
2.619440985329725
 72
     1
 10
3.972085954710135
 20
2.619440985329725
 11
3.743951344800431
 21
2.658602704939881
 97
        0
 75
     2
 76
     1
 98
        0
  0
ENDBLK
  5
113
330
110
100
AcDbEntity
  8
0
100
AcDbBlockEnd
  0
BLOCK
  5
129
330
127
100
AcDbEntity
  8
0
100
AcDbBlockBegin
  2
block 3
 70
     0
 10
0.0
 20
0.0
 30
0.0
  3
block 3
  1

  0
POLYLINE
  5
12B
330
127
100
AcDbEntity
  8
Callout
 62
   250
420
  2301728
370
   106
100
AcDb2dPolyline
 66
     1
 10
0.0
 20
0.0
 30
0.0
  0
VERTEX
  5
12C
330
12B
100
AcDbEntity
  8
Callout
 62
   250
420
  2301728
370
   106
100
AcDbVertex
100
AcDb2dVertex
 10
2.684240522117433
 20
5.071220738492216
 30
0.0
  0
VERTEX
  5
12D
330
12B
100
AcDbEntity
  8
Callout
 62
   250
420
  2301728
370
   106
100
AcDbVertex
100
AcDb2dVertex
 10
2.683702926441735
 20
4.42389351466967
 30
0.0
  0
SEQEND
  5
12E
330
12B
100
AcDbEntity
  8
Callout
 62
   250
420
  2301728
370
   106
  0
POLYLINE
  5
12F
330
127
100
AcDbEntity
  8
Callout
370
     0
100
AcDb2dPolyline
 66
     1
 10
0.0
 20
0.0
 30
0.0
  0
VERTEX
  5
130
330
12F
100
AcDbEntity
  8
Callout
370
     0
100
AcDbVertex
100
AcDb2dVertex
 10
2.615062456084186
 20
5.035405414747856
 30
0.0
  0
VERTEX
  5
131
330
12F
100
AcDbEntity
  8
Callout
370
     0
100
AcDbVertex
100
AcDb2dVertex
 10
2.756881149647774
 20
5.014440773915011
 30
0.0
  0
VERTEX
  5
132
330
12F
100
AcDbEntity
  8
Callout
370
     0
100
AcDbVertex
100
AcDb2dVertex
 10
2.688328157876513
 20
5.252361851850259
 30
0.0
  0
VERTEX
  5
133
330
12F
100
AcDbEntity
  8
Callout
370
     0
100
AcDbVertex
100
AcDb2dVertex
 10
2.615062456084186
 20
5.035405414747856
 30
0.0
  0
SEQEND
  5
135
330
12F
100
AcDbEntity
  8
Callout
370
     0
  0
HATCH
  5
134
330
127
100
AcDbEntity
  8
Callout
 62
   250
420
  2301728
100
AcDbHatch
 10
0.0
 20
0.0
 30
0.0
210
0.0
220
0.0
230
1.0
  2
SOLID
 70
     1
 71
     0
 91
        1
 92
        1
 93
        3
 72
     1
 10
2.615062456084186
 20
5.035405414747856
 11
2.756881149647774
 21
5.014440773915011
 72
     1
 10
2.756881149647774
 20
5.014440773915011
 11
2.688328157876513
 21
5.252361851850259
 72
     1
 10
2.688328157876513
 20
5.252361851850259
 11
2.615062456084186
 21
5.035405414747856
 97
        0
 75
     2
 76
     1
 98
        0
  0
POLYLINE
  5
136
330
127
100
AcDbEntity
  8
Callout
370
     0
100
AcDb2dPolyline
 66
     1
 10
0.0
 20
0.0
 30
0.0
  0
VERTEX
  5
137
330
136
100
AcDbEntity
  8
Callout
370
     0
100
AcDbVertex
100
AcDb2dVertex
 10
2.758519384990905
 20
4.51851671567326
 30
0.0
  0
VERTEX
  5
138
330
136
100
AcDbEntity
  8
Callout
370
     0
100
AcDbVertex
100
AcDb2dVertex
 10
2.616697510387818
 20
4.539481356506106
 30
0.0
  0
VERTEX
  5
139
330
136
100
AcDbEntity
  8
Callout
370
     0
100
AcDbVertex
100
AcDb2dVertex
 10
2.68525209267884
 20
4.30156027857087
 30
0.0
  0
VERTEX
  5
13A
330
136
100
AcDbEntity
  8
Callout
370
     0
100
AcDbVertex
100
AcDb2dVertex
 10
2.758519384990905
 20
4.51851671567326
 30
0.0
  0
SEQEND
  5
13C
330
136
100
AcDbEntity
  8
Callout
370
     0
  0
HATCH
  5
13B
330
127
100
AcDbEntity
  8
Callout
 62
   250
420
  2301728
100
AcDbHatch
 10
0.0
 20
0.0
 30
0.0
210
0.0
220
0.0
230
1.0
  2
SOLID
 70
     1
 71
     0
 91
        1
 92
        1
 93
        3
 72
     1
 10
2.758519384990905
 20
4.51851671567326
 11
2.616697510387818
 21
4.539481356506106
 72
     1
 10
2.616697510387818
 20
4.539481356506106
 11
2.68525209267884
 21
4.30156027857087
 72
     1
 10
2.68525209267884
 20
4.30156027857087
 11
2.758519384990905
 21
4.51851671567326
 97
        0
 75
     2
 76
     1
 98
        0
  0
ENDBLK
  5
12A
330
127
100
AcDbEntity
  8
0
100
AcDbBlockEnd
  0
ENDSEC
  0
SECTION
  2
ENTITIES
  0
POLYLINE
  5
41
330
1F
100
AcDbEntity
  8
Layer 1
 62
     7
420
 16777215
370
    30
100
AcDb2dPolyline
 66
     1
 10
0.0
 20
0.0
 30
0.0
  0
VERTEX
  5
42
330
41
100
AcDbEntity
  8
Layer 1
 62
     7
420
 16777215
370
    30
100
AcDbVertex
100
AcDb2dVertex
 10
1.230797585312884
 20
4.316830502497055
 30
0.0
  0
VERTEX
  5
43
330
41
100
AcDbEntity
  8
Layer 1
 62
     7
420
 16777215
370
    30
100
AcDbVertex
100
AcDb2dVertex
 10
1.621302060582833
 20
4.50158925302786
 30
0.0
  0
VERTEX
  5
44
330
41
100
AcDbEntity
  8
Layer 1
 62
     7
420
 16777215
370
    30
100
AcDbVertex
100
AcDb2dVertex
 10
2.792805281248396
 20
4.157273647186735
 30
0.0
  0
VERTEX
  5
45
330
41
100
AcDbEntity
  8
Layer 1
 62
     7
420
 16777215
370
    30
100
AcDbVertex
100
AcDb2dVertex
 10
3.760658419144193
 20
4.533071603341593
 30
0.0
  0
VERTEX
  5
46
330
41
100
AcDbEntity
  8
Layer 1
 62
     7
420
 16777215
370
    30
100
AcDbVertex
100
AcDb2dVertex
 10
4.171111922287259
 20
4.392415977345649
 30
0.0
  0
VERTEX
  5
47
330
41
100
AcDbEntity
  8
Layer 1
 62
     7
420
 16777215
370
    30
100
AcDbVertex
100
AcDb2dVertex
 10
4.1742571750941
 20
3.765721373358019
 30
0.0
  0
VERTEX
  5
48
330
41
100
AcDbEntity
  8
Layer 1
 62
     7
420
 16777215
370
    30
100
AcDbVertex
100
AcDb2dVertex
 10
4.252987902749561
 20
3.702736791233671
 30
0.0
  0
VERTEX
  5
49
330
41
100
AcDbEntity
  8
Layer 1
 62
     7
420
 16777215
370
    30
100
AcDbVertex
100
AcDb2dVertex
 10
4.111274581119434
 20
3.586225255052063
 30
0.0
  0
VERTEX
  5
4A
330
41
100
AcDbEntity
  8
Layer 1
 62
     7
420
 16777215
370
    30
100
AcDbVertex
100
AcDb2dVertex
 10
4.1742571750941
 20
3.522182977293546
 30
0.0
  0
VERTEX
  5
4B
330
41
100
AcDbEntity
  8
Layer 1
 62
     7
420
 16777215
370
    30
100
AcDbVertex
100
AcDb2dVertex
 10
4.177404416050649
 20
2.887100369771108
 30
0.0
  0
VERTEX
  5
4C
330
41
100
AcDbEntity
  8
Layer 1
 62
     7
420
 16777215
370
    30
100
AcDbVertex
100
AcDb2dVertex
 10
2.074779134435845
 20
2.349639888242046
 30
0.0
  0
VERTEX
  5
4D
330
41
100
AcDbEntity
  8
Layer 1
 62
     7
420
 16777215
370
    30
100
AcDbVertex
100
AcDb2dVertex
 10
1.691624837107623
 20
2.415769723173248
 30
0.0
  0
VERTEX
  5
4E
330
41
100
AcDbEntity
  8
Layer 1
 62
     7
420
 16777215
370
    30
100
AcDbVertex
100
AcDb2dVertex
 10
1.691624837107623
 20
2.742241795334166
 30
0.0
  0
VERTEX
  5
4F
330
41
100
AcDbEntity
  8
Layer 1
 62
     7
420
 16777215
370
    30
100
AcDbVertex
100
AcDb2dVertex
 10
1.240243284481848
 20
2.827263028603284
 30
0.0
  0
VERTEX
  5
50
330
41
100
AcDbEntity
  8
Layer 1
 62
     7
420
 16777215
370
    30
100
AcDbVertex
100
AcDb2dVertex
 10
1.236048288639596
 20
3.462353588724492
 30
0.0
  0
VERTEX
  5
51
330
41
100
AcDbEntity
  8
Layer 1
 62
     7
420
 16777215
370
    30
100
AcDbVertex
100
AcDb2dVertex
 10
1.287479732925426
 20
3.51903781813553
 30
0.0
  0
VERTEX
  5
52
330
41
100
AcDbEntity
  8
Layer 1
 62
     7
420
 16777215
370
    30
100
AcDbVertex
100
AcDb2dVertex
 10
1.166765248302808
 20
3.618765300999964
 30
0.0
  0
VERTEX
  5
53
330
41
100
AcDbEntity
  8
Layer 1
 62
     7
420
 16777215
370
    30
100
AcDbVertex
100
AcDb2dVertex
 10
1.238145842980341
 20
3.689098084372151
 30
0.0
  0
VERTEX
  5
54
330
41
100
AcDbEntity
  8
Layer 1
 62
     7
420
 16777215
370
    30
100
AcDbVertex
100
AcDb2dVertex
 10
1.230797585312884
 20
4.316830502497055
 30
0.0
  0
SEQEND
  5
56
330
41
100
AcDbEntity
  8
Layer 1
 62
     7
420
 16777215
370
    30
  0
HATCH
  5
55
330
1F
100
AcDbEntity
  8
Layer 1
 62
    43
420
 15510365
100
AcDbHatch
 10
0.0
 20
0.0
 30
0.0
210
0.0
220
0.0
230
1.0
  2
SOLID
 70
     1
 71
     0
 91
        1
 92
        1
 93
       18
 72
     1
 10
1.230797585312884
 20
4.316830502497055
 11
1.621302060582833
 21
4.50158925302786
 72
     1
 10
1.621302060582833
 20
4.50158925302786
 11
2.792805281248396
 21
4.157273647186735
 72
     1
 10
2.792805281248396
 20
4.157273647186735
 11
3.760658419144193
 21
4.533071603341593
 72
     1
 10
3.760658419144193
 20
4.533071603341593
 11
4.171111922287259
 21
4.392415977345649
 72
     1
 10
4.171111922287259
 20
4.392415977345649
 11
4.1742571750941
 21
3.765721373358019
 72
     1
 10
4.1742571750941
 20
3.765721373358019
 11
4.252987902749561
 21
3.702736791233671
 72
     1
 10
4.252987902749561
 20
3.702736791233671
 11
4.111274581119434
 21
3.586225255052063
 72
     1
 10
4.111274581119434
 20
3.586225255052063
 11
4.1742571750941
 21
3.522182977293546
 72
     1
 10
4.1742571750941
 20
3.522182977293546
 11
4.177404416050649
 21
2.887100369771108
 72
     1
 10
4.177404416050649
 20
2.887100369771108
 11
2.074779134435845
 21
2.349639888242046
 72
     1
 10
2.074779134435845
 20
2.349639888242046
 11
1.691624837107623
 21
2.415769723173248
 72
     1
 10
1.691624837107623
 20
2.415769723173248
 11
1.691624837107623
 21
2.742241795334166
 72
     1
 10
1.691624837107623
 20
2.742241795334166
 11
1.240243284481848
 21
2.827263028603284
 72
     1
 10
1.240243284481848
 20
2.827263028603284
 11
1.236048288639596
 21
3.462353588724492
 72
     1
 10
1.236048288639596
 20
3.462353588724492
 11
1.287479732925426
 21
3.51903781813553
 72
     1
 10
1.287479732925426
 20
3.51903781813553
 11
1.166765248302808
 21
3.618765300999964
 72
     1
 10
1.166765248302808
 20
3.618765300999964
 11
1.238145842980341
 21
3.689098084372151
 72
     1
 10
1.238145842980341
 20
3.689098084372151
 11
1.230797585312884
 21
4.316830502497055
 97
        0
 75
     2
 76
     1
 98
        0
  0
POLYLINE
  5
57
330
1F
100
AcDbEntity
  8
Layer 1
 62
     7
420
 16777215
370
    25
100
AcDb2dPolyline
 66
     1
 10
0.0
 20
0.0
 30
0.0
  0
VERTEX
  5
58
330
57
100
AcDbEntity
  8
Layer 1
 62
     7
420
 16777215
370
    25
100
AcDbVertex
100
AcDb2dVertex
 10
2.535616249424265
 20
3.82870595548238
 30
0.0
  0
VERTEX
  5
59
330
57
100
AcDbEntity
  8
Layer 1
 62
     7
420
 16777215
370
    25
100
AcDbVertex
100
AcDb2dVertex
 10
2.604901277910737
 20
3.885398043843363
 30
0.0
  0
VERTEX
  5
5A
330
57
100
AcDbEntity
  8
Layer 1
 62
     7
420
 16777215
370
    25
100
AcDbVertex
100
AcDb2dVertex
 10
2.790707783327282
 20
3.836054156730218
 30
0.0
  0
VERTEX
  5
5B
330
57
100
AcDbEntity
  8
Layer 1
 62
     7
420
 16777215
370
    25
100
AcDbVertex
100
AcDb2dVertex
 10
2.956565194771732
 20
3.892738292492443
 30
0.0
  0
VERTEX
  5
5C
330
57
100
AcDbEntity
  8
Layer 1
 62
     7
420
 16777215
370
    25
100
AcDbVertex
100
AcDb2dVertex
 10
2.988057485833906
 20
3.888543296650204
 30
0.0
  0
VERTEX
  5
5D
330
57
100
AcDbEntity
  8
Layer 1
 62
     7
420
 16777215
370
    25
100
AcDbVertex
100
AcDb2dVertex
 10
3.037391432198597
 20
3.839209452022537
 30
0.0
  0
VERTEX
  5
5E
330
57
100
AcDbEntity
  8
Layer 1
 62
     7
420
 16777215
370
    25
100
AcDbVertex
100
AcDb2dVertex
 10
3.040546625753879
 20
3.202021292243191
 30
0.0
  0
VERTEX
  5
5F
330
57
100
AcDbEntity
  8
Layer 1
 62
     7
420
 16777215
370
    25
100
AcDbVertex
100
AcDb2dVertex
 10
2.991202738640747
 20
3.125388062508869
 30
0.0
  0
VERTEX
  5
60
330
57
100
AcDbEntity
  8
Layer 1
 62
     7
420
 16777215
370
    25
100
AcDbVertex
100
AcDb2dVertex
 10
2.800153482496246
 20
3.066606428825518
 30
0.0
  0
VERTEX
  5
61
330
57
100
AcDbEntity
  8
Layer 1
 62
     7
420
 16777215
370
    25
100
AcDbVertex
100
AcDb2dVertex
 10
2.609094376656028
 20
3.110689671863497
 30
0.0
  0
VERTEX
  5
62
330
57
100
AcDbEntity
  8
Layer 1
 62
     7
420
 16777215
370
    25
100
AcDbVertex
100
AcDb2dVertex
 10
2.540868940900686
 20
3.186275146712116
 30
0.0
  0
VERTEX
  5
63
330
57
100
AcDbEntity
  8
Layer 1
 62
     7
420
 16777215
370
    25
100
AcDbVertex
100
AcDb2dVertex
 10
2.535616249424265
 20
3.82870595548238
 30
0.0
  0
SEQEND
  5
65
330
57
100
AcDbEntity
  8
Layer 1
 62
     7
420
 16777215
370
    25
  0
HATCH
  5
64
330
1F
100
AcDbEntity
  8
Layer 1
 62
   254
420
 13358815
100
AcDbHatch
 10
0.0
 20
0.0
 30
0.0
210
0.0
220
0.0
230
1.0
  2
SOLID
 70
     1
 71
     0
 91
        1
 92
        1
 93
       11
 72
     1
 10
2.535616249424265
 20
3.82870595548238
 11
2.604901277910737
 21
3.885398043843363
 72
     1
 10
2.604901277910737
 20
3.885398043843363
 11
2.790707783327282
 21
3.836054156730218
 72
     1
 10
2.790707783327282
 20
3.836054156730218
 11
2.956565194771732
 21
3.892738292492443
 72
     1
 10
2.956565194771732
 20
3.892738292492443
 11
2.988057485833906
 21
3.888543296650204
 72
     1
 10
2.988057485833906
 20
3.888543296650204
 11
3.037391432198597
 21
3.839209452022537
 72
     1
 10
3.037391432198597
 20
3.839209452022537
 11
3.040546625753879
 21
3.202021292243191
 72
     1
 10
3.040546625753879
 20
3.202021292243191
 11
2.991202738640747
 21
3.125388062508869
 72
     1
 10
2.991202738640747
 20
3.125388062508869
 11
2.800153482496246
 21
3.066606428825518
 72
     1
 10
2.800153482496246
 20
3.066606428825518
 11
2.609094376656028
 21
3.110689671863497
 72
     1
 10
2.609094376656028
 20
3.110689671863497
 11
2.540868940900686
 21
3.186275146712116
 72
     1
 10
2.540868940900686
 20
3.186275146712116
 11
2.535616249424265
 21
3.82870595548238
 97
        0
 75
     2
 76
     1
 98
        0
  0
SPLINE
  5
66
330
1F
100
AcDbEntity
  8
Layer 1
 62
     7
420
 16777215
370
    13
100
AcDbSpline
210
0.0
220
0.0
230
1.0
 70
     8
 71
     3
 72
    35
 73
    31
 74
     0
 42
0.0000000001
 43
0.0000000001
 12
1.0
 22
0.0
 32
0.0
 13
1.0
 23
0.0
 33
0.0
 40
0.0
 40
0.0
 40
0.0
 40
0.0
 40
1.0
 40
1.0
 40
1.0
 40
2.0
 40
2.0
 40
2.0
 40
3.0
 40
3.0
 40
3.0
 40
4.0
 40
4.0
 40
4.0
 40
5.0
 40
5.0
 40
5.0
 40
6.0
 40
6.0
 40
6.0
 40
7.0
 40
7.0
 40
7.0
 40
8.0
 40
8.0
 40
8.0
 40
9.0
 40
9.0
 40
9.0
 40
10.0
 40
10.0
 40
10.0
 40
10.0
 10
3.822595246382813
 20
3.873846894154515
 30
0.0
 10
3.839389146799628
 20
3.858100748623428
 30
0.0
 10
3.86668644201955
 20
3.829753710368095
 30
0.0
 10
3.870881437861802
 20
3.818210513278005
 30
0.0
 10
3.867736185054961
 20
3.811910066915895
 30
0.0
 10
3.869831694826391
 20
3.814007564837008
 30
0.0
 10
3.860385995657427
 20
3.802464367746918
 30
0.0
 10
3.850940296488463
 20
3.790913218058083
 30
0.0
 10
3.818400250540587
 20
3.772021819720142
 30
0.0
 10
3.802654105009499
 20
3.751022982712672
 30
0.0
 10
3.786907959478413
 20
3.730036074603289
 30
0.0
 10
3.751212719975229
 20
3.710086980631205
 30
0.0
 10
3.748067467168387
 20
3.690145839257866
 30
0.0
 10
3.758563029463478
 20
3.683845392895755
 30
0.0
 10
3.791102955320639
 20
3.639754197259006
 30
0.0
 10
3.808954551371623
 20
3.625055806613634
 30
0.0
 10
3.812099804178463
 20
3.61561010744467
 30
0.0
 10
3.814197302099577
 20
3.599863961913583
 30
0.0
 10
3.813149547213849
 20
3.576769615134658
 30
0.0
 10
3.812099804178463
 20
3.55367526835572
 30
0.0
 10
3.808954551371623
 20
3.505389076876756
 30
0.0
 10
3.80579935781634
 20
3.462353588724492
 30
0.0
 10
3.802654105009499
 20
3.419310147973457
 30
0.0
 10
3.803703848044885
 20
3.385720358990157
 30
0.0
 10
3.802654105009499
 20
3.368926458573355
 30
0.0
 10
3.80159640937533
 20
3.352132647588999
 30
0.0
 10
3.793198465092094
 20
3.326940713456489
 30
0.0
 10
3.784802508958516
 20
3.310144824890004
 30
0.0
 10
3.776404564675279
 20
3.293340983724748
 30
0.0
 10
3.774307066754166
 20
3.254500491414736
 30
0.0
 10
3.772211556982711
 20
3.23456133819108
 30
0.0
  0
SPLINE
  5
67
330
1F
100
AcDbEntity
  8
Layer 1
 62
     7
420
 16777215
370
    13
100
AcDbSpline
210
0.0
220
0.0
230
1.0
 70
     8
 71
     3
 72
    20
 73
    16
 74
     0
 42
0.0000000001
 43
0.0000000001
 12
1.0
 22
0.0
 32
0.0
 13
1.0
 23
0.0
 33
0.0
 40
0.0
 40
0.0
 40
0.0
 40
0.0
 40
1.0
 40
1.0
 40
1.0
 40
2.0
 40
2.0
 40
2.0
 40
3.0
 40
3.0
 40
3.0
 40
4.0
 40
4.0
 40
4.0
 40
5.0
 40
5.0
 40
5.0
 40
5.0
 10
3.867736185054961
 20
4.495288806665737
 30
0.0
 10
3.867736185054961
 20
4.467991511445815
 30
0.0
 10
3.876132141188514
 20
4.380862839507119
 30
0.0
 10
3.87192919274753
 20
4.35987593139776
 30
0.0
 10
3.867736185054961
 20
4.338877094390265
 30
0.0
 10
3.869831694826391
 20
4.307384803328103
 30
0.0
 10
3.860385995657427
 20
4.288493404990151
 30
0.0
 10
3.850940296488463
 20
4.269592065903781
 30
0.0
 10
3.84463985012634
 20
4.248605157794423
 30
0.0
 10
3.846737470365648
 20
4.210812420370126
 30
0.0
 10
3.848834845968592
 20
4.173019793115612
 30
0.0
 10
3.84254434035491
 20
4.126830989387978
 30
0.0
 10
3.836243893992787
 20
4.093241200404665
 30
0.0
 10
3.829943447630664
 20
4.059643458822608
 30
0.0
 10
3.806849100851726
 20
3.909532192909258
 30
0.0
 10
3.807896855737454
 20
3.882242850288081
 30
0.0
  0
SPLINE
  5
68
330
1F
100
AcDbEntity
  8
Layer 1
 62
     7
420
 16777215
370
    13
100
AcDbSpline
210
0.0
220
0.0
230
1.0
 70
     8
 71
     3
 72
    47
 73
    43
 74
     0
 42
0.0000000001
 43
0.0000000001
 12
1.0
 22
0.0
 32
0.0
 13
1.0
 23
0.0
 33
0.0
 40
0.0
 40
0.0
 40
0.0
 40
0.0
 40
1.0
 40
1.0
 40
1.0
 40
2.0
 40
2.0
 40
2.0
 40
3.0
 40
3.0
 40
3.0
 40
4.0
 40
4.0
 40
4.0
 40
5.0
 40
5.0
 40
5.0
 40
6.0
 40
6.0
 40
6.0
 40
7.0
 40
7.0
 40
7.0
 40
8.0
 40
8.0
 40
8.0
 40
9.0
 40
9.0
 40
9.0
 40
10.0
 40
10.0
 40
10.0
 40
11.0
 40
11.0
 40
11.0
 40
12.0
 40
12.0
 40
12.0
 40
13.0
 40
13.0
 40
13.0
 40
14.0
 40
14.0
 40
14.0
 40
14.0
 10
3.79845115656849
 20
2.97527679659552
 30
0.0
 10
3.79845115656849
 20
3.004671589736568
 30
0.0
 10
3.795305903761649
 20
3.100196217808818
 30
0.0
 10
3.809994353658567
 20
3.140084465004558
 30
0.0
 10
3.824690756154268
 20
3.179974700349981
 30
0.0
 10
3.84254434035491
 20
3.236658836112206
 30
0.0
 10
3.84254434035491
 20
3.276547083307946
 30
0.0
 10
3.84254434035491
 20
3.316437318653369
 30
0.0
 10
3.836243893992787
 20
3.383622861069032
 30
0.0
 10
3.847787091082889
 20
3.411959958575936
 30
0.0
 10
3.859338240771724
 20
3.440307088491181
 30
0.0
 10
3.880327137030766
 20
3.576769615134658
 30
0.0
 10
3.879277393995355
 20
3.60406691035458
 30
0.0
 10
3.865638687133848
 20
3.62611350224779
 30
0.0
 10
3.835194150957376
 20
3.649199896427969
 30
0.0
 10
3.8204977484617
 20
3.667051492478941
 30
0.0
 10
3.8204977484617
 20
3.676497191647905
 30
0.0
 10
3.822595246382813
 20
3.682797638010028
 30
0.0
 10
3.839389146799628
 20
3.701689134610926
 30
0.0
 10
3.856183047216442
 20
3.720590375434325
 30
0.0
 10
3.884530085471776
 20
3.740529528657968
 30
0.0
 10
3.899228476117135
 20
3.755227919303353
 30
0.0
 10
3.913924878612836
 20
3.769924321799029
 30
0.0
 10
3.933864031836467
 20
3.784622712444389
 30
0.0
 10
3.935971470506047
 20
3.797213664420206
 30
0.0
 10
3.92022532497496
 20
3.808764814109041
 30
0.0
 10
3.879277393995355
 20
3.843402357978056
 30
0.0
 10
3.872986888381673
 20
3.859148503509143
 30
0.0
 10
3.869831694826391
 20
3.881195095402366
 30
0.0
 10
3.878492074868493
 20
3.904484280850738
 30
0.0
 10
3.880327137030766
 20
3.933676282723594
 30
0.0
 10
3.885577840357478
 20
4.016607970670344
 30
0.0
 10
3.913924878612836
 20
4.033403859236842
 30
0.0
 10
3.908674175286099
 20
4.070146853625728
 30
0.0
 10
3.903421483809704
 20
4.10689183616431
 30
0.0
 10
3.901518824558025
 20
4.171089189598509
 30
0.0
 10
3.913924878612836
 20
4.197163772760152
 30
0.0
 10
3.934913774871878
 20
4.241256956546585
 30
0.0
 10
3.935971470506047
 20
4.269592065903781
 30
0.0
 10
3.934913774871878
 20
4.295833653639256
 30
0.0
 10
3.933864031836467
 20
4.322083193973463
 30
0.0
 10
3.946464924560713
 20
4.443847421631491
 30
0.0
 10
3.941214345938862
 20
4.470096961965687
 30
0.0
  0
SPLINE
  5
69
330
1F
100
AcDbEntity
  8
Layer 1
 62
     7
420
 16777215
370
    13
100
AcDbSpline
210
0.0
220
0.0
230
1.0
 70
     8
 71
     3
 72
    50
 73
    46
 74
     0
 42
0.0000000001
 43
0.0000000001
 12
1.0
 22
0.0
 32
0.0
 13
1.0
 23
0.0
 33
0.0
 40
0.0
 40
0.0
 40
0.0
 40
0.0
 40
1.0
 40
1.0
 40
1.0
 40
2.0
 40
2.0
 40
2.0
 40
3.0
 40
3.0
 40
3.0
 40
4.0
 40
4.0
 40
4.0
 40
5.0
 40
5.0
 40
5.0
 40
6.0
 40
6.0
 40
6.0
 40
7.0
 40
7.0
 40
7.0
 40
8.0
 40
8.0
 40
8.0
 40
9.0
 40
9.0
 40
9.0
 40
10.0
 40
10.0
 40
10.0
 40
11.0
 40
11.0
 40
11.0
 40
12.0
 40
12.0
 40
12.0
 40
13.0
 40
13.0
 40
13.0
 40
14.0
 40
14.0
 40
14.0
 40
15.0
 40
15.0
 40
15.0
 40
15.0
 10
4.020992703775164
 20
4.442799666745764
 30
0.0
 10
4.022040458660891
 20
4.40290954737764
 30
0.0
 10
4.024147897330446
 20
4.297939104159127
 30
0.0
 10
4.019942960739753
 20
4.265399058211225
 30
0.0
 10
4.015750079635002
 20
4.232849071514894
 30
0.0
 10
4.024147897330446
 20
4.174069425981227
 30
0.0
 10
4.013652455126071
 20
4.152022834088017
 30
0.0
 10
4.003149060322938
 20
4.129976351277226
 30
0.0
 10
3.982152211465139
 20
4.038654562563553
 30
0.0
 10
3.976909460737185
 20
4.023958160067878
 30
0.0
 10
3.971656769260764
 20
4.009259769422505
 30
0.0
 10
3.965356322898641
 20
4.001911568174667
 30
0.0
 10
3.968511641848383
 20
3.976719723474591
 30
0.0
 10
3.971656769260764
 20
3.951527878774552
 30
0.0
 10
3.968511641848383
 20
3.933676282723594
 30
0.0
 10
3.9622110700918
 20
3.911639631578812
 30
0.0
 10
3.955910623729677
 20
3.889593039685602
 30
0.0
 10
3.951717616037134
 20
3.850752547375603
 30
0.0
 10
3.946464924560713
 20
3.83710201329974
 30
0.0
 10
3.96011556032037
 20
3.825560702675539
 30
0.0
 10
3.994751116039702
 20
3.798261419305921
 30
0.0
 10
3.997906309594984
 20
3.780419864255274
 30
0.0
 10
3.991605863232861
 20
3.769924321799029
 30
0.0
 10
3.991605863232861
 20
3.757323429074783
 30
0.0
 10
3.980054713544026
 20
3.739481773772253
 30
0.0
 10
3.968511641848383
 20
3.72163813032004
 30
0.0
 10
3.92022532497496
 20
3.662848544037931
 30
0.0
 10
3.905527058132924
 20
3.646054643621129
 30
0.0
 10
3.912877123727109
 20
3.631356252975769
 30
0.0
 10
3.924418332667503
 20
3.606164408275706
 30
0.0
 10
3.941214345938862
 20
3.588320764823505
 30
0.0
 10
3.939116723312888
 20
3.569421413886807
 30
0.0
 10
3.931603505640901
 20
3.494661021158827
 30
0.0
 10
3.924418332667503
 20
3.469701789972317
 30
0.0
 10
3.904479179443872
 20
3.400418749635529
 30
0.0
 10
3.900276231002863
 20
3.372071711380196
 30
0.0
 10
3.904479179443872
 20
3.338481922396909
 30
0.0
 10
3.908674175286099
 20
3.304894209802379
 30
0.0
 10
3.912877123727109
 20
3.271304332579992
 30
0.0
 10
3.901323985888565
 20
3.242959282474329
 30
0.0
 10
3.889782776948171
 20
3.214612330177387
 30
0.0
 10
3.870881437861802
 20
3.143229717811399
 30
0.0
 10
3.865638687133848
 20
3.099148462923103
 30
0.0
 10
3.860385995657427
 20
3.055055279136683
 30
0.0
 10
3.843592095240638
 20
2.979479745036517
 30
0.0
 10
3.837291648878514
 20
2.967928595347681
 30
0.0
  0
SPLINE
  5
6A
330
1F
100
AcDbEntity
  8
Layer 1
 62
     7
420
 16777215
370
    13
100
AcDbSpline
210
0.0
220
0.0
230
1.0
 70
     8
 71
     3
 72
    44
 73
    40
 74
     0
 42
0.0000000001
 43
0.0000000001
 12
1.0
 22
0.0
 32
0.0
 13
1.0
 23
0.0
 33
0.0
 40
0.0
 40
0.0
 40
0.0
 40
0.0
 40
1.0
 40
1.0
 40
1.0
 40
2.0
 40
2.0
 40
2.0
 40
3.0
 40
3.0
 40
3.0
 40
4.0
 40
4.0
 40
4.0
 40
5.0
 40
5.0
 40
5.0
 40
6.0
 40
6.0
 40
6.0
 40
7.0
 40
7.0
 40
7.0
 40
8.0
 40
8.0
 40
8.0
 40
9.0
 40
9.0
 40
9.0
 40
10.0
 40
10.0
 40
10.0
 40
11.0
 40
11.0
 40
11.0
 40
12.0
 40
12.0
 40
12.0
 40
13.0
 40
13.0
 40
13.0
 40
13.0
 10
3.903421483809704
 20
2.952182449816594
 30
0.0
 10
3.904479179443872
 20
2.972131543788679
 30
0.0
 10
3.921273204061814
 20
3.076052127994482
 30
0.0
 10
3.934913774871878
 20
3.105448909285226
 30
0.0
 10
3.948562422481852
 20
3.134833761677833
 30
0.0
 10
3.9622110700918
 20
3.188370656483534
 30
0.0
 10
3.958008121650816
 20
3.220912690581119
 30
0.0
 10
3.953815113958247
 20
3.253452736529034
 30
0.0
 10
3.952765495919518
 20
3.315387575617958
 30
0.0
 10
3.963260813127211
 20
3.342676918239135
 30
0.0
 10
3.973754267181903
 20
3.36997421345907
 30
0.0
 10
4.000003933706138
 20
3.552625525320321
 30
0.0
 10
4.002101305437236
 20
3.571526864406691
 30
0.0
 10
3.988450669677579
 20
3.588320764823505
 30
0.0
 10
3.96641401853281
 20
3.61561010744467
 30
0.0
 10
3.964308568012939
 20
3.629258755054631
 30
0.0
 10
3.968511641848383
 20
3.638704550895454
 30
0.0
 10
3.980054713544026
 20
3.651305346947841
 30
0.0
 10
3.995800859075113
 20
3.667051492478941
 30
0.0
 10
4.0115470046062
 20
3.682797638010028
 30
0.0
 10
4.034641351385138
 20
3.709037237595794
 30
0.0
 10
4.048289998995086
 20
3.716387426993328
 30
0.0
 10
4.06193864660506
 20
3.723735628241166
 30
0.0
 10
4.080830044942988
 20
3.740529528657968
 30
0.0
 10
4.083975297749829
 20
3.752082666496499
 30
0.0
 10
4.075579341616276
 20
3.763623875436906
 30
0.0
 10
4.038844299826122
 20
3.790913218058083
 30
0.0
 10
4.024147897330446
 20
3.812959809951293
 30
0.0
 10
4.024147897330446
 20
3.822405509120269
 30
0.0
 10
4.026243407101876
 20
3.841306848206626
 30
0.0
 10
4.030448343692569
 20
3.869643945713518
 30
0.0
 10
4.034641351385138
 20
3.897988995819168
 30
0.0
 10
4.03779654494042
 20
3.950480123888838
 30
0.0
 10
4.047242371492757
 20
3.979874917029885
 30
0.0
 10
4.056687943278348
 20
4.009259769422505
 30
0.0
 10
4.086082736419383
 20
4.075399545102136
 30
0.0
 10
4.086082736419383
 20
4.134179190635804
 30
0.0
 10
4.086082736419383
 20
4.192968776917913
 30
0.0
 10
4.078734663350462
 20
4.390318479424524
 30
0.0
 10
4.092383182781506
 20
4.416558079010303
 30
0.0
  0
SPLINE
  5
6B
330
1F
100
AcDbEntity
  8
Layer 1
 62
     7
420
 16777215
370
    13
100
AcDbSpline
210
0.0
220
0.0
230
1.0
 70
     8
 71
     3
 72
    53
 73
    49
 74
     0
 42
0.0000000001
 43
0.0000000001
 12
1.0
 22
0.0
 32
0.0
 13
1.0
 23
0.0
 33
0.0
 40
0.0
 40
0.0
 40
0.0
 40
0.0
 40
1.0
 40
1.0
 40
1.0
 40
2.0
 40
2.0
 40
2.0
 40
3.0
 40
3.0
 40
3.0
 40
4.0
 40
4.0
 40
4.0
 40
5.0
 40
5.0
 40
5.0
 40
6.0
 40
6.0
 40
6.0
 40
7.0
 40
7.0
 40
7.0
 40
8.0
 40
8.0
 40
8.0
 40
9.0
 40
9.0
 40
9.0
 40
10.0
 40
10.0
 40
10.0
 40
11.0
 40
11.0
 40
11.0
 40
12.0
 40
12.0
 40
12.0
 40
13.0
 40
13.0
 40
13.0
 40
14.0
 40
14.0
 40
14.0
 40
15.0
 40
15.0
 40
15.0
 40
16.0
 40
16.0
 40
16.0
 40
16.0
 10
4.141717129146223
 20
4.400811933479227
 30
0.0
 10
4.141717129146223
 20
4.400811933479227
 30
0.0
 10
4.148017575508346
 20
4.233906767149051
 30
0.0
 10
4.142766872181609
 20
4.212909918291239
 30
0.0
 10
4.137514180705213
 20
4.191911081283769
 30
0.0
 10
4.148017575508346
 20
4.081690050715817
 30
0.0
 10
4.144862381953064
 20
4.061748909342492
 30
0.0
 10
4.141717129146223
 20
4.041799815370394
 30
0.0
 10
4.135416812394927
 20
3.998766315367839
 30
0.0
 10
4.128068481536249
 20
3.974622330711327
 30
0.0
 10
4.120720280288398
 20
3.950480123888838
 30
0.0
 10
4.130165979457362
 20
3.893795988126612
 30
0.0
 10
4.11337009089089
 20
3.87174939623339
 30
0.0
 10
4.096576190474075
 20
3.849702804340179
 30
0.0
 10
4.097625933509486
 20
3.802464367746918
 30
0.0
 10
4.097625933509486
 20
3.794068411613365
 30
0.0
 10
4.10182888195047
 20
3.788815720136957
 30
0.0
 10
4.142766872181609
 20
3.747877729905819
 30
0.0
 10
4.144862381953064
 20
3.736336520965412
 30
0.0
 10
4.144862381953064
 20
3.735286777930001
 30
0.0
 10
4.148017575508346
 20
3.726880881048019
 30
0.0
 10
4.142766872181609
 20
3.719532679800169
 30
0.0
 10
4.137514180705213
 20
3.712192431151089
 30
0.0
 10
4.094480809279351
 20
3.659703291231103
 30
0.0
 10
4.089227989226225
 20
3.656548097675808
 30
0.0
 10
4.083975297749829
 20
3.653402844868967
 30
0.0
 10
4.056687943278348
 20
3.614562352558955
 30
0.0
 10
4.043039295668374
 20
3.608261906196832
 30
0.0
 10
4.043039295668374
 20
3.60406691035458
 30
0.0
 10
4.052483006687654
 20
3.585167559417894
 30
0.0
 10
4.059833196085188
 20
3.573624362327816
 30
0.0
 10
4.067181397333014
 20
3.562071224489298
 30
0.0
 10
4.075579341616276
 20
3.558925971682445
 30
0.0
 10
4.080830044942988
 20
3.548432517627753
 30
0.0
 10
4.079782290057261
 20
3.532686372096666
 30
0.0
 10
4.072434088809435
 20
3.46549884153132
 30
0.0
 10
4.064036144526173
 20
3.437161744024428
 30
0.0
 10
4.055638200242937
 20
3.408814796633439
 30
0.0
 10
4.041989552632963
 20
3.332191505711888
 30
0.0
 10
4.03359359649941
 20
3.311194567925402
 30
0.0
 10
4.025195652216149
 20
3.290195730917907
 30
0.0
 10
4.024147897330446
 20
3.283895284555772
 30
0.0
 10
4.024147897330446
 20
3.257655772015773
 30
0.0
 10
4.024147897330446
 20
3.23141608538424
 30
0.0
 10
4.03359359649941
 20
3.171576756066732
 30
0.0
 10
4.018895205854025
 20
3.140084465004558
 30
0.0
 10
4.004196815208666
 20
3.108594162092067
 30
0.0
 10
3.980054713544026
 20
2.956385398257592
 30
0.0
 10
3.96641401853281
 20
2.936436304285508
 30
0.0
  0
SPLINE
  5
6C
330
1F
100
AcDbEntity
  8
Layer 1
 62
     7
420
 16777215
370
    13
100
AcDbSpline
210
0.0
220
0.0
230
1.0
 70
     8
 71
     3
 72
    47
 73
    43
 74
     0
 42
0.0000000001
 43
0.0000000001
 12
1.0
 22
0.0
 32
0.0
 13
1.0
 23
0.0
 33
0.0
 40
0.0
 40
0.0
 40
0.0
 40
0.0
 40
1.0
 40
1.0
 40
1.0
 40
2.0
 40
2.0
 40
2.0
 40
3.0
 40
3.0
 40
3.0
 40
4.0
 40
4.0
 40
4.0
 40
5.0
 40
5.0
 40
5.0
 40
6.0
 40
6.0
 40
6.0
 40
7.0
 40
7.0
 40
7.0
 40
8.0
 40
8.0
 40
8.0
 40
9.0
 40
9.0
 40
9.0
 40
10.0
 40
10.0
 40
10.0
 40
11.0
 40
11.0
 40
11.0
 40
12.0
 40
12.0
 40
12.0
 40
13.0
 40
13.0
 40
13.0
 40
14.0
 40
14.0
 40
14.0
 40
14.0
 10
4.059833196085188
 20
2.914389712392297
 30
0.0
 10
4.066133642447312
 20
2.946929758340187
 30
0.0
 10
4.091335427895804
 20
3.045609579967719
 30
0.0
 10
4.086082736419383
 20
3.078149625915608
 30
0.0
 10
4.080830044942988
 20
3.110689671863497
 30
0.0
 10
4.079782290057261
 20
3.148482409287807
 30
0.0
 10
4.092383182781506
 20
3.178926945464266
 30
0.0
 10
4.104974134757311
 20
3.209369493491029
 30
0.0
 10
4.103926379871609
 20
3.293340983724748
 30
0.0
 10
4.11337009089089
 20
3.323785519901207
 30
0.0
 10
4.122825730808295
 20
3.354228067927983
 30
0.0
 10
4.135416812394927
 20
3.456053234420046
 30
0.0
 10
4.145912124988475
 20
3.481244987062407
 30
0.0
 10
4.156415519791582
 20
3.506436831762458
 30
0.0
 10
4.158513017712721
 20
3.527433680620258
 30
0.0
 10
4.158513017712721
 20
3.527433680620258
 30
0.0
 10
4.158513017712721
 20
3.527433680620258
 30
0.0
 10
4.138561935590941
 20
3.537929122824632
 30
0.0
 10
4.12386566241427
 20
3.55367526835572
 30
0.0
 10
4.109177083198321
 20
3.569421413886807
 30
0.0
 10
4.092383182781506
 20
3.580972563575655
 30
0.0
 10
4.094480809279351
 20
3.587273009937778
 30
0.0
 10
4.096576190474075
 20
3.593573551831645
 30
0.0
 10
4.096576190474075
 20
3.603019155468865
 30
0.0
 10
4.112322336005162
 20
3.616657862330385
 30
0.0
 10
4.128068481536249
 20
3.630308498090042
 30
0.0
 10
4.150115073429459
 20
3.654450696824331
 30
0.0
 10
4.162706025405265
 20
3.671244500171497
 30
0.0
 10
4.17530691812951
 20
3.688040388737995
 30
0.0
 10
4.19630376698731
 20
3.717435280539803
 30
0.0
 10
4.19630376698731
 20
3.717435280539803
 30
0.0
 10
4.19630376698731
 20
3.717435280539803
 30
0.0
 10
4.184752617298474
 20
3.739481773772253
 30
0.0
 10
4.179509866570521
 20
3.747877729905819
 30
0.0
 10
4.1742571750941
 20
3.756275674189055
 30
0.0
 10
4.146959879874177
 20
3.775177013275425
 30
0.0
 10
4.146959879874177
 20
3.775177013275425
 30
0.0
 10
4.146959879874177
 20
3.775177013275425
 30
0.0
 10
4.145912124988475
 20
3.793018668577954
 30
0.0
 10
4.150115073429459
 20
3.807717160164808
 30
0.0
 10
4.154308081122028
 20
3.822405509120269
 30
0.0
 10
4.169006471767387
 20
3.863351451950153
 30
0.0
 10
4.169006471767387
 20
3.868594305157482
 30
0.0
  0
SPLINE
  5
6D
330
1F
100
AcDbEntity
  8
Layer 1
 62
     7
420
 16777215
370
    13
100
AcDbSpline
210
0.0
220
0.0
230
1.0
 70
     8
 71
     3
 72
    14
 73
    10
 74
     0
 42
0.0000000001
 43
0.0000000001
 12
1.0
 22
0.0
 32
0.0
 13
1.0
 23
0.0
 33
0.0
 40
0.0
 40
0.0
 40
0.0
 40
0.0
 40
1.0
 40
1.0
 40
1.0
 40
2.0
 40
2.0
 40
2.0
 40
3.0
 40
3.0
 40
3.0
 40
3.0
 10
4.130165979457362
 20
2.899701262495367
 30
0.0
 10
4.132261489228818
 20
2.928038360002259
 30
0.0
 10
4.141717129146223
 20
2.979479745036517
 30
0.0
 10
4.140669374260495
 20
3.013069534019817
 30
0.0
 10
4.139611808343185
 20
3.046657334853434
 30
0.0
 10
4.137514180705213
 20
3.090750601469242
 30
0.0
 10
4.145912124988475
 20
3.111739414898908
 30
0.0
 10
4.154308081122028
 20
3.13273626375672
 30
0.0
 10
4.1742571750941
 20
3.192575593074227
 30
0.0
 10
4.1742571750941
 20
3.207271995569903
 30
0.0
  0
POLYLINE
  5
6E
330
1F
100
AcDbEntity
  8
Layer 1
 62
     7
420
 16777215
370
    18
100
AcDb2dPolyline
 66
     1
 10
0.0
 20
0.0
 30
0.0
  0
VERTEX
  5
6F
330
6E
100
AcDbEntity
  8
Layer 1
 62
     7
420
 16777215
370
    18
100
AcDbVertex
100
AcDb2dVertex
 10
3.02164528666751
 20
3.21251474629787
 30
0.0
  0
VERTEX
  5
70
330
6E
100
AcDbEntity
  8
Layer 1
 62
     7
420
 16777215
370
    18
100
AcDbVertex
100
AcDb2dVertex
 10
3.039489032045114
 20
3.203069047128906
 30
0.0
  0
SEQEND
  5
71
330
6E
100
AcDbEntity
  8
Layer 1
 62
     7
420
 16777215
370
    18
  0
POLYLINE
  5
72
330
1F
100
AcDbEntity
  8
Layer 1
 62
     7
420
 16777215
370
    18
100
AcDb2dPolyline
 66
     1
 10
0.0
 20
0.0
 30
0.0
  0
VERTEX
  5
73
330
72
100
AcDbEntity
  8
Layer 1
 62
     7
420
 16777215
370
    18
100
AcDbVertex
100
AcDb2dVertex
 10
2.974408838223932
 20
3.137989039255836
 30
0.0
  0
VERTEX
  5
74
330
72
100
AcDbEntity
  8
Layer 1
 62
     7
420
 16777215
370
    18
100
AcDbVertex
100
AcDb2dVertex
 10
2.990152995605336
 20
3.12853331531571
 30
0.0
  0
SEQEND
  5
75
330
72
100
AcDbEntity
  8
Layer 1
 62
     7
420
 16777215
370
    18
  0
POLYLINE
  5
76
330
1F
100
AcDbEntity
  8
Layer 1
 62
     7
420
 16777215
370
    18
100
AcDb2dPolyline
 66
     1
 10
0.0
 20
0.0
 30
0.0
  0
VERTEX
  5
77
330
76
100
AcDbEntity
  8
Layer 1
 62
     7
420
 16777215
370
    18
100
AcDbVertex
100
AcDb2dVertex
 10
2.610153969387157
 20
3.111739414898908
 30
0.0
  0
VERTEX
  5
78
330
76
100
AcDbEntity
  8
Layer 1
 62
     7
420
 16777215
370
    18
100
AcDbVertex
100
AcDb2dVertex
 10
2.624850371882833
 20
3.120135454604186
 30
0.0
  0
SEQEND
  5
79
330
76
100
AcDbEntity
  8
Layer 1
 62
     7
420
 16777215
370
    18
  0
POLYLINE
  5
7A
330
1F
100
AcDbEntity
  8
Layer 1
 62
     7
420
 16777215
370
    18
100
AcDb2dPolyline
 66
     1
 10
0.0
 20
0.0
 30
0.0
  0
VERTEX
  5
7B
330
7A
100
AcDbEntity
  8
Layer 1
 62
     7
420
 16777215
370
    18
100
AcDbVertex
100
AcDb2dVertex
 10
2.541916695786388
 20
3.186275146712116
 30
0.0
  0
VERTEX
  5
7C
330
7A
100
AcDbEntity
  8
Layer 1
 62
     7
420
 16777215
370
    18
100
AcDbVertex
100
AcDb2dVertex
 10
2.557662841317475
 20
3.192575593074227
 30
0.0
  0
SEQEND
  5
7D
330
7A
100
AcDbEntity
  8
Layer 1
 62
     7
420
 16777215
370
    18
  0
POLYLINE
  5
7E
330
1F
100
AcDbEntity
  8
Layer 1
 62
     7
420
 16777215
370
    18
100
AcDb2dPolyline
 66
     1
 10
0.0
 20
0.0
 30
0.0
  0
VERTEX
  5
7F
330
7E
100
AcDbEntity
  8
Layer 1
 62
     7
420
 16777215
370
    18
100
AcDbVertex
100
AcDb2dVertex
 10
2.536666081682698
 20
3.82870595548238
 30
0.0
  0
VERTEX
  5
80
330
7E
100
AcDbEntity
  8
Layer 1
 62
     7
420
 16777215
370
    18
100
AcDbVertex
100
AcDb2dVertex
 10
2.557662841317475
 20
3.833956658809092
 30
0.0
  0
SEQEND
  5
81
330
7E
100
AcDbEntity
  8
Layer 1
 62
     7
420
 16777215
370
    18
  0
POLYLINE
  5
82
330
1F
100
AcDbEntity
  8
Layer 1
 62
     7
420
 16777215
370
    18
100
AcDb2dPolyline
 66
     1
 10
0.0
 20
0.0
 30
0.0
  0
VERTEX
  5
83
330
82
100
AcDbEntity
  8
Layer 1
 62
     7
420
 16777215
370
    18
100
AcDbVertex
100
AcDb2dVertex
 10
3.017452278974941
 20
3.838161595399798
 30
0.0
  0
VERTEX
  5
84
330
82
100
AcDbEntity
  8
Layer 1
 62
     7
420
 16777215
370
    18
100
AcDbVertex
100
AcDb2dVertex
 10
3.034246179391756
 20
3.839209452022537
 30
0.0
  0
SEQEND
  5
85
330
82
100
AcDbEntity
  8
Layer 1
 62
     7
420
 16777215
370
    18
  0
SPLINE
  5
86
330
1F
100
AcDbEntity
  8
Layer 1
 62
     7
420
 16777215
370
    18
100
AcDbSpline
210
0.0
220
0.0
230
1.0
 70
     8
 71
     3
 72
    32
 73
    28
 74
     0
 42
0.0000000001
 43
0.0000000001
 12
1.0
 22
0.0
 32
0.0
 13
1.0
 23
0.0
 33
0.0
 40
0.0
 40
0.0
 40
0.0
 40
0.0
 40
1.0
 40
1.0
 40
1.0
 40
2.0
 40
2.0
 40
2.0
 40
3.0
 40
3.0
 40
3.0
 40
4.0
 40
4.0
 40
4.0
 40
5.0
 40
5.0
 40
5.0
 40
6.0
 40
6.0
 40
6.0
 40
7.0
 40
7.0
 40
7.0
 40
8.0
 40
8.0
 40
8.0
 40
9.0
 40
9.0
 40
9.0
 40
9.0
 10
2.959710447578547
 20
3.891688549457045
 30
0.0
 10
2.959710447578547
 20
3.891688549457045
 30
0.0
 10
3.015344840305387
 20
3.83710201329974
 30
0.0
 10
3.015344840305387
 20
3.83710201329974
 30
0.0
 10
3.015344840305387
 20
3.83710201329974
 30
0.0
 10
3.020597531781782
 20
3.211466991412155
 30
0.0
 10
3.020597531781782
 20
3.211466991412155
 30
0.0
 10
3.020597531781782
 20
3.211466991412155
 30
0.0
 10
2.972311340302819
 20
3.137989039255836
 30
0.0
 10
2.972311340302819
 20
3.137989039255836
 30
0.0
 10
2.972311340302819
 20
3.137989039255836
 30
0.0
 10
2.813802130106195
 20
3.089702763754139
 30
0.0
 10
2.80434649018879
 20
3.086547570198857
 30
0.0
 10
2.794900791019826
 20
3.083402317392016
 30
0.0
 10
2.786504834886273
 20
3.085497827163446
 30
0.0
 10
2.779156633638447
 20
3.087595325084572
 30
0.0
 10
2.771806444240913
 20
3.089702763754139
 30
0.0
 10
2.624850371882833
 20
3.122242893326971
 30
0.0
 10
2.624850371882833
 20
3.122242893326971
 30
0.0
 10
2.624850371882833
 20
3.122242893326971
 30
0.0
 10
2.559760339238614
 20
3.193623347959942
 30
0.0
 10
2.559760339238614
 20
3.193623347959942
 30
0.0
 10
2.559760339238614
 20
3.193623347959942
 30
0.0
 10
2.557662841317475
 20
3.832908903923377
 30
0.0
 10
2.557662841317475
 20
3.832908903923377
 30
0.0
 10
2.557662841317475
 20
3.832908903923377
 30
0.0
 10
2.612249479158587
 20
3.882242850288081
 30
0.0
 10
2.612249479158587
 20
3.882242850288081
 30
0.0
  0
SPLINE
  5
87
330
1F
100
AcDbEntity
  8
Layer 1
 62
     7
420
 16777215
370
    13
100
AcDbSpline
210
0.0
220
0.0
230
1.0
 70
     8
 71
     3
 72
    50
 73
    46
 74
     0
 42
0.0000000001
 43
0.0000000001
 12
1.0
 22
0.0
 32
0.0
 13
1.0
 23
0.0
 33
0.0
 40
0.0
 40
0.0
 40
0.0
 40
0.0
 40
1.0
 40
1.0
 40
1.0
 40
2.0
 40
2.0
 40
2.0
 40
3.0
 40
3.0
 40
3.0
 40
4.0
 40
4.0
 40
4.0
 40
5.0
 40
5.0
 40
5.0
 40
6.0
 40
6.0
 40
6.0
 40
7.0
 40
7.0
 40
7.0
 40
8.0
 40
8.0
 40
8.0
 40
9.0
 40
9.0
 40
9.0
 40
10.0
 40
10.0
 40
10.0
 40
11.0
 40
11.0
 40
11.0
 40
12.0
 40
12.0
 40
12.0
 40
13.0
 40
13.0
 40
13.0
 40
14.0
 40
14.0
 40
14.0
 40
15.0
 40
15.0
 40
15.0
 40
15.0
 10
1.628650195731716
 20
3.408814796633439
 30
0.0
 10
1.624447247290707
 20
3.444502084439402
 30
0.0
 10
1.605555914653968
 20
3.496991132593494
 30
0.0
 10
1.607651358724221
 20
3.529531178541383
 30
0.0
 10
1.609748856645334
 20
3.562071224489298
 30
0.0
 10
1.610796611531049
 20
3.597766463992457
 30
0.0
 10
1.610796611531049
 20
3.601961459834708
 30
0.0
 10
1.610796611531049
 20
3.606164408275706
 30
0.0
 10
1.626542757062149
 20
3.636608944452165
 30
0.0
 10
1.63809589490068
 20
3.647102398506844
 30
0.0
 10
1.64963909199077
 20
3.657605793309964
 30
0.0
 10
1.658035048124323
 20
3.668099247364656
 30
0.0
 10
1.658035048124323
 20
3.668099247364656
 30
0.0
 10
1.658035048124323
 20
3.668099247364656
 30
0.0
 10
1.661190241679606
 20
3.672294243206882
 30
0.0
 10
1.642288902593236
 20
3.690145839257866
 30
0.0
 10
1.623397504255308
 20
3.707989482710079
 30
0.0
 10
1.586654509866397
 20
3.744732576449299
 30
0.0
 10
1.577208810697445
 20
3.752082666496499
 30
0.0
 10
1.567763111528481
 20
3.759430867744337
 30
0.0
 10
1.546764274520986
 20
3.770974064834427
 30
0.0
 10
1.550969211111679
 20
3.775177013275425
 30
0.0
 10
1.555162218804235
 20
3.779370020968006
 30
0.0
 10
1.568810866414196
 20
3.800368857975488
 30
0.0
 10
1.570908364335322
 20
3.804561865668044
 30
0.0
 10
1.573005862256448
 20
3.808764814109041
 30
0.0
 10
1.588752007787548
 20
3.821355867370862
 30
0.0
 10
1.590857458307406
 20
3.831861149037662
 30
0.0
 10
1.592954956228532
 20
3.842354603092341
 30
0.0
 10
1.60030315747637
 20
3.846557551533338
 30
0.0
 10
1.59715790466953
 20
3.872797151119105
 30
0.0
 10
1.594002711114247
 20
3.899038738854566
 30
0.0
 10
1.601350912362098
 20
3.965176526384514
 30
0.0
 10
1.601350912362098
 20
3.99456347258845
 30
0.0
 10
1.601350912362098
 20
4.023958160067878
 30
0.0
 10
1.594002711114247
 20
4.07644729998785
 30
0.0
 10
1.587702330002293
 20
4.104784397494756
 30
0.0
 10
1.581401818390001
 20
4.133131435750089
 30
0.0
 10
1.577208810697445
 20
4.171971928060101
 30
0.0
 10
1.577208810697445
 20
4.207657226814844
 30
0.0
 10
1.577208810697445
 20
4.243352466318015
 30
0.0
 10
1.579306308618571
 20
4.286387954470279
 30
0.0
 10
1.581401818390001
 20
4.303181854887081
 30
0.0
 10
1.583509257059568
 20
4.319985696052337
 30
0.0
 10
1.585604766830998
 20
4.459593567162566
 30
0.0
 10
1.587702330002293
 20
4.482687913941491
 30
0.0
  0
SPLINE
  5
88
330
1F
100
AcDbEntity
  8
Layer 1
 62
     7
420
 16777215
370
    13
100
AcDbSpline
210
0.0
220
0.0
230
1.0
 70
     8
 71
     3
 72
    50
 73
    46
 74
     0
 42
0.0000000001
 43
0.0000000001
 12
1.0
 22
0.0
 32
0.0
 13
1.0
 23
0.0
 33
0.0
 40
0.0
 40
0.0
 40
0.0
 40
0.0
 40
1.0
 40
1.0
 40
1.0
 40
2.0
 40
2.0
 40
2.0
 40
3.0
 40
3.0
 40
3.0
 40
4.0
 40
4.0
 40
4.0
 40
5.0
 40
5.0
 40
5.0
 40
6.0
 40
6.0
 40
6.0
 40
7.0
 40
7.0
 40
7.0
 40
8.0
 40
8.0
 40
8.0
 40
9.0
 40
9.0
 40
9.0
 40
10.0
 40
10.0
 40
10.0
 40
11.0
 40
11.0
 40
11.0
 40
12.0
 40
12.0
 40
12.0
 40
13.0
 40
13.0
 40
13.0
 40
14.0
 40
14.0
 40
14.0
 40
15.0
 40
15.0
 40
15.0
 40
15.0
 10
1.529970374104184
 20
4.45749606924144
 30
0.0
 10
1.529970374104184
 20
4.422858525372425
 30
0.0
 10
1.52682518500962
 20
4.321035439087735
 30
0.0
 10
1.527872876183058
 20
4.303181854887081
 30
0.0
 10
1.528922619218469
 20
4.285338211434881
 30
0.0
 10
1.527872876183058
 20
4.209764665484398
 30
0.0
 10
1.538368318387433
 20
4.174069425981227
 30
0.0
 10
1.548861772442112
 20
4.138374186478055
 30
0.0
 10
1.55411446391852
 20
4.087990497077941
 30
0.0
 10
1.552016965997394
 20
4.0512554552878
 30
0.0
 10
1.549919468076268
 20
4.014512460898914
 30
0.0
 10
1.546764274520986
 20
3.827656212446969
 30
0.0
 10
1.539416073273148
 20
3.812959809951293
 30
0.0
 10
1.53206787202531
 20
3.798261419305921
 30
0.0
 10
1.517369481379951
 20
3.778322266082265
 30
0.0
 10
1.52052467493522
 20
3.764673718326422
 30
0.0
 10
1.523669927742061
 20
3.761528365665463
 30
0.0
 10
1.546764274520986
 20
3.731083829489004
 30
0.0
 10
1.553064720883109
 20
3.723735628241166
 30
0.0
 10
1.559365167245232
 20
3.716387426993328
 30
0.0
 10
1.575111312776319
 20
3.692243337178992
 30
0.0
 10
1.594002711114247
 20
3.673351938841064
 30
0.0
 10
1.612894109452175
 20
3.654450696824331
 30
0.0
 10
1.609748856645334
 20
3.650257592062126
 30
0.0
 10
1.609748856645334
 20
3.650257592062126
 30
0.0
 10
1.609748856645334
 20
3.650257592062126
 30
0.0
 10
1.607651358724221
 20
3.63765669933788
 30
0.0
 10
1.59715790466953
 20
3.628211000168916
 30
0.0
 10
1.586654509866397
 20
3.618765300999964
 30
0.0
 10
1.576159067662022
 20
3.595670954221027
 30
0.0
 10
1.573005862256448
 20
3.590418262744631
 30
0.0
 10
1.569860609449607
 20
3.585167559417894
 30
0.0
 10
1.574053617142163
 20
3.547384762742038
 30
0.0
 10
1.565665613607355
 20
3.50959202531774
 30
0.0
 10
1.557259716725361
 20
3.47179938034891
 30
0.0
 10
1.560414910280643
 20
3.380469655663445
 30
0.0
 10
1.565665613607355
 20
3.365781205766514
 30
0.0
 10
1.570908364335322
 20
3.351082815121142
 30
0.0
 10
1.588752007787548
 20
3.269198882060108
 30
0.0
 10
1.592954956228532
 20
3.235609093076808
 30
0.0
 10
1.59715790466953
 20
3.202021292243191
 30
0.0
 10
1.605555914653968
 20
3.126435817394597
 30
0.0
 10
1.606603603838494
 20
3.092848016560993
 30
0.0
 10
1.607651358724221
 20
3.059258309611487
 30
0.0
 10
1.620242310700026
 20
2.96373359950543
 30
0.0
 10
1.616049303007458
 20
2.951132706781184
 30
0.0
  0
SPLINE
  5
89
330
1F
100
AcDbEntity
  8
Layer 1
 62
     7
420
 16777215
370
    13
100
AcDbSpline
210
0.0
220
0.0
230
1.0
 70
     8
 71
     3
 72
    44
 73
    40
 74
     0
 42
0.0000000001
 43
0.0000000001
 12
1.0
 22
0.0
 32
0.0
 13
1.0
 23
0.0
 33
0.0
 40
0.0
 40
0.0
 40
0.0
 40
0.0
 40
1.0
 40
1.0
 40
1.0
 40
2.0
 40
2.0
 40
2.0
 40
3.0
 40
3.0
 40
3.0
 40
4.0
 40
4.0
 40
4.0
 40
5.0
 40
5.0
 40
5.0
 40
6.0
 40
6.0
 40
6.0
 40
7.0
 40
7.0
 40
7.0
 40
8.0
 40
8.0
 40
8.0
 40
9.0
 40
9.0
 40
9.0
 40
10.0
 40
10.0
 40
10.0
 40
11.0
 40
11.0
 40
11.0
 40
12.0
 40
12.0
 40
12.0
 40
13.0
 40
13.0
 40
13.0
 40
13.0
 10
1.561462665166358
 20
2.931193553557541
 30
0.0
 10
1.561462665166358
 20
2.967928595347681
 30
0.0
 10
1.552016965997394
 20
3.059258309611487
 30
0.0
 10
1.555162218804235
 20
3.077101871029893
 30
0.0
 10
1.558317476867362
 20
3.094943526332422
 30
0.0
 10
1.563560163087484
 20
3.174722008873573
 30
0.0
 10
1.548861772442112
 20
3.210417334229153
 30
0.0
 10
1.534173322545181
 20
3.246112487879928
 30
0.0
 10
1.517369481379951
 20
3.293340983724748
 30
0.0
 10
1.51947692004948
 20
3.344782368759019
 30
0.0
 10
1.521572429820935
 20
3.396215801194532
 30
0.0
 10
1.517369481379951
 20
3.557878216796717
 30
0.0
 10
1.524717746286809
 20
3.569421413886807
 30
0.0
 10
1.53206787202531
 20
3.580972563575655
 30
0.0
 10
1.571956184073416
 20
3.622958404966589
 30
0.0
 10
1.575111312776319
 20
3.635559201416754
 30
0.0
 10
1.575111312776319
 20
3.638704550895454
 30
0.0
 10
1.558317476867362
 20
3.657605793309964
 30
0.0
 10
1.545716519635284
 20
3.670196842753196
 30
0.0
 10
1.533115626911025
 20
3.682797638010028
 30
0.0
 10
1.477481234184198
 20
3.731083829489004
 30
0.0
 10
1.478528989069913
 20
3.742627026579094
 30
0.0
 10
1.478528989069913
 20
3.744732576449299
 30
0.0
 10
1.472238483456231
 20
3.746829975020091
 30
0.0
 10
1.474335981377357
 20
3.751022982712672
 30
0.0
 10
1.476431491148787
 20
3.755227919303353
 30
0.0
 10
1.491129881794147
 20
3.778322266082265
 30
0.0
 10
1.493227379715298
 20
3.791971014235931
 30
0.0
 10
1.49533289315189
 20
3.805609721441985
 30
0.0
 10
1.49533289315189
 20
3.878039901847084
 30
0.0
 10
1.49847808304201
 20
3.90533918521669
 30
0.0
 10
1.501623335848851
 20
3.932626539688183
 30
0.0
 10
1.497430328156282
 20
4.04075206048468
 30
0.0
 10
1.492177636679874
 20
4.08273791349062
 30
0.0
 10
1.486926933353162
 20
4.124733491466852
 30
0.0
 10
1.476431491148787
 20
4.245449964239141
 30
0.0
 10
1.477481234184198
 20
4.279037765072745
 30
0.0
 10
1.478528989069913
 20
4.312637494804486
 30
0.0
 10
1.470131044786664
 20
4.419703331817143
 30
0.0
 10
1.471180787822075
 20
4.428101276100392
 30
0.0
  0
SPLINE
  5
8A
330
1F
100
AcDbEntity
  8
Layer 1
 62
     7
420
 16777215
370
    13
100
AcDbSpline
210
0.0
220
0.0
230
1.0
 70
     8
 71
     3
 72
    44
 73
    40
 74
     0
 42
0.0000000001
 43
0.0000000001
 12
1.0
 22
0.0
 32
0.0
 13
1.0
 23
0.0
 33
0.0
 40
0.0
 40
0.0
 40
0.0
 40
0.0
 40
1.0
 40
1.0
 40
1.0
 40
2.0
 40
2.0
 40
2.0
 40
3.0
 40
3.0
 40
3.0
 40
4.0
 40
4.0
 40
4.0
 40
5.0
 40
5.0
 40
5.0
 40
6.0
 40
6.0
 40
6.0
 40
7.0
 40
7.0
 40
7.0
 40
8.0
 40
8.0
 40
8.0
 40
9.0
 40
9.0
 40
9.0
 40
10.0
 40
10.0
 40
10.0
 40
11.0
 40
11.0
 40
11.0
 40
12.0
 40
12.0
 40
12.0
 40
13.0
 40
13.0
 40
13.0
 40
13.0
 10
1.418699600500847
 20
4.403959174435739
 30
0.0
 10
1.41449665205985
 20
4.372466883373565
 30
0.0
 10
1.410303644367281
 20
4.288493404990151
 30
0.0
 10
1.418699600500847
 20
4.255953359042261
 30
0.0
 10
1.427097544784096
 20
4.22340337234593
 30
0.0
 10
1.441793947279772
 20
4.111084843856879
 30
0.0
 10
1.443891445200898
 20
4.072244351546866
 30
0.0
 10
1.445988943122024
 20
4.033403859236842
 30
0.0
 10
1.468035597242356
 20
3.830811406002251
 30
0.0
 10
1.451239646448736
 20
3.778322266082265
 30
0.0
 10
1.447503913184492
 20
3.766614052568052
 30
0.0
 10
1.435495489067345
 20
3.732131584374719
 30
0.0
 10
1.435495489067345
 20
3.732131584374719
 30
0.0
 10
1.435495489067345
 20
3.732131584374719
 30
0.0
 10
1.438640741874186
 20
3.72163813032004
 30
0.0
 10
1.450191891563034
 20
3.712192431151089
 30
0.0
 10
1.461735088653111
 20
3.702736791233671
 30
0.0
 10
1.487984628987318
 20
3.668099247364656
 30
0.0
 10
1.49847808304201
 20
3.657605793309964
 30
0.0
 10
1.508973525246372
 20
3.647102398506844
 30
0.0
 10
1.522622172856333
 20
3.627163245283201
 30
0.0
 10
1.531018128989899
 20
3.619813055885667
 30
0.0
 10
1.52052467493522
 20
3.605116653389991
 30
0.0
 10
1.48273193751091
 20
3.565226418044567
 30
0.0
 10
1.479586747223013
 20
3.554732963989876
 30
0.0
 10
1.476431491148787
 20
3.544229569186756
 30
0.0
 10
1.479586747223013
 20
3.490690686231371
 30
0.0
 10
1.479586747223013
 20
3.481244987062407
 30
0.0
 10
1.479586747223013
 20
3.47179938034891
 30
0.0
 10
1.485877190317751
 20
3.315387575617958
 30
0.0
 10
1.487984628987318
 20
3.281799774784367
 30
0.0
 10
1.490082126908444
 20
3.248209985801054
 30
0.0
 10
1.48063642773948
 20
3.196768600766783
 30
0.0
 10
1.478528989069913
 20
3.172626499102143
 30
0.0
 10
1.476431491148787
 20
3.148482409287807
 30
0.0
 10
1.483781743171234
 20
3.12119306666663
 30
0.0
 10
1.492177636679874
 20
3.085497827163446
 30
0.0
 10
1.500575580963123
 20
3.049812528408716
 30
0.0
 10
1.53206787202531
 20
2.936436304285508
 30
0.0
 10
1.523669927742061
 20
2.918592660833295
 30
0.0
  0
SPLINE
  5
8B
330
1F
100
AcDbEntity
  8
Layer 1
 62
     7
420
 16777215
370
    13
100
AcDbSpline
210
0.0
220
0.0
230
1.0
 70
     8
 71
     3
 72
    44
 73
    40
 74
     0
 42
0.0000000001
 43
0.0000000001
 12
1.0
 22
0.0
 32
0.0
 13
1.0
 23
0.0
 33
0.0
 40
0.0
 40
0.0
 40
0.0
 40
0.0
 40
1.0
 40
1.0
 40
1.0
 40
2.0
 40
2.0
 40
2.0
 40
3.0
 40
3.0
 40
3.0
 40
4.0
 40
4.0
 40
4.0
 40
5.0
 40
5.0
 40
5.0
 40
6.0
 40
6.0
 40
6.0
 40
7.0
 40
7.0
 40
7.0
 40
8.0
 40
8.0
 40
8.0
 40
9.0
 40
9.0
 40
9.0
 40
10.0
 40
10.0
 40
10.0
 40
11.0
 40
11.0
 40
11.0
 40
12.0
 40
12.0
 40
12.0
 40
13.0
 40
13.0
 40
13.0
 40
13.0
 10
1.428145299669811
 20
2.886052614885393
 30
0.0
 10
1.426049789898381
 20
2.910194716550045
 30
0.0
 10
1.415544406945565
 20
3.125388062508869
 30
0.0
 10
1.422894596343086
 20
3.169481331113603
 30
0.0
 10
1.430242797590937
 20
3.213562501183585
 30
0.0
 10
1.434445746031934
 20
3.339531665432294
 30
0.0
 10
1.431290552476652
 20
3.40251425940696
 30
0.0
 10
1.428145299669811
 20
3.46549884153132
 30
0.0
 10
1.430242797590937
 20
3.526385925734543
 30
0.0
 10
1.435495489067345
 20
3.537929122824632
 30
0.0
 10
1.440746192394057
 20
3.549480272513481
 30
0.0
 10
1.465938037094108
 20
3.57572186024893
 30
0.0
 10
1.468035597242356
 20
3.594621211185616
 30
0.0
 10
1.466985791979823
 20
3.601961459834708
 30
0.0
 10
1.466985791979823
 20
3.609309661082547
 30
0.0
 10
1.466985791979823
 20
3.609309661082547
 30
0.0
 10
1.466985791979823
 20
3.609309661082547
 30
0.0
 10
1.455434642290988
 20
3.616657862330385
 30
0.0
 10
1.440746192394057
 20
3.632413948609913
 30
0.0
 10
1.426049789898381
 20
3.648150153392559
 30
0.0
 10
1.395605253721897
 20
3.69434083510013
 30
0.0
 10
1.378811353305107
 20
3.704834289154797
 30
0.0
 10
1.38090686307655
 20
3.707989482710079
 30
0.0
 10
1.383004360997663
 20
3.718482936764758
 30
0.0
 10
1.389304867598008
 20
3.724783383126881
 30
0.0
 10
1.395605253721897
 20
3.731083829489004
 30
0.0
 10
1.397702751643048
 20
3.741577283543683
 30
0.0
 10
1.406098707776601
 20
3.758373172110181
 30
0.0
 10
1.406098707776601
 20
3.772021819720142
 30
0.0
 10
1.405051013526885
 20
3.946275187298145
 30
0.0
 10
1.404003198005158
 20
3.972516775033606
 30
0.0
 10
1.40295345496976
 20
3.998766315367839
 30
0.0
 10
1.400458387630958
 20
4.131586752565416
 30
0.0
 10
1.384054104033074
 20
4.174069425981227
 30
0.0
 10
1.355717006526182
 20
4.247547462160266
 30
0.0
 10
1.339970860995095
 20
4.281145203742325
 30
0.0
 10
1.344163868687651
 20
4.307384803328103
 30
0.0
 10
1.348366817128648
 20
4.33362639106354
 30
0.0
 10
1.353609567856615
 20
4.356720737842478
 30
0.0
 10
1.349416560164059
 20
4.372466883373565
 30
0.0
  0
SPLINE
  5
8C
330
1F
100
AcDbEntity
  8
Layer 1
 62
     7
420
 16777215
370
    13
100
AcDbSpline
210
0.0
220
0.0
230
1.0
 70
     8
 71
     3
 72
    44
 73
    40
 74
     0
 42
0.0000000001
 43
0.0000000001
 12
1.0
 22
0.0
 32
0.0
 13
1.0
 23
0.0
 33
0.0
 40
0.0
 40
0.0
 40
0.0
 40
0.0
 40
1.0
 40
1.0
 40
1.0
 40
2.0
 40
2.0
 40
2.0
 40
3.0
 40
3.0
 40
3.0
 40
4.0
 40
4.0
 40
4.0
 40
5.0
 40
5.0
 40
5.0
 40
6.0
 40
6.0
 40
6.0
 40
7.0
 40
7.0
 40
7.0
 40
8.0
 40
8.0
 40
8.0
 40
9.0
 40
9.0
 40
9.0
 40
10.0
 40
10.0
 40
10.0
 40
11.0
 40
11.0
 40
11.0
 40
12.0
 40
12.0
 40
12.0
 40
13.0
 40
13.0
 40
13.0
 40
13.0
 10
1.314779016295044
 20
4.356720737842478
 30
0.0
 10
1.310576067854034
 20
4.327325944701417
 30
0.0
 10
1.308478569932921
 20
4.213957673176966
 30
0.0
 10
1.308478569932921
 20
4.195066274839038
 30
0.0
 10
1.308478569932921
 20
4.176164935752657
 30
0.0
 10
1.303225878456512
 20
4.168816734504818
 30
0.0
 10
1.3189720239876
 20
4.133131435750089
 30
0.0
 10
1.334718169518687
 20
4.097436196246905
 30
0.0
 10
1.360957769104453
 20
4.000861825139269
 30
0.0
 10
1.360957769104453
 20
3.954673131581393
 30
0.0
 10
1.360957769104453
 20
3.908494378771972
 30
0.0
 10
1.355717006526182
 20
3.746829975020091
 30
0.0
 10
1.350464315049774
 20
3.736336520965412
 30
0.0
 10
1.345211623573366
 20
3.725833126162292
 30
0.0
 10
1.333670414632972
 20
3.69434083510013
 30
0.0
 10
1.32211727679444
 20
3.683845392895755
 30
0.0
 10
1.32211727679444
 20
3.683845392895755
 30
0.0
 10
1.3189720239876
 20
3.672294243206882
 30
0.0
 10
1.333670414632972
 20
3.657605793309964
 30
0.0
 10
1.348366817128648
 20
3.642909390814288
 30
0.0
 10
1.383004360997663
 20
3.60406691035458
 30
0.0
 10
1.396653008607637
 20
3.597766463992457
 30
0.0
 10
1.410303644367281
 20
3.591468005780017
 30
0.0
 10
1.42500004686297
 20
3.582022401851014
 30
0.0
 10
1.418699600500847
 20
3.573624362327816
 30
0.0
 10
1.412399154138724
 20
3.565226418044567
 30
0.0
 10
1.386159554552945
 20
3.528483423655668
 30
0.0
 10
1.375656159749825
 20
3.514842822187297
 30
0.0
 10
1.373558721669156
 20
3.506436831762458
 30
0.0
 10
1.37460840486411
 20
3.430861297662293
 30
0.0
 10
1.372510906942984
 20
3.401466504521244
 30
0.0
 10
1.370413409021858
 20
3.372071711380196
 30
0.0
 10
1.367258215466576
 20
3.27235407561539
 30
0.0
 10
1.372510906942984
 20
3.236658836112206
 30
0.0
 10
1.377761610269709
 20
3.20097154920778
 30
0.0
 10
1.381956606111948
 20
3.105448909285226
 30
0.0
 10
1.378811353305107
 20
3.07394667747461
 30
0.0
 10
1.375656159749825
 20
3.042454386412436
 30
0.0
 10
1.396653008607637
 20
2.899701262495367
 30
0.0
 10
1.381956606111948
 20
2.871354224240033
 30
0.0
  0
SPLINE
  5
8D
330
1F
100
AcDbEntity
  8
Layer 1
 62
     7
420
 16777215
370
    13
100
AcDbSpline
210
0.0
220
0.0
230
1.0
 70
     8
 71
     3
 72
    29
 73
    25
 74
     0
 42
0.0000000001
 43
0.0000000001
 12
1.0
 22
0.0
 32
0.0
 13
1.0
 23
0.0
 33
0.0
 40
0.0
 40
0.0
 40
0.0
 40
0.0
 40
1.0
 40
1.0
 40
1.0
 40
2.0
 40
2.0
 40
2.0
 40
3.0
 40
3.0
 40
3.0
 40
4.0
 40
4.0
 40
4.0
 40
5.0
 40
5.0
 40
5.0
 40
6.0
 40
6.0
 40
6.0
 40
7.0
 40
7.0
 40
7.0
 40
8.0
 40
8.0
 40
8.0
 40
8.0
 10
1.283286725232857
 20
2.838814178292119
 30
0.0
 10
1.285384280766948
 20
2.864006022992183
 30
0.0
 10
1.284334480118585
 20
3.052957781215557
 30
0.0
 10
1.27908377679186
 20
3.085497827163446
 30
0.0
 10
1.273831085315452
 20
3.118039861261031
 30
0.0
 10
1.265433141032203
 20
3.172626499102143
 30
0.0
 10
1.270685832508611
 20
3.203069047128906
 30
0.0
 10
1.275938523985019
 20
3.233513583305365
 30
0.0
 10
1.271733587394326
 20
3.463401343610194
 30
0.0
 10
1.271733587394326
 20
3.474944540700271
 30
0.0
 10
1.281179286563302
 20
3.481244987062407
 30
0.0
 10
1.281179286563302
 20
3.495943377707779
 30
0.0
 10
1.292732424401821
 20
3.504339333841333
 30
0.0
 10
1.304275621491911
 20
3.512737278124582
 30
0.0
 10
1.311623822739762
 20
3.522182977293546
 30
0.0
 10
1.315826771180759
 20
3.532686372096666
 30
0.0
 10
1.317924269101885
 20
3.532686372096666
 30
0.0
 10
1.30742882689751
 20
3.554732963989876
 30
0.0
 10
1.296925432094389
 20
3.559975714717843
 30
0.0
 10
1.286431978039698
 20
3.565226418044567
 30
0.0
 10
1.264385386146488
 20
3.578877053804212
 30
0.0
 10
1.254939686977524
 20
3.587273009937778
 30
0.0
 10
1.24549398780856
 20
3.595670954221027
 30
0.0
 10
1.225544893836475
 20
3.625055806613634
 30
0.0
 10
1.200353049136424
 20
3.630308498090042
 30
0.0
  0
SPLINE
  5
8E
330
1F
100
AcDbEntity
  8
Layer 1
 62
     7
420
 16777215
370
    13
100
AcDbSpline
210
0.0
220
0.0
230
1.0
 70
     8
 71
     3
 72
    41
 73
    37
 74
     0
 42
0.0000000001
 43
0.0000000001
 12
1.0
 22
0.0
 32
0.0
 13
1.0
 23
0.0
 33
0.0
 40
0.0
 40
0.0
 40
0.0
 40
0.0
 40
1.0
 40
1.0
 40
1.0
 40
2.0
 40
2.0
 40
2.0
 40
3.0
 40
3.0
 40
3.0
 40
4.0
 40
4.0
 40
4.0
 40
5.0
 40
5.0
 40
5.0
 40
6.0
 40
6.0
 40
6.0
 40
7.0
 40
7.0
 40
7.0
 40
8.0
 40
8.0
 40
8.0
 40
9.0
 40
9.0
 40
9.0
 40
10.0
 40
10.0
 40
10.0
 40
11.0
 40
11.0
 40
11.0
 40
12.0
 40
12.0
 40
12.0
 40
12.0
 10
1.273831085315452
 20
4.334674145949267
 30
0.0
 10
1.272783330429737
 20
4.30423955052125
 30
0.0
 10
1.269638134838071
 20
4.124733491466852
 30
0.0
 10
1.270685832508611
 20
4.094290943440064
 30
0.0
 10
1.271733587394326
 20
4.063846407263605
 30
0.0
 10
1.288529475960824
 20
4.035509309756713
 30
0.0
 10
1.292732424401821
 20
3.998766315367839
 30
0.0
 10
1.296925432094389
 20
3.962021332829231
 30
0.0
 10
1.286431978039698
 20
3.712192431151089
 30
0.0
 10
1.286431978039698
 20
3.712192431151089
 30
0.0
 10
1.286431978039698
 20
3.712192431151089
 30
0.0
 10
1.266482884067614
 20
3.672294243206882
 30
0.0
 10
1.252842189056398
 20
3.657605793309964
 30
0.0
 10
1.26018243770549
 20
3.649199896427969
 30
0.0
 10
1.272783330429737
 20
3.636608944452165
 30
0.0
 10
1.292732424401821
 20
3.619813055885667
 30
0.0
 10
1.312671577625476
 20
3.603019155468865
 30
0.0
 10
1.359910014218738
 20
3.571526864406691
 30
0.0
 10
1.36306520777402
 20
3.555780718875591
 30
0.0
 10
1.355717006526182
 20
3.545277324072471
 30
0.0
 10
1.32947541879072
 20
3.50959202531774
 30
0.0
 10
1.32211727679444
 20
3.493845879786654
 30
0.0
 10
1.324224715464008
 20
3.494893634672381
 30
0.0
 10
1.314779016295044
 20
3.490690686231371
 30
0.0
 10
1.316874526066474
 20
3.476002236334441
 30
0.0
 10
1.3189720239876
 20
3.461305833838752
 30
0.0
 10
1.312671577625476
 20
3.377324402856617
 30
0.0
 10
1.311623822739762
 20
3.337434167511169
 30
0.0
 10
1.310576067854034
 20
3.297545920315441
 30
0.0
 10
1.313729273259633
 20
3.211466991412155
 30
0.0
 10
1.311623822739762
 20
3.191517897440071
 30
0.0
 10
1.309526324818636
 20
3.171576756066732
 30
0.0
 10
1.313729273259633
 20
3.124338319473471
 30
0.0
 10
1.321069521908726
 20
3.095993269367821
 30
0.0
 10
1.328417723156564
 20
3.067656171860929
 30
0.0
 10
1.344163868687651
 20
2.902846515302195
 30
0.0
 10
1.332620671597561
 20
2.858753408484404
 30
0.0
  0
POLYLINE
  5
8F
330
1F
100
AcDbEntity
  8
Layer 1
 62
     7
420
 16777215
370
    25
100
AcDb2dPolyline
 66
     1
 10
0.0
 20
0.0
 30
0.0
  0
VERTEX
  5
90
330
8F
100
AcDbEntity
  8
Layer 1
 62
     7
420
 16777215
370
    25
100
AcDbVertex
100
AcDb2dVertex
 10
3.769056363427429
 20
3.89064079457133
 30
0.0
  0
VERTEX
  5
91
330
8F
100
AcDbEntity
  8
Layer 1
 62
     7
420
 16777215
370
    25
100
AcDbVertex
100
AcDb2dVertex
 10
4.17216166532267
 20
3.766769128243747
 30
0.0
  0
SEQEND
  5
92
330
8F
100
AcDbEntity
  8
Layer 1
 62
     7
420
 16777215
370
    25
  0
POLYLINE
  5
93
330
1F
100
AcDbEntity
  8
Layer 1
 62
     7
420
 16777215
370
    25
100
AcDb2dPolyline
 66
     1
 10
0.0
 20
0.0
 30
0.0
  0
VERTEX
  5
94
330
93
100
AcDbEntity
  8
Layer 1
 62
     7
420
 16777215
370
    25
100
AcDbVertex
100
AcDb2dVertex
 10
3.854085549295304
 20
3.822405509120269
 30
0.0
  0
VERTEX
  5
95
330
93
100
AcDbEntity
  8
Layer 1
 62
     7
420
 16777215
370
    25
100
AcDbVertex
100
AcDb2dVertex
 10
4.244589958466299
 20
3.704834289154797
 30
0.0
  0
SEQEND
  5
96
330
93
100
AcDbEntity
  8
Layer 1
 62
     7
420
 16777215
370
    25
  0
POLYLINE
  5
97
330
1F
100
AcDbEntity
  8
Layer 1
 62
     7
420
 16777215
370
    25
100
AcDb2dPolyline
 66
     1
 10
0.0
 20
0.0
 30
0.0
  0
VERTEX
  5
98
330
97
100
AcDbEntity
  8
Layer 1
 62
     7
420
 16777215
370
    25
100
AcDbVertex
100
AcDb2dVertex
 10
3.695578445747994
 20
3.702736791233671
 30
0.0
  0
VERTEX
  5
99
330
97
100
AcDbEntity
  8
Layer 1
 62
     7
420
 16777215
370
    25
100
AcDbVertex
100
AcDb2dVertex
 10
4.114419833926275
 20
3.587273009937778
 30
0.0
  0
SEQEND
  5
9A
330
97
100
AcDbEntity
  8
Layer 1
 62
     7
420
 16777215
370
    25
  0
POLYLINE
  5
9B
330
1F
100
AcDbEntity
  8
Layer 1
 62
     7
420
 16777215
370
    25
100
AcDb2dPolyline
 66
     1
 10
0.0
 20
0.0
 30
0.0
  0
VERTEX
  5
9C
330
9B
100
AcDbEntity
  8
Layer 1
 62
     7
420
 16777215
370
    25
100
AcDbVertex
100
AcDb2dVertex
 10
3.769056363427429
 20
3.635559201416754
 30
0.0
  0
VERTEX
  5
9D
330
9B
100
AcDbEntity
  8
Layer 1
 62
     7
420
 16777215
370
    25
100
AcDbVertex
100
AcDb2dVertex
 10
4.17216166532267
 20
3.523240672927714
 30
0.0
  0
SEQEND
  5
9E
330
9B
100
AcDbEntity
  8
Layer 1
 62
     7
420
 16777215
370
    25
  0
POLYLINE
  5
9F
330
1F
100
AcDbEntity
  8
Layer 1
 62
     7
420
 16777215
370
    25
100
AcDb2dPolyline
 66
     1
 10
0.0
 20
0.0
 30
0.0
  0
VERTEX
  5
A0
330
9F
100
AcDbEntity
  8
Layer 1
 62
     7
420
 16777215
370
    25
100
AcDbVertex
100
AcDb2dVertex
 10
3.760658419144193
 20
4.532023848455879
 30
0.0
  0
VERTEX
  5
A1
330
9F
100
AcDbEntity
  8
Layer 1
 62
     7
420
 16777215
370
    25
100
AcDbVertex
100
AcDb2dVertex
 10
3.766958865506315
 20
3.889593039685602
 30
0.0
  0
VERTEX
  5
A2
330
9F
100
AcDbEntity
  8
Layer 1
 62
     7
420
 16777215
370
    25
100
AcDbVertex
100
AcDb2dVertex
 10
3.855135292330715
 20
3.823463306093673
 30
0.0
  0
VERTEX
  5
A3
330
9F
100
AcDbEntity
  8
Layer 1
 62
     7
420
 16777215
370
    25
100
AcDbVertex
100
AcDb2dVertex
 10
3.692423133693107
 20
3.700641281462241
 30
0.0
  0
VERTEX
  5
A4
330
9F
100
AcDbEntity
  8
Layer 1
 62
     7
420
 16777215
370
    25
100
AcDbVertex
100
AcDb2dVertex
 10
3.769056363427429
 20
3.635559201416754
 30
0.0
  0
VERTEX
  5
A5
330
9F
100
AcDbEntity
  8
Layer 1
 62
     7
420
 16777215
370
    25
100
AcDbVertex
100
AcDb2dVertex
 10
3.772211556982711
 20
2.980527579967138
 30
0.0
  0
VERTEX
  5
A6
330
9F
100
AcDbEntity
  8
Layer 1
 62
     7
420
 16777215
370
    25
100
AcDbVertex
100
AcDb2dVertex
 10
4.173209420208397
 20
2.888150112806518
 30
0.0
  0
SEQEND
  5
A7
330
9F
100
AcDbEntity
  8
Layer 1
 62
     7
420
 16777215
370
    25
  0
POLYLINE
  5
A8
330
1F
100
AcDbEntity
  8
Layer 1
 62
     7
420
 16777215
370
    25
100
AcDb2dPolyline
 66
     1
 10
0.0
 20
0.0
 30
0.0
  0
VERTEX
  5
A9
330
A8
100
AcDbEntity
  8
Layer 1
 62
     7
420
 16777215
370
    25
100
AcDbVertex
100
AcDb2dVertex
 10
2.791755538212985
 20
3.83710201329974
 30
0.0
  0
VERTEX
  5
AA
330
A8
100
AcDbEntity
  8
Layer 1
 62
     7
420
 16777215
370
    25
100
AcDbVertex
100
AcDb2dVertex
 10
2.790707783327282
 20
4.156225782529014
 30
0.0
  0
SEQEND
  5
AB
330
A8
100
AcDbEntity
  8
Layer 1
 62
     7
420
 16777215
370
    25
  0
POLYLINE
  5
AC
330
1F
100
AcDbEntity
  8
Layer 1
 62
     7
420
 16777215
370
    25
100
AcDb2dPolyline
 66
     1
 10
0.0
 20
0.0
 30
0.0
  0
VERTEX
  5
AD
330
AC
100
AcDbEntity
  8
Layer 1
 62
     7
420
 16777215
370
    25
100
AcDbVertex
100
AcDb2dVertex
 10
1.637046151865269
 20
2.954277959588024
 30
0.0
  0
VERTEX
  5
AE
330
AC
100
AcDbEntity
  8
Layer 1
 62
     7
420
 16777215
370
    25
100
AcDbVertex
100
AcDb2dVertex
 10
2.799105727610519
 20
2.718089752921072
 30
0.0
  0
VERTEX
  5
AF
330
AC
100
AcDbEntity
  8
Layer 1
 62
     7
420
 16777215
370
    25
100
AcDbVertex
100
AcDb2dVertex
 10
2.798055984575108
 20
3.066606428825518
 30
0.0
  0
SEQEND
  5
B0
330
AC
100
AcDbEntity
  8
Layer 1
 62
     7
420
 16777215
370
    25
  0
POLYLINE
  5
B1
330
1F
100
AcDbEntity
  8
Layer 1
 62
     7
420
 16777215
370
    25
100
AcDb2dPolyline
 66
     1
 10
0.0
 20
0.0
 30
0.0
  0
VERTEX
  5
B2
330
B1
100
AcDbEntity
  8
Layer 1
 62
     7
420
 16777215
370
    25
100
AcDbVertex
100
AcDb2dVertex
 10
1.691624837107623
 20
2.415769723173248
 30
0.0
  0
VERTEX
  5
B3
330
B1
100
AcDbEntity
  8
Layer 1
 62
     7
420
 16777215
370
    25
100
AcDbVertex
100
AcDb2dVertex
 10
3.772211556982711
 20
2.980527579967138
 30
0.0
  0
SEQEND
  5
B4
330
B1
100
AcDbEntity
  8
Layer 1
 62
     7
420
 16777215
370
    25
  0
POLYLINE
  5
B5
330
1F
100
AcDbEntity
  8
Layer 1
 62
     7
420
 16777215
370
    25
100
AcDb2dPolyline
 66
     1
 10
0.0
 20
0.0
 30
0.0
  0
VERTEX
  5
B6
330
B5
100
AcDbEntity
  8
Layer 1
 62
     7
420
 16777215
370
    25
100
AcDbVertex
100
AcDb2dVertex
 10
1.240243284481848
 20
3.690145839257866
 30
0.0
  0
VERTEX
  5
B7
330
B5
100
AcDbEntity
  8
Layer 1
 62
     7
420
 16777215
370
    25
100
AcDbVertex
100
AcDb2dVertex
 10
1.624447247290707
 20
3.845499855899182
 30
0.0
  0
SEQEND
  5
B8
330
B5
100
AcDbEntity
  8
Layer 1
 62
     7
420
 16777215
370
    25
  0
POLYLINE
  5
B9
330
1F
100
AcDbEntity
  8
Layer 1
 62
     7
420
 16777215
370
    25
100
AcDb2dPolyline
 66
     1
 10
0.0
 20
0.0
 30
0.0
  0
VERTEX
  5
BA
330
B9
100
AcDbEntity
  8
Layer 1
 62
     7
420
 16777215
370
    25
100
AcDbVertex
100
AcDb2dVertex
 10
1.167813003188523
 20
3.620862798921078
 30
0.0
  0
VERTEX
  5
BB
330
B9
100
AcDbEntity
  8
Layer 1
 62
     7
420
 16777215
370
    25
100
AcDbVertex
100
AcDb2dVertex
 10
1.574053617142163
 20
3.784622712444389
 30
0.0
  0
SEQEND
  5
BC
330
B9
100
AcDbEntity
  8
Layer 1
 62
     7
420
 16777215
370
    25
  0
POLYLINE
  5
BD
330
1F
100
AcDbEntity
  8
Layer 1
 62
     7
420
 16777215
370
    25
100
AcDb2dPolyline
 66
     1
 10
0.0
 20
0.0
 30
0.0
  0
VERTEX
  5
BE
330
BD
100
AcDbEntity
  8
Layer 1
 62
     7
420
 16777215
370
    25
100
AcDbVertex
100
AcDb2dVertex
 10
1.287479732925426
 20
3.521135222407831
 30
0.0
  0
VERTEX
  5
BF
330
BD
100
AcDbEntity
  8
Layer 1
 62
     7
420
 16777215
370
    25
100
AcDbVertex
100
AcDb2dVertex
 10
1.686382086379657
 20
3.679642444454746
 30
0.0
  0
SEQEND
  5
C0
330
BD
100
AcDbEntity
  8
Layer 1
 62
     7
420
 16777215
370
    25
  0
POLYLINE
  5
C1
330
1F
100
AcDbEntity
  8
Layer 1
 62
     7
420
 16777215
370
    25
100
AcDb2dPolyline
 66
     1
 10
0.0
 20
0.0
 30
0.0
  0
VERTEX
  5
C2
330
C1
100
AcDbEntity
  8
Layer 1
 62
     7
420
 16777215
370
    25
100
AcDbVertex
100
AcDb2dVertex
 10
1.237098031675007
 20
3.461305833838752
 30
0.0
  0
VERTEX
  5
C3
330
C1
100
AcDbEntity
  8
Layer 1
 62
     7
420
 16777215
370
    25
100
AcDbVertex
100
AcDb2dVertex
 10
1.628650195731716
 20
3.609309661082547
 30
0.0
  0
SEQEND
  5
C4
330
C1
100
AcDbEntity
  8
Layer 1
 62
     7
420
 16777215
370
    25
  0
POLYLINE
  5
C5
330
1F
100
AcDbEntity
  8
Layer 1
 62
     7
420
 16777215
370
    25
100
AcDb2dPolyline
 66
     1
 10
0.0
 20
0.0
 30
0.0
  0
VERTEX
  5
C6
330
C5
100
AcDbEntity
  8
Layer 1
 62
     7
420
 16777215
370
    25
100
AcDbVertex
100
AcDb2dVertex
 10
1.621302060582833
 20
4.500531557393704
 30
0.0
  0
VERTEX
  5
C7
330
C5
100
AcDbEntity
  8
Layer 1
 62
     7
420
 16777215
370
    25
100
AcDbVertex
100
AcDb2dVertex
 10
1.627602440845989
 20
3.845499855899182
 30
0.0
  0
VERTEX
  5
C8
330
C5
100
AcDbEntity
  8
Layer 1
 62
     7
420
 16777215
370
    25
100
AcDbVertex
100
AcDb2dVertex
 10
1.576159067662022
 20
3.785670467330116
 30
0.0
  0
VERTEX
  5
C9
330
C5
100
AcDbEntity
  8
Layer 1
 62
     7
420
 16777215
370
    25
100
AcDbVertex
100
AcDb2dVertex
 10
1.690575094072212
 20
3.679642444454746
 30
0.0
  0
VERTEX
  5
CA
330
C5
100
AcDbEntity
  8
Layer 1
 62
     7
420
 16777215
370
    25
100
AcDbVertex
100
AcDb2dVertex
 10
1.629697950617431
 20
3.608261906196832
 30
0.0
  0
VERTEX
  5
CB
330
C5
100
AcDbEntity
  8
Layer 1
 62
     7
420
 16777215
370
    25
100
AcDbVertex
100
AcDb2dVertex
 10
1.634940767788913
 20
2.953230284057629
 30
0.0
  0
VERTEX
  5
CC
330
C5
100
AcDbEntity
  8
Layer 1
 62
     7
420
 16777215
370
    25
100
AcDbVertex
100
AcDb2dVertex
 10
1.253891988909219
 20
2.826213285567885
 30
0.0
  0
SEQEND
  5
CD
330
C5
100
AcDbEntity
  8
Layer 1
 62
     7
420
 16777215
370
    25
  0
POLYLINE
  5
CE
330
1F
100
AcDbEntity
  8
Layer 1
 62
     7
420
 16777215
370
    25
100
AcDb2dPolyline
 66
     1
 10
0.0
 20
0.0
 30
0.0
  0
VERTEX
  5
CF
330
CE
100
AcDbEntity
  8
Layer 1
 62
     7
420
 16777215
370
    25
100
AcDbVertex
100
AcDb2dVertex
 10
1.691624837107623
 20
2.743289550219869
 30
0.0
  0
VERTEX
  5
D0
330
CE
100
AcDbEntity
  8
Layer 1
 62
     7
420
 16777215
370
    25
100
AcDbVertex
100
AcDb2dVertex
 10
2.39915561927056
 20
2.608924429837619
 30
0.0
  0
SEQEND
  5
D1
330
CE
100
AcDbEntity
  8
Layer 1
 62
     7
420
 16777215
370
    25
  0
SPLINE
  5
D2
330
1F
100
AcDbEntity
  8
Layer 1
 62
     7
420
 16777215
370
    13
100
AcDbSpline
210
0.0
220
0.0
230
1.0
 70
     8
 71
     3
 72
     8
 73
     4
 74
     0
 42
0.0000000001
 43
0.0000000001
 12
1.0
 22
0.0
 32
0.0
 13
1.0
 23
0.0
 33
0.0
 40
0.0
 40
0.0
 40
0.0
 40
0.0
 40
1.0
 40
1.0
 40
1.0
 40
1.0
 10
2.896890881878335
 20
3.328901029049121
 30
0.0
 10
2.893513015557952
 20
3.316047729835329
 30
0.0
 10
2.887475103039858
 20
3.304864299317956
 30
0.0
 10
2.882029462958523
 20
3.298593675201156
 30
0.0
  0
SPLINE
  5
D3
330
1F
100
AcDbEntity
  8
Layer 1
 62
     7
420
 16777215
370
    13
100
AcDbSpline
210
0.0
220
0.0
230
1.0
 70
     8
 71
     3
 72
     8
 73
     4
 74
     0
 42
0.0000000001
 43
0.0000000001
 12
1.0
 22
0.0
 32
0.0
 13
1.0
 23
0.0
 33
0.0
 40
0.0
 40
0.0
 40
0.0
 40
0.0
 40
1.0
 40
1.0
 40
1.0
 40
1.0
 10
2.870718879381962
 20
3.284294902643144
 30
0.0
 10
2.854934959006793
 20
3.263596276238559
 30
0.0
 10
2.829548275637282
 20
3.229308646714685
 30
0.0
 10
2.829548275637282
 20
3.229308646714685
 30
0.0
  0
SPLINE
  5
D4
330
1F
100
AcDbEntity
  8
Layer 1
 62
     7
420
 16777215
370
    13
100
AcDbSpline
210
0.0
220
0.0
230
1.0
 70
     8
 71
     3
 72
     8
 73
     4
 74
     0
 42
0.0000000001
 43
0.0000000001
 12
1.0
 22
0.0
 32
0.0
 13
1.0
 23
0.0
 33
0.0
 40
0.0
 40
0.0
 40
0.0
 40
0.0
 40
1.0
 40
1.0
 40
1.0
 40
1.0
 10
2.818132320127259
 20
3.218747681633443
 30
0.0
 10
2.80693903738231
 20
3.211864621349807
 30
0.0
 10
2.795590678961667
 20
3.214844857732525
 30
0.0
 10
2.784999805572245
 20
3.223737937477065
 30
0.0
  0
SPLINE
  5
D5
330
1F
100
AcDbEntity
  8
Layer 1
 62
     7
420
 16777215
370
    13
100
AcDbSpline
210
0.0
220
0.0
230
1.0
 70
     8
 71
     3
 72
     8
 73
     4
 74
     0
 42
0.0000000001
 43
0.0000000001
 12
1.0
 22
0.0
 32
0.0
 13
1.0
 23
0.0
 33
0.0
 40
0.0
 40
0.0
 40
0.0
 40
0.0
 40
1.0
 40
1.0
 40
1.0
 40
1.0
 10
2.779156633638447
 20
3.229308646714685
 30
0.0
 10
2.779156633638447
 20
3.229308646714685
 30
0.0
 10
2.746324329686356
 20
3.266906545469535
 30
0.0
 10
2.726635683323441
 20
3.290167896822279
 30
0.0
  0
SPLINE
  5
D6
330
1F
100
AcDbEntity
  8
Layer 1
 62
     7
420
 16777215
370
    13
100
AcDbSpline
210
0.0
220
0.0
230
1.0
 70
     8
 71
     3
 72
    11
 73
     7
 74
     0
 42
0.0000000001
 43
0.0000000001
 12
1.0
 22
0.0
 32
0.0
 13
1.0
 23
0.0
 33
0.0
 40
0.0
 40
0.0
 40
0.0
 40
0.0
 40
1.0
 40
1.0
 40
1.0
 40
2.0
 40
2.0
 40
2.0
 40
2.0
 10
2.71938490141032
 20
3.298758691625279
 30
0.0
 10
2.71938490141032
 20
3.298758691625279
 30
0.0
 10
2.704298821575751
 20
3.316805126345697
 30
0.0
 10
2.703046287272122
 20
3.318542769173241
 30
0.0
 10
2.701280810348938
 20
3.320998222684175
 30
0.0
 10
2.699668420951765
 20
3.323620503477084
 30
0.0
 10
2.698328408061873
 20
3.326998369797454
 30
0.0
  0
SPLINE
  5
D7
330
1F
100
AcDbEntity
  8
Layer 1
 62
     7
420
 16777215
370
    13
100
AcDbSpline
210
0.0
220
0.0
230
1.0
 70
     8
 71
     3
 72
    11
 73
     7
 74
     0
 42
0.0000000001
 43
0.0000000001
 12
1.0
 22
0.0
 32
0.0
 13
1.0
 23
0.0
 33
0.0
 40
0.0
 40
0.0
 40
0.0
 40
0.0
 40
1.0
 40
1.0
 40
1.0
 40
2.0
 40
2.0
 40
2.0
 40
2.0
 10
2.696920798082576
 20
3.653635555431555
 30
0.0
 10
2.69865844091012
 20
3.656420856095767
 30
0.0
 10
2.700881192261603
 20
3.658983678228083
 30
0.0
 10
2.703571252229216
 20
3.66127591763451
 30
0.0
 10
2.70482378656445
 20
3.662391269609619
 30
0.0
 10
2.71636490203385
 20
3.672071570441807
 30
0.0
 10
2.71636490203385
 20
3.672071570441807
 30
0.0
  0
POLYLINE
  5
D8
330
1F
100
AcDbEntity
  8
Layer 1
 62
     7
420
 16777215
370
    13
100
AcDb2dPolyline
 66
     1
 10
0.0
 20
0.0
 30
0.0
  0
VERTEX
  5
D9
330
D8
100
AcDbEntity
  8
Layer 1
 62
     7
420
 16777215
370
    13
100
AcDbVertex
100
AcDb2dVertex
 10
2.725550153593657
 20
3.679612622209422
 30
0.0
  0
VERTEX
  5
DA
330
D8
100
AcDbEntity
  8
Layer 1
 62
     7
420
 16777215
370
    13
100
AcDbVertex
100
AcDb2dVertex
 10
2.759275136755756
 20
3.70727176067261
 30
0.0
  0
SEQEND
  5
DB
330
D8
100
AcDbEntity
  8
Layer 1
 62
     7
420
 16777215
370
    13
  0
SPLINE
  5
DC
330
1F
100
AcDbEntity
  8
Layer 1
 62
     7
420
 16777215
370
    13
100
AcDbSpline
210
0.0
220
0.0
230
1.0
 70
     8
 71
     3
 72
     8
 73
     4
 74
     0
 42
0.0000000001
 43
0.0000000001
 12
1.0
 22
0.0
 32
0.0
 13
1.0
 23
0.0
 33
0.0
 40
0.0
 40
0.0
 40
0.0
 40
0.0
 40
1.0
 40
1.0
 40
1.0
 40
1.0
 10
2.771806444240913
 20
3.717435280539803
 30
0.0
 10
2.783359582079432
 20
3.726880881048019
 30
0.0
 10
2.796998288940964
 20
3.726880881048019
 30
0.0
 10
2.807501683744072
 20
3.720590375434325
 30
0.0
  0
SPLINE
  5
DD
330
1F
100
AcDbEntity
  8
Layer 1
 62
     7
420
 16777215
370
    13
100
AcDbSpline
210
0.0
220
0.0
230
1.0
 70
     8
 71
     3
 72
     8
 73
     4
 74
     0
 42
0.0000000001
 43
0.0000000001
 12
1.0
 22
0.0
 32
0.0
 13
1.0
 23
0.0
 33
0.0
 40
0.0
 40
0.0
 40
0.0
 40
0.0
 40
1.0
 40
1.0
 40
1.0
 40
1.0
 10
2.86996139435074
 20
3.67754494653362
 30
0.0
 10
2.877311583748274
 20
3.672827067323358
 30
0.0
 10
2.896203080391868
 20
3.659178419713397
 30
0.0
 10
2.895678110568497
 20
3.653402844868967
 30
0.0
  0
POLYLINE
  5
DE
330
1F
100
AcDbEntity
  8
Layer 1
 62
     7
420
 16777215
370
    13
100
AcDb2dPolyline
 66
     1
 10
0.0
 20
0.0
 30
0.0
  0
VERTEX
  5
DF
330
DE
100
AcDbEntity
  8
Layer 1
 62
     7
420
 16777215
370
    13
100
AcDbVertex
100
AcDb2dVertex
 10
2.822325327819827
 20
3.710707283333944
 30
0.0
  0
VERTEX
  5
E0
330
DE
100
AcDbEntity
  8
Layer 1
 62
     7
420
 16777215
370
    13
100
AcDbVertex
100
AcDb2dVertex
 10
2.863040742753785
 20
3.68223499164824
 30
0.0
  0
SEQEND
  5
E1
330
DE
100
AcDbEntity
  8
Layer 1
 62
     7
420
 16777215
370
    13
  0
POLYLINE
  5
E2
330
1F
100
AcDbEntity
  8
Layer 1
 62
     7
420
 16777215
370
    13
100
AcDb2dPolyline
 66
     1
 10
0.0
 20
0.0
 30
0.0
  0
VERTEX
  5
E3
330
E2
100
AcDbEntity
  8
Layer 1
 62
     7
420
 16777215
370
    13
100
AcDbVertex
100
AcDb2dVertex
 10
2.740314153178739
 20
3.318542769173241
 30
0.0
  0
VERTEX
  5
E4
330
E2
100
AcDbEntity
  8
Layer 1
 62
     7
420
 16777215
370
    13
100
AcDbVertex
100
AcDb2dVertex
 10
2.869438510982718
 20
3.320640355731244
 30
0.0
  0
SEQEND
  5
E5
330
E2
100
AcDbEntity
  8
Layer 1
 62
     7
420
 16777215
370
    13
  0
POLYLINE
  5
E6
330
1F
100
AcDbEntity
  8
Layer 1
 62
     7
420
 16777215
370
    13
100
AcDb2dPolyline
 66
     1
 10
0.0
 20
0.0
 30
0.0
  0
VERTEX
  5
E7
330
E6
100
AcDbEntity
  8
Layer 1
 62
     7
420
 16777215
370
    13
100
AcDbVertex
100
AcDb2dVertex
 10
2.729820699124048
 20
3.659703291231103
 30
0.0
  0
VERTEX
  5
E8
330
E6
100
AcDbEntity
  8
Layer 1
 62
     7
420
 16777215
370
    13
100
AcDbVertex
100
AcDb2dVertex
 10
2.858933128029902
 20
3.661798801002533
 30
0.0
  0
SEQEND
  5
E9
330
E6
100
AcDbEntity
  8
Layer 1
 62
     7
420
 16777215
370
    13
  0
POLYLINE
  5
EA
330
1F
100
AcDbEntity
  8
Layer 1
 62
     7
420
 16777215
370
    13
100
AcDb2dPolyline
 66
     1
 10
0.0
 20
0.0
 30
0.0
  0
VERTEX
  5
EB
330
EA
100
AcDbEntity
  8
Layer 1
 62
     7
420
 16777215
370
    13
100
AcDbVertex
100
AcDb2dVertex
 10
2.794900791019826
 20
3.193623347959942
 30
0.0
  0
VERTEX
  5
EC
330
EA
100
AcDbEntity
  8
Layer 1
 62
     7
420
 16777215
370
    13
100
AcDbVertex
100
AcDb2dVertex
 10
2.794900791019826
 20
3.100196217808818
 30
0.0
  0
SEQEND
  5
ED
330
EA
100
AcDbEntity
  8
Layer 1
 62
     7
420
 16777215
370
    13
  0
POLYLINE
  5
EE
330
1F
100
AcDbEntity
  8
Layer 1
 62
     7
420
 16777215
370
    13
100
AcDb2dPolyline
 66
     1
 10
0.0
 20
0.0
 30
0.0
  0
VERTEX
  5
EF
330
EE
100
AcDbEntity
  8
Layer 1
 62
     7
420
 16777215
370
    13
100
AcDbVertex
100
AcDb2dVertex
 10
2.791755538212985
 20
3.814007564837008
 30
0.0
  0
VERTEX
  5
F0
330
EE
100
AcDbEntity
  8
Layer 1
 62
     7
420
 16777215
370
    13
100
AcDbVertex
100
AcDb2dVertex
 10
2.791755538212985
 20
3.749975227826932
 30
0.0
  0
SEQEND
  5
F1
330
EE
100
AcDbEntity
  8
Layer 1
 62
     7
420
 16777215
370
    13
  0
POLYLINE
  5
F2
330
1F
100
AcDbEntity
  8
Layer 1
 62
     7
420
 16777215
370
    13
100
AcDb2dPolyline
 66
     1
 10
0.0
 20
0.0
 30
0.0
  0
VERTEX
  5
F3
330
F2
100
AcDbEntity
  8
Layer 1
 62
     7
420
 16777215
370
    13
100
AcDbVertex
100
AcDb2dVertex
 10
2.89767818915488
 20
3.488662773549335
 30
0.0
  0
VERTEX
  5
F4
330
F2
100
AcDbEntity
  8
Layer 1
 62
     7
420
 16777215
370
    13
100
AcDbVertex
100
AcDb2dVertex
 10
2.899356187491776
 20
3.342676918239135
 30
0.0
  0
SEQEND
  5
F5
330
F2
100
AcDbEntity
  8
Layer 1
 62
     7
420
 16777215
370
    13
  0
POLYLINE
  5
F6
330
1F
100
AcDbEntity
  8
Layer 1
 62
     7
420
 16777215
370
    13
100
AcDb2dPolyline
 66
     1
 10
0.0
 20
0.0
 30
0.0
  0
VERTEX
  5
F7
330
F6
100
AcDbEntity
  8
Layer 1
 62
     7
420
 16777215
370
    13
100
AcDbVertex
100
AcDb2dVertex
 10
2.695183155255032
 20
3.338481922396909
 30
0.0
  0
VERTEX
  5
F8
330
F6
100
AcDbEntity
  8
Layer 1
 62
     7
420
 16777215
370
    13
100
AcDbVertex
100
AcDb2dVertex
 10
2.692912688311026
 20
3.48971052843505
 30
0.0
  0
SEQEND
  5
F9
330
F6
100
AcDbEntity
  8
Layer 1
 62
     7
420
 16777215
370
    13
  0
POLYLINE
  5
FA
330
1F
100
AcDbEntity
  8
Layer 1
 62
     7
420
 16777215
370
    13
100
AcDb2dPolyline
 66
     1
 10
0.0
 20
0.0
 30
0.0
  0
VERTEX
  5
FB
330
FA
100
AcDbEntity
  8
Layer 1
 62
     7
420
 16777215
370
    13
100
AcDbVertex
100
AcDb2dVertex
 10
2.895648288323173
 20
3.642414341541906
 30
0.0
  0
VERTEX
  5
FC
330
FA
100
AcDbEntity
  8
Layer 1
 62
     7
420
 16777215
370
    13
100
AcDbVertex
100
AcDb2dVertex
 10
2.897483350485446
 20
3.505979557334159
 30
0.0
  0
SEQEND
  5
FD
330
FA
100
AcDbEntity
  8
Layer 1
 62
     7
420
 16777215
370
    13
  0
SPLINE
  5
FE
330
1F
100
AcDbEntity
  8
Layer 1
 62
     7
420
 16777215
370
    13
100
AcDbSpline
210
0.0
220
0.0
230
1.0
 70
     8
 71
     3
 72
    11
 73
     7
 74
     0
 42
0.0000000001
 43
0.0000000001
 12
1.0
 22
0.0
 32
0.0
 13
1.0
 23
0.0
 33
0.0
 40
0.0
 40
0.0
 40
0.0
 40
0.0
 40
1.0
 40
1.0
 40
1.0
 40
2.0
 40
2.0
 40
2.0
 40
2.0
 10
2.69274767188689
 20
3.516474999538534
 30
0.0
 10
2.692717849641566
 20
3.516640015962657
 30
0.0
 10
2.692650252552185
 20
3.516970142407482
 30
0.0
 10
2.692650252552185
 20
3.516970142407482
 30
0.0
 10
2.692650252552185
 20
3.516970142407482
 30
0.0
 10
2.69202796169975
 20
3.630443692268853
 30
0.0
 10
2.69202796169975
 20
3.635036318048744
 30
0.0
  0
SPLINE
  5
FF
330
1F
100
AcDbEntity
  8
Layer 1
 62
     7
420
 16777215
370
    15
100
AcDbSpline
210
0.0
220
0.0
230
1.0
 70
    11
 71
     3
 72
    17
 73
    13
 74
     0
 42
0.0000000001
 43
0.0000000001
 12
1.0
 22
0.0
 32
0.0
 13
1.0
 23
0.0
 33
0.0
 40
0.0
 40
0.0
 40
0.0
 40
0.0
 40
1.0
 40
1.0
 40
1.0
 40
2.0
 40
2.0
 40
2.0
 40
3.0
 40
3.0
 40
3.0
 40
4.0
 40
4.0
 40
4.0
 40
4.0
 10
2.613716733628533
 20
3.74633492574771
 30
0.0
 10
2.627792833421482
 20
3.74633492574771
 30
0.0
 10
2.639208788931505
 20
3.760916115320646
 30
0.0
 10
2.639208788931505
 20
3.778894853192494
 30
0.0
 10
2.639208788931505
 20
3.796873690823506
 30
0.0
 10
2.627792833421482
 20
3.811454881673171
 30
0.0
 10
2.613716733628533
 20
3.811454881673171
 30
0.0
 10
2.599648586434341
 20
3.811454881673171
 30
0.0
 10
2.588232630924292
 20
3.796873690823506
 30
0.0
 10
2.588232630924292
 20
3.778894853192494
 30
0.0
 10
2.588232630924292
 20
3.760916115320646
 30
0.0
 10
2.599648586434341
 20
3.74633492574771
 30
0.0
 10
2.613716733628533
 20
3.74633492574771
 30
0.0
  0
HATCH
  5
100
330
1F
100
AcDbEntity
  8
Layer 1
 62
     7
420
 16777215
100
AcDbHatch
 10
0.0
 20
0.0
 30
0.0
210
0.0
220
0.0
230
1.0
  2
SOLID
 70
     1
 71
     0
 91
        1
 92
        1
 93
        1
 72
     4
 94
        3
 73
     0
 74
     1
 95
       17
 96
       13
 40
0.0
 40
0.0
 40
0.0
 40
0.0
 40
1.0
 40
1.0
 40
1.0
 40
2.0
 40
2.0
 40
2.0
 40
3.0
 40
3.0
 40
3.0
 40
4.0
 40
4.0
 40
4.0
 40
4.0
 10
2.613716733628533
 20
3.74633492574771
 10
2.627792833421482
 20
3.74633492574771
 10
2.639208788931505
 20
3.760916115320646
 10
2.639208788931505
 20
3.778894853192494
 10
2.639208788931505
 20
3.796873690823506
 10
2.627792833421482
 20
3.811454881673171
 10
2.613716733628533
 20
3.811454881673171
 10
2.599648586434341
 20
3.811454881673171
 10
2.588232630924292
 20
3.796873690823506
 10
2.588232630924292
 20
3.778894853192494
 10
2.588232630924292
 20
3.760916115320646
 10
2.599648586434341
 20
3.74633492574771
 10
2.613716733628533
 20
3.74633492574771
 97
        0
 97
        0
 75
     2
 76
     1
 98
        0
  0
SPLINE
  5
101
330
1F
100
AcDbEntity
  8
Layer 1
 62
     7
420
 16777215
370
    15
100
AcDbSpline
210
0.0
220
0.0
230
1.0
 70
    11
 71
     3
 72
    17
 73
    13
 74
     0
 42
0.0000000001
 43
0.0000000001
 12
1.0
 22
0.0
 32
0.0
 13
1.0
 23
0.0
 33
0.0
 40
0.0
 40
0.0
 40
0.0
 40
0.0
 40
1.0
 40
1.0
 40
1.0
 40
2.0
 40
2.0
 40
2.0
 40
3.0
 40
3.0
 40
3.0
 40
4.0
 40
4.0
 40
4.0
 40
4.0
 10
2.624812597038752
 20
3.750014990820697
 30
0.0
 10
2.638888696831701
 20
3.750014990820697
 30
0.0
 10
2.65030465234175
 20
3.764596080634469
 30
0.0
 10
2.65030465234175
 20
3.782574918265482
 30
0.0
 10
2.65030465234175
 20
3.800553755896494
 30
0.0
 10
2.638888696831701
 20
3.815134845710253
 30
0.0
 10
2.624812597038752
 20
3.815134845710253
 30
0.0
 10
2.610744540938943
 20
3.815134845710253
 30
0.0
 10
2.599328494334536
 20
3.800553755896494
 30
0.0
 10
2.599328494334536
 20
3.782574918265482
 30
0.0
 10
2.599328494334536
 20
3.764596080634469
 30
0.0
 10
2.610744540938943
 20
3.750014990820697
 30
0.0
 10
2.624812597038752
 20
3.750014990820697
 30
0.0
  0
HATCH
  5
102
330
1F
100
AcDbEntity
  8
Layer 1
 62
   254
420
 13358815
100
AcDbHatch
 10
0.0
 20
0.0
 30
0.0
210
0.0
220
0.0
230
1.0
  2
SOLID
 70
     1
 71
     0
 91
        1
 92
        1
 93
        1
 72
     4
 94
        3
 73
     0
 74
     1
 95
       17
 96
       13
 40
0.0
 40
0.0
 40
0.0
 40
0.0
 40
1.0
 40
1.0
 40
1.0
 40
2.0
 40
2.0
 40
2.0
 40
3.0
 40
3.0
 40
3.0
 40
4.0
 40
4.0
 40
4.0
 40
4.0
 10
2.624812597038752
 20
3.750014990820697
 10
2.638888696831701
 20
3.750014990820697
 10
2.65030465234175
 20
3.764596080634469
 10
2.65030465234175
 20
3.782574918265482
 10
2.65030465234175
 20
3.800553755896494
 10
2.638888696831701
 20
3.815134845710253
 10
2.624812597038752
 20
3.815134845710253
 10
2.610744540938943
 20
3.815134845710253
 10
2.599328494334536
 20
3.800553755896494
 10
2.599328494334536
 20
3.782574918265482
 10
2.599328494334536
 20
3.764596080634469
 10
2.610744540938943
 20
3.750014990820697
 10
2.624812597038752
 20
3.750014990820697
 97
        0
 97
        0
 75
     2
 76
     1
 98
        0
  0
SPLINE
  5
103
330
1F
100
AcDbEntity
  8
Layer 1
 62
     7
420
 16777215
370
    15
100
AcDbSpline
210
0.0
220
0.0
230
1.0
 70
    11
 71
     3
 72
    17
 73
    13
 74
     0
 42
0.0000000001
 43
0.0000000001
 12
1.0
 22
0.0
 32
0.0
 13
1.0
 23
0.0
 33
0.0
 40
0.0
 40
0.0
 40
0.0
 40
0.0
 40
1.0
 40
1.0
 40
1.0
 40
2.0
 40
2.0
 40
2.0
 40
3.0
 40
3.0
 40
3.0
 40
4.0
 40
4.0
 40
4.0
 40
4.0
 10
2.659642991427543
 20
3.183740255859561
 30
0.0
 10
2.673719091220492
 20
3.183740255859561
 30
0.0
 10
2.685135046730516
 20
3.198321345673321
 30
0.0
 10
2.685135046730516
 20
3.216300183304333
 30
0.0
 10
2.685135046730516
 20
3.234279020935345
 30
0.0
 10
2.673719091220492
 20
3.248860110749117
 30
0.0
 10
2.659642991427543
 20
3.248860110749117
 30
0.0
 10
2.645576924357354
 20
3.248860110749117
 30
0.0
 10
2.634160876872986
 20
3.234279020935345
 30
0.0
 10
2.634160876872986
 20
3.216300183304333
 30
0.0
 10
2.634160876872986
 20
3.198321345673321
 30
0.0
 10
2.645576924357354
 20
3.183740255859561
 30
0.0
 10
2.659642991427543
 20
3.183740255859561
 30
0.0
  0
HATCH
  5
104
330
1F
100
AcDbEntity
  8
Layer 1
 62
     7
420
 16777215
100
AcDbHatch
 10
0.0
 20
0.0
 30
0.0
210
0.0
220
0.0
230
1.0
  2
SOLID
 70
     1
 71
     0
 91
        1
 92
        1
 93
        1
 72
     4
 94
        3
 73
     0
 74
     1
 95
       17
 96
       13
 40
0.0
 40
0.0
 40
0.0
 40
0.0
 40
1.0
 40
1.0
 40
1.0
 40
2.0
 40
2.0
 40
2.0
 40
3.0
 40
3.0
 40
3.0
 40
4.0
 40
4.0
 40
4.0
 40
4.0
 10
2.659642991427543
 20
3.183740255859561
 10
2.673719091220492
 20
3.183740255859561
 10
2.685135046730516
 20
3.198321345673321
 10
2.685135046730516
 20
3.216300183304333
 10
2.685135046730516
 20
3.234279020935345
 10
2.673719091220492
 20
3.248860110749117
 10
2.659642991427543
 20
3.248860110749117
 10
2.645576924357354
 20
3.248860110749117
 10
2.634160876872986
 20
3.234279020935345
 10
2.634160876872986
 20
3.216300183304333
 10
2.634160876872986
 20
3.198321345673321
 10
2.645576924357354
 20
3.183740255859561
 10
2.659642991427543
 20
3.183740255859561
 97
        0
 97
        0
 75
     2
 76
     1
 98
        0
  0
SPLINE
  5
105
330
1F
100
AcDbEntity
  8
Layer 1
 62
     7
420
 16777215
370
    15
100
AcDbSpline
210
0.0
220
0.0
230
1.0
 70
    11
 71
     3
 72
    17
 73
    13
 74
     0
 42
0.0000000001
 43
0.0000000001
 12
1.0
 22
0.0
 32
0.0
 13
1.0
 23
0.0
 33
0.0
 40
0.0
 40
0.0
 40
0.0
 40
0.0
 40
1.0
 40
1.0
 40
1.0
 40
2.0
 40
2.0
 40
2.0
 40
3.0
 40
3.0
 40
3.0
 40
4.0
 40
4.0
 40
4.0
 40
4.0
 10
2.670738854837762
 20
3.187420320932561
 30
0.0
 10
2.684814954630711
 20
3.187420320932561
 30
0.0
 10
2.696232898290444
 20
3.202001410746309
 30
0.0
 10
2.696232898290444
 20
3.219980334471327
 30
0.0
 10
2.696232898290444
 20
3.237959086008332
 30
0.0
 10
2.684814954630711
 20
3.252540175822105
 30
0.0
 10
2.670738854837762
 20
3.252540175822105
 30
0.0
 10
2.656662755044812
 20
3.252540175822105
 30
0.0
 10
2.64525674028323
 20
3.237959086008332
 30
0.0
 10
2.64525674028323
 20
3.219980334471327
 30
0.0
 10
2.64525674028323
 20
3.202001410746309
 30
0.0
 10
2.656662755044812
 20
3.187420320932561
 30
0.0
 10
2.670738854837762
 20
3.187420320932561
 30
0.0
  0
HATCH
  5
106
330
1F
100
AcDbEntity
  8
Layer 1
 62
   254
420
 13358815
100
AcDbHatch
 10
0.0
 20
0.0
 30
0.0
210
0.0
220
0.0
230
1.0
  2
SOLID
 70
     1
 71
     0
 91
        1
 92
        1
 93
        1
 72
     4
 94
        3
 73
     0
 74
     1
 95
       17
 96
       13
 40
0.0
 40
0.0
 40
0.0
 40
0.0
 40
1.0
 40
1.0
 40
1.0
 40
2.0
 40
2.0
 40
2.0
 40
3.0
 40
3.0
 40
3.0
 40
4.0
 40
4.0
 40
4.0
 40
4.0
 10
2.670738854837762
 20
3.187420320932561
 10
2.684814954630711
 20
3.187420320932561
 10
2.696232898290444
 20
3.202001410746309
 10
2.696232898290444
 20
3.219980334471327
 10
2.696232898290444
 20
3.237959086008332
 10
2.684814954630711
 20
3.252540175822105
 10
2.670738854837762
 20
3.252540175822105
 10
2.656662755044812
 20
3.252540175822105
 10
2.64525674028323
 20
3.237959086008332
 10
2.64525674028323
 20
3.219980334471327
 10
2.64525674028323
 20
3.202001410746309
 10
2.656662755044812
 20
3.187420320932561
 10
2.670738854837762
 20
3.187420320932561
 97
        0
 97
        0
 75
     2
 76
     1
 98
        0
  0
SPLINE
  5
107
330
1F
100
AcDbEntity
  8
Layer 1
 62
     7
420
 16777215
370
    15
100
AcDbSpline
210
0.0
220
0.0
230
1.0
 70
    11
 71
     3
 72
    17
 73
    13
 74
     0
 42
0.0000000001
 43
0.0000000001
 12
1.0
 22
0.0
 32
0.0
 13
1.0
 23
0.0
 33
0.0
 40
0.0
 40
0.0
 40
0.0
 40
0.0
 40
1.0
 40
1.0
 40
1.0
 40
2.0
 40
2.0
 40
2.0
 40
3.0
 40
3.0
 40
3.0
 40
4.0
 40
4.0
 40
4.0
 40
4.0
 10
2.974824361508783
 20
3.197778580808428
 30
0.0
 10
2.988902449451416
 20
3.197778580808428
 30
0.0
 10
3.000308464212998
 20
3.212349729873747
 30
0.0
 10
3.000308464212998
 20
3.230338594608876
 30
0.0
 10
3.000308464212998
 20
3.248317345884213
 30
0.0
 10
2.988902449451416
 20
3.262888494949543
 30
0.0
 10
2.974824361508783
 20
3.262888494949543
 30
0.0
 10
2.960748261715834
 20
3.262888494949543
 30
0.0
 10
2.949342246954226
 20
3.248317345884213
 30
0.0
 10
2.949342246954226
 20
3.230338594608876
 30
0.0
 10
2.949342246954226
 20
3.212349729873747
 30
0.0
 10
2.960748261715834
 20
3.197778580808428
 30
0.0
 10
2.974824361508783
 20
3.197778580808428
 30
0.0
  0
HATCH
  5
108
330
1F
100
AcDbEntity
  8
Layer 1
 62
     7
420
 16777215
100
AcDbHatch
 10
0.0
 20
0.0
 30
0.0
210
0.0
220
0.0
230
1.0
  2
SOLID
 70
     1
 71
     0
 91
        1
 92
        1
 93
        1
 72
     4
 94
        3
 73
     0
 74
     1
 95
       17
 96
       13
 40
0.0
 40
0.0
 40
0.0
 40
0.0
 40
1.0
 40
1.0
 40
1.0
 40
2.0
 40
2.0
 40
2.0
 40
3.0
 40
3.0
 40
3.0
 40
4.0
 40
4.0
 40
4.0
 40
4.0
 10
2.974824361508783
 20
3.197778580808428
 10
2.988902449451416
 20
3.197778580808428
 10
3.000308464212998
 20
3.212349729873747
 10
3.000308464212998
 20
3.230338594608876
 10
3.000308464212998
 20
3.248317345884213
 10
2.988902449451416
 20
3.262888494949543
 10
2.974824361508783
 20
3.262888494949543
 10
2.960748261715834
 20
3.262888494949543
 10
2.949342246954226
 20
3.248317345884213
 10
2.949342246954226
 20
3.230338594608876
 10
2.949342246954226
 20
3.212349729873747
 10
2.960748261715834
 20
3.197778580808428
 10
2.974824361508783
 20
3.197778580808428
 97
        0
 97
        0
 75
     2
 76
     1
 98
        0
  0
SPLINE
  5
109
330
1F
100
AcDbEntity
  8
Layer 1
 62
     7
420
 16777215
370
    15
100
AcDbSpline
210
0.0
220
0.0
230
1.0
 70
    11
 71
     3
 72
    17
 73
    13
 74
     0
 42
0.0000000001
 43
0.0000000001
 12
1.0
 22
0.0
 32
0.0
 13
1.0
 23
0.0
 33
0.0
 40
0.0
 40
0.0
 40
0.0
 40
0.0
 40
1.0
 40
1.0
 40
1.0
 40
2.0
 40
2.0
 40
2.0
 40
3.0
 40
3.0
 40
3.0
 40
4.0
 40
4.0
 40
4.0
 40
4.0
 10
2.963273211819948
 20
3.199050996608914
 30
0.0
 10
2.977349311612872
 20
3.199050996608914
 30
0.0
 10
2.98875532637448
 20
3.213632086422674
 30
0.0
 10
2.98875532637448
 20
3.23161101044151
 30
0.0
 10
2.98875532637448
 20
3.249589761684711
 30
0.0
 10
2.977349311612872
 20
3.264168863348787
 30
0.0
 10
2.963273211819948
 20
3.264168863348787
 30
0.0
 10
2.949197112026998
 20
3.264168863348787
 30
0.0
 10
2.937781156516949
 20
3.249589761684711
 30
0.0
 10
2.937781156516949
 20
3.23161101044151
 30
0.0
 10
2.937781156516949
 20
3.213632086422674
 30
0.0
 10
2.949197112026998
 20
3.199050996608914
 30
0.0
 10
2.963273211819948
 20
3.199050996608914
 30
0.0
  0
HATCH
  5
10A
330
1F
100
AcDbEntity
  8
Layer 1
 62
   254
420
 13358815
100
AcDbHatch
 10
0.0
 20
0.0
 30
0.0
210
0.0
220
0.0
230
1.0
  2
SOLID
 70
     1
 71
     0
 91
        1
 92
        1
 93
        1
 72
     4
 94
        3
 73
     0
 74
     1
 95
       17
 96
       13
 40
0.0
 40
0.0
 40
0.0
 40
0.0
 40
1.0
 40
1.0
 40
1.0
 40
2.0
 40
2.0
 40
2.0
 40
3.0
 40
3.0
 40
3.0
 40
4.0
 40
4.0
 40
4.0
 40
4.0
 10
2.963273211819948
 20
3.199050996608914
 10
2.977349311612872
 20
3.199050996608914
 10
2.98875532637448
 20
3.213632086422674
 10
2.98875532637448
 20
3.23161101044151
 10
2.98875532637448
 20
3.249589761684711
 10
2.977349311612872
 20
3.264168863348787
 10
2.963273211819948
 20
3.264168863348787
 10
2.949197112026998
 20
3.264168863348787
 10
2.937781156516949
 20
3.249589761684711
 10
2.937781156516949
 20
3.23161101044151
 10
2.937781156516949
 20
3.213632086422674
 10
2.949197112026998
 20
3.199050996608914
 10
2.963273211819948
 20
3.199050996608914
 97
        0
 97
        0
 75
     2
 76
     1
 98
        0
  0
SPLINE
  5
10B
330
1F
100
AcDbEntity
  8
Layer 1
 62
     7
420
 16777215
370
    15
100
AcDbSpline
210
0.0
220
0.0
230
1.0
 70
    11
 71
     3
 72
    17
 73
    13
 74
     0
 42
0.0000000001
 43
0.0000000001
 12
1.0
 22
0.0
 32
0.0
 13
1.0
 23
0.0
 33
0.0
 40
0.0
 40
0.0
 40
0.0
 40
0.0
 40
1.0
 40
1.0
 40
1.0
 40
2.0
 40
2.0
 40
2.0
 40
3.0
 40
3.0
 40
3.0
 40
4.0
 40
4.0
 40
4.0
 40
4.0
 10
2.9391112286584
 20
3.751440494147194
 30
0.0
 10
2.953177387702908
 20
3.751440494147194
 30
0.0
 10
2.964593343212957
 20
3.766021583960954
 30
0.0
 10
2.964593343212957
 20
3.784000421591978
 30
0.0
 10
2.964593343212957
 20
3.801979259222978
 30
0.0
 10
2.953177387702908
 20
3.816560349036738
 30
0.0
 10
2.9391112286584
 20
3.816560349036738
 30
0.0
 10
2.925035128865475
 20
3.816560349036738
 30
0.0
 10
2.913617185205744
 20
3.801979259222978
 30
0.0
 10
2.913617185205744
 20
3.784000421591978
 30
0.0
 10
2.913617185205744
 20
3.766021583960954
 30
0.0
 10
2.925035128865475
 20
3.751440494147194
 30
0.0
 10
2.9391112286584
 20
3.751440494147194
 30
0.0
  0
HATCH
  5
10C
330
1F
100
AcDbEntity
  8
Layer 1
 62
     7
420
 16777215
100
AcDbHatch
 10
0.0
 20
0.0
 30
0.0
210
0.0
220
0.0
230
1.0
  2
SOLID
 70
     1
 71
     0
 91
        1
 92
        1
 93
        1
 72
     4
 94
        3
 73
     0
 74
     1
 95
       17
 96
       13
 40
0.0
 40
0.0
 40
0.0
 40
0.0
 40
1.0
 40
1.0
 40
1.0
 40
2.0
 40
2.0
 40
2.0
 40
3.0
 40
3.0
 40
3.0
 40
4.0
 40
4.0
 40
4.0
 40
4.0
 10
2.9391112286584
 20
3.751440494147194
 10
2.953177387702908
 20
3.751440494147194
 10
2.964593343212957
 20
3.766021583960954
 10
2.964593343212957
 20
3.784000421591978
 10
2.964593343212957
 20
3.801979259222978
 10
2.953177387702908
 20
3.816560349036738
 10
2.9391112286584
 20
3.816560349036738
 10
2.925035128865475
 20
3.816560349036738
 10
2.913617185205744
 20
3.801979259222978
 10
2.913617185205744
 20
3.784000421591978
 10
2.913617185205744
 20
3.766021583960954
 10
2.925035128865475
 20
3.751440494147194
 10
2.9391112286584
 20
3.751440494147194
 97
        0
 97
        0
 75
     2
 76
     1
 98
        0
  0
SPLINE
  5
10D
330
1F
100
AcDbEntity
  8
Layer 1
 62
     7
420
 16777215
370
    15
100
AcDbSpline
210
0.0
220
0.0
230
1.0
 70
    11
 71
     3
 72
    17
 73
    13
 74
     0
 42
0.0000000001
 43
0.0000000001
 12
1.0
 22
0.0
 32
0.0
 13
1.0
 23
0.0
 33
0.0
 40
0.0
 40
0.0
 40
0.0
 40
0.0
 40
1.0
 40
1.0
 40
1.0
 40
2.0
 40
2.0
 40
2.0
 40
3.0
 40
3.0
 40
3.0
 40
4.0
 40
4.0
 40
4.0
 40
4.0
 10
2.92754815007144
 20
3.75271290994768
 30
0.0
 10
2.94162424986439
 20
3.75271290994768
 30
0.0
 10
2.953032252775655
 20
3.767293999761439
 30
0.0
 10
2.953032252775655
 20
3.785272837392464
 30
0.0
 10
2.953032252775655
 20
3.803251675023476
 30
0.0
 10
2.94162424986439
 20
3.817832764837236
 30
0.0
 10
2.92754815007144
 20
3.817832764837236
 30
0.0
 10
2.91347205027849
 20
3.817832764837236
 30
0.0
 10
2.902066035516908
 20
3.803251675023476
 30
0.0
 10
2.902066035516908
 20
3.785272837392464
 30
0.0
 10
2.902066035516908
 20
3.767293999761439
 30
0.0
 10
2.91347205027849
 20
3.75271290994768
 30
0.0
 10
2.92754815007144
 20
3.75271290994768
 30
0.0
  0
HATCH
  5
10E
330
1F
100
AcDbEntity
  8
Layer 1
 62
   254
420
 13358815
100
AcDbHatch
 10
0.0
 20
0.0
 30
0.0
210
0.0
220
0.0
230
1.0
  2
SOLID
 70
     1
 71
     0
 91
        1
 92
        1
 93
        1
 72
     4
 94
        3
 73
     0
 74
     1
 95
       17
 96
       13
 40
0.0
 40
0.0
 40
0.0
 40
0.0
 40
1.0
 40
1.0
 40
1.0
 40
2.0
 40
2.0
 40
2.0
 40
3.0
 40
3.0
 40
3.0
 40
4.0
 40
4.0
 40
4.0
 40
4.0
 10
2.92754815007144
 20
3.75271290994768
 10
2.94162424986439
 20
3.75271290994768
 10
2.953032252775655
 20
3.767293999761439
 10
2.953032252775655
 20
3.785272837392464
 10
2.953032252775655
 20
3.803251675023476
 10
2.94162424986439
 20
3.817832764837236
 10
2.92754815007144
 20
3.817832764837236
 10
2.91347205027849
 20
3.817832764837236
 10
2.902066035516908
 20
3.803251675023476
 10
2.902066035516908
 20
3.785272837392464
 10
2.902066035516908
 20
3.767293999761439
 10
2.91347205027849
 20
3.75271290994768
 10
2.92754815007144
 20
3.75271290994768
 97
        0
 97
        0
 75
     2
 76
     1
 98
        0
  0
INSERT
  5
111
330
1F
100
AcDbEntity
  8
Callout
100
AcDbBlockReference
  2
block 2
 10
0.0
 20
0.0
 30
0.0
  0
MTEXT
  5
126
330
1F
100
AcDbEntity
  8
Callout
 62
   250
420
  2301728
100
AcDbMText
 10
3.346060964309597
 20
2.2072321097126
 30
0.0
 40
0.1797614474032531
 41
0.0
 46
0.0
 71
     7
 72
     1
  1
\fHelvetica Neue LT Std 77 Condensed|b1|i0|c0|p34;\W1.00856;F\H0.141241;2
 11
0.9915126386809732
 21
0.1300103354964287
 31
0.0
 73
     1
 44
1.0
  0
INSERT
  5
128
330
1F
100
AcDbEntity
  8
Callout
100
AcDbBlockReference
  2
block 3
 10
0.0
 20
0.0
 30
0.0
  0
MTEXT
  5
13D
330
1F
100
AcDbEntity
  8
Callout
 62
   250
420
  2301728
100
AcDbMText
 10
2.358899495255577
 20
4.781341792724157
 30
0.0
 40
0.1778650764860617
 41
0.0
 46
0.0
 71
     7
 72
     1
  1
\fHelvetica Neue LT Std 77 Condensed|b1|i0|c0|p34;\W1.01931;F\H0.139751;1
 11
0.9810528000493651
 21
-0.193740557228734
 31
0.0
 73
     1
 44
1.0
  0
MTEXT
  5
13E
330
1F
100
AcDbEntity
  8
Callout
 62
   250
420
  2236191
100
AcDbMText
 10
3.645398457845052
 20
4.724016825358072
 30
0.0
 40
0.118
 41
0.0
 46
0.0
 71
     7
 72
     1
  1
\fHelvetica Neue LT Std 57 Condensed|b0|i0|c0|p34;\W1;GA1
 73
     1
 44
1.0
  0
POLYLINE
  5
13F
330
1F
100
AcDbEntity
  8
Callout
 62
   250
420
  2236191
370
    18
100
AcDb2dPolyline
 66
     1
 10
0.0
 20
0.0
 30
0.0
  0
VERTEX
  5
140
330
13F
100
AcDbEntity
  8
Callout
 62
   250
420
  2236191
370
    18
100
AcDbVertex
100
AcDb2dVertex
 10
3.614247311827941
 20
4.724014336917561
 30
0.0
  0
VERTEX
  5
141
330
13F
100
AcDbEntity
  8
Callout
 62
   250
420
  2236191
370
    18
100
AcDbVertex
100
AcDb2dVertex
 10
2.988057485833906
 20
3.888543296650204
 30
0.0
  0
SEQEND
  5
142
330
13F
100
AcDbEntity
  8
Callout
 62
   250
420
  2236191
370
    18
  0
MTEXT
  5
143
330
1F
100
AcDbEntity
  8
Callout
 62
   250
420
  2236191
100
AcDbMText
 10
2.037032551235623
 20
1.545905854966905
 30
0.0
 40
0.118
 41
0.0
 46
0.0
 71
     7
 72
     1
  1
\fHelvetica Neue LT Std 55 Roman|b0|i0|c0|p34;\W1;SIMPSON Strong-Tie\H0.068794;®\H0.118; ^C
 73
     1
 44
1.0
  0
MTEXT
  5
144
330
1F
100
AcDbEntity
  8
Callout
 62
   250
420
  2236191
100
AcDbMText
 10
2.282732963562012
 20
1.345913992987739
 30
0.0
 40
0.118
 41
0.0
 46
0.0
 71
     7
 72
     1
  1
\fHelvetica Neue LT Std 55 Roman|b0|i0|c0|p34;\W1;GA1 Installation 
 73
     1
 44
1.0
  0
ENDSEC
  0
SECTION
  2
OBJECTS
  0
DICTIONARY
  5
C
330
0
100
AcDbDictionary
281
     1
  3
ACAD_GROUP
350
D
  3
ACAD_LAYOUT
350
1A
  3
ACAD_MATERIAL
350
3B
  3
ACAD_MLEADERSTYLE
350
146
  3
ACAD_MLINESTYLE
350
17
  3
ACAD_PLOTSETTINGS
350
19
  3
ACAD_PLOTSTYLENAME
350
E
  3
ACAD_TABLESTYLE
350
145
  3
ACAD_VISUALSTYLE
350
2A
  0
SUN
  5
3F
330
29
100
AcDbSun
 90
        1
290
     0
 63
     7
421
 16777215
 40
1.0
291
     1
 91
  2455826
 92
 54000000
292
     0
 70
     2
 71
   256
280
     1
  0
DICTIONARY
  5
D
102
{ACAD_REACTORS
330
C
102
}
330
C
100
AcDbDictionary
281
     1
  0
DICTIONARY
  5
1A
102
{ACAD_REACTORS
330
C
102
}
330
C
100
AcDbDictionary
281
     1
  3
Layout1
350
1E
  3
Layout2
350
26
  3
Model
350
22
  0
DICTIONARY
  5
3B
102
{ACAD_REACTORS
330
C
102
}
330
C
100
AcDbDictionary
281
     1
  3
ByBlock
350
3D
  3
ByLayer
350
3C
  3
Global
350
3E
  0
DICTIONARY
  5
146
102
{ACAD_REACTORS
330
C
102
}
330
C
100
AcDbDictionary
281
     1
  0
DICTIONARY
  5
17
102
{ACAD_REACTORS
330
C
102
}
330
C
100
AcDbDictionary
281
     1
  3
Standard
350
18
  0
DICTIONARY
  5
19
102
{ACAD_REACTORS
330
C
102
}
330
C
100
AcDbDictionary
281
     1
  0
ACDBDICTIONARYWDFLT
  5
E
102
{ACAD_REACTORS
330
C
102
}
330
C
100
AcDbDictionary
281
     1
  3
Normal
350
F
100
AcDbDictionaryWithDefault
340
F
  0
DICTIONARY
  5
145
102
{ACAD_REACTORS
330
C
102
}
330
C
100
AcDbDictionary
281
     1
  0
DICTIONARY
  5
2A
102
{ACAD_REACTORS
330
C
102
}
330
C
100
AcDbDictionary
281
     1
  3
2dWireframe
350
2F
  3
3D Hidden
350
31
  3
3dWireframe
350
30
  3
Basic
350
32
  3
Brighten
350
36
  3
ColorChange
350
3A
  3
Conceptual
350
34
  3
Dim
350
35
  3
Facepattern
350
39
  3
Flat
350
2B
  3
FlatWithEdges
350
2C
  3
Gouraud
350
2D
  3
GouraudWithEdges
350
2E
  3
Linepattern
350
38
  3
Realistic
350
33
  3
Thicken
350
37
  0
LAYOUT
  5
1E
102
{ACAD_REACTORS
330
1A
102
}
330
1A
100
AcDbPlotSettings
  1

  2
none_device
  4

  6

 40
0.0
 41
0.0
 42
0.0
 43
0.0
 44
0.0
 45
0.0
 46
0.0
 47
0.0
 48
0.0
 49
0.0
140
0.0
141
0.0
142
1.0
143
1.0
 70
   688
 72
     0
 73
     0
 74
     5
  7

 75
    16
 76
     0
 77
     2
 78
   300
147
1.0
148
0.0
149
0.0
100
AcDbLayout
  1
Layout1
 70
     1
 71
     1
 10
0.0
 20
0.0
 11
12.0
 21
9.0
 12
0.0
 22
0.0
 32
0.0
 14
1.000000000000000E+20
 24
1.000000000000000E+20
 34
1.000000000000000E+20
 15
-1.000000000000000E+20
 25
-1.000000000000000E+20
 35
-1.000000000000000E+20
146
0.0
 13
0.0
 23
0.0
 33
0.0
 16
1.0
 26
0.0
 36
0.0
 17
0.0
 27
1.0
 37
0.0
 76
     0
330
1B
  0
LAYOUT
  5
26
102
{ACAD_REACTORS
330
1A
102
}
330
1A
100
AcDbPlotSettings
  1

  2
none_device
  4

  6

 40
0.0
 41
0.0
 42
0.0
 43
0.0
 44
0.0
 45
0.0
 46
0.0
 47
0.0
 48
0.0
 49
0.0
140
0.0
141
0.0
142
1.0
143
1.0
 70
   688
 72
     0
 73
     0
 74
     5
  7

 75
    16
 76
     0
 77
     2
 78
   300
147
1.0
148
0.0
149
0.0
100
AcDbLayout
  1
Layout2
 70
     1
 71
     2
 10
0.0
 20
0.0
 11
0.0
 21
0.0
 12
0.0
 22
0.0
 32
0.0
 14
0.0
 24
0.0
 34
0.0
 15
0.0
 25
0.0
 35
0.0
146
0.0
 13
0.0
 23
0.0
 33
0.0
 16
1.0
 26
0.0
 36
0.0
 17
0.0
 27
1.0
 37
0.0
 76
     0
330
23
  0
LAYOUT
  5
22
102
{ACAD_REACTORS
330
1A
102
}
330
1A
100
AcDbPlotSettings
  1

  2
none_device
  4

  6

 40
0.0
 41
0.0
 42
0.0
 43
0.0
 44
0.0
 45
0.0
 46
0.0
 47
0.0
 48
0.0
 49
0.0
140
0.0
141
0.0
142
1.0
143
1.0
 70
  1712
 72
     0
 73
     0
 74
     0
  7

 75
     0
 76
     0
 77
     2
 78
   300
147
1.0
148
0.0
149
0.0
100
AcDbLayout
  1
Model
 70
     1
 71
     0
 10
0.0
 20
0.0
 11
12.0
 21
9.0
 12
0.0
 22
0.0
 32
0.0
 14
1.000000000000000E+20
 24
1.000000000000000E+20
 34
1.000000000000000E+20
 15
-1.000000000000000E+20
 25
-1.000000000000000E+20
 35
-1.000000000000000E+20
146
0.0
 13
0.0
 23
0.0
 33
0.0
 16
1.0
 26
0.0
 36
0.0
 17
0.0
 27
1.0
 37
0.0
 76
     0
330
1F
331
29
  0
MATERIAL
  5
3D
102
{ACAD_REACTORS
330
3B
102
}
330
3B
100
AcDbMaterial
  1
ByBlock
 72
     1
 94
      127
  0
MATERIAL
  5
3C
102
{ACAD_REACTORS
330
3B
102
}
330
3B
100
AcDbMaterial
  1
ByLayer
 72
     1
 94
      127
  0
MATERIAL
  5
3E
102
{ACAD_REACTORS
330
3B
102
}
330
3B
100
AcDbMaterial
  1
Global
 72
     1
 94
      127
  0
MLINESTYLE
  5
18
102
{ACAD_REACTORS
330
17
102
}
330
17
100
AcDbMlineStyle
  2
Standard
 70
     0
  3

 62
   256
 51
90.0
 52
90.0
 71
     2
 49
0.5
 62
   256
  6
BYLAYER
 49
-0.5
 62
   256
  6
BYLAYER
  0
ACDBPLACEHOLDER
  5
F
102
{ACAD_REACTORS
330
E
102
}
330
E
  0
VISUALSTYLE
  5
2F
102
{ACAD_REACTORS
330
2A
102
}
330
2A
100
AcDbVisualStyle
  2
2dWireframe
 70
     4
177
     2
291
     0
 71
     0
176
     1
 72
     2
176
     1
 73
     0
176
     1
 90
        0
176
     1
 40
-0.6
176
     1
 41
-30.0
176
     1
 62
     5
 63
     7
421
 16777215
176
     1
 74
     1
176
     1
 91
        4
176
     1
 64
     7
176
     1
 65
   257
176
     1
 75
     1
176
     1
175
     1
176
     1
 42
1.0
176
     1
 92
        0
176
     1
 66
   257
176
     1
 43
1.0
176
     1
 76
     1
176
     1
 77
     6
176
     1
 78
     2
176
     1
 67
     7
176
     1
 79
     5
176
     1
170
     0
176
     1
171
     0
176
     1
290
     0
176
     1
 93
        1
176
     1
 44
0.0
176
     1
173
     0
176
     1
  0
VISUALSTYLE
  5
31
102
{ACAD_REACTORS
330
2A
102
}
330
2A
100
AcDbVisualStyle
  2
3D Hidden
 70
     6
177
     2
291
     0
 71
     1
176
     1
 72
     2
176
     1
 73
     2
176
     1
 90
        0
176
     1
 40
-0.6
176
     1
 41
-30.0
176
     1
 62
     5
 63
     7
421
 16777215
176
     1
 74
     2
176
     1
 91
        2
176
     1
 64
     7
176
     1
 65
   257
176
     1
 75
     2
176
     1
175
     1
176
     1
 42
40.0
176
     1
 92
        0
176
     1
 66
   257
176
     1
 43
1.0
176
     1
 76
     1
176
     1
 77
     6
176
     1
 78
     2
176
     1
 67
     7
176
     1
 79
     3
176
     1
170
     0
176
     1
171
     0
176
     1
290
     0
176
     1
 93
        1
176
     1
 44
0.0
176
     1
173
     0
176
     1
  0
VISUALSTYLE
  5
30
102
{ACAD_REACTORS
330
2A
102
}
330
2A
100
AcDbVisualStyle
  2
3dWireframe
 70
     5
177
     2
291
     0
 71
     0
176
     1
 72
     2
176
     1
 73
     0
176
     1
 90
        0
176
     1
 40
-0.6
176
     1
 41
-30.0
176
     1
 62
     5
 63
     7
421
 16777215
176
     1
 74
     1
176
     1
 91
        4
176
     1
 64
     7
176
     1
 65
   257
176
     1
 75
     1
176
     1
175
     1
176
     1
 42
1.0
176
     1
 92
        0
176
     1
 66
   257
176
     1
 43
1.0
176
     1
 76
     1
176
     1
 77
     6
176
     1
 78
     2
176
     1
 67
     7
176
     1
 79
     5
176
     1
170
     0
176
     1
171
     0
176
     1
290
     0
176
     1
 93
        1
176
     1
 44
0.0
176
     1
173
     0
176
     1
  0
VISUALSTYLE
  5
32
102
{ACAD_REACTORS
330
2A
102
}
330
2A
100
AcDbVisualStyle
  2
Basic
 70
     7
177
     2
291
     1
 71
     1
176
     1
 72
     0
176
     1
 73
     1
176
     1
 90
        0
176
     1
 40
-0.6
176
     1
 41
-30.0
176
     1
 62
     5
 63
     7
421
 16777215
176
     1
 74
     0
176
     1
 91
        4
176
     1
 64
     7
176
     1
 65
   257
176
     1
 75
     1
176
     1
175
     1
176
     1
 42
1.0
176
     1
 92
        8
176
     1
 66
     7
176
     1
 43
1.0
176
     1
 76
     1
176
     1
 77
     6
176
     1
 78
     2
176
     1
 67
     7
176
     1
 79
     5
176
     1
170
     0
176
     1
171
     0
176
     1
290
     0
176
     1
 93
        1
176
     1
 44
0.0
176
     1
173
     0
176
     1
  0
VISUALSTYLE
  5
36
102
{ACAD_REACTORS
330
2A
102
}
330
2A
100
AcDbVisualStyle
  2
Brighten
 70
    12
177
     2
291
     1
 71
     2
176
     1
 72
     2
176
     1
 73
     0
176
     1
 90
        0
176
     1
 40
-0.6
176
     1
 41
-30.0
176
     1
 62
     5
 63
     7
421
 16777215
176
     1
 74
     1
176
     1
 91
        4
176
     1
 64
     7
176
     1
 65
   257
176
     1
 75
     1
176
     1
175
     1
176
     1
 42
1.0
176
     1
 92
        8
176
     1
 66
     7
176
     1
 43
1.0
176
     1
 76
     1
176
     1
 77
     6
176
     1
 78
     2
176
     1
 67
     7
176
     1
 79
     5
176
     1
170
     0
176
     1
171
     0
176
     1
290
     0
176
     1
 93
        1
176
     1
 44
50.0
176
     1
173
     0
176
     1
  0
VISUALSTYLE
  5
3A
102
{ACAD_REACTORS
330
2A
102
}
330
2A
100
AcDbVisualStyle
  2
ColorChange
 70
    16
177
     2
291
     1
 71
     2
176
     1
 72
     2
176
     1
 73
     3
176
     1
 90
        0
176
     1
 40
-0.6
176
     1
 41
-30.0
176
     1
 62
     5
 63
     8
421
  8421504
176
     1
 74
     1
176
     1
 91
        4
176
     1
 64
     7
176
     1
 65
   257
176
     1
 75
     1
176
     1
175
     1
176
     1
 42
1.0
176
     1
 92
        8
176
     1
 66
     8
424
  8421504
176
     1
 43
1.0
176
     1
 76
     1
176
     1
 77
     6
176
     1
 78
     2
176
     1
 67
     7
176
     1
 79
     5
176
     1
170
     0
176
     1
171
     0
176
     1
290
     0
176
     1
 93
        1
176
     1
 44
0.0
176
     1
173
     0
176
     1
  0
VISUALSTYLE
  5
34
102
{ACAD_REACTORS
330
2A
102
}
330
2A
100
AcDbVisualStyle
  2
Conceptual
 70
     9
177
     2
291
     0
 71
     3
176
     1
 72
     2
176
     1
 73
     0
176
     1
 90
        0
176
     1
 40
-0.6
176
     1
 41
-30.0
176
     1
 62
     5
 63
     7
421
 16777215
176
     1
 74
     2
176
     1
 91
        2
176
     1
 64
     7
176
     1
 65
   257
176
     1
 75
     1
176
     1
175
     1
176
     1
 42
40.0
176
     1
 92
        8
176
     1
 66
     7
176
     1
 43
1.0
176
     1
 76
     1
176
     1
 77
     6
176
     1
 78
     2
176
     1
 67
     7
176
     1
 79
     3
176
     1
170
     0
176
     1
171
     0
176
     1
290
     0
176
     1
 93
        1
176
     1
 44
0.0
176
     1
173
     0
176
     1
  0
VISUALSTYLE
  5
35
102
{ACAD_REACTORS
330
2A
102
}
330
2A
100
AcDbVisualStyle
  2
Dim
 70
    11
177
     2
291
     1
 71
     2
176
     1
 72
     2
176
     1
 73
     0
176
     1
 90
        0
176
     1
 40
-0.6
176
     1
 41
-30.0
176
     1
 62
     5
 63
     7
421
 16777215
176
     1
 74
     1
176
     1
 91
        4
176
     1
 64
     7
176
     1
 65
   257
176
     1
 75
     1
176
     1
175
     1
176
     1
 42
1.0
176
     1
 92
        8
176
     1
 66
     7
176
     1
 43
1.0
176
     1
 76
     1
176
     1
 77
     6
176
     1
 78
     2
176
     1
 67
     7
176
     1
 79
     5
176
     1
170
     0
176
     1
171
     0
176
     1
290
     0
176
     1
 93
        1
176
     1
 44
-50.0
176
     1
173
     0
176
     1
  0
VISUALSTYLE
  5
39
102
{ACAD_REACTORS
330
2A
102
}
330
2A
100
AcDbVisualStyle
  2
Facepattern
 70
    15
177
     2
291
     1
 71
     2
176
     1
 72
     2
176
     1
 73
     0
176
     1
 90
        0
176
     1
 40
-0.6
176
     1
 41
-30.0
176
     1
 62
     5
 63
     7
421
 16777215
176
     1
 74
     1
176
     1
 91
        4
176
     1
 64
     7
176
     1
 65
   257
176
     1
 75
     1
176
     1
175
     1
176
     1
 42
1.0
176
     1
 92
        8
176
     1
 66
     7
176
     1
 43
1.0
176
     1
 76
     1
176
     1
 77
     6
176
     1
 78
     2
176
     1
 67
     7
176
     1
 79
     5
176
     1
170
     0
176
     1
171
     0
176
     1
290
     0
176
     1
 93
        1
176
     1
 44
0.0
176
     1
173
     0
176
     1
  0
VISUALSTYLE
  5
2B
102
{ACAD_REACTORS
330
2A
102
}
330
2A
100
AcDbVisualStyle
  2
Flat
 70
     0
177
     2
291
     1
 71
     2
176
     1
 72
     1
176
     1
 73
     1
176
     1
 90
        2
176
     1
 40
-0.6
176
     1
 41
30.0
176
     1
 62
     5
 63
     7
421
 16777215
176
     1
 74
     0
176
     1
 91
        4
176
     1
 64
     7
176
     1
 65
   257
176
     1
 75
     1
176
     1
175
     1
176
     1
 42
1.0
176
     1
 92
        8
176
     1
 66
     7
176
     1
 43
1.0
176
     1
 76
     1
176
     1
 77
     6
176
     1
 78
     2
176
     1
 67
     7
176
     1
 79
     5
176
     1
170
     0
176
     1
171
     0
176
     1
290
     0
176
     1
 93
       13
176
     1
 44
0.0
176
     1
173
     0
176
     1
  0
VISUALSTYLE
  5
2C
102
{ACAD_REACTORS
330
2A
102
}
330
2A
100
AcDbVisualStyle
  2
FlatWithEdges
 70
     1
177
     2
291
     1
 71
     2
176
     1
 72
     1
176
     1
 73
     1
176
     1
 90
        2
176
     1
 40
-0.6
176
     1
 41
30.0
176
     1
 62
     5
 63
     7
421
 16777215
176
     1
 74
     1
176
     1
 91
        4
176
     1
 64
     7
176
     1
 65
   257
176
     1
 75
     1
176
     1
175
     1
176
     1
 42
1.0
176
     1
 92
        0
176
     1
 66
   257
176
     1
 43
1.0
176
     1
 76
     1
176
     1
 77
     6
176
     1
 78
     2
176
     1
 67
     7
176
     1
 79
     5
176
     1
170
     0
176
     1
171
     0
176
     1
290
     0
176
     1
 93
       13
176
     1
 44
0.0
176
     1
173
     0
176
     1
  0
VISUALSTYLE
  5
2D
102
{ACAD_REACTORS
330
2A
102
}
330
2A
100
AcDbVisualStyle
  2
Gouraud
 70
     2
177
     2
291
     1
 71
     2
176
     1
 72
     2
176
     1
 73
     1
176
     1
 90
        2
176
     1
 40
-0.6
176
     1
 41
30.0
176
     1
 62
     5
 63
     7
421
 16777215
176
     1
 74
     0
176
     1
 91
        4
176
     1
 64
     7
176
     1
 65
   257
176
     1
 75
     1
176
     1
175
     1
176
     1
 42
1.0
176
     1
 92
        0
176
     1
 66
     7
176
     1
 43
1.0
176
     1
 76
     1
176
     1
 77
     6
176
     1
 78
     2
176
     1
 67
     7
176
     1
 79
     5
176
     1
170
     0
176
     1
171
     0
176
     1
290
     0
176
     1
 93
       13
176
     1
 44
0.0
176
     1
173
     0
176
     1
  0
VISUALSTYLE
  5
2E
102
{ACAD_REACTORS
330
2A
102
}
330
2A
100
AcDbVisualStyle
  2
GouraudWithEdges
 70
     3
177
     2
291
     1
 71
     2
176
     1
 72
     2
176
     1
 73
     1
176
     1
 90
        2
176
     1
 40
-0.6
176
     1
 41
30.0
176
     1
 62
     5
 63
     7
421
 16777215
176
     1
 74
     1
176
     1
 91
        4
176
     1
 64
     7
176
     1
 65
   257
176
     1
 75
     1
176
     1
175
     1
176
     1
 42
1.0
176
     1
 92
        0
176
     1
 66
   257
176
     1
 43
1.0
176
     1
 76
     1
176
     1
 77
     6
176
     1
 78
     2
176
     1
 67
     7
176
     1
 79
     5
176
     1
170
     0
176
     1
171
     0
176
     1
290
     0
176
     1
 93
       13
176
     1
 44
0.0
176
     1
173
     0
176
     1
  0
VISUALSTYLE
  5
38
102
{ACAD_REACTORS
330
2A
102
}
330
2A
100
AcDbVisualStyle
  2
Linepattern
 70
    14
177
     2
291
     1
 71
     2
176
     1
 72
     2
176
     1
 73
     0
176
     1
 90
        0
176
     1
 40
-0.6
176
     1
 41
-30.0
176
     1
 62
     5
 63
     7
421
 16777215
176
     1
 74
     1
176
     1
 91
        4
176
     1
 64
     7
176
     1
 65
   257
176
     1
 75
     7
176
     1
175
     7
176
     1
 42
1.0
176
     1
 92
        8
176
     1
 66
     7
176
     1
 43
1.0
176
     1
 76
     1
176
     1
 77
     6
176
     1
 78
     2
176
     1
 67
     7
176
     1
 79
     5
176
     1
170
     0
176
     1
171
     0
176
     1
290
     0
176
     1
 93
        1
176
     1
 44
0.0
176
     1
173
     0
176
     1
  0
VISUALSTYLE
  5
33
102
{ACAD_REACTORS
330
2A
102
}
330
2A
100
AcDbVisualStyle
  2
Realistic
 70
     8
177
     2
291
     0
 71
     2
176
     1
 72
     2
176
     1
 73
     0
176
     1
 90
        0
176
     1
 40
-0.6
176
     1
 41
-30.0
176
     1
 62
     5
 63
     7
421
 16777215
176
     1
 74
     1
176
     1
 91
        0
176
     1
 64
     7
176
     1
 65
   257
176
     1
 75
     1
176
     1
175
     1
176
     1
 42
1.0
176
     1
 92
        8
176
     1
 66
     8
424
  7895160
176
     1
 43
1.0
176
     1
 76
     1
176
     1
 77
     6
176
     1
 78
     2
176
     1
 67
     7
176
     1
 79
     5
176
     1
170
     0
176
     1
171
     0
176
     1
290
     0
176
     1
 93
       13
176
     1
 44
0.0
176
     1
173
     0
176
     1
  0
VISUALSTYLE
  5
37
102
{ACAD_REACTORS
330
2A
102
}
330
2A
100
AcDbVisualStyle
  2
Thicken
 70
    13
177
     2
291
     1
 71
     2
176
     1
 72
     2
176
     1
 73
     0
176
     1
 90
        0
176
     1
 40
-0.6
176
     1
 41
-30.0
176
     1
 62
     5
 63
     7
421
 16777215
176
     1
 74
     1
176
     1
 91
        4
176
     1
 64
     7
176
     1
 65
   257
176
     1
 75
     1
176
     1
175
     1
176
     1
 42
1.0
176
     1
 92
       12
176
     1
 66
     7
176
     1
 43
1.0
176
     1
 76
     1
176
     1
 77
     6
176
     1
 78
     2
176
     1
 67
     7
176
     1
 79
     5
176
     1
170
     0
176
     1
171
     0
176
     1
290
     0
176
     1
 93
        1
176
     1
 44
0.0
176
     1
173
     0
176
     1
  0
ENDSEC
  0
EOF
