  0
SECTION
  2
HEADER
  9
$ACADVER
  1
AC1024
  9
$ACADMAINTVER
 70
     6
  9
$DWGCODEPAGE
  3
ANSI_1252
  9
$INSBASE
 10
0.0
 20
0.0
 30
0.0
  9
$EXTMIN
 10
1.000000000000000E+20
 20
1.000000000000000E+20
 30
1.000000000000000E+20
  9
$EXTMAX
 10
-1.000000000000000E+20
 20
-1.000000000000000E+20
 30
-1.000000000000000E+20
  9
$LIMMIN
 10
0.0
 20
0.0
  9
$LIMMAX
 10
12.0
 20
9.0
  9
$ORTHOMODE
 70
     0
  9
$REGENMODE
 70
     1
  9
$FILLMODE
 70
     1
  9
$QTEXTMODE
 70
     0
  9
$MIRRTEXT
 70
     1
  9
$LTSCALE
 40
1.0
  9
$ATTMODE
 70
     1
  9
$TEXTSIZE
 40
0.2
  9
$TRACEWID
 40
0.05
  9
$TEXTSTYLE
  7
Standard
  9
$CLAYER
  8
0
  9
$CELTYPE
  6
ByLayer
  9
$CECOLOR
 62
   256
  9
$CELTSCALE
 40
1.0
  9
$DISPSILH
 70
     0
  9
$DIMSCALE
 40
1.0
  9
$DIMASZ
 40
0.18
  9
$DIMEXO
 40
0.0625
  9
$DIMDLI
 40
0.38
  9
$DIMRND
 40
0.0
  9
$DIMDLE
 40
0.0
  9
$DIMEXE
 40
0.18
  9
$DIMTP
 40
0.0
  9
$DIMTM
 40
0.0
  9
$DIMTXT
 40
0.18
  9
$DIMCEN
 40
0.09
  9
$DIMTSZ
 40
0.0
  9
$DIMTOL
 70
     0
  9
$DIMLIM
 70
     0
  9
$DIMTIH
 70
     1
  9
$DIMTOH
 70
     1
  9
$DIMSE1
 70
     0
  9
$DIMSE2
 70
     0
  9
$DIMTAD
 70
     0
  9
$DIMZIN
 70
     0
  9
$DIMBLK
  1

  9
$DIMASO
 70
     1
  9
$DIMSHO
 70
     1
  9
$DIMPOST
  1

  9
$DIMAPOST
  1

  9
$DIMALT
 70
     0
  9
$DIMALTD
 70
     2
  9
$DIMALTF
 40
25.4
  9
$DIMLFAC
 40
1.0
  9
$DIMTOFL
 70
     0
  9
$DIMTVP
 40
0.0
  9
$DIMTIX
 70
     0
  9
$DIMSOXD
 70
     0
  9
$DIMSAH
 70
     0
  9
$DIMBLK1
  1

  9
$DIMBLK2
  1

  9
$DIMSTYLE
  2
Standard
  9
$DIMCLRD
 70
     0
  9
$DIMCLRE
 70
     0
  9
$DIMCLRT
 70
     0
  9
$DIMTFAC
 40
1.0
  9
$DIMGAP
 40
0.09
  9
$DIMJUST
 70
     0
  9
$DIMSD1
 70
     0
  9
$DIMSD2
 70
     0
  9
$DIMTOLJ
 70
     1
  9
$DIMTZIN
 70
     0
  9
$DIMALTZ
 70
     0
  9
$DIMALTTZ
 70
     0
  9
$DIMUPT
 70
     0
  9
$DIMDEC
 70
     4
  9
$DIMTDEC
 70
     4
  9
$DIMALTU
 70
     2
  9
$DIMALTTD
 70
     2
  9
$DIMTXSTY
  7
Standard
  9
$DIMAUNIT
 70
     0
  9
$DIMADEC
 70
     0
  9
$DIMALTRND
 40
0.0
  9
$DIMAZIN
 70
     0
  9
$DIMDSEP
 70
    46
  9
$DIMATFIT
 70
     3
  9
$DIMFRAC
 70
     0
  9
$DIMLDRBLK
  1

  9
$DIMLUNIT
 70
     2
  9
$DIMLWD
 70
    -2
  9
$DIMLWE
 70
    -2
  9
$DIMTMOVE
 70
     0
  9
$DIMFXL
 40
1.0
  9
$DIMFXLON
 70
     0
  9
$DIMJOGANG
 40
0.7853981633974483
  9
$DIMTFILL
 70
     0
  9
$DIMTFILLCLR
 70
     0
  9
$DIMARCSYM
 70
     0
  9
$DIMLTYPE
  6

  9
$DIMLTEX1
  6

  9
$DIMLTEX2
  6

  9
$DIMTXTDIRECTION
 70
     0
  9
$LUNITS
 70
     2
  9
$LUPREC
 70
     4
  9
$SKETCHINC
 40
0.1
  9
$FILLETRAD
 40
0.5
  9
$AUNITS
 70
     0
  9
$AUPREC
 70
     0
  9
$MENU
  1
.
  9
$ELEVATION
 40
0.0
  9
$PELEVATION
 40
0.0
  9
$THICKNESS
 40
0.0
  9
$LIMCHECK
 70
     0
  9
$CHAMFERA
 40
0.5
  9
$CHAMFERB
 40
0.5
  9
$CHAMFERC
 40
1.0
  9
$CHAMFERD
 40
0.0
  9
$SKPOLY
 70
     0
  9
$TDCREATE
 40
2458864.529041204
  9
$TDUCREATE
 40
2458863.987374537
  9
$TDUPDATE
 40
2458864.529041759
  9
$TDUUPDATE
 40
2458863.987375093
  9
$TDINDWG
 40
0.0000000116
  9
$TDUSRTIMER
 40
0.0000000116
  9
$USRTIMER
 70
     1
  9
$ANGBASE
 50
0.0
  9
$ANGDIR
 70
     0
  9
$PDMODE
 70
     0
  9
$PDSIZE
 40
0.0
  9
$PLINEWID
 40
0.0
  9
$SPLFRAME
 70
     0
  9
$SPLINETYPE
 70
     6
  9
$SPLINESEGS
 70
     8
  9
$HANDSEED
  5
213
  9
$SURFTAB1
 70
     6
  9
$SURFTAB2
 70
     6
  9
$SURFTYPE
 70
     6
  9
$SURFU
 70
     6
  9
$SURFV
 70
     6
  9
$UCSBASE
  2

  9
$UCSNAME
  2

  9
$UCSORG
 10
0.0
 20
0.0
 30
0.0
  9
$UCSXDIR
 10
1.0
 20
0.0
 30
0.0
  9
$UCSYDIR
 10
0.0
 20
1.0
 30
0.0
  9
$UCSORTHOREF
  2

  9
$UCSORTHOVIEW
 70
     0
  9
$UCSORGTOP
 10
0.0
 20
0.0
 30
0.0
  9
$UCSORGBOTTOM
 10
0.0
 20
0.0
 30
0.0
  9
$UCSORGLEFT
 10
0.0
 20
0.0
 30
0.0
  9
$UCSORGRIGHT
 10
0.0
 20
0.0
 30
0.0
  9
$UCSORGFRONT
 10
0.0
 20
0.0
 30
0.0
  9
$UCSORGBACK
 10
0.0
 20
0.0
 30
0.0
  9
$PUCSBASE
  2

  9
$PUCSNAME
  2

  9
$PUCSORG
 10
0.0
 20
0.0
 30
0.0
  9
$PUCSXDIR
 10
1.0
 20
0.0
 30
0.0
  9
$PUCSYDIR
 10
0.0
 20
1.0
 30
0.0
  9
$PUCSORTHOREF
  2

  9
$PUCSORTHOVIEW
 70
     0
  9
$PUCSORGTOP
 10
0.0
 20
0.0
 30
0.0
  9
$PUCSORGBOTTOM
 10
0.0
 20
0.0
 30
0.0
  9
$PUCSORGLEFT
 10
0.0
 20
0.0
 30
0.0
  9
$PUCSORGRIGHT
 10
0.0
 20
0.0
 30
0.0
  9
$PUCSORGFRONT
 10
0.0
 20
0.0
 30
0.0
  9
$PUCSORGBACK
 10
0.0
 20
0.0
 30
0.0
  9
$USERI1
 70
     0
  9
$USERI2
 70
     0
  9
$USERI3
 70
     0
  9
$USERI4
 70
     0
  9
$USERI5
 70
     0
  9
$USERR1
 40
0.0
  9
$USERR2
 40
0.0
  9
$USERR3
 40
0.0
  9
$USERR4
 40
0.0
  9
$USERR5
 40
0.0
  9
$WORLDVIEW
 70
     1
  9
$SHADEDGE
 70
     3
  9
$SHADEDIF
 70
    70
  9
$TILEMODE
 70
     1
  9
$MAXACTVP
 70
    64
  9
$PINSBASE
 10
0.0
 20
0.0
 30
0.0
  9
$PLIMCHECK
 70
     0
  9
$PEXTMIN
 10
1.000000000000000E+20
 20
1.000000000000000E+20
 30
1.000000000000000E+20
  9
$PEXTMAX
 10
-1.000000000000000E+20
 20
-1.000000000000000E+20
 30
-1.000000000000000E+20
  9
$PLIMMIN
 10
0.0
 20
0.0
  9
$PLIMMAX
 10
12.0
 20
9.0
  9
$UNITMODE
 70
     0
  9
$VISRETAIN
 70
     1
  9
$PLINEGEN
 70
     0
  9
$PSLTSCALE
 70
     1
  9
$TREEDEPTH
 70
  3020
  9
$CMLSTYLE
  2
Standard
  9
$CMLJUST
 70
     0
  9
$CMLSCALE
 40
1.0
  9
$PROXYGRAPHICS
 70
     1
  9
$MEASUREMENT
 70
     0
  9
$CELWEIGHT
370
    -1
  9
$ENDCAPS
280
     0
  9
$JOINSTYLE
280
     0
  9
$LWDISPLAY
290
     1
  9
$INSUNITS
 70
     1
  9
$HYPERLINKBASE
  1

  9
$STYLESHEET
  1

  9
$XEDIT
290
     1
  9
$CEPSNTYPE
380
     0
  9
$PSTYLEMODE
290
     1
  9
$FINGERPRINTGUID
  2
{99BEDD63-5ABC-416D-AC7C-D45FD4E93DED}
  9
$VERSIONGUID
  2
{FAEB1C32-E019-11D5-929B-00C0DF256EC4}
  9
$EXTNAMES
290
     1
  9
$PSVPSCALE
 40
0.0
  9
$OLESTARTUP
290
     0
  9
$SORTENTS
280
   127
  9
$INDEXCTL
280
     0
  9
$HIDETEXT
280
     1
  9
$XCLIPFRAME
280
     2
  9
$HALOGAP
280
     0
  9
$OBSCOLOR
 70
   257
  9
$OBSLTYPE
280
     0
  9
$INTERSECTIONDISPLAY
280
     0
  9
$INTERSECTIONCOLOR
 70
   257
  9
$DIMASSOC
280
     2
  9
$PROJECTNAME
  1

  9
$CAMERADISPLAY
290
     0
  9
$LENSLENGTH
 40
50.0
  9
$CAMERAHEIGHT
 40
0.0
  9
$STEPSPERSEC
 40
2.0
  9
$STEPSIZE
 40
6.0
  9
$3DDWFPREC
 40
2.0
  9
$PSOLWIDTH
 40
0.25
  9
$PSOLHEIGHT
 40
4.0
  9
$LOFTANG1
 40
1.570796326794897
  9
$LOFTANG2
 40
1.570796326794897
  9
$LOFTMAG1
 40
0.0
  9
$LOFTMAG2
 40
0.0
  9
$LOFTPARAM
 70
     7
  9
$LOFTNORMALS
280
     1
  9
$LATITUDE
 40
37.795
  9
$LONGITUDE
 40
-122.394
  9
$NORTHDIRECTION
 40
0.0
  9
$TIMEZONE
 70
 -8000
  9
$LIGHTGLYPHDISPLAY
280
     1
  9
$TILEMODELIGHTSYNCH
280
     1
  9
$CMATERIAL
347
3C
  9
$SOLIDHIST
280
     1
  9
$SHOWHIST
280
     1
  9
$DWFFRAME
280
     2
  9
$DGNFRAME
280
     2
  9
$REALWORLDSCALE
290
     1
  9
$INTERFERECOLOR
 62
   256
  9
$CSHADOW
280
     0
  9
$SHADOWPLANELOCATION
 40
0.0
  0
ENDSEC
  0
SECTION
  2
CLASSES
  0
CLASS
  1
ACDBDICTIONARYWDFLT
  2
AcDbDictionaryWithDefault
  3
ObjectDBX Classes
 90
        0
 91
        4
280
     0
281
     0
  0
CLASS
  1
VISUALSTYLE
  2
AcDbVisualStyle
  3
ObjectDBX Classes
 90
     4095
 91
        4
280
     0
281
     0
  0
CLASS
  1
MATERIAL
  2
AcDbMaterial
  3
ObjectDBX Classes
 90
     1153
 91
        4
280
     0
281
     0
  0
CLASS
  1
SUN
  2
AcDbSun
  3
SCENEOE
 90
     1024
 91
        4
280
     0
281
     0
  0
ENDSEC
  0
SECTION
  2
TABLES
  0
TABLE
  2
VPORT
  5
8
330
0
100
AcDbSymbolTable
 70
     1
  0
VPORT
  5
29
330
8
100
AcDbSymbolTableRecord
100
AcDbViewportTableRecord
  2
*Active
 70
     0
 10
0.0
 20
0.0
 11
1.0
 21
1.0
 12
0.0
 22
0.0
 13
0.0
 23
0.0
 14
0.5
 24
0.5
 15
0.5
 25
0.5
 16
0.0
 26
0.0
 36
1.0
 17
4.265417947802032
 27
5.863099851885635
 37
0.0
 40
11.69291338582677
 41
0.7070707070707065
 42
50.0
 43
0.0
 44
0.0
 50
0.0
 51
0.0
 71
     0
 72
   100
 73
     1
 74
     3
 75
     0
 76
     0
 77
     0
 78
     0
281
     0
 65
     1
110
0.0
120
0.0
130
0.0
111
1.0
121
0.0
131
0.0
112
0.0
122
1.0
132
0.0
 79
     0
146
0.0
 60
     3
 61
     5
292
     1
282
     1
141
0.0
142
0.0
 63
   250
361
3F
  0
ENDTAB
  0
TABLE
  2
LTYPE
  5
5
330
0
100
AcDbSymbolTable
 70
     1
  0
LTYPE
  5
14
330
5
100
AcDbSymbolTableRecord
100
AcDbLinetypeTableRecord
  2
ByBlock
 70
     0
  3

 72
    65
 73
     0
 40
0.0
  0
LTYPE
  5
15
330
5
100
AcDbSymbolTableRecord
100
AcDbLinetypeTableRecord
  2
ByLayer
 70
     0
  3

 72
    65
 73
     0
 40
0.0
  0
LTYPE
  5
16
330
5
100
AcDbSymbolTableRecord
100
AcDbLinetypeTableRecord
  2
Continuous
 70
     0
  3
Solid line
 72
    65
 73
     0
 40
0.0
  0
ENDTAB
  0
TABLE
  2
LAYER
  5
2
330
0
100
AcDbSymbolTable
 70
     4
  0
LAYER
  5
10
330
2
100
AcDbSymbolTableRecord
100
AcDbLayerTableRecord
  2
0
 70
     0
 62
     7
  6
Continuous
370
    -3
390
F
347
3E
  0
LAYER
  5
40
330
2
100
AcDbSymbolTableRecord
100
AcDbLayerTableRecord
  2
Wood
 70
     0
 62
     7
  6
Continuous
370
    -3
390
F
347
3E
  0
LAYER
  5
157
330
2
100
AcDbSymbolTableRecord
100
AcDbLayerTableRecord
  2
H2.5A
 70
     0
 62
     7
  6
Continuous
370
    -3
390
F
347
3E
  0
LAYER
  5
210
330
2
100
AcDbSymbolTableRecord
100
AcDbLayerTableRecord
  2
callout
 70
     0
 62
     7
  6
Continuous
370
    -3
390
F
347
3E
  0
ENDTAB
  0
TABLE
  2
STYLE
  5
3
330
0
100
AcDbSymbolTable
 70
     1
  0
STYLE
  5
11
330
3
100
AcDbSymbolTableRecord
100
AcDbTextStyleTableRecord
  2
Standard
 70
     0
 40
0.0
 41
1.0
 50
0.0
 71
     0
 42
0.2
  3
txt
  4

  0
ENDTAB
  0
TABLE
  2
VIEW
  5
6
330
0
100
AcDbSymbolTable
 70
     0
  0
ENDTAB
  0
TABLE
  2
UCS
  5
7
330
0
100
AcDbSymbolTable
 70
     0
  0
ENDTAB
  0
TABLE
  2
APPID
  5
9
330
0
100
AcDbSymbolTable
 70
     1
  0
APPID
  5
12
330
9
100
AcDbSymbolTableRecord
100
AcDbRegAppTableRecord
  2
ACAD
 70
     0
  0
ENDTAB
  0
TABLE
  2
DIMSTYLE
  5
A
330
0
100
AcDbSymbolTable
 70
     1
100
AcDbDimStyleTable
  0
DIMSTYLE
105
27
330
A
100
AcDbSymbolTableRecord
100
AcDbDimStyleTableRecord
  2
Standard
 70
     0
178
     0
340
11
  0
ENDTAB
  0
TABLE
  2
BLOCK_RECORD
  5
1
330
0
100
AcDbSymbolTable
 70
    23
  0
BLOCK_RECORD
  5
1F
330
1
100
AcDbSymbolTableRecord
100
AcDbBlockTableRecord
  2
*Model_Space
340
22
 70
     0
280
     1
281
     0
  0
BLOCK_RECORD
  5
1B
330
1
100
AcDbSymbolTableRecord
100
AcDbBlockTableRecord
  2
*Paper_Space
340
1E
 70
     0
280
     1
281
     0
  0
BLOCK_RECORD
  5
23
330
1
100
AcDbSymbolTableRecord
100
AcDbBlockTableRecord
  2
*Paper_Space0
340
26
 70
     0
280
     1
281
     0
  0
BLOCK_RECORD
  5
169
330
1
100
AcDbSymbolTableRecord
100
AcDbBlockTableRecord
  2
block 2
340
0
102
{BLKREFS
331
16A
102
}
 70
     0
280
     1
281
     0
  0
BLOCK_RECORD
  5
170
330
1
100
AcDbSymbolTableRecord
100
AcDbBlockTableRecord
  2
block 3
340
0
102
{BLKREFS
331
171
102
}
 70
     0
280
     1
281
     0
  0
BLOCK_RECORD
  5
183
330
1
100
AcDbSymbolTableRecord
100
AcDbBlockTableRecord
  2
block 4
340
0
102
{BLKREFS
331
184
102
}
 70
     0
280
     1
281
     0
  0
BLOCK_RECORD
  5
188
330
1
100
AcDbSymbolTableRecord
100
AcDbBlockTableRecord
  2
block 5
340
0
102
{BLKREFS
331
189
102
}
 70
     0
280
     1
281
     0
  0
BLOCK_RECORD
  5
18D
330
1
100
AcDbSymbolTableRecord
100
AcDbBlockTableRecord
  2
block 6
340
0
102
{BLKREFS
331
18E
102
}
 70
     0
280
     1
281
     0
  0
BLOCK_RECORD
  5
192
330
1
100
AcDbSymbolTableRecord
100
AcDbBlockTableRecord
  2
block 7
340
0
102
{BLKREFS
331
193
102
}
 70
     0
280
     1
281
     0
  0
BLOCK_RECORD
  5
197
330
1
100
AcDbSymbolTableRecord
100
AcDbBlockTableRecord
  2
block 8
340
0
102
{BLKREFS
331
198
102
}
 70
     0
280
     1
281
     0
  0
BLOCK_RECORD
  5
19C
330
1
100
AcDbSymbolTableRecord
100
AcDbBlockTableRecord
  2
block 9
340
0
102
{BLKREFS
331
19D
102
}
 70
     0
280
     1
281
     0
  0
BLOCK_RECORD
  5
1A1
330
1
100
AcDbSymbolTableRecord
100
AcDbBlockTableRecord
  2
block 10
340
0
102
{BLKREFS
331
1A2
102
}
 70
     0
280
     1
281
     0
  0
BLOCK_RECORD
  5
1A6
330
1
100
AcDbSymbolTableRecord
100
AcDbBlockTableRecord
  2
block 11
340
0
102
{BLKREFS
331
1A7
102
}
 70
     0
280
     1
281
     0
  0
BLOCK_RECORD
  5
1AB
330
1
100
AcDbSymbolTableRecord
100
AcDbBlockTableRecord
  2
block 12
340
0
102
{BLKREFS
331
1AC
102
}
 70
     0
280
     1
281
     0
  0
BLOCK_RECORD
  5
1B0
330
1
100
AcDbSymbolTableRecord
100
AcDbBlockTableRecord
  2
block 13
340
0
102
{BLKREFS
331
1B1
102
}
 70
     0
280
     1
281
     0
  0
BLOCK_RECORD
  5
1CD
330
1
100
AcDbSymbolTableRecord
100
AcDbBlockTableRecord
  2
block 14
340
0
102
{BLKREFS
331
1CE
102
}
 70
     0
280
     1
281
     0
  0
BLOCK_RECORD
  5
1D2
330
1
100
AcDbSymbolTableRecord
100
AcDbBlockTableRecord
  2
block 15
340
0
102
{BLKREFS
331
1D3
102
}
 70
     0
280
     1
281
     0
  0
BLOCK_RECORD
  5
1D7
330
1
100
AcDbSymbolTableRecord
100
AcDbBlockTableRecord
  2
block 16
340
0
102
{BLKREFS
331
1D8
102
}
 70
     0
280
     1
281
     0
  0
BLOCK_RECORD
  5
1DC
330
1
100
AcDbSymbolTableRecord
100
AcDbBlockTableRecord
  2
block 17
340
0
102
{BLKREFS
331
1DD
102
}
 70
     0
280
     1
281
     0
  0
BLOCK_RECORD
  5
1E1
330
1
100
AcDbSymbolTableRecord
100
AcDbBlockTableRecord
  2
block 18
340
0
102
{BLKREFS
331
1E2
102
}
 70
     0
280
     1
281
     0
  0
BLOCK_RECORD
  5
1E6
330
1
100
AcDbSymbolTableRecord
100
AcDbBlockTableRecord
  2
block 19
340
0
102
{BLKREFS
331
1E7
102
}
 70
     0
280
     1
281
     0
  0
BLOCK_RECORD
  5
1EB
330
1
100
AcDbSymbolTableRecord
100
AcDbBlockTableRecord
  2
block 20
340
0
102
{BLKREFS
331
1EC
102
}
 70
     0
280
     1
281
     0
  0
BLOCK_RECORD
  5
1F0
330
1
100
AcDbSymbolTableRecord
100
AcDbBlockTableRecord
  2
block 21
340
0
102
{BLKREFS
331
1F1
102
}
 70
     0
280
     1
281
     0
  0
BLOCK_RECORD
  5
1F5
330
1
100
AcDbSymbolTableRecord
100
AcDbBlockTableRecord
  2
block 22
340
0
102
{BLKREFS
331
1F6
102
}
 70
     0
280
     1
281
     0
  0
BLOCK_RECORD
  5
1FA
330
1
100
AcDbSymbolTableRecord
100
AcDbBlockTableRecord
  2
block 23
340
0
102
{BLKREFS
331
1FB
102
}
 70
     0
280
     1
281
     0
  0
ENDTAB
  0
ENDSEC
  0
SECTION
  2
BLOCKS
  0
BLOCK
  5
20
330
1F
100
AcDbEntity
  8
0
100
AcDbBlockBegin
  2
*Model_Space
 70
     0
 10
0.0
 20
0.0
 30
0.0
  3
*Model_Space
  1

  0
ENDBLK
  5
21
330
1F
100
AcDbEntity
  8
0
100
AcDbBlockEnd
  0
BLOCK
  5
1C
330
1B
100
AcDbEntity
 67
     1
  8
0
100
AcDbBlockBegin
  2
*Paper_Space
 70
     0
 10
0.0
 20
0.0
 30
0.0
  3
*Paper_Space
  1

  0
ENDBLK
  5
1D
330
1B
100
AcDbEntity
 67
     1
  8
0
100
AcDbBlockEnd
  0
BLOCK
  5
24
330
23
100
AcDbEntity
  8
0
100
AcDbBlockBegin
  2
*Paper_Space0
 70
     0
 10
0.0
 20
0.0
 30
0.0
  3
*Paper_Space0
  1

  0
ENDBLK
  5
25
330
23
100
AcDbEntity
  8
0
100
AcDbBlockEnd
  0
BLOCK
  5
16B
330
169
100
AcDbEntity
  8
0
100
AcDbBlockBegin
  2
block 2
 70
     0
 10
0.0
 20
0.0
 30
0.0
  3
block 2
  1

  0
SPLINE
  5
16D
330
169
100
AcDbEntity
  8
H2.5A
 62
   250
420
  2301728
370
    25
100
AcDbSpline
210
0.0
220
0.0
230
1.0
 70
     8
 71
     3
 72
    14
 73
    10
 74
     0
 42
0.0000000001
 43
0.0000000001
 12
1.0
 22
0.0
 32
0.0
 13
1.0
 23
0.0
 33
0.0
 40
0.0
 40
0.0
 40
0.0
 40
0.0
 40
1.0
 40
1.0
 40
1.0
 40
2.0
 40
2.0
 40
2.0
 40
3.0
 40
3.0
 40
3.0
 40
3.0
 10
4.296493648362254
 20
6.890631949853526
 30
0.0
 10
4.296493648362254
 20
6.890631949853526
 30
0.0
 10
4.329479758640066
 20
6.934034727631304
 30
0.0
 10
4.249618649546417
 20
6.934034727631304
 30
0.0
 10
4.249618649546417
 20
6.934034727631304
 30
0.0
 10
4.245711810810386
 20
6.934034727631304
 30
0.0
 10
4.245711810810386
 20
6.934034727631304
 30
0.0
 10
4.165850699699275
 20
6.934034727631304
 30
0.0
 10
4.198836810810386
 20
6.890631949853526
 30
0.0
 10
4.198836810810386
 20
6.890631949853526
 30
0.0
  0
SPLINE
  5
16E
330
169
100
AcDbEntity
  8
H2.5A
 62
   250
420
  2301728
370
    18
100
AcDbSpline
210
0.0
220
0.0
230
1.0
 70
     8
 71
     3
 72
    14
 73
    10
 74
     0
 42
0.0000000001
 43
0.0000000001
 12
1.0
 22
0.0
 32
0.0
 13
1.0
 23
0.0
 33
0.0
 40
0.0
 40
0.0
 40
0.0
 40
0.0
 40
1.0
 40
1.0
 40
1.0
 40
2.0
 40
2.0
 40
2.0
 40
3.0
 40
3.0
 40
3.0
 40
3.0
 10
4.27856170437081
 20
6.901855412309992
 30
0.0
 10
4.271149204558065
 20
6.903530412267665
 30
0.0
 10
4.261668649242008
 20
6.904520838742415
 30
0.0
 10
4.249618649546417
 20
6.904520838742415
 30
0.0
 10
4.249618649546417
 20
6.904520838742415
 30
0.0
 10
4.245711810810386
 20
6.904520838742415
 30
0.0
 10
4.245711810810386
 20
6.904520838742415
 30
0.0
 10
4.232338094427405
 20
6.904520838742415
 30
0.0
 10
4.222125594685394
 20
6.903306801162203
 30
0.0
 10
4.214393650436275
 20
6.901279023435651
 30
0.0
  0
SPLINE
  5
16F
330
169
100
AcDbEntity
  8
H2.5A
 62
   250
420
  2301728
370
    18
100
AcDbSpline
210
0.0
220
0.0
230
1.0
 70
     8
 71
     3
 72
    14
 73
    10
 74
     0
 42
0.0000000001
 43
0.0000000001
 12
1.0
 22
0.0
 32
0.0
 13
1.0
 23
0.0
 33
0.0
 40
0.0
 40
0.0
 40
0.0
 40
0.0
 40
1.0
 40
1.0
 40
1.0
 40
2.0
 40
2.0
 40
2.0
 40
3.0
 40
3.0
 40
3.0
 40
3.0
 10
4.263065871428934
 20
6.886691523804163
 30
0.0
 10
4.258983927087607
 20
6.886997079352
 30
0.0
 10
4.254514482756071
 20
6.887159727631304
 30
0.0
 10
4.249618649546417
 20
6.887159727631304
 30
0.0
 10
4.249618649546417
 20
6.887159727631304
 30
0.0
 10
4.245711810810386
 20
6.887159727631304
 30
0.0
 10
4.245711810810386
 20
6.887159727631304
 30
0.0
 10
4.237770038734626
 20
6.887159727631304
 30
0.0
 10
4.230940872240479
 20
6.886731801580936
 30
0.0
 10
4.225088094610555
 20
6.885959579378209
 30
0.0
  0
ENDBLK
  5
16C
330
169
100
AcDbEntity
  8
0
100
AcDbBlockEnd
  0
BLOCK
  5
172
330
170
100
AcDbEntity
  8
0
100
AcDbBlockBegin
  2
block 3
 70
     0
 10
0.0
 20
0.0
 30
0.0
  3
block 3
  1

  0
SPLINE
  5
174
330
170
100
AcDbEntity
  8
H2.5A
 62
   250
420
  2301728
370
    25
100
AcDbSpline
210
0.0
220
0.0
230
1.0
 70
     8
 71
     3
 72
    14
 73
    10
 74
     0
 42
0.0000000001
 43
0.0000000001
 12
1.0
 22
0.0
 32
0.0
 13
1.0
 23
0.0
 33
0.0
 40
0.0
 40
0.0
 40
0.0
 40
0.0
 40
1.0
 40
1.0
 40
1.0
 40
2.0
 40
2.0
 40
2.0
 40
3.0
 40
3.0
 40
3.0
 40
3.0
 10
4.296493648362254
 20
6.684034727631304
 30
0.0
 10
4.296493648362254
 20
6.684034727631304
 30
0.0
 10
4.329479758640066
 20
6.727437505409082
 30
0.0
 10
4.249618649546417
 20
6.727437505409082
 30
0.0
 10
4.249618649546417
 20
6.727437505409082
 30
0.0
 10
4.245711810810386
 20
6.727437505409082
 30
0.0
 10
4.245711810810386
 20
6.727437505409082
 30
0.0
 10
4.165850699699275
 20
6.727437505409082
 30
0.0
 10
4.198836810810386
 20
6.684034727631304
 30
0.0
 10
4.198836810810386
 20
6.684034727631304
 30
0.0
  0
SPLINE
  5
175
330
170
100
AcDbEntity
  8
H2.5A
 62
   250
420
  2301728
370
    18
100
AcDbSpline
210
0.0
220
0.0
230
1.0
 70
     8
 71
     3
 72
    14
 73
    10
 74
     0
 42
0.0000000001
 43
0.0000000001
 12
1.0
 22
0.0
 32
0.0
 13
1.0
 23
0.0
 33
0.0
 40
0.0
 40
0.0
 40
0.0
 40
0.0
 40
1.0
 40
1.0
 40
1.0
 40
2.0
 40
2.0
 40
2.0
 40
3.0
 40
3.0
 40
3.0
 40
3.0
 10
4.27856170437081
 20
6.695258195306842
 30
0.0
 10
4.271149204558065
 20
6.696933195264528
 30
0.0
 10
4.261668649242008
 20
6.697923616520193
 30
0.0
 10
4.249618649546417
 20
6.697923616520193
 30
0.0
 10
4.249618649546417
 20
6.697923616520193
 30
0.0
 10
4.245711810810386
 20
6.697923616520193
 30
0.0
 10
4.245711810810386
 20
6.697923616520193
 30
0.0
 10
4.232338094427405
 20
6.697923616520193
 30
0.0
 10
4.222125594685394
 20
6.696709584159066
 30
0.0
 10
4.214393650436275
 20
6.694681806432514
 30
0.0
  0
SPLINE
  5
176
330
170
100
AcDbEntity
  8
H2.5A
 62
   250
420
  2301728
370
    18
100
AcDbSpline
210
0.0
220
0.0
230
1.0
 70
     8
 71
     3
 72
    14
 73
    10
 74
     0
 42
0.0000000001
 43
0.0000000001
 12
1.0
 22
0.0
 32
0.0
 13
1.0
 23
0.0
 33
0.0
 40
0.0
 40
0.0
 40
0.0
 40
0.0
 40
1.0
 40
1.0
 40
1.0
 40
2.0
 40
2.0
 40
2.0
 40
3.0
 40
3.0
 40
3.0
 40
3.0
 10
4.263065871428934
 20
6.680094306801025
 30
0.0
 10
4.258983927087607
 20
6.680399862348862
 30
0.0
 10
4.254514482756071
 20
6.680562505409082
 30
0.0
 10
4.249618649546417
 20
6.680562505409082
 30
0.0
 10
4.249618649546417
 20
6.680562505409082
 30
0.0
 10
4.245711810810386
 20
6.680562505409082
 30
0.0
 10
4.245711810810386
 20
6.680562505409082
 30
0.0
 10
4.237770038734626
 20
6.680562505409082
 30
0.0
 10
4.230940872240479
 20
6.680134584577786
 30
0.0
 10
4.225088094610555
 20
6.679362362375072
 30
0.0
  0
ENDBLK
  5
173
330
170
100
AcDbEntity
  8
0
100
AcDbBlockEnd
  0
BLOCK
  5
185
330
183
100
AcDbEntity
  8
0
100
AcDbBlockBegin
  2
block 4
 70
     0
 10
0.0
 20
0.0
 30
0.0
  3
block 4
  1

  0
SPLINE
  5
187
330
183
100
AcDbEntity
  8
H2.5A
 62
   250
420
  2301728
370
    18
100
AcDbSpline
210
0.0
220
0.0
230
1.0
 70
    11
 71
     3
 72
    17
 73
    13
 74
     0
 42
0.0000000001
 43
0.0000000001
 12
1.0
 22
0.0
 32
0.0
 13
1.0
 23
0.0
 33
0.0
 40
0.0
 40
0.0
 40
0.0
 40
0.0
 40
1.0
 40
1.0
 40
1.0
 40
2.0
 40
2.0
 40
2.0
 40
3.0
 40
3.0
 40
3.0
 40
4.0
 40
4.0
 40
4.0
 40
4.0
 10
3.987438100614099
 20
7.678595670465647
 30
0.0
 10
3.991825600503262
 20
7.657477615443579
 30
0.0
 10
3.981836810810389
 20
7.637538727058389
 30
0.0
 10
3.965132545622029
 20
7.634073449368151
 30
0.0
 10
3.948436712710468
 20
7.630615116122183
 30
0.0
 10
3.931339490920158
 20
7.644924837982911
 30
0.0
 10
3.926958935475265
 20
7.666049837449249
 30
0.0
 10
3.922571435586102
 20
7.687167892471317
 30
0.0
 10
3.932553379778394
 20
7.707105391967653
 30
0.0
 10
3.949264490467335
 20
7.710570669657891
 30
0.0
 10
3.965960323378908
 20
7.714030391792713
 30
0.0
 10
3.983057545169206
 20
7.699720669931985
 30
0.0
 10
3.987438100614099
 20
7.678595670465647
 30
0.0
  0
INSERT
  5
189
330
183
100
AcDbEntity
  8
H2.5A
100
AcDbBlockReference
  2
block 5
 10
0.0
 20
0.0
 30
0.0
  0
ENDBLK
  5
186
330
183
100
AcDbEntity
  8
0
100
AcDbBlockEnd
  0
BLOCK
  5
18A
330
188
100
AcDbEntity
  8
0
100
AcDbBlockBegin
  2
block 5
 70
     0
 10
0.0
 20
0.0
 30
0.0
  3
block 5
  1

  0
SPLINE
  5
18C
330
188
100
AcDbEntity
  8
H2.5A
 62
   250
420
  2301728
370
    25
100
AcDbSpline
210
0.0
220
0.0
230
1.0
 70
    11
 71
     3
 72
    29
 73
    25
 74
     0
 42
0.0000000001
 43
0.0000000001
 12
1.0
 22
0.0
 32
0.0
 13
1.0
 23
0.0
 33
0.0
 40
0.0
 40
0.0
 40
0.0
 40
0.0
 40
1.0
 40
1.0
 40
1.0
 40
2.0
 40
2.0
 40
2.0
 40
3.0
 40
3.0
 40
3.0
 40
4.0
 40
4.0
 40
4.0
 40
5.0
 40
5.0
 40
5.0
 40
6.0
 40
6.0
 40
6.0
 40
7.0
 40
7.0
 40
7.0
 40
8.0
 40
8.0
 40
8.0
 40
8.0
 10
3.996003477477062
 20
7.682604172075748
 30
0.0
 10
3.991242267184664
 20
7.703647058721685
 30
0.0
 10
3.97389504540067
 20
7.717651225034589
 30
0.0
 10
3.957265879154091
 20
7.71389428068504
 30
0.0
 10
3.954506157001585
 20
7.713270838742422
 30
0.0
 10
3.952024212619853
 20
7.71205678073146
 30
0.0
 10
3.949684033032604
 20
7.710605391879236
 30
0.0
 10
3.949542268238095
 20
7.710577614102172
 30
0.0
 10
3.949406255254833
 20
7.710598447434967
 30
0.0
 10
3.949264490467335
 20
7.710570669657891
 30
0.0
 10
3.932553379778394
 20
7.707105391967653
 30
0.0
 10
3.922571435586102
 20
7.687167892471317
 30
0.0
 10
3.926958935475265
 20
7.666049837449249
 30
0.0
 10
3.931339490920158
 20
7.644924837982911
 30
0.0
 10
3.948436712710468
 20
7.630615116122183
 30
0.0
 10
3.965132545622029
 20
7.634073449368151
 30
0.0
 10
3.968117267768851
 20
7.634691504908093
 30
0.0
 10
3.970796434367836
 20
7.635999838208376
 30
0.0
 10
3.973311712082073
 20
7.637580393724003
 30
0.0
 10
3.973704767627699
 20
7.637648449277826
 30
0.0
 10
3.974097823173325
 20
7.637606782612225
 30
0.0
 10
3.974492267607805
 20
7.637695671498881
 30
0.0
 10
3.991133933854068
 20
7.641459560292686
 30
0.0
 10
4.000764489166335
 20
7.661573448673443
 30
0.0
 10
3.996003477477062
 20
7.682604172075748
 30
0.0
  0
ENDBLK
  5
18B
330
188
100
AcDbEntity
  8
0
100
AcDbBlockEnd
  0
BLOCK
  5
18F
330
18D
100
AcDbEntity
  8
0
100
AcDbBlockBegin
  2
block 6
 70
     0
 10
0.0
 20
0.0
 30
0.0
  3
block 6
  1

  0
SPLINE
  5
191
330
18D
100
AcDbEntity
  8
H2.5A
 62
   250
420
  2301728
370
    18
100
AcDbSpline
210
0.0
220
0.0
230
1.0
 70
    11
 71
     3
 72
    17
 73
    13
 74
     0
 42
0.0000000001
 43
0.0000000001
 12
1.0
 22
0.0
 32
0.0
 13
1.0
 23
0.0
 33
0.0
 40
0.0
 40
0.0
 40
0.0
 40
0.0
 40
1.0
 40
1.0
 40
1.0
 40
2.0
 40
2.0
 40
2.0
 40
3.0
 40
3.0
 40
3.0
 40
4.0
 40
4.0
 40
4.0
 40
4.0
 10
4.170115873777061
 20
7.643337338023015
 30
0.0
 10
4.174503477477048
 20
7.622219283000946
 30
0.0
 10
4.164514485029662
 20
7.602281783504609
 30
0.0
 10
4.147811707673832
 20
7.598816505814372
 30
0.0
 10
4.131114588588161
 20
7.595356783679549
 30
0.0
 10
4.114018652971961
 20
7.609666505540278
 30
0.0
 10
4.109636708638214
 20
7.630791505006616
 30
0.0
 10
4.105249208749052
 20
7.651909727631303
 30
0.0
 10
4.115232541830184
 20
7.671848448413875
 30
0.0
 10
4.131942263630283
 20
7.675313726104112
 30
0.0
 10
4.148638096541845
 20
7.678772059350081
 30
0.0
 10
4.165735318332155
 20
7.664462337489352
 30
0.0
 10
4.170115873777061
 20
7.643337338023015
 30
0.0
  0
INSERT
  5
193
330
18D
100
AcDbEntity
  8
H2.5A
100
AcDbBlockReference
  2
block 7
 10
0.0
 20
0.0
 30
0.0
  0
ENDBLK
  5
190
330
18D
100
AcDbEntity
  8
0
100
AcDbBlockEnd
  0
BLOCK
  5
194
330
192
100
AcDbEntity
  8
0
100
AcDbBlockBegin
  2
block 7
 70
     0
 10
0.0
 20
0.0
 30
0.0
  3
block 7
  1

  0
SPLINE
  5
196
330
192
100
AcDbEntity
  8
H2.5A
 62
   250
420
  2301728
370
    25
100
AcDbSpline
210
0.0
220
0.0
230
1.0
 70
    11
 71
     3
 72
    29
 73
    25
 74
     0
 42
0.0000000001
 43
0.0000000001
 12
1.0
 22
0.0
 32
0.0
 13
1.0
 23
0.0
 33
0.0
 40
0.0
 40
0.0
 40
0.0
 40
0.0
 40
1.0
 40
1.0
 40
1.0
 40
2.0
 40
2.0
 40
2.0
 40
3.0
 40
3.0
 40
3.0
 40
4.0
 40
4.0
 40
4.0
 40
5.0
 40
5.0
 40
5.0
 40
6.0
 40
6.0
 40
6.0
 40
7.0
 40
7.0
 40
7.0
 40
8.0
 40
8.0
 40
8.0
 40
8.0
 10
4.178681151338449
 20
7.647345671255076
 30
0.0
 10
4.173921429236467
 20
7.668388726279052
 30
0.0
 10
4.156572921921502
 20
7.682392892591944
 30
0.0
 10
4.139945041205894
 20
7.678635948242408
 30
0.0
 10
4.137184033032605
 20
7.678012337147051
 30
0.0
 10
4.134701985782789
 20
7.676798616520196
 30
0.0
 10
4.132363096952986
 20
7.67534705943659
 30
0.0
 10
4.132220041401044
 20
7.675320670548368
 30
0.0
 10
4.132083930293371
 20
7.675340283186856
 30
0.0
 10
4.131942263630283
 20
7.675313726104112
 30
0.0
 10
4.115232541830184
 20
7.671848448413875
 30
0.0
 10
4.105249208749052
 20
7.651909727631303
 30
0.0
 10
4.109636708638214
 20
7.630791505006616
 30
0.0
 10
4.114018652971961
 20
7.609666505540278
 30
0.0
 10
4.131114588588161
 20
7.595356783679549
 30
0.0
 10
4.147811707673832
 20
7.598816505814372
 30
0.0
 10
4.150795144143722
 20
7.59943317246546
 30
0.0
 10
4.153474207530786
 20
7.600741505765755
 30
0.0
 10
4.155989588588164
 20
7.60232206128137
 30
0.0
 10
4.156383929679501
 20
7.602390116835206
 30
0.0
 10
4.156776985225128
 20
7.602349839058446
 30
0.0
 10
4.15717014414372
 20
7.602437505409082
 30
0.0
 10
4.173811707017017
 20
7.606201394297967
 30
0.0
 10
4.183442262329284
 20
7.62631511623081
 30
0.0
 10
4.178681151338449
 20
7.647345671255076
 30
0.0
  0
ENDBLK
  5
195
330
192
100
AcDbEntity
  8
0
100
AcDbBlockEnd
  0
BLOCK
  5
199
330
197
100
AcDbEntity
  8
0
100
AcDbBlockBegin
  2
block 8
 70
     0
 10
0.0
 20
0.0
 30
0.0
  3
block 8
  1

  0
SPLINE
  5
19B
330
197
100
AcDbEntity
  8
H2.5A
 62
   250
420
  2301728
370
    18
100
AcDbSpline
210
0.0
220
0.0
230
1.0
 70
    11
 71
     3
 72
    17
 73
    13
 74
     0
 42
0.0000000001
 43
0.0000000001
 12
1.0
 22
0.0
 32
0.0
 13
1.0
 23
0.0
 33
0.0
 40
0.0
 40
0.0
 40
0.0
 40
0.0
 40
1.0
 40
1.0
 40
1.0
 40
2.0
 40
2.0
 40
2.0
 40
3.0
 40
3.0
 40
3.0
 40
4.0
 40
4.0
 40
4.0
 40
4.0
 10
4.170115873777061
 20
7.349934567657201
 30
0.0
 10
4.174503477477048
 20
7.328816512635158
 30
0.0
 10
4.164514485029662
 20
7.308879013138809
 30
0.0
 10
4.147811707673832
 20
7.305413735448572
 30
0.0
 10
4.131114588588161
 20
7.301954013313749
 30
0.0
 10
4.114018652971961
 20
7.316263735174465
 30
0.0
 10
4.109636708638214
 20
7.337388734640816
 30
0.0
 10
4.105249208749052
 20
7.358506949853525
 30
0.0
 10
4.115232541830184
 20
7.378445678048074
 30
0.0
 10
4.131942263630283
 20
7.381910955738324
 30
0.0
 10
4.148638096541845
 20
7.38536928898428
 30
0.0
 10
4.165735318332155
 20
7.371059567123552
 30
0.0
 10
4.170115873777061
 20
7.349934567657201
 30
0.0
  0
INSERT
  5
19D
330
197
100
AcDbEntity
  8
H2.5A
100
AcDbBlockReference
  2
block 9
 10
0.0
 20
0.0
 30
0.0
  0
ENDBLK
  5
19A
330
197
100
AcDbEntity
  8
0
100
AcDbBlockEnd
  0
BLOCK
  5
19E
330
19C
100
AcDbEntity
  8
0
100
AcDbBlockBegin
  2
block 9
 70
     0
 10
0.0
 20
0.0
 30
0.0
  3
block 9
  1

  0
SPLINE
  5
1A0
330
19C
100
AcDbEntity
  8
H2.5A
 62
   250
420
  2301728
370
    25
100
AcDbSpline
210
0.0
220
0.0
230
1.0
 70
    11
 71
     3
 72
    29
 73
    25
 74
     0
 42
0.0000000001
 43
0.0000000001
 12
1.0
 22
0.0
 32
0.0
 13
1.0
 23
0.0
 33
0.0
 40
0.0
 40
0.0
 40
0.0
 40
0.0
 40
1.0
 40
1.0
 40
1.0
 40
2.0
 40
2.0
 40
2.0
 40
3.0
 40
3.0
 40
3.0
 40
4.0
 40
4.0
 40
4.0
 40
5.0
 40
5.0
 40
5.0
 40
6.0
 40
6.0
 40
6.0
 40
7.0
 40
7.0
 40
7.0
 40
8.0
 40
8.0
 40
8.0
 40
8.0
 10
4.178681151338449
 20
7.353942900889288
 30
0.0
 10
4.173921429236467
 20
7.374985955913252
 30
0.0
 10
4.156572921921502
 20
7.388990122226144
 30
0.0
 10
4.139945041205894
 20
7.385233177876607
 30
0.0
 10
4.137184033032605
 20
7.384609566781251
 30
0.0
 10
4.134701985782789
 20
7.383395838742419
 30
0.0
 10
4.132363096952986
 20
7.381944289070803
 30
0.0
 10
4.132220041401044
 20
7.381917900182581
 30
0.0
 10
4.132083930293371
 20
7.381937505409079
 30
0.0
 10
4.131942263630283
 20
7.381910955738324
 30
0.0
 10
4.115232541830184
 20
7.378445678048074
 30
0.0
 10
4.105249208749052
 20
7.358506949853525
 30
0.0
 10
4.109636708638214
 20
7.337388734640816
 30
0.0
 10
4.114018652971961
 20
7.316263735174465
 30
0.0
 10
4.131114588588161
 20
7.301954013313749
 30
0.0
 10
4.147811707673832
 20
7.305413735448572
 30
0.0
 10
4.150795144143722
 20
7.306030402099672
 30
0.0
 10
4.153474207530786
 20
7.307338735399942
 30
0.0
 10
4.155989588588164
 20
7.308919290915569
 30
0.0
 10
4.156383929679501
 20
7.308987346469406
 30
0.0
 10
4.156776985225128
 20
7.308947068692659
 30
0.0
 10
4.15717014414372
 20
7.309034727631304
 30
0.0
 10
4.173811707017017
 20
7.312798616520189
 30
0.0
 10
4.183442262329284
 20
7.33291234586501
 30
0.0
 10
4.178681151338449
 20
7.353942900889288
 30
0.0
  0
ENDBLK
  5
19F
330
19C
100
AcDbEntity
  8
0
100
AcDbBlockEnd
  0
BLOCK
  5
1A3
330
1A1
100
AcDbEntity
  8
0
100
AcDbBlockBegin
  2
block 10
 70
     0
 10
0.0
 20
0.0
 30
0.0
  3
block 10
  1

  0
SPLINE
  5
1A5
330
1A1
100
AcDbEntity
  8
H2.5A
 62
   250
420
  2301728
370
    18
100
AcDbSpline
210
0.0
220
0.0
230
1.0
 70
    11
 71
     3
 72
    17
 73
    13
 74
     0
 42
0.0000000001
 43
0.0000000001
 12
1.0
 22
0.0
 32
0.0
 13
1.0
 23
0.0
 33
0.0
 40
0.0
 40
0.0
 40
0.0
 40
0.0
 40
1.0
 40
1.0
 40
1.0
 40
2.0
 40
2.0
 40
2.0
 40
3.0
 40
3.0
 40
3.0
 40
4.0
 40
4.0
 40
4.0
 40
4.0
 10
4.001713100253482
 20
7.480142897701208
 30
0.0
 10
4.006100699699269
 20
7.45902484267914
 30
0.0
 10
3.996111711506096
 20
7.439087343182804
 30
0.0
 10
3.979408934150266
 20
7.435622065492566
 30
0.0
 10
3.962711810810383
 20
7.432162343357756
 30
0.0
 10
3.945615879448395
 20
7.446472065218472
 30
0.0
 10
3.941233935114648
 20
7.46759706468481
 30
0.0
 10
3.936846435225485
 20
7.488715283186858
 30
0.0
 10
3.946829768306618
 20
7.508654008092068
 30
0.0
 10
3.963539490106718
 20
7.512119285782306
 30
0.0
 10
3.980235323018279
 20
7.515577619028274
 30
0.0
 10
3.997332544808589
 20
7.501267897167546
 30
0.0
 10
4.001713100253482
 20
7.480142897701208
 30
0.0
  0
INSERT
  5
1A7
330
1A1
100
AcDbEntity
  8
H2.5A
100
AcDbBlockReference
  2
block 11
 10
0.0
 20
0.0
 30
0.0
  0
ENDBLK
  5
1A4
330
1A1
100
AcDbEntity
  8
0
100
AcDbBlockEnd
  0
BLOCK
  5
1A8
330
1A6
100
AcDbEntity
  8
0
100
AcDbBlockBegin
  2
block 11
 70
     0
 10
0.0
 20
0.0
 30
0.0
  3
block 11
  1

  0
SPLINE
  5
1AA
330
1A6
100
AcDbEntity
  8
H2.5A
 62
   250
420
  2301728
370
    25
100
AcDbSpline
210
0.0
220
0.0
230
1.0
 70
    11
 71
     3
 72
    29
 73
    25
 74
     0
 42
0.0000000001
 43
0.0000000001
 12
1.0
 22
0.0
 32
0.0
 13
1.0
 23
0.0
 33
0.0
 40
0.0
 40
0.0
 40
0.0
 40
0.0
 40
1.0
 40
1.0
 40
1.0
 40
2.0
 40
2.0
 40
2.0
 40
3.0
 40
3.0
 40
3.0
 40
4.0
 40
4.0
 40
4.0
 40
5.0
 40
5.0
 40
5.0
 40
6.0
 40
6.0
 40
6.0
 40
7.0
 40
7.0
 40
7.0
 40
8.0
 40
8.0
 40
8.0
 40
8.0
 10
4.010278377814883
 20
7.484151230933283
 30
0.0
 10
4.005518655712901
 20
7.505194285957246
 30
0.0
 10
3.988170144143724
 20
7.519198452270138
 30
0.0
 10
3.971542267682328
 20
7.515441507920602
 30
0.0
 10
3.968781255254827
 20
7.514817896825244
 30
0.0
 10
3.966299212259223
 20
7.513604172075752
 30
0.0
 10
3.96396032342942
 20
7.512152619114785
 30
0.0
 10
3.963817267877478
 20
7.512126230226563
 30
0.0
 10
3.963681156769805
 20
7.512145838742413
 30
0.0
 10
3.963539490106718
 20
7.512119285782306
 30
0.0
 10
3.946829768306618
 20
7.508654008092068
 30
0.0
 10
3.936846435225485
 20
7.488715283186858
 30
0.0
 10
3.941233935114648
 20
7.46759706468481
 30
0.0
 10
3.945615879448395
 20
7.446472065218472
 30
0.0
 10
3.962711810810383
 20
7.432162343357756
 30
0.0
 10
3.979408934150266
 20
7.435622065492566
 30
0.0
 10
3.982392366365944
 20
7.436238732143654
 30
0.0
 10
3.98507143400722
 20
7.437547065443924
 30
0.0
 10
3.987586810810386
 20
7.439127620959564
 30
0.0
 10
3.987981156155936
 20
7.4391956765134
 30
0.0
 10
3.988374211701575
 20
7.43915539873664
 30
0.0
 10
3.988767366365942
 20
7.439243060964637
 30
0.0
 10
4.005408933493464
 20
7.443006949853523
 30
0.0
 10
4.015039488805718
 20
7.463120675909003
 30
0.0
 10
4.010278377814883
 20
7.484151230933283
 30
0.0
  0
ENDBLK
  5
1A9
330
1A6
100
AcDbEntity
  8
0
100
AcDbBlockEnd
  0
BLOCK
  5
1AD
330
1AB
100
AcDbEntity
  8
0
100
AcDbBlockBegin
  2
block 12
 70
     0
 10
0.0
 20
0.0
 30
0.0
  3
block 12
  1

  0
SPLINE
  5
1AF
330
1AB
100
AcDbEntity
  8
H2.5A
 62
   250
420
  2301728
370
    18
100
AcDbSpline
210
0.0
220
0.0
230
1.0
 70
    11
 71
     3
 72
    17
 73
    13
 74
     0
 42
0.0000000001
 43
0.0000000001
 12
1.0
 22
0.0
 32
0.0
 13
1.0
 23
0.0
 33
0.0
 40
0.0
 40
0.0
 40
0.0
 40
0.0
 40
1.0
 40
1.0
 40
1.0
 40
2.0
 40
2.0
 40
2.0
 40
3.0
 40
3.0
 40
3.0
 40
4.0
 40
4.0
 40
4.0
 40
4.0
 10
4.093726986817905
 20
7.2353512372185
 30
0.0
 10
4.098114588588158
 20
7.214233182196431
 30
0.0
 10
4.088125598070519
 20
7.194295682700094
 30
0.0
 10
4.071422820714689
 20
7.190830405009857
 30
0.0
 10
4.054725699699272
 20
7.187370682875048
 30
0.0
 10
4.037629766012818
 20
7.201680404735763
 30
0.0
 10
4.033247821679071
 20
7.2228054042021
 30
0.0
 10
4.028860321789908
 20
7.243923616520192
 30
0.0
 10
4.038843654871041
 20
7.26386234760936
 30
0.0
 10
4.05555337667114
 20
7.267327625299597
 30
0.0
 10
4.072249209582714
 20
7.270785958545566
 30
0.0
 10
4.089346431373011
 20
7.256476236684837
 30
0.0
 10
4.093726986817905
 20
7.2353512372185
 30
0.0
  0
INSERT
  5
1B1
330
1AB
100
AcDbEntity
  8
H2.5A
100
AcDbBlockReference
  2
block 13
 10
0.0
 20
0.0
 30
0.0
  0
ENDBLK
  5
1AE
330
1AB
100
AcDbEntity
  8
0
100
AcDbBlockEnd
  0
BLOCK
  5
1B2
330
1B0
100
AcDbEntity
  8
0
100
AcDbBlockBegin
  2
block 13
 70
     0
 10
0.0
 20
0.0
 30
0.0
  3
block 13
  1

  0
SPLINE
  5
1B4
330
1B0
100
AcDbEntity
  8
H2.5A
 62
   250
420
  2301728
370
    25
100
AcDbSpline
210
0.0
220
0.0
230
1.0
 70
    11
 71
     3
 72
    29
 73
    25
 74
     0
 42
0.0000000001
 43
0.0000000001
 12
1.0
 22
0.0
 32
0.0
 13
1.0
 23
0.0
 33
0.0
 40
0.0
 40
0.0
 40
0.0
 40
0.0
 40
1.0
 40
1.0
 40
1.0
 40
2.0
 40
2.0
 40
2.0
 40
3.0
 40
3.0
 40
3.0
 40
4.0
 40
4.0
 40
4.0
 40
5.0
 40
5.0
 40
5.0
 40
6.0
 40
6.0
 40
6.0
 40
7.0
 40
7.0
 40
7.0
 40
8.0
 40
8.0
 40
8.0
 40
8.0
 10
4.102292264379305
 20
7.239359570450574
 30
0.0
 10
4.097532542277324
 20
7.260402625474537
 30
0.0
 10
4.080184033032613
 20
7.274406791787428
 30
0.0
 10
4.063556154246751
 20
7.270649847437893
 30
0.0
 10
4.060795144143715
 20
7.270026236342548
 30
0.0
 10
4.058313098823646
 20
7.268812505409086
 30
0.0
 10
4.055974209993843
 20
7.267360958632088
 30
0.0
 10
4.055831154441901
 20
7.267334569743866
 30
0.0
 10
4.055695043334228
 20
7.267354172075746
 30
0.0
 10
4.05555337667114
 20
7.267327625299597
 30
0.0
 10
4.038843654871041
 20
7.26386234760936
 30
0.0
 10
4.028860321789908
 20
7.243923616520192
 30
0.0
 10
4.033247821679071
 20
7.2228054042021
 30
0.0
 10
4.037629766012818
 20
7.201680404735763
 30
0.0
 10
4.054725699699272
 20
7.187370682875048
 30
0.0
 10
4.071422820714689
 20
7.190830405009857
 30
0.0
 10
4.074406255254833
 20
7.191447071660946
 30
0.0
 10
4.077085320571642
 20
7.192755404961215
 30
0.0
 10
4.079600699699275
 20
7.194335960476868
 30
0.0
 10
4.079995042720358
 20
7.194404016030691
 30
0.0
 10
4.080388098265985
 20
7.194363738253931
 30
0.0
 10
4.080781255254831
 20
7.194451394297971
 30
0.0
 10
4.097422820057874
 20
7.198215283186856
 30
0.0
 10
4.107053375370141
 20
7.218329015426295
 30
0.0
 10
4.102292264379305
 20
7.239359570450574
 30
0.0
  0
ENDBLK
  5
1B3
330
1B0
100
AcDbEntity
  8
0
100
AcDbBlockEnd
  0
BLOCK
  5
1CF
330
1CD
100
AcDbEntity
  8
0
100
AcDbBlockBegin
  2
block 14
 70
     0
 10
0.0
 20
0.0
 30
0.0
  3
block 14
  1

  0
SPLINE
  5
1D1
330
1CD
100
AcDbEntity
  8
H2.5A
 62
   250
420
  2301728
370
    18
100
AcDbSpline
210
0.0
220
0.0
230
1.0
 70
    11
 71
     3
 72
    17
 73
    13
 74
     0
 42
0.0000000001
 43
0.0000000001
 12
1.0
 22
0.0
 32
0.0
 13
1.0
 23
0.0
 33
0.0
 40
0.0
 40
0.0
 40
0.0
 40
0.0
 40
1.0
 40
1.0
 40
1.0
 40
2.0
 40
2.0
 40
2.0
 40
3.0
 40
3.0
 40
3.0
 40
4.0
 40
4.0
 40
4.0
 40
4.0
 10
4.468272810689414
 20
6.137512376063366
 30
0.0
 10
4.464217255236311
 20
6.1148609877467
 30
0.0
 10
4.470497810633206
 20
6.094787377142678
 30
0.0
 10
4.482297810335113
 20
6.092672099418337
 30
0.0
 10
4.49409781003702
 20
6.090555432805141
 30
0.0
 10
4.506942254156987
 20
6.10722487682848
 30
0.0
 10
4.51099780961009
 20
6.129862376256609
 30
0.0
 10
4.515053365063194
 20
6.152513764573276
 30
0.0
 10
4.508772809666298
 20
6.172587375177297
 30
0.0
 10
4.496972809964391
 20
6.174702652901626
 30
0.0
 10
4.485172810262484
 20
6.176819319514821
 30
0.0
 10
4.472328366142518
 20
6.160163764380033
 30
0.0
 10
4.468272810689414
 20
6.137512376063366
 30
0.0
  0
INSERT
  5
1D3
330
1CD
100
AcDbEntity
  8
H2.5A
100
AcDbBlockReference
  2
block 15
 10
0.0
 20
0.0
 30
0.0
  0
ENDBLK
  5
1D0
330
1CD
100
AcDbEntity
  8
0
100
AcDbBlockEnd
  0
BLOCK
  5
1D4
330
1D2
100
AcDbEntity
  8
0
100
AcDbBlockBegin
  2
block 15
 70
     0
 10
0.0
 20
0.0
 30
0.0
  3
block 15
  1

  0
SPLINE
  5
1D6
330
1D2
100
AcDbEntity
  8
H2.5A
 62
   250
420
  2301728
370
    25
100
AcDbSpline
210
0.0
220
0.0
230
1.0
 70
    11
 71
     3
 72
    29
 73
    25
 74
     0
 42
0.0000000001
 43
0.0000000001
 12
1.0
 22
0.0
 32
0.0
 13
1.0
 23
0.0
 33
0.0
 40
0.0
 40
0.0
 40
0.0
 40
0.0
 40
1.0
 40
1.0
 40
1.0
 40
2.0
 40
2.0
 40
2.0
 40
3.0
 40
3.0
 40
3.0
 40
4.0
 40
4.0
 40
4.0
 40
5.0
 40
5.0
 40
5.0
 40
6.0
 40
6.0
 40
6.0
 40
7.0
 40
7.0
 40
7.0
 40
8.0
 40
8.0
 40
8.0
 40
8.0
 10
4.496972809964391
 20
6.174702652901626
 30
0.0
 10
4.495549198889244
 20
6.174960986228434
 30
0.0
 10
4.494111698925559
 20
6.174920708451686
 30
0.0
 10
4.492674198961873
 20
6.174648486236328
 30
0.0
 10
4.491317254551707
 20
6.175516541769954
 30
0.0
 10
4.489865865699484
 20
6.176167930642388
 30
0.0
 10
4.488292254628125
 20
6.176438763968879
 30
0.0
 10
4.476492254926218
 20
6.178555430582074
 30
0.0
 10
4.463647810806251
 20
6.161899875447274
 30
0.0
 10
4.459592255353148
 20
6.139248487130607
 30
0.0
 10
4.455536699900045
 20
6.116597098813941
 30
0.0
 10
4.46181725529694
 20
6.096523488209932
 30
0.0
 10
4.473617254998847
 20
6.094408210485603
 30
0.0
 10
4.475040866073995
 20
6.094149877158783
 30
0.0
 10
4.47647836603768
 20
6.094204043824081
 30
0.0
 10
4.47791725489022
 20
6.094462377150888
 30
0.0
 10
4.47928669930007
 20
6.093594321617261
 30
0.0
 10
4.480738088152293
 20
6.092956821633366
 30
0.0
 10
4.482297810335113
 20
6.092672099418337
 30
0.0
 10
4.49409781003702
 20
6.090555432805141
 30
0.0
 10
4.506942254156987
 20
6.10722487682848
 30
0.0
 10
4.51099780961009
 20
6.129862376256609
 30
0.0
 10
4.515053365063194
 20
6.152513764573276
 30
0.0
 10
4.508772809666298
 20
6.172587375177297
 30
0.0
 10
4.496972809964391
 20
6.174702652901626
 30
0.0
  0
ENDBLK
  5
1D5
330
1D2
100
AcDbEntity
  8
0
100
AcDbBlockEnd
  0
BLOCK
  5
1D9
330
1D7
100
AcDbEntity
  8
0
100
AcDbBlockBegin
  2
block 16
 70
     0
 10
0.0
 20
0.0
 30
0.0
  3
block 16
  1

  0
SPLINE
  5
1DB
330
1D7
100
AcDbEntity
  8
H2.5A
 62
   250
420
  2301728
370
    18
100
AcDbSpline
210
0.0
220
0.0
230
1.0
 70
    11
 71
     3
 72
    17
 73
    13
 74
     0
 42
0.0000000001
 43
0.0000000001
 12
1.0
 22
0.0
 32
0.0
 13
1.0
 23
0.0
 33
0.0
 40
0.0
 40
0.0
 40
0.0
 40
0.0
 40
1.0
 40
1.0
 40
1.0
 40
2.0
 40
2.0
 40
2.0
 40
3.0
 40
3.0
 40
3.0
 40
4.0
 40
4.0
 40
4.0
 40
4.0
 10
4.360633924519712
 20
6.101054043651048
 30
0.0
 10
4.356578369066609
 20
6.078402655334381
 30
0.0
 10
4.362858924463504
 20
6.058329044730359
 30
0.0
 10
4.374658924165411
 20
6.056213767006018
 30
0.0
 10
4.386458923867318
 20
6.054097100392823
 30
0.0
 10
4.399303367987285
 20
6.070766544416162
 30
0.0
 10
4.403358923440388
 20
6.09340404384429
 30
0.0
 10
4.407414478893492
 20
6.116055432160957
 30
0.0
 10
4.401133923496596
 20
6.136129042764966
 30
0.0
 10
4.389333923794689
 20
6.138244320489307
 30
0.0
 10
4.377533924092782
 20
6.140360987102503
 30
0.0
 10
4.364689479972816
 20
6.123705431967715
 30
0.0
 10
4.360633924519712
 20
6.101054043651048
 30
0.0
  0
INSERT
  5
1DD
330
1D7
100
AcDbEntity
  8
H2.5A
100
AcDbBlockReference
  2
block 17
 10
0.0
 20
0.0
 30
0.0
  0
ENDBLK
  5
1DA
330
1D7
100
AcDbEntity
  8
0
100
AcDbBlockEnd
  0
BLOCK
  5
1DE
330
1DC
100
AcDbEntity
  8
0
100
AcDbBlockBegin
  2
block 17
 70
     0
 10
0.0
 20
0.0
 30
0.0
  3
block 17
  1

  0
SPLINE
  5
1E0
330
1DC
100
AcDbEntity
  8
H2.5A
 62
   250
420
  2301728
370
    25
100
AcDbSpline
210
0.0
220
0.0
230
1.0
 70
    11
 71
     3
 72
    29
 73
    25
 74
     0
 42
0.0000000001
 43
0.0000000001
 12
1.0
 22
0.0
 32
0.0
 13
1.0
 23
0.0
 33
0.0
 40
0.0
 40
0.0
 40
0.0
 40
0.0
 40
1.0
 40
1.0
 40
1.0
 40
2.0
 40
2.0
 40
2.0
 40
3.0
 40
3.0
 40
3.0
 40
4.0
 40
4.0
 40
4.0
 40
5.0
 40
5.0
 40
5.0
 40
6.0
 40
6.0
 40
6.0
 40
7.0
 40
7.0
 40
7.0
 40
8.0
 40
8.0
 40
8.0
 40
8.0
 10
4.389333923794689
 20
6.138244320489307
 30
0.0
 10
4.387910312719542
 20
6.138502653816115
 30
0.0
 10
4.386472812755857
 20
6.138462376039367
 30
0.0
 10
4.385035312792171
 20
6.138190153824009
 30
0.0
 10
4.383678368382006
 20
6.139058209357636
 30
0.0
 10
4.382226979529782
 20
6.13970959823007
 30
0.0
 10
4.380653368458423
 20
6.139980431556561
 30
0.0
 10
4.368853368756517
 20
6.142097098169743
 30
0.0
 10
4.35600892463655
 20
6.125441543034955
 30
0.0
 10
4.351953369183446
 20
6.102790154718289
 30
0.0
 10
4.347897813730343
 20
6.080138766401622
 30
0.0
 10
4.354178369127238
 20
6.060065155797613
 30
0.0
 10
4.365978368829145
 20
6.057949878073272
 30
0.0
 10
4.367401979904293
 20
6.057691544746452
 30
0.0
 10
4.368839479867979
 20
6.057745711411763
 30
0.0
 10
4.370278368720518
 20
6.05800404473857
 30
0.0
 10
4.371647813130368
 20
6.057135989204943
 30
0.0
 10
4.373099201982591
 20
6.056498489221036
 30
0.0
 10
4.374658924165411
 20
6.056213767006018
 30
0.0
 10
4.386458923867318
 20
6.054097100392823
 30
0.0
 10
4.399303367987285
 20
6.070766544416162
 30
0.0
 10
4.403358923440388
 20
6.09340404384429
 30
0.0
 10
4.407414478893492
 20
6.116055432160957
 30
0.0
 10
4.401133923496596
 20
6.136129042764966
 30
0.0
 10
4.389333923794689
 20
6.138244320489307
 30
0.0
  0
ENDBLK
  5
1DF
330
1DC
100
AcDbEntity
  8
0
100
AcDbBlockEnd
  0
BLOCK
  5
1E3
330
1E1
100
AcDbEntity
  8
0
100
AcDbBlockBegin
  2
block 18
 70
     0
 10
0.0
 20
0.0
 30
0.0
  3
block 18
  1

  0
SPLINE
  5
1E5
330
1E1
100
AcDbEntity
  8
H2.5A
 62
   250
420
  2301728
370
    18
100
AcDbSpline
210
0.0
220
0.0
230
1.0
 70
    11
 71
     3
 72
    17
 73
    13
 74
     0
 42
0.0000000001
 43
0.0000000001
 12
1.0
 22
0.0
 32
0.0
 13
1.0
 23
0.0
 33
0.0
 40
0.0
 40
0.0
 40
0.0
 40
0.0
 40
1.0
 40
1.0
 40
1.0
 40
2.0
 40
2.0
 40
2.0
 40
3.0
 40
3.0
 40
3.0
 40
4.0
 40
4.0
 40
4.0
 40
4.0
 10
4.360633924519712
 20
6.35279014840277
 30
0.0
 10
4.356578369066609
 20
6.330138760086103
 30
0.0
 10
4.362858924463504
 20
6.310065149482082
 30
0.0
 10
4.374658924165411
 20
6.30794987175774
 30
0.0
 10
4.386458923867318
 20
6.305833205144545
 30
0.0
 10
4.399303367987285
 20
6.322502649167884
 30
0.0
 10
4.403358923440388
 20
6.345140148596013
 30
0.0
 10
4.407414478893492
 20
6.367791536912679
 30
0.0
 10
4.401133923496596
 20
6.387865147516688
 30
0.0
 10
4.389333923794689
 20
6.389980425241029
 30
0.0
 10
4.377533924092782
 20
6.392097091854225
 30
0.0
 10
4.364689479972816
 20
6.375441536719436
 30
0.0
 10
4.360633924519712
 20
6.35279014840277
 30
0.0
  0
INSERT
  5
1E7
330
1E1
100
AcDbEntity
  8
H2.5A
100
AcDbBlockReference
  2
block 19
 10
0.0
 20
0.0
 30
0.0
  0
ENDBLK
  5
1E4
330
1E1
100
AcDbEntity
  8
0
100
AcDbBlockEnd
  0
BLOCK
  5
1E8
330
1E6
100
AcDbEntity
  8
0
100
AcDbBlockBegin
  2
block 19
 70
     0
 10
0.0
 20
0.0
 30
0.0
  3
block 19
  1

  0
SPLINE
  5
1EA
330
1E6
100
AcDbEntity
  8
H2.5A
 62
   250
420
  2301728
370
    25
100
AcDbSpline
210
0.0
220
0.0
230
1.0
 70
    11
 71
     3
 72
    29
 73
    25
 74
     0
 42
0.0000000001
 43
0.0000000001
 12
1.0
 22
0.0
 32
0.0
 13
1.0
 23
0.0
 33
0.0
 40
0.0
 40
0.0
 40
0.0
 40
0.0
 40
1.0
 40
1.0
 40
1.0
 40
2.0
 40
2.0
 40
2.0
 40
3.0
 40
3.0
 40
3.0
 40
4.0
 40
4.0
 40
4.0
 40
5.0
 40
5.0
 40
5.0
 40
6.0
 40
6.0
 40
6.0
 40
7.0
 40
7.0
 40
7.0
 40
8.0
 40
8.0
 40
8.0
 40
8.0
 10
4.389333923794689
 20
6.389980425241029
 30
0.0
 10
4.387910312719542
 20
6.390238758567837
 30
0.0
 10
4.386472812755857
 20
6.390198480791089
 30
0.0
 10
4.385035312792171
 20
6.389926258575731
 30
0.0
 10
4.383678368382006
 20
6.390794314109358
 30
0.0
 10
4.382226979529782
 20
6.391445702981791
 30
0.0
 10
4.380653368458423
 20
6.391716536308283
 30
0.0
 10
4.368853368756517
 20
6.393833202921465
 30
0.0
 10
4.35600892463655
 20
6.377177647786677
 30
0.0
 10
4.351953369183446
 20
6.354526259470011
 30
0.0
 10
4.347897813730343
 20
6.331874871153344
 30
0.0
 10
4.354178369127238
 20
6.311801260549335
 30
0.0
 10
4.365978368829145
 20
6.309685982825006
 30
0.0
 10
4.367401979904293
 20
6.309427649498174
 30
0.0
 10
4.368839479867979
 20
6.309481816163484
 30
0.0
 10
4.370278368720518
 20
6.309740149490292
 30
0.0
 10
4.371647813130368
 20
6.308872093956666
 30
0.0
 10
4.373099201982591
 20
6.308234593972757
 30
0.0
 10
4.374658924165411
 20
6.30794987175774
 30
0.0
 10
4.386458923867318
 20
6.305833205144545
 30
0.0
 10
4.399303367987285
 20
6.322502649167884
 30
0.0
 10
4.403358923440388
 20
6.345140148596013
 30
0.0
 10
4.407414478893492
 20
6.367791536912679
 30
0.0
 10
4.401133923496596
 20
6.387865147516688
 30
0.0
 10
4.389333923794689
 20
6.389980425241029
 30
0.0
  0
ENDBLK
  5
1E9
330
1E6
100
AcDbEntity
  8
0
100
AcDbBlockEnd
  0
BLOCK
  5
1ED
330
1EB
100
AcDbEntity
  8
0
100
AcDbBlockBegin
  2
block 20
 70
     0
 10
0.0
 20
0.0
 30
0.0
  3
block 20
  1

  0
SPLINE
  5
1EF
330
1EB
100
AcDbEntity
  8
H2.5A
 62
   250
420
  2301728
370
    18
100
AcDbSpline
210
0.0
220
0.0
230
1.0
 70
    11
 71
     3
 72
    17
 73
    13
 74
     0
 42
0.0000000001
 43
0.0000000001
 12
1.0
 22
0.0
 32
0.0
 13
1.0
 23
0.0
 33
0.0
 40
0.0
 40
0.0
 40
0.0
 40
0.0
 40
1.0
 40
1.0
 40
1.0
 40
2.0
 40
2.0
 40
2.0
 40
3.0
 40
3.0
 40
3.0
 40
4.0
 40
4.0
 40
4.0
 40
4.0
 10
4.450911700016882
 20
6.305915149586919
 30
0.0
 10
4.446856144563778
 20
6.283263761270253
 30
0.0
 10
4.453136699960674
 20
6.263190150666244
 30
0.0
 10
4.464936699662581
 20
6.261074872941903
 30
0.0
 10
4.476736699364488
 20
6.258958206328707
 30
0.0
 10
4.489581143484454
 20
6.275627650352046
 30
0.0
 10
4.493636698937558
 20
6.298265149780175
 30
0.0
 10
4.497692254390661
 20
6.320916538096841
 30
0.0
 10
4.491411698993766
 20
6.34099014870085
 30
0.0
 10
4.479611699291859
 20
6.343105426425192
 30
0.0
 10
4.467811699589952
 20
6.345222093038387
 30
0.0
 10
4.454967255469986
 20
6.328566537903586
 30
0.0
 10
4.450911700016882
 20
6.305915149586919
 30
0.0
  0
INSERT
  5
1F1
330
1EB
100
AcDbEntity
  8
H2.5A
100
AcDbBlockReference
  2
block 21
 10
0.0
 20
0.0
 30
0.0
  0
ENDBLK
  5
1EE
330
1EB
100
AcDbEntity
  8
0
100
AcDbBlockEnd
  0
BLOCK
  5
1F2
330
1F0
100
AcDbEntity
  8
0
100
AcDbBlockBegin
  2
block 21
 70
     0
 10
0.0
 20
0.0
 30
0.0
  3
block 21
  1

  0
SPLINE
  5
1F4
330
1F0
100
AcDbEntity
  8
H2.5A
 62
   250
420
  2301728
370
    25
100
AcDbSpline
210
0.0
220
0.0
230
1.0
 70
    11
 71
     3
 72
    29
 73
    25
 74
     0
 42
0.0000000001
 43
0.0000000001
 12
1.0
 22
0.0
 32
0.0
 13
1.0
 23
0.0
 33
0.0
 40
0.0
 40
0.0
 40
0.0
 40
0.0
 40
1.0
 40
1.0
 40
1.0
 40
2.0
 40
2.0
 40
2.0
 40
3.0
 40
3.0
 40
3.0
 40
4.0
 40
4.0
 40
4.0
 40
5.0
 40
5.0
 40
5.0
 40
6.0
 40
6.0
 40
6.0
 40
7.0
 40
7.0
 40
7.0
 40
8.0
 40
8.0
 40
8.0
 40
8.0
 10
4.479611699291859
 20
6.343105426425192
 30
0.0
 10
4.478188088216712
 20
6.343363759751999
 30
0.0
 10
4.476750588253026
 20
6.343323481975239
 30
0.0
 10
4.47531308828934
 20
6.343051259759894
 30
0.0
 10
4.473956143879175
 20
6.343919315293533
 30
0.0
 10
4.472504755026951
 20
6.344570704165953
 30
0.0
 10
4.470931143955593
 20
6.344841537492445
 30
0.0
 10
4.459131144253686
 20
6.34695820410564
 30
0.0
 10
4.44628670013372
 20
6.330302648970827
 30
0.0
 10
4.442231144680616
 20
6.30765126065416
 30
0.0
 10
4.438175589227512
 20
6.284999872337494
 30
0.0
 10
4.444456144624407
 20
6.264926261733497
 30
0.0
 10
4.456256144326314
 20
6.262810984009156
 30
0.0
 10
4.457679755401462
 20
6.262552650682348
 30
0.0
 10
4.459117255365148
 20
6.262606817347646
 30
0.0
 10
4.460556144217687
 20
6.262865150674454
 30
0.0
 10
4.461925588627537
 20
6.261997095140828
 30
0.0
 10
4.46337697747976
 20
6.261359595156932
 30
0.0
 10
4.464936699662581
 20
6.261074872941903
 30
0.0
 10
4.476736699364488
 20
6.258958206328707
 30
0.0
 10
4.489581143484454
 20
6.275627650352046
 30
0.0
 10
4.493636698937558
 20
6.298265149780175
 30
0.0
 10
4.497692254390661
 20
6.320916538096841
 30
0.0
 10
4.491411698993766
 20
6.34099014870085
 30
0.0
 10
4.479611699291859
 20
6.343105426425192
 30
0.0
  0
ENDBLK
  5
1F3
330
1F0
100
AcDbEntity
  8
0
100
AcDbBlockEnd
  0
BLOCK
  5
1F7
330
1F5
100
AcDbEntity
  8
0
100
AcDbBlockBegin
  2
block 22
 70
     0
 10
0.0
 20
0.0
 30
0.0
  3
block 22
  1

  0
SPLINE
  5
1F9
330
1F5
100
AcDbEntity
  8
H2.5A
 62
   250
420
  2301728
370
    18
100
AcDbSpline
210
0.0
220
0.0
230
1.0
 70
    11
 71
     3
 72
    17
 73
    13
 74
     0
 42
0.0000000001
 43
0.0000000001
 12
1.0
 22
0.0
 32
0.0
 13
1.0
 23
0.0
 33
0.0
 40
0.0
 40
0.0
 40
0.0
 40
0.0
 40
1.0
 40
1.0
 40
1.0
 40
2.0
 40
2.0
 40
2.0
 40
3.0
 40
3.0
 40
3.0
 40
4.0
 40
4.0
 40
4.0
 40
4.0
 10
4.406111701148625
 20
6.49550403368639
 30
0.0
 10
4.402056145695521
 20
6.472852645369723
 30
0.0
 10
4.408336810810397
 20
6.452779034765702
 30
0.0
 10
4.420136700794324
 20
6.450663757041373
 30
0.0
 10
4.431936700496231
 20
6.448547090428178
 30
0.0
 10
4.444781255254838
 20
6.465216534451517
 30
0.0
 10
4.448836810810386
 20
6.487854172075749
 30
0.0
 10
4.452892366365934
 20
6.510505422196324
 30
0.0
 10
4.446611700125509
 20
6.530579032800321
 30
0.0
 10
4.434811700423603
 20
6.532694310524662
 30
0.0
 10
4.423011700721696
 20
6.534810977137858
 30
0.0
 10
4.410167256601729
 20
6.518154033114203
 30
0.0
 10
4.406111701148625
 20
6.49550403368639
 30
0.0
  0
INSERT
  5
1FB
330
1F5
100
AcDbEntity
  8
H2.5A
100
AcDbBlockReference
  2
block 23
 10
0.0
 20
0.0
 30
0.0
  0
ENDBLK
  5
1F8
330
1F5
100
AcDbEntity
  8
0
100
AcDbBlockEnd
  0
BLOCK
  5
1FC
330
1FA
100
AcDbEntity
  8
0
100
AcDbBlockBegin
  2
block 23
 70
     0
 10
0.0
 20
0.0
 30
0.0
  3
block 23
  1

  0
SPLINE
  5
1FE
330
1FA
100
AcDbEntity
  8
H2.5A
 62
   250
420
  2301728
370
    25
100
AcDbSpline
210
0.0
220
0.0
230
1.0
 70
    11
 71
     3
 72
    29
 73
    25
 74
     0
 42
0.0000000001
 43
0.0000000001
 12
1.0
 22
0.0
 32
0.0
 13
1.0
 23
0.0
 33
0.0
 40
0.0
 40
0.0
 40
0.0
 40
0.0
 40
1.0
 40
1.0
 40
1.0
 40
2.0
 40
2.0
 40
2.0
 40
3.0
 40
3.0
 40
3.0
 40
4.0
 40
4.0
 40
4.0
 40
5.0
 40
5.0
 40
5.0
 40
6.0
 40
6.0
 40
6.0
 40
7.0
 40
7.0
 40
7.0
 40
8.0
 40
8.0
 40
8.0
 40
8.0
 10
4.434811700423603
 20
6.532694310524662
 30
0.0
 10
4.433388089348455
 20
6.53295264385147
 30
0.0
 10
4.431950589384769
 20
6.532910977185856
 30
0.0
 10
4.430513089421083
 20
6.532640143859364
 30
0.0
 10
4.429156255254838
 20
6.53350819939299
 30
0.0
 10
4.427704756158694
 20
6.534159727631302
 30
0.0
 10
4.426131145087336
 20
6.534430421591916
 30
0.0
 10
4.414331145385429
 20
6.536547088205111
 30
0.0
 10
4.401486701265463
 20
6.519890144181456
 30
0.0
 10
4.397431145812359
 20
6.497240144753643
 30
0.0
 10
4.393375590359256
 20
6.474588756436977
 30
0.0
 10
4.399656255254841
 20
6.454515145832968
 30
0.0
 10
4.411456145458057
 20
6.452399868108627
 30
0.0
 10
4.412879756533205
 20
6.452141534781819
 30
0.0
 10
4.414317256496891
 20
6.45219570144713
 30
0.0
 10
4.41575614534943
 20
6.452454034773925
 30
0.0
 10
4.41712558975928
 20
6.451585979240311
 30
0.0
 10
4.418576978611504
 20
6.450948479256403
 30
0.0
 10
4.420136700794324
 20
6.450663757041373
 30
0.0
 10
4.431936700496231
 20
6.448547090428178
 30
0.0
 10
4.444781255254838
 20
6.465216534451517
 30
0.0
 10
4.448836810810386
 20
6.487854172075749
 30
0.0
 10
4.452892366365934
 20
6.510505422196324
 30
0.0
 10
4.446611700125509
 20
6.530579032800321
 30
0.0
 10
4.434811700423603
 20
6.532694310524662
 30
0.0
  0
ENDBLK
  5
1FD
330
1FA
100
AcDbEntity
  8
0
100
AcDbBlockEnd
  0
ENDSEC
  0
SECTION
  2
ENTITIES
  0
POLYLINE
  5
41
330
1F
100
AcDbEntity
  8
Wood
370
     0
100
AcDb2dPolyline
 66
     1
 10
0.0
 20
0.0
 30
0.0
  0
VERTEX
  5
42
330
41
100
AcDbEntity
  8
Wood
370
     0
100
AcDbVertex
100
AcDb2dVertex
 10
5.594303337799046
 20
7.688652614656032
 30
0.0
  0
VERTEX
  5
43
330
41
100
AcDbEntity
  8
Wood
370
     0
100
AcDbVertex
100
AcDb2dVertex
 10
5.594303337799046
 20
8.086805382375625
 30
0.0
  0
VERTEX
  5
44
330
41
100
AcDbEntity
  8
Wood
370
     0
100
AcDbVertex
100
AcDb2dVertex
 10
3.722565885083112
 20
8.318291487638906
 30
0.0
  0
VERTEX
  5
45
330
41
100
AcDbEntity
  8
Wood
370
     0
100
AcDbVertex
100
AcDb2dVertex
 10
3.57075755558478
 20
8.2690498222162
 30
0.0
  0
VERTEX
  5
46
330
41
100
AcDbEntity
  8
Wood
370
     0
100
AcDbVertex
100
AcDb2dVertex
 10
3.569788111164826
 20
8.228013712141735
 30
0.0
  0
VERTEX
  5
47
330
41
100
AcDbEntity
  8
Wood
370
     0
100
AcDbVertex
100
AcDb2dVertex
 10
3.317468673094494
 20
8.232645838742416
 30
0.0
  0
VERTEX
  5
48
330
41
100
AcDbEntity
  8
Wood
370
     0
100
AcDbVertex
100
AcDb2dVertex
 10
3.315902006467417
 20
8.186374824304734
 30
0.0
  0
VERTEX
  5
49
330
41
100
AcDbEntity
  8
Wood
370
     0
100
AcDbVertex
100
AcDb2dVertex
 10
3.094615900946463
 20
8.114583159451676
 30
0.0
  0
VERTEX
  5
4A
330
41
100
AcDbEntity
  8
Wood
370
     0
100
AcDbVertex
100
AcDb2dVertex
 10
3.094615900946463
 20
7.850701394297971
 30
0.0
  0
VERTEX
  5
4B
330
41
100
AcDbEntity
  8
Wood
370
     0
100
AcDbVertex
100
AcDb2dVertex
 10
2.8353589630514
 20
7.748840283186862
 30
0.0
  0
VERTEX
  5
4C
330
41
100
AcDbEntity
  8
Wood
370
     0
100
AcDbVertex
100
AcDb2dVertex
 10
2.8353589630514
 20
7.332180401439055
 30
0.0
  0
VERTEX
  5
4D
330
41
100
AcDbEntity
  8
Wood
370
     0
100
AcDbVertex
100
AcDb2dVertex
 10
3.870711810810386
 20
7.134562505409083
 30
0.0
  0
VERTEX
  5
4E
330
41
100
AcDbEntity
  8
Wood
370
     0
100
AcDbVertex
100
AcDb2dVertex
 10
3.870711810810386
 20
5.559020838742413
 30
0.0
  0
VERTEX
  5
4F
330
41
100
AcDbEntity
  8
Wood
370
     0
100
AcDbVertex
100
AcDb2dVertex
 10
4.264232538066127
 20
5.443284727631281
 30
0.0
  0
VERTEX
  5
50
330
41
100
AcDbEntity
  8
Wood
370
     0
100
AcDbVertex
100
AcDb2dVertex
 10
4.487831143528663
 20
5.633266555468341
 30
0.0
  0
VERTEX
  5
51
330
41
100
AcDbEntity
  8
Wood
370
     0
100
AcDbVertex
100
AcDb2dVertex
 10
4.495711810810386
 20
5.656256949853526
 30
0.0
  0
VERTEX
  5
52
330
41
100
AcDbEntity
  8
Wood
370
     0
100
AcDbVertex
100
AcDb2dVertex
 10
4.624184033032608
 20
5.628479172075749
 30
0.0
  0
VERTEX
  5
53
330
41
100
AcDbEntity
  8
Wood
370
     0
100
AcDbVertex
100
AcDb2dVertex
 10
4.64865197279932
 20
5.763651274396769
 30
0.0
  0
VERTEX
  5
54
330
41
100
AcDbEntity
  8
Wood
370
     0
100
AcDbVertex
100
AcDb2dVertex
 10
4.792017366365952
 20
5.883104172075743
 30
0.0
  0
VERTEX
  5
55
330
41
100
AcDbEntity
  8
Wood
370
     0
100
AcDbVertex
100
AcDb2dVertex
 10
4.792017366365952
 20
6.958713744206938
 30
0.0
  0
VERTEX
  5
56
330
41
100
AcDbEntity
  8
Wood
370
     0
100
AcDbVertex
100
AcDb2dVertex
 10
5.333684033032619
 20
6.855326394297966
 30
0.0
  0
VERTEX
  5
57
330
41
100
AcDbEntity
  8
Wood
370
     0
100
AcDbVertex
100
AcDb2dVertex
 10
5.509600699699275
 20
6.987277632374255
 30
0.0
  0
VERTEX
  5
58
330
41
100
AcDbEntity
  8
Wood
370
     0
100
AcDbVertex
100
AcDb2dVertex
 10
5.509600699699275
 20
7.054402630678547
 30
0.0
  0
VERTEX
  5
59
330
41
100
AcDbEntity
  8
Wood
370
     0
100
AcDbVertex
100
AcDb2dVertex
 10
5.750336810810394
 20
7.075235963485574
 30
0.0
  0
VERTEX
  5
5A
330
41
100
AcDbEntity
  8
Wood
370
     0
100
AcDbVertex
100
AcDb2dVertex
 10
5.750336810810394
 20
7.167840283186857
 30
0.0
  0
VERTEX
  5
5B
330
41
100
AcDbEntity
  8
Wood
370
     0
100
AcDbVertex
100
AcDb2dVertex
 10
5.825789443062326
 20
7.22443318193877
 30
0.0
  0
VERTEX
  5
5C
330
41
100
AcDbEntity
  8
Wood
370
     0
100
AcDbVertex
100
AcDb2dVertex
 10
5.825789443062326
 20
7.656243060964634
 30
0.0
  0
VERTEX
  5
5D
330
41
100
AcDbEntity
  8
Wood
370
     0
100
AcDbVertex
100
AcDb2dVertex
 10
5.594303337799046
 20
7.688652614656032
 30
0.0
  0
SEQEND
  5
5F
330
41
100
AcDbEntity
  8
Wood
370
     0
  0
HATCH
  5
5E
330
1F
100
AcDbEntity
  8
Wood
 62
    43
420
 15510365
100
AcDbHatch
 10
0.0
 20
0.0
 30
0.0
210
0.0
220
0.0
230
1.0
  2
SOLID
 70
     1
 71
     0
 91
        1
 92
        1
 93
       27
 72
     1
 10
5.594303337799046
 20
7.688652614656032
 11
5.594303337799046
 21
8.086805382375625
 72
     1
 10
5.594303337799046
 20
8.086805382375625
 11
3.722565885083112
 21
8.318291487638906
 72
     1
 10
3.722565885083112
 20
8.318291487638906
 11
3.57075755558478
 21
8.2690498222162
 72
     1
 10
3.57075755558478
 20
8.2690498222162
 11
3.569788111164826
 21
8.228013712141735
 72
     1
 10
3.569788111164826
 20
8.228013712141735
 11
3.317468673094494
 21
8.232645838742416
 72
     1
 10
3.317468673094494
 20
8.232645838742416
 11
3.315902006467417
 21
8.186374824304734
 72
     1
 10
3.315902006467417
 20
8.186374824304734
 11
3.094615900946463
 21
8.114583159451676
 72
     1
 10
3.094615900946463
 20
8.114583159451676
 11
3.094615900946463
 21
7.850701394297971
 72
     1
 10
3.094615900946463
 20
7.850701394297971
 11
2.8353589630514
 21
7.748840283186862
 72
     1
 10
2.8353589630514
 20
7.748840283186862
 11
2.8353589630514
 21
7.332180401439055
 72
     1
 10
2.8353589630514
 20
7.332180401439055
 11
3.870711810810386
 21
7.134562505409083
 72
     1
 10
3.870711810810386
 20
7.134562505409083
 11
3.870711810810386
 21
5.559020838742413
 72
     1
 10
3.870711810810386
 20
5.559020838742413
 11
4.264232538066127
 21
5.443284727631281
 72
     1
 10
4.264232538066127
 20
5.443284727631281
 11
4.487831143528663
 21
5.633266555468341
 72
     1
 10
4.487831143528663
 20
5.633266555468341
 11
4.495711810810386
 21
5.656256949853526
 72
     1
 10
4.495711810810386
 20
5.656256949853526
 11
4.624184033032608
 21
5.628479172075749
 72
     1
 10
4.624184033032608
 20
5.628479172075749
 11
4.64865197279932
 21
5.763651274396769
 72
     1
 10
4.64865197279932
 20
5.763651274396769
 11
4.792017366365952
 21
5.883104172075743
 72
     1
 10
4.792017366365952
 20
5.883104172075743
 11
4.792017366365952
 21
6.958713744206938
 72
     1
 10
4.792017366365952
 20
6.958713744206938
 11
5.333684033032619
 21
6.855326394297966
 72
     1
 10
5.333684033032619
 20
6.855326394297966
 11
5.509600699699275
 21
6.987277632374255
 72
     1
 10
5.509600699699275
 20
6.987277632374255
 11
5.509600699699275
 21
7.054402630678547
 72
     1
 10
5.509600699699275
 20
7.054402630678547
 11
5.750336810810394
 21
7.075235963485574
 72
     1
 10
5.750336810810394
 20
7.075235963485574
 11
5.750336810810394
 21
7.167840283186857
 72
     1
 10
5.750336810810394
 20
7.167840283186857
 11
5.825789443062326
 21
7.22443318193877
 72
     1
 10
5.825789443062326
 20
7.22443318193877
 11
5.825789443062326
 21
7.656243060964634
 72
     1
 10
5.825789443062326
 20
7.656243060964634
 11
5.594303337799046
 21
7.688652614656032
 97
        0
 75
     2
 76
     1
 98
        0
  0
POLYLINE
  5
60
330
1F
100
AcDbEntity
  8
Wood
 62
   250
420
  2301728
370
    35
100
AcDb2dPolyline
 66
     1
 10
0.0
 20
0.0
 30
0.0
  0
VERTEX
  5
61
330
60
100
AcDbEntity
  8
Wood
 62
   250
420
  2301728
370
    35
100
AcDbVertex
100
AcDb2dVertex
 10
5.594303337799046
 20
7.688652614656032
 30
0.0
  0
VERTEX
  5
62
330
60
100
AcDbEntity
  8
Wood
 62
   250
420
  2301728
370
    35
100
AcDbVertex
100
AcDb2dVertex
 10
5.594303337799046
 20
8.086805382375625
 30
0.0
  0
VERTEX
  5
63
330
60
100
AcDbEntity
  8
Wood
 62
   250
420
  2301728
370
    35
100
AcDbVertex
100
AcDb2dVertex
 10
3.722565885083112
 20
8.318291487638906
 30
0.0
  0
VERTEX
  5
64
330
60
100
AcDbEntity
  8
Wood
 62
   250
420
  2301728
370
    35
100
AcDbVertex
100
AcDb2dVertex
 10
3.57075755558478
 20
8.2690498222162
 30
0.0
  0
VERTEX
  5
65
330
60
100
AcDbEntity
  8
Wood
 62
   250
420
  2301728
370
    35
100
AcDbVertex
100
AcDb2dVertex
 10
3.569788111164826
 20
8.228013712141735
 30
0.0
  0
VERTEX
  5
66
330
60
100
AcDbEntity
  8
Wood
 62
   250
420
  2301728
370
    35
100
AcDbVertex
100
AcDb2dVertex
 10
3.317468673094494
 20
8.232645838742416
 30
0.0
  0
VERTEX
  5
67
330
60
100
AcDbEntity
  8
Wood
 62
   250
420
  2301728
370
    35
100
AcDbVertex
100
AcDb2dVertex
 10
3.315902006467417
 20
8.186374824304734
 30
0.0
  0
VERTEX
  5
68
330
60
100
AcDbEntity
  8
Wood
 62
   250
420
  2301728
370
    35
100
AcDbVertex
100
AcDb2dVertex
 10
3.094615900946463
 20
8.114583159451676
 30
0.0
  0
VERTEX
  5
69
330
60
100
AcDbEntity
  8
Wood
 62
   250
420
  2301728
370
    35
100
AcDbVertex
100
AcDb2dVertex
 10
3.094615900946463
 20
7.850701394297971
 30
0.0
  0
VERTEX
  5
6A
330
60
100
AcDbEntity
  8
Wood
 62
   250
420
  2301728
370
    35
100
AcDbVertex
100
AcDb2dVertex
 10
2.8353589630514
 20
7.748840283186862
 30
0.0
  0
VERTEX
  5
6B
330
60
100
AcDbEntity
  8
Wood
 62
   250
420
  2301728
370
    35
100
AcDbVertex
100
AcDb2dVertex
 10
2.8353589630514
 20
7.332180401439055
 30
0.0
  0
VERTEX
  5
6C
330
60
100
AcDbEntity
  8
Wood
 62
   250
420
  2301728
370
    35
100
AcDbVertex
100
AcDb2dVertex
 10
3.870711810810386
 20
7.134562505409083
 30
0.0
  0
VERTEX
  5
6D
330
60
100
AcDbEntity
  8
Wood
 62
   250
420
  2301728
370
    35
100
AcDbVertex
100
AcDb2dVertex
 10
3.870711810810386
 20
5.559020838742413
 30
0.0
  0
VERTEX
  5
6E
330
60
100
AcDbEntity
  8
Wood
 62
   250
420
  2301728
370
    35
100
AcDbVertex
100
AcDb2dVertex
 10
4.264232538066127
 20
5.443284727631281
 30
0.0
  0
VERTEX
  5
6F
330
60
100
AcDbEntity
  8
Wood
 62
   250
420
  2301728
370
    35
100
AcDbVertex
100
AcDb2dVertex
 10
4.487831143528663
 20
5.633266555468341
 30
0.0
  0
VERTEX
  5
70
330
60
100
AcDbEntity
  8
Wood
 62
   250
420
  2301728
370
    35
100
AcDbVertex
100
AcDb2dVertex
 10
4.495711810810386
 20
5.656256949853526
 30
0.0
  0
VERTEX
  5
71
330
60
100
AcDbEntity
  8
Wood
 62
   250
420
  2301728
370
    35
100
AcDbVertex
100
AcDb2dVertex
 10
4.624184033032608
 20
5.628479172075749
 30
0.0
  0
VERTEX
  5
72
330
60
100
AcDbEntity
  8
Wood
 62
   250
420
  2301728
370
    35
100
AcDbVertex
100
AcDb2dVertex
 10
4.64865197279932
 20
5.763651274396769
 30
0.0
  0
VERTEX
  5
73
330
60
100
AcDbEntity
  8
Wood
 62
   250
420
  2301728
370
    35
100
AcDbVertex
100
AcDb2dVertex
 10
4.792017366365952
 20
5.883104172075743
 30
0.0
  0
VERTEX
  5
74
330
60
100
AcDbEntity
  8
Wood
 62
   250
420
  2301728
370
    35
100
AcDbVertex
100
AcDb2dVertex
 10
4.792017366365952
 20
6.958713744206938
 30
0.0
  0
VERTEX
  5
75
330
60
100
AcDbEntity
  8
Wood
 62
   250
420
  2301728
370
    35
100
AcDbVertex
100
AcDb2dVertex
 10
5.333684033032619
 20
6.855326394297966
 30
0.0
  0
VERTEX
  5
76
330
60
100
AcDbEntity
  8
Wood
 62
   250
420
  2301728
370
    35
100
AcDbVertex
100
AcDb2dVertex
 10
5.509600699699275
 20
6.987277632374255
 30
0.0
  0
VERTEX
  5
77
330
60
100
AcDbEntity
  8
Wood
 62
   250
420
  2301728
370
    35
100
AcDbVertex
100
AcDb2dVertex
 10
5.509600699699275
 20
7.054402630678547
 30
0.0
  0
VERTEX
  5
78
330
60
100
AcDbEntity
  8
Wood
 62
   250
420
  2301728
370
    35
100
AcDbVertex
100
AcDb2dVertex
 10
5.750336810810394
 20
7.075235963485574
 30
0.0
  0
VERTEX
  5
79
330
60
100
AcDbEntity
  8
Wood
 62
   250
420
  2301728
370
    35
100
AcDbVertex
100
AcDb2dVertex
 10
5.750336810810394
 20
7.167840283186857
 30
0.0
  0
VERTEX
  5
7A
330
60
100
AcDbEntity
  8
Wood
 62
   250
420
  2301728
370
    35
100
AcDbVertex
100
AcDb2dVertex
 10
5.825789443062326
 20
7.22443318193877
 30
0.0
  0
VERTEX
  5
7B
330
60
100
AcDbEntity
  8
Wood
 62
   250
420
  2301728
370
    35
100
AcDbVertex
100
AcDb2dVertex
 10
5.825789443062326
 20
7.656243060964634
 30
0.0
  0
VERTEX
  5
7C
330
60
100
AcDbEntity
  8
Wood
 62
   250
420
  2301728
370
    35
100
AcDbVertex
100
AcDb2dVertex
 10
5.594303337799046
 20
7.688652614656032
 30
0.0
  0
SEQEND
  5
7D
330
60
100
AcDbEntity
  8
Wood
 62
   250
420
  2301728
370
    35
  0
POLYLINE
  5
7E
330
1F
100
AcDbEntity
  8
Wood
 62
   250
420
  2301728
370
    35
100
AcDb2dPolyline
 66
     1
 10
0.0
 20
0.0
 30
0.0
  0
VERTEX
  5
7F
330
7E
100
AcDbEntity
  8
Wood
 62
   250
420
  2301728
370
    35
100
AcDbVertex
100
AcDb2dVertex
 10
5.750336810810394
 20
7.075235963485574
 30
0.0
  0
VERTEX
  5
80
330
7E
100
AcDbEntity
  8
Wood
 62
   250
420
  2301728
370
    35
100
AcDbVertex
100
AcDb2dVertex
 10
5.750336810810394
 20
7.51747623009141
 30
0.0
  0
SEQEND
  5
81
330
7E
100
AcDbEntity
  8
Wood
 62
   250
420
  2301728
370
    35
  0
POLYLINE
  5
82
330
1F
100
AcDbEntity
  8
Wood
 62
   250
420
  2301728
370
    35
100
AcDb2dPolyline
 66
     1
 10
0.0
 20
0.0
 30
0.0
  0
VERTEX
  5
83
330
82
100
AcDbEntity
  8
Wood
 62
   250
420
  2301728
370
    35
100
AcDbVertex
100
AcDb2dVertex
 10
5.509600699699275
 20
6.987277632374255
 30
0.0
  0
VERTEX
  5
84
330
82
100
AcDbEntity
  8
Wood
 62
   250
420
  2301728
370
    35
100
AcDbVertex
100
AcDb2dVertex
 10
5.509600699699275
 20
7.459662342663048
 30
0.0
  0
SEQEND
  5
85
330
82
100
AcDbEntity
  8
Wood
 62
   250
420
  2301728
370
    35
  0
POLYLINE
  5
86
330
1F
100
AcDbEntity
  8
Wood
 62
   250
420
  2301728
370
    35
100
AcDb2dPolyline
 66
     1
 10
0.0
 20
0.0
 30
0.0
  0
VERTEX
  5
87
330
86
100
AcDbEntity
  8
Wood
 62
   250
420
  2301728
370
    35
100
AcDbVertex
100
AcDb2dVertex
 10
3.094615900946463
 20
7.880899832021681
 30
0.0
  0
VERTEX
  5
88
330
86
100
AcDbEntity
  8
Wood
 62
   250
420
  2301728
370
    35
100
AcDbVertex
100
AcDb2dVertex
 10
3.094615900946463
 20
7.707295669740624
 30
0.0
  0
SEQEND
  5
89
330
86
100
AcDbEntity
  8
Wood
 62
   250
420
  2301728
370
    35
  0
POLYLINE
  5
8A
330
1F
100
AcDbEntity
  8
Wood
 62
   250
420
  2301728
370
    35
100
AcDb2dPolyline
 66
     1
 10
0.0
 20
0.0
 30
0.0
  0
VERTEX
  5
8B
330
8A
100
AcDbEntity
  8
Wood
 62
   250
420
  2301728
370
    35
100
AcDbVertex
100
AcDb2dVertex
 10
3.341360339157619
 20
8.195637324070756
 30
0.0
  0
VERTEX
  5
8C
330
8A
100
AcDbEntity
  8
Wood
 62
   250
420
  2301728
370
    35
100
AcDbVertex
100
AcDb2dVertex
 10
3.268857563211415
 20
8.172458157989643
 30
0.0
  0
SEQEND
  5
8D
330
8A
100
AcDbEntity
  8
Wood
 62
   250
420
  2301728
370
    35
  0
POLYLINE
  5
8E
330
1F
100
AcDbEntity
  8
Wood
 62
   250
420
  2301728
370
    35
100
AcDb2dPolyline
 66
     1
 10
0.0
 20
0.0
 30
0.0
  0
VERTEX
  5
8F
330
8E
100
AcDbEntity
  8
Wood
 62
   250
420
  2301728
370
    35
100
AcDbVertex
100
AcDb2dVertex
 10
3.606822921921498
 20
8.228013712141735
 30
0.0
  0
VERTEX
  5
90
330
8E
100
AcDbEntity
  8
Wood
 62
   250
420
  2301728
370
    35
100
AcDbVertex
100
AcDb2dVertex
 10
3.521177001281734
 20
8.228013712141735
 30
0.0
  0
SEQEND
  5
91
330
8E
100
AcDbEntity
  8
Wood
 62
   250
420
  2301728
370
    35
  0
POLYLINE
  5
92
330
1F
100
AcDbEntity
  8
Wood
 62
   250
420
  2301728
370
    25
100
AcDb2dPolyline
 66
     1
 10
0.0
 20
0.0
 30
0.0
  0
VERTEX
  5
93
330
92
100
AcDbEntity
  8
Wood
 62
   250
420
  2301728
370
    25
100
AcDbVertex
100
AcDb2dVertex
 10
3.569788111164826
 20
8.274312505409082
 30
0.0
  0
VERTEX
  5
94
330
92
100
AcDbEntity
  8
Wood
 62
   250
420
  2301728
370
    25
100
AcDbVertex
100
AcDb2dVertex
 10
3.611454776778904
 20
8.221069267872723
 30
0.0
  0
SEQEND
  5
95
330
92
100
AcDbEntity
  8
Wood
 62
   250
420
  2301728
370
    25
  0
POLYLINE
  5
96
330
1F
100
AcDbEntity
  8
Wood
 62
   250
420
  2301728
370
    25
100
AcDb2dPolyline
 66
     1
 10
0.0
 20
0.0
 30
0.0
  0
VERTEX
  5
97
330
96
100
AcDbEntity
  8
Wood
 62
   250
420
  2301728
370
    25
100
AcDbVertex
100
AcDb2dVertex
 10
3.317468673094494
 20
8.232645838742416
 30
0.0
  0
VERTEX
  5
98
330
96
100
AcDbEntity
  8
Wood
 62
   250
420
  2301728
370
    25
100
AcDbVertex
100
AcDb2dVertex
 10
3.349878477477053
 20
8.193291490796671
 30
0.0
  0
SEQEND
  5
99
330
96
100
AcDbEntity
  8
Wood
 62
   250
420
  2301728
370
    25
  0
POLYLINE
  5
9A
330
1F
100
AcDbEntity
  8
Wood
 62
   250
420
  2301728
370
    25
100
AcDb2dPolyline
 66
     1
 10
0.0
 20
0.0
 30
0.0
  0
VERTEX
  5
9B
330
9A
100
AcDbEntity
  8
Wood
 62
   250
420
  2301728
370
    25
100
AcDbVertex
100
AcDb2dVertex
 10
3.094615900946463
 20
8.114583159451676
 30
0.0
  0
VERTEX
  5
9C
330
9A
100
AcDbEntity
  8
Wood
 62
   250
420
  2301728
370
    25
100
AcDbVertex
100
AcDb2dVertex
 10
5.083670144143727
 20
7.829868060964637
 30
0.0
  0
VERTEX
  5
9D
330
9A
100
AcDbEntity
  8
Wood
 62
   250
420
  2301728
370
    25
100
AcDbVertex
100
AcDb2dVertex
 10
5.255667235242602
 20
7.916422053346537
 30
0.0
  0
VERTEX
  5
9E
330
9A
100
AcDbEntity
  8
Wood
 62
   250
420
  2301728
370
    25
100
AcDbVertex
100
AcDb2dVertex
 10
5.213309033032601
 20
7.964124829919241
 30
0.0
  0
VERTEX
  5
9F
330
9A
100
AcDbEntity
  8
Wood
 62
   250
420
  2301728
370
    25
100
AcDbVertex
100
AcDb2dVertex
 10
5.47719792192149
 20
7.966444274305104
 30
0.0
  0
VERTEX
  5
A0
330
9A
100
AcDbEntity
  8
Wood
 62
   250
420
  2301728
370
    25
100
AcDbVertex
100
AcDb2dVertex
 10
5.441579730546057
 20
8.009962328761288
 30
0.0
  0
VERTEX
  5
A1
330
9A
100
AcDbEntity
  8
Wood
 62
   250
420
  2301728
370
    25
100
AcDbVertex
100
AcDb2dVertex
 10
5.594303337799046
 20
8.086805382375625
 30
0.0
  0
SEQEND
  5
A2
330
9A
100
AcDbEntity
  8
Wood
 62
   250
420
  2301728
370
    25
  0
POLYLINE
  5
A3
330
1F
100
AcDbEntity
  8
Wood
 62
   250
420
  2301728
370
    25
100
AcDb2dPolyline
 66
     1
 10
0.0
 20
0.0
 30
0.0
  0
VERTEX
  5
A4
330
A3
100
AcDbEntity
  8
Wood
 62
   250
420
  2301728
370
    25
100
AcDbVertex
100
AcDb2dVertex
 10
2.8353589630514
 20
7.748840283186862
 30
0.0
  0
VERTEX
  5
A5
330
A3
100
AcDbEntity
  8
Wood
 62
   250
420
  2301728
370
    25
100
AcDbVertex
100
AcDb2dVertex
 10
5.32904514414372
 20
7.346069289977081
 30
0.0
  0
VERTEX
  5
A6
330
A3
100
AcDbEntity
  8
Wood
 62
   250
420
  2301728
370
    25
100
AcDbVertex
100
AcDb2dVertex
 10
5.505559033032619
 20
7.456298616520193
 30
0.0
  0
VERTEX
  5
A7
330
A3
100
AcDbEntity
  8
Wood
 62
   250
420
  2301728
370
    25
100
AcDbVertex
100
AcDb2dVertex
 10
5.451725699699282
 20
7.503479172075749
 30
0.0
  0
VERTEX
  5
A8
330
A3
100
AcDbEntity
  8
Wood
 62
   250
420
  2301728
370
    25
100
AcDbVertex
100
AcDb2dVertex
 10
5.750336810810394
 20
7.519680396702407
 30
0.0
  0
VERTEX
  5
A9
330
A3
100
AcDbEntity
  8
Wood
 62
   250
420
  2301728
370
    25
100
AcDbVertex
100
AcDb2dVertex
 10
5.695106113030331
 20
7.574645838742413
 30
0.0
  0
VERTEX
  5
AA
330
A3
100
AcDbEntity
  8
Wood
 62
   250
420
  2301728
370
    25
100
AcDbVertex
100
AcDb2dVertex
 10
5.825789443062326
 20
7.656243060964634
 30
0.0
  0
SEQEND
  5
AB
330
A3
100
AcDbEntity
  8
Wood
 62
   250
420
  2301728
370
    25
  0
POLYLINE
  5
AC
330
1F
100
AcDbEntity
  8
Wood
 62
   250
420
  2301728
370
    25
100
AcDb2dPolyline
 66
     1
 10
0.0
 20
0.0
 30
0.0
  0
VERTEX
  5
AD
330
AC
100
AcDbEntity
  8
Wood
 62
   250
420
  2301728
370
    25
100
AcDbVertex
100
AcDb2dVertex
 10
5.083670144143727
 20
7.383110955707997
 30
0.0
  0
VERTEX
  5
AE
330
AC
100
AcDbEntity
  8
Wood
 62
   250
420
  2301728
370
    25
100
AcDbVertex
100
AcDb2dVertex
 10
5.254161679725081
 20
7.49154984185749
 30
0.0
  0
VERTEX
  5
AF
330
AC
100
AcDbEntity
  8
Wood
 62
   250
420
  2301728
370
    25
100
AcDbVertex
100
AcDb2dVertex
 10
5.252656255254831
 20
7.554402618047472
 30
0.0
  0
VERTEX
  5
B0
330
AC
100
AcDbEntity
  8
Wood
 62
   250
420
  2301728
370
    25
100
AcDbVertex
100
AcDb2dVertex
 10
5.474878477477053
 20
7.559034727631304
 30
0.0
  0
VERTEX
  5
B1
330
AC
100
AcDbEntity
  8
Wood
 62
   250
420
  2301728
370
    25
100
AcDbVertex
100
AcDb2dVertex
 10
5.477482507416854
 20
7.620958171921693
 30
0.0
  0
VERTEX
  5
B2
330
AC
100
AcDbEntity
  8
Wood
 62
   250
420
  2301728
370
    25
100
AcDbVertex
100
AcDb2dVertex
 10
5.594303337799046
 20
7.688652614656032
 30
0.0
  0
SEQEND
  5
B3
330
AC
100
AcDbEntity
  8
Wood
 62
   250
420
  2301728
370
    25
  0
POLYLINE
  5
B4
330
1F
100
AcDbEntity
  8
Wood
 62
   250
420
  2301728
370
    25
100
AcDb2dPolyline
 66
     1
 10
0.0
 20
0.0
 30
0.0
  0
VERTEX
  5
B5
330
B4
100
AcDbEntity
  8
Wood
 62
   250
420
  2301728
370
    25
100
AcDbVertex
100
AcDb2dVertex
 10
5.085975699699272
 20
7.82755538892483
 30
0.0
  0
VERTEX
  5
B6
330
B4
100
AcDbEntity
  8
Wood
 62
   250
420
  2301728
370
    25
100
AcDbVertex
100
AcDb2dVertex
 10
5.085975699699272
 20
7.387959566696622
 30
0.0
  0
SEQEND
  5
B7
330
B4
100
AcDbEntity
  8
Wood
 62
   250
420
  2301728
370
    25
  0
POLYLINE
  5
B8
330
1F
100
AcDbEntity
  8
Wood
 62
   250
420
  2301728
370
    35
100
AcDb2dPolyline
 66
     1
 10
0.0
 20
0.0
 30
0.0
  0
VERTEX
  5
B9
330
B8
100
AcDbEntity
  8
Wood
 62
   250
420
  2301728
370
    35
100
AcDbVertex
100
AcDb2dVertex
 10
5.254961810810376
 20
7.917724831091403
 30
0.0
  0
VERTEX
  5
BA
330
B8
100
AcDbEntity
  8
Wood
 62
   250
420
  2301728
370
    35
100
AcDbVertex
100
AcDb2dVertex
 10
5.254961810810376
 20
7.492126230731817
 30
0.0
  0
SEQEND
  5
BB
330
B8
100
AcDbEntity
  8
Wood
 62
   250
420
  2301728
370
    35
  0
POLYLINE
  5
BC
330
1F
100
AcDbEntity
  8
Wood
 62
   250
420
  2301728
370
    35
100
AcDb2dPolyline
 66
     1
 10
0.0
 20
0.0
 30
0.0
  0
VERTEX
  5
BD
330
BC
100
AcDbEntity
  8
Wood
 62
   250
420
  2301728
370
    35
100
AcDbVertex
100
AcDb2dVertex
 10
5.477184033032598
 20
7.97085260752706
 30
0.0
  0
VERTEX
  5
BE
330
BC
100
AcDbEntity
  8
Wood
 62
   250
420
  2301728
370
    35
100
AcDbVertex
100
AcDb2dVertex
 10
5.477184033032598
 20
7.559251229036097
 30
0.0
  0
SEQEND
  5
BF
330
BC
100
AcDbEntity
  8
Wood
 62
   250
420
  2301728
370
    35
  0
POLYLINE
  5
C0
330
1F
100
AcDbEntity
  8
Wood
 62
   250
420
  2301728
370
    25
100
AcDb2dPolyline
 66
     1
 10
0.0
 20
0.0
 30
0.0
  0
VERTEX
  5
C1
330
C0
100
AcDbEntity
  8
Wood
 62
   250
420
  2301728
370
    25
100
AcDbVertex
100
AcDb2dVertex
 10
5.32904514414372
 20
7.346069289977081
 30
0.0
  0
VERTEX
  5
C2
330
C0
100
AcDbEntity
  8
Wood
 62
   250
420
  2301728
370
    25
100
AcDbVertex
100
AcDb2dVertex
 10
5.32904514414372
 20
6.857645838742415
 30
0.0
  0
SEQEND
  5
C3
330
C0
100
AcDbEntity
  8
Wood
 62
   250
420
  2301728
370
    25
  0
POLYLINE
  5
C4
330
1F
100
AcDbEntity
  8
Wood
 62
   250
420
  2301728
370
    18
100
AcDb2dPolyline
 66
     1
 10
0.0
 20
0.0
 30
0.0
  0
VERTEX
  5
C5
330
C4
100
AcDbEntity
  8
Wood
 62
   250
420
  2301728
370
    18
100
AcDbVertex
100
AcDb2dVertex
 10
5.083670144143727
 20
7.758110946234687
 30
0.0
  0
VERTEX
  5
C6
330
C4
100
AcDbEntity
  8
Wood
 62
   250
420
  2301728
370
    18
100
AcDbVertex
100
AcDb2dVertex
 10
5.171642366365934
 20
7.829868060964637
 30
0.0
  0
VERTEX
  5
C7
330
C4
100
AcDbEntity
  8
Wood
 62
   250
420
  2301728
370
    18
100
AcDbVertex
100
AcDb2dVertex
 10
5.252656255254831
 20
7.871534727631304
 30
0.0
  0
SEQEND
  5
C8
330
C4
100
AcDbEntity
  8
Wood
 62
   250
420
  2301728
370
    18
  0
POLYLINE
  5
C9
330
1F
100
AcDbEntity
  8
Wood
 62
   250
420
  2301728
370
    18
100
AcDb2dPolyline
 66
     1
 10
0.0
 20
0.0
 30
0.0
  0
VERTEX
  5
CA
330
C9
100
AcDbEntity
  8
Wood
 62
   250
420
  2301728
370
    18
100
AcDbVertex
100
AcDb2dVertex
 10
5.467934033032608
 20
7.982645838742415
 30
0.0
  0
VERTEX
  5
CB
330
C9
100
AcDbEntity
  8
Wood
 62
   250
420
  2301728
370
    18
100
AcDbVertex
100
AcDb2dVertex
 10
5.595253477477045
 20
8.049777605533247
 30
0.0
  0
SEQEND
  5
CC
330
C9
100
AcDbEntity
  8
Wood
 62
   250
420
  2301728
370
    18
  0
SPLINE
  5
CD
330
1F
100
AcDbEntity
  8
Wood
 62
   250
420
  2301728
370
    18
100
AcDbSpline
210
0.0
220
0.0
230
1.0
 70
     8
 71
     3
 72
    11
 73
     7
 74
     0
 42
0.0000000001
 43
0.0000000001
 12
1.0
 22
0.0
 32
0.0
 13
1.0
 23
0.0
 33
0.0
 40
0.0
 40
0.0
 40
0.0
 40
0.0
 40
1.0
 40
1.0
 40
1.0
 40
2.0
 40
2.0
 40
2.0
 40
2.0
 10
5.081364588588157
 20
7.665513726351681
 30
0.0
 10
5.088309033032601
 20
7.670145838742415
 30
0.0
 10
5.134600699699275
 20
7.723388724889635
 30
0.0
 10
5.134600699699275
 20
7.723388724889635
 30
0.0
 10
5.134600699699275
 20
7.723388724889635
 30
0.0
 10
5.254975699699267
 20
7.783569278924902
 30
0.0
 10
5.254975699699267
 20
7.783569278924902
 30
0.0
  0
POLYLINE
  5
CE
330
1F
100
AcDbEntity
  8
Wood
 62
   250
420
  2301728
370
    18
100
AcDb2dPolyline
 66
     1
 10
0.0
 20
0.0
 30
0.0
  0
VERTEX
  5
CF
330
CE
100
AcDbEntity
  8
Wood
 62
   250
420
  2301728
370
    18
100
AcDbVertex
100
AcDb2dVertex
 10
5.479503477477061
 20
7.885423616520193
 30
0.0
  0
VERTEX
  5
D0
330
CE
100
AcDbEntity
  8
Wood
 62
   250
420
  2301728
370
    18
100
AcDbVertex
100
AcDb2dVertex
 10
5.588309033032601
 20
7.957180385650215
 30
0.0
  0
SEQEND
  5
D1
330
CE
100
AcDbEntity
  8
Wood
 62
   250
420
  2301728
370
    18
  0
POLYLINE
  5
D2
330
1F
100
AcDbEntity
  8
Wood
 62
   250
420
  2301728
370
    18
100
AcDb2dPolyline
 66
     1
 10
0.0
 20
0.0
 30
0.0
  0
VERTEX
  5
D3
330
D2
100
AcDbEntity
  8
Wood
 62
   250
420
  2301728
370
    18
100
AcDbVertex
100
AcDb2dVertex
 10
5.090614588588172
 20
7.572923616520193
 30
0.0
  0
VERTEX
  5
D4
330
D2
100
AcDbEntity
  8
Wood
 62
   250
420
  2301728
370
    18
100
AcDbVertex
100
AcDb2dVertex
 10
5.129975699699267
 20
7.61922206085444
 30
0.0
  0
VERTEX
  5
D5
330
D2
100
AcDbEntity
  8
Wood
 62
   250
420
  2301728
370
    18
100
AcDbVertex
100
AcDb2dVertex
 10
5.250336810810394
 20
7.684034727631304
 30
0.0
  0
SEQEND
  5
D6
330
D2
100
AcDbEntity
  8
Wood
 62
   250
420
  2301728
370
    18
  0
POLYLINE
  5
D7
330
1F
100
AcDbEntity
  8
Wood
 62
   250
420
  2301728
370
    18
100
AcDb2dPolyline
 66
     1
 10
0.0
 20
0.0
 30
0.0
  0
VERTEX
  5
D8
330
D7
100
AcDbEntity
  8
Wood
 62
   250
420
  2301728
370
    18
100
AcDbVertex
100
AcDb2dVertex
 10
5.474878477477053
 20
7.797458167462928
 30
0.0
  0
VERTEX
  5
D9
330
D7
100
AcDbEntity
  8
Wood
 62
   250
420
  2301728
370
    18
100
AcDbVertex
100
AcDb2dVertex
 10
5.595253477477045
 20
7.873847054422072
 30
0.0
  0
SEQEND
  5
DA
330
D7
100
AcDbEntity
  8
Wood
 62
   250
420
  2301728
370
    18
  0
POLYLINE
  5
DB
330
1F
100
AcDbEntity
  8
Wood
 62
   250
420
  2301728
370
    18
100
AcDb2dPolyline
 66
     1
 10
0.0
 20
0.0
 30
0.0
  0
VERTEX
  5
DC
330
DB
100
AcDbEntity
  8
Wood
 62
   250
420
  2301728
370
    18
100
AcDbVertex
100
AcDb2dVertex
 10
5.083670144143727
 20
7.466444286936153
 30
0.0
  0
VERTEX
  5
DD
330
DB
100
AcDbEntity
  8
Wood
 62
   250
420
  2301728
370
    18
100
AcDbVertex
100
AcDb2dVertex
 10
5.134600699699275
 20
7.512735952433381
 30
0.0
  0
VERTEX
  5
DE
330
DB
100
AcDbEntity
  8
Wood
 62
   250
420
  2301728
370
    18
100
AcDbVertex
100
AcDb2dVertex
 10
5.250336810810394
 20
7.579868060964637
 30
0.0
  0
SEQEND
  5
DF
330
DB
100
AcDbEntity
  8
Wood
 62
   250
420
  2301728
370
    18
  0
POLYLINE
  5
E0
330
1F
100
AcDbEntity
  8
Wood
 62
   250
420
  2301728
370
    18
100
AcDb2dPolyline
 66
     1
 10
0.0
 20
0.0
 30
0.0
  0
VERTEX
  5
E1
330
E0
100
AcDbEntity
  8
Wood
 62
   250
420
  2301728
370
    18
100
AcDbVertex
100
AcDb2dVertex
 10
5.479503477477061
 20
7.697923616520193
 30
0.0
  0
VERTEX
  5
E2
330
E0
100
AcDbEntity
  8
Wood
 62
   250
420
  2301728
370
    18
100
AcDbVertex
100
AcDb2dVertex
 10
5.592934033032608
 20
7.760423616520193
 30
0.0
  0
SEQEND
  5
E3
330
E0
100
AcDbEntity
  8
Wood
 62
   250
420
  2301728
370
    18
  0
POLYLINE
  5
E4
330
1F
100
AcDbEntity
  8
Wood
 62
   250
420
  2301728
370
    18
100
AcDb2dPolyline
 66
     1
 10
0.0
 20
0.0
 30
0.0
  0
VERTEX
  5
E5
330
E4
100
AcDbEntity
  8
Wood
 62
   250
420
  2301728
370
    18
100
AcDbVertex
100
AcDb2dVertex
 10
5.257281255254838
 20
7.906256949853526
 30
0.0
  0
VERTEX
  5
E6
330
E4
100
AcDbEntity
  8
Wood
 62
   250
420
  2301728
370
    18
100
AcDbVertex
100
AcDb2dVertex
 10
5.368392366365949
 20
7.890055387345948
 30
0.0
  0
VERTEX
  5
E7
330
E4
100
AcDbEntity
  8
Wood
 62
   250
420
  2301728
370
    18
100
AcDbVertex
100
AcDb2dVertex
 10
5.474878477477053
 20
7.906256949853526
 30
0.0
  0
SEQEND
  5
E8
330
E4
100
AcDbEntity
  8
Wood
 62
   250
420
  2301728
370
    18
  0
POLYLINE
  5
E9
330
1F
100
AcDbEntity
  8
Wood
 62
   250
420
  2301728
370
    18
100
AcDb2dPolyline
 66
     1
 10
0.0
 20
0.0
 30
0.0
  0
VERTEX
  5
EA
330
E9
100
AcDbEntity
  8
Wood
 62
   250
420
  2301728
370
    18
100
AcDbVertex
100
AcDb2dVertex
 10
5.254975699699267
 20
7.822923616520193
 30
0.0
  0
VERTEX
  5
EB
330
E9
100
AcDbEntity
  8
Wood
 62
   250
420
  2301728
370
    18
100
AcDbVertex
100
AcDb2dVertex
 10
5.366086810810379
 20
7.815979172075749
 30
0.0
  0
VERTEX
  5
EC
330
E9
100
AcDbEntity
  8
Wood
 62
   250
420
  2301728
370
    18
100
AcDbVertex
100
AcDb2dVertex
 10
5.472559033032616
 20
7.820610944655818
 30
0.0
  0
SEQEND
  5
ED
330
E9
100
AcDbEntity
  8
Wood
 62
   250
420
  2301728
370
    18
  0
POLYLINE
  5
EE
330
1F
100
AcDbEntity
  8
Wood
 62
   250
420
  2301728
370
    18
100
AcDb2dPolyline
 66
     1
 10
0.0
 20
0.0
 30
0.0
  0
VERTEX
  5
EF
330
EE
100
AcDbEntity
  8
Wood
 62
   250
420
  2301728
370
    18
100
AcDbVertex
100
AcDb2dVertex
 10
5.254975699699267
 20
7.725701394297971
 30
0.0
  0
VERTEX
  5
F0
330
EE
100
AcDbEntity
  8
Wood
 62
   250
420
  2301728
370
    18
100
AcDbVertex
100
AcDb2dVertex
 10
5.474878477477053
 20
7.721069280503798
 30
0.0
  0
SEQEND
  5
F1
330
EE
100
AcDbEntity
  8
Wood
 62
   250
420
  2301728
370
    18
  0
POLYLINE
  5
F2
330
1F
100
AcDbEntity
  8
Wood
 62
   250
420
  2301728
370
    18
100
AcDb2dPolyline
 66
     1
 10
0.0
 20
0.0
 30
0.0
  0
VERTEX
  5
F3
330
F2
100
AcDbEntity
  8
Wood
 62
   250
420
  2301728
370
    18
100
AcDbVertex
100
AcDb2dVertex
 10
5.254975699699267
 20
7.630791505006616
 30
0.0
  0
VERTEX
  5
F4
330
F2
100
AcDbEntity
  8
Wood
 62
   250
420
  2301728
370
    18
100
AcDbVertex
100
AcDb2dVertex
 10
5.47719792192149
 20
7.635423616520193
 30
0.0
  0
SEQEND
  5
F5
330
F2
100
AcDbEntity
  8
Wood
 62
   250
420
  2301728
370
    18
  0
POLYLINE
  5
F6
330
1F
100
AcDbEntity
  8
Wood
 62
   250
420
  2301728
370
    18
100
AcDb2dPolyline
 66
     1
 10
0.0
 20
0.0
 30
0.0
  0
VERTEX
  5
F7
330
F6
100
AcDbEntity
  8
Wood
 62
   250
420
  2301728
370
    18
100
AcDbVertex
100
AcDb2dVertex
 10
5.32904514414372
 20
7.22801373740386
 30
0.0
  0
VERTEX
  5
F8
330
F6
100
AcDbEntity
  8
Wood
 62
   250
420
  2301728
370
    18
100
AcDbVertex
100
AcDb2dVertex
 10
5.423947921921505
 20
7.332180401439055
 30
0.0
  0
VERTEX
  5
F9
330
F6
100
AcDbEntity
  8
Wood
 62
   250
420
  2301728
370
    18
100
AcDbVertex
100
AcDb2dVertex
 10
5.507281255254838
 20
7.369222067169972
 30
0.0
  0
SEQEND
  5
FA
330
F6
100
AcDbEntity
  8
Wood
 62
   250
420
  2301728
370
    18
  0
POLYLINE
  5
FB
330
1F
100
AcDbEntity
  8
Wood
 62
   250
420
  2301728
370
    18
100
AcDb2dPolyline
 66
     1
 10
0.0
 20
0.0
 30
0.0
  0
VERTEX
  5
FC
330
FB
100
AcDbEntity
  8
Wood
 62
   250
420
  2301728
370
    18
100
AcDbVertex
100
AcDb2dVertex
 10
5.750336810810394
 20
7.475701394297971
 30
0.0
  0
VERTEX
  5
FD
330
FB
100
AcDbEntity
  8
Wood
 62
   250
420
  2301728
370
    18
100
AcDbVertex
100
AcDb2dVertex
 10
5.826725699699282
 20
7.508110952550232
 30
0.0
  0
SEQEND
  5
FE
330
FB
100
AcDbEntity
  8
Wood
 62
   250
420
  2301728
370
    18
  0
POLYLINE
  5
FF
330
1F
100
AcDbEntity
  8
Wood
 62
   250
420
  2301728
370
    18
100
AcDb2dPolyline
 66
     1
 10
0.0
 20
0.0
 30
0.0
  0
VERTEX
  5
100
330
FF
100
AcDbEntity
  8
Wood
 62
   250
420
  2301728
370
    18
100
AcDbVertex
100
AcDb2dVertex
 10
5.400809033032601
 20
7.39005539997701
 30
0.0
  0
VERTEX
  5
101
330
FF
100
AcDbEntity
  8
Wood
 62
   250
420
  2301728
370
    18
100
AcDbVertex
100
AcDb2dVertex
 10
5.509600699699275
 20
7.440979172075749
 30
0.0
  0
SEQEND
  5
102
330
FF
100
AcDbEntity
  8
Wood
 62
   250
420
  2301728
370
    18
  0
POLYLINE
  5
103
330
1F
100
AcDbEntity
  8
Wood
 62
   250
420
  2301728
370
    18
100
AcDb2dPolyline
 66
     1
 10
0.0
 20
0.0
 30
0.0
  0
VERTEX
  5
104
330
103
100
AcDbEntity
  8
Wood
 62
   250
420
  2301728
370
    18
100
AcDbVertex
100
AcDb2dVertex
 10
5.708670144143727
 20
7.582180395123524
 30
0.0
  0
VERTEX
  5
105
330
103
100
AcDbEntity
  8
Wood
 62
   250
420
  2301728
370
    18
100
AcDbVertex
100
AcDb2dVertex
 10
5.824420144143712
 20
7.621534727631304
 30
0.0
  0
SEQEND
  5
106
330
103
100
AcDbEntity
  8
Wood
 62
   250
420
  2301728
370
    18
  0
POLYLINE
  5
107
330
1F
100
AcDbEntity
  8
Wood
 62
   250
420
  2301728
370
    18
100
AcDb2dPolyline
 66
     1
 10
0.0
 20
0.0
 30
0.0
  0
VERTEX
  5
108
330
107
100
AcDbEntity
  8
Wood
 62
   250
420
  2301728
370
    18
100
AcDbVertex
100
AcDb2dVertex
 10
5.32904514414372
 20
7.158569294713743
 30
0.0
  0
VERTEX
  5
109
330
107
100
AcDbEntity
  8
Wood
 62
   250
420
  2301728
370
    18
100
AcDbVertex
100
AcDb2dVertex
 10
5.430892366365949
 20
7.246534727631304
 30
0.0
  0
VERTEX
  5
10A
330
107
100
AcDbEntity
  8
Wood
 62
   250
420
  2301728
370
    18
100
AcDbVertex
100
AcDb2dVertex
 10
5.509600699699275
 20
7.274312505409082
 30
0.0
  0
SEQEND
  5
10B
330
107
100
AcDbEntity
  8
Wood
 62
   250
420
  2301728
370
    18
  0
POLYLINE
  5
10C
330
1F
100
AcDbEntity
  8
Wood
 62
   250
420
  2301728
370
    18
100
AcDb2dPolyline
 66
     1
 10
0.0
 20
0.0
 30
0.0
  0
VERTEX
  5
10D
330
10C
100
AcDbEntity
  8
Wood
 62
   250
420
  2301728
370
    18
100
AcDbVertex
100
AcDb2dVertex
 10
5.748031255254824
 20
7.376166511438984
 30
0.0
  0
VERTEX
  5
10E
330
10C
100
AcDbEntity
  8
Wood
 62
   250
420
  2301728
370
    18
100
AcDbVertex
100
AcDb2dVertex
 10
5.826725699699282
 20
7.417833177053075
 30
0.0
  0
SEQEND
  5
10F
330
10C
100
AcDbEntity
  8
Wood
 62
   250
420
  2301728
370
    18
  0
POLYLINE
  5
110
330
1F
100
AcDbEntity
  8
Wood
 62
   250
420
  2301728
370
    18
100
AcDb2dPolyline
 66
     1
 10
0.0
 20
0.0
 30
0.0
  0
VERTEX
  5
111
330
110
100
AcDbEntity
  8
Wood
 62
   250
420
  2301728
370
    18
100
AcDbVertex
100
AcDb2dVertex
 10
5.326725699699282
 20
7.079868060964637
 30
0.0
  0
VERTEX
  5
112
330
110
100
AcDbEntity
  8
Wood
 62
   250
420
  2301728
370
    18
100
AcDbVertex
100
AcDb2dVertex
 10
5.386920144143712
 20
7.140055406292541
 30
0.0
  0
VERTEX
  5
113
330
110
100
AcDbEntity
  8
Wood
 62
   250
420
  2301728
370
    18
100
AcDbVertex
100
AcDb2dVertex
 10
5.511920144143712
 20
7.200235960327809
 30
0.0
  0
SEQEND
  5
114
330
110
100
AcDbEntity
  8
Wood
 62
   250
420
  2301728
370
    18
  0
POLYLINE
  5
115
330
1F
100
AcDbEntity
  8
Wood
 62
   250
420
  2301728
370
    18
100
AcDb2dPolyline
 66
     1
 10
0.0
 20
0.0
 30
0.0
  0
VERTEX
  5
116
330
115
100
AcDbEntity
  8
Wood
 62
   250
420
  2301728
370
    18
100
AcDbVertex
100
AcDb2dVertex
 10
5.752656255254831
 20
7.285888735941815
 30
0.0
  0
VERTEX
  5
117
330
115
100
AcDbEntity
  8
Wood
 62
   250
420
  2301728
370
    18
100
AcDbVertex
100
AcDb2dVertex
 10
5.824420144143712
 20
7.31829151290103
 30
0.0
  0
SEQEND
  5
118
330
115
100
AcDbEntity
  8
Wood
 62
   250
420
  2301728
370
    18
  0
POLYLINE
  5
119
330
1F
100
AcDbEntity
  8
Wood
 62
   250
420
  2301728
370
    18
100
AcDb2dPolyline
 66
     1
 10
0.0
 20
0.0
 30
0.0
  0
VERTEX
  5
11A
330
119
100
AcDbEntity
  8
Wood
 62
   250
420
  2301728
370
    18
100
AcDbVertex
100
AcDb2dVertex
 10
5.32904514414372
 20
6.987277632374255
 30
0.0
  0
VERTEX
  5
11B
330
119
100
AcDbEntity
  8
Wood
 62
   250
420
  2301728
370
    18
100
AcDbVertex
100
AcDb2dVertex
 10
5.421642366365934
 20
7.063666519333398
 30
0.0
  0
VERTEX
  5
11C
330
119
100
AcDbEntity
  8
Wood
 62
   250
420
  2301728
370
    18
100
AcDbVertex
100
AcDb2dVertex
 10
5.504975699699267
 20
7.096069296292613
 30
0.0
  0
SEQEND
  5
11D
330
119
100
AcDbEntity
  8
Wood
 62
   250
420
  2301728
370
    18
  0
POLYLINE
  5
11E
330
1F
100
AcDbEntity
  8
Wood
 62
   250
420
  2301728
370
    18
100
AcDb2dPolyline
 66
     1
 10
0.0
 20
0.0
 30
0.0
  0
VERTEX
  5
11F
330
11E
100
AcDbEntity
  8
Wood
 62
   250
420
  2301728
370
    18
100
AcDbVertex
100
AcDb2dVertex
 10
5.752656255254831
 20
7.207180404596821
 30
0.0
  0
VERTEX
  5
120
330
11E
100
AcDbEntity
  8
Wood
 62
   250
420
  2301728
370
    18
100
AcDbVertex
100
AcDb2dVertex
 10
5.822100699699275
 20
7.232645838742415
 30
0.0
  0
SEQEND
  5
121
330
11E
100
AcDbEntity
  8
Wood
 62
   250
420
  2301728
370
    18
  0
POLYLINE
  5
122
330
1F
100
AcDbEntity
  8
Wood
 62
   250
420
  2301728
370
    18
100
AcDb2dPolyline
 66
     1
 10
0.0
 20
0.0
 30
0.0
  0
VERTEX
  5
123
330
122
100
AcDbEntity
  8
Wood
 62
   250
420
  2301728
370
    18
100
AcDbVertex
100
AcDb2dVertex
 10
5.32904514414372
 20
6.899312505409082
 30
0.0
  0
VERTEX
  5
124
330
122
100
AcDbEntity
  8
Wood
 62
   250
420
  2301728
370
    18
100
AcDbVertex
100
AcDb2dVertex
 10
5.423947921921505
 20
6.966444299567229
 30
0.0
  0
VERTEX
  5
125
330
122
100
AcDbEntity
  8
Wood
 62
   250
420
  2301728
370
    18
100
AcDbVertex
100
AcDb2dVertex
 10
5.509600699699275
 20
6.998847076526431
 30
0.0
  0
SEQEND
  5
126
330
122
100
AcDbEntity
  8
Wood
 62
   250
420
  2301728
370
    18
  0
POLYLINE
  5
127
330
1F
100
AcDbEntity
  8
Wood
 62
   250
420
  2301728
370
    18
100
AcDb2dPolyline
 66
     1
 10
0.0
 20
0.0
 30
0.0
  0
VERTEX
  5
128
330
127
100
AcDbEntity
  8
Wood
 62
   250
420
  2301728
370
    18
100
AcDbVertex
100
AcDb2dVertex
 10
5.470253477477045
 20
7.489590283186859
 30
0.0
  0
VERTEX
  5
129
330
127
100
AcDbEntity
  8
Wood
 62
   250
420
  2301728
370
    18
100
AcDbVertex
100
AcDb2dVertex
 10
5.752656255254831
 20
7.498847063895381
 30
0.0
  0
SEQEND
  5
12A
330
127
100
AcDbEntity
  8
Wood
 62
   250
420
  2301728
370
    18
  0
POLYLINE
  5
12B
330
1F
100
AcDbEntity
  8
Wood
 62
   250
420
  2301728
370
    18
100
AcDb2dPolyline
 66
     1
 10
0.0
 20
0.0
 30
0.0
  0
VERTEX
  5
12C
330
12B
100
AcDbEntity
  8
Wood
 62
   250
420
  2301728
370
    18
100
AcDbVertex
100
AcDb2dVertex
 10
5.509600699699275
 20
7.420145838742415
 30
0.0
  0
VERTEX
  5
12D
330
12B
100
AcDbEntity
  8
Wood
 62
   250
420
  2301728
370
    18
100
AcDbVertex
100
AcDb2dVertex
 10
5.743392366365949
 20
7.429402621205238
 30
0.0
  0
SEQEND
  5
12E
330
12B
100
AcDbEntity
  8
Wood
 62
   250
420
  2301728
370
    18
  0
POLYLINE
  5
12F
330
1F
100
AcDbEntity
  8
Wood
 62
   250
420
  2301728
370
    18
100
AcDb2dPolyline
 66
     1
 10
0.0
 20
0.0
 30
0.0
  0
VERTEX
  5
130
330
12F
100
AcDbEntity
  8
Wood
 62
   250
420
  2301728
370
    18
100
AcDbVertex
100
AcDb2dVertex
 10
5.509600699699275
 20
7.353013734246095
 30
0.0
  0
VERTEX
  5
131
330
12F
100
AcDbEntity
  8
Wood
 62
   250
420
  2301728
370
    18
100
AcDbVertex
100
AcDb2dVertex
 10
5.748031255254824
 20
7.346069289977081
 30
0.0
  0
SEQEND
  5
132
330
12F
100
AcDbEntity
  8
Wood
 62
   250
420
  2301728
370
    18
  0
POLYLINE
  5
133
330
1F
100
AcDbEntity
  8
Wood
 62
   250
420
  2301728
370
    18
100
AcDb2dPolyline
 66
     1
 10
0.0
 20
0.0
 30
0.0
  0
VERTEX
  5
134
330
133
100
AcDbEntity
  8
Wood
 62
   250
420
  2301728
370
    18
100
AcDbVertex
100
AcDb2dVertex
 10
5.509600699699275
 20
7.260423616520193
 30
0.0
  0
VERTEX
  5
135
330
133
100
AcDbEntity
  8
Wood
 62
   250
420
  2301728
370
    18
100
AcDbVertex
100
AcDb2dVertex
 10
5.743392366365949
 20
7.260423616520193
 30
0.0
  0
SEQEND
  5
136
330
133
100
AcDbEntity
  8
Wood
 62
   250
420
  2301728
370
    18
  0
POLYLINE
  5
137
330
1F
100
AcDbEntity
  8
Wood
 62
   250
420
  2301728
370
    18
100
AcDb2dPolyline
 66
     1
 10
0.0
 20
0.0
 30
0.0
  0
VERTEX
  5
138
330
137
100
AcDbEntity
  8
Wood
 62
   250
420
  2301728
370
    18
100
AcDbVertex
100
AcDb2dVertex
 10
5.507281255254838
 20
7.18172207190662
 30
0.0
  0
VERTEX
  5
139
330
137
100
AcDbEntity
  8
Wood
 62
   250
420
  2301728
370
    18
100
AcDbVertex
100
AcDb2dVertex
 10
5.748031255254824
 20
7.186347071789783
 30
0.0
  0
SEQEND
  5
13A
330
137
100
AcDbEntity
  8
Wood
 62
   250
420
  2301728
370
    18
  0
POLYLINE
  5
13B
330
1F
100
AcDbEntity
  8
Wood
 62
   250
420
  2301728
370
    18
100
AcDb2dPolyline
 66
     1
 10
0.0
 20
0.0
 30
0.0
  0
VERTEX
  5
13C
330
13B
100
AcDbEntity
  8
Wood
 62
   250
420
  2301728
370
    18
100
AcDbVertex
100
AcDb2dVertex
 10
5.507281255254838
 20
7.116902629099652
 30
0.0
  0
VERTEX
  5
13D
330
13B
100
AcDbEntity
  8
Wood
 62
   250
420
  2301728
370
    18
100
AcDbVertex
100
AcDb2dVertex
 10
5.748031255254824
 20
7.121534727631304
 30
0.0
  0
SEQEND
  5
13E
330
13B
100
AcDbEntity
  8
Wood
 62
   250
420
  2301728
370
    18
  0
POLYLINE
  5
13F
330
1F
100
AcDbEntity
  8
Wood
 62
   250
420
  2301728
370
    35
100
AcDb2dPolyline
 66
     1
 10
0.0
 20
0.0
 30
0.0
  0
VERTEX
  5
140
330
13F
100
AcDbEntity
  8
Wood
 62
   250
420
  2301728
370
    35
100
AcDbVertex
100
AcDb2dVertex
 10
4.24362976080882
 20
7.062770838742418
 30
0.0
  0
VERTEX
  5
141
330
13F
100
AcDbEntity
  8
Wood
 62
   250
420
  2301728
370
    35
100
AcDbVertex
100
AcDb2dVertex
 10
4.819781255254838
 20
6.95255541102919
 30
0.0
  0
SEQEND
  5
142
330
13F
100
AcDbEntity
  8
Wood
 62
   250
420
  2301728
370
    35
  0
POLYLINE
  5
143
330
1F
100
AcDbEntity
  8
Wood
 62
   250
420
  2301728
370
    25
100
AcDb2dPolyline
 66
     1
 10
0.0
 20
0.0
 30
0.0
  0
VERTEX
  5
144
330
143
100
AcDbEntity
  8
Wood
 62
   250
420
  2301728
370
    25
100
AcDbVertex
100
AcDb2dVertex
 10
3.842926993153658
 20
7.140055406292541
 30
0.0
  0
VERTEX
  5
145
330
143
100
AcDbEntity
  8
Wood
 62
   250
420
  2301728
370
    25
100
AcDbVertex
100
AcDb2dVertex
 10
4.24362976080882
 20
7.062770838742418
 30
0.0
  0
SEQEND
  5
146
330
143
100
AcDbEntity
  8
Wood
 62
   250
420
  2301728
370
    25
  0
POLYLINE
  5
147
330
1F
100
AcDbEntity
  8
Wood
 62
   250
420
  2301728
370
    25
100
AcDb2dPolyline
 66
     1
 10
0.0
 20
0.0
 30
0.0
  0
VERTEX
  5
148
330
147
100
AcDbEntity
  8
Wood
 62
   250
420
  2301728
370
    25
100
AcDbVertex
100
AcDb2dVertex
 10
4.26885753794929
 20
6.535888754888396
 30
0.0
  0
VERTEX
  5
149
330
147
100
AcDbEntity
  8
Wood
 62
   250
420
  2301728
370
    25
100
AcDbVertex
100
AcDb2dVertex
 10
4.26885753794929
 20
5.443284727631281
 30
0.0
  0
SEQEND
  5
14A
330
147
100
AcDbEntity
  8
Wood
 62
   250
420
  2301728
370
    25
  0
POLYLINE
  5
14B
330
1F
100
AcDbEntity
  8
Wood
 62
   250
420
  2301728
370
    35
100
AcDb2dPolyline
 66
     1
 10
0.0
 20
0.0
 30
0.0
  0
VERTEX
  5
14C
330
14B
100
AcDbEntity
  8
Wood
 62
   250
420
  2301728
370
    35
100
AcDbVertex
100
AcDb2dVertex
 10
4.489486699042396
 20
5.635762388738625
 30
0.0
  0
VERTEX
  5
14D
330
14B
100
AcDbEntity
  8
Wood
 62
   250
420
  2301728
370
    35
100
AcDbVertex
100
AcDb2dVertex
 10
4.535832531204934
 20
5.807081828855176
 30
0.0
  0
SEQEND
  5
14E
330
14B
100
AcDbEntity
  8
Wood
 62
   250
420
  2301728
370
    35
  0
POLYLINE
  5
14F
330
1F
100
AcDbEntity
  8
Wood
 62
   250
420
  2301728
370
    25
100
AcDb2dPolyline
 66
     1
 10
0.0
 20
0.0
 30
0.0
  0
VERTEX
  5
150
330
14F
100
AcDbEntity
  8
Wood
 62
   250
420
  2301728
370
    25
100
AcDbVertex
100
AcDb2dVertex
 10
4.535004753448068
 20
5.812045717618667
 30
0.0
  0
VERTEX
  5
151
330
14F
100
AcDbEntity
  8
Wood
 62
   250
420
  2301728
370
    25
100
AcDbVertex
100
AcDb2dVertex
 10
4.626042251148268
 20
5.627488777836523
 30
0.0
  0
SEQEND
  5
152
330
14F
100
AcDbEntity
  8
Wood
 62
   250
420
  2301728
370
    25
  0
POLYLINE
  5
153
330
1F
100
AcDbEntity
  8
Wood
 62
   250
420
  2301728
370
    18
100
AcDb2dPolyline
 66
     1
 10
0.0
 20
0.0
 30
0.0
  0
VERTEX
  5
154
330
153
100
AcDbEntity
  8
Wood
 62
   250
420
  2301728
370
    18
100
AcDbVertex
100
AcDb2dVertex
 10
4.522581142650804
 20
5.758254052310892
 30
0.0
  0
VERTEX
  5
155
330
153
100
AcDbEntity
  8
Wood
 62
   250
420
  2301728
370
    18
100
AcDbVertex
100
AcDb2dVertex
 10
4.565617252674731
 20
5.640726277502115
 30
0.0
  0
SEQEND
  5
156
330
153
100
AcDbEntity
  8
Wood
 62
   250
420
  2301728
370
    18
  0
SPLINE
  5
158
330
1F
100
AcDbEntity
  8
H2.5A
370
     0
100
AcDbSpline
210
0.0
220
0.0
230
1.0
 70
    11
 71
     3
 72
    59
 73
    55
 74
     0
 42
0.0000000001
 43
0.0000000001
 12
1.0
 22
0.0
 32
0.0
 13
1.0
 23
0.0
 33
0.0
 40
0.0
 40
0.0
 40
0.0
 40
0.0
 40
1.0
 40
1.0
 40
1.0
 40
2.0
 40
2.0
 40
2.0
 40
3.0
 40
3.0
 40
3.0
 40
4.0
 40
4.0
 40
4.0
 40
5.0
 40
5.0
 40
5.0
 40
6.0
 40
6.0
 40
6.0
 40
7.0
 40
7.0
 40
7.0
 40
8.0
 40
8.0
 40
8.0
 40
9.0
 40
9.0
 40
9.0
 40
10.0
 40
10.0
 40
10.0
 40
11.0
 40
11.0
 40
11.0
 40
12.0
 40
12.0
 40
12.0
 40
13.0
 40
13.0
 40
13.0
 40
14.0
 40
14.0
 40
14.0
 40
15.0
 40
15.0
 40
15.0
 40
16.0
 40
16.0
 40
16.0
 40
17.0
 40
17.0
 40
17.0
 40
18.0
 40
18.0
 40
18.0
 40
18.0
 10
4.245711810810386
 20
7.062506949853526
 30
0.0
 10
4.245711810810386
 20
7.062506949853526
 30
0.0
 10
4.245711810810386
 20
7.661465283186859
 30
0.0
 10
4.245711810810386
 20
7.661465283186859
 30
0.0
 10
4.245711810810386
 20
7.661465283186859
 30
0.0
 10
4.214461810810386
 20
7.720493060964637
 30
0.0
 10
4.214461810810386
 20
7.720493060964637
 30
0.0
 10
4.214461810810386
 20
7.720493060964637
 30
0.0
 10
3.960989588588164
 20
7.763895838742415
 30
0.0
 10
3.960989588588164
 20
7.763895838742415
 30
0.0
 10
3.960989588588164
 20
7.763895838742415
 30
0.0
 10
3.929739588588164
 20
7.750006949853526
 30
0.0
 10
3.929739588588164
 20
7.750006949853526
 30
0.0
 10
3.929739588588164
 20
7.750006949853526
 30
0.0
 10
3.881128477477053
 20
7.701395838742415
 30
0.0
 10
3.881128477477053
 20
7.701395838742415
 30
0.0
 10
3.881128477477053
 20
7.701395838742415
 30
0.0
 10
3.881128477477053
 20
7.388895838742415
 30
0.0
 10
3.881128477477053
 20
7.388895838742415
 30
0.0
 10
3.881128477477053
 20
7.388895838742415
 30
0.0
 10
4.174531255254831
 20
6.536465283186859
 30
0.0
 10
4.174531255254831
 20
6.536465283186859
 30
0.0
 10
4.174531255254831
 20
6.536465283186859
 30
0.0
 10
4.231822921921498
 20
6.522576394297971
 30
0.0
 10
4.231822921921498
 20
6.522576394297971
 30
0.0
 10
4.231822921921498
 20
6.522576394297971
 30
0.0
 10
4.254392366365942
 20
6.519104172075749
 30
0.0
 10
4.270017366365942
 20
6.532993060964637
 30
0.0
 10
4.270017366365942
 20
6.532993060964637
 30
0.0
 10
4.28217014414372
 20
6.543409727631304
 30
0.0
 10
4.292586810810386
 20
6.539937505409082
 30
0.0
 10
4.292586810810386
 20
6.539937505409082
 30
0.0
 10
4.292586810810386
 20
6.010423616520193
 30
0.0
 10
4.292586810810386
 20
6.010423616520193
 30
0.0
 10
4.292586810810386
 20
6.010423616520193
 30
0.0
 10
4.316892366365942
 20
5.968756949853526
 30
0.0
 10
4.316892366365942
 20
5.968756949853526
 30
0.0
 10
4.316892366365942
 20
5.968756949853526
 30
0.0
 10
4.348142366365942
 20
5.961812505409082
 30
0.0
 10
4.348142366365942
 20
5.961812505409082
 30
0.0
 10
4.348142366365942
 20
5.961812505409082
 30
0.0
 10
4.506128477477053
 20
6.076395838742415
 30
0.0
 10
4.506128477477053
 20
6.076395838742415
 30
0.0
 10
4.506128477477053
 20
6.076395838742415
 30
0.0
 10
4.526961810810386
 20
6.142368060964637
 30
0.0
 10
4.526961810810386
 20
6.142368060964637
 30
0.0
 10
4.526961810810386
 20
6.142368060964637
 30
0.0
 10
4.526961810810386
 20
6.463548616520193
 30
0.0
 10
4.526961810810386
 20
6.463548616520193
 30
0.0
 10
4.526961810810386
 20
6.463548616520193
 30
0.0
 10
4.31342014414372
 20
7.048618060964637
 30
0.0
 10
4.31342014414372
 20
7.048618060964637
 30
0.0
 10
4.31342014414372
 20
7.048618060964637
 30
0.0
 10
4.245711810810386
 20
7.062506949853526
 30
0.0
 10
4.245711810810386
 20
7.062506949853526
 30
0.0
  0
HATCH
  5
159
330
1F
100
AcDbEntity
  8
H2.5A
 62
   254
420
 13358815
100
AcDbHatch
 10
0.0
 20
0.0
 30
0.0
210
0.0
220
0.0
230
1.0
  2
SOLID
 70
     1
 71
     0
 91
        1
 92
        1
 93
        1
 72
     4
 94
        3
 73
     0
 74
     1
 95
       59
 96
       55
 40
0.0
 40
0.0
 40
0.0
 40
0.0
 40
1.0
 40
1.0
 40
1.0
 40
2.0
 40
2.0
 40
2.0
 40
3.0
 40
3.0
 40
3.0
 40
4.0
 40
4.0
 40
4.0
 40
5.0
 40
5.0
 40
5.0
 40
6.0
 40
6.0
 40
6.0
 40
7.0
 40
7.0
 40
7.0
 40
8.0
 40
8.0
 40
8.0
 40
9.0
 40
9.0
 40
9.0
 40
10.0
 40
10.0
 40
10.0
 40
11.0
 40
11.0
 40
11.0
 40
12.0
 40
12.0
 40
12.0
 40
13.0
 40
13.0
 40
13.0
 40
14.0
 40
14.0
 40
14.0
 40
15.0
 40
15.0
 40
15.0
 40
16.0
 40
16.0
 40
16.0
 40
17.0
 40
17.0
 40
17.0
 40
18.0
 40
18.0
 40
18.0
 40
18.0
 10
4.245711810810386
 20
7.062506949853526
 10
4.245711810810386
 20
7.062506949853526
 10
4.245711810810386
 20
7.661465283186859
 10
4.245711810810386
 20
7.661465283186859
 10
4.245711810810386
 20
7.661465283186859
 10
4.214461810810386
 20
7.720493060964637
 10
4.214461810810386
 20
7.720493060964637
 10
4.214461810810386
 20
7.720493060964637
 10
3.960989588588164
 20
7.763895838742415
 10
3.960989588588164
 20
7.763895838742415
 10
3.960989588588164
 20
7.763895838742415
 10
3.929739588588164
 20
7.750006949853526
 10
3.929739588588164
 20
7.750006949853526
 10
3.929739588588164
 20
7.750006949853526
 10
3.881128477477053
 20
7.701395838742415
 10
3.881128477477053
 20
7.701395838742415
 10
3.881128477477053
 20
7.701395838742415
 10
3.881128477477053
 20
7.388895838742415
 10
3.881128477477053
 20
7.388895838742415
 10
3.881128477477053
 20
7.388895838742415
 10
4.174531255254831
 20
6.536465283186859
 10
4.174531255254831
 20
6.536465283186859
 10
4.174531255254831
 20
6.536465283186859
 10
4.231822921921498
 20
6.522576394297971
 10
4.231822921921498
 20
6.522576394297971
 10
4.231822921921498
 20
6.522576394297971
 10
4.254392366365942
 20
6.519104172075749
 10
4.270017366365942
 20
6.532993060964637
 10
4.270017366365942
 20
6.532993060964637
 10
4.28217014414372
 20
6.543409727631304
 10
4.292586810810386
 20
6.539937505409082
 10
4.292586810810386
 20
6.539937505409082
 10
4.292586810810386
 20
6.010423616520193
 10
4.292586810810386
 20
6.010423616520193
 10
4.292586810810386
 20
6.010423616520193
 10
4.316892366365942
 20
5.968756949853526
 10
4.316892366365942
 20
5.968756949853526
 10
4.316892366365942
 20
5.968756949853526
 10
4.348142366365942
 20
5.961812505409082
 10
4.348142366365942
 20
5.961812505409082
 10
4.348142366365942
 20
5.961812505409082
 10
4.506128477477053
 20
6.076395838742415
 10
4.506128477477053
 20
6.076395838742415
 10
4.506128477477053
 20
6.076395838742415
 10
4.526961810810386
 20
6.142368060964637
 10
4.526961810810386
 20
6.142368060964637
 10
4.526961810810386
 20
6.142368060964637
 10
4.526961810810386
 20
6.463548616520193
 10
4.526961810810386
 20
6.463548616520193
 10
4.526961810810386
 20
6.463548616520193
 10
4.31342014414372
 20
7.048618060964637
 10
4.31342014414372
 20
7.048618060964637
 10
4.31342014414372
 20
7.048618060964637
 10
4.245711810810386
 20
7.062506949853526
 10
4.245711810810386
 20
7.062506949853526
 97
        0
 97
        0
 75
     2
 76
     1
 98
        0
  0
SPLINE
  5
15A
330
1F
100
AcDbEntity
  8
H2.5A
 62
   250
420
  2301728
370
    35
100
AcDbSpline
210
0.0
220
0.0
230
1.0
 70
    11
 71
     3
 72
    59
 73
    55
 74
     0
 42
0.0000000001
 43
0.0000000001
 12
1.0
 22
0.0
 32
0.0
 13
1.0
 23
0.0
 33
0.0
 40
0.0
 40
0.0
 40
0.0
 40
0.0
 40
1.0
 40
1.0
 40
1.0
 40
2.0
 40
2.0
 40
2.0
 40
3.0
 40
3.0
 40
3.0
 40
4.0
 40
4.0
 40
4.0
 40
5.0
 40
5.0
 40
5.0
 40
6.0
 40
6.0
 40
6.0
 40
7.0
 40
7.0
 40
7.0
 40
8.0
 40
8.0
 40
8.0
 40
9.0
 40
9.0
 40
9.0
 40
10.0
 40
10.0
 40
10.0
 40
11.0
 40
11.0
 40
11.0
 40
12.0
 40
12.0
 40
12.0
 40
13.0
 40
13.0
 40
13.0
 40
14.0
 40
14.0
 40
14.0
 40
15.0
 40
15.0
 40
15.0
 40
16.0
 40
16.0
 40
16.0
 40
17.0
 40
17.0
 40
17.0
 40
18.0
 40
18.0
 40
18.0
 40
18.0
 10
4.245711810810386
 20
7.062506949853526
 30
0.0
 10
4.245711810810386
 20
7.062506949853526
 30
0.0
 10
4.245711810810386
 20
7.661465283186859
 30
0.0
 10
4.245711810810386
 20
7.661465283186859
 30
0.0
 10
4.245711810810386
 20
7.661465283186859
 30
0.0
 10
4.214461810810386
 20
7.720493060964637
 30
0.0
 10
4.214461810810386
 20
7.720493060964637
 30
0.0
 10
4.214461810810386
 20
7.720493060964637
 30
0.0
 10
3.960989588588164
 20
7.763895838742415
 30
0.0
 10
3.960989588588164
 20
7.763895838742415
 30
0.0
 10
3.960989588588164
 20
7.763895838742415
 30
0.0
 10
3.929739588588164
 20
7.750006949853526
 30
0.0
 10
3.929739588588164
 20
7.750006949853526
 30
0.0
 10
3.929739588588164
 20
7.750006949853526
 30
0.0
 10
3.881128477477053
 20
7.701395838742415
 30
0.0
 10
3.881128477477053
 20
7.701395838742415
 30
0.0
 10
3.881128477477053
 20
7.701395838742415
 30
0.0
 10
3.881128477477053
 20
7.388895838742415
 30
0.0
 10
3.881128477477053
 20
7.388895838742415
 30
0.0
 10
3.881128477477053
 20
7.388895838742415
 30
0.0
 10
4.174531255254831
 20
6.536465283186859
 30
0.0
 10
4.174531255254831
 20
6.536465283186859
 30
0.0
 10
4.174531255254831
 20
6.536465283186859
 30
0.0
 10
4.231822921921498
 20
6.522576394297971
 30
0.0
 10
4.231822921921498
 20
6.522576394297971
 30
0.0
 10
4.231822921921498
 20
6.522576394297971
 30
0.0
 10
4.254392366365942
 20
6.519104172075749
 30
0.0
 10
4.270017366365942
 20
6.532993060964637
 30
0.0
 10
4.270017366365942
 20
6.532993060964637
 30
0.0
 10
4.28217014414372
 20
6.543409727631304
 30
0.0
 10
4.292586810810386
 20
6.539937505409082
 30
0.0
 10
4.292586810810386
 20
6.539937505409082
 30
0.0
 10
4.292586810810386
 20
6.010423616520193
 30
0.0
 10
4.292586810810386
 20
6.010423616520193
 30
0.0
 10
4.292586810810386
 20
6.010423616520193
 30
0.0
 10
4.316892366365942
 20
5.968756949853526
 30
0.0
 10
4.316892366365942
 20
5.968756949853526
 30
0.0
 10
4.316892366365942
 20
5.968756949853526
 30
0.0
 10
4.348142366365942
 20
5.961812505409082
 30
0.0
 10
4.348142366365942
 20
5.961812505409082
 30
0.0
 10
4.348142366365942
 20
5.961812505409082
 30
0.0
 10
4.506128477477053
 20
6.076395838742415
 30
0.0
 10
4.506128477477053
 20
6.076395838742415
 30
0.0
 10
4.506128477477053
 20
6.076395838742415
 30
0.0
 10
4.526961810810386
 20
6.142368060964637
 30
0.0
 10
4.526961810810386
 20
6.142368060964637
 30
0.0
 10
4.526961810810386
 20
6.142368060964637
 30
0.0
 10
4.526961810810386
 20
6.463548616520193
 30
0.0
 10
4.526961810810386
 20
6.463548616520193
 30
0.0
 10
4.526961810810386
 20
6.463548616520193
 30
0.0
 10
4.31342014414372
 20
7.048618060964637
 30
0.0
 10
4.31342014414372
 20
7.048618060964637
 30
0.0
 10
4.31342014414372
 20
7.048618060964637
 30
0.0
 10
4.245711810810386
 20
7.062506949853526
 30
0.0
 10
4.245711810810386
 20
7.062506949853526
 30
0.0
  0
SPLINE
  5
15B
330
1F
100
AcDbEntity
  8
H2.5A
 62
   250
420
  2301728
370
    25
100
AcDbSpline
210
0.0
220
0.0
230
1.0
 70
     8
 71
     3
 72
    20
 73
    16
 74
     0
 42
0.0000000001
 43
0.0000000001
 12
1.0
 22
0.0
 32
0.0
 13
1.0
 23
0.0
 33
0.0
 40
0.0
 40
0.0
 40
0.0
 40
0.0
 40
1.0
 40
1.0
 40
1.0
 40
2.0
 40
2.0
 40
2.0
 40
3.0
 40
3.0
 40
3.0
 40
4.0
 40
4.0
 40
4.0
 40
5.0
 40
5.0
 40
5.0
 40
5.0
 10
3.929739588588164
 20
7.750006949853526
 30
0.0
 10
3.929739588588164
 20
7.750006949853526
 30
0.0
 10
4.193628477477053
 20
7.703131949853526
 30
0.0
 10
4.193628477477053
 20
7.703131949853526
 30
0.0
 10
4.193628477477053
 20
7.703131949853526
 30
0.0
 10
4.224878477477053
 20
7.647576394297971
 30
0.0
 10
4.224878477477053
 20
7.647576394297971
 30
0.0
 10
4.224878477477053
 20
7.647576394297971
 30
0.0
 10
4.224878477477053
 20
7.072923616520193
 30
0.0
 10
4.224878477477053
 20
7.072923616520193
 30
0.0
 10
4.224878477477053
 20
7.072923616520193
 30
0.0
 10
4.223142366365942
 20
7.045145838742415
 30
0.0
 10
4.243975699699275
 20
7.039937505409082
 30
0.0
 10
4.243975699699275
 20
7.039937505409082
 30
0.0
 10
4.261336810810386
 20
7.034729172075749
 30
0.0
 10
4.275225699699275
 20
7.053826394297971
 30
0.0
  0
SPLINE
  5
15C
330
1F
100
AcDbEntity
  8
H2.5A
 62
   250
420
  2301728
370
    25
100
AcDbSpline
210
0.0
220
0.0
230
1.0
 70
     8
 71
     3
 72
    14
 73
    10
 74
     0
 42
0.0000000001
 43
0.0000000001
 12
1.0
 22
0.0
 32
0.0
 13
1.0
 23
0.0
 33
0.0
 40
0.0
 40
0.0
 40
0.0
 40
0.0
 40
1.0
 40
1.0
 40
1.0
 40
2.0
 40
2.0
 40
2.0
 40
3.0
 40
3.0
 40
3.0
 40
3.0
 10
4.292586810810386
 20
6.539937505409082
 30
0.0
 10
4.292586810810386
 20
6.539937505409082
 30
0.0
 10
4.31342014414372
 20
6.545145838742415
 30
0.0
 10
4.31342014414372
 20
6.524312505409082
 30
0.0
 10
4.31342014414372
 20
6.524312505409082
 30
0.0
 10
4.31342014414372
 20
6.006951394297971
 30
0.0
 10
4.31342014414372
 20
6.006951394297971
 30
0.0
 10
4.31342014414372
 20
6.006951394297971
 30
0.0
 10
4.339461810810386
 20
5.967020838742415
 30
0.0
 10
4.339461810810386
 20
5.967020838742415
 30
0.0
  0
POLYLINE
  5
15D
330
1F
100
AcDbEntity
  8
H2.5A
 62
   250
420
  2301728
370
    25
100
AcDb2dPolyline
 66
     1
 10
0.0
 20
0.0
 30
0.0
  0
VERTEX
  5
15E
330
15D
100
AcDbEntity
  8
H2.5A
 62
   250
420
  2301728
370
    25
100
AcDbVertex
100
AcDb2dVertex
 10
4.296059033032608
 20
6.006951394297971
 30
0.0
  0
VERTEX
  5
15F
330
15D
100
AcDbEntity
  8
H2.5A
 62
   250
420
  2301728
370
    25
100
AcDbVertex
100
AcDb2dVertex
 10
4.31342014414372
 20
6.001743060964637
 30
0.0
  0
SEQEND
  5
160
330
15D
100
AcDbEntity
  8
H2.5A
 62
   250
420
  2301728
370
    25
  0
POLYLINE
  5
161
330
1F
100
AcDbEntity
  8
H2.5A
 62
   250
420
  2301728
370
    25
100
AcDb2dPolyline
 66
     1
 10
0.0
 20
0.0
 30
0.0
  0
VERTEX
  5
162
330
161
100
AcDbEntity
  8
H2.5A
 62
   250
420
  2301728
370
    25
100
AcDbVertex
100
AcDb2dVertex
 10
4.191892366365942
 20
7.704868060964637
 30
0.0
  0
VERTEX
  5
163
330
161
100
AcDbEntity
  8
H2.5A
 62
   250
420
  2301728
370
    25
100
AcDbVertex
100
AcDb2dVertex
 10
4.216197921921498
 20
7.715284727631304
 30
0.0
  0
SEQEND
  5
164
330
161
100
AcDbEntity
  8
H2.5A
 62
   250
420
  2301728
370
    25
  0
POLYLINE
  5
165
330
1F
100
AcDbEntity
  8
H2.5A
 62
   250
420
  2301728
370
    25
100
AcDb2dPolyline
 66
     1
 10
0.0
 20
0.0
 30
0.0
  0
VERTEX
  5
166
330
165
100
AcDbEntity
  8
H2.5A
 62
   250
420
  2301728
370
    25
100
AcDbVertex
100
AcDb2dVertex
 10
4.221406255254831
 20
7.651048616520193
 30
0.0
  0
VERTEX
  5
167
330
165
100
AcDbEntity
  8
H2.5A
 62
   250
420
  2301728
370
    25
100
AcDbVertex
100
AcDb2dVertex
 10
4.245711810810386
 20
7.661465283186859
 30
0.0
  0
SEQEND
  5
168
330
165
100
AcDbEntity
  8
H2.5A
 62
   250
420
  2301728
370
    25
  0
INSERT
  5
16A
330
1F
100
AcDbEntity
  8
H2.5A
100
AcDbBlockReference
  2
block 2
 10
0.0
 20
0.0
 30
0.0
  0
INSERT
  5
171
330
1F
100
AcDbEntity
  8
H2.5A
100
AcDbBlockReference
  2
block 3
 10
0.0
 20
0.0
 30
0.0
  0
POLYLINE
  5
177
330
1F
100
AcDbEntity
  8
H2.5A
 62
   250
420
  2301728
370
    18
100
AcDb2dPolyline
 66
     1
 10
0.0
 20
0.0
 30
0.0
  0
VERTEX
  5
178
330
177
100
AcDbEntity
  8
H2.5A
 62
   250
420
  2301728
370
    18
100
AcDbVertex
100
AcDb2dVertex
 10
4.245711810810386
 20
6.659729172075749
 30
0.0
  0
VERTEX
  5
179
330
177
100
AcDbEntity
  8
H2.5A
 62
   250
420
  2301728
370
    18
100
AcDbVertex
100
AcDb2dVertex
 10
4.245711810810386
 20
6.552090283186859
 30
0.0
  0
SEQEND
  5
17A
330
177
100
AcDbEntity
  8
H2.5A
 62
   250
420
  2301728
370
    18
  0
POLYLINE
  5
17B
330
1F
100
AcDbEntity
  8
H2.5A
 62
   250
420
  2301728
370
    18
100
AcDb2dPolyline
 66
     1
 10
0.0
 20
0.0
 30
0.0
  0
VERTEX
  5
17C
330
17B
100
AcDbEntity
  8
H2.5A
 62
   250
420
  2301728
370
    18
100
AcDbVertex
100
AcDb2dVertex
 10
4.245711810810386
 20
6.869805413119618
 30
0.0
  0
VERTEX
  5
17D
330
17B
100
AcDbEntity
  8
H2.5A
 62
   250
420
  2301728
370
    18
100
AcDbVertex
100
AcDb2dVertex
 10
4.245711810810386
 20
6.746534727631304
 30
0.0
  0
SEQEND
  5
17E
330
17B
100
AcDbEntity
  8
H2.5A
 62
   250
420
  2301728
370
    18
  0
POLYLINE
  5
17F
330
1F
100
AcDbEntity
  8
H2.5A
 62
   250
420
  2301728
370
    18
100
AcDb2dPolyline
 66
     1
 10
0.0
 20
0.0
 30
0.0
  0
VERTEX
  5
180
330
17F
100
AcDbEntity
  8
H2.5A
 62
   250
420
  2301728
370
    18
100
AcDbVertex
100
AcDb2dVertex
 10
4.245711810810386
 20
7.017368060964637
 30
0.0
  0
VERTEX
  5
181
330
17F
100
AcDbEntity
  8
H2.5A
 62
   250
420
  2301728
370
    18
100
AcDbVertex
100
AcDb2dVertex
 10
4.245711810810386
 20
6.956604172075749
 30
0.0
  0
SEQEND
  5
182
330
17F
100
AcDbEntity
  8
H2.5A
 62
   250
420
  2301728
370
    18
  0
INSERT
  5
184
330
1F
100
AcDbEntity
  8
H2.5A
100
AcDbBlockReference
  2
block 4
 10
0.0
 20
0.0
 30
0.0
  0
INSERT
  5
18E
330
1F
100
AcDbEntity
  8
H2.5A
100
AcDbBlockReference
  2
block 6
 10
0.0
 20
0.0
 30
0.0
  0
INSERT
  5
198
330
1F
100
AcDbEntity
  8
H2.5A
100
AcDbBlockReference
  2
block 8
 10
0.0
 20
0.0
 30
0.0
  0
INSERT
  5
1A2
330
1F
100
AcDbEntity
  8
H2.5A
100
AcDbBlockReference
  2
block 10
 10
0.0
 20
0.0
 30
0.0
  0
INSERT
  5
1AC
330
1F
100
AcDbEntity
  8
H2.5A
100
AcDbBlockReference
  2
block 12
 10
0.0
 20
0.0
 30
0.0
  0
POLYLINE
  5
1B5
330
1F
100
AcDbEntity
  8
H2.5A
 62
   250
420
  2301728
370
    18
100
AcDb2dPolyline
 66
     1
 10
0.0
 20
0.0
 30
0.0
  0
VERTEX
  5
1B6
330
1B5
100
AcDbEntity
  8
H2.5A
 62
   250
420
  2301728
370
    18
100
AcDbVertex
100
AcDb2dVertex
 10
4.143586810810385
 20
7.072760963548098
 30
0.0
  0
VERTEX
  5
1B7
330
1B5
100
AcDbEntity
  8
H2.5A
 62
   250
420
  2301728
370
    18
100
AcDbVertex
100
AcDb2dVertex
 10
4.195364588588165
 20
7.062506949853526
 30
0.0
  0
SEQEND
  5
1B8
330
1B5
100
AcDbEntity
  8
H2.5A
 62
   250
420
  2301728
370
    18
  0
POLYLINE
  5
1B9
330
1F
100
AcDbEntity
  8
H2.5A
 62
   250
420
  2301728
370
    18
100
AcDb2dPolyline
 66
     1
 10
0.0
 20
0.0
 30
0.0
  0
VERTEX
  5
1BA
330
1B9
100
AcDbEntity
  8
H2.5A
 62
   250
420
  2301728
370
    18
100
AcDbVertex
100
AcDb2dVertex
 10
4.065434033032615
 20
7.088249852045704
 30
0.0
  0
VERTEX
  5
1BB
330
1B9
100
AcDbEntity
  8
H2.5A
 62
   250
420
  2301728
370
    18
100
AcDbVertex
100
AcDb2dVertex
 10
4.121247819456004
 20
7.077181796769751
 30
0.0
  0
SEQEND
  5
1BC
330
1B9
100
AcDbEntity
  8
H2.5A
 62
   250
420
  2301728
370
    18
  0
POLYLINE
  5
1BD
330
1F
100
AcDbEntity
  8
H2.5A
 62
   250
420
  2301728
370
    18
100
AcDb2dPolyline
 66
     1
 10
0.0
 20
0.0
 30
0.0
  0
VERTEX
  5
1BE
330
1BD
100
AcDbEntity
  8
H2.5A
 62
   250
420
  2301728
370
    18
100
AcDbVertex
100
AcDb2dVertex
 10
4.002656255254831
 20
7.100701394297971
 30
0.0
  0
VERTEX
  5
1BF
330
1BD
100
AcDbEntity
  8
H2.5A
 62
   250
420
  2301728
370
    18
100
AcDbVertex
100
AcDb2dVertex
 10
4.041074210370248
 20
7.093085963034632
 30
0.0
  0
SEQEND
  5
1C0
330
1BD
100
AcDbEntity
  8
H2.5A
 62
   250
420
  2301728
370
    18
  0
POLYLINE
  5
1C1
330
1F
100
AcDbEntity
  8
H2.5A
 62
   250
420
  2301728
370
    18
100
AcDb2dPolyline
 66
     1
 10
0.0
 20
0.0
 30
0.0
  0
VERTEX
  5
1C2
330
1C1
100
AcDbEntity
  8
H2.5A
 62
   250
420
  2301728
370
    18
100
AcDbVertex
100
AcDb2dVertex
 10
4.422143645188068
 20
6.601785975445927
 30
0.0
  0
VERTEX
  5
1C3
330
1C1
100
AcDbEntity
  8
H2.5A
 62
   250
420
  2301728
370
    18
100
AcDbVertex
100
AcDb2dVertex
 10
4.445364588588164
 20
6.616326394297971
 30
0.0
  0
SEQEND
  5
1C4
330
1C1
100
AcDbEntity
  8
H2.5A
 62
   250
420
  2301728
370
    18
  0
POLYLINE
  5
1C5
330
1F
100
AcDbEntity
  8
H2.5A
 62
   250
420
  2301728
370
    18
100
AcDb2dPolyline
 66
     1
 10
0.0
 20
0.0
 30
0.0
  0
VERTEX
  5
1C6
330
1C5
100
AcDbEntity
  8
H2.5A
 62
   250
420
  2301728
370
    18
100
AcDbVertex
100
AcDb2dVertex
 10
4.377154757435695
 20
6.573690142822366
 30
0.0
  0
VERTEX
  5
1C7
330
1C5
100
AcDbEntity
  8
H2.5A
 62
   250
420
  2301728
370
    18
100
AcDbVertex
100
AcDb2dVertex
 10
4.40822836776182
 20
6.593098475665392
 30
0.0
  0
SEQEND
  5
1C8
330
1C5
100
AcDbEntity
  8
H2.5A
 62
   250
420
  2301728
370
    18
  0
POLYLINE
  5
1C9
330
1F
100
AcDbEntity
  8
H2.5A
 62
   250
420
  2301728
370
    18
100
AcDb2dPolyline
 66
     1
 10
0.0
 20
0.0
 30
0.0
  0
VERTEX
  5
1CA
330
1C9
100
AcDbEntity
  8
H2.5A
 62
   250
420
  2301728
370
    18
100
AcDbVertex
100
AcDb2dVertex
 10
4.334253477477053
 20
6.546881949853526
 30
0.0
  0
VERTEX
  5
1CB
330
1C9
100
AcDbEntity
  8
H2.5A
 62
   250
420
  2301728
370
    18
100
AcDbVertex
100
AcDb2dVertex
 10
4.360796424515607
 20
6.56347625419149
 30
0.0
  0
SEQEND
  5
1CC
330
1C9
100
AcDbEntity
  8
H2.5A
 62
   250
420
  2301728
370
    18
  0
INSERT
  5
1CE
330
1F
100
AcDbEntity
  8
H2.5A
100
AcDbBlockReference
  2
block 14
 10
0.0
 20
0.0
 30
0.0
  0
INSERT
  5
1D8
330
1F
100
AcDbEntity
  8
H2.5A
100
AcDbBlockReference
  2
block 16
 10
0.0
 20
0.0
 30
0.0
  0
INSERT
  5
1E2
330
1F
100
AcDbEntity
  8
H2.5A
100
AcDbBlockReference
  2
block 18
 10
0.0
 20
0.0
 30
0.0
  0
INSERT
  5
1EC
330
1F
100
AcDbEntity
  8
H2.5A
100
AcDbBlockReference
  2
block 20
 10
0.0
 20
0.0
 30
0.0
  0
INSERT
  5
1F6
330
1F
100
AcDbEntity
  8
H2.5A
100
AcDbBlockReference
  2
block 22
 10
0.0
 20
0.0
 30
0.0
  0
MTEXT
  5
1FF
330
1F
100
AcDbEntity
  8
H2.5A
 62
   250
420
  2236191
100
AcDbMText
 10
3.441540029313829
 20
4.974214235941568
 30
0.0
 40
0.118
 41
0.0
 46
0.0
 71
     7
 72
     1
  1
\fHelvetica Neue LT Std 55 Roman|b0|i0|c0|p34;\W1;SIMPSON Strong-Tie\H0.068794;®\H0.118; ^C
 73
     1
 44
1.0
  0
MTEXT
  5
200
330
1F
100
AcDbEntity
  8
H2.5A
 62
   250
420
  2236191
100
AcDbMText
 10
2.986495812733968
 20
4.774222373962402
 30
0.0
 40
0.118
 41
0.0
 46
0.0
 71
     7
 72
     1
  1
\fHelvetica Neue LT Std 55 Roman|b0|i0|c0|p34;\W1;H2.5A Stud-to-Top Plate Tie Down
 73
     1
 44
1.0
  0
MTEXT
  5
201
330
1F
100
AcDbEntity
  8
H2.5A
 62
   250
420
  2236191
100
AcDbMText
 10
3.121531380547417
 20
6.253766854604085
 30
0.0
 40
0.118
 41
0.0
 46
0.0
 71
     7
 72
     1
  1
\fHelvetica Neue LT Std 57 Condensed|b0|i0|c0|p34;\W1;H2.5A
 73
     1
 44
1.0
  0
MTEXT
  5
202
330
1F
100
AcDbEntity
  8
H2.5A
 62
   250
420
  2236191
100
AcDbMText
 10
5.30821418762207
 20
8.288198471069336
 30
0.0
 40
0.118
 41
0.0
 46
0.0
 71
     7
 72
     1
  1
\fHelvetica Neue LT Std 57 Condensed|b0|i0|c0|p34;\W1;Top Plate
 73
     1
 44
1.0
  0
MTEXT
  5
203
330
1F
100
AcDbEntity
  8
H2.5A
 62
   250
420
  2236191
100
AcDbMText
 10
5.198608610365126
 20
6.431884235805935
 30
0.0
 40
0.118
 41
0.0
 46
0.0
 71
     7
 72
     1
  1
\fHelvetica Neue LT Std 57 Condensed|b0|i0|c0|p34;\W1;Stud
 73
     1
 44
1.0
  0
POLYLINE
  5
204
330
1F
100
AcDbEntity
  8
H2.5A
 62
   250
420
  2236191
370
    18
100
AcDb2dPolyline
 66
     1
 10
0.0
 20
0.0
 30
0.0
  0
VERTEX
  5
205
330
204
100
AcDbEntity
  8
H2.5A
 62
   250
420
  2236191
370
    18
100
AcDbVertex
100
AcDb2dVertex
 10
5.28969792192149
 20
8.318291487638906
 30
0.0
  0
VERTEX
  5
206
330
204
100
AcDbEntity
  8
H2.5A
 62
   250
420
  2236191
370
    18
100
AcDbVertex
100
AcDb2dVertex
 10
5.159181871045171
 20
8.13541649278501
 30
0.0
  0
SEQEND
  5
207
330
204
100
AcDbEntity
  8
H2.5A
 62
   250
420
  2236191
370
    18
  0
POLYLINE
  5
208
330
1F
100
AcDbEntity
  8
H2.5A
 62
   250
420
  2236191
370
    18
100
AcDb2dPolyline
 66
     1
 10
0.0
 20
0.0
 30
0.0
  0
VERTEX
  5
209
330
208
100
AcDbEntity
  8
H2.5A
 62
   250
420
  2236191
370
    18
100
AcDbVertex
100
AcDb2dVertex
 10
5.167003477477061
 20
6.48782413157835
 30
0.0
  0
VERTEX
  5
20A
330
208
100
AcDbEntity
  8
H2.5A
 62
   250
420
  2236191
370
    18
100
AcDbVertex
100
AcDb2dVertex
 10
4.776433691756261
 20
6.616326394297971
 30
0.0
  0
SEQEND
  5
20B
330
208
100
AcDbEntity
  8
H2.5A
 62
   250
420
  2236191
370
    18
  0
POLYLINE
  5
20C
330
1F
100
AcDbEntity
  8
H2.5A
 62
   250
420
  2236191
370
    18
100
AcDb2dPolyline
 66
     1
 10
0.0
 20
0.0
 30
0.0
  0
VERTEX
  5
20D
330
20C
100
AcDbEntity
  8
H2.5A
 62
   250
420
  2236191
370
    18
100
AcDbVertex
100
AcDb2dVertex
 10
3.553860027065373
 20
6.317201014141308
 30
0.0
  0
VERTEX
  5
20E
330
20C
100
AcDbEntity
  8
H2.5A
 62
   250
420
  2236191
370
    18
100
AcDbVertex
100
AcDb2dVertex
 10
4.094760316210858
 20
6.746534727631304
 30
0.0
  0
SEQEND
  5
20F
330
20C
100
AcDbEntity
  8
H2.5A
 62
   250
420
  2236191
370
    18
  0
ENDSEC
  0
SECTION
  2
OBJECTS
  0
DICTIONARY
  5
C
330
0
100
AcDbDictionary
281
     1
  3
ACAD_GROUP
350
D
  3
ACAD_LAYOUT
350
1A
  3
ACAD_MATERIAL
350
3B
  3
ACAD_MLEADERSTYLE
350
212
  3
ACAD_MLINESTYLE
350
17
  3
ACAD_PLOTSETTINGS
350
19
  3
ACAD_PLOTSTYLENAME
350
E
  3
ACAD_TABLESTYLE
350
211
  3
ACAD_VISUALSTYLE
350
2A
  0
SUN
  5
3F
330
29
100
AcDbSun
 90
        1
290
     0
 63
     7
421
 16777215
 40
1.0
291
     1
 91
  2455826
 92
 54000000
292
     0
 70
     2
 71
   256
280
     1
  0
DICTIONARY
  5
D
102
{ACAD_REACTORS
330
C
102
}
330
C
100
AcDbDictionary
281
     1
  0
DICTIONARY
  5
1A
102
{ACAD_REACTORS
330
C
102
}
330
C
100
AcDbDictionary
281
     1
  3
Layout1
350
1E
  3
Layout2
350
26
  3
Model
350
22
  0
DICTIONARY
  5
3B
102
{ACAD_REACTORS
330
C
102
}
330
C
100
AcDbDictionary
281
     1
  3
ByBlock
350
3D
  3
ByLayer
350
3C
  3
Global
350
3E
  0
DICTIONARY
  5
212
102
{ACAD_REACTORS
330
C
102
}
330
C
100
AcDbDictionary
281
     1
  0
DICTIONARY
  5
17
102
{ACAD_REACTORS
330
C
102
}
330
C
100
AcDbDictionary
281
     1
  3
Standard
350
18
  0
DICTIONARY
  5
19
102
{ACAD_REACTORS
330
C
102
}
330
C
100
AcDbDictionary
281
     1
  0
ACDBDICTIONARYWDFLT
  5
E
102
{ACAD_REACTORS
330
C
102
}
330
C
100
AcDbDictionary
281
     1
  3
Normal
350
F
100
AcDbDictionaryWithDefault
340
F
  0
DICTIONARY
  5
211
102
{ACAD_REACTORS
330
C
102
}
330
C
100
AcDbDictionary
281
     1
  0
DICTIONARY
  5
2A
102
{ACAD_REACTORS
330
C
102
}
330
C
100
AcDbDictionary
281
     1
  3
2dWireframe
350
2F
  3
3D Hidden
350
31
  3
3dWireframe
350
30
  3
Basic
350
32
  3
Brighten
350
36
  3
ColorChange
350
3A
  3
Conceptual
350
34
  3
Dim
350
35
  3
Facepattern
350
39
  3
Flat
350
2B
  3
FlatWithEdges
350
2C
  3
Gouraud
350
2D
  3
GouraudWithEdges
350
2E
  3
Linepattern
350
38
  3
Realistic
350
33
  3
Thicken
350
37
  0
LAYOUT
  5
1E
102
{ACAD_REACTORS
330
1A
102
}
330
1A
100
AcDbPlotSettings
  1

  2
none_device
  4

  6

 40
0.0
 41
0.0
 42
0.0
 43
0.0
 44
0.0
 45
0.0
 46
0.0
 47
0.0
 48
0.0
 49
0.0
140
0.0
141
0.0
142
1.0
143
1.0
 70
   688
 72
     0
 73
     0
 74
     5
  7

 75
    16
 76
     0
 77
     2
 78
   300
147
1.0
148
0.0
149
0.0
100
AcDbLayout
  1
Layout1
 70
     1
 71
     1
 10
0.0
 20
0.0
 11
12.0
 21
9.0
 12
0.0
 22
0.0
 32
0.0
 14
1.000000000000000E+20
 24
1.000000000000000E+20
 34
1.000000000000000E+20
 15
-1.000000000000000E+20
 25
-1.000000000000000E+20
 35
-1.000000000000000E+20
146
0.0
 13
0.0
 23
0.0
 33
0.0
 16
1.0
 26
0.0
 36
0.0
 17
0.0
 27
1.0
 37
0.0
 76
     0
330
1B
  0
LAYOUT
  5
26
102
{ACAD_REACTORS
330
1A
102
}
330
1A
100
AcDbPlotSettings
  1

  2
none_device
  4

  6

 40
0.0
 41
0.0
 42
0.0
 43
0.0
 44
0.0
 45
0.0
 46
0.0
 47
0.0
 48
0.0
 49
0.0
140
0.0
141
0.0
142
1.0
143
1.0
 70
   688
 72
     0
 73
     0
 74
     5
  7

 75
    16
 76
     0
 77
     2
 78
   300
147
1.0
148
0.0
149
0.0
100
AcDbLayout
  1
Layout2
 70
     1
 71
     2
 10
0.0
 20
0.0
 11
0.0
 21
0.0
 12
0.0
 22
0.0
 32
0.0
 14
0.0
 24
0.0
 34
0.0
 15
0.0
 25
0.0
 35
0.0
146
0.0
 13
0.0
 23
0.0
 33
0.0
 16
1.0
 26
0.0
 36
0.0
 17
0.0
 27
1.0
 37
0.0
 76
     0
330
23
  0
LAYOUT
  5
22
102
{ACAD_REACTORS
330
1A
102
}
330
1A
100
AcDbPlotSettings
  1

  2
none_device
  4

  6

 40
0.0
 41
0.0
 42
0.0
 43
0.0
 44
0.0
 45
0.0
 46
0.0
 47
0.0
 48
0.0
 49
0.0
140
0.0
141
0.0
142
1.0
143
1.0
 70
  1712
 72
     0
 73
     0
 74
     0
  7

 75
     0
 76
     0
 77
     2
 78
   300
147
1.0
148
0.0
149
0.0
100
AcDbLayout
  1
Model
 70
     1
 71
     0
 10
0.0
 20
0.0
 11
12.0
 21
9.0
 12
0.0
 22
0.0
 32
0.0
 14
1.000000000000000E+20
 24
1.000000000000000E+20
 34
1.000000000000000E+20
 15
-1.000000000000000E+20
 25
-1.000000000000000E+20
 35
-1.000000000000000E+20
146
0.0
 13
0.0
 23
0.0
 33
0.0
 16
1.0
 26
0.0
 36
0.0
 17
0.0
 27
1.0
 37
0.0
 76
     0
330
1F
331
29
  0
MATERIAL
  5
3D
102
{ACAD_REACTORS
330
3B
102
}
330
3B
100
AcDbMaterial
  1
ByBlock
 72
     1
 94
      127
  0
MATERIAL
  5
3C
102
{ACAD_REACTORS
330
3B
102
}
330
3B
100
AcDbMaterial
  1
ByLayer
 72
     1
 94
      127
  0
MATERIAL
  5
3E
102
{ACAD_REACTORS
330
3B
102
}
330
3B
100
AcDbMaterial
  1
Global
 72
     1
 94
      127
  0
MLINESTYLE
  5
18
102
{ACAD_REACTORS
330
17
102
}
330
17
100
AcDbMlineStyle
  2
Standard
 70
     0
  3

 62
   256
 51
90.0
 52
90.0
 71
     2
 49
0.5
 62
   256
  6
BYLAYER
 49
-0.5
 62
   256
  6
BYLAYER
  0
ACDBPLACEHOLDER
  5
F
102
{ACAD_REACTORS
330
E
102
}
330
E
  0
VISUALSTYLE
  5
2F
102
{ACAD_REACTORS
330
2A
102
}
330
2A
100
AcDbVisualStyle
  2
2dWireframe
 70
     4
177
     2
291
     0
 71
     0
176
     1
 72
     2
176
     1
 73
     0
176
     1
 90
        0
176
     1
 40
-0.6
176
     1
 41
-30.0
176
     1
 62
     5
 63
     7
421
 16777215
176
     1
 74
     1
176
     1
 91
        4
176
     1
 64
     7
176
     1
 65
   257
176
     1
 75
     1
176
     1
175
     1
176
     1
 42
1.0
176
     1
 92
        0
176
     1
 66
   257
176
     1
 43
1.0
176
     1
 76
     1
176
     1
 77
     6
176
     1
 78
     2
176
     1
 67
     7
176
     1
 79
     5
176
     1
170
     0
176
     1
171
     0
176
     1
290
     0
176
     1
 93
        1
176
     1
 44
0.0
176
     1
173
     0
176
     1
  0
VISUALSTYLE
  5
31
102
{ACAD_REACTORS
330
2A
102
}
330
2A
100
AcDbVisualStyle
  2
3D Hidden
 70
     6
177
     2
291
     0
 71
     1
176
     1
 72
     2
176
     1
 73
     2
176
     1
 90
        0
176
     1
 40
-0.6
176
     1
 41
-30.0
176
     1
 62
     5
 63
     7
421
 16777215
176
     1
 74
     2
176
     1
 91
        2
176
     1
 64
     7
176
     1
 65
   257
176
     1
 75
     2
176
     1
175
     1
176
     1
 42
40.0
176
     1
 92
        0
176
     1
 66
   257
176
     1
 43
1.0
176
     1
 76
     1
176
     1
 77
     6
176
     1
 78
     2
176
     1
 67
     7
176
     1
 79
     3
176
     1
170
     0
176
     1
171
     0
176
     1
290
     0
176
     1
 93
        1
176
     1
 44
0.0
176
     1
173
     0
176
     1
  0
VISUALSTYLE
  5
30
102
{ACAD_REACTORS
330
2A
102
}
330
2A
100
AcDbVisualStyle
  2
3dWireframe
 70
     5
177
     2
291
     0
 71
     0
176
     1
 72
     2
176
     1
 73
     0
176
     1
 90
        0
176
     1
 40
-0.6
176
     1
 41
-30.0
176
     1
 62
     5
 63
     7
421
 16777215
176
     1
 74
     1
176
     1
 91
        4
176
     1
 64
     7
176
     1
 65
   257
176
     1
 75
     1
176
     1
175
     1
176
     1
 42
1.0
176
     1
 92
        0
176
     1
 66
   257
176
     1
 43
1.0
176
     1
 76
     1
176
     1
 77
     6
176
     1
 78
     2
176
     1
 67
     7
176
     1
 79
     5
176
     1
170
     0
176
     1
171
     0
176
     1
290
     0
176
     1
 93
        1
176
     1
 44
0.0
176
     1
173
     0
176
     1
  0
VISUALSTYLE
  5
32
102
{ACAD_REACTORS
330
2A
102
}
330
2A
100
AcDbVisualStyle
  2
Basic
 70
     7
177
     2
291
     1
 71
     1
176
     1
 72
     0
176
     1
 73
     1
176
     1
 90
        0
176
     1
 40
-0.6
176
     1
 41
-30.0
176
     1
 62
     5
 63
     7
421
 16777215
176
     1
 74
     0
176
     1
 91
        4
176
     1
 64
     7
176
     1
 65
   257
176
     1
 75
     1
176
     1
175
     1
176
     1
 42
1.0
176
     1
 92
        8
176
     1
 66
     7
176
     1
 43
1.0
176
     1
 76
     1
176
     1
 77
     6
176
     1
 78
     2
176
     1
 67
     7
176
     1
 79
     5
176
     1
170
     0
176
     1
171
     0
176
     1
290
     0
176
     1
 93
        1
176
     1
 44
0.0
176
     1
173
     0
176
     1
  0
VISUALSTYLE
  5
36
102
{ACAD_REACTORS
330
2A
102
}
330
2A
100
AcDbVisualStyle
  2
Brighten
 70
    12
177
     2
291
     1
 71
     2
176
     1
 72
     2
176
     1
 73
     0
176
     1
 90
        0
176
     1
 40
-0.6
176
     1
 41
-30.0
176
     1
 62
     5
 63
     7
421
 16777215
176
     1
 74
     1
176
     1
 91
        4
176
     1
 64
     7
176
     1
 65
   257
176
     1
 75
     1
176
     1
175
     1
176
     1
 42
1.0
176
     1
 92
        8
176
     1
 66
     7
176
     1
 43
1.0
176
     1
 76
     1
176
     1
 77
     6
176
     1
 78
     2
176
     1
 67
     7
176
     1
 79
     5
176
     1
170
     0
176
     1
171
     0
176
     1
290
     0
176
     1
 93
        1
176
     1
 44
50.0
176
     1
173
     0
176
     1
  0
VISUALSTYLE
  5
3A
102
{ACAD_REACTORS
330
2A
102
}
330
2A
100
AcDbVisualStyle
  2
ColorChange
 70
    16
177
     2
291
     1
 71
     2
176
     1
 72
     2
176
     1
 73
     3
176
     1
 90
        0
176
     1
 40
-0.6
176
     1
 41
-30.0
176
     1
 62
     5
 63
     8
421
  8421504
176
     1
 74
     1
176
     1
 91
        4
176
     1
 64
     7
176
     1
 65
   257
176
     1
 75
     1
176
     1
175
     1
176
     1
 42
1.0
176
     1
 92
        8
176
     1
 66
     8
424
  8421504
176
     1
 43
1.0
176
     1
 76
     1
176
     1
 77
     6
176
     1
 78
     2
176
     1
 67
     7
176
     1
 79
     5
176
     1
170
     0
176
     1
171
     0
176
     1
290
     0
176
     1
 93
        1
176
     1
 44
0.0
176
     1
173
     0
176
     1
  0
VISUALSTYLE
  5
34
102
{ACAD_REACTORS
330
2A
102
}
330
2A
100
AcDbVisualStyle
  2
Conceptual
 70
     9
177
     2
291
     0
 71
     3
176
     1
 72
     2
176
     1
 73
     0
176
     1
 90
        0
176
     1
 40
-0.6
176
     1
 41
-30.0
176
     1
 62
     5
 63
     7
421
 16777215
176
     1
 74
     2
176
     1
 91
        2
176
     1
 64
     7
176
     1
 65
   257
176
     1
 75
     1
176
     1
175
     1
176
     1
 42
40.0
176
     1
 92
        8
176
     1
 66
     7
176
     1
 43
1.0
176
     1
 76
     1
176
     1
 77
     6
176
     1
 78
     2
176
     1
 67
     7
176
     1
 79
     3
176
     1
170
     0
176
     1
171
     0
176
     1
290
     0
176
     1
 93
        1
176
     1
 44
0.0
176
     1
173
     0
176
     1
  0
VISUALSTYLE
  5
35
102
{ACAD_REACTORS
330
2A
102
}
330
2A
100
AcDbVisualStyle
  2
Dim
 70
    11
177
     2
291
     1
 71
     2
176
     1
 72
     2
176
     1
 73
     0
176
     1
 90
        0
176
     1
 40
-0.6
176
     1
 41
-30.0
176
     1
 62
     5
 63
     7
421
 16777215
176
     1
 74
     1
176
     1
 91
        4
176
     1
 64
     7
176
     1
 65
   257
176
     1
 75
     1
176
     1
175
     1
176
     1
 42
1.0
176
     1
 92
        8
176
     1
 66
     7
176
     1
 43
1.0
176
     1
 76
     1
176
     1
 77
     6
176
     1
 78
     2
176
     1
 67
     7
176
     1
 79
     5
176
     1
170
     0
176
     1
171
     0
176
     1
290
     0
176
     1
 93
        1
176
     1
 44
-50.0
176
     1
173
     0
176
     1
  0
VISUALSTYLE
  5
39
102
{ACAD_REACTORS
330
2A
102
}
330
2A
100
AcDbVisualStyle
  2
Facepattern
 70
    15
177
     2
291
     1
 71
     2
176
     1
 72
     2
176
     1
 73
     0
176
     1
 90
        0
176
     1
 40
-0.6
176
     1
 41
-30.0
176
     1
 62
     5
 63
     7
421
 16777215
176
     1
 74
     1
176
     1
 91
        4
176
     1
 64
     7
176
     1
 65
   257
176
     1
 75
     1
176
     1
175
     1
176
     1
 42
1.0
176
     1
 92
        8
176
     1
 66
     7
176
     1
 43
1.0
176
     1
 76
     1
176
     1
 77
     6
176
     1
 78
     2
176
     1
 67
     7
176
     1
 79
     5
176
     1
170
     0
176
     1
171
     0
176
     1
290
     0
176
     1
 93
        1
176
     1
 44
0.0
176
     1
173
     0
176
     1
  0
VISUALSTYLE
  5
2B
102
{ACAD_REACTORS
330
2A
102
}
330
2A
100
AcDbVisualStyle
  2
Flat
 70
     0
177
     2
291
     1
 71
     2
176
     1
 72
     1
176
     1
 73
     1
176
     1
 90
        2
176
     1
 40
-0.6
176
     1
 41
30.0
176
     1
 62
     5
 63
     7
421
 16777215
176
     1
 74
     0
176
     1
 91
        4
176
     1
 64
     7
176
     1
 65
   257
176
     1
 75
     1
176
     1
175
     1
176
     1
 42
1.0
176
     1
 92
        8
176
     1
 66
     7
176
     1
 43
1.0
176
     1
 76
     1
176
     1
 77
     6
176
     1
 78
     2
176
     1
 67
     7
176
     1
 79
     5
176
     1
170
     0
176
     1
171
     0
176
     1
290
     0
176
     1
 93
       13
176
     1
 44
0.0
176
     1
173
     0
176
     1
  0
VISUALSTYLE
  5
2C
102
{ACAD_REACTORS
330
2A
102
}
330
2A
100
AcDbVisualStyle
  2
FlatWithEdges
 70
     1
177
     2
291
     1
 71
     2
176
     1
 72
     1
176
     1
 73
     1
176
     1
 90
        2
176
     1
 40
-0.6
176
     1
 41
30.0
176
     1
 62
     5
 63
     7
421
 16777215
176
     1
 74
     1
176
     1
 91
        4
176
     1
 64
     7
176
     1
 65
   257
176
     1
 75
     1
176
     1
175
     1
176
     1
 42
1.0
176
     1
 92
        0
176
     1
 66
   257
176
     1
 43
1.0
176
     1
 76
     1
176
     1
 77
     6
176
     1
 78
     2
176
     1
 67
     7
176
     1
 79
     5
176
     1
170
     0
176
     1
171
     0
176
     1
290
     0
176
     1
 93
       13
176
     1
 44
0.0
176
     1
173
     0
176
     1
  0
VISUALSTYLE
  5
2D
102
{ACAD_REACTORS
330
2A
102
}
330
2A
100
AcDbVisualStyle
  2
Gouraud
 70
     2
177
     2
291
     1
 71
     2
176
     1
 72
     2
176
     1
 73
     1
176
     1
 90
        2
176
     1
 40
-0.6
176
     1
 41
30.0
176
     1
 62
     5
 63
     7
421
 16777215
176
     1
 74
     0
176
     1
 91
        4
176
     1
 64
     7
176
     1
 65
   257
176
     1
 75
     1
176
     1
175
     1
176
     1
 42
1.0
176
     1
 92
        0
176
     1
 66
     7
176
     1
 43
1.0
176
     1
 76
     1
176
     1
 77
     6
176
     1
 78
     2
176
     1
 67
     7
176
     1
 79
     5
176
     1
170
     0
176
     1
171
     0
176
     1
290
     0
176
     1
 93
       13
176
     1
 44
0.0
176
     1
173
     0
176
     1
  0
VISUALSTYLE
  5
2E
102
{ACAD_REACTORS
330
2A
102
}
330
2A
100
AcDbVisualStyle
  2
GouraudWithEdges
 70
     3
177
     2
291
     1
 71
     2
176
     1
 72
     2
176
     1
 73
     1
176
     1
 90
        2
176
     1
 40
-0.6
176
     1
 41
30.0
176
     1
 62
     5
 63
     7
421
 16777215
176
     1
 74
     1
176
     1
 91
        4
176
     1
 64
     7
176
     1
 65
   257
176
     1
 75
     1
176
     1
175
     1
176
     1
 42
1.0
176
     1
 92
        0
176
     1
 66
   257
176
     1
 43
1.0
176
     1
 76
     1
176
     1
 77
     6
176
     1
 78
     2
176
     1
 67
     7
176
     1
 79
     5
176
     1
170
     0
176
     1
171
     0
176
     1
290
     0
176
     1
 93
       13
176
     1
 44
0.0
176
     1
173
     0
176
     1
  0
VISUALSTYLE
  5
38
102
{ACAD_REACTORS
330
2A
102
}
330
2A
100
AcDbVisualStyle
  2
Linepattern
 70
    14
177
     2
291
     1
 71
     2
176
     1
 72
     2
176
     1
 73
     0
176
     1
 90
        0
176
     1
 40
-0.6
176
     1
 41
-30.0
176
     1
 62
     5
 63
     7
421
 16777215
176
     1
 74
     1
176
     1
 91
        4
176
     1
 64
     7
176
     1
 65
   257
176
     1
 75
     7
176
     1
175
     7
176
     1
 42
1.0
176
     1
 92
        8
176
     1
 66
     7
176
     1
 43
1.0
176
     1
 76
     1
176
     1
 77
     6
176
     1
 78
     2
176
     1
 67
     7
176
     1
 79
     5
176
     1
170
     0
176
     1
171
     0
176
     1
290
     0
176
     1
 93
        1
176
     1
 44
0.0
176
     1
173
     0
176
     1
  0
VISUALSTYLE
  5
33
102
{ACAD_REACTORS
330
2A
102
}
330
2A
100
AcDbVisualStyle
  2
Realistic
 70
     8
177
     2
291
     0
 71
     2
176
     1
 72
     2
176
     1
 73
     0
176
     1
 90
        0
176
     1
 40
-0.6
176
     1
 41
-30.0
176
     1
 62
     5
 63
     7
421
 16777215
176
     1
 74
     1
176
     1
 91
        0
176
     1
 64
     7
176
     1
 65
   257
176
     1
 75
     1
176
     1
175
     1
176
     1
 42
1.0
176
     1
 92
        8
176
     1
 66
     8
424
  7895160
176
     1
 43
1.0
176
     1
 76
     1
176
     1
 77
     6
176
     1
 78
     2
176
     1
 67
     7
176
     1
 79
     5
176
     1
170
     0
176
     1
171
     0
176
     1
290
     0
176
     1
 93
       13
176
     1
 44
0.0
176
     1
173
     0
176
     1
  0
VISUALSTYLE
  5
37
102
{ACAD_REACTORS
330
2A
102
}
330
2A
100
AcDbVisualStyle
  2
Thicken
 70
    13
177
     2
291
     1
 71
     2
176
     1
 72
     2
176
     1
 73
     0
176
     1
 90
        0
176
     1
 40
-0.6
176
     1
 41
-30.0
176
     1
 62
     5
 63
     7
421
 16777215
176
     1
 74
     1
176
     1
 91
        4
176
     1
 64
     7
176
     1
 65
   257
176
     1
 75
     1
176
     1
175
     1
176
     1
 42
1.0
176
     1
 92
       12
176
     1
 66
     7
176
     1
 43
1.0
176
     1
 76
     1
176
     1
 77
     6
176
     1
 78
     2
176
     1
 67
     7
176
     1
 79
     5
176
     1
170
     0
176
     1
171
     0
176
     1
290
     0
176
     1
 93
        1
176
     1
 44
0.0
176
     1
173
     0
176
     1
  0
ENDSEC
  0
EOF
