  0
SECTION
  2
HEADER
  9
$ACADVER
  1
AC1024
  9
$ACADMAINTVER
 70
     6
  9
$DWGCODEPAGE
  3
ANSI_1252
  9
$INSBASE
 10
0.0
 20
0.0
 30
0.0
  9
$EXTMIN
 10
1.000000000000000E+20
 20
1.000000000000000E+20
 30
1.000000000000000E+20
  9
$EXTMAX
 10
-1.000000000000000E+20
 20
-1.000000000000000E+20
 30
-1.000000000000000E+20
  9
$LIMMIN
 10
0.0
 20
0.0
  9
$LIMMAX
 10
12.0
 20
9.0
  9
$ORTHOMODE
 70
     0
  9
$REGENMODE
 70
     1
  9
$FILLMODE
 70
     1
  9
$QTEXTMODE
 70
     0
  9
$MIRRTEXT
 70
     1
  9
$LTSCALE
 40
1.0
  9
$ATTMODE
 70
     1
  9
$TEXTSIZE
 40
0.2
  9
$TRACEWID
 40
0.05
  9
$TEXTSTYLE
  7
Standard
  9
$CLAYER
  8
0
  9
$CELTYPE
  6
ByLayer
  9
$CECOLOR
 62
   256
  9
$CELTSCALE
 40
1.0
  9
$DISPSILH
 70
     0
  9
$DIMSCALE
 40
1.0
  9
$DIMASZ
 40
0.18
  9
$DIMEXO
 40
0.0625
  9
$DIMDLI
 40
0.38
  9
$DIMRND
 40
0.0
  9
$DIMDLE
 40
0.0
  9
$DIMEXE
 40
0.18
  9
$DIMTP
 40
0.0
  9
$DIMTM
 40
0.0
  9
$DIMTXT
 40
0.18
  9
$DIMCEN
 40
0.09
  9
$DIMTSZ
 40
0.0
  9
$DIMTOL
 70
     0
  9
$DIMLIM
 70
     0
  9
$DIMTIH
 70
     1
  9
$DIMTOH
 70
     1
  9
$DIMSE1
 70
     0
  9
$DIMSE2
 70
     0
  9
$DIMTAD
 70
     0
  9
$DIMZIN
 70
     0
  9
$DIMBLK
  1

  9
$DIMASO
 70
     1
  9
$DIMSHO
 70
     1
  9
$DIMPOST
  1

  9
$DIMAPOST
  1

  9
$DIMALT
 70
     0
  9
$DIMALTD
 70
     2
  9
$DIMALTF
 40
25.4
  9
$DIMLFAC
 40
1.0
  9
$DIMTOFL
 70
     0
  9
$DIMTVP
 40
0.0
  9
$DIMTIX
 70
     0
  9
$DIMSOXD
 70
     0
  9
$DIMSAH
 70
     0
  9
$DIMBLK1
  1

  9
$DIMBLK2
  1

  9
$DIMSTYLE
  2
Standard
  9
$DIMCLRD
 70
     0
  9
$DIMCLRE
 70
     0
  9
$DIMCLRT
 70
     0
  9
$DIMTFAC
 40
1.0
  9
$DIMGAP
 40
0.09
  9
$DIMJUST
 70
     0
  9
$DIMSD1
 70
     0
  9
$DIMSD2
 70
     0
  9
$DIMTOLJ
 70
     1
  9
$DIMTZIN
 70
     0
  9
$DIMALTZ
 70
     0
  9
$DIMALTTZ
 70
     0
  9
$DIMUPT
 70
     0
  9
$DIMDEC
 70
     4
  9
$DIMTDEC
 70
     4
  9
$DIMALTU
 70
     2
  9
$DIMALTTD
 70
     2
  9
$DIMTXSTY
  7
Standard
  9
$DIMAUNIT
 70
     0
  9
$DIMADEC
 70
     0
  9
$DIMALTRND
 40
0.0
  9
$DIMAZIN
 70
     0
  9
$DIMDSEP
 70
    46
  9
$DIMATFIT
 70
     3
  9
$DIMFRAC
 70
     0
  9
$DIMLDRBLK
  1

  9
$DIMLUNIT
 70
     2
  9
$DIMLWD
 70
    -2
  9
$DIMLWE
 70
    -2
  9
$DIMTMOVE
 70
     0
  9
$DIMFXL
 40
1.0
  9
$DIMFXLON
 70
     0
  9
$DIMJOGANG
 40
0.7853981633974483
  9
$DIMTFILL
 70
     0
  9
$DIMTFILLCLR
 70
     0
  9
$DIMARCSYM
 70
     0
  9
$DIMLTYPE
  6

  9
$DIMLTEX1
  6

  9
$DIMLTEX2
  6

  9
$DIMTXTDIRECTION
 70
     0
  9
$LUNITS
 70
     2
  9
$LUPREC
 70
     4
  9
$SKETCHINC
 40
0.1
  9
$FILLETRAD
 40
0.5
  9
$AUNITS
 70
     0
  9
$AUPREC
 70
     0
  9
$MENU
  1
.
  9
$ELEVATION
 40
0.0
  9
$PELEVATION
 40
0.0
  9
$THICKNESS
 40
0.0
  9
$LIMCHECK
 70
     0
  9
$CHAMFERA
 40
0.5
  9
$CHAMFERB
 40
0.5
  9
$CHAMFERC
 40
1.0
  9
$CHAMFERD
 40
0.0
  9
$SKPOLY
 70
     0
  9
$TDCREATE
 40
2458775.663546759
  9
$TDUCREATE
 40
2458775.121880093
  9
$TDUPDATE
 40
2458775.663546875
  9
$TDUUPDATE
 40
2458775.121880208
  9
$TDINDWG
 40
0.0000000116
  9
$TDUSRTIMER
 40
0.0000000116
  9
$USRTIMER
 70
     1
  9
$ANGBASE
 50
0.0
  9
$ANGDIR
 70
     0
  9
$PDMODE
 70
     0
  9
$PDSIZE
 40
0.0
  9
$PLINEWID
 40
0.0
  9
$SPLFRAME
 70
     0
  9
$SPLINETYPE
 70
     6
  9
$SPLINESEGS
 70
     8
  9
$HANDSEED
  5
102
  9
$SURFTAB1
 70
     6
  9
$SURFTAB2
 70
     6
  9
$SURFTYPE
 70
     6
  9
$SURFU
 70
     6
  9
$SURFV
 70
     6
  9
$UCSBASE
  2

  9
$UCSNAME
  2

  9
$UCSORG
 10
0.0
 20
0.0
 30
0.0
  9
$UCSXDIR
 10
1.0
 20
0.0
 30
0.0
  9
$UCSYDIR
 10
0.0
 20
1.0
 30
0.0
  9
$UCSORTHOREF
  2

  9
$UCSORTHOVIEW
 70
     0
  9
$UCSORGTOP
 10
0.0
 20
0.0
 30
0.0
  9
$UCSORGBOTTOM
 10
0.0
 20
0.0
 30
0.0
  9
$UCSORGLEFT
 10
0.0
 20
0.0
 30
0.0
  9
$UCSORGRIGHT
 10
0.0
 20
0.0
 30
0.0
  9
$UCSORGFRONT
 10
0.0
 20
0.0
 30
0.0
  9
$UCSORGBACK
 10
0.0
 20
0.0
 30
0.0
  9
$PUCSBASE
  2

  9
$PUCSNAME
  2

  9
$PUCSORG
 10
0.0
 20
0.0
 30
0.0
  9
$PUCSXDIR
 10
1.0
 20
0.0
 30
0.0
  9
$PUCSYDIR
 10
0.0
 20
1.0
 30
0.0
  9
$PUCSORTHOREF
  2

  9
$PUCSORTHOVIEW
 70
     0
  9
$PUCSORGTOP
 10
0.0
 20
0.0
 30
0.0
  9
$PUCSORGBOTTOM
 10
0.0
 20
0.0
 30
0.0
  9
$PUCSORGLEFT
 10
0.0
 20
0.0
 30
0.0
  9
$PUCSORGRIGHT
 10
0.0
 20
0.0
 30
0.0
  9
$PUCSORGFRONT
 10
0.0
 20
0.0
 30
0.0
  9
$PUCSORGBACK
 10
0.0
 20
0.0
 30
0.0
  9
$USERI1
 70
     0
  9
$USERI2
 70
     0
  9
$USERI3
 70
     0
  9
$USERI4
 70
     0
  9
$USERI5
 70
     0
  9
$USERR1
 40
0.0
  9
$USERR2
 40
0.0
  9
$USERR3
 40
0.0
  9
$USERR4
 40
0.0
  9
$USERR5
 40
0.0
  9
$WORLDVIEW
 70
     1
  9
$SHADEDGE
 70
     3
  9
$SHADEDIF
 70
    70
  9
$TILEMODE
 70
     1
  9
$MAXACTVP
 70
    64
  9
$PINSBASE
 10
0.0
 20
0.0
 30
0.0
  9
$PLIMCHECK
 70
     0
  9
$PEXTMIN
 10
1.000000000000000E+20
 20
1.000000000000000E+20
 30
1.000000000000000E+20
  9
$PEXTMAX
 10
-1.000000000000000E+20
 20
-1.000000000000000E+20
 30
-1.000000000000000E+20
  9
$PLIMMIN
 10
0.0
 20
0.0
  9
$PLIMMAX
 10
12.0
 20
9.0
  9
$UNITMODE
 70
     0
  9
$VISRETAIN
 70
     1
  9
$PLINEGEN
 70
     0
  9
$PSLTSCALE
 70
     1
  9
$TREEDEPTH
 70
  3020
  9
$CMLSTYLE
  2
Standard
  9
$CMLJUST
 70
     0
  9
$CMLSCALE
 40
1.0
  9
$PROXYGRAPHICS
 70
     1
  9
$MEASUREMENT
 70
     0
  9
$CELWEIGHT
370
    -1
  9
$ENDCAPS
280
     0
  9
$JOINSTYLE
280
     0
  9
$LWDISPLAY
290
     1
  9
$INSUNITS
 70
     1
  9
$HYPERLINKBASE
  1

  9
$STYLESHEET
  1

  9
$XEDIT
290
     1
  9
$CEPSNTYPE
380
     0
  9
$PSTYLEMODE
290
     1
  9
$FINGERPRINTGUID
  2
{CDFD6191-30C2-4565-9719-1DDBD71E1933}
  9
$VERSIONGUID
  2
{FAEB1C32-E019-11D5-929B-00C0DF256EC4}
  9
$EXTNAMES
290
     1
  9
$PSVPSCALE
 40
0.0
  9
$OLESTARTUP
290
     0
  9
$SORTENTS
280
   127
  9
$INDEXCTL
280
     0
  9
$HIDETEXT
280
     1
  9
$XCLIPFRAME
280
     2
  9
$HALOGAP
280
     0
  9
$OBSCOLOR
 70
   257
  9
$OBSLTYPE
280
     0
  9
$INTERSECTIONDISPLAY
280
     0
  9
$INTERSECTIONCOLOR
 70
   257
  9
$DIMASSOC
280
     2
  9
$PROJECTNAME
  1

  9
$CAMERADISPLAY
290
     0
  9
$LENSLENGTH
 40
50.0
  9
$CAMERAHEIGHT
 40
0.0
  9
$STEPSPERSEC
 40
2.0
  9
$STEPSIZE
 40
6.0
  9
$3DDWFPREC
 40
2.0
  9
$PSOLWIDTH
 40
0.25
  9
$PSOLHEIGHT
 40
4.0
  9
$LOFTANG1
 40
1.570796326794897
  9
$LOFTANG2
 40
1.570796326794897
  9
$LOFTMAG1
 40
0.0
  9
$LOFTMAG2
 40
0.0
  9
$LOFTPARAM
 70
     7
  9
$LOFTNORMALS
280
     1
  9
$LATITUDE
 40
37.795
  9
$LONGITUDE
 40
-122.394
  9
$NORTHDIRECTION
 40
0.0
  9
$TIMEZONE
 70
 -8000
  9
$LIGHTGLYPHDISPLAY
280
     1
  9
$TILEMODELIGHTSYNCH
280
     1
  9
$CMATERIAL
347
3C
  9
$SOLIDHIST
280
     1
  9
$SHOWHIST
280
     1
  9
$DWFFRAME
280
     2
  9
$DGNFRAME
280
     2
  9
$REALWORLDSCALE
290
     1
  9
$INTERFERECOLOR
 62
   256
  9
$CSHADOW
280
     0
  9
$SHADOWPLANELOCATION
 40
0.0
  0
ENDSEC
  0
SECTION
  2
CLASSES
  0
CLASS
  1
ACDBDICTIONARYWDFLT
  2
AcDbDictionaryWithDefault
  3
ObjectDBX Classes
 90
        0
 91
        4
280
     0
281
     0
  0
CLASS
  1
VISUALSTYLE
  2
AcDbVisualStyle
  3
ObjectDBX Classes
 90
     4095
 91
        4
280
     0
281
     0
  0
CLASS
  1
MATERIAL
  2
AcDbMaterial
  3
ObjectDBX Classes
 90
     1153
 91
        4
280
     0
281
     0
  0
CLASS
  1
SUN
  2
AcDbSun
  3
SCENEOE
 90
     1024
 91
        4
280
     0
281
     0
  0
ENDSEC
  0
SECTION
  2
TABLES
  0
TABLE
  2
VPORT
  5
8
330
0
100
AcDbSymbolTable
 70
     1
  0
VPORT
  5
29
330
8
100
AcDbSymbolTableRecord
100
AcDbViewportTableRecord
  2
*Active
 70
     0
 10
0.0
 20
0.0
 11
1.0
 21
1.0
 12
0.0
 22
0.0
 13
0.0
 23
0.0
 14
0.5
 24
0.5
 15
0.5
 25
0.5
 16
0.0
 26
0.0
 36
1.0
 17
2.381944444444444
 27
2.902777777777778
 37
0.0
 40
11.0
 41
0.7727272727272728
 42
50.0
 43
0.0
 44
0.0
 50
0.0
 51
0.0
 71
     0
 72
   100
 73
     1
 74
     3
 75
     0
 76
     0
 77
     0
 78
     0
281
     0
 65
     1
110
0.0
120
0.0
130
0.0
111
1.0
121
0.0
131
0.0
112
0.0
122
1.0
132
0.0
 79
     0
146
0.0
 60
     3
 61
     5
292
     1
282
     1
141
0.0
142
0.0
 63
   250
361
3F
  0
ENDTAB
  0
TABLE
  2
LTYPE
  5
5
330
0
100
AcDbSymbolTable
 70
     3
  0
LTYPE
  5
14
330
5
100
AcDbSymbolTableRecord
100
AcDbLinetypeTableRecord
  2
ByBlock
 70
     0
  3

 72
    65
 73
     0
 40
0.0
  0
LTYPE
  5
15
330
5
100
AcDbSymbolTableRecord
100
AcDbLinetypeTableRecord
  2
ByLayer
 70
     0
  3

 72
    65
 73
     0
 40
0.0
  0
LTYPE
  5
16
330
5
100
AcDbSymbolTableRecord
100
AcDbLinetypeTableRecord
  2
Continuous
 70
     0
  3
Solid line
 72
    65
 73
     0
 40
0.0
  0
LTYPE
  5
82
330
5
100
AcDbSymbolTableRecord
100
AcDbLinetypeTableRecord
  2
AI-Linetype-1
 70
     0
  3
Adobe Illustrator Linetype No. 1
 72
    65
 73
     4
 40
0.1136875152587891
 49
0.0284218788146973
 74
     0
 49
-0.0284218788146973
 74
     0
 49
0.0284218788146973
 74
     0
 49
-0.0284218788146973
 74
     0
  0
LTYPE
  5
88
330
5
100
AcDbSymbolTableRecord
100
AcDbLinetypeTableRecord
  2
AI-Linetype-2
 70
     0
  3
Adobe Illustrator Linetype No. 2
 72
    65
 73
     4
 40
0.1136875152587891
 49
0.0284218788146973
 74
     0
 49
-0.0284218788146973
 74
     0
 49
0.0284218788146973
 74
     0
 49
-0.0284218788146973
 74
     0
  0
ENDTAB
  0
TABLE
  2
LAYER
  5
2
330
0
100
AcDbSymbolTable
 70
     3
  0
LAYER
  5
10
330
2
100
AcDbSymbolTableRecord
100
AcDbLayerTableRecord
  2
0
 70
     0
 62
     7
  6
Continuous
370
    -3
390
F
347
3E
  0
LAYER
  5
40
330
2
100
AcDbSymbolTableRecord
100
AcDbLayerTableRecord
  2
Layer 1
 70
     0
 62
     7
  6
Continuous
370
    -3
390
F
347
3E
  0
LAYER
  5
EE
330
2
100
AcDbSymbolTableRecord
100
AcDbLayerTableRecord
  2
callout
 70
     0
 62
     7
  6
Continuous
370
    -3
390
F
347
3E
  0
ENDTAB
  0
TABLE
  2
STYLE
  5
3
330
0
100
AcDbSymbolTable
 70
     1
  0
STYLE
  5
11
330
3
100
AcDbSymbolTableRecord
100
AcDbTextStyleTableRecord
  2
Standard
 70
     0
 40
0.0
 41
1.0
 50
0.0
 71
     0
 42
0.2
  3
txt
  4

  0
ENDTAB
  0
TABLE
  2
VIEW
  5
6
330
0
100
AcDbSymbolTable
 70
     0
  0
ENDTAB
  0
TABLE
  2
UCS
  5
7
330
0
100
AcDbSymbolTable
 70
     0
  0
ENDTAB
  0
TABLE
  2
APPID
  5
9
330
0
100
AcDbSymbolTable
 70
     1
  0
APPID
  5
12
330
9
100
AcDbSymbolTableRecord
100
AcDbRegAppTableRecord
  2
ACAD
 70
     0
  0
ENDTAB
  0
TABLE
  2
DIMSTYLE
  5
A
330
0
100
AcDbSymbolTable
 70
     1
100
AcDbDimStyleTable
  0
DIMSTYLE
105
27
330
A
100
AcDbSymbolTableRecord
100
AcDbDimStyleTableRecord
  2
Standard
 70
     0
178
     0
340
11
  0
ENDTAB
  0
TABLE
  2
BLOCK_RECORD
  5
1
330
0
100
AcDbSymbolTable
 70
     2
  0
BLOCK_RECORD
  5
1F
330
1
100
AcDbSymbolTableRecord
100
AcDbBlockTableRecord
  2
*Model_Space
340
22
 70
     0
280
     1
281
     0
  0
BLOCK_RECORD
  5
1B
330
1
100
AcDbSymbolTableRecord
100
AcDbBlockTableRecord
  2
*Paper_Space
340
1E
 70
     0
280
     1
281
     0
  0
BLOCK_RECORD
  5
23
330
1
100
AcDbSymbolTableRecord
100
AcDbBlockTableRecord
  2
*Paper_Space0
340
26
 70
     0
280
     1
281
     0
  0
BLOCK_RECORD
  5
56
330
1
100
AcDbSymbolTableRecord
100
AcDbBlockTableRecord
  2
block 2
340
0
102
{BLKREFS
331
57
102
}
 70
     0
280
     1
281
     0
  0
ENDTAB
  0
ENDSEC
  0
SECTION
  2
BLOCKS
  0
BLOCK
  5
20
330
1F
100
AcDbEntity
  8
0
100
AcDbBlockBegin
  2
*Model_Space
 70
     0
 10
0.0
 20
0.0
 30
0.0
  3
*Model_Space
  1

  0
ENDBLK
  5
21
330
1F
100
AcDbEntity
  8
0
100
AcDbBlockEnd
  0
BLOCK
  5
1C
330
1B
100
AcDbEntity
 67
     1
  8
0
100
AcDbBlockBegin
  2
*Paper_Space
 70
     0
 10
0.0
 20
0.0
 30
0.0
  3
*Paper_Space
  1

  0
ENDBLK
  5
1D
330
1B
100
AcDbEntity
 67
     1
  8
0
100
AcDbBlockEnd
  0
BLOCK
  5
24
330
23
100
AcDbEntity
  8
0
100
AcDbBlockBegin
  2
*Paper_Space0
 70
     0
 10
0.0
 20
0.0
 30
0.0
  3
*Paper_Space0
  1

  0
ENDBLK
  5
25
330
23
100
AcDbEntity
  8
0
100
AcDbBlockEnd
  0
BLOCK
  5
58
330
56
100
AcDbEntity
  8
0
100
AcDbBlockBegin
  2
block 2
 70
     0
 10
0.0
 20
0.0
 30
0.0
  3
block 2
  1

  0
SPLINE
  5
5A
330
56
100
AcDbEntity
  8
Layer 1
370
     0
100
AcDbSpline
210
0.0
220
0.0
230
1.0
 70
    11
 71
     3
 72
    20
 73
    16
 74
     0
 42
0.0000000001
 43
0.0000000001
 12
1.0
 22
0.0
 32
0.0
 13
1.0
 23
0.0
 33
0.0
 40
0.0
 40
0.0
 40
0.0
 40
0.0
 40
1.0
 40
1.0
 40
1.0
 40
2.0
 40
2.0
 40
2.0
 40
3.0
 40
3.0
 40
3.0
 40
4.0
 40
4.0
 40
4.0
 40
5.0
 40
5.0
 40
5.0
 40
5.0
 10
2.182369625564459
 20
4.031942347214087
 30
0.0
 10
2.182369625564459
 20
4.031942347214087
 30
0.0
 10
2.164301836663248
 20
4.028764781067858
 30
0.0
 10
2.164301836663248
 20
4.028764781067858
 30
0.0
 10
2.164301836663248
 20
4.028764781067858
 30
0.0
 10
1.995907884041167
 20
4.120274707015962
 30
0.0
 10
1.986915201316075
 20
4.123301819721291
 30
0.0
 10
1.9645984414913
 20
4.130739643107542
 30
0.0
 10
1.97947435322054
 20
4.154111138053318
 30
0.0
 10
1.99753077336988
 20
4.146672948846129
 30
0.0
 10
2.01558435133125
 20
4.139232100750582
 30
0.0
 10
2.156875199507542
 20
4.065943441853872
 30
0.0
 10
2.156875199507542
 20
4.065943441853872
 30
0.0
 10
2.156875199507542
 20
4.065943441853872
 30
0.0
 10
2.182369625564459
 20
4.031942347214087
 30
0.0
 10
2.182369625564459
 20
4.031942347214087
 30
0.0
  0
HATCH
  5
5B
330
56
100
AcDbEntity
  8
Layer 1
 62
   254
420
 16376262
100
AcDbHatch
 10
0.0
 20
0.0
 30
0.0
210
0.0
220
0.0
230
1.0
  2
SOLID
 70
     1
 71
     0
 91
        1
 92
        1
 93
        1
 72
     4
 94
        3
 73
     0
 74
     1
 95
       20
 96
       16
 40
0.0
 40
0.0
 40
0.0
 40
0.0
 40
1.0
 40
1.0
 40
1.0
 40
2.0
 40
2.0
 40
2.0
 40
3.0
 40
3.0
 40
3.0
 40
4.0
 40
4.0
 40
4.0
 40
5.0
 40
5.0
 40
5.0
 40
5.0
 10
2.182369625564459
 20
4.031942347214087
 10
2.182369625564459
 20
4.031942347214087
 10
2.164301836663248
 20
4.028764781067858
 10
2.164301836663248
 20
4.028764781067858
 10
2.164301836663248
 20
4.028764781067858
 10
1.995907884041167
 20
4.120274707015962
 10
1.986915201316075
 20
4.123301819721291
 10
1.9645984414913
 20
4.130739643107542
 10
1.97947435322054
 20
4.154111138053318
 10
1.99753077336988
 20
4.146672948846129
 10
2.01558435133125
 20
4.139232100750582
 10
2.156875199507542
 20
4.065943441853872
 10
2.156875199507542
 20
4.065943441853872
 10
2.156875199507542
 20
4.065943441853872
 10
2.182369625564459
 20
4.031942347214087
 10
2.182369625564459
 20
4.031942347214087
 97
        0
 97
        0
 75
     2
 76
     1
 98
        0
  0
POLYLINE
  5
5C
330
56
100
AcDbEntity
  8
Layer 1
370
     0
100
AcDb2dPolyline
 66
     1
 10
0.0
 20
0.0
 30
0.0
  0
VERTEX
  5
5D
330
5C
100
AcDbEntity
  8
Layer 1
370
     0
100
AcDbVertex
100
AcDb2dVertex
 10
2.24312707771815
 20
4.09800047992476
 30
0.0
  0
VERTEX
  5
5E
330
5C
100
AcDbEntity
  8
Layer 1
370
     0
100
AcDbVertex
100
AcDb2dVertex
 10
1.9645984414913
 20
4.037257238710898
 30
0.0
  0
VERTEX
  5
5F
330
5C
100
AcDbEntity
  8
Layer 1
370
     0
100
AcDbVertex
100
AcDb2dVertex
 10
1.90087080282702
 20
4.074435899496911
 30
0.0
  0
VERTEX
  5
60
330
5C
100
AcDbEntity
  8
Layer 1
370
     0
100
AcDbVertex
100
AcDb2dVertex
 10
1.903798256432196
 20
4.26620116376513
 30
0.0
  0
SEQEND
  5
62
330
5C
100
AcDbEntity
  8
Layer 1
370
     0
  0
HATCH
  5
61
330
56
100
AcDbEntity
  8
Layer 1
 62
   254
420
 16376262
100
AcDbHatch
 10
0.0
 20
0.0
 30
0.0
210
0.0
220
0.0
230
1.0
  2
SOLID
 70
     1
 71
     0
 91
        1
 92
        1
 93
        4
 72
     1
 10
2.24312707771815
 20
4.09800047992476
 11
1.964598441491299
 21
4.037257238710898
 72
     1
 10
1.9645984414913
 20
4.037257238710898
 11
1.90087080282702
 21
4.074435899496911
 72
     1
 10
1.90087080282702
 20
4.074435899496911
 11
1.903798256432196
 21
4.26620116376513
 72
     1
 10
1.903798256432196
 20
4.26620116376513
 11
2.24312707771815
 21
4.09800047992476
 97
        0
 75
     2
 76
     1
 98
        0
  0
ENDBLK
  5
59
330
56
100
AcDbEntity
  8
0
100
AcDbBlockEnd
  0
ENDSEC
  0
SECTION
  2
ENTITIES
  0
SPLINE
  5
41
330
1F
100
AcDbEntity
  8
Layer 1
 62
     7
420
 16777215
370
    40
100
AcDbSpline
210
0.0
220
0.0
230
1.0
 70
    11
 71
     3
 72
    41
 73
    37
 74
     0
 42
0.0000000001
 43
0.0000000001
 12
1.0
 22
0.0
 32
0.0
 13
1.0
 23
0.0
 33
0.0
 40
0.0
 40
0.0
 40
0.0
 40
0.0
 40
1.0
 40
1.0
 40
1.0
 40
2.0
 40
2.0
 40
2.0
 40
3.0
 40
3.0
 40
3.0
 40
4.0
 40
4.0
 40
4.0
 40
5.0
 40
5.0
 40
5.0
 40
6.0
 40
6.0
 40
6.0
 40
7.0
 40
7.0
 40
7.0
 40
8.0
 40
8.0
 40
8.0
 40
9.0
 40
9.0
 40
9.0
 40
10.0
 40
10.0
 40
10.0
 40
11.0
 40
11.0
 40
11.0
 40
12.0
 40
12.0
 40
12.0
 40
12.0
 10
2.692243935762892
 20
1.155352537859926
 30
0.0
 10
2.692243935762892
 20
1.155352537859926
 30
0.0
 10
2.689063527428718
 20
1.136241665975124
 30
0.0
 10
2.684803087667357
 20
1.13517300329982
 30
0.0
 10
2.680556858845825
 20
1.13411855156437
 30
0.0
 10
2.419251781608308
 20
1.033198141260123
 30
0.0
 10
2.412868338846364
 20
1.03212947858487
 30
0.0
 10
2.406496042015962
 20
1.03107502684937
 30
0.0
 10
2.394811807286866
 20
1.030006468552175
 30
0.0
 10
2.387373912145436
 20
1.03638991834618
 30
0.0
 10
2.379935795471713
 20
1.042762103766462
 30
0.0
 10
2.199357383038483
 20
1.191476746910464
 30
0.0
 10
2.199357383038483
 20
1.191476746910464
 30
0.0
 10
2.199357383038483
 20
1.191476746910464
 30
0.0
 10
2.184492739975212
 20
1.219094287378135
 30
0.0
 10
2.184492739975212
 20
1.219094287378135
 30
0.0
 10
2.184492739975212
 20
1.219094287378135
 30
0.0
 10
2.100574298084881
 20
1.188284969824407
 30
0.0
 10
2.095259406588057
 20
1.186161855413653
 30
0.0
 10
2.089944515091222
 20
1.1840387410029
 30
0.0
 10
2.079326100849458
 20
1.189353632499711
 30
0.0
 10
2.077202986438705
 20
1.197846090142775
 30
0.0
 10
2.075079872027964
 20
1.206338547785789
 30
0.0
 10
2.047462331560281
 20
1.3146969639976
 30
0.0
 10
2.047462331560281
 20
1.3146969639976
 30
0.0
 10
2.047462331560281
 20
1.3146969639976
 30
0.0
 10
1.901925254562469
 20
1.435796908861903
 30
0.0
 10
1.901925254562469
 20
1.435796908861903
 30
0.0
 10
1.901925254562469
 20
1.435796908861903
 30
0.0
 10
1.906171483383989
 20
3.378656916616554
 30
0.0
 10
1.906171483383989
 20
3.378656916616554
 30
0.0
 10
1.906171483383989
 20
3.378656916616554
 30
0.0
 10
2.695435712848949
 20
3.551811534082061
 30
0.0
 10
2.695435712848949
 20
3.551811534082061
 30
0.0
 10
2.695435712848949
 20
3.551811534082061
 30
0.0
 10
2.692243935762892
 20
1.155352537859926
 30
0.0
 10
2.692243935762892
 20
1.155352537859926
 30
0.0
  0
HATCH
  5
42
330
1F
100
AcDbEntity
  8
Layer 1
 62
    43
420
 15510365
100
AcDbHatch
 10
0.0
 20
0.0
 30
0.0
210
0.0
220
0.0
230
1.0
  2
SOLID
 70
     1
 71
     0
 91
        1
 92
        1
 93
        1
 72
     4
 94
        3
 73
     0
 74
     1
 95
       41
 96
       37
 40
0.0
 40
0.0
 40
0.0
 40
0.0
 40
1.0
 40
1.0
 40
1.0
 40
2.0
 40
2.0
 40
2.0
 40
3.0
 40
3.0
 40
3.0
 40
4.0
 40
4.0
 40
4.0
 40
5.0
 40
5.0
 40
5.0
 40
6.0
 40
6.0
 40
6.0
 40
7.0
 40
7.0
 40
7.0
 40
8.0
 40
8.0
 40
8.0
 40
9.0
 40
9.0
 40
9.0
 40
10.0
 40
10.0
 40
10.0
 40
11.0
 40
11.0
 40
11.0
 40
12.0
 40
12.0
 40
12.0
 40
12.0
 10
2.692243935762892
 20
1.155352537859926
 10
2.692243935762892
 20
1.155352537859926
 10
2.689063527428718
 20
1.136241665975124
 10
2.684803087667357
 20
1.13517300329982
 10
2.680556858845825
 20
1.13411855156437
 10
2.419251781608308
 20
1.033198141260123
 10
2.412868338846364
 20
1.03212947858487
 10
2.406496042015962
 20
1.03107502684937
 10
2.394811807286866
 20
1.030006468552175
 10
2.387373912145436
 20
1.03638991834618
 10
2.379935795471713
 20
1.042762103766462
 10
2.199357383038483
 20
1.191476746910464
 10
2.199357383038483
 20
1.191476746910464
 10
2.199357383038483
 20
1.191476746910464
 10
2.184492739975212
 20
1.219094287378135
 10
2.184492739975212
 20
1.219094287378135
 10
2.184492739975212
 20
1.219094287378135
 10
2.100574298084881
 20
1.188284969824407
 10
2.095259406588057
 20
1.186161855413653
 10
2.089944515091222
 20
1.1840387410029
 10
2.079326100849458
 20
1.189353632499711
 10
2.077202986438705
 20
1.197846090142775
 10
2.075079872027964
 20
1.206338547785789
 10
2.047462331560281
 20
1.3146969639976
 10
2.047462331560281
 20
1.3146969639976
 10
2.047462331560281
 20
1.3146969639976
 10
1.901925254562469
 20
1.435796908861903
 10
1.901925254562469
 20
1.435796908861903
 10
1.901925254562469
 20
1.435796908861903
 10
1.906171483383989
 20
3.378656916616554
 10
1.906171483383989
 20
3.378656916616554
 10
1.906171483383989
 20
3.378656916616554
 10
2.695435712848949
 20
3.551811534082061
 10
2.695435712848949
 20
3.551811534082061
 10
2.695435712848949
 20
3.551811534082061
 10
2.692243935762892
 20
1.155352537859926
 10
2.692243935762892
 20
1.155352537859926
 97
        0
 97
        0
 75
     2
 76
     1
 98
        0
  0
POLYLINE
  5
43
330
1F
100
AcDbEntity
  8
Layer 1
 62
     7
420
 16777215
370
    30
100
AcDb2dPolyline
 66
     1
 10
0.0
 20
0.0
 30
0.0
  0
VERTEX
  5
44
330
43
100
AcDbEntity
  8
Layer 1
 62
     7
420
 16777215
370
    30
100
AcDbVertex
100
AcDb2dVertex
 10
2.400126698783677
 20
1.034266803935427
 30
0.0
  0
VERTEX
  5
45
330
43
100
AcDbEntity
  8
Layer 1
 62
     7
420
 16777215
370
    30
100
AcDbVertex
100
AcDb2dVertex
 10
2.40969066128999
 20
3.46682158732843
 30
0.0
  0
SEQEND
  5
46
330
43
100
AcDbEntity
  8
Layer 1
 62
     7
420
 16777215
370
    30
  0
SPLINE
  5
47
330
1F
100
AcDbEntity
  8
Layer 1
 62
     7
420
 16777215
370
    40
100
AcDbSpline
210
0.0
220
0.0
230
1.0
 70
    11
 71
     3
 72
    56
 73
    52
 74
     0
 42
0.0000000001
 43
0.0000000001
 12
1.0
 22
0.0
 32
0.0
 13
1.0
 23
0.0
 33
0.0
 40
0.0
 40
0.0
 40
0.0
 40
0.0
 40
1.0
 40
1.0
 40
1.0
 40
2.0
 40
2.0
 40
2.0
 40
3.0
 40
3.0
 40
3.0
 40
4.0
 40
4.0
 40
4.0
 40
5.0
 40
5.0
 40
5.0
 40
6.0
 40
6.0
 40
6.0
 40
7.0
 40
7.0
 40
7.0
 40
8.0
 40
8.0
 40
8.0
 40
9.0
 40
9.0
 40
9.0
 40
10.0
 40
10.0
 40
10.0
 40
11.0
 40
11.0
 40
11.0
 40
12.0
 40
12.0
 40
12.0
 40
13.0
 40
13.0
 40
13.0
 40
14.0
 40
14.0
 40
14.0
 40
15.0
 40
15.0
 40
15.0
 40
16.0
 40
16.0
 40
16.0
 40
17.0
 40
17.0
 40
17.0
 40
17.0
 10
3.655700324107784
 20
3.749389072741173
 30
0.0
 10
3.655700324107784
 20
3.749389072741173
 30
0.0
 10
3.659960621062358
 20
3.985202566109744
 30
0.0
 10
3.658891958387054
 20
3.990517457606554
 30
0.0
 10
3.657837506651604
 20
3.995832349103365
 30
0.0
 10
3.649330838068737
 20
4.00220169233565
 30
0.0
 10
3.644030157511755
 20
4.004324806746404
 30
0.0
 10
3.638712423826973
 20
4.006450763345141
 30
0.0
 10
3.486806003596889
 20
4.073367236821607
 30
0.0
 10
3.486806003596889
 20
4.073367236821607
 30
0.0
 10
3.486806003596889
 20
4.073367236821607
 30
0.0
 10
3.485751551861413
 20
4.192344067275169
 30
0.0
 10
3.486806003596889
 20
4.19765895877198
 30
0.0
 10
3.487874666272167
 20
4.202973850268803
 30
0.0
 10
3.48468288918611
 20
4.209343193501089
 30
0.0
 10
3.476190431543071
 20
4.213589422322595
 30
0.0
 10
3.467697973900032
 20
4.217838493332086
 30
0.0
 10
3.294543490117727
 20
4.294318929314866
 30
0.0
 10
3.294543490117727
 20
4.294318929314866
 30
0.0
 10
3.294543490117727
 20
4.294318929314866
 30
0.0
 10
3.273295159199177
 20
4.33681248159769
 30
0.0
 10
3.273295159199177
 20
4.33681248159769
 30
0.0
 10
3.273295159199177
 20
4.33681248159769
 30
0.0
 10
3.153266719198099
 20
4.32832002395465
 30
0.0
 10
3.153266719198099
 20
4.32832002395465
 30
0.0
 10
3.153266719198099
 20
4.32832002395465
 30
0.0
 10
3.150075072145632
 20
4.360183793243853
 30
0.0
 10
3.150075072145632
 20
4.360183793243853
 30
0.0
 10
3.150075072145632
 20
4.360183793243853
 30
0.0
 10
2.946125218032674
 20
4.447279801280413
 30
0.0
 10
2.946125218032674
 20
4.447279801280413
 30
0.0
 10
2.946125218032674
 20
4.447279801280413
 30
0.0
 10
1.185966737122019
 20
4.114794968617098
 30
0.0
 10
1.185966737122019
 20
4.114794968617098
 30
0.0
 10
1.185966737122019
 20
4.114794968617098
 30
0.0
 10
1.18066613684717
 20
3.86622857784414
 30
0.0
 10
1.18066613684717
 20
3.86622857784414
 30
0.0
 10
1.18066613684717
 20
3.86622857784414
 30
0.0
 10
1.191281628618829
 20
3.850295272105566
 30
0.0
 10
1.191281628618829
 20
3.850295272105566
 30
0.0
 10
1.191281628618829
 20
3.850295272105566
 30
0.0
 10
1.18066613684717
 20
3.835433471230241
 30
0.0
 10
1.18066613684717
 20
3.835433471230241
 30
0.0
 10
1.18066613684717
 20
3.835433471230241
 30
0.0
 10
1.18278917097579
 20
3.580483526285168
 30
0.0
 10
1.18278917097579
 20
3.580483526285168
 30
0.0
 10
1.18278917097579
 20
3.580483526285168
 30
0.0
 10
1.655482070477269
 20
3.275613391901579
 30
0.0
 10
1.655482070477269
 20
3.275613391901579
 30
0.0
 10
1.655482070477269
 20
3.275613391901579
 30
0.0
 10
3.655700324107784
 20
3.749389072741173
 30
0.0
 10
3.655700324107784
 20
3.749389072741173
 30
0.0
  0
HATCH
  5
48
330
1F
100
AcDbEntity
  8
Layer 1
 62
    43
420
 15510365
100
AcDbHatch
 10
0.0
 20
0.0
 30
0.0
210
0.0
220
0.0
230
1.0
  2
SOLID
 70
     1
 71
     0
 91
        1
 92
        1
 93
        1
 72
     4
 94
        3
 73
     0
 74
     1
 95
       56
 96
       52
 40
0.0
 40
0.0
 40
0.0
 40
0.0
 40
1.0
 40
1.0
 40
1.0
 40
2.0
 40
2.0
 40
2.0
 40
3.0
 40
3.0
 40
3.0
 40
4.0
 40
4.0
 40
4.0
 40
5.0
 40
5.0
 40
5.0
 40
6.0
 40
6.0
 40
6.0
 40
7.0
 40
7.0
 40
7.0
 40
8.0
 40
8.0
 40
8.0
 40
9.0
 40
9.0
 40
9.0
 40
10.0
 40
10.0
 40
10.0
 40
11.0
 40
11.0
 40
11.0
 40
12.0
 40
12.0
 40
12.0
 40
13.0
 40
13.0
 40
13.0
 40
14.0
 40
14.0
 40
14.0
 40
15.0
 40
15.0
 40
15.0
 40
16.0
 40
16.0
 40
16.0
 40
17.0
 40
17.0
 40
17.0
 40
17.0
 10
3.655700324107784
 20
3.749389072741173
 10
3.655700324107784
 20
3.749389072741173
 10
3.659960621062358
 20
3.985202566109744
 10
3.658891958387054
 20
3.990517457606554
 10
3.657837506651604
 20
3.995832349103365
 10
3.649330838068737
 20
4.00220169233565
 10
3.644030157511755
 20
4.004324806746404
 10
3.638712423826973
 20
4.006450763345141
 10
3.486806003596889
 20
4.073367236821607
 10
3.486806003596889
 20
4.073367236821607
 10
3.486806003596889
 20
4.073367236821607
 10
3.485751551861413
 20
4.192344067275169
 10
3.486806003596889
 20
4.19765895877198
 10
3.487874666272167
 20
4.202973850268803
 10
3.48468288918611
 20
4.209343193501089
 10
3.476190431543071
 20
4.213589422322595
 10
3.467697973900032
 20
4.217838493332086
 10
3.294543490117727
 20
4.294318929314866
 10
3.294543490117727
 20
4.294318929314866
 10
3.294543490117727
 20
4.294318929314866
 10
3.273295159199177
 20
4.33681248159769
 10
3.273295159199177
 20
4.33681248159769
 10
3.273295159199177
 20
4.33681248159769
 10
3.153266719198099
 20
4.32832002395465
 10
3.153266719198099
 20
4.32832002395465
 10
3.153266719198099
 20
4.32832002395465
 10
3.150075072145632
 20
4.360183793243853
 10
3.150075072145632
 20
4.360183793243853
 10
3.150075072145632
 20
4.360183793243853
 10
2.946125218032674
 20
4.447279801280413
 10
2.946125218032674
 20
4.447279801280413
 10
2.946125218032674
 20
4.447279801280413
 10
1.185966737122019
 20
4.114794968617098
 10
1.185966737122019
 20
4.114794968617098
 10
1.185966737122019
 20
4.114794968617098
 10
1.18066613684717
 20
3.86622857784414
 10
1.18066613684717
 20
3.86622857784414
 10
1.18066613684717
 20
3.86622857784414
 10
1.191281628618829
 20
3.850295272105566
 10
1.191281628618829
 20
3.850295272105566
 10
1.191281628618829
 20
3.850295272105566
 10
1.18066613684717
 20
3.835433471230241
 10
1.18066613684717
 20
3.835433471230241
 10
1.18066613684717
 20
3.835433471230241
 10
1.18278917097579
 20
3.580483526285168
 10
1.18278917097579
 20
3.580483526285168
 10
1.18278917097579
 20
3.580483526285168
 10
1.655482070477269
 20
3.275613391901579
 10
1.655482070477269
 20
3.275613391901579
 10
1.655482070477269
 20
3.275613391901579
 10
3.655700324107784
 20
3.749389072741173
 10
3.655700324107784
 20
3.749389072741173
 97
        0
 97
        0
 75
     2
 76
     1
 98
        0
  0
POLYLINE
  5
49
330
1F
100
AcDbEntity
  8
Layer 1
 62
     7
420
 16777215
370
    30
100
AcDb2dPolyline
 66
     1
 10
0.0
 20
0.0
 30
0.0
  0
VERTEX
  5
4A
330
49
100
AcDbEntity
  8
Layer 1
 62
     7
420
 16777215
370
    30
100
AcDbVertex
100
AcDb2dVertex
 10
1.663988646783132
 20
3.833296145879659
 30
0.0
  0
VERTEX
  5
4B
330
49
100
AcDbEntity
  8
Layer 1
 62
     7
420
 16777215
370
    30
100
AcDbVertex
100
AcDb2dVertex
 10
3.478313545953849
 20
4.210397645236551
 30
0.0
  0
SEQEND
  5
4C
330
49
100
AcDbEntity
  8
Layer 1
 62
     7
420
 16777215
370
    30
  0
POLYLINE
  5
4D
330
1F
100
AcDbEntity
  8
Layer 1
 62
     7
420
 16777215
370
    30
100
AcDb2dPolyline
 66
     1
 10
0.0
 20
0.0
 30
0.0
  0
VERTEX
  5
4E
330
4D
100
AcDbEntity
  8
Layer 1
 62
     7
420
 16777215
370
    30
100
AcDbVertex
100
AcDb2dVertex
 10
3.650399500744015
 20
3.996886800838853
 30
0.0
  0
VERTEX
  5
4F
330
4D
100
AcDbEntity
  8
Layer 1
 62
     7
420
 16777215
370
    30
100
AcDbVertex
100
AcDb2dVertex
 10
1.659728207021772
 20
3.569865112043405
 30
0.0
  0
VERTEX
  5
50
330
4D
100
AcDbEntity
  8
Layer 1
 62
     7
420
 16777215
370
    30
100
AcDbVertex
100
AcDb2dVertex
 10
1.191281628618829
 20
3.8481721576948
 30
0.0
  0
SEQEND
  5
51
330
4D
100
AcDbEntity
  8
Layer 1
 62
     7
420
 16777215
370
    30
  0
POLYLINE
  5
52
330
1F
100
AcDbEntity
  8
Layer 1
 62
     7
420
 16777215
370
    35
100
AcDb2dPolyline
 66
     1
 10
0.0
 20
0.0
 30
0.0
  0
VERTEX
  5
53
330
52
100
AcDbEntity
  8
Layer 1
 62
     7
420
 16777215
370
    35
100
AcDbVertex
100
AcDb2dVertex
 10
3.486806003596889
 20
4.073367236821607
 30
0.0
  0
VERTEX
  5
54
330
52
100
AcDbEntity
  8
Layer 1
 62
     7
420
 16777215
370
    35
100
AcDbVertex
100
AcDb2dVertex
 10
3.487596131851483
 20
3.963010762469569
 30
0.0
  0
SEQEND
  5
55
330
52
100
AcDbEntity
  8
Layer 1
 62
     7
420
 16777215
370
    35
  0
INSERT
  5
57
330
1F
100
AcDbEntity
  8
Layer 1
100
AcDbBlockReference
  2
block 2
 10
0.0
 20
0.0
 30
0.0
  0
SPLINE
  5
63
330
1F
100
AcDbEntity
  8
Layer 1
 62
     7
420
 16777215
370
    35
100
AcDbSpline
210
0.0
220
0.0
230
1.0
 70
    11
 71
     3
 72
    83
 73
    79
 74
     0
 42
0.0000000001
 43
0.0000000001
 12
1.0
 22
0.0
 32
0.0
 13
1.0
 23
0.0
 33
0.0
 40
0.0
 40
0.0
 40
0.0
 40
0.0
 40
1.0
 40
1.0
 40
1.0
 40
2.0
 40
2.0
 40
2.0
 40
3.0
 40
3.0
 40
3.0
 40
4.0
 40
4.0
 40
4.0
 40
5.0
 40
5.0
 40
5.0
 40
6.0
 40
6.0
 40
6.0
 40
7.0
 40
7.0
 40
7.0
 40
8.0
 40
8.0
 40
8.0
 40
9.0
 40
9.0
 40
9.0
 40
10.0
 40
10.0
 40
10.0
 40
11.0
 40
11.0
 40
11.0
 40
12.0
 40
12.0
 40
12.0
 40
13.0
 40
13.0
 40
13.0
 40
14.0
 40
14.0
 40
14.0
 40
15.0
 40
15.0
 40
15.0
 40
16.0
 40
16.0
 40
16.0
 40
17.0
 40
17.0
 40
17.0
 40
18.0
 40
18.0
 40
18.0
 40
19.0
 40
19.0
 40
19.0
 40
20.0
 40
20.0
 40
20.0
 40
21.0
 40
21.0
 40
21.0
 40
22.0
 40
22.0
 40
22.0
 40
23.0
 40
23.0
 40
23.0
 40
24.0
 40
24.0
 40
24.0
 40
25.0
 40
25.0
 40
25.0
 40
26.0
 40
26.0
 40
26.0
 40
26.0
 10
2.336387791453439
 20
4.341058710419209
 30
0.0
 10
2.323646262800897
 20
4.347428053651482
 30
0.0
 10
2.311962028071801
 20
4.350620019001414
 30
0.0
 10
2.294960059657948
 20
4.348496716326773
 30
0.0
 10
2.277960933432041
 20
4.346373601916008
 30
0.0
 10
1.953982769351594
 20
4.285823629483856
 30
0.0
 10
1.943350144169989
 20
4.284754966808565
 30
0.0
 10
1.932734572116197
 20
4.283700515073102
 30
0.0
 10
1.906171483383989
 20
4.277331171840816
 30
0.0
 10
1.904048368973223
 20
4.268824503257949
 30
0.0
 10
1.901925254562469
 20
4.26033204561491
 30
0.0
 10
1.89767902574095
 20
4.248644968697855
 30
0.0
 10
1.908308808734571
 20
4.252894039707333
 30
0.0
 10
1.918927222976347
 20
4.257140454431211
 30
0.0
 10
1.924242114473158
 20
4.255017154118099
 30
0.0
 10
1.933803234791488
 20
4.250768083108609
 30
0.0
 10
1.943350144169989
 20
4.24652185428709
 30
0.0
 10
2.405441590280487
 20
4.006450763345141
 30
0.0
 10
2.417114456257726
 20
4.000078577924884
 30
0.0
 10
2.428798690986822
 20
3.993709234692612
 30
0.0
 10
2.448992548809504
 20
3.986271228785047
 30
0.0
 10
2.448992548809504
 20
3.953338975048255
 30
0.0
 10
2.448992548809504
 20
3.92040636485606
 30
0.0
 10
2.446869322075978
 20
3.485946670153061
 30
0.0
 10
2.4458006594007
 20
3.476385549834718
 30
0.0
 10
2.444746207665225
 20
3.46682158732843
 30
0.0
 10
2.439428473980443
 20
3.444521780545541
 30
0.0
 10
2.435182245158936
 20
3.436026480714531
 30
0.0
 10
2.430936016337404
 20
3.427519812131663
 30
0.0
 10
2.41074511302544
 20
3.366969839699486
 30
0.0
 10
2.40224981319443
 20
3.354231153234941
 30
0.0
 10
2.393757355551391
 20
3.341478255830541
 30
0.0
 10
2.044270554474224
 20
2.732806649738652
 30
0.0
 10
2.038955662977413
 20
2.72112241500953
 30
0.0
 10
2.033640771480577
 20
2.709438180280459
 30
0.0
 10
2.014529899595787
 20
2.684998205958992
 30
0.0
 10
2.014529899595787
 20
2.63827263579449
 30
0.0
 10
2.014529899595787
 20
2.591530012502163
 30
0.0
 10
2.010283670774268
 20
1.741718775150528
 30
0.0
 10
2.010283670774268
 20
1.719418846010133
 30
0.0
 10
2.010283670774268
 20
1.69710198609942
 30
0.0
 10
2.008160556363502
 20
1.677993956402588
 30
0.0
 10
2.013461236920484
 20
1.662060650664039
 30
0.0
 10
2.018776128417307
 20
1.646115976173557
 30
0.0
 10
2.030463205334374
 20
1.612129092473626
 30
0.0
 10
2.030463205334374
 20
1.612129092473626
 30
0.0
 10
2.030463205334374
 20
1.612129092473626
 30
0.0
 10
2.25672694713646
 20
1.429413354689788
 30
0.0
 10
2.25672694713646
 20
1.429413354689788
 30
0.0
 10
2.25672694713646
 20
1.429413354689788
 30
0.0
 10
2.290713830836416
 20
1.44109758941891
 30
0.0
 10
2.290713830836416
 20
1.44109758941891
 30
0.0
 10
2.290713830836416
 20
1.44109758941891
 30
0.0
 10
2.318331371304086
 20
1.46660622641563
 30
0.0
 10
2.318331371304086
 20
1.46660622641563
 30
0.0
 10
2.318331371304086
 20
1.46660622641563
 30
0.0
 10
2.31940003397939
 20
2.404568045896869
 30
0.0
 10
2.32045448571484
 20
2.419446899899968
 30
0.0
 10
2.321523148390143
 20
2.434308700775293
 30
0.0
 10
2.316333313163846
 20
2.446493160586417
 30
0.0
 10
2.334261834854715
 20
2.477870915733395
 30
0.0
 10
2.34701757444706
 20
2.500173564704255
 30
0.0
 10
2.399058036108398
 20
2.585146458330049
 30
0.0
 10
2.417114456257726
 20
2.627640010612898
 30
0.0
 10
2.424620674676488
 20
2.645267260379316
 30
0.0
 10
2.806971695206963
 20
3.397779157253214
 30
0.0
 10
2.813341038439249
 20
3.413712462991814
 30
0.0
 10
2.819710381671535
 20
3.429642926542417
 30
0.0
 10
2.835643809500475
 20
3.465767135592955
 30
0.0
 10
2.835643809500475
 20
3.498699567557461
 30
0.0
 10
2.835643809500475
 20
3.531617788582114
 30
0.0
 10
2.83990412717147
 20
4.02450434130651
 30
0.0
 10
2.838835464496166
 20
4.05212188177418
 30
0.0
 10
2.837766801820862
 20
4.079739422241851
 30
0.0
 10
2.83246612126388
 20
4.102053439964581
 30
0.0
 10
2.812272375763945
 20
4.111617402470882
 30
0.0
 10
2.792092841203865
 20
4.121178522789212
 30
0.0
 10
2.349140688857814
 20
4.334689367186936
 30
0.0
 10
2.336387791453439
 20
4.341058710419209
 30
0.0
  0
HATCH
  5
64
330
1F
100
AcDbEntity
  8
Layer 1
 62
   254
420
 13358815
100
AcDbHatch
 10
0.0
 20
0.0
 30
0.0
210
0.0
220
0.0
230
1.0
  2
SOLID
 70
     1
 71
     0
 91
        1
 92
        1
 93
        1
 72
     4
 94
        3
 73
     0
 74
     1
 95
       83
 96
       79
 40
0.0
 40
0.0
 40
0.0
 40
0.0
 40
1.0
 40
1.0
 40
1.0
 40
2.0
 40
2.0
 40
2.0
 40
3.0
 40
3.0
 40
3.0
 40
4.0
 40
4.0
 40
4.0
 40
5.0
 40
5.0
 40
5.0
 40
6.0
 40
6.0
 40
6.0
 40
7.0
 40
7.0
 40
7.0
 40
8.0
 40
8.0
 40
8.0
 40
9.0
 40
9.0
 40
9.0
 40
10.0
 40
10.0
 40
10.0
 40
11.0
 40
11.0
 40
11.0
 40
12.0
 40
12.0
 40
12.0
 40
13.0
 40
13.0
 40
13.0
 40
14.0
 40
14.0
 40
14.0
 40
15.0
 40
15.0
 40
15.0
 40
16.0
 40
16.0
 40
16.0
 40
17.0
 40
17.0
 40
17.0
 40
18.0
 40
18.0
 40
18.0
 40
19.0
 40
19.0
 40
19.0
 40
20.0
 40
20.0
 40
20.0
 40
21.0
 40
21.0
 40
21.0
 40
22.0
 40
22.0
 40
22.0
 40
23.0
 40
23.0
 40
23.0
 40
24.0
 40
24.0
 40
24.0
 40
25.0
 40
25.0
 40
25.0
 40
26.0
 40
26.0
 40
26.0
 40
26.0
 10
2.336387791453439
 20
4.341058710419209
 10
2.323646262800897
 20
4.347428053651482
 10
2.311962028071801
 20
4.350620019001414
 10
2.294960059657948
 20
4.348496716326773
 10
2.277960933432041
 20
4.346373601916008
 10
1.953982769351594
 20
4.285823629483856
 10
1.943350144169989
 20
4.284754966808565
 10
1.932734572116197
 20
4.283700515073102
 10
1.906171483383989
 20
4.277331171840816
 10
1.904048368973223
 20
4.268824503257949
 10
1.901925254562469
 20
4.26033204561491
 10
1.89767902574095
 20
4.248644968697855
 10
1.908308808734571
 20
4.252894039707333
 10
1.918927222976347
 20
4.257140454431211
 10
1.924242114473158
 20
4.255017154118099
 10
1.933803234791488
 20
4.250768083108609
 10
1.943350144169989
 20
4.24652185428709
 10
2.405441590280487
 20
4.006450763345141
 10
2.417114456257726
 20
4.000078577924884
 10
2.428798690986822
 20
3.993709234692612
 10
2.448992548809504
 20
3.986271228785047
 10
2.448992548809504
 20
3.953338975048255
 10
2.448992548809504
 20
3.92040636485606
 10
2.446869322075978
 20
3.485946670153061
 10
2.4458006594007
 20
3.476385549834718
 10
2.444746207665225
 20
3.46682158732843
 10
2.439428473980443
 20
3.444521780545541
 10
2.435182245158936
 20
3.436026480714531
 10
2.430936016337404
 20
3.427519812131663
 10
2.41074511302544
 20
3.366969839699486
 10
2.40224981319443
 20
3.354231153234941
 10
2.393757355551391
 20
3.341478255830541
 10
2.044270554474224
 20
2.732806649738652
 10
2.038955662977413
 20
2.72112241500953
 10
2.033640771480577
 20
2.709438180280459
 10
2.014529899595787
 20
2.684998205958992
 10
2.014529899595787
 20
2.63827263579449
 10
2.014529899595787
 20
2.591530012502163
 10
2.010283670774268
 20
1.741718775150528
 10
2.010283670774268
 20
1.719418846010133
 10
2.010283670774268
 20
1.69710198609942
 10
2.008160556363502
 20
1.677993956402588
 10
2.013461236920484
 20
1.662060650664039
 10
2.018776128417307
 20
1.646115976173557
 10
2.030463205334374
 20
1.612129092473626
 10
2.030463205334374
 20
1.612129092473626
 10
2.030463205334374
 20
1.612129092473626
 10
2.25672694713646
 20
1.429413354689788
 10
2.25672694713646
 20
1.429413354689788
 10
2.25672694713646
 20
1.429413354689788
 10
2.290713830836416
 20
1.44109758941891
 10
2.290713830836416
 20
1.44109758941891
 10
2.290713830836416
 20
1.44109758941891
 10
2.318331371304086
 20
1.46660622641563
 10
2.318331371304086
 20
1.46660622641563
 10
2.318331371304086
 20
1.46660622641563
 10
2.31940003397939
 20
2.404568045896869
 10
2.32045448571484
 20
2.419446899899968
 10
2.321523148390143
 20
2.434308700775293
 10
2.316333313163846
 20
2.446493160586417
 10
2.334261834854715
 20
2.477870915733395
 10
2.34701757444706
 20
2.500173564704255
 10
2.399058036108398
 20
2.585146458330049
 10
2.417114456257726
 20
2.627640010612898
 10
2.424620674676488
 20
2.645267260379316
 10
2.806971695206963
 20
3.397779157253214
 10
2.813341038439249
 20
3.413712462991814
 10
2.819710381671535
 20
3.429642926542417
 10
2.835643809500475
 20
3.465767135592955
 10
2.835643809500475
 20
3.498699567557461
 10
2.835643809500475
 20
3.531617788582114
 10
2.83990412717147
 20
4.02450434130651
 10
2.838835464496166
 20
4.05212188177418
 10
2.837766801820862
 20
4.079739422241851
 10
2.83246612126388
 20
4.102053439964581
 10
2.812272375763945
 20
4.111617402470882
 10
2.792092841203865
 20
4.121178522789212
 10
2.349140688857814
 20
4.334689367186936
 10
2.336387791453439
 20
4.341058710419209
 97
        0
 97
        0
 75
     2
 76
     1
 98
        0
  0
SPLINE
  5
65
330
1F
100
AcDbEntity
  8
Layer 1
 62
     7
420
 16777215
370
    18
100
AcDbSpline
210
0.0
220
0.0
230
1.0
 70
     8
 71
     3
 72
     8
 73
     4
 74
     0
 42
0.0000000001
 43
0.0000000001
 12
1.0
 22
0.0
 32
0.0
 13
1.0
 23
0.0
 33
0.0
 40
0.0
 40
0.0
 40
0.0
 40
0.0
 40
1.0
 40
1.0
 40
1.0
 40
1.0
 10
2.120750990457004
 20
1.197846090142775
 30
0.0
 10
2.128191838552539
 20
1.209530324871846
 30
0.0
 10
2.128663641754934
 20
1.221578359660624
 30
0.0
 10
2.125471864668877
 20
1.234317046125195
 30
0.0
  0
SPLINE
  5
66
330
1F
100
AcDbEntity
  8
Layer 1
 62
     7
420
 16777215
370
    18
100
AcDbSpline
210
0.0
220
0.0
230
1.0
 70
     8
 71
     3
 72
     8
 73
     4
 74
     0
 42
0.0000000001
 43
0.0000000001
 12
1.0
 22
0.0
 32
0.0
 13
1.0
 23
0.0
 33
0.0
 40
0.0
 40
0.0
 40
0.0
 40
0.0
 40
1.0
 40
1.0
 40
1.0
 40
1.0
 10
2.153683422421484
 20
1.209530324871846
 30
0.0
 10
2.152614759746181
 20
1.222286064464192
 30
0.0
 10
2.152614759746181
 20
1.265834068482491
 30
0.0
 10
2.152614759746181
 20
1.265834068482491
 30
0.0
  0
POLYLINE
  5
67
330
1F
100
AcDbEntity
  8
Layer 1
 62
     7
420
 16777215
370
    35
100
AcDb2dPolyline
 66
     1
 10
0.0
 20
0.0
 30
0.0
  0
VERTEX
  5
68
330
67
100
AcDbEntity
  8
Layer 1
 62
     7
420
 16777215
370
    35
100
AcDbVertex
100
AcDb2dVertex
 10
2.183424077299908
 20
1.222286064464192
 30
0.0
  0
VERTEX
  5
69
330
67
100
AcDbEntity
  8
Layer 1
 62
     7
420
 16777215
370
    35
100
AcDbVertex
100
AcDb2dVertex
 10
2.162178722252495
 20
1.279641417622366
 30
0.0
  0
VERTEX
  5
6A
330
67
100
AcDbEntity
  8
Layer 1
 62
     7
420
 16777215
370
    35
100
AcDbVertex
100
AcDb2dVertex
 10
2.087818558492498
 20
1.190408084235161
 30
0.0
  0
SEQEND
  5
6B
330
67
100
AcDbEntity
  8
Layer 1
 62
     7
420
 16777215
370
    35
  0
SPLINE
  5
6C
330
1F
100
AcDbEntity
  8
Layer 1
 62
     7
420
 16777215
370
    25
100
AcDbSpline
210
0.0
220
0.0
230
1.0
 70
     8
 71
     3
 72
    14
 73
    10
 74
     0
 42
0.0000000001
 43
0.0000000001
 12
1.0
 22
0.0
 32
0.0
 13
1.0
 23
0.0
 33
0.0
 40
0.0
 40
0.0
 40
0.0
 40
0.0
 40
1.0
 40
1.0
 40
1.0
 40
2.0
 40
2.0
 40
2.0
 40
3.0
 40
3.0
 40
3.0
 40
3.0
 10
1.656010625161975
 20
3.322896030907448
 30
0.0
 10
1.629461747369608
 20
3.334580265636545
 30
0.0
 10
1.600775544226634
 20
3.351039376148883
 30
0.0
 10
1.577947180800328
 20
3.36325225783969
 30
0.0
 10
1.555104425797582
 20
3.375465303159886
 30
0.0
 10
1.499329329148673
 20
3.408937587208571
 30
0.0
 10
1.483924670371797
 20
3.41264380031651
 30
0.0
 10
1.468534222534762
 20
3.416361382176306
 30
0.0
 10
1.447814672261087
 20
3.43071158921772
 30
0.0
 10
1.427635137700981
 20
3.42592534468262
 30
0.0
  0
SPLINE
  5
6D
330
1F
100
AcDbEntity
  8
Layer 1
 62
     7
420
 16777215
370
    25
100
AcDbSpline
210
0.0
220
0.0
230
1.0
 70
     8
 71
     3
 72
    20
 73
    16
 74
     0
 42
0.0000000001
 43
0.0000000001
 12
1.0
 22
0.0
 32
0.0
 13
1.0
 23
0.0
 33
0.0
 40
0.0
 40
0.0
 40
0.0
 40
0.0
 40
1.0
 40
1.0
 40
1.0
 40
2.0
 40
2.0
 40
2.0
 40
3.0
 40
3.0
 40
3.0
 40
4.0
 40
4.0
 40
4.0
 40
5.0
 40
5.0
 40
5.0
 40
5.0
 10
1.294325236487212
 20
3.510912449248268
 30
0.0
 10
1.315570508381244
 20
3.513564210620732
 30
0.0
 10
1.351683348679924
 20
3.506666220426736
 30
0.0
 10
1.362838936447297
 20
3.5024057806654
 30
0.0
 10
1.373983155462813
 20
3.49815955184388
 30
0.0
 10
1.411704674150365
 20
3.488069784563815
 30
0.0
 10
1.429758252111747
 20
3.476385549834718
 30
0.0
 10
1.447814672261087
 20
3.464698472917676
 30
0.0
 10
1.486587800496131
 20
3.44769934669177
 30
0.0
 10
1.505170025419223
 20
3.43973269382247
 30
0.0
 10
1.523766461282144
 20
3.43176604095317
 30
0.0
 10
1.572103552023501
 20
3.407868924533267
 30
0.0
 10
1.580598851854499
 20
3.405217163160803
 30
0.0
 10
1.589091309497538
 20
3.402554033036457
 30
0.0
 10
1.646460873595515
 20
3.363792273553283
 30
0.0
 10
1.656010625161975
 20
3.36325225783969
 30
0.0
  0
SPLINE
  5
6E
330
1F
100
AcDbEntity
  8
Layer 1
 62
     7
420
 16777215
370
    25
100
AcDbSpline
210
0.0
220
0.0
230
1.0
 70
     8
 71
     3
 72
    20
 73
    16
 74
     0
 42
0.0000000001
 43
0.0000000001
 12
1.0
 22
0.0
 32
0.0
 13
1.0
 23
0.0
 33
0.0
 40
0.0
 40
0.0
 40
0.0
 40
0.0
 40
1.0
 40
1.0
 40
1.0
 40
2.0
 40
2.0
 40
2.0
 40
3.0
 40
3.0
 40
3.0
 40
4.0
 40
4.0
 40
4.0
 40
5.0
 40
5.0
 40
5.0
 40
5.0
 10
1.656550640875556
 20
3.413183816030078
 30
0.0
 10
1.637428400238883
 20
3.424870892947133
 30
0.0
 10
1.576349780845034
 20
3.450891123777801
 30
0.0
 10
1.565719997851387
 20
3.457260467010087
 30
0.0
 10
1.555104425797582
 20
3.463644021182214
 30
0.0
 10
1.507307350769818
 20
3.488595589337579
 30
0.0
 10
1.495083100327141
 20
3.493913323022361
 30
0.0
 10
1.482870218636334
 20
3.499228214519171
 30
0.0
 10
1.402140711644089
 20
3.532160646483653
 30
0.0
 10
1.386738895055171
 20
3.537461327040635
 30
0.0
 10
1.371334236278307
 20
3.542776218537445
 30
0.0
 10
1.35380646309069
 20
3.544370685986488
 30
0.0
 10
1.342119386173623
 20
3.547562463072545
 30
0.0
 10
1.330435151444527
 20
3.55074303946401
 30
0.0
 10
1.213055630627979
 20
3.586324222555744
 30
0.0
 10
1.190752981657119
 20
3.581549346772501
 30
0.0
  0
SPLINE
  5
6F
330
1F
100
AcDbEntity
  8
Layer 1
 62
     7
420
 16777215
370
    25
100
AcDbSpline
210
0.0
220
0.0
230
1.0
 70
     8
 71
     3
 72
    23
 73
    19
 74
     0
 42
0.0000000001
 43
0.0000000001
 12
1.0
 22
0.0
 32
0.0
 13
1.0
 23
0.0
 33
0.0
 40
0.0
 40
0.0
 40
0.0
 40
0.0
 40
1.0
 40
1.0
 40
1.0
 40
2.0
 40
2.0
 40
2.0
 40
3.0
 40
3.0
 40
3.0
 40
4.0
 40
4.0
 40
4.0
 40
5.0
 40
5.0
 40
5.0
 40
6.0
 40
6.0
 40
6.0
 40
6.0
 10
1.185438090160308
 20
3.630940889249321
 30
0.0
 10
1.210406711443473
 20
3.629886437513846
 30
0.0
 10
1.247056725267763
 20
3.62297707856798
 30
0.0
 10
1.2640444827418
 20
3.617662187071182
 30
0.0
 10
1.28104360896772
 20
3.612358664326242
 30
0.0
 10
1.298031366441756
 20
3.604920658418665
 30
0.0
 10
1.320874031126196
 20
3.598551315186379
 30
0.0
 10
1.343716695810637
 20
3.592167761014265
 30
0.0
 10
1.358592707625778
 20
3.585269770820269
 30
0.0
 10
1.379298046959636
 20
3.578357569686444
 30
0.0
 10
1.40001759723331
 20
3.571462590261098
 30
0.0
 10
1.413827788561131
 20
3.565078867508305
 30
0.0
 10
1.435073143608558
 20
3.558180877314309
 30
0.0
 10
1.456307129904126
 20
3.551268676180484
 30
0.0
 10
1.507835997731528
 20
3.525774250123567
 30
0.0
 10
1.531733203302262
 20
3.517281792480528
 30
0.0
 10
1.555630230571334
 20
3.508789334837489
 30
0.0
 10
1.642743291735706
 20
3.473205141500544
 30
0.0
 10
1.657079287837279
 20
3.470542011376197
 30
0.0
  0
SPLINE
  5
70
330
1F
100
AcDbEntity
  8
Layer 1
 62
     7
420
 16777215
370
    25
100
AcDbSpline
210
0.0
220
0.0
230
1.0
 70
     8
 71
     3
 72
    29
 73
    25
 74
     0
 42
0.0000000001
 43
0.0000000001
 12
1.0
 22
0.0
 32
0.0
 13
1.0
 23
0.0
 33
0.0
 40
0.0
 40
0.0
 40
0.0
 40
0.0
 40
1.0
 40
1.0
 40
1.0
 40
2.0
 40
2.0
 40
2.0
 40
3.0
 40
3.0
 40
3.0
 40
4.0
 40
4.0
 40
4.0
 40
5.0
 40
5.0
 40
5.0
 40
6.0
 40
6.0
 40
6.0
 40
7.0
 40
7.0
 40
7.0
 40
8.0
 40
8.0
 40
8.0
 40
8.0
 10
1.65814795051257
 20
3.516755987706789
 30
0.0
 10
1.643269096509458
 20
3.522056668263783
 30
0.0
 10
1.618831964375974
 20
3.525774250123567
 30
0.0
 10
1.601844206901925
 20
3.532686451257392
 30
0.0
 10
1.584845080676018
 20
3.539584441451388
 30
0.0
 10
1.542351528393194
 20
3.556057931095097
 30
0.0
 10
1.529609999740678
 20
3.56082979649884
 30
0.0
 10
1.51685710233629
 20
3.565618883221898
 30
0.0
 10
1.480747104225568
 20
3.580483526285168
 30
0.0
 10
1.46799136463321
 20
3.58420110814499
 30
0.0
 10
1.455252678168664
 20
3.587921532192758
 30
0.0
 10
1.413299227758342
 20
3.604920658418665
 30
0.0
 10
1.396300015373501
 20
3.609695534201895
 30
0.0
 10
1.379298046959636
 20
3.614481778736983
 30
0.0
 10
1.333626928530584
 20
3.632538198886335
 30
0.0
 10
1.31875091671543
 20
3.636258622934103
 30
0.0
 10
1.303886273652147
 20
3.639976204793899
 30
0.0
 10
1.301223143527813
 20
3.645819743252446
 30
0.0
 10
1.28688714742624
 20
3.646874194987883
 30
0.0
 10
1.272536940384839
 20
3.647942857663199
 30
0.0
 10
1.253954715461759
 20
3.656435315306238
 30
0.0
 10
1.243864948181706
 20
3.661210191089468
 30
0.0
 10
1.233775180901653
 20
3.665996435624568
 30
0.0
 10
1.193404743029595
 20
3.67556039813087
 30
0.0
 10
1.183843622711265
 20
3.673437283720116
 30
0.0
  0
SPLINE
  5
71
330
1F
100
AcDbEntity
  8
Layer 1
 62
     7
420
 16777215
370
    25
100
AcDbSpline
210
0.0
220
0.0
230
1.0
 70
     8
 71
     3
 72
    26
 73
    22
 74
     0
 42
0.0000000001
 43
0.0000000001
 12
1.0
 22
0.0
 32
0.0
 13
1.0
 23
0.0
 33
0.0
 40
0.0
 40
0.0
 40
0.0
 40
0.0
 40
1.0
 40
1.0
 40
1.0
 40
2.0
 40
2.0
 40
2.0
 40
3.0
 40
3.0
 40
3.0
 40
4.0
 40
4.0
 40
4.0
 40
5.0
 40
5.0
 40
5.0
 40
6.0
 40
6.0
 40
6.0
 40
7.0
 40
7.0
 40
7.0
 40
7.0
 10
1.183843622711265
 20
3.727615070732023
 30
0.0
 10
1.199248281488129
 20
3.726546408056732
 30
0.0
 10
1.226865821955799
 20
3.723897488872227
 30
0.0
 10
1.240144524133939
 20
3.716985287738389
 30
0.0
 10
1.253426150620233
 20
3.710087297544406
 30
0.0
 10
1.283166723378473
 20
3.699457514550772
 30
0.0
 10
1.296976914706294
 20
3.695737090503005
 30
0.0
 10
1.310784263846143
 20
3.692019508643195
 30
0.0
 10
1.349031587307447
 20
3.675031922366227
 30
0.0
 10
1.362838936447297
 20
3.671839974083102
 30
0.0
 10
1.376649127775118
 20
3.668648196997045
 30
0.0
 10
1.41700535470736
 20
3.655380863570776
 30
0.0
 10
1.4318813665225
 20
3.650065972073953
 30
0.0
 10
1.446760220525625
 20
3.644751080577142
 30
0.0
 10
1.464288081160248
 20
3.632538198886335
 30
0.0
 10
1.483924670371797
 20
3.62881794486816
 30
0.0
 10
1.503589768910009
 20
3.625100192978746
 30
0.0
 10
1.542891544106775
 20
3.608641082466432
 30
0.0
 10
1.561473769029855
 20
3.602797544007886
 30
0.0
 10
1.580070204892788
 20
3.596954005549365
 30
0.0
 10
1.618567640895119
 20
3.588418915086852
 30
0.0
 10
1.629197423888741
 20
3.587893110313075
 30
0.0
  0
SPLINE
  5
72
330
1F
100
AcDbEntity
  8
Layer 1
 62
     7
420
 16777215
370
    25
100
AcDbSpline
210
0.0
220
0.0
230
1.0
 70
     8
 71
     3
 72
    20
 73
    16
 74
     0
 42
0.0000000001
 43
0.0000000001
 12
1.0
 22
0.0
 32
0.0
 13
1.0
 23
0.0
 33
0.0
 40
0.0
 40
0.0
 40
0.0
 40
0.0
 40
1.0
 40
1.0
 40
1.0
 40
2.0
 40
2.0
 40
2.0
 40
3.0
 40
3.0
 40
3.0
 40
4.0
 40
4.0
 40
4.0
 40
5.0
 40
5.0
 40
5.0
 40
5.0
 10
1.18278917097579
 20
3.77488349879809
 30
0.0
 10
1.201897281491092
 20
3.772217526485772
 30
0.0
 10
1.208809401806459
 20
3.769568607301267
 30
0.0
 10
1.225268512318785
 20
3.765322378479747
 30
0.0
 10
1.24174183377094
 20
3.761076149658227
 30
0.0
 10
1.249179839678517
 20
3.759478840021213
 30
0.0
 10
1.269885179012363
 20
3.752566812043154
 30
0.0
 10
1.29060472928605
 20
3.745671490881364
 30
0.0
 10
1.319276721489182
 20
3.733444398250716
 30
0.0
 10
1.343716695810637
 20
3.728669522467486
 30
0.0
 10
1.36814245919225
 20
3.723897488872227
 30
0.0
 10
1.388862009465937
 20
3.711670396241579
 30
0.0
 10
1.40001759723331
 20
3.709018634869103
 30
0.0
 10
1.411161816248813
 20
3.706369715684597
 30
0.0
 10
1.442499780764264
 20
3.697334400140019
 30
0.0
 10
1.442499780764264
 20
3.697334400140019
 30
0.0
  0
SPLINE
  5
73
330
1F
100
AcDbEntity
  8
Layer 1
 62
     7
420
 16777215
370
    25
100
AcDbSpline
210
0.0
220
0.0
230
1.0
 70
     8
 71
     3
 72
    11
 73
     7
 74
     0
 42
0.0000000001
 43
0.0000000001
 12
1.0
 22
0.0
 32
0.0
 13
1.0
 23
0.0
 33
0.0
 40
0.0
 40
0.0
 40
0.0
 40
0.0
 40
1.0
 40
1.0
 40
1.0
 40
2.0
 40
2.0
 40
2.0
 40
2.0
 10
1.270413825974085
 20
3.799835066953455
 30
0.0
 10
1.257672297321556
 20
3.799835066953455
 30
0.0
 10
1.24121318680923
 20
3.807815930762571
 30
0.0
 10
1.230057599041857
 20
3.808870557076148
 30
0.0
 10
1.218899169086512
 20
3.809939045173337
 30
0.0
 10
1.190212965943538
 20
3.821083264188827
 30
0.0
 10
1.184383638424833
 20
3.821083264188827
 30
0.0
  0
SPLINE
  5
74
330
1F
100
AcDbEntity
  8
Layer 1
 62
     7
420
 16777215
370
    25
100
AcDbSpline
210
0.0
220
0.0
230
1.0
 70
     8
 71
     3
 72
    23
 73
    19
 74
     0
 42
0.0000000001
 43
0.0000000001
 12
1.0
 22
0.0
 32
0.0
 13
1.0
 23
0.0
 33
0.0
 40
0.0
 40
0.0
 40
0.0
 40
0.0
 40
1.0
 40
1.0
 40
1.0
 40
2.0
 40
2.0
 40
2.0
 40
3.0
 40
3.0
 40
3.0
 40
4.0
 40
4.0
 40
4.0
 40
5.0
 40
5.0
 40
5.0
 40
6.0
 40
6.0
 40
6.0
 40
6.0
 10
1.183314975749542
 20
3.900229672483924
 30
0.0
 10
1.199248281488129
 20
3.892263019614638
 30
0.0
 10
1.205617624720402
 20
3.883227704070047
 30
0.0
 10
1.217830506411208
 20
3.874206599465297
 30
0.0
 10
1.230057599041857
 20
3.865174302109166
 30
0.0
 10
1.252357405824745
 20
3.841802814462527
 30
0.0
 10
1.261392721369323
 20
3.835959276004006
 30
0.0
 10
1.270413825974085
 20
3.83011857973343
 30
0.0
 10
1.276268733184477
 20
3.824275216242186
 30
0.0
 10
1.282640918604721
 20
3.81683703536732
 30
0.0
 10
1.289010344856138
 20
3.809399029459756
 30
0.0
 10
1.303346257938566
 20
3.798780789541221
 30
0.0
 10
1.310255616884433
 20
3.794534386396473
 30
0.0
 10
1.317153607078429
 20
3.790288157574941
 30
0.0
 10
1.330963798406249
 20
3.777535260170553
 30
0.0
 10
1.343716695810637
 20
3.770623059036741
 30
0.0
 10
1.356455466998126
 20
3.763725068842733
 30
0.0
 10
1.388569264105412
 20
3.736192794014035
 30
0.0
 10
1.402905260206984
 20
3.723451265361531
 30
0.0
  0
SPLINE
  5
75
330
1F
100
AcDbEntity
  8
Layer 1
 62
     7
420
 16777215
370
    25
100
AcDbSpline
210
0.0
220
0.0
230
1.0
 70
     8
 71
     3
 72
    26
 73
    22
 74
     0
 42
0.0000000001
 43
0.0000000001
 12
1.0
 22
0.0
 32
0.0
 13
1.0
 23
0.0
 33
0.0
 40
0.0
 40
0.0
 40
0.0
 40
0.0
 40
1.0
 40
1.0
 40
1.0
 40
2.0
 40
2.0
 40
2.0
 40
3.0
 40
3.0
 40
3.0
 40
4.0
 40
4.0
 40
4.0
 40
5.0
 40
5.0
 40
5.0
 40
6.0
 40
6.0
 40
6.0
 40
7.0
 40
7.0
 40
7.0
 40
7.0
 10
1.637954205012647
 20
3.584729755106688
 30
0.0
 10
1.622549546235784
 20
3.598551315186379
 30
0.0
 10
1.584845080676018
 20
3.616604893147761
 30
0.0
 10
1.576349780845034
 20
3.62881794486816
 30
0.0
 10
1.567843112262141
 20
3.641030656529374
 30
0.0
 10
1.524295108243867
 20
3.672368621044825
 30
0.0
 10
1.514733987925524
 20
3.683524208812198
 30
0.0
 10
1.505170025419223
 20
3.694682638767542
 30
0.0
 10
1.47543221272877
 20
3.728143717693746
 30
0.0
 10
1.464813798486994
 20
3.73451306092602
 30
0.0
 10
1.45418401549336
 20
3.740882404158305
 30
0.0
 10
1.419128469118113
 20
3.77965837458132
 30
0.0
 10
1.40479247301654
 20
3.785499070851882
 30
0.0
 10
1.39045647691498
 20
3.791342609310416
 30
0.0
 10
1.34052491872458
 20
3.835959276004006
 30
0.0
 10
1.32778339007205
 20
3.844451733647032
 30
0.0
 10
1.315030492667663
 20
3.852961244417871
 30
0.0
 10
1.261392721369323
 20
3.89756370017162
 30
0.0
 10
1.24970848664024
 20
3.909247934900729
 30
0.0
 10
1.238021491454232
 20
3.920935011817783
 30
0.0
 10
1.193544010239937
 20
3.96521932104713
 30
0.0
 10
1.184383638424833
 20
3.965023031549638
 30
0.0
  0
SPLINE
  5
76
330
1F
100
AcDbEntity
  8
Layer 1
 62
     7
420
 16777215
370
    25
100
AcDbSpline
210
0.0
220
0.0
230
1.0
 70
     8
 71
     3
 72
    29
 73
    25
 74
     0
 42
0.0000000001
 43
0.0000000001
 12
1.0
 22
0.0
 32
0.0
 13
1.0
 23
0.0
 33
0.0
 40
0.0
 40
0.0
 40
0.0
 40
0.0
 40
1.0
 40
1.0
 40
1.0
 40
2.0
 40
2.0
 40
2.0
 40
3.0
 40
3.0
 40
3.0
 40
4.0
 40
4.0
 40
4.0
 40
5.0
 40
5.0
 40
5.0
 40
6.0
 40
6.0
 40
6.0
 40
7.0
 40
7.0
 40
7.0
 40
8.0
 40
8.0
 40
8.0
 40
8.0
 10
1.185966737122019
 20
4.023978536532758
 30
0.0
 10
1.205088977758692
 20
4.012291459615704
 30
0.0
 10
1.230583403815596
 20
3.992114767243568
 30
0.0
 10
1.239075861458635
 20
3.984148293380283
 30
0.0
 10
1.247585372229474
 20
3.976181461504982
 30
0.0
 10
1.257146492547804
 20
3.971395216969869
 30
0.0
 10
1.267762064601609
 20
3.96183125446358
 30
0.0
 10
1.278391847595243
 20
3.95227013414525
 30
0.0
 10
1.319819663188178
 20
3.917757445671555
 30
0.0
 10
1.342119386173623
 20
3.899161009808633
 30
0.0
 10
1.364436246084311
 20
3.880575942697571
 30
0.0
 10
1.415950902971885
 20
3.834890613328702
 30
0.0
 10
1.42604067025195
 20
3.828521270096417
 30
0.0
 10
1.43612759534402
 20
3.822151926864144
 30
0.0
 10
1.45418401549336
 20
3.800377924854994
 30
0.0
 10
1.46746555985947
 20
3.794005913637344
 30
0.0
 10
1.480747104225568
 20
3.787622185262636
 30
0.0
 10
1.51313667828851
 20
3.761601954431979
 30
0.0
 10
1.524835123957435
 20
3.750443524476635
 30
0.0
 10
1.536508079206113
 20
3.73929930546112
 30
0.0
 10
1.605021773048154
 20
3.67556039813087
 30
0.0
 10
1.614057088592745
 20
3.662278853764759
 30
0.0
 10
1.623092404137322
 20
3.648997479938038
 30
0.0
 10
1.650709944605006
 20
3.624571546017036
 30
0.0
 10
1.659202402248032
 20
3.618202202784775
 30
0.0
  0
SPLINE
  5
77
330
1F
100
AcDbEntity
  8
Layer 1
 62
     7
420
 16777215
370
    25
100
AcDbSpline
210
0.0
220
0.0
230
1.0
 70
     8
 71
     3
 72
    20
 73
    16
 74
     0
 42
0.0000000001
 43
0.0000000001
 12
1.0
 22
0.0
 32
0.0
 13
1.0
 23
0.0
 33
0.0
 40
0.0
 40
0.0
 40
0.0
 40
0.0
 40
1.0
 40
1.0
 40
1.0
 40
2.0
 40
2.0
 40
2.0
 40
3.0
 40
3.0
 40
3.0
 40
4.0
 40
4.0
 40
4.0
 40
5.0
 40
5.0
 40
5.0
 40
5.0
 10
1.658673755286322
 20
3.664402139104065
 30
0.0
 10
1.645920857881934
 20
3.677683512541623
 30
0.0
 10
1.603967321312691
 20
3.720177064824447
 30
0.0
 10
1.584316433714308
 20
3.744602828206073
 30
0.0
 10
1.564665546115925
 20
3.769039960339556
 30
0.0
 10
1.522697798606853
 20
3.797711952542689
 30
0.0
 10
1.512082226553048
 20
3.814713920956567
 30
0.0
 10
1.501452443559414
 20
3.831713047182474
 30
0.0
 10
1.423388995293294
 20
3.908722130126964
 30
0.0
 10
1.407984336127267
 20
3.919880560082308
 30
0.0
 10
1.392579676961266
 20
3.931036147849694
 30
0.0
 10
1.35008603904291
 20
3.973518510118133
 30
0.0
 10
1.34052491872458
 20
3.982024999963515
 30
0.0
 10
1.330963798406249
 20
3.990517457606554
 30
0.0
 10
1.241198975869401
 20
4.079196564340324
 30
0.0
 10
1.224214060583323
 20
4.092464079508874
 30
0.0
  0
SPLINE
  5
78
330
1F
100
AcDbEntity
  8
Layer 1
 62
     7
420
 16777215
370
    25
100
AcDbSpline
210
0.0
220
0.0
230
1.0
 70
     8
 71
     3
 72
    17
 73
    13
 74
     0
 42
0.0000000001
 43
0.0000000001
 12
1.0
 22
0.0
 32
0.0
 13
1.0
 23
0.0
 33
0.0
 40
0.0
 40
0.0
 40
0.0
 40
0.0
 40
1.0
 40
1.0
 40
1.0
 40
2.0
 40
2.0
 40
2.0
 40
3.0
 40
3.0
 40
3.0
 40
4.0
 40
4.0
 40
4.0
 40
4.0
 10
1.660796962108343
 20
3.718053950413693
 30
0.0
 10
1.651235749378745
 20
3.726020775768145
 30
0.0
 10
1.618831964375974
 20
3.758410177345922
 30
0.0
 10
1.609810859771225
 20
3.769039960339556
 30
0.0
 10
1.600775544226634
 20
3.77965837458132
 30
0.0
 10
1.559879301580824
 20
3.818431502816376
 30
0.0
 10
1.552981311386828
 20
3.829590107873261
 30
0.0
 10
1.546069110253004
 20
3.840734151787223
 30
0.0
 10
1.522697798606853
 20
3.869946159703949
 30
0.0
 10
1.513679536190062
 20
3.874735246427008
 30
0.0
 10
1.504644220645471
 20
3.879507280022279
 30
0.0
 10
1.422237822753143
 20
3.97161690763125
 30
0.0
 10
1.394606071345644
 20
3.992336457904925
 30
0.0
  0
SPLINE
  5
79
330
1F
100
AcDbEntity
  8
Layer 1
 62
     7
420
 16777215
370
    25
100
AcDbSpline
210
0.0
220
0.0
230
1.0
 70
     8
 71
     3
 72
    14
 73
    10
 74
     0
 42
0.0000000001
 43
0.0000000001
 12
1.0
 22
0.0
 32
0.0
 13
1.0
 23
0.0
 33
0.0
 40
0.0
 40
0.0
 40
0.0
 40
0.0
 40
1.0
 40
1.0
 40
1.0
 40
2.0
 40
2.0
 40
2.0
 40
3.0
 40
3.0
 40
3.0
 40
3.0
 10
1.661325516658785
 20
3.77116307475031
 30
0.0
 10
1.654427526464802
 20
3.777535260170553
 30
0.0
 10
1.637428400238883
 20
3.791871256272126
 30
0.0
 10
1.632113508742072
 20
3.801432376590456
 30
0.0
 10
1.626809985997145
 20
3.810993496908799
 30
0.0
 10
1.618831964375974
 20
3.822677731637883
 30
0.0
 10
1.611405327220268
 20
3.829590107873261
 30
0.0
 10
1.603967321312691
 20
3.836487922965703
 30
0.0
 10
1.582568488115081
 20
3.872487075745741
 30
0.0
 10
1.565566519701216
 20
3.891083511608662
 30
0.0
  0
SPLINE
  5
7A
330
1F
100
AcDbEntity
  8
Layer 1
 62
     7
420
 16777215
370
    18
100
AcDbSpline
210
0.0
220
0.0
230
1.0
 70
     8
 71
     3
 72
     8
 73
     4
 74
     0
 42
0.0000000001
 43
0.0000000001
 12
1.0
 22
0.0
 32
0.0
 13
1.0
 23
0.0
 33
0.0
 40
0.0
 40
0.0
 40
0.0
 40
0.0
 40
1.0
 40
1.0
 40
1.0
 40
1.0
 10
3.126703630465903
 20
4.329374475690113
 30
0.0
 10
3.126703630465903
 20
4.333620704511633
 30
0.0
 10
3.121388738969067
 20
4.346373601916008
 30
0.0
 10
3.121388738969067
 20
4.346373601916008
 30
0.0
  0
SPLINE
  5
7B
330
1F
100
AcDbEntity
  8
Layer 1
 62
     7
420
 16777215
370
    35
100
AcDbSpline
210
0.0
220
0.0
230
1.0
 70
     8
 71
     3
 72
    14
 73
    10
 74
     0
 42
0.0000000001
 43
0.0000000001
 12
1.0
 22
0.0
 32
0.0
 13
1.0
 23
0.0
 33
0.0
 40
0.0
 40
0.0
 40
0.0
 40
0.0
 40
1.0
 40
1.0
 40
1.0
 40
2.0
 40
2.0
 40
2.0
 40
3.0
 40
3.0
 40
3.0
 40
3.0
 10
3.153266719198099
 20
4.329374475690113
 30
0.0
 10
3.147951827701288
 20
4.32832002395465
 30
0.0
 10
3.119265753813604
 20
4.325128246868593
 30
0.0
 10
3.112896281326054
 20
4.325128246868593
 30
0.0
 10
3.106524095905797
 20
4.325128246868593
 30
0.0
 10
3.08421007818308
 20
4.325128246868593
 30
0.0
 10
3.106524095905797
 20
4.340004258683734
 30
0.0
 10
3.128826744876657
 20
4.354866059559059
 30
0.0
 10
3.147951827701288
 20
4.361252455919145
 30
0.0
 10
3.147951827701288
 20
4.361252455919145
 30
0.0
  0
POLYLINE
  5
7C
330
1F
100
AcDbEntity
  8
Layer 1
 62
     7
420
 16777215
370
    30
100
AcDb2dPolyline
 66
     1
 10
0.0
 20
0.0
 30
0.0
  0
VERTEX
  5
7D
330
7C
100
AcDbEntity
  8
Layer 1
 62
     7
420
 16777215
370
    30
100
AcDbVertex
100
AcDb2dVertex
 10
1.188089851532772
 20
4.113740516881636
 30
0.0
  0
VERTEX
  5
7E
330
7C
100
AcDbEntity
  8
Layer 1
 62
     7
420
 16777215
370
    30
100
AcDbVertex
100
AcDb2dVertex
 10
1.662919984107841
 20
3.8343649837771
 30
0.0
  0
VERTEX
  5
7F
330
7C
100
AcDbEntity
  8
Layer 1
 62
     7
420
 16777215
370
    30
100
AcDbVertex
100
AcDb2dVertex
 10
1.657605092611031
 20
3.277736506312332
 30
0.0
  0
SEQEND
  5
80
330
7C
100
AcDbEntity
  8
Layer 1
 62
     7
420
 16777215
370
    30
  0
SPLINE
  5
81
330
1F
100
AcDbEntity
  8
Layer 1
  6
AI-Linetype-1
 62
     7
420
 16777215
370
    25
100
AcDbSpline
210
0.0
220
0.0
230
1.0
 70
    11
 71
     3
 72
    20
 73
    16
 74
     0
 42
0.0000000001
 43
0.0000000001
 12
1.0
 22
0.0
 32
0.0
 13
1.0
 23
0.0
 33
0.0
 40
0.0
 40
0.0
 40
0.0
 40
0.0
 40
1.0
 40
1.0
 40
1.0
 40
2.0
 40
2.0
 40
2.0
 40
3.0
 40
3.0
 40
3.0
 40
4.0
 40
4.0
 40
4.0
 40
5.0
 40
5.0
 40
5.0
 40
5.0
 10
2.182369625564459
 20
4.031942347214087
 30
0.0
 10
2.182369625564459
 20
4.031942347214087
 30
0.0
 10
2.164301836663248
 20
4.028764781067858
 30
0.0
 10
2.164301836663248
 20
4.028764781067858
 30
0.0
 10
2.164301836663248
 20
4.028764781067858
 30
0.0
 10
1.995907884041167
 20
4.120274707015962
 30
0.0
 10
1.986915201316075
 20
4.123301819721291
 30
0.0
 10
1.9645984414913
 20
4.130739643107542
 30
0.0
 10
1.97947435322054
 20
4.154111138053318
 30
0.0
 10
1.99753077336988
 20
4.146672948846129
 30
0.0
 10
2.01558435133125
 20
4.139232100750582
 30
0.0
 10
2.156875199507542
 20
4.065943441853872
 30
0.0
 10
2.156875199507542
 20
4.065943441853872
 30
0.0
 10
2.156875199507542
 20
4.065943441853872
 30
0.0
 10
2.182369625564459
 20
4.031942347214087
 30
0.0
 10
2.182369625564459
 20
4.031942347214087
 30
0.0
  0
POLYLINE
  5
83
330
1F
100
AcDbEntity
  8
Layer 1
  6
AI-Linetype-2
 62
     7
420
 16777215
370
    25
100
AcDb2dPolyline
 66
     1
 10
0.0
 20
0.0
 30
0.0
  0
VERTEX
  5
84
330
83
100
AcDbEntity
  8
Layer 1
  6
AI-Linetype-2
 62
     7
420
 16777215
370
    25
100
AcDbVertex
100
AcDb2dVertex
 10
2.207849840681522
 20
4.090369205235485
 30
0.0
  0
VERTEX
  5
85
330
83
100
AcDbEntity
  8
Layer 1
  6
AI-Linetype-2
 62
     7
420
 16777215
370
    25
100
AcDbVertex
100
AcDb2dVertex
 10
1.9645984414913
 20
4.037257238710898
 30
0.0
  0
VERTEX
  5
86
330
83
100
AcDbEntity
  8
Layer 1
  6
AI-Linetype-2
 62
     7
420
 16777215
370
    25
100
AcDbVertex
100
AcDb2dVertex
 10
1.90087080282702
 20
4.074435899496911
 30
0.0
  0
VERTEX
  5
87
330
83
100
AcDbEntity
  8
Layer 1
  6
AI-Linetype-2
 62
     7
420
 16777215
370
    25
100
AcDbVertex
100
AcDb2dVertex
 10
1.901925254562469
 20
4.24652185428709
 30
0.0
  0
SEQEND
  5
89
330
83
100
AcDbEntity
  8
Layer 1
  6
AI-Linetype-2
 62
     7
420
 16777215
370
    25
  0
POLYLINE
  5
8A
330
1F
100
AcDbEntity
  8
Layer 1
 62
     7
420
 16777215
370
    15
100
AcDb2dPolyline
 66
     1
 10
0.0
 20
0.0
 30
0.0
  0
VERTEX
  5
8B
330
8A
100
AcDbEntity
  8
Layer 1
 62
     7
420
 16777215
370
    15
100
AcDbVertex
100
AcDb2dVertex
 10
2.763423811454635
 20
4.054244996184947
 30
0.0
  0
VERTEX
  5
8C
330
8A
100
AcDbEntity
  8
Layer 1
 62
     7
420
 16777215
370
    15
100
AcDbVertex
100
AcDb2dVertex
 10
2.498909783737316
 20
3.997955463514118
 30
0.0
  0
SEQEND
  5
8D
330
8A
100
AcDbEntity
  8
Layer 1
 62
     7
420
 16777215
370
    15
  0
POLYLINE
  5
8E
330
1F
100
AcDbEntity
  8
Layer 1
 62
     7
420
 16777215
370
    15
100
AcDb2dPolyline
 66
     1
 10
0.0
 20
0.0
 30
0.0
  0
VERTEX
  5
8F
330
8E
100
AcDbEntity
  8
Layer 1
 62
     7
420
 16777215
370
    15
100
AcDbVertex
100
AcDb2dVertex
 10
2.793161503879143
 20
4.086122976413965
 30
0.0
  0
VERTEX
  5
90
330
8E
100
AcDbEntity
  8
Layer 1
 62
     7
420
 16777215
370
    15
100
AcDbVertex
100
AcDb2dVertex
 10
2.507416452320184
 20
4.02450434130651
 30
0.0
  0
SEQEND
  5
91
330
8E
100
AcDbEntity
  8
Layer 1
 62
     7
420
 16777215
370
    15
  0
SPLINE
  5
92
330
1F
100
AcDbEntity
  8
Layer 1
 62
     7
420
 16777215
370
    20
100
AcDbSpline
210
0.0
220
0.0
230
1.0
 70
     8
 71
     3
 72
    23
 73
    19
 74
     0
 42
0.0000000001
 43
0.0000000001
 12
1.0
 22
0.0
 32
0.0
 13
1.0
 23
0.0
 33
0.0
 40
0.0
 40
0.0
 40
0.0
 40
0.0
 40
1.0
 40
1.0
 40
1.0
 40
2.0
 40
2.0
 40
2.0
 40
3.0
 40
3.0
 40
3.0
 40
4.0
 40
4.0
 40
4.0
 40
5.0
 40
5.0
 40
5.0
 40
6.0
 40
6.0
 40
6.0
 40
6.0
 10
1.92954279503014
 20
4.279454286251583
 30
0.0
 10
1.92954279503014
 20
4.279454286251583
 30
0.0
 10
2.426121349922646
 20
4.022187958114046
 30
0.0
 10
2.436236696894386
 20
4.016011883663471
 30
0.0
 10
2.455361779719017
 20
4.004324806746404
 30
0.0
 10
2.473415357680399
 20
3.99264057201732
 30
0.0
 10
2.47236090594495
 20
3.968203618487059
 30
0.0
 10
2.471292243269646
 20
3.943777676502211
 30
0.0
 10
2.469169128858892
 20
3.497630904882158
 30
0.0
 10
2.469169128858892
 20
3.490192898974568
 30
0.0
 10
2.469169128858892
 20
3.482754893067004
 30
0.0
 10
2.463854237362057
 20
3.461506695831619
 30
0.0
 10
2.459608008540549
 20
3.451959786453105
 30
0.0
 10
2.455361779719017
 20
3.442398831455054
 30
0.0
 10
2.431990468072879
 20
3.377602464881117
 30
0.0
 10
2.426675576576069
 20
3.372287573384268
 30
0.0
 10
2.421374896019087
 20
3.366969839699486
 30
0.0
 10
2.425621124840593
 20
3.363792273553283
 30
0.0
 10
2.407564704691266
 20
3.358477382056448
 30
0.0
  0
SPLINE
  5
93
330
1F
100
AcDbEntity
  8
Layer 1
 62
     7
420
 16777215
370
    35
100
AcDbSpline
210
0.0
220
0.0
230
1.0
 70
    11
 71
     3
 72
    17
 73
    13
 74
     0
 42
0.0000000001
 43
0.0000000001
 12
1.0
 22
0.0
 32
0.0
 13
1.0
 23
0.0
 33
0.0
 40
0.0
 40
0.0
 40
0.0
 40
0.0
 40
1.0
 40
1.0
 40
1.0
 40
2.0
 40
2.0
 40
2.0
 40
3.0
 40
3.0
 40
3.0
 40
4.0
 40
4.0
 40
4.0
 40
4.0
 10
2.325908644422018
 20
4.279178594018857
 30
0.0
 10
2.312087084342314
 20
4.279178594018857
 30
0.0
 10
2.300871810627667
 20
4.28408989482447
 30
0.0
 10
2.300871810627667
 20
4.290140913004532
 30
0.0
 10
2.300871810627667
 20
4.296206142124421
 30
0.0
 10
2.312087084342314
 20
4.301117442930035
 30
0.0
 10
2.325908644422018
 20
4.301117442930035
 30
0.0
 10
2.339730204501696
 20
4.301117442930035
 30
0.0
 10
2.350945478216381
 20
4.296206142124421
 30
0.0
 10
2.350945478216381
 20
4.290140913004532
 30
0.0
 10
2.350945478216381
 20
4.28408989482447
 30
0.0
 10
2.339730204501696
 20
4.279178594018857
 30
0.0
 10
2.325908644422018
 20
4.279178594018857
 30
0.0
  0
HATCH
  5
94
330
1F
100
AcDbEntity
  8
Layer 1
 62
     7
420
 16777215
100
AcDbHatch
 10
0.0
 20
0.0
 30
0.0
210
0.0
220
0.0
230
1.0
  2
SOLID
 70
     1
 71
     0
 91
        1
 92
        1
 93
        1
 72
     4
 94
        3
 73
     0
 74
     1
 95
       17
 96
       13
 40
0.0
 40
0.0
 40
0.0
 40
0.0
 40
1.0
 40
1.0
 40
1.0
 40
2.0
 40
2.0
 40
2.0
 40
3.0
 40
3.0
 40
3.0
 40
4.0
 40
4.0
 40
4.0
 40
4.0
 10
2.325908644422018
 20
4.279178594018857
 10
2.312087084342314
 20
4.279178594018857
 10
2.300871810627667
 20
4.28408989482447
 10
2.300871810627667
 20
4.290140913004532
 10
2.300871810627667
 20
4.296206142124421
 10
2.312087084342314
 20
4.301117442930035
 10
2.325908644422018
 20
4.301117442930035
 10
2.339730204501696
 20
4.301117442930035
 10
2.350945478216381
 20
4.296206142124421
 10
2.350945478216381
 20
4.290140913004532
 10
2.350945478216381
 20
4.28408989482447
 10
2.339730204501696
 20
4.279178594018857
 10
2.325908644422018
 20
4.279178594018857
 97
        0
 97
        0
 75
     2
 76
     1
 98
        0
  0
SPLINE
  5
95
330
1F
100
AcDbEntity
  8
Layer 1
 62
     7
420
 16777215
370
    15
100
AcDbSpline
210
0.0
220
0.0
230
1.0
 70
    11
 71
     3
 72
    17
 73
    13
 74
     0
 42
0.0000000001
 43
0.0000000001
 12
1.0
 22
0.0
 32
0.0
 13
1.0
 23
0.0
 33
0.0
 40
0.0
 40
0.0
 40
0.0
 40
0.0
 40
1.0
 40
1.0
 40
1.0
 40
2.0
 40
2.0
 40
2.0
 40
3.0
 40
3.0
 40
3.0
 40
4.0
 40
4.0
 40
4.0
 40
4.0
 10
2.326298024173386
 20
4.283439033780206
 30
0.0
 10
2.312473621905736
 20
4.283439033780206
 30
0.0
 10
2.301275401318864
 20
4.288350334585819
 30
0.0
 10
2.301275401318864
 20
4.294415563705709
 30
0.0
 10
2.301275401318864
 20
4.300466581885782
 30
0.0
 10
2.312473621905736
 20
4.305377882691383
 30
0.0
 10
2.326298024173386
 20
4.305377882691383
 30
0.0
 10
2.340133795192893
 20
4.305377882691383
 30
0.0
 10
2.351346226719594
 20
4.300466581885782
 30
0.0
 10
2.351346226719594
 20
4.294415563705709
 30
0.0
 10
2.351346226719594
 20
4.288350334585819
 30
0.0
 10
2.340133795192893
 20
4.283439033780206
 30
0.0
 10
2.326298024173386
 20
4.283439033780206
 30
0.0
  0
HATCH
  5
96
330
1F
100
AcDbEntity
  8
Layer 1
 62
   254
420
 13358815
100
AcDbHatch
 10
0.0
 20
0.0
 30
0.0
210
0.0
220
0.0
230
1.0
  2
SOLID
 70
     1
 71
     0
 91
        1
 92
        1
 93
        1
 72
     4
 94
        3
 73
     0
 74
     1
 95
       17
 96
       13
 40
0.0
 40
0.0
 40
0.0
 40
0.0
 40
1.0
 40
1.0
 40
1.0
 40
2.0
 40
2.0
 40
2.0
 40
3.0
 40
3.0
 40
3.0
 40
4.0
 40
4.0
 40
4.0
 40
4.0
 10
2.326298024173386
 20
4.283439033780206
 10
2.312473621905736
 20
4.283439033780206
 10
2.301275401318864
 20
4.288350334585819
 10
2.301275401318864
 20
4.294415563705709
 10
2.301275401318864
 20
4.300466581885782
 10
2.312473621905736
 20
4.305377882691383
 10
2.326298024173386
 20
4.305377882691383
 10
2.340133795192893
 20
4.305377882691383
 10
2.351346226719594
 20
4.300466581885782
 10
2.351346226719594
 20
4.294415563705709
 10
2.351346226719594
 20
4.288350334585819
 10
2.340133795192893
 20
4.283439033780206
 10
2.326298024173386
 20
4.283439033780206
 97
        0
 97
        0
 75
     2
 76
     1
 98
        0
  0
SPLINE
  5
97
330
1F
100
AcDbEntity
  8
Layer 1
 62
     7
420
 16777215
370
    35
100
AcDbSpline
210
0.0
220
0.0
230
1.0
 70
    11
 71
     3
 72
    17
 73
    13
 74
     0
 42
0.0000000001
 43
0.0000000001
 12
1.0
 22
0.0
 32
0.0
 13
1.0
 23
0.0
 33
0.0
 40
0.0
 40
0.0
 40
0.0
 40
0.0
 40
1.0
 40
1.0
 40
1.0
 40
2.0
 40
2.0
 40
2.0
 40
3.0
 40
3.0
 40
3.0
 40
4.0
 40
4.0
 40
4.0
 40
4.0
 10
2.276113511254001
 20
4.2194187498413
 30
0.0
 10
2.262291951174297
 20
4.2194187498413
 30
0.0
 10
2.251079519647596
 20
4.224332892834885
 30
0.0
 10
2.251079519647596
 20
4.230398121954774
 30
0.0
 10
2.251079519647596
 20
4.236446297946878
 30
0.0
 10
2.262291951174297
 20
4.241360440940449
 30
0.0
 10
2.276113511254001
 20
4.241360440940449
 30
0.0
 10
2.28993791352165
 20
4.241360440940449
 30
0.0
 10
2.301150345048351
 20
4.236446297946878
 30
0.0
 10
2.301150345048351
 20
4.230398121954774
 30
0.0
 10
2.301150345048351
 20
4.224332892834885
 30
0.0
 10
2.28993791352165
 20
4.2194187498413
 30
0.0
 10
2.276113511254001
 20
4.2194187498413
 30
0.0
  0
HATCH
  5
98
330
1F
100
AcDbEntity
  8
Layer 1
 62
     7
420
 16777215
100
AcDbHatch
 10
0.0
 20
0.0
 30
0.0
210
0.0
220
0.0
230
1.0
  2
SOLID
 70
     1
 71
     0
 91
        1
 92
        1
 93
        1
 72
     4
 94
        3
 73
     0
 74
     1
 95
       17
 96
       13
 40
0.0
 40
0.0
 40
0.0
 40
0.0
 40
1.0
 40
1.0
 40
1.0
 40
2.0
 40
2.0
 40
2.0
 40
3.0
 40
3.0
 40
3.0
 40
4.0
 40
4.0
 40
4.0
 40
4.0
 10
2.276113511254001
 20
4.2194187498413
 10
2.262291951174297
 20
4.2194187498413
 10
2.251079519647596
 20
4.224332892834885
 10
2.251079519647596
 20
4.230398121954774
 10
2.251079519647596
 20
4.236446297946878
 10
2.262291951174297
 20
4.241360440940449
 10
2.276113511254001
 20
4.241360440940449
 10
2.28993791352165
 20
4.241360440940449
 10
2.301150345048351
 20
4.236446297946878
 10
2.301150345048351
 20
4.230398121954774
 10
2.301150345048351
 20
4.224332892834885
 10
2.28993791352165
 20
4.2194187498413
 10
2.276113511254001
 20
4.2194187498413
 97
        0
 97
        0
 75
     2
 76
     1
 98
        0
  0
SPLINE
  5
99
330
1F
100
AcDbEntity
  8
Layer 1
 62
     7
420
 16777215
370
    15
100
AcDbSpline
210
0.0
220
0.0
230
1.0
 70
    11
 71
     3
 72
    17
 73
    13
 74
     0
 42
0.0000000001
 43
0.0000000001
 12
1.0
 22
0.0
 32
0.0
 13
1.0
 23
0.0
 33
0.0
 40
0.0
 40
0.0
 40
0.0
 40
0.0
 40
1.0
 40
1.0
 40
1.0
 40
2.0
 40
2.0
 40
2.0
 40
3.0
 40
3.0
 40
3.0
 40
4.0
 40
4.0
 40
4.0
 40
4.0
 10
2.276517101945198
 20
4.223693400542477
 30
0.0
 10
2.262681330925691
 20
4.223693400542477
 30
0.0
 10
2.251480268150847
 20
4.228607543536049
 30
0.0
 10
2.251480268150847
 20
4.234658747050566
 30
0.0
 10
2.251480268150847
 20
4.240720948648055
 30
0.0
 10
2.262681330925691
 20
4.245635091641626
 30
0.0
 10
2.276517101945198
 20
4.245635091641626
 30
0.0
 10
2.290338662024876
 20
4.245635091641626
 30
0.0
 10
2.301539833397505
 20
4.240720948648055
 30
0.0
 10
2.301539833397505
 20
4.234658747050566
 30
0.0
 10
2.301539833397505
 20
4.228607543536049
 30
0.0
 10
2.290338662024876
 20
4.223693400542477
 30
0.0
 10
2.276517101945198
 20
4.223693400542477
 30
0.0
  0
HATCH
  5
9A
330
1F
100
AcDbEntity
  8
Layer 1
 62
   254
420
 13358815
100
AcDbHatch
 10
0.0
 20
0.0
 30
0.0
210
0.0
220
0.0
230
1.0
  2
SOLID
 70
     1
 71
     0
 91
        1
 92
        1
 93
        1
 72
     4
 94
        3
 73
     0
 74
     1
 95
       17
 96
       13
 40
0.0
 40
0.0
 40
0.0
 40
0.0
 40
1.0
 40
1.0
 40
1.0
 40
2.0
 40
2.0
 40
2.0
 40
3.0
 40
3.0
 40
3.0
 40
4.0
 40
4.0
 40
4.0
 40
4.0
 10
2.276517101945198
 20
4.223693400542477
 10
2.262681330925691
 20
4.223693400542477
 10
2.251480268150847
 20
4.228607543536049
 10
2.251480268150847
 20
4.234658747050566
 10
2.251480268150847
 20
4.240720948648055
 10
2.262681330925691
 20
4.245635091641626
 10
2.276517101945198
 20
4.245635091641626
 10
2.290338662024876
 20
4.245635091641626
 10
2.301539833397505
 20
4.240720948648055
 10
2.301539833397505
 20
4.234658747050566
 10
2.301539833397505
 20
4.228607543536049
 10
2.290338662024876
 20
4.223693400542477
 10
2.276517101945198
 20
4.223693400542477
 97
        0
 97
        0
 75
     2
 76
     1
 98
        0
  0
SPLINE
  5
9B
330
1F
100
AcDbEntity
  8
Layer 1
 62
     7
420
 16777215
370
    35
100
AcDbSpline
210
0.0
220
0.0
230
1.0
 70
    11
 71
     3
 72
    17
 73
    13
 74
     0
 42
0.0000000001
 43
0.0000000001
 12
1.0
 22
0.0
 32
0.0
 13
1.0
 23
0.0
 33
0.0
 40
0.0
 40
0.0
 40
0.0
 40
0.0
 40
1.0
 40
1.0
 40
1.0
 40
2.0
 40
2.0
 40
2.0
 40
3.0
 40
3.0
 40
3.0
 40
4.0
 40
4.0
 40
4.0
 40
4.0
 10
2.204740487046491
 20
4.171291981009454
 30
0.0
 10
2.190918926966813
 20
4.171291981009454
 30
0.0
 10
2.179706495440112
 20
4.176203281815055
 30
0.0
 10
2.179706495440112
 20
4.182254299995129
 30
0.0
 10
2.179706495440112
 20
4.188319529115018
 30
0.0
 10
2.190918926966813
 20
4.193230829920645
 30
0.0
 10
2.204740487046491
 20
4.193230829920645
 30
0.0
 10
2.21857636456798
 20
4.193230829920645
 30
0.0
 10
2.229777320840842
 20
4.188319529115018
 30
0.0
 10
2.229777320840842
 20
4.182254299995129
 30
0.0
 10
2.229777320840842
 20
4.176203281815055
 30
0.0
 10
2.21857636456798
 20
4.171291981009454
 30
0.0
 10
2.204740487046491
 20
4.171291981009454
 30
0.0
  0
HATCH
  5
9C
330
1F
100
AcDbEntity
  8
Layer 1
 62
     7
420
 16777215
100
AcDbHatch
 10
0.0
 20
0.0
 30
0.0
210
0.0
220
0.0
230
1.0
  2
SOLID
 70
     1
 71
     0
 91
        1
 92
        1
 93
        1
 72
     4
 94
        3
 73
     0
 74
     1
 95
       17
 96
       13
 40
0.0
 40
0.0
 40
0.0
 40
0.0
 40
1.0
 40
1.0
 40
1.0
 40
2.0
 40
2.0
 40
2.0
 40
3.0
 40
3.0
 40
3.0
 40
4.0
 40
4.0
 40
4.0
 40
4.0
 10
2.204740487046491
 20
4.171291981009454
 10
2.190918926966813
 20
4.171291981009454
 10
2.179706495440112
 20
4.176203281815055
 10
2.179706495440112
 20
4.182254299995129
 10
2.179706495440112
 20
4.188319529115018
 10
2.190918926966813
 20
4.193230829920645
 10
2.204740487046491
 20
4.193230829920645
 10
2.21857636456798
 20
4.193230829920645
 10
2.229777320840842
 20
4.188319529115018
 10
2.229777320840842
 20
4.182254299995129
 10
2.229777320840842
 20
4.176203281815055
 10
2.21857636456798
 20
4.171291981009454
 10
2.204740487046491
 20
4.171291981009454
 97
        0
 97
        0
 75
     2
 76
     1
 98
        0
  0
SPLINE
  5
9D
330
1F
100
AcDbEntity
  8
Layer 1
 62
     7
420
 16777215
370
    15
100
AcDbSpline
210
0.0
220
0.0
230
1.0
 70
    11
 71
     3
 72
    17
 73
    13
 74
     0
 42
0.0000000001
 43
0.0000000001
 12
1.0
 22
0.0
 32
0.0
 13
1.0
 23
0.0
 33
0.0
 40
0.0
 40
0.0
 40
0.0
 40
0.0
 40
1.0
 40
1.0
 40
1.0
 40
2.0
 40
2.0
 40
2.0
 40
3.0
 40
3.0
 40
3.0
 40
4.0
 40
4.0
 40
4.0
 40
4.0
 10
2.205144077737689
 20
4.175552420770802
 30
0.0
 10
2.191319781283432
 20
4.175552420770802
 30
0.0
 10
2.180107243943338
 20
4.180463721576416
 30
0.0
 10
2.180107243943338
 20
4.186528950696306
 30
0.0
 10
2.180107243943338
 20
4.192579968876367
 30
0.0
 10
2.191319781283432
 20
4.19749126968198
 30
0.0
 10
2.205144077737689
 20
4.19749126968198
 30
0.0
 10
2.218965637817392
 20
4.19749126968198
 30
0.0
 10
2.230178069344093
 20
4.192579968876367
 30
0.0
 10
2.230178069344093
 20
4.186528950696306
 30
0.0
 10
2.230178069344093
 20
4.180463721576416
 30
0.0
 10
2.218965637817392
 20
4.175552420770802
 30
0.0
 10
2.205144077737689
 20
4.175552420770802
 30
0.0
  0
HATCH
  5
9E
330
1F
100
AcDbEntity
  8
Layer 1
 62
   254
420
 13358815
100
AcDbHatch
 10
0.0
 20
0.0
 30
0.0
210
0.0
220
0.0
230
1.0
  2
SOLID
 70
     1
 71
     0
 91
        1
 92
        1
 93
        1
 72
     4
 94
        3
 73
     0
 74
     1
 95
       17
 96
       13
 40
0.0
 40
0.0
 40
0.0
 40
0.0
 40
1.0
 40
1.0
 40
1.0
 40
2.0
 40
2.0
 40
2.0
 40
3.0
 40
3.0
 40
3.0
 40
4.0
 40
4.0
 40
4.0
 40
4.0
 10
2.205144077737689
 20
4.175552420770802
 10
2.191319781283432
 20
4.175552420770802
 10
2.180107243943338
 20
4.180463721576416
 10
2.180107243943338
 20
4.186528950696306
 10
2.180107243943338
 20
4.192579968876367
 10
2.191319781283432
 20
4.19749126968198
 10
2.205144077737689
 20
4.19749126968198
 10
2.218965637817392
 20
4.19749126968198
 10
2.230178069344093
 20
4.192579968876367
 10
2.230178069344093
 20
4.186528950696306
 10
2.230178069344093
 20
4.180463721576416
 10
2.218965637817392
 20
4.175552420770802
 10
2.205144077737689
 20
4.175552420770802
 97
        0
 97
        0
 75
     2
 76
     1
 98
        0
  0
SPLINE
  5
9F
330
1F
100
AcDbEntity
  8
Layer 1
 62
     7
420
 16777215
370
    35
100
AcDbSpline
210
0.0
220
0.0
230
1.0
 70
    11
 71
     3
 72
    17
 73
    13
 74
     0
 42
0.0000000001
 43
0.0000000001
 12
1.0
 22
0.0
 32
0.0
 13
1.0
 23
0.0
 33
0.0
 40
0.0
 40
0.0
 40
0.0
 40
0.0
 40
1.0
 40
1.0
 40
1.0
 40
2.0
 40
2.0
 40
2.0
 40
3.0
 40
3.0
 40
3.0
 40
4.0
 40
4.0
 40
4.0
 40
4.0
 10
2.549426832648755
 20
4.176260125574395
 30
0.0
 10
2.535602430381105
 20
4.176260125574395
 30
0.0
 10
2.524389998854404
 20
4.181171426379996
 30
0.0
 10
2.524389998854404
 20
4.187236655499886
 30
0.0
 10
2.524389998854404
 20
4.193301884619788
 30
0.0
 10
2.535602430381105
 20
4.198213185425402
 30
0.0
 10
2.549426832648755
 20
4.198213185425402
 30
0.0
 10
2.563248507937538
 20
4.198213185425402
 30
0.0
 10
2.574460824255134
 20
4.193301884619788
 30
0.0
 10
2.574460824255134
 20
4.187236655499886
 30
0.0
 10
2.574460824255134
 20
4.181171426379996
 30
0.0
 10
2.563248507937538
 20
4.176260125574395
 30
0.0
 10
2.549426832648755
 20
4.176260125574395
 30
0.0
  0
HATCH
  5
A0
330
1F
100
AcDbEntity
  8
Layer 1
 62
     7
420
 16777215
100
AcDbHatch
 10
0.0
 20
0.0
 30
0.0
210
0.0
220
0.0
230
1.0
  2
SOLID
 70
     1
 71
     0
 91
        1
 92
        1
 93
        1
 72
     4
 94
        3
 73
     0
 74
     1
 95
       17
 96
       13
 40
0.0
 40
0.0
 40
0.0
 40
0.0
 40
1.0
 40
1.0
 40
1.0
 40
2.0
 40
2.0
 40
2.0
 40
3.0
 40
3.0
 40
3.0
 40
4.0
 40
4.0
 40
4.0
 40
4.0
 10
2.549426832648755
 20
4.176260125574395
 10
2.535602430381105
 20
4.176260125574395
 10
2.524389998854404
 20
4.181171426379996
 10
2.524389998854404
 20
4.187236655499886
 10
2.524389998854404
 20
4.193301884619788
 10
2.535602430381105
 20
4.198213185425402
 10
2.549426832648755
 20
4.198213185425402
 10
2.563248507937538
 20
4.198213185425402
 10
2.574460824255134
 20
4.193301884619788
 10
2.574460824255134
 20
4.187236655499886
 10
2.574460824255134
 20
4.181171426379996
 10
2.563248507937538
 20
4.176260125574395
 10
2.549426832648755
 20
4.176260125574395
 97
        0
 97
        0
 75
     2
 76
     1
 98
        0
  0
SPLINE
  5
A1
330
1F
100
AcDbEntity
  8
Layer 1
 62
     7
420
 16777215
370
    15
100
AcDbSpline
210
0.0
220
0.0
230
1.0
 70
    11
 71
     3
 72
    17
 73
    13
 74
     0
 42
0.0000000001
 43
0.0000000001
 12
1.0
 22
0.0
 32
0.0
 13
1.0
 23
0.0
 33
0.0
 40
0.0
 40
0.0
 40
0.0
 40
0.0
 40
1.0
 40
1.0
 40
1.0
 40
2.0
 40
2.0
 40
2.0
 40
3.0
 40
3.0
 40
3.0
 40
4.0
 40
4.0
 40
4.0
 40
4.0
 10
2.549827581151981
 20
4.180534776275572
 30
0.0
 10
2.535991924653015
 20
4.180534776275572
 30
0.0
 10
2.524793703783239
 20
4.185446077081186
 30
0.0
 10
2.524793703783239
 20
4.191511306201063
 30
0.0
 10
2.524793703783239
 20
4.197562324381137
 30
0.0
 10
2.535991924653015
 20
4.20247362518675
 30
0.0
 10
2.549827581151981
 20
4.20247362518675
 30
0.0
 10
2.563649141231685
 20
4.20247362518675
 30
0.0
 10
2.574850204006502
 20
4.197562324381137
 30
0.0
 10
2.574850204006502
 20
4.191511306201063
 30
0.0
 10
2.574850204006502
 20
4.185446077081186
 30
0.0
 10
2.563649141231685
 20
4.180534776275572
 30
0.0
 10
2.549827581151981
 20
4.180534776275572
 30
0.0
  0
HATCH
  5
A2
330
1F
100
AcDbEntity
  8
Layer 1
 62
   254
420
 13358815
100
AcDbHatch
 10
0.0
 20
0.0
 30
0.0
210
0.0
220
0.0
230
1.0
  2
SOLID
 70
     1
 71
     0
 91
        1
 92
        1
 93
        1
 72
     4
 94
        3
 73
     0
 74
     1
 95
       17
 96
       13
 40
0.0
 40
0.0
 40
0.0
 40
0.0
 40
1.0
 40
1.0
 40
1.0
 40
2.0
 40
2.0
 40
2.0
 40
3.0
 40
3.0
 40
3.0
 40
4.0
 40
4.0
 40
4.0
 40
4.0
 10
2.549827581151981
 20
4.180534776275572
 10
2.535991924653015
 20
4.180534776275572
 10
2.524793703783239
 20
4.185446077081186
 10
2.524793703783239
 20
4.191511306201063
 10
2.524793703783239
 20
4.197562324381137
 10
2.535991924653015
 20
4.20247362518675
 10
2.549827581151981
 20
4.20247362518675
 10
2.563649141231685
 20
4.20247362518675
 10
2.574850204006502
 20
4.197562324381137
 10
2.574850204006502
 20
4.191511306201063
 10
2.574850204006502
 20
4.185446077081186
 10
2.563649141231685
 20
4.180534776275572
 10
2.549827581151981
 20
4.180534776275572
 97
        0
 97
        0
 75
     2
 76
     1
 98
        0
  0
SPLINE
  5
A3
330
1F
100
AcDbEntity
  8
Layer 1
 62
     7
420
 16777215
370
    35
100
AcDbSpline
210
0.0
220
0.0
230
1.0
 70
    11
 71
     3
 72
    17
 73
    13
 74
     0
 42
0.0000000001
 43
0.0000000001
 12
1.0
 22
0.0
 32
0.0
 13
1.0
 23
0.0
 33
0.0
 40
0.0
 40
0.0
 40
0.0
 40
0.0
 40
1.0
 40
1.0
 40
1.0
 40
2.0
 40
2.0
 40
2.0
 40
3.0
 40
3.0
 40
3.0
 40
4.0
 40
4.0
 40
4.0
 40
4.0
 10
2.492568862384688
 20
4.122440454246227
 30
0.0
 10
2.478733091365181
 20
4.122440454246227
 30
0.0
 10
2.467532028590338
 20
4.127354597239787
 30
0.0
 10
2.467532028590338
 20
4.133405615419848
 30
0.0
 10
2.467532028590338
 20
4.139468002351779
 30
0.0
 10
2.478733091365181
 20
4.144382145345364
 30
0.0
 10
2.492568862384688
 20
4.144382145345364
 30
0.0
 10
2.506390422464392
 20
4.144382145345364
 30
0.0
 10
2.517602968047084
 20
4.139468002351779
 30
0.0
 10
2.517602968047084
 20
4.133405615419848
 30
0.0
 10
2.517602968047084
 20
4.127354597239787
 30
0.0
 10
2.506390422464392
 20
4.122440454246227
 30
0.0
 10
2.492568862384688
 20
4.122440454246227
 30
0.0
  0
HATCH
  5
A4
330
1F
100
AcDbEntity
  8
Layer 1
 62
     7
420
 16777215
100
AcDbHatch
 10
0.0
 20
0.0
 30
0.0
210
0.0
220
0.0
230
1.0
  2
SOLID
 70
     1
 71
     0
 91
        1
 92
        1
 93
        1
 72
     4
 94
        3
 73
     0
 74
     1
 95
       17
 96
       13
 40
0.0
 40
0.0
 40
0.0
 40
0.0
 40
1.0
 40
1.0
 40
1.0
 40
2.0
 40
2.0
 40
2.0
 40
3.0
 40
3.0
 40
3.0
 40
4.0
 40
4.0
 40
4.0
 40
4.0
 10
2.492568862384688
 20
4.122440454246227
 10
2.478733091365181
 20
4.122440454246227
 10
2.467532028590338
 20
4.127354597239787
 10
2.467532028590338
 20
4.133405615419848
 10
2.467532028590338
 20
4.139468002351779
 10
2.478733091365181
 20
4.144382145345364
 10
2.492568862384688
 20
4.144382145345364
 10
2.506390422464392
 20
4.144382145345364
 10
2.517602968047084
 20
4.139468002351779
 10
2.517602968047084
 20
4.133405615419848
 10
2.517602968047084
 20
4.127354597239787
 10
2.506390422464392
 20
4.122440454246227
 10
2.492568862384688
 20
4.122440454246227
 97
        0
 97
        0
 75
     2
 76
     1
 98
        0
  0
SPLINE
  5
A5
330
1F
100
AcDbEntity
  8
Layer 1
 62
     7
420
 16777215
370
    15
100
AcDbSpline
210
0.0
220
0.0
230
1.0
 70
    11
 71
     3
 72
    17
 73
    13
 74
     0
 42
0.0000000001
 43
0.0000000001
 12
1.0
 22
0.0
 32
0.0
 13
1.0
 23
0.0
 33
0.0
 40
0.0
 40
0.0
 40
0.0
 40
0.0
 40
1.0
 40
1.0
 40
1.0
 40
2.0
 40
2.0
 40
2.0
 40
3.0
 40
3.0
 40
3.0
 40
4.0
 40
4.0
 40
4.0
 40
4.0
 10
2.492955399948111
 20
4.126715104947392
 30
0.0
 10
2.479133839868407
 20
4.126715104947392
 30
0.0
 10
2.467921521142646
 20
4.131629430672673
 30
0.0
 10
2.467921521142646
 20
4.137677423933066
 30
0.0
 10
2.467921521142646
 20
4.143742653052956
 30
0.0
 10
2.479133839868407
 20
4.148656796046541
 30
0.0
 10
2.492955399948111
 20
4.148656796046541
 30
0.0
 10
2.50677980221576
 20
4.148656796046541
 30
0.0
 10
2.517992233742461
 20
4.143742653052956
 30
0.0
 10
2.517992233742461
 20
4.137677423933066
 30
0.0
 10
2.517992233742461
 20
4.131629430672673
 30
0.0
 10
2.50677980221576
 20
4.126715104947392
 30
0.0
 10
2.492955399948111
 20
4.126715104947392
 30
0.0
  0
HATCH
  5
A6
330
1F
100
AcDbEntity
  8
Layer 1
 62
   254
420
 13358815
100
AcDbHatch
 10
0.0
 20
0.0
 30
0.0
210
0.0
220
0.0
230
1.0
  2
SOLID
 70
     1
 71
     0
 91
        1
 92
        1
 93
        1
 72
     4
 94
        3
 73
     0
 74
     1
 95
       17
 96
       13
 40
0.0
 40
0.0
 40
0.0
 40
0.0
 40
1.0
 40
1.0
 40
1.0
 40
2.0
 40
2.0
 40
2.0
 40
3.0
 40
3.0
 40
3.0
 40
4.0
 40
4.0
 40
4.0
 40
4.0
 10
2.492955399948111
 20
4.126715104947392
 10
2.479133839868407
 20
4.126715104947392
 10
2.467921521142646
 20
4.131629430672673
 10
2.467921521142646
 20
4.137677423933066
 10
2.467921521142646
 20
4.143742653052956
 10
2.479133839868407
 20
4.148656796046541
 10
2.492955399948111
 20
4.148656796046541
 10
2.50677980221576
 20
4.148656796046541
 10
2.517992233742461
 20
4.143742653052956
 10
2.517992233742461
 20
4.137677423933066
 10
2.517992233742461
 20
4.131629430672673
 10
2.50677980221576
 20
4.126715104947392
 10
2.492955399948111
 20
4.126715104947392
 97
        0
 97
        0
 75
     2
 76
     1
 98
        0
  0
SPLINE
  5
A7
330
1F
100
AcDbEntity
  8
Layer 1
 62
     7
420
 16777215
370
    35
100
AcDbSpline
210
0.0
220
0.0
230
1.0
 70
    11
 71
     3
 72
    17
 73
    13
 74
     0
 42
0.0000000001
 43
0.0000000001
 12
1.0
 22
0.0
 32
0.0
 13
1.0
 23
0.0
 33
0.0
 40
0.0
 40
0.0
 40
0.0
 40
0.0
 40
1.0
 40
1.0
 40
1.0
 40
2.0
 40
2.0
 40
2.0
 40
3.0
 40
3.0
 40
3.0
 40
4.0
 40
4.0
 40
4.0
 40
4.0
 10
2.780215337693057
 20
3.924737859316565
 30
0.0
 10
2.768306570114646
 20
3.924737859316565
 30
0.0
 10
2.758648935550784
 20
3.936143737418269
 30
0.0
 10
2.758648935550784
 20
3.950203863493799
 30
0.0
 10
2.758648935550784
 20
3.964275536114529
 30
0.0
 10
2.768306570114646
 20
3.9756670254831
 30
0.0
 10
2.780215337693057
 20
3.9756670254831
 30
0.0
 10
2.792121263083522
 20
3.9756670254831
 30
0.0
 10
2.801781859980666
 20
3.964275536114529
 30
0.0
 10
2.801781859980666
 20
3.950203863493799
 30
0.0
 10
2.801781859980666
 20
3.936143737418269
 30
0.0
 10
2.792121263083522
 20
3.924737859316565
 30
0.0
 10
2.780215337693057
 20
3.924737859316565
 30
0.0
  0
HATCH
  5
A8
330
1F
100
AcDbEntity
  8
Layer 1
 62
     7
420
 16777215
100
AcDbHatch
 10
0.0
 20
0.0
 30
0.0
210
0.0
220
0.0
230
1.0
  2
SOLID
 70
     1
 71
     0
 91
        1
 92
        1
 93
        1
 72
     4
 94
        3
 73
     0
 74
     1
 95
       17
 96
       13
 40
0.0
 40
0.0
 40
0.0
 40
0.0
 40
1.0
 40
1.0
 40
1.0
 40
2.0
 40
2.0
 40
2.0
 40
3.0
 40
3.0
 40
3.0
 40
4.0
 40
4.0
 40
4.0
 40
4.0
 10
2.780215337693057
 20
3.924737859316565
 10
2.768306570114646
 20
3.924737859316565
 10
2.758648935550784
 20
3.936143737418269
 10
2.758648935550784
 20
3.950203863493799
 10
2.758648935550784
 20
3.964275536114529
 10
2.768306570114646
 20
3.9756670254831
 10
2.780215337693057
 20
3.9756670254831
 10
2.792121263083522
 20
3.9756670254831
 10
2.801781859980666
 20
3.964275536114529
 10
2.801781859980666
 20
3.950203863493799
 10
2.801781859980666
 20
3.936143737418269
 10
2.792121263083522
 20
3.924737859316565
 10
2.780215337693057
 20
3.924737859316565
 97
        0
 97
        0
 75
     2
 76
     1
 98
        0
  0
SPLINE
  5
A9
330
1F
100
AcDbEntity
  8
Layer 1
 62
     7
420
 16777215
370
    15
100
AcDbSpline
210
0.0
220
0.0
230
1.0
 70
    11
 71
     3
 72
    17
 73
    13
 74
     0
 42
0.0000000001
 43
0.0000000001
 12
1.0
 22
0.0
 32
0.0
 13
1.0
 23
0.0
 33
0.0
 40
0.0
 40
0.0
 40
0.0
 40
0.0
 40
1.0
 40
1.0
 40
1.0
 40
2.0
 40
2.0
 40
2.0
 40
3.0
 40
3.0
 40
3.0
 40
4.0
 40
4.0
 40
4.0
 40
4.0
 10
2.787749977991477
 20
3.924820282767579
 30
0.0
 10
2.775844173180758
 20
3.924820282767579
 30
0.0
 10
2.766197666643721
 20
3.936214614324121
 30
0.0
 10
2.766197666643721
 20
3.950286286944838
 30
0.0
 10
2.766197666643721
 20
3.964357959565543
 30
0.0
 10
2.775844173180758
 20
3.975752291122085
 30
0.0
 10
2.787749977991477
 20
3.975752291122085
 30
0.0
 10
2.799658745569912
 20
3.975752291122085
 30
0.0
 10
2.809316500279086
 20
3.964357959565543
 30
0.0
 10
2.809316500279086
 20
3.950286286944838
 30
0.0
 10
2.809316500279086
 20
3.936214614324121
 30
0.0
 10
2.799658745569912
 20
3.924820282767579
 30
0.0
 10
2.787749977991477
 20
3.924820282767579
 30
0.0
  0
HATCH
  5
AA
330
1F
100
AcDbEntity
  8
Layer 1
 62
   254
420
 13358815
100
AcDbHatch
 10
0.0
 20
0.0
 30
0.0
210
0.0
220
0.0
230
1.0
  2
SOLID
 70
     1
 71
     0
 91
        1
 92
        1
 93
        1
 72
     4
 94
        3
 73
     0
 74
     1
 95
       17
 96
       13
 40
0.0
 40
0.0
 40
0.0
 40
0.0
 40
1.0
 40
1.0
 40
1.0
 40
2.0
 40
2.0
 40
2.0
 40
3.0
 40
3.0
 40
3.0
 40
4.0
 40
4.0
 40
4.0
 40
4.0
 10
2.787749977991477
 20
3.924820282767579
 10
2.775844173180758
 20
3.924820282767579
 10
2.766197666643721
 20
3.936214614324121
 10
2.766197666643721
 20
3.950286286944838
 10
2.766197666643721
 20
3.964357959565543
 10
2.775844173180758
 20
3.975752291122085
 10
2.787749977991477
 20
3.975752291122085
 10
2.799658745569912
 20
3.975752291122085
 10
2.809316500279086
 20
3.964357959565543
 10
2.809316500279086
 20
3.950286286944838
 10
2.809316500279086
 20
3.936214614324121
 10
2.799658745569912
 20
3.924820282767579
 10
2.787749977991477
 20
3.924820282767579
 97
        0
 97
        0
 75
     2
 76
     1
 98
        0
  0
POLYLINE
  5
AB
330
1F
100
AcDbEntity
  8
Layer 1
 62
     7
420
 16777215
370
    15
100
AcDb2dPolyline
 66
     1
 10
0.0
 20
0.0
 30
0.0
  0
VERTEX
  5
AC
330
AB
100
AcDbEntity
  8
Layer 1
 62
     7
420
 16777215
370
    15
100
AcDbVertex
100
AcDb2dVertex
 10
2.634331630768176
 20
3.636466102655643
 30
0.0
  0
VERTEX
  5
AD
330
AB
100
AcDbEntity
  8
Layer 1
 62
     7
420
 16777215
370
    15
100
AcDbVertex
100
AcDb2dVertex
 10
2.661198716607967
 20
3.663319094560393
 30
0.0
  0
VERTEX
  5
AE
330
AB
100
AcDbEntity
  8
Layer 1
 62
     7
420
 16777215
370
    15
100
AcDbVertex
100
AcDb2dVertex
 10
2.688051708512729
 20
3.636466102655643
 30
0.0
  0
VERTEX
  5
AF
330
AB
100
AcDbEntity
  8
Layer 1
 62
     7
420
 16777215
370
    15
100
AcDbVertex
100
AcDb2dVertex
 10
2.661198716607967
 20
3.609598899811052
 30
0.0
  0
VERTEX
  5
B0
330
AB
100
AcDbEntity
  8
Layer 1
 62
     7
420
 16777215
370
    15
100
AcDbVertex
100
AcDb2dVertex
 10
2.634331630768176
 20
3.636466102655643
 30
0.0
  0
SEQEND
  5
B1
330
AB
100
AcDbEntity
  8
Layer 1
 62
     7
420
 16777215
370
    15
  0
POLYLINE
  5
B2
330
1F
100
AcDbEntity
  8
Layer 1
 62
     7
420
 16777215
370
    15
100
AcDb2dPolyline
 66
     1
 10
0.0
 20
0.0
 30
0.0
  0
VERTEX
  5
B3
330
B2
100
AcDbEntity
  8
Layer 1
 62
     7
420
 16777215
370
    15
100
AcDbVertex
100
AcDb2dVertex
 10
2.667249734788028
 20
3.640587275206637
 30
0.0
  0
VERTEX
  5
B4
330
B2
100
AcDbEntity
  8
Layer 1
 62
     7
420
 16777215
370
    15
100
AcDbVertex
100
AcDb2dVertex
 10
2.648721511436305
 20
3.622059051854914
 30
0.0
  0
VERTEX
  5
B5
330
B2
100
AcDbEntity
  8
Layer 1
 62
     7
420
 16777215
370
    15
100
AcDbVertex
100
AcDb2dVertex
 10
2.634331630768176
 20
3.636466102655643
 30
0.0
  0
VERTEX
  5
B6
330
B2
100
AcDbEntity
  8
Layer 1
 62
     7
420
 16777215
370
    15
100
AcDbVertex
100
AcDb2dVertex
 10
2.652856894927153
 20
3.654977272879566
 30
0.0
  0
VERTEX
  5
B7
330
B2
100
AcDbEntity
  8
Layer 1
 62
     7
420
 16777215
370
    15
100
AcDbVertex
100
AcDb2dVertex
 10
2.667249734788028
 20
3.640587275206637
 30
0.0
  0
SEQEND
  5
B9
330
B2
100
AcDbEntity
  8
Layer 1
 62
     7
420
 16777215
370
    15
  0
HATCH
  5
B8
330
1F
100
AcDbEntity
  8
Layer 1
 62
    43
420
 15510365
100
AcDbHatch
 10
0.0
 20
0.0
 30
0.0
210
0.0
220
0.0
230
1.0
  2
SOLID
 70
     1
 71
     0
 91
        1
 92
        1
 93
        4
 72
     1
 10
2.667249734788028
 20
3.640587275206637
 11
2.648721511436305
 21
3.622059051854914
 72
     1
 10
2.648721511436305
 20
3.622059051854914
 11
2.634331630768176
 21
3.636466102655643
 72
     1
 10
2.634331630768176
 20
3.636466102655643
 11
2.652856894927153
 21
3.654977272879566
 72
     1
 10
2.652856894927153
 20
3.654977272879566
 11
2.667249734788028
 21
3.640587275206637
 97
        0
 75
     2
 76
     1
 98
        0
  0
POLYLINE
  5
BA
330
1F
100
AcDbEntity
  8
Layer 1
 62
     7
420
 16777215
370
    15
100
AcDb2dPolyline
 66
     1
 10
0.0
 20
0.0
 30
0.0
  0
VERTEX
  5
BB
330
BA
100
AcDbEntity
  8
Layer 1
 62
     7
420
 16777215
370
    15
100
AcDbVertex
100
AcDb2dVertex
 10
2.404372927605209
 20
2.687135531309599
 30
0.0
  0
VERTEX
  5
BC
330
BA
100
AcDbEntity
  8
Layer 1
 62
     7
420
 16777215
370
    15
100
AcDbVertex
100
AcDb2dVertex
 10
2.404372927605209
 20
3.274558940166091
 30
0.0
  0
SEQEND
  5
BD
330
BA
100
AcDbEntity
  8
Layer 1
 62
     7
420
 16777215
370
    15
  0
POLYLINE
  5
BE
330
1F
100
AcDbEntity
  8
Layer 1
 62
     7
420
 16777215
370
    15
100
AcDb2dPolyline
 66
     1
 10
0.0
 20
0.0
 30
0.0
  0
VERTEX
  5
BF
330
BE
100
AcDbEntity
  8
Layer 1
 62
     7
420
 16777215
370
    15
100
AcDbVertex
100
AcDb2dVertex
 10
2.423498122108539
 20
3.326613612767257
 30
0.0
  0
VERTEX
  5
C0
330
BE
100
AcDbEntity
  8
Layer 1
 62
     7
420
 16777215
370
    15
100
AcDbVertex
100
AcDb2dVertex
 10
2.423498122108539
 20
2.690313097455803
 30
0.0
  0
SEQEND
  5
C1
330
BE
100
AcDbEntity
  8
Layer 1
 62
     7
420
 16777215
370
    15
  0
SPLINE
  5
C2
330
1F
100
AcDbEntity
  8
Layer 1
 62
     7
420
 16777215
370
    35
100
AcDbSpline
210
0.0
220
0.0
230
1.0
 70
    11
 71
     3
 72
    17
 73
    13
 74
     0
 42
0.0000000001
 43
0.0000000001
 12
1.0
 22
0.0
 32
0.0
 13
1.0
 23
0.0
 33
0.0
 40
0.0
 40
0.0
 40
0.0
 40
0.0
 40
1.0
 40
1.0
 40
1.0
 40
2.0
 40
2.0
 40
2.0
 40
3.0
 40
3.0
 40
3.0
 40
4.0
 40
4.0
 40
4.0
 40
4.0
 10
2.157000255778055
 20
2.578026777474709
 30
0.0
 10
2.149118868547753
 20
2.578026777474709
 30
0.0
 10
2.14272110343581
 20
2.589006149588184
 30
0.0
 10
2.14272110343581
 20
2.602534964307374
 30
0.0
 10
2.14272110343581
 20
2.616066621214486
 30
0.0
 10
2.149118868547753
 20
2.62704599332796
 30
0.0
 10
2.157000255778055
 20
2.62704599332796
 30
0.0
 10
2.164898696136157
 20
2.62704599332796
 30
0.0
 10
2.1712964612481
 20
2.616066621214486
 30
0.0
 10
2.1712964612481
 20
2.602534964307374
 30
0.0
 10
2.1712964612481
 20
2.589006149588184
 30
0.0
 10
2.164898696136157
 20
2.578026777474709
 30
0.0
 10
2.157000255778055
 20
2.578026777474709
 30
0.0
  0
HATCH
  5
C3
330
1F
100
AcDbEntity
  8
Layer 1
 62
     7
420
 16777215
100
AcDbHatch
 10
0.0
 20
0.0
 30
0.0
210
0.0
220
0.0
230
1.0
  2
SOLID
 70
     1
 71
     0
 91
        1
 92
        1
 93
        1
 72
     4
 94
        3
 73
     0
 74
     1
 95
       17
 96
       13
 40
0.0
 40
0.0
 40
0.0
 40
0.0
 40
1.0
 40
1.0
 40
1.0
 40
2.0
 40
2.0
 40
2.0
 40
3.0
 40
3.0
 40
3.0
 40
4.0
 40
4.0
 40
4.0
 40
4.0
 10
2.157000255778055
 20
2.578026777474709
 10
2.149118868547753
 20
2.578026777474709
 10
2.14272110343581
 20
2.589006149588184
 10
2.14272110343581
 20
2.602534964307374
 10
2.14272110343581
 20
2.616066621214486
 10
2.149118868547753
 20
2.62704599332796
 10
2.157000255778055
 20
2.62704599332796
 10
2.164898696136157
 20
2.62704599332796
 10
2.1712964612481
 20
2.616066621214486
 10
2.1712964612481
 20
2.602534964307374
 10
2.1712964612481
 20
2.589006149588184
 10
2.164898696136157
 20
2.578026777474709
 10
2.157000255778055
 20
2.578026777474709
 97
        0
 97
        0
 75
     2
 76
     1
 98
        0
  0
SPLINE
  5
C4
330
1F
100
AcDbEntity
  8
Layer 1
 62
     7
420
 16777215
370
    15
100
AcDbSpline
210
0.0
220
0.0
230
1.0
 70
    11
 71
     3
 72
    17
 73
    13
 74
     0
 42
0.0000000001
 43
0.0000000001
 12
1.0
 22
0.0
 32
0.0
 13
1.0
 23
0.0
 33
0.0
 40
0.0
 40
0.0
 40
0.0
 40
0.0
 40
1.0
 40
1.0
 40
1.0
 40
2.0
 40
2.0
 40
2.0
 40
3.0
 40
3.0
 40
3.0
 40
4.0
 40
4.0
 40
4.0
 40
4.0
 10
2.149258135758095
 20
2.578583846316077
 30
0.0
 10
2.141373906339822
 20
2.578583846316077
 30
0.0
 10
2.134976141227879
 20
2.58956037624158
 30
0.0
 10
2.134976141227879
 20
2.603092033148742
 30
0.0
 10
2.134976141227879
 20
2.616623690055853
 30
0.0
 10
2.141373906339822
 20
2.627600364718091
 30
0.0
 10
2.149258135758095
 20
2.627600364718091
 30
0.0
 10
2.157153733928226
 20
2.627600364718091
 30
0.0
 10
2.163551604152063
 20
2.616623690055853
 30
0.0
 10
2.163551604152063
 20
2.603092033148742
 30
0.0
 10
2.163551604152063
 20
2.58956037624158
 30
0.0
 10
2.157153733928226
 20
2.578583846316077
 30
0.0
 10
2.149258135758095
 20
2.578583846316077
 30
0.0
  0
HATCH
  5
C5
330
1F
100
AcDbEntity
  8
Layer 1
 62
   254
420
 13358815
100
AcDbHatch
 10
0.0
 20
0.0
 30
0.0
210
0.0
220
0.0
230
1.0
  2
SOLID
 70
     1
 71
     0
 91
        1
 92
        1
 93
        1
 72
     4
 94
        3
 73
     0
 74
     1
 95
       17
 96
       13
 40
0.0
 40
0.0
 40
0.0
 40
0.0
 40
1.0
 40
1.0
 40
1.0
 40
2.0
 40
2.0
 40
2.0
 40
3.0
 40
3.0
 40
3.0
 40
4.0
 40
4.0
 40
4.0
 40
4.0
 10
2.149258135758095
 20
2.578583846316077
 10
2.141373906339822
 20
2.578583846316077
 10
2.134976141227879
 20
2.58956037624158
 10
2.134976141227879
 20
2.603092033148742
 10
2.134976141227879
 20
2.616623690055853
 10
2.141373906339822
 20
2.627600364718091
 10
2.149258135758095
 20
2.627600364718091
 10
2.157153733928226
 20
2.627600364718091
 10
2.163551604152063
 20
2.616623690055853
 10
2.163551604152063
 20
2.603092033148742
 10
2.163551604152063
 20
2.58956037624158
 10
2.157153733928226
 20
2.578583846316077
 10
2.149258135758095
 20
2.578583846316077
 97
        0
 97
        0
 75
     2
 76
     1
 98
        0
  0
SPLINE
  5
C6
330
1F
100
AcDbEntity
  8
Layer 1
 62
     7
420
 16777215
370
    35
100
AcDbSpline
210
0.0
220
0.0
230
1.0
 70
    11
 71
     3
 72
    17
 73
    13
 74
     0
 42
0.0000000001
 43
0.0000000001
 12
1.0
 22
0.0
 32
0.0
 13
1.0
 23
0.0
 33
0.0
 40
0.0
 40
0.0
 40
0.0
 40
0.0
 40
1.0
 40
1.0
 40
1.0
 40
2.0
 40
2.0
 40
2.0
 40
3.0
 40
3.0
 40
3.0
 40
4.0
 40
4.0
 40
4.0
 40
4.0
 10
2.06571202049132
 20
2.394341992438563
 30
0.0
 10
2.057830633261018
 20
2.394341992438563
 30
0.0
 10
2.051432868149075
 20
2.405318383519948
 30
0.0
 10
2.051432868149075
 20
2.41885004042706
 30
0.0
 10
2.051432868149075
 20
2.432393066086054
 30
0.0
 10
2.057830633261018
 20
2.443358227259675
 30
0.0
 10
2.06571202049132
 20
2.443358227259675
 30
0.0
 10
2.07360761866145
 20
2.443358227259675
 30
0.0
 10
2.080005383773394
 20
2.432393066086054
 30
0.0
 10
2.080005383773394
 20
2.41885004042706
 30
0.0
 10
2.080005383773394
 20
2.405318383519948
 30
0.0
 10
2.07360761866145
 20
2.394341992438563
 30
0.0
 10
2.06571202049132
 20
2.394341992438563
 30
0.0
  0
HATCH
  5
C7
330
1F
100
AcDbEntity
  8
Layer 1
 62
     7
420
 16777215
100
AcDbHatch
 10
0.0
 20
0.0
 30
0.0
210
0.0
220
0.0
230
1.0
  2
SOLID
 70
     1
 71
     0
 91
        1
 92
        1
 93
        1
 72
     4
 94
        3
 73
     0
 74
     1
 95
       17
 96
       13
 40
0.0
 40
0.0
 40
0.0
 40
0.0
 40
1.0
 40
1.0
 40
1.0
 40
2.0
 40
2.0
 40
2.0
 40
3.0
 40
3.0
 40
3.0
 40
4.0
 40
4.0
 40
4.0
 40
4.0
 10
2.06571202049132
 20
2.394341992438563
 10
2.057830633261018
 20
2.394341992438563
 10
2.051432868149075
 20
2.405318383519948
 10
2.051432868149075
 20
2.41885004042706
 10
2.051432868149075
 20
2.432393066086054
 10
2.057830633261018
 20
2.443358227259675
 10
2.06571202049132
 20
2.443358227259675
 10
2.07360761866145
 20
2.443358227259675
 10
2.080005383773394
 20
2.432393066086054
 10
2.080005383773394
 20
2.41885004042706
 10
2.080005383773394
 20
2.405318383519948
 10
2.07360761866145
 20
2.394341992438563
 10
2.06571202049132
 20
2.394341992438563
 97
        0
 97
        0
 75
     2
 76
     1
 98
        0
  0
SPLINE
  5
C8
330
1F
100
AcDbEntity
  8
Layer 1
 62
     7
420
 16777215
370
    15
100
AcDbSpline
210
0.0
220
0.0
230
1.0
 70
    11
 71
     3
 72
    17
 73
    13
 74
     0
 42
0.0000000001
 43
0.0000000001
 12
1.0
 22
0.0
 32
0.0
 13
1.0
 23
0.0
 33
0.0
 40
0.0
 40
0.0
 40
0.0
 40
0.0
 40
1.0
 40
1.0
 40
1.0
 40
2.0
 40
2.0
 40
2.0
 40
3.0
 40
3.0
 40
3.0
 40
4.0
 40
4.0
 40
4.0
 40
4.0
 10
2.05796990047136
 20
2.394896080247842
 30
0.0
 10
2.050085671053087
 20
2.394896080247842
 30
0.0
 10
2.043687905941144
 20
2.405872610173345
 30
0.0
 10
2.043687905941144
 20
2.419404267080457
 30
0.0
 10
2.043687905941144
 20
2.432950134927422
 30
0.0
 10
2.050085671053087
 20
2.443912453913122
 30
0.0
 10
2.05796990047136
 20
2.443912453913122
 30
0.0
 10
2.065865601285623
 20
2.443912453913122
 30
0.0
 10
2.072263263753434
 20
2.432950134927422
 30
0.0
 10
2.072263263753434
 20
2.419404267080457
 30
0.0
 10
2.072263263753434
 20
2.405872610173345
 30
0.0
 10
2.065865601285623
 20
2.394896080247842
 30
0.0
 10
2.05796990047136
 20
2.394896080247842
 30
0.0
  0
HATCH
  5
C9
330
1F
100
AcDbEntity
  8
Layer 1
 62
   254
420
 13358815
100
AcDbHatch
 10
0.0
 20
0.0
 30
0.0
210
0.0
220
0.0
230
1.0
  2
SOLID
 70
     1
 71
     0
 91
        1
 92
        1
 93
        1
 72
     4
 94
        3
 73
     0
 74
     1
 95
       17
 96
       13
 40
0.0
 40
0.0
 40
0.0
 40
0.0
 40
1.0
 40
1.0
 40
1.0
 40
2.0
 40
2.0
 40
2.0
 40
3.0
 40
3.0
 40
3.0
 40
4.0
 40
4.0
 40
4.0
 40
4.0
 10
2.05796990047136
 20
2.394896080247842
 10
2.050085671053087
 20
2.394896080247842
 10
2.043687905941144
 20
2.405872610173345
 10
2.043687905941144
 20
2.419404267080457
 10
2.043687905941144
 20
2.432950134927422
 10
2.050085671053087
 20
2.443912453913122
 10
2.05796990047136
 20
2.443912453913122
 10
2.065865601285623
 20
2.443912453913122
 10
2.072263263753434
 20
2.432950134927422
 10
2.072263263753434
 20
2.419404267080457
 10
2.072263263753434
 20
2.405872610173345
 10
2.065865601285623
 20
2.394896080247842
 10
2.05796990047136
 20
2.394896080247842
 97
        0
 97
        0
 75
     2
 76
     1
 98
        0
  0
SPLINE
  5
CA
330
1F
100
AcDbEntity
  8
Layer 1
 62
     7
420
 16777215
370
    35
100
AcDbSpline
210
0.0
220
0.0
230
1.0
 70
    11
 71
     3
 72
    17
 73
    13
 74
     0
 42
0.0000000001
 43
0.0000000001
 12
1.0
 22
0.0
 32
0.0
 13
1.0
 23
0.0
 33
0.0
 40
0.0
 40
0.0
 40
0.0
 40
0.0
 40
1.0
 40
1.0
 40
1.0
 40
2.0
 40
2.0
 40
2.0
 40
3.0
 40
3.0
 40
3.0
 40
4.0
 40
4.0
 40
4.0
 40
4.0
 10
2.244417431054798
 20
2.369998513663834
 30
0.0
 10
2.236536043824496
 20
2.369998513663834
 30
0.0
 10
2.230138278712552
 20
2.380975043589337
 30
0.0
 10
2.230138278712552
 20
2.394506700496448
 30
0.0
 10
2.230138278712552
 20
2.408052568343414
 30
0.0
 10
2.236536043824496
 20
2.419014887329114
 30
0.0
 10
2.244417431054798
 20
2.419014887329114
 30
0.0
 10
2.252313136579156
 20
2.419014887329114
 30
0.0
 10
2.258710794336871
 20
2.408052568343414
 30
0.0
 10
2.258710794336871
 20
2.394506700496448
 30
0.0
 10
2.258710794336871
 20
2.380975043589337
 30
0.0
 10
2.252313136579156
 20
2.369998513663834
 30
0.0
 10
2.244417431054798
 20
2.369998513663834
 30
0.0
  0
HATCH
  5
CB
330
1F
100
AcDbEntity
  8
Layer 1
 62
     7
420
 16777215
100
AcDbHatch
 10
0.0
 20
0.0
 30
0.0
210
0.0
220
0.0
230
1.0
  2
SOLID
 70
     1
 71
     0
 91
        1
 92
        1
 93
        1
 72
     4
 94
        3
 73
     0
 74
     1
 95
       17
 96
       13
 40
0.0
 40
0.0
 40
0.0
 40
0.0
 40
1.0
 40
1.0
 40
1.0
 40
2.0
 40
2.0
 40
2.0
 40
3.0
 40
3.0
 40
3.0
 40
4.0
 40
4.0
 40
4.0
 40
4.0
 10
2.244417431054798
 20
2.369998513663834
 10
2.236536043824496
 20
2.369998513663834
 10
2.230138278712552
 20
2.380975043589337
 10
2.230138278712552
 20
2.394506700496448
 10
2.230138278712552
 20
2.408052568343414
 10
2.236536043824496
 20
2.419014887329114
 10
2.244417431054798
 20
2.419014887329114
 10
2.252313136579156
 20
2.419014887329114
 10
2.258710794336871
 20
2.408052568343414
 10
2.258710794336871
 20
2.394506700496448
 10
2.258710794336871
 20
2.380975043589337
 10
2.252313136579156
 20
2.369998513663834
 10
2.244417431054798
 20
2.369998513663834
 97
        0
 97
        0
 75
     2
 76
     1
 98
        0
  0
SPLINE
  5
CC
330
1F
100
AcDbEntity
  8
Layer 1
 62
     7
420
 16777215
370
    15
100
AcDbSpline
210
0.0
220
0.0
230
1.0
 70
    11
 71
     3
 72
    17
 73
    13
 74
     0
 42
0.0000000001
 43
0.0000000001
 12
1.0
 22
0.0
 32
0.0
 13
1.0
 23
0.0
 33
0.0
 40
0.0
 40
0.0
 40
0.0
 40
0.0
 40
1.0
 40
1.0
 40
1.0
 40
2.0
 40
2.0
 40
2.0
 40
3.0
 40
3.0
 40
3.0
 40
4.0
 40
4.0
 40
4.0
 40
4.0
 10
2.236675311034837
 20
2.370552878560425
 30
0.0
 10
2.228776870676736
 20
2.370552878560425
 30
0.0
 10
2.222379105564793
 20
2.381532112430705
 30
0.0
 10
2.222379105564793
 20
2.395060927149896
 30
0.0
 10
2.222379105564793
 20
2.408606794996811
 30
0.0
 10
2.228776870676736
 20
2.419569113982511
 30
0.0
 10
2.236675311034837
 20
2.419569113982511
 30
0.0
 10
2.244570909204993
 20
2.419569113982511
 30
0.0
 10
2.250968674316911
 20
2.408606794996811
 30
0.0
 10
2.250968674316911
 20
2.395060927149896
 30
0.0
 10
2.250968674316911
 20
2.381532112430705
 30
0.0
 10
2.244570909204993
 20
2.370552878560425
 30
0.0
 10
2.236675311034837
 20
2.370552878560425
 30
0.0
  0
HATCH
  5
CD
330
1F
100
AcDbEntity
  8
Layer 1
 62
   254
420
 13358815
100
AcDbHatch
 10
0.0
 20
0.0
 30
0.0
210
0.0
220
0.0
230
1.0
  2
SOLID
 70
     1
 71
     0
 91
        1
 92
        1
 93
        1
 72
     4
 94
        3
 73
     0
 74
     1
 95
       17
 96
       13
 40
0.0
 40
0.0
 40
0.0
 40
0.0
 40
1.0
 40
1.0
 40
1.0
 40
2.0
 40
2.0
 40
2.0
 40
3.0
 40
3.0
 40
3.0
 40
4.0
 40
4.0
 40
4.0
 40
4.0
 10
2.236675311034837
 20
2.370552878560425
 10
2.228776870676736
 20
2.370552878560425
 10
2.222379105564793
 20
2.381532112430705
 10
2.222379105564793
 20
2.395060927149896
 10
2.222379105564793
 20
2.408606794996811
 10
2.228776870676736
 20
2.419569113982511
 10
2.236675311034837
 20
2.419569113982511
 10
2.244570909204993
 20
2.419569113982511
 10
2.250968674316911
 20
2.408606794996811
 10
2.250968674316911
 20
2.395060927149896
 10
2.250968674316911
 20
2.381532112430705
 10
2.244570909204993
 20
2.370552878560425
 10
2.236675311034837
 20
2.370552878560425
 97
        0
 97
        0
 75
     2
 76
     1
 98
        0
  0
SPLINE
  5
CE
330
1F
100
AcDbEntity
  8
Layer 1
 62
     7
420
 16777215
370
    35
100
AcDbSpline
210
0.0
220
0.0
230
1.0
 70
    11
 71
     3
 72
    17
 73
    13
 74
     0
 42
0.0000000001
 43
0.0000000001
 12
1.0
 22
0.0
 32
0.0
 13
1.0
 23
0.0
 33
0.0
 40
0.0
 40
0.0
 40
0.0
 40
0.0
 40
1.0
 40
1.0
 40
1.0
 40
2.0
 40
2.0
 40
2.0
 40
3.0
 40
3.0
 40
3.0
 40
4.0
 40
4.0
 40
4.0
 40
4.0
 10
2.243959838792256
 20
2.093231933890113
 30
0.0
 10
2.2360642406221
 20
2.093231933890113
 30
0.0
 10
2.229680686450011
 20
2.104208463815616
 30
0.0
 10
2.229680686450011
 20
2.117754331662582
 30
0.0
 10
2.229680686450011
 20
2.131285988569693
 30
0.0
 10
2.2360642406221
 20
2.142262518495247
 30
0.0
 10
2.243959838792256
 20
2.142262518495247
 30
0.0
 10
2.251855436962387
 20
2.142262518495247
 30
0.0
 10
2.258253309578599
 20
2.131285988569693
 30
0.0
 10
2.258253309578599
 20
2.117754331662582
 30
0.0
 10
2.258253309578599
 20
2.104208463815616
 30
0.0
 10
2.251855436962387
 20
2.093231933890113
 30
0.0
 10
2.243959838792256
 20
2.093231933890113
 30
0.0
  0
HATCH
  5
CF
330
1F
100
AcDbEntity
  8
Layer 1
 62
     7
420
 16777215
100
AcDbHatch
 10
0.0
 20
0.0
 30
0.0
210
0.0
220
0.0
230
1.0
  2
SOLID
 70
     1
 71
     0
 91
        1
 92
        1
 93
        1
 72
     4
 94
        3
 73
     0
 74
     1
 95
       17
 96
       13
 40
0.0
 40
0.0
 40
0.0
 40
0.0
 40
1.0
 40
1.0
 40
1.0
 40
2.0
 40
2.0
 40
2.0
 40
3.0
 40
3.0
 40
3.0
 40
4.0
 40
4.0
 40
4.0
 40
4.0
 10
2.243959838792256
 20
2.093231933890113
 10
2.2360642406221
 20
2.093231933890113
 10
2.229680686450011
 20
2.104208463815616
 10
2.229680686450011
 20
2.117754331662582
 10
2.229680686450011
 20
2.131285988569693
 10
2.2360642406221
 20
2.142262518495247
 10
2.243959838792256
 20
2.142262518495247
 10
2.251855436962387
 20
2.142262518495247
 10
2.258253309578599
 20
2.131285988569693
 10
2.258253309578599
 20
2.117754331662582
 10
2.258253309578599
 20
2.104208463815616
 10
2.251855436962387
 20
2.093231933890113
 10
2.243959838792256
 20
2.093231933890113
 97
        0
 97
        0
 75
     2
 76
     1
 98
        0
  0
SPLINE
  5
D0
330
1F
100
AcDbEntity
  8
Layer 1
 62
     7
420
 16777215
370
    15
100
AcDbSpline
210
0.0
220
0.0
230
1.0
 70
    11
 71
     3
 72
    17
 73
    13
 74
     0
 42
0.0000000001
 43
0.0000000001
 12
1.0
 22
0.0
 32
0.0
 13
1.0
 23
0.0
 33
0.0
 40
0.0
 40
0.0
 40
0.0
 40
0.0
 40
1.0
 40
1.0
 40
1.0
 40
2.0
 40
2.0
 40
2.0
 40
3.0
 40
3.0
 40
3.0
 40
4.0
 40
4.0
 40
4.0
 40
4.0
 10
2.236214876584325
 20
2.09378616054351
 30
0.0
 10
2.228319278414195
 20
2.09378616054351
 30
0.0
 10
2.221921513302252
 20
2.104765532656984
 30
0.0
 10
2.221921513302252
 20
2.118297189564146
 30
0.0
 10
2.221921513302252
 20
2.13184021522314
 30
0.0
 10
2.228319278414195
 20
2.142816745148644
 30
0.0
 10
2.236214876584325
 20
2.142816745148644
 30
0.0
 10
2.244113316942427
 20
2.142816745148644
 30
0.0
 10
2.25051108205437
 20
2.13184021522314
 30
0.0
 10
2.25051108205437
 20
2.118297189564146
 30
0.0
 10
2.25051108205437
 20
2.104765532656984
 30
0.0
 10
2.244113316942427
 20
2.09378616054351
 30
0.0
 10
2.236214876584325
 20
2.09378616054351
 30
0.0
  0
HATCH
  5
D1
330
1F
100
AcDbEntity
  8
Layer 1
 62
   254
420
 13358815
100
AcDbHatch
 10
0.0
 20
0.0
 30
0.0
210
0.0
220
0.0
230
1.0
  2
SOLID
 70
     1
 71
     0
 91
        1
 92
        1
 93
        1
 72
     4
 94
        3
 73
     0
 74
     1
 95
       17
 96
       13
 40
0.0
 40
0.0
 40
0.0
 40
0.0
 40
1.0
 40
1.0
 40
1.0
 40
2.0
 40
2.0
 40
2.0
 40
3.0
 40
3.0
 40
3.0
 40
4.0
 40
4.0
 40
4.0
 40
4.0
 10
2.236214876584325
 20
2.09378616054351
 10
2.228319278414195
 20
2.09378616054351
 10
2.221921513302252
 20
2.104765532656984
 10
2.221921513302252
 20
2.118297189564146
 10
2.221921513302252
 20
2.13184021522314
 10
2.228319278414195
 20
2.142816745148644
 10
2.236214876584325
 20
2.142816745148644
 10
2.244113316942427
 20
2.142816745148644
 10
2.25051108205437
 20
2.13184021522314
 10
2.25051108205437
 20
2.118297189564146
 10
2.25051108205437
 20
2.104765532656984
 10
2.244113316942427
 20
2.09378616054351
 10
2.236214876584325
 20
2.09378616054351
 97
        0
 97
        0
 75
     2
 76
     1
 98
        0
  0
SPLINE
  5
D2
330
1F
100
AcDbEntity
  8
Layer 1
 62
     7
420
 16777215
370
    35
100
AcDbSpline
210
0.0
220
0.0
230
1.0
 70
    11
 71
     3
 72
    17
 73
    13
 74
     0
 42
0.0000000001
 43
0.0000000001
 12
1.0
 22
0.0
 32
0.0
 13
1.0
 23
0.0
 33
0.0
 40
0.0
 40
0.0
 40
0.0
 40
0.0
 40
1.0
 40
1.0
 40
1.0
 40
2.0
 40
2.0
 40
2.0
 40
3.0
 40
3.0
 40
3.0
 40
4.0
 40
4.0
 40
4.0
 40
4.0
 10
2.061840960481327
 20
2.101670389961782
 30
0.0
 10
2.053956833406371
 20
2.101670389961782
 30
0.0
 10
2.047558965951137
 20
2.112646919887286
 30
0.0
 10
2.047558965951137
 20
2.126178576794448
 30
0.0
 10
2.047558965951137
 20
2.139710366113124
 30
0.0
 10
2.053956833406371
 20
2.150686763627062
 30
0.0
 10
2.061840960481327
 20
2.150686763627062
 30
0.0
 10
2.069736558651458
 20
2.150686763627062
 30
0.0
 10
2.076134323763401
 20
2.139710366113124
 30
0.0
 10
2.076134323763401
 20
2.126178576794448
 30
0.0
 10
2.076134323763401
 20
2.112646919887286
 30
0.0
 10
2.069736558651458
 20
2.101670389961782
 30
0.0
 10
2.061840960481327
 20
2.101670389961782
 30
0.0
  0
HATCH
  5
D3
330
1F
100
AcDbEntity
  8
Layer 1
 62
     7
420
 16777215
100
AcDbHatch
 10
0.0
 20
0.0
 30
0.0
210
0.0
220
0.0
230
1.0
  2
SOLID
 70
     1
 71
     0
 91
        1
 92
        1
 93
        1
 72
     4
 94
        3
 73
     0
 74
     1
 95
       17
 96
       13
 40
0.0
 40
0.0
 40
0.0
 40
0.0
 40
1.0
 40
1.0
 40
1.0
 40
2.0
 40
2.0
 40
2.0
 40
3.0
 40
3.0
 40
3.0
 40
4.0
 40
4.0
 40
4.0
 40
4.0
 10
2.061840960481327
 20
2.101670389961782
 10
2.053956833406371
 20
2.101670389961782
 10
2.047558965951137
 20
2.112646919887286
 10
2.047558965951137
 20
2.126178576794448
 10
2.047558965951137
 20
2.139710366113124
 10
2.053956833406371
 20
2.150686763627062
 10
2.061840960481327
 20
2.150686763627062
 10
2.069736558651458
 20
2.150686763627062
 10
2.076134323763401
 20
2.139710366113124
 10
2.076134323763401
 20
2.126178576794448
 10
2.076134323763401
 20
2.112646919887286
 10
2.069736558651458
 20
2.101670389961782
 10
2.061840960481327
 20
2.101670389961782
 97
        0
 97
        0
 75
     2
 76
     1
 98
        0
  0
SPLINE
  5
D4
330
1F
100
AcDbEntity
  8
Layer 1
 62
     7
420
 16777215
370
    15
100
AcDbSpline
210
0.0
220
0.0
230
1.0
 70
    11
 71
     3
 72
    17
 73
    13
 74
     0
 42
0.0000000001
 43
0.0000000001
 12
1.0
 22
0.0
 32
0.0
 13
1.0
 23
0.0
 33
0.0
 40
0.0
 40
0.0
 40
0.0
 40
0.0
 40
1.0
 40
1.0
 40
1.0
 40
2.0
 40
2.0
 40
2.0
 40
3.0
 40
3.0
 40
3.0
 40
4.0
 40
4.0
 40
4.0
 40
4.0
 10
2.054095998273422
 20
2.10222461661523
 30
0.0
 10
2.046214611043095
 20
2.10222461661523
 30
0.0
 10
2.039802736977081
 20
2.113203988728704
 30
0.0
 10
2.039802736977081
 20
2.126732803447845
 30
0.0
 10
2.039802736977081
 20
2.140264460354956
 30
0.0
 10
2.046214611043095
 20
2.151240990280459
 30
0.0
 10
2.054095998273422
 20
2.151240990280459
 30
0.0
 10
2.061994438631498
 20
2.151240990280459
 30
0.0
 10
2.068392203743441
 20
2.140264460354956
 30
0.0
 10
2.068392203743441
 20
2.126732803447845
 30
0.0
 10
2.068392203743441
 20
2.113203988728704
 30
0.0
 10
2.061994438631498
 20
2.10222461661523
 30
0.0
 10
2.054095998273422
 20
2.10222461661523
 30
0.0
  0
HATCH
  5
D5
330
1F
100
AcDbEntity
  8
Layer 1
 62
   254
420
 13358815
100
AcDbHatch
 10
0.0
 20
0.0
 30
0.0
210
0.0
220
0.0
230
1.0
  2
SOLID
 70
     1
 71
     0
 91
        1
 92
        1
 93
        1
 72
     4
 94
        3
 73
     0
 74
     1
 95
       17
 96
       13
 40
0.0
 40
0.0
 40
0.0
 40
0.0
 40
1.0
 40
1.0
 40
1.0
 40
2.0
 40
2.0
 40
2.0
 40
3.0
 40
3.0
 40
3.0
 40
4.0
 40
4.0
 40
4.0
 40
4.0
 10
2.054095998273422
 20
2.10222461661523
 10
2.046214611043095
 20
2.10222461661523
 10
2.039802736977081
 20
2.113203988728704
 10
2.039802736977081
 20
2.126732803447845
 10
2.039802736977081
 20
2.140264460354956
 10
2.046214611043095
 20
2.151240990280459
 10
2.054095998273422
 20
2.151240990280459
 10
2.061994438631498
 20
2.151240990280459
 10
2.068392203743441
 20
2.140264460354956
 10
2.068392203743441
 20
2.126732803447845
 10
2.068392203743441
 20
2.113203988728704
 10
2.061994438631498
 20
2.10222461661523
 10
2.054095998273422
 20
2.10222461661523
 97
        0
 97
        0
 75
     2
 76
     1
 98
        0
  0
SPLINE
  5
D6
330
1F
100
AcDbEntity
  8
Layer 1
 62
     7
420
 16777215
370
    35
100
AcDbSpline
210
0.0
220
0.0
230
1.0
 70
    11
 71
     3
 72
    17
 73
    13
 74
     0
 42
0.0000000001
 43
0.0000000001
 12
1.0
 22
0.0
 32
0.0
 13
1.0
 23
0.0
 33
0.0
 40
0.0
 40
0.0
 40
0.0
 40
0.0
 40
1.0
 40
1.0
 40
1.0
 40
2.0
 40
2.0
 40
2.0
 40
3.0
 40
3.0
 40
3.0
 40
4.0
 40
4.0
 40
4.0
 40
4.0
 10
2.061840960481327
 20
1.842624852157415
 30
0.0
 10
2.053956833406371
 20
1.842624852157415
 30
0.0
 10
2.047558965951137
 20
1.853604224270889
 30
0.0
 10
2.047558965951137
 20
1.867147249929884
 30
0.0
 10
2.047558965951137
 20
1.880678906836996
 30
0.0
 10
2.053956833406371
 20
1.891655436762499
 30
0.0
 10
2.061840960481327
 20
1.891655436762499
 30
0.0
 10
2.069736558651458
 20
1.891655436762499
 30
0.0
 10
2.076134323763401
 20
1.880678906836996
 30
0.0
 10
2.076134323763401
 20
1.867147249929884
 30
0.0
 10
2.076134323763401
 20
1.853604224270889
 30
0.0
 10
2.069736558651458
 20
1.842624852157415
 30
0.0
 10
2.061840960481327
 20
1.842624852157415
 30
0.0
  0
HATCH
  5
D7
330
1F
100
AcDbEntity
  8
Layer 1
 62
     7
420
 16777215
100
AcDbHatch
 10
0.0
 20
0.0
 30
0.0
210
0.0
220
0.0
230
1.0
  2
SOLID
 70
     1
 71
     0
 91
        1
 92
        1
 93
        1
 72
     4
 94
        3
 73
     0
 74
     1
 95
       17
 96
       13
 40
0.0
 40
0.0
 40
0.0
 40
0.0
 40
1.0
 40
1.0
 40
1.0
 40
2.0
 40
2.0
 40
2.0
 40
3.0
 40
3.0
 40
3.0
 40
4.0
 40
4.0
 40
4.0
 40
4.0
 10
2.061840960481327
 20
1.842624852157415
 10
2.053956833406371
 20
1.842624852157415
 10
2.047558965951137
 20
1.853604224270889
 10
2.047558965951137
 20
1.867147249929884
 10
2.047558965951137
 20
1.880678906836996
 10
2.053956833406371
 20
1.891655436762499
 10
2.061840960481327
 20
1.891655436762499
 10
2.069736558651458
 20
1.891655436762499
 10
2.076134323763401
 20
1.880678906836996
 10
2.076134323763401
 20
1.867147249929884
 10
2.076134323763401
 20
1.853604224270889
 10
2.069736558651458
 20
1.842624852157415
 10
2.061840960481327
 20
1.842624852157415
 97
        0
 97
        0
 75
     2
 76
     1
 98
        0
  0
SPLINE
  5
D8
330
1F
100
AcDbEntity
  8
Layer 1
 62
     7
420
 16777215
370
    15
100
AcDbSpline
210
0.0
220
0.0
230
1.0
 70
    11
 71
     3
 72
    17
 73
    13
 74
     0
 42
0.0000000001
 43
0.0000000001
 12
1.0
 22
0.0
 32
0.0
 13
1.0
 23
0.0
 33
0.0
 40
0.0
 40
0.0
 40
0.0
 40
0.0
 40
1.0
 40
1.0
 40
1.0
 40
2.0
 40
2.0
 40
2.0
 40
3.0
 40
3.0
 40
3.0
 40
4.0
 40
4.0
 40
4.0
 40
4.0
 10
2.054095998273422
 20
1.843181920998783
 30
0.0
 10
2.046214611043095
 20
1.843181920998783
 30
0.0
 10
2.039802736977081
 20
1.854158450924286
 30
0.0
 10
2.039802736977081
 20
1.867690107831448
 30
0.0
 10
2.039802736977081
 20
1.881233133490443
 30
0.0
 10
2.046214611043095
 20
1.892198294664063
 30
0.0
 10
2.054095998273422
 20
1.892198294664063
 30
0.0
 10
2.061994438631498
 20
1.892198294664063
 30
0.0
 10
2.068392203743441
 20
1.881233133490443
 30
0.0
 10
2.068392203743441
 20
1.867690107831448
 30
0.0
 10
2.068392203743441
 20
1.854158450924286
 30
0.0
 10
2.061994438631498
 20
1.843181920998783
 30
0.0
 10
2.054095998273422
 20
1.843181920998783
 30
0.0
  0
HATCH
  5
D9
330
1F
100
AcDbEntity
  8
Layer 1
 62
   254
420
 13358815
100
AcDbHatch
 10
0.0
 20
0.0
 30
0.0
210
0.0
220
0.0
230
1.0
  2
SOLID
 70
     1
 71
     0
 91
        1
 92
        1
 93
        1
 72
     4
 94
        3
 73
     0
 74
     1
 95
       17
 96
       13
 40
0.0
 40
0.0
 40
0.0
 40
0.0
 40
1.0
 40
1.0
 40
1.0
 40
2.0
 40
2.0
 40
2.0
 40
3.0
 40
3.0
 40
3.0
 40
4.0
 40
4.0
 40
4.0
 40
4.0
 10
2.054095998273422
 20
1.843181920998783
 10
2.046214611043095
 20
1.843181920998783
 10
2.039802736977081
 20
1.854158450924286
 10
2.039802736977081
 20
1.867690107831448
 10
2.039802736977081
 20
1.881233133490443
 10
2.046214611043095
 20
1.892198294664063
 10
2.054095998273422
 20
1.892198294664063
 10
2.061994438631498
 20
1.892198294664063
 10
2.068392203743441
 20
1.881233133490443
 10
2.068392203743441
 20
1.867690107831448
 10
2.068392203743441
 20
1.854158450924286
 10
2.061994438631498
 20
1.843181920998783
 10
2.054095998273422
 20
1.843181920998783
 97
        0
 97
        0
 75
     2
 76
     1
 98
        0
  0
SPLINE
  5
DA
330
1F
100
AcDbEntity
  8
Layer 1
 62
     7
420
 16777215
370
    35
100
AcDbSpline
210
0.0
220
0.0
230
1.0
 70
    11
 71
     3
 72
    17
 73
    13
 74
     0
 42
0.0000000001
 43
0.0000000001
 12
1.0
 22
0.0
 32
0.0
 13
1.0
 23
0.0
 33
0.0
 40
0.0
 40
0.0
 40
0.0
 40
0.0
 40
1.0
 40
1.0
 40
1.0
 40
2.0
 40
2.0
 40
2.0
 40
3.0
 40
3.0
 40
3.0
 40
4.0
 40
4.0
 40
4.0
 40
4.0
 10
2.2438632044014
 20
1.813037675429162
 30
0.0
 10
2.235978974983128
 20
1.813037675429162
 30
0.0
 10
2.229581209871185
 20
1.824002836602782
 30
0.0
 10
2.229581209871185
 20
1.837545862261777
 30
0.0
 10
2.229581209871185
 20
1.851077519168939
 30
0.0
 10
2.235978974983128
 20
1.862054049094442
 30
0.0
 10
2.2438632044014
 20
1.862054049094442
 30
0.0
 10
2.251758802571531
 20
1.862054049094442
 30
0.0
 10
2.258156567683475
 20
1.851077519168939
 30
0.0
 10
2.258156567683475
 20
1.837545862261777
 30
0.0
 10
2.258156567683475
 20
1.824002836602782
 30
0.0
 10
2.251758802571531
 20
1.813037675429162
 30
0.0
 10
2.2438632044014
 20
1.813037675429162
 30
0.0
  0
HATCH
  5
DB
330
1F
100
AcDbEntity
  8
Layer 1
 62
     7
420
 16777215
100
AcDbHatch
 10
0.0
 20
0.0
 30
0.0
210
0.0
220
0.0
230
1.0
  2
SOLID
 70
     1
 71
     0
 91
        1
 92
        1
 93
        1
 72
     4
 94
        3
 73
     0
 74
     1
 95
       17
 96
       13
 40
0.0
 40
0.0
 40
0.0
 40
0.0
 40
1.0
 40
1.0
 40
1.0
 40
2.0
 40
2.0
 40
2.0
 40
3.0
 40
3.0
 40
3.0
 40
4.0
 40
4.0
 40
4.0
 40
4.0
 10
2.2438632044014
 20
1.813037675429162
 10
2.235978974983128
 20
1.813037675429162
 10
2.229581209871185
 20
1.824002836602782
 10
2.229581209871185
 20
1.837545862261777
 10
2.229581209871185
 20
1.851077519168939
 10
2.235978974983128
 20
1.862054049094442
 10
2.2438632044014
 20
1.862054049094442
 10
2.251758802571531
 20
1.862054049094442
 10
2.258156567683475
 20
1.851077519168939
 10
2.258156567683475
 20
1.837545862261777
 10
2.258156567683475
 20
1.824002836602782
 10
2.251758802571531
 20
1.813037675429162
 10
2.2438632044014
 20
1.813037675429162
 97
        0
 97
        0
 75
     2
 76
     1
 98
        0
  0
SPLINE
  5
DC
330
1F
100
AcDbEntity
  8
Layer 1
 62
     7
420
 16777215
370
    15
100
AcDbSpline
210
0.0
220
0.0
230
1.0
 70
    11
 71
     3
 72
    17
 73
    13
 74
     0
 42
0.0000000001
 43
0.0000000001
 12
1.0
 22
0.0
 32
0.0
 13
1.0
 23
0.0
 33
0.0
 40
0.0
 40
0.0
 40
0.0
 40
0.0
 40
1.0
 40
1.0
 40
1.0
 40
2.0
 40
2.0
 40
2.0
 40
3.0
 40
3.0
 40
3.0
 40
4.0
 40
4.0
 40
4.0
 40
4.0
 10
2.23611824219347
 20
1.813580533330726
 30
0.0
 10
2.228236854963168
 20
1.813580533330726
 30
0.0
 10
2.221839089851225
 20
1.82455706325623
 30
0.0
 10
2.221839089851225
 20
1.838088720163341
 30
0.0
 10
2.221839089851225
 20
1.851631745822336
 30
0.0
 10
2.228236854963168
 20
1.86261111793581
 30
0.0
 10
2.23611824219347
 20
1.86261111793581
 30
0.0
 10
2.244016682551571
 20
1.86261111793581
 30
0.0
 10
2.250411605475544
 20
1.851631745822336
 30
0.0
 10
2.250411605475544
 20
1.838088720163341
 30
0.0
 10
2.250411605475544
 20
1.82455706325623
 30
0.0
 10
2.244016682551571
 20
1.813580533330726
 30
0.0
 10
2.23611824219347
 20
1.813580533330726
 30
0.0
  0
HATCH
  5
DD
330
1F
100
AcDbEntity
  8
Layer 1
 62
   254
420
 13358815
100
AcDbHatch
 10
0.0
 20
0.0
 30
0.0
210
0.0
220
0.0
230
1.0
  2
SOLID
 70
     1
 71
     0
 91
        1
 92
        1
 93
        1
 72
     4
 94
        3
 73
     0
 74
     1
 95
       17
 96
       13
 40
0.0
 40
0.0
 40
0.0
 40
0.0
 40
1.0
 40
1.0
 40
1.0
 40
2.0
 40
2.0
 40
2.0
 40
3.0
 40
3.0
 40
3.0
 40
4.0
 40
4.0
 40
4.0
 40
4.0
 10
2.23611824219347
 20
1.813580533330726
 10
2.228236854963168
 20
1.813580533330726
 10
2.221839089851225
 20
1.82455706325623
 10
2.221839089851225
 20
1.838088720163341
 10
2.221839089851225
 20
1.851631745822336
 10
2.228236854963168
 20
1.86261111793581
 10
2.23611824219347
 20
1.86261111793581
 10
2.244016682551571
 20
1.86261111793581
 10
2.250411605475544
 20
1.851631745822336
 10
2.250411605475544
 20
1.838088720163341
 10
2.250411605475544
 20
1.82455706325623
 10
2.244016682551571
 20
1.813580533330726
 10
2.23611824219347
 20
1.813580533330726
 97
        0
 97
        0
 75
     2
 76
     1
 98
        0
  0
SPLINE
  5
DE
330
1F
100
AcDbEntity
  8
Layer 1
 62
     7
420
 16777215
370
    35
100
AcDbSpline
210
0.0
220
0.0
230
1.0
 70
    11
 71
     3
 72
    17
 73
    13
 74
     0
 42
0.0000000001
 43
0.0000000001
 12
1.0
 22
0.0
 32
0.0
 13
1.0
 23
0.0
 33
0.0
 40
0.0
 40
0.0
 40
0.0
 40
0.0
 40
1.0
 40
1.0
 40
1.0
 40
2.0
 40
2.0
 40
2.0
 40
3.0
 40
3.0
 40
3.0
 40
4.0
 40
4.0
 40
4.0
 40
4.0
 10
2.24939978655958
 20
1.545653158131902
 30
0.0
 10
2.241504188389449
 20
1.545653158131902
 30
0.0
 10
2.235106423277494
 20
1.556615477117601
 30
0.0
 10
2.235106423277494
 20
1.570161344964567
 30
0.0
 10
2.235106423277494
 20
1.583693120237058
 30
0.0
 10
2.241504188389449
 20
1.594669531797182
 30
0.0
 10
2.24939978655958
 20
1.594669531797182
 30
0.0
 10
2.257295384729711
 20
1.594669531797182
 30
0.0
 10
2.263693149841654
 20
1.583693120237058
 30
0.0
 10
2.263693149841654
 20
1.570161344964567
 30
0.0
 10
2.263693149841654
 20
1.556615477117601
 30
0.0
 10
2.257295384729711
 20
1.545653158131902
 30
0.0
 10
2.24939978655958
 20
1.545653158131902
 30
0.0
  0
HATCH
  5
DF
330
1F
100
AcDbEntity
  8
Layer 1
 62
     7
420
 16777215
100
AcDbHatch
 10
0.0
 20
0.0
 30
0.0
210
0.0
220
0.0
230
1.0
  2
SOLID
 70
     1
 71
     0
 91
        1
 92
        1
 93
        1
 72
     4
 94
        3
 73
     0
 74
     1
 95
       17
 96
       13
 40
0.0
 40
0.0
 40
0.0
 40
0.0
 40
1.0
 40
1.0
 40
1.0
 40
2.0
 40
2.0
 40
2.0
 40
3.0
 40
3.0
 40
3.0
 40
4.0
 40
4.0
 40
4.0
 40
4.0
 10
2.24939978655958
 20
1.545653158131902
 10
2.241504188389449
 20
1.545653158131902
 10
2.235106423277494
 20
1.556615477117601
 10
2.235106423277494
 20
1.570161344964567
 10
2.235106423277494
 20
1.583693120237058
 10
2.241504188389449
 20
1.594669531797182
 10
2.24939978655958
 20
1.594669531797182
 10
2.257295384729711
 20
1.594669531797182
 10
2.263693149841654
 20
1.583693120237058
 10
2.263693149841654
 20
1.570161344964567
 10
2.263693149841654
 20
1.556615477117601
 10
2.257295384729711
 20
1.545653158131902
 10
2.24939978655958
 20
1.545653158131902
 97
        0
 97
        0
 75
     2
 76
     1
 98
        0
  0
SPLINE
  5
E0
330
1F
100
AcDbEntity
  8
Layer 1
 62
     7
420
 16777215
370
    15
100
AcDbSpline
210
0.0
220
0.0
230
1.0
 70
    11
 71
     3
 72
    17
 73
    13
 74
     0
 42
0.0000000001
 43
0.0000000001
 12
1.0
 22
0.0
 32
0.0
 13
1.0
 23
0.0
 33
0.0
 40
0.0
 40
0.0
 40
0.0
 40
0.0
 40
1.0
 40
1.0
 40
1.0
 40
2.0
 40
2.0
 40
2.0
 40
3.0
 40
3.0
 40
3.0
 40
4.0
 40
4.0
 40
4.0
 40
4.0
 10
2.241654931436617
 20
1.546207384785349
 30
0.0
 10
2.233759226181519
 20
1.546207384785349
 30
0.0
 10
2.227361461069576
 20
1.557172545958969
 30
0.0
 10
2.227361461069576
 20
1.570715571617964
 30
0.0
 10
2.227361461069576
 20
1.584247228525075
 30
0.0
 10
2.233759226181519
 20
1.595223758450579
 30
0.0
 10
2.241654931436617
 20
1.595223758450579
 30
0.0
 10
2.249553264709751
 20
1.595223758450579
 30
0.0
 10
2.255951137267806
 20
1.584247228525075
 30
0.0
 10
2.255951137267806
 20
1.570715571617964
 30
0.0
 10
2.255951137267806
 20
1.557172545958969
 30
0.0
 10
2.249553264709751
 20
1.546207384785349
 30
0.0
 10
2.241654931436617
 20
1.546207384785349
 30
0.0
  0
HATCH
  5
E1
330
1F
100
AcDbEntity
  8
Layer 1
 62
   254
420
 13358815
100
AcDbHatch
 10
0.0
 20
0.0
 30
0.0
210
0.0
220
0.0
230
1.0
  2
SOLID
 70
     1
 71
     0
 91
        1
 92
        1
 93
        1
 72
     4
 94
        3
 73
     0
 74
     1
 95
       17
 96
       13
 40
0.0
 40
0.0
 40
0.0
 40
0.0
 40
1.0
 40
1.0
 40
1.0
 40
2.0
 40
2.0
 40
2.0
 40
3.0
 40
3.0
 40
3.0
 40
4.0
 40
4.0
 40
4.0
 40
4.0
 10
2.241654931436617
 20
1.546207384785349
 10
2.233759226181519
 20
1.546207384785349
 10
2.227361461069576
 20
1.557172545958969
 10
2.227361461069576
 20
1.570715571617964
 10
2.227361461069576
 20
1.584247228525075
 10
2.233759226181519
 20
1.595223758450579
 10
2.241654931436617
 20
1.595223758450579
 10
2.249553264709751
 20
1.595223758450579
 10
2.255951137267806
 20
1.584247228525075
 10
2.255951137267806
 20
1.570715571617964
 10
2.255951137267806
 20
1.557172545958969
 10
2.249553264709751
 20
1.546207384785349
 10
2.241654931436617
 20
1.546207384785349
 97
        0
 97
        0
 75
     2
 76
     1
 98
        0
  0
SPLINE
  5
E2
330
1F
100
AcDbEntity
  8
Layer 1
 62
     7
420
 16777215
370
    15
100
AcDbSpline
210
0.0
220
0.0
230
1.0
 70
    11
 71
     3
 72
    17
 73
    13
 74
     0
 42
0.0000000001
 43
0.0000000001
 12
1.0
 22
0.0
 32
0.0
 13
1.0
 23
0.0
 33
0.0
 40
0.0
 40
0.0
 40
0.0
 40
0.0
 40
1.0
 40
1.0
 40
1.0
 40
2.0
 40
2.0
 40
2.0
 40
3.0
 40
3.0
 40
3.0
 40
4.0
 40
4.0
 40
4.0
 40
4.0
 10
2.144275780253325
 20
1.678062168913786
 30
0.0
 10
2.127538135320315
 20
1.678062168913786
 30
0.0
 10
2.113980898721466
 20
1.701334003981123
 30
0.0
 10
2.113980898721466
 20
1.730034418063951
 30
0.0
 10
2.113980898721466
 20
1.758749043086583
 30
0.0
 10
2.127538135320315
 20
1.782021001529503
 30
0.0
 10
2.144275780253325
 20
1.782021001529503
 30
0.0
 10
2.161024793938193
 20
1.782021001529503
 30
0.0
 10
2.174584872724987
 20
1.758749043086583
 30
0.0
 10
2.174584872724987
 20
1.730034418063951
 30
0.0
 10
2.174584872724987
 20
1.701334003981123
 30
0.0
 10
2.161024793938193
 20
1.678062168913786
 30
0.0
 10
2.144275780253325
 20
1.678062168913786
 30
0.0
  0
SPLINE
  5
E3
330
1F
100
AcDbEntity
  8
Layer 1
 62
     7
420
 16777215
370
    15
100
AcDbSpline
210
0.0
220
0.0
230
1.0
 70
    11
 71
     3
 72
    17
 73
    13
 74
     0
 42
0.0000000001
 43
0.0000000001
 12
1.0
 22
0.0
 32
0.0
 13
1.0
 23
0.0
 33
0.0
 40
0.0
 40
0.0
 40
0.0
 40
0.0
 40
1.0
 40
1.0
 40
1.0
 40
2.0
 40
2.0
 40
2.0
 40
3.0
 40
3.0
 40
3.0
 40
4.0
 40
4.0
 40
4.0
 40
4.0
 10
2.174584872724987
 20
1.730034418063951
 30
0.0
 10
2.174584872724987
 20
1.71307508246956
 30
0.0
 10
2.169838418821428
 20
1.698074014383868
 30
0.0
 10
2.162511258244523
 20
1.688581106576748
 30
0.0
 10
2.145787928914488
 20
1.688609528456406
 30
0.0
 10
2.13222774546456
 20
1.711867152583889
 30
0.0
 10
2.13222774546456
 20
1.740553478054911
 30
0.0
 10
2.13222774546456
 20
1.757512691321254
 30
0.0
 10
2.136988410307948
 20
1.77252809348253
 30
0.0
 10
2.144315570884853
 20
1.782006667214066
 30
0.0
 10
2.161039004878047
 20
1.781978245334408
 30
0.0
 10
2.174584872724987
 20
1.758720621206875
 30
0.0
 10
2.174584872724987
 20
1.730034418063951
 30
0.0
  0
HATCH
  5
E4
330
1F
100
AcDbEntity
  8
Layer 1
 62
    43
420
 15510365
100
AcDbHatch
 10
0.0
 20
0.0
 30
0.0
210
0.0
220
0.0
230
1.0
  2
SOLID
 70
     1
 71
     0
 91
        1
 92
        1
 93
        1
 72
     4
 94
        3
 73
     0
 74
     1
 95
       17
 96
       13
 40
0.0
 40
0.0
 40
0.0
 40
0.0
 40
1.0
 40
1.0
 40
1.0
 40
2.0
 40
2.0
 40
2.0
 40
3.0
 40
3.0
 40
3.0
 40
4.0
 40
4.0
 40
4.0
 40
4.0
 10
2.174584872724987
 20
1.730034418063951
 10
2.174584872724987
 20
1.71307508246956
 10
2.169838418821428
 20
1.698074014383868
 10
2.162511258244523
 20
1.688581106576748
 10
2.145787928914488
 20
1.688609528456406
 10
2.13222774546456
 20
1.711867152583889
 10
2.13222774546456
 20
1.740553478054911
 10
2.13222774546456
 20
1.757512691321254
 10
2.136988410307948
 20
1.77252809348253
 10
2.144315570884853
 20
1.782006667214066
 10
2.161039004878047
 20
1.781978245334408
 10
2.174584872724987
 20
1.758720621206875
 10
2.174584872724987
 20
1.730034418063951
 97
        0
 97
        0
 75
     2
 76
     1
 98
        0
  0
SPLINE
  5
E5
330
1F
100
AcDbEntity
  8
Layer 1
 62
     7
420
 16777215
370
    35
100
AcDbSpline
210
0.0
220
0.0
230
1.0
 70
    11
 71
     3
 72
    17
 73
    13
 74
     0
 42
0.0000000001
 43
0.0000000001
 12
1.0
 22
0.0
 32
0.0
 13
1.0
 23
0.0
 33
0.0
 40
0.0
 40
0.0
 40
0.0
 40
0.0
 40
1.0
 40
1.0
 40
1.0
 40
2.0
 40
2.0
 40
2.0
 40
3.0
 40
3.0
 40
3.0
 40
4.0
 40
4.0
 40
4.0
 40
4.0
 10
2.444842954273983
 20
4.056257265265016
 30
0.0
 10
2.431018439788431
 20
4.056257265265016
 30
0.0
 10
2.41980600826173
 20
4.061168566070629
 30
0.0
 10
2.41980600826173
 20
4.06723379519052
 30
0.0
 10
2.41980600826173
 20
4.073284813370593
 30
0.0
 10
2.431018439788431
 20
4.078198956364164
 30
0.0
 10
2.444842954273983
 20
4.078198956364164
 30
0.0
 10
2.458664402135759
 20
4.078198956364164
 30
0.0
 10
2.46987683366246
 20
4.073284813370593
 30
0.0
 10
2.46987683366246
 20
4.06723379519052
 30
0.0
 10
2.46987683366246
 20
4.061168566070629
 30
0.0
 10
2.458664402135759
 20
4.056257265265016
 30
0.0
 10
2.444842954273983
 20
4.056257265265016
 30
0.0
  0
HATCH
  5
E6
330
1F
100
AcDbEntity
  8
Layer 1
 62
     7
420
 16777215
100
AcDbHatch
 10
0.0
 20
0.0
 30
0.0
210
0.0
220
0.0
230
1.0
  2
SOLID
 70
     1
 71
     0
 91
        1
 92
        1
 93
        1
 72
     4
 94
        3
 73
     0
 74
     1
 95
       17
 96
       13
 40
0.0
 40
0.0
 40
0.0
 40
0.0
 40
1.0
 40
1.0
 40
1.0
 40
2.0
 40
2.0
 40
2.0
 40
3.0
 40
3.0
 40
3.0
 40
4.0
 40
4.0
 40
4.0
 40
4.0
 10
2.444842954273983
 20
4.056257265265016
 10
2.431018439788431
 20
4.056257265265016
 10
2.41980600826173
 20
4.061168566070629
 10
2.41980600826173
 20
4.06723379519052
 10
2.41980600826173
 20
4.073284813370593
 10
2.431018439788431
 20
4.078198956364164
 10
2.444842954273983
 20
4.078198956364164
 10
2.458664402135759
 20
4.078198956364164
 10
2.46987683366246
 20
4.073284813370593
 10
2.46987683366246
 20
4.06723379519052
 10
2.46987683366246
 20
4.061168566070629
 10
2.458664402135759
 20
4.056257265265016
 10
2.444842954273983
 20
4.056257265265016
 97
        0
 97
        0
 75
     2
 76
     1
 98
        0
  0
SPLINE
  5
E7
330
1F
100
AcDbEntity
  8
Layer 1
 62
     7
420
 16777215
370
    15
100
AcDbSpline
210
0.0
220
0.0
230
1.0
 70
    11
 71
     3
 72
    17
 73
    13
 74
     0
 42
0.0000000001
 43
0.0000000001
 12
1.0
 22
0.0
 32
0.0
 13
1.0
 23
0.0
 33
0.0
 40
0.0
 40
0.0
 40
0.0
 40
0.0
 40
1.0
 40
1.0
 40
1.0
 40
2.0
 40
2.0
 40
2.0
 40
3.0
 40
3.0
 40
3.0
 40
4.0
 40
4.0
 40
4.0
 40
4.0
 10
2.445243590559307
 20
4.060531915966205
 30
0.0
 10
2.4314078195398
 20
4.060531915966205
 30
0.0
 10
2.420209598952927
 20
4.065443216771819
 30
0.0
 10
2.420209598952927
 20
4.07149423495188
 30
0.0
 10
2.420209598952927
 20
4.077559464071757
 30
0.0
 10
2.4314078195398
 20
4.082473607065367
 30
0.0
 10
2.445243590559307
 20
4.082473607065367
 30
0.0
 10
2.459067992826956
 20
4.082473607065367
 30
0.0
 10
2.470280537214194
 20
4.077559464071757
 30
0.0
 10
2.470280537214194
 20
4.07149423495188
 30
0.0
 10
2.470280537214194
 20
4.065443216771819
 30
0.0
 10
2.459067992826956
 20
4.060531915966205
 30
0.0
 10
2.445243590559307
 20
4.060531915966205
 30
0.0
  0
HATCH
  5
E8
330
1F
100
AcDbEntity
  8
Layer 1
 62
   254
420
 13358815
100
AcDbHatch
 10
0.0
 20
0.0
 30
0.0
210
0.0
220
0.0
230
1.0
  2
SOLID
 70
     1
 71
     0
 91
        1
 92
        1
 93
        1
 72
     4
 94
        3
 73
     0
 74
     1
 95
       17
 96
       13
 40
0.0
 40
0.0
 40
0.0
 40
0.0
 40
1.0
 40
1.0
 40
1.0
 40
2.0
 40
2.0
 40
2.0
 40
3.0
 40
3.0
 40
3.0
 40
4.0
 40
4.0
 40
4.0
 40
4.0
 10
2.445243590559307
 20
4.060531915966205
 10
2.4314078195398
 20
4.060531915966205
 10
2.420209598952927
 20
4.065443216771819
 10
2.420209598952927
 20
4.07149423495188
 10
2.420209598952927
 20
4.077559464071757
 10
2.4314078195398
 20
4.082473607065367
 10
2.445243590559307
 20
4.082473607065367
 10
2.459067992826956
 20
4.082473607065367
 10
2.470280537214194
 20
4.077559464071757
 10
2.470280537214194
 20
4.07149423495188
 10
2.470280537214194
 20
4.065443216771819
 10
2.459067992826956
 20
4.060531915966205
 10
2.445243590559307
 20
4.060531915966205
 97
        0
 97
        0
 75
     2
 76
     1
 98
        0
  0
POLYLINE
  5
E9
330
1F
100
AcDbEntity
  8
Layer 1
 62
     7
420
 16777215
370
    20
100
AcDb2dPolyline
 66
     1
 10
0.0
 20
0.0
 30
0.0
  0
VERTEX
  5
EA
330
E9
100
AcDbEntity
  8
Layer 1
 62
     7
420
 16777215
370
    20
100
AcDbVertex
100
AcDb2dVertex
 10
2.296028722333226
 20
1.470852455237188
 30
0.0
  0
VERTEX
  5
EB
330
E9
100
AcDbEntity
  8
Layer 1
 62
     7
420
 16777215
370
    20
100
AcDbVertex
100
AcDb2dVertex
 10
2.316208256893333
 20
1.475098684058695
 30
0.0
  0
SEQEND
  5
EC
330
E9
100
AcDbEntity
  8
Layer 1
 62
     7
420
 16777215
370
    20
  0
SPLINE
  5
ED
330
1F
100
AcDbEntity
  8
Layer 1
 62
     7
420
 16777215
370
    20
100
AcDbSpline
210
0.0
220
0.0
230
1.0
 70
     8
 71
     3
 72
    17
 73
    13
 74
     0
 42
0.0000000001
 43
0.0000000001
 12
1.0
 22
0.0
 32
0.0
 13
1.0
 23
0.0
 33
0.0
 40
0.0
 40
0.0
 40
0.0
 40
0.0
 40
1.0
 40
1.0
 40
1.0
 40
2.0
 40
2.0
 40
2.0
 40
3.0
 40
3.0
 40
3.0
 40
4.0
 40
4.0
 40
4.0
 40
4.0
 10
2.401181150519152
 20
2.602148426743952
 30
0.0
 10
2.385250686968523
 20
2.586215121005353
 30
0.0
 10
2.332138720443936
 20
2.510789136758073
 30
0.0
 10
2.32045448571484
 20
2.496981787618198
 30
0.0
 10
2.308770250985769
 20
2.483171596290402
 30
0.0
 10
2.294960059657948
 20
2.445992935504364
 30
0.0
 10
2.294960059657948
 20
2.413074714479737
 30
0.0
 10
2.294960059657948
 20
2.380131052248493
 30
0.0
 10
2.293905607922473
 20
1.471906906972638
 30
0.0
 10
2.293905607922473
 20
1.471906906972638
 30
0.0
 10
2.293905607922473
 20
1.471906906972638
 30
0.0
 10
2.258850169066565
 20
1.433673794451149
 30
0.0
 10
2.258850169066565
 20
1.433673794451149
 30
0.0
  0
MTEXT
  5
EF
330
1F
100
AcDbEntity
  8
callout
 62
   250
420
  2236191
100
AcDbMText
 10
1.587154918246799
 20
0.4656342400444878
 30
0.0
 40
0.118
 41
0.0
 46
0.0
 71
     7
 72
     1
  1
\fHelvetica Neue LT Std 55 Roman|b0|i0|c0|p34;\W1;SIMPSON Strong-Tie\H0.068794;®\H0.118; ^C
 73
     1
 44
1.0
  0
MTEXT
  5
F0
330
1F
100
AcDbEntity
  8
callout
 62
   250
420
  2236191
100
AcDbMText
 10
1.255611949496799
 20
0.2656423780653211
 30
0.0
 40
0.118
 41
0.0
 46
0.0
 71
     7
 72
     1
  1
\fHelvetica Neue LT Std 55 Roman|b0|i0|c0|p34;\W1;H6 Stud-to-Top Plate Tie Down
 73
     1
 44
1.0
  0
MTEXT
  5
F1
330
1F
100
AcDbEntity
  8
callout
 62
   250
420
  2236191
100
AcDbMText
 10
1.224215189615885
 20
1.931838141547309
 30
0.0
 40
0.118
 41
0.0
 46
0.0
 71
     7
 72
     1
  1
\fHelvetica Neue LT Std 57 Condensed|b0|i0|c0|p34;\W1;H6
 73
     1
 44
1.0
  0
MTEXT
  5
F2
330
1F
100
AcDbEntity
  8
callout
 62
   250
420
  2236191
100
AcDbMText
 10
3.173149956597222
 20
3.145043505562676
 30
0.0
 40
0.118
 41
0.0
 46
0.0
 71
     7
 72
     1
  1
\fHelvetica Neue LT Std 57 Condensed|b0|i0|c0|p34;\W1;Top Plate
 73
     1
 44
1.0
  0
MTEXT
  5
F3
330
1F
100
AcDbEntity
  8
callout
 62
   250
420
  2236191
100
AcDbMText
 10
3.173155890570746
 20
2.705168790287442
 30
0.0
 40
0.118
 41
0.0
 46
0.0
 71
     7
 72
     1
  1
\fHelvetica Neue LT Std 57 Condensed|b0|i0|c0|p34;\W1;Stud
 73
     1
 44
1.0
  0
POLYLINE
  5
F4
330
1F
100
AcDbEntity
  8
callout
 62
   250
420
  2236191
370
    18
100
AcDb2dPolyline
 66
     1
 10
0.0
 20
0.0
 30
0.0
  0
VERTEX
  5
F5
330
F4
100
AcDbEntity
  8
callout
 62
   250
420
  2236191
370
    18
100
AcDbVertex
100
AcDb2dVertex
 10
3.096827556305041
 20
2.747044917257679
 30
0.0
  0
VERTEX
  5
F6
330
F4
100
AcDbEntity
  8
callout
 62
   250
420
  2236191
370
    18
100
AcDbVertex
100
AcDb2dVertex
 10
2.681718377505477
 20
2.705168604231201
 30
0.0
  0
SEQEND
  5
F7
330
F4
100
AcDbEntity
  8
callout
 62
   250
420
  2236191
370
    18
  0
POLYLINE
  5
F8
330
1F
100
AcDbEntity
  8
callout
 62
   250
420
  2236191
370
    18
100
AcDb2dPolyline
 66
     1
 10
0.0
 20
0.0
 30
0.0
  0
VERTEX
  5
F9
330
F8
100
AcDbEntity
  8
callout
 62
   250
420
  2236191
370
    18
100
AcDbVertex
100
AcDb2dVertex
 10
3.336321020045261
 20
3.322896030907448
 30
0.0
  0
VERTEX
  5
FA
330
F8
100
AcDbEntity
  8
callout
 62
   250
420
  2236191
370
    18
100
AcDbVertex
100
AcDb2dVertex
 10
3.101846712503175
 20
3.618202202784775
 30
0.0
  0
SEQEND
  5
FB
330
F8
100
AcDbEntity
  8
callout
 62
   250
420
  2236191
370
    18
  0
POLYLINE
  5
FC
330
1F
100
AcDbEntity
  8
callout
 62
   250
420
  2236191
370
    18
100
AcDb2dPolyline
 66
     1
 10
0.0
 20
0.0
 30
0.0
  0
VERTEX
  5
FD
330
FC
100
AcDbEntity
  8
callout
 62
   250
420
  2236191
370
    18
100
AcDbVertex
100
AcDb2dVertex
 10
1.442499780764264
 20
2.0
 30
0.0
  0
VERTEX
  5
FE
330
FC
100
AcDbEntity
  8
callout
 62
   250
420
  2236191
370
    18
100
AcDbVertex
100
AcDb2dVertex
 10
2.012854609929074
 20
2.26345129149513
 30
0.0
  0
SEQEND
  5
FF
330
FC
100
AcDbEntity
  8
callout
 62
   250
420
  2236191
370
    18
  0
ENDSEC
  0
SECTION
  2
OBJECTS
  0
DICTIONARY
  5
C
330
0
100
AcDbDictionary
281
     1
  3
ACAD_GROUP
350
D
  3
ACAD_LAYOUT
350
1A
  3
ACAD_MATERIAL
350
3B
  3
ACAD_MLEADERSTYLE
350
101
  3
ACAD_MLINESTYLE
350
17
  3
ACAD_PLOTSETTINGS
350
19
  3
ACAD_PLOTSTYLENAME
350
E
  3
ACAD_TABLESTYLE
350
100
  3
ACAD_VISUALSTYLE
350
2A
  0
SUN
  5
3F
330
29
100
AcDbSun
 90
        1
290
     0
 63
     7
421
 16777215
 40
1.0
291
     1
 91
  2455826
 92
 54000000
292
     0
 70
     2
 71
   256
280
     1
  0
DICTIONARY
  5
D
102
{ACAD_REACTORS
330
C
102
}
330
C
100
AcDbDictionary
281
     1
  0
DICTIONARY
  5
1A
102
{ACAD_REACTORS
330
C
102
}
330
C
100
AcDbDictionary
281
     1
  3
Layout1
350
1E
  3
Layout2
350
26
  3
Model
350
22
  0
DICTIONARY
  5
3B
102
{ACAD_REACTORS
330
C
102
}
330
C
100
AcDbDictionary
281
     1
  3
ByBlock
350
3D
  3
ByLayer
350
3C
  3
Global
350
3E
  0
DICTIONARY
  5
101
102
{ACAD_REACTORS
330
C
102
}
330
C
100
AcDbDictionary
281
     1
  0
DICTIONARY
  5
17
102
{ACAD_REACTORS
330
C
102
}
330
C
100
AcDbDictionary
281
     1
  3
Standard
350
18
  0
DICTIONARY
  5
19
102
{ACAD_REACTORS
330
C
102
}
330
C
100
AcDbDictionary
281
     1
  0
ACDBDICTIONARYWDFLT
  5
E
102
{ACAD_REACTORS
330
C
102
}
330
C
100
AcDbDictionary
281
     1
  3
Normal
350
F
100
AcDbDictionaryWithDefault
340
F
  0
DICTIONARY
  5
100
102
{ACAD_REACTORS
330
C
102
}
330
C
100
AcDbDictionary
281
     1
  0
DICTIONARY
  5
2A
102
{ACAD_REACTORS
330
C
102
}
330
C
100
AcDbDictionary
281
     1
  3
2dWireframe
350
2F
  3
3D Hidden
350
31
  3
3dWireframe
350
30
  3
Basic
350
32
  3
Brighten
350
36
  3
ColorChange
350
3A
  3
Conceptual
350
34
  3
Dim
350
35
  3
Facepattern
350
39
  3
Flat
350
2B
  3
FlatWithEdges
350
2C
  3
Gouraud
350
2D
  3
GouraudWithEdges
350
2E
  3
Linepattern
350
38
  3
Realistic
350
33
  3
Thicken
350
37
  0
LAYOUT
  5
1E
102
{ACAD_REACTORS
330
1A
102
}
330
1A
100
AcDbPlotSettings
  1

  2
none_device
  4

  6

 40
0.0
 41
0.0
 42
0.0
 43
0.0
 44
0.0
 45
0.0
 46
0.0
 47
0.0
 48
0.0
 49
0.0
140
0.0
141
0.0
142
1.0
143
1.0
 70
   688
 72
     0
 73
     0
 74
     5
  7

 75
    16
 76
     0
 77
     2
 78
   300
147
1.0
148
0.0
149
0.0
100
AcDbLayout
  1
Layout1
 70
     1
 71
     1
 10
0.0
 20
0.0
 11
12.0
 21
9.0
 12
0.0
 22
0.0
 32
0.0
 14
1.000000000000000E+20
 24
1.000000000000000E+20
 34
1.000000000000000E+20
 15
-1.000000000000000E+20
 25
-1.000000000000000E+20
 35
-1.000000000000000E+20
146
0.0
 13
0.0
 23
0.0
 33
0.0
 16
1.0
 26
0.0
 36
0.0
 17
0.0
 27
1.0
 37
0.0
 76
     0
330
1B
  0
LAYOUT
  5
26
102
{ACAD_REACTORS
330
1A
102
}
330
1A
100
AcDbPlotSettings
  1

  2
none_device
  4

  6

 40
0.0
 41
0.0
 42
0.0
 43
0.0
 44
0.0
 45
0.0
 46
0.0
 47
0.0
 48
0.0
 49
0.0
140
0.0
141
0.0
142
1.0
143
1.0
 70
   688
 72
     0
 73
     0
 74
     5
  7

 75
    16
 76
     0
 77
     2
 78
   300
147
1.0
148
0.0
149
0.0
100
AcDbLayout
  1
Layout2
 70
     1
 71
     2
 10
0.0
 20
0.0
 11
0.0
 21
0.0
 12
0.0
 22
0.0
 32
0.0
 14
0.0
 24
0.0
 34
0.0
 15
0.0
 25
0.0
 35
0.0
146
0.0
 13
0.0
 23
0.0
 33
0.0
 16
1.0
 26
0.0
 36
0.0
 17
0.0
 27
1.0
 37
0.0
 76
     0
330
23
  0
LAYOUT
  5
22
102
{ACAD_REACTORS
330
1A
102
}
330
1A
100
AcDbPlotSettings
  1

  2
none_device
  4

  6

 40
0.0
 41
0.0
 42
0.0
 43
0.0
 44
0.0
 45
0.0
 46
0.0
 47
0.0
 48
0.0
 49
0.0
140
0.0
141
0.0
142
1.0
143
1.0
 70
  1712
 72
     0
 73
     0
 74
     0
  7

 75
     0
 76
     0
 77
     2
 78
   300
147
1.0
148
0.0
149
0.0
100
AcDbLayout
  1
Model
 70
     1
 71
     0
 10
0.0
 20
0.0
 11
12.0
 21
9.0
 12
0.0
 22
0.0
 32
0.0
 14
1.000000000000000E+20
 24
1.000000000000000E+20
 34
1.000000000000000E+20
 15
-1.000000000000000E+20
 25
-1.000000000000000E+20
 35
-1.000000000000000E+20
146
0.0
 13
0.0
 23
0.0
 33
0.0
 16
1.0
 26
0.0
 36
0.0
 17
0.0
 27
1.0
 37
0.0
 76
     0
330
1F
331
29
  0
MATERIAL
  5
3D
102
{ACAD_REACTORS
330
3B
102
}
330
3B
100
AcDbMaterial
  1
ByBlock
 72
     1
 94
      127
  0
MATERIAL
  5
3C
102
{ACAD_REACTORS
330
3B
102
}
330
3B
100
AcDbMaterial
  1
ByLayer
 72
     1
 94
      127
  0
MATERIAL
  5
3E
102
{ACAD_REACTORS
330
3B
102
}
330
3B
100
AcDbMaterial
  1
Global
 72
     1
 94
      127
  0
MLINESTYLE
  5
18
102
{ACAD_REACTORS
330
17
102
}
330
17
100
AcDbMlineStyle
  2
Standard
 70
     0
  3

 62
   256
 51
90.0
 52
90.0
 71
     2
 49
0.5
 62
   256
  6
BYLAYER
 49
-0.5
 62
   256
  6
BYLAYER
  0
ACDBPLACEHOLDER
  5
F
102
{ACAD_REACTORS
330
E
102
}
330
E
  0
VISUALSTYLE
  5
2F
102
{ACAD_REACTORS
330
2A
102
}
330
2A
100
AcDbVisualStyle
  2
2dWireframe
 70
     4
177
     2
291
     0
 71
     0
176
     1
 72
     2
176
     1
 73
     0
176
     1
 90
        0
176
     1
 40
-0.6
176
     1
 41
-30.0
176
     1
 62
     5
 63
     7
421
 16777215
176
     1
 74
     1
176
     1
 91
        4
176
     1
 64
     7
176
     1
 65
   257
176
     1
 75
     1
176
     1
175
     1
176
     1
 42
1.0
176
     1
 92
        0
176
     1
 66
   257
176
     1
 43
1.0
176
     1
 76
     1
176
     1
 77
     6
176
     1
 78
     2
176
     1
 67
     7
176
     1
 79
     5
176
     1
170
     0
176
     1
171
     0
176
     1
290
     0
176
     1
 93
        1
176
     1
 44
0.0
176
     1
173
     0
176
     1
  0
VISUALSTYLE
  5
31
102
{ACAD_REACTORS
330
2A
102
}
330
2A
100
AcDbVisualStyle
  2
3D Hidden
 70
     6
177
     2
291
     0
 71
     1
176
     1
 72
     2
176
     1
 73
     2
176
     1
 90
        0
176
     1
 40
-0.6
176
     1
 41
-30.0
176
     1
 62
     5
 63
     7
421
 16777215
176
     1
 74
     2
176
     1
 91
        2
176
     1
 64
     7
176
     1
 65
   257
176
     1
 75
     2
176
     1
175
     1
176
     1
 42
40.0
176
     1
 92
        0
176
     1
 66
   257
176
     1
 43
1.0
176
     1
 76
     1
176
     1
 77
     6
176
     1
 78
     2
176
     1
 67
     7
176
     1
 79
     3
176
     1
170
     0
176
     1
171
     0
176
     1
290
     0
176
     1
 93
        1
176
     1
 44
0.0
176
     1
173
     0
176
     1
  0
VISUALSTYLE
  5
30
102
{ACAD_REACTORS
330
2A
102
}
330
2A
100
AcDbVisualStyle
  2
3dWireframe
 70
     5
177
     2
291
     0
 71
     0
176
     1
 72
     2
176
     1
 73
     0
176
     1
 90
        0
176
     1
 40
-0.6
176
     1
 41
-30.0
176
     1
 62
     5
 63
     7
421
 16777215
176
     1
 74
     1
176
     1
 91
        4
176
     1
 64
     7
176
     1
 65
   257
176
     1
 75
     1
176
     1
175
     1
176
     1
 42
1.0
176
     1
 92
        0
176
     1
 66
   257
176
     1
 43
1.0
176
     1
 76
     1
176
     1
 77
     6
176
     1
 78
     2
176
     1
 67
     7
176
     1
 79
     5
176
     1
170
     0
176
     1
171
     0
176
     1
290
     0
176
     1
 93
        1
176
     1
 44
0.0
176
     1
173
     0
176
     1
  0
VISUALSTYLE
  5
32
102
{ACAD_REACTORS
330
2A
102
}
330
2A
100
AcDbVisualStyle
  2
Basic
 70
     7
177
     2
291
     1
 71
     1
176
     1
 72
     0
176
     1
 73
     1
176
     1
 90
        0
176
     1
 40
-0.6
176
     1
 41
-30.0
176
     1
 62
     5
 63
     7
421
 16777215
176
     1
 74
     0
176
     1
 91
        4
176
     1
 64
     7
176
     1
 65
   257
176
     1
 75
     1
176
     1
175
     1
176
     1
 42
1.0
176
     1
 92
        8
176
     1
 66
     7
176
     1
 43
1.0
176
     1
 76
     1
176
     1
 77
     6
176
     1
 78
     2
176
     1
 67
     7
176
     1
 79
     5
176
     1
170
     0
176
     1
171
     0
176
     1
290
     0
176
     1
 93
        1
176
     1
 44
0.0
176
     1
173
     0
176
     1
  0
VISUALSTYLE
  5
36
102
{ACAD_REACTORS
330
2A
102
}
330
2A
100
AcDbVisualStyle
  2
Brighten
 70
    12
177
     2
291
     1
 71
     2
176
     1
 72
     2
176
     1
 73
     0
176
     1
 90
        0
176
     1
 40
-0.6
176
     1
 41
-30.0
176
     1
 62
     5
 63
     7
421
 16777215
176
     1
 74
     1
176
     1
 91
        4
176
     1
 64
     7
176
     1
 65
   257
176
     1
 75
     1
176
     1
175
     1
176
     1
 42
1.0
176
     1
 92
        8
176
     1
 66
     7
176
     1
 43
1.0
176
     1
 76
     1
176
     1
 77
     6
176
     1
 78
     2
176
     1
 67
     7
176
     1
 79
     5
176
     1
170
     0
176
     1
171
     0
176
     1
290
     0
176
     1
 93
        1
176
     1
 44
50.0
176
     1
173
     0
176
     1
  0
VISUALSTYLE
  5
3A
102
{ACAD_REACTORS
330
2A
102
}
330
2A
100
AcDbVisualStyle
  2
ColorChange
 70
    16
177
     2
291
     1
 71
     2
176
     1
 72
     2
176
     1
 73
     3
176
     1
 90
        0
176
     1
 40
-0.6
176
     1
 41
-30.0
176
     1
 62
     5
 63
     8
421
  8421504
176
     1
 74
     1
176
     1
 91
        4
176
     1
 64
     7
176
     1
 65
   257
176
     1
 75
     1
176
     1
175
     1
176
     1
 42
1.0
176
     1
 92
        8
176
     1
 66
     8
424
  8421504
176
     1
 43
1.0
176
     1
 76
     1
176
     1
 77
     6
176
     1
 78
     2
176
     1
 67
     7
176
     1
 79
     5
176
     1
170
     0
176
     1
171
     0
176
     1
290
     0
176
     1
 93
        1
176
     1
 44
0.0
176
     1
173
     0
176
     1
  0
VISUALSTYLE
  5
34
102
{ACAD_REACTORS
330
2A
102
}
330
2A
100
AcDbVisualStyle
  2
Conceptual
 70
     9
177
     2
291
     0
 71
     3
176
     1
 72
     2
176
     1
 73
     0
176
     1
 90
        0
176
     1
 40
-0.6
176
     1
 41
-30.0
176
     1
 62
     5
 63
     7
421
 16777215
176
     1
 74
     2
176
     1
 91
        2
176
     1
 64
     7
176
     1
 65
   257
176
     1
 75
     1
176
     1
175
     1
176
     1
 42
40.0
176
     1
 92
        8
176
     1
 66
     7
176
     1
 43
1.0
176
     1
 76
     1
176
     1
 77
     6
176
     1
 78
     2
176
     1
 67
     7
176
     1
 79
     3
176
     1
170
     0
176
     1
171
     0
176
     1
290
     0
176
     1
 93
        1
176
     1
 44
0.0
176
     1
173
     0
176
     1
  0
VISUALSTYLE
  5
35
102
{ACAD_REACTORS
330
2A
102
}
330
2A
100
AcDbVisualStyle
  2
Dim
 70
    11
177
     2
291
     1
 71
     2
176
     1
 72
     2
176
     1
 73
     0
176
     1
 90
        0
176
     1
 40
-0.6
176
     1
 41
-30.0
176
     1
 62
     5
 63
     7
421
 16777215
176
     1
 74
     1
176
     1
 91
        4
176
     1
 64
     7
176
     1
 65
   257
176
     1
 75
     1
176
     1
175
     1
176
     1
 42
1.0
176
     1
 92
        8
176
     1
 66
     7
176
     1
 43
1.0
176
     1
 76
     1
176
     1
 77
     6
176
     1
 78
     2
176
     1
 67
     7
176
     1
 79
     5
176
     1
170
     0
176
     1
171
     0
176
     1
290
     0
176
     1
 93
        1
176
     1
 44
-50.0
176
     1
173
     0
176
     1
  0
VISUALSTYLE
  5
39
102
{ACAD_REACTORS
330
2A
102
}
330
2A
100
AcDbVisualStyle
  2
Facepattern
 70
    15
177
     2
291
     1
 71
     2
176
     1
 72
     2
176
     1
 73
     0
176
     1
 90
        0
176
     1
 40
-0.6
176
     1
 41
-30.0
176
     1
 62
     5
 63
     7
421
 16777215
176
     1
 74
     1
176
     1
 91
        4
176
     1
 64
     7
176
     1
 65
   257
176
     1
 75
     1
176
     1
175
     1
176
     1
 42
1.0
176
     1
 92
        8
176
     1
 66
     7
176
     1
 43
1.0
176
     1
 76
     1
176
     1
 77
     6
176
     1
 78
     2
176
     1
 67
     7
176
     1
 79
     5
176
     1
170
     0
176
     1
171
     0
176
     1
290
     0
176
     1
 93
        1
176
     1
 44
0.0
176
     1
173
     0
176
     1
  0
VISUALSTYLE
  5
2B
102
{ACAD_REACTORS
330
2A
102
}
330
2A
100
AcDbVisualStyle
  2
Flat
 70
     0
177
     2
291
     1
 71
     2
176
     1
 72
     1
176
     1
 73
     1
176
     1
 90
        2
176
     1
 40
-0.6
176
     1
 41
30.0
176
     1
 62
     5
 63
     7
421
 16777215
176
     1
 74
     0
176
     1
 91
        4
176
     1
 64
     7
176
     1
 65
   257
176
     1
 75
     1
176
     1
175
     1
176
     1
 42
1.0
176
     1
 92
        8
176
     1
 66
     7
176
     1
 43
1.0
176
     1
 76
     1
176
     1
 77
     6
176
     1
 78
     2
176
     1
 67
     7
176
     1
 79
     5
176
     1
170
     0
176
     1
171
     0
176
     1
290
     0
176
     1
 93
       13
176
     1
 44
0.0
176
     1
173
     0
176
     1
  0
VISUALSTYLE
  5
2C
102
{ACAD_REACTORS
330
2A
102
}
330
2A
100
AcDbVisualStyle
  2
FlatWithEdges
 70
     1
177
     2
291
     1
 71
     2
176
     1
 72
     1
176
     1
 73
     1
176
     1
 90
        2
176
     1
 40
-0.6
176
     1
 41
30.0
176
     1
 62
     5
 63
     7
421
 16777215
176
     1
 74
     1
176
     1
 91
        4
176
     1
 64
     7
176
     1
 65
   257
176
     1
 75
     1
176
     1
175
     1
176
     1
 42
1.0
176
     1
 92
        0
176
     1
 66
   257
176
     1
 43
1.0
176
     1
 76
     1
176
     1
 77
     6
176
     1
 78
     2
176
     1
 67
     7
176
     1
 79
     5
176
     1
170
     0
176
     1
171
     0
176
     1
290
     0
176
     1
 93
       13
176
     1
 44
0.0
176
     1
173
     0
176
     1
  0
VISUALSTYLE
  5
2D
102
{ACAD_REACTORS
330
2A
102
}
330
2A
100
AcDbVisualStyle
  2
Gouraud
 70
     2
177
     2
291
     1
 71
     2
176
     1
 72
     2
176
     1
 73
     1
176
     1
 90
        2
176
     1
 40
-0.6
176
     1
 41
30.0
176
     1
 62
     5
 63
     7
421
 16777215
176
     1
 74
     0
176
     1
 91
        4
176
     1
 64
     7
176
     1
 65
   257
176
     1
 75
     1
176
     1
175
     1
176
     1
 42
1.0
176
     1
 92
        0
176
     1
 66
     7
176
     1
 43
1.0
176
     1
 76
     1
176
     1
 77
     6
176
     1
 78
     2
176
     1
 67
     7
176
     1
 79
     5
176
     1
170
     0
176
     1
171
     0
176
     1
290
     0
176
     1
 93
       13
176
     1
 44
0.0
176
     1
173
     0
176
     1
  0
VISUALSTYLE
  5
2E
102
{ACAD_REACTORS
330
2A
102
}
330
2A
100
AcDbVisualStyle
  2
GouraudWithEdges
 70
     3
177
     2
291
     1
 71
     2
176
     1
 72
     2
176
     1
 73
     1
176
     1
 90
        2
176
     1
 40
-0.6
176
     1
 41
30.0
176
     1
 62
     5
 63
     7
421
 16777215
176
     1
 74
     1
176
     1
 91
        4
176
     1
 64
     7
176
     1
 65
   257
176
     1
 75
     1
176
     1
175
     1
176
     1
 42
1.0
176
     1
 92
        0
176
     1
 66
   257
176
     1
 43
1.0
176
     1
 76
     1
176
     1
 77
     6
176
     1
 78
     2
176
     1
 67
     7
176
     1
 79
     5
176
     1
170
     0
176
     1
171
     0
176
     1
290
     0
176
     1
 93
       13
176
     1
 44
0.0
176
     1
173
     0
176
     1
  0
VISUALSTYLE
  5
38
102
{ACAD_REACTORS
330
2A
102
}
330
2A
100
AcDbVisualStyle
  2
Linepattern
 70
    14
177
     2
291
     1
 71
     2
176
     1
 72
     2
176
     1
 73
     0
176
     1
 90
        0
176
     1
 40
-0.6
176
     1
 41
-30.0
176
     1
 62
     5
 63
     7
421
 16777215
176
     1
 74
     1
176
     1
 91
        4
176
     1
 64
     7
176
     1
 65
   257
176
     1
 75
     7
176
     1
175
     7
176
     1
 42
1.0
176
     1
 92
        8
176
     1
 66
     7
176
     1
 43
1.0
176
     1
 76
     1
176
     1
 77
     6
176
     1
 78
     2
176
     1
 67
     7
176
     1
 79
     5
176
     1
170
     0
176
     1
171
     0
176
     1
290
     0
176
     1
 93
        1
176
     1
 44
0.0
176
     1
173
     0
176
     1
  0
VISUALSTYLE
  5
33
102
{ACAD_REACTORS
330
2A
102
}
330
2A
100
AcDbVisualStyle
  2
Realistic
 70
     8
177
     2
291
     0
 71
     2
176
     1
 72
     2
176
     1
 73
     0
176
     1
 90
        0
176
     1
 40
-0.6
176
     1
 41
-30.0
176
     1
 62
     5
 63
     7
421
 16777215
176
     1
 74
     1
176
     1
 91
        0
176
     1
 64
     7
176
     1
 65
   257
176
     1
 75
     1
176
     1
175
     1
176
     1
 42
1.0
176
     1
 92
        8
176
     1
 66
     8
424
  7895160
176
     1
 43
1.0
176
     1
 76
     1
176
     1
 77
     6
176
     1
 78
     2
176
     1
 67
     7
176
     1
 79
     5
176
     1
170
     0
176
     1
171
     0
176
     1
290
     0
176
     1
 93
       13
176
     1
 44
0.0
176
     1
173
     0
176
     1
  0
VISUALSTYLE
  5
37
102
{ACAD_REACTORS
330
2A
102
}
330
2A
100
AcDbVisualStyle
  2
Thicken
 70
    13
177
     2
291
     1
 71
     2
176
     1
 72
     2
176
     1
 73
     0
176
     1
 90
        0
176
     1
 40
-0.6
176
     1
 41
-30.0
176
     1
 62
     5
 63
     7
421
 16777215
176
     1
 74
     1
176
     1
 91
        4
176
     1
 64
     7
176
     1
 65
   257
176
     1
 75
     1
176
     1
175
     1
176
     1
 42
1.0
176
     1
 92
       12
176
     1
 66
     7
176
     1
 43
1.0
176
     1
 76
     1
176
     1
 77
     6
176
     1
 78
     2
176
     1
 67
     7
176
     1
 79
     5
176
     1
170
     0
176
     1
171
     0
176
     1
290
     0
176
     1
 93
        1
176
     1
 44
0.0
176
     1
173
     0
176
     1
  0
ENDSEC
  0
EOF
