  0
SECTION
  2
HEADER
  9
$ACADVER
  1
AC1024
  9
$ACADMAINTVER
 70
     6
  9
$DWGCODEPAGE
  3
ANSI_1252
  9
$INSBASE
 10
0.0
 20
0.0
 30
0.0
  9
$EXTMIN
 10
1.000000000000000E+20
 20
1.000000000000000E+20
 30
1.000000000000000E+20
  9
$EXTMAX
 10
-1.000000000000000E+20
 20
-1.000000000000000E+20
 30
-1.000000000000000E+20
  9
$LIMMIN
 10
0.0
 20
0.0
  9
$LIMMAX
 10
12.0
 20
9.0
  9
$ORTHOMODE
 70
     0
  9
$REGENMODE
 70
     1
  9
$FILLMODE
 70
     1
  9
$QTEXTMODE
 70
     0
  9
$MIRRTEXT
 70
     1
  9
$LTSCALE
 40
1.0
  9
$ATTMODE
 70
     1
  9
$TEXTSIZE
 40
0.2
  9
$TRACEWID
 40
0.05
  9
$TEXTSTYLE
  7
Standard
  9
$CLAYER
  8
0
  9
$CELTYPE
  6
ByLayer
  9
$CECOLOR
 62
   256
  9
$CELTSCALE
 40
1.0
  9
$DISPSILH
 70
     0
  9
$DIMSCALE
 40
1.0
  9
$DIMASZ
 40
0.18
  9
$DIMEXO
 40
0.0625
  9
$DIMDLI
 40
0.38
  9
$DIMRND
 40
0.0
  9
$DIMDLE
 40
0.0
  9
$DIMEXE
 40
0.18
  9
$DIMTP
 40
0.0
  9
$DIMTM
 40
0.0
  9
$DIMTXT
 40
0.18
  9
$DIMCEN
 40
0.09
  9
$DIMTSZ
 40
0.0
  9
$DIMTOL
 70
     0
  9
$DIMLIM
 70
     0
  9
$DIMTIH
 70
     1
  9
$DIMTOH
 70
     1
  9
$DIMSE1
 70
     0
  9
$DIMSE2
 70
     0
  9
$DIMTAD
 70
     0
  9
$DIMZIN
 70
     0
  9
$DIMBLK
  1

  9
$DIMASO
 70
     1
  9
$DIMSHO
 70
     1
  9
$DIMPOST
  1

  9
$DIMAPOST
  1

  9
$DIMALT
 70
     0
  9
$DIMALTD
 70
     2
  9
$DIMALTF
 40
25.4
  9
$DIMLFAC
 40
1.0
  9
$DIMTOFL
 70
     0
  9
$DIMTVP
 40
0.0
  9
$DIMTIX
 70
     0
  9
$DIMSOXD
 70
     0
  9
$DIMSAH
 70
     0
  9
$DIMBLK1
  1

  9
$DIMBLK2
  1

  9
$DIMSTYLE
  2
Standard
  9
$DIMCLRD
 70
     0
  9
$DIMCLRE
 70
     0
  9
$DIMCLRT
 70
     0
  9
$DIMTFAC
 40
1.0
  9
$DIMGAP
 40
0.09
  9
$DIMJUST
 70
     0
  9
$DIMSD1
 70
     0
  9
$DIMSD2
 70
     0
  9
$DIMTOLJ
 70
     1
  9
$DIMTZIN
 70
     0
  9
$DIMALTZ
 70
     0
  9
$DIMALTTZ
 70
     0
  9
$DIMUPT
 70
     0
  9
$DIMDEC
 70
     4
  9
$DIMTDEC
 70
     4
  9
$DIMALTU
 70
     2
  9
$DIMALTTD
 70
     2
  9
$DIMTXSTY
  7
Standard
  9
$DIMAUNIT
 70
     0
  9
$DIMADEC
 70
     0
  9
$DIMALTRND
 40
0.0
  9
$DIMAZIN
 70
     0
  9
$DIMDSEP
 70
    46
  9
$DIMATFIT
 70
     3
  9
$DIMFRAC
 70
     0
  9
$DIMLDRBLK
  1

  9
$DIMLUNIT
 70
     2
  9
$DIMLWD
 70
    -2
  9
$DIMLWE
 70
    -2
  9
$DIMTMOVE
 70
     0
  9
$DIMFXL
 40
1.0
  9
$DIMFXLON
 70
     0
  9
$DIMJOGANG
 40
0.7853981633974483
  9
$DIMTFILL
 70
     0
  9
$DIMTFILLCLR
 70
     0
  9
$DIMARCSYM
 70
     0
  9
$DIMLTYPE
  6

  9
$DIMLTEX1
  6

  9
$DIMLTEX2
  6

  9
$DIMTXTDIRECTION
 70
     0
  9
$LUNITS
 70
     2
  9
$LUPREC
 70
     4
  9
$SKETCHINC
 40
0.1
  9
$FILLETRAD
 40
0.5
  9
$AUNITS
 70
     0
  9
$AUPREC
 70
     0
  9
$MENU
  1
.
  9
$ELEVATION
 40
0.0
  9
$PELEVATION
 40
0.0
  9
$THICKNESS
 40
0.0
  9
$LIMCHECK
 70
     0
  9
$CHAMFERA
 40
0.5
  9
$CHAMFERB
 40
0.5
  9
$CHAMFERC
 40
1.0
  9
$CHAMFERD
 40
0.0
  9
$SKPOLY
 70
     0
  9
$TDCREATE
 40
2458782.890845938
  9
$TDUCREATE
 40
2458782.349179271
  9
$TDUPDATE
 40
2458782.890846134
  9
$TDUUPDATE
 40
2458782.349179468
  9
$TDINDWG
 40
0.0000000116
  9
$TDUSRTIMER
 40
0.0000000116
  9
$USRTIMER
 70
     1
  9
$ANGBASE
 50
0.0
  9
$ANGDIR
 70
     0
  9
$PDMODE
 70
     0
  9
$PDSIZE
 40
0.0
  9
$PLINEWID
 40
0.0
  9
$SPLFRAME
 70
     0
  9
$SPLINETYPE
 70
     6
  9
$SPLINESEGS
 70
     8
  9
$HANDSEED
  5
2D2
  9
$SURFTAB1
 70
     6
  9
$SURFTAB2
 70
     6
  9
$SURFTYPE
 70
     6
  9
$SURFU
 70
     6
  9
$SURFV
 70
     6
  9
$UCSBASE
  2

  9
$UCSNAME
  2

  9
$UCSORG
 10
0.0
 20
0.0
 30
0.0
  9
$UCSXDIR
 10
1.0
 20
0.0
 30
0.0
  9
$UCSYDIR
 10
0.0
 20
1.0
 30
0.0
  9
$UCSORTHOREF
  2

  9
$UCSORTHOVIEW
 70
     0
  9
$UCSORGTOP
 10
0.0
 20
0.0
 30
0.0
  9
$UCSORGBOTTOM
 10
0.0
 20
0.0
 30
0.0
  9
$UCSORGLEFT
 10
0.0
 20
0.0
 30
0.0
  9
$UCSORGRIGHT
 10
0.0
 20
0.0
 30
0.0
  9
$UCSORGFRONT
 10
0.0
 20
0.0
 30
0.0
  9
$UCSORGBACK
 10
0.0
 20
0.0
 30
0.0
  9
$PUCSBASE
  2

  9
$PUCSNAME
  2

  9
$PUCSORG
 10
0.0
 20
0.0
 30
0.0
  9
$PUCSXDIR
 10
1.0
 20
0.0
 30
0.0
  9
$PUCSYDIR
 10
0.0
 20
1.0
 30
0.0
  9
$PUCSORTHOREF
  2

  9
$PUCSORTHOVIEW
 70
     0
  9
$PUCSORGTOP
 10
0.0
 20
0.0
 30
0.0
  9
$PUCSORGBOTTOM
 10
0.0
 20
0.0
 30
0.0
  9
$PUCSORGLEFT
 10
0.0
 20
0.0
 30
0.0
  9
$PUCSORGRIGHT
 10
0.0
 20
0.0
 30
0.0
  9
$PUCSORGFRONT
 10
0.0
 20
0.0
 30
0.0
  9
$PUCSORGBACK
 10
0.0
 20
0.0
 30
0.0
  9
$USERI1
 70
     0
  9
$USERI2
 70
     0
  9
$USERI3
 70
     0
  9
$USERI4
 70
     0
  9
$USERI5
 70
     0
  9
$USERR1
 40
0.0
  9
$USERR2
 40
0.0
  9
$USERR3
 40
0.0
  9
$USERR4
 40
0.0
  9
$USERR5
 40
0.0
  9
$WORLDVIEW
 70
     1
  9
$SHADEDGE
 70
     3
  9
$SHADEDIF
 70
    70
  9
$TILEMODE
 70
     1
  9
$MAXACTVP
 70
    64
  9
$PINSBASE
 10
0.0
 20
0.0
 30
0.0
  9
$PLIMCHECK
 70
     0
  9
$PEXTMIN
 10
1.000000000000000E+20
 20
1.000000000000000E+20
 30
1.000000000000000E+20
  9
$PEXTMAX
 10
-1.000000000000000E+20
 20
-1.000000000000000E+20
 30
-1.000000000000000E+20
  9
$PLIMMIN
 10
0.0
 20
0.0
  9
$PLIMMAX
 10
12.0
 20
9.0
  9
$UNITMODE
 70
     0
  9
$VISRETAIN
 70
     1
  9
$PLINEGEN
 70
     0
  9
$PSLTSCALE
 70
     1
  9
$TREEDEPTH
 70
  3020
  9
$CMLSTYLE
  2
Standard
  9
$CMLJUST
 70
     0
  9
$CMLSCALE
 40
1.0
  9
$PROXYGRAPHICS
 70
     1
  9
$MEASUREMENT
 70
     0
  9
$CELWEIGHT
370
    -1
  9
$ENDCAPS
280
     0
  9
$JOINSTYLE
280
     0
  9
$LWDISPLAY
290
     1
  9
$INSUNITS
 70
     1
  9
$HYPERLINKBASE
  1

  9
$STYLESHEET
  1

  9
$XEDIT
290
     1
  9
$CEPSNTYPE
380
     0
  9
$PSTYLEMODE
290
     1
  9
$FINGERPRINTGUID
  2
{29862596-37D3-4C46-AC39-1F12BB35B3D2}
  9
$VERSIONGUID
  2
{FAEB1C32-E019-11D5-929B-00C0DF256EC4}
  9
$EXTNAMES
290
     1
  9
$PSVPSCALE
 40
0.0
  9
$OLESTARTUP
290
     0
  9
$SORTENTS
280
   127
  9
$INDEXCTL
280
     0
  9
$HIDETEXT
280
     1
  9
$XCLIPFRAME
280
     2
  9
$HALOGAP
280
     0
  9
$OBSCOLOR
 70
   257
  9
$OBSLTYPE
280
     0
  9
$INTERSECTIONDISPLAY
280
     0
  9
$INTERSECTIONCOLOR
 70
   257
  9
$DIMASSOC
280
     2
  9
$PROJECTNAME
  1

  9
$CAMERADISPLAY
290
     0
  9
$LENSLENGTH
 40
50.0
  9
$CAMERAHEIGHT
 40
0.0
  9
$STEPSPERSEC
 40
2.0
  9
$STEPSIZE
 40
6.0
  9
$3DDWFPREC
 40
2.0
  9
$PSOLWIDTH
 40
0.25
  9
$PSOLHEIGHT
 40
4.0
  9
$LOFTANG1
 40
1.570796326794897
  9
$LOFTANG2
 40
1.570796326794897
  9
$LOFTMAG1
 40
0.0
  9
$LOFTMAG2
 40
0.0
  9
$LOFTPARAM
 70
     7
  9
$LOFTNORMALS
280
     1
  9
$LATITUDE
 40
37.795
  9
$LONGITUDE
 40
-122.394
  9
$NORTHDIRECTION
 40
0.0
  9
$TIMEZONE
 70
 -8000
  9
$LIGHTGLYPHDISPLAY
280
     1
  9
$TILEMODELIGHTSYNCH
280
     1
  9
$CMATERIAL
347
3C
  9
$SOLIDHIST
280
     1
  9
$SHOWHIST
280
     1
  9
$DWFFRAME
280
     2
  9
$DGNFRAME
280
     2
  9
$REALWORLDSCALE
290
     1
  9
$INTERFERECOLOR
 62
   256
  9
$CSHADOW
280
     0
  9
$SHADOWPLANELOCATION
 40
0.0
  0
ENDSEC
  0
SECTION
  2
CLASSES
  0
CLASS
  1
ACDBDICTIONARYWDFLT
  2
AcDbDictionaryWithDefault
  3
ObjectDBX Classes
 90
        0
 91
        4
280
     0
281
     0
  0
CLASS
  1
VISUALSTYLE
  2
AcDbVisualStyle
  3
ObjectDBX Classes
 90
     4095
 91
        4
280
     0
281
     0
  0
CLASS
  1
MATERIAL
  2
AcDbMaterial
  3
ObjectDBX Classes
 90
     1153
 91
        4
280
     0
281
     0
  0
CLASS
  1
SUN
  2
AcDbSun
  3
SCENEOE
 90
     1024
 91
        4
280
     0
281
     0
  0
ENDSEC
  0
SECTION
  2
TABLES
  0
TABLE
  2
VPORT
  5
8
330
0
100
AcDbSymbolTable
 70
     1
  0
VPORT
  5
29
330
8
100
AcDbSymbolTableRecord
100
AcDbViewportTableRecord
  2
*Active
 70
     0
 10
0.0
 20
0.0
 11
1.0
 21
1.0
 12
0.0
 22
0.0
 13
0.0
 23
0.0
 14
0.5
 24
0.5
 15
0.5
 25
0.5
 16
0.0
 26
0.0
 36
1.0
 17
7.675740559895833
 27
7.62066743319484
 37
0.0
 40
11.69291338582677
 41
0.7070707070707066
 42
50.0
 43
0.0
 44
0.0
 50
0.0
 51
0.0
 71
     0
 72
   100
 73
     1
 74
     3
 75
     0
 76
     0
 77
     0
 78
     0
281
     0
 65
     1
110
0.0
120
0.0
130
0.0
111
1.0
121
0.0
131
0.0
112
0.0
122
1.0
132
0.0
 79
     0
146
0.0
 60
     3
 61
     5
292
     1
282
     1
141
0.0
142
0.0
 63
   250
361
3F
  0
ENDTAB
  0
TABLE
  2
LTYPE
  5
5
330
0
100
AcDbSymbolTable
 70
    42
  0
LTYPE
  5
14
330
5
100
AcDbSymbolTableRecord
100
AcDbLinetypeTableRecord
  2
ByBlock
 70
     0
  3

 72
    65
 73
     0
 40
0.0
  0
LTYPE
  5
15
330
5
100
AcDbSymbolTableRecord
100
AcDbLinetypeTableRecord
  2
ByLayer
 70
     0
  3

 72
    65
 73
     0
 40
0.0
  0
LTYPE
  5
16
330
5
100
AcDbSymbolTableRecord
100
AcDbLinetypeTableRecord
  2
Continuous
 70
     0
  3
Solid line
 72
    65
 73
     0
 40
0.0
  0
LTYPE
  5
67
330
5
100
AcDbSymbolTableRecord
100
AcDbLinetypeTableRecord
  2
AI-Linetype-1
 70
     0
  3
Adobe Illustrator Linetype No. 1
 72
    65
 73
     6
 40
0.1870269378026326
 49
0.0311711563004388
 74
     0
 49
-0.0311711563004388
 74
     0
 49
0.0311711563004388
 74
     0
 49
-0.0311711563004388
 74
     0
 49
0.0311711563004388
 74
     0
 49
-0.0311711563004388
 74
     0
  0
LTYPE
  5
B3
330
5
100
AcDbSymbolTableRecord
100
AcDbLinetypeTableRecord
  2
AI-Linetype-2
 70
     0
  3
Adobe Illustrator Linetype No. 2
 72
    65
 73
     2
 40
0.0129604997734229
 49
0.0086403331822819
 74
     0
 49
-0.004320166591141
 74
     0
  0
LTYPE
  5
B8
330
5
100
AcDbSymbolTableRecord
100
AcDbLinetypeTableRecord
  2
AI-Linetype-3
 70
     0
  3
Adobe Illustrator Linetype No. 3
 72
    65
 73
     2
 40
0.0129604997734229
 49
0.0086403331822819
 74
     0
 49
-0.004320166591141
 74
     0
  0
LTYPE
  5
BB
330
5
100
AcDbSymbolTableRecord
100
AcDbLinetypeTableRecord
  2
AI-Linetype-4
 70
     0
  3
Adobe Illustrator Linetype No. 4
 72
    65
 73
     2
 40
0.0389639453755485
 49
0.0233783672253291
 74
     0
 49
-0.0155855781502194
 74
     0
  0
LTYPE
  5
BD
330
5
100
AcDbSymbolTableRecord
100
AcDbLinetypeTableRecord
  2
AI-Linetype-5
 70
     0
  3
Adobe Illustrator Linetype No. 5
 72
    65
 73
     2
 40
0.0389639453755485
 49
0.0233783672253291
 74
     0
 49
-0.0155855781502194
 74
     0
  0
LTYPE
  5
C4
330
5
100
AcDbSymbolTableRecord
100
AcDbLinetypeTableRecord
  2
AI-Linetype-6
 70
     0
  3
Adobe Illustrator Linetype No. 6
 72
    65
 73
     2
 40
0.0389639453755485
 49
0.0233783672253291
 74
     0
 49
-0.0155855781502194
 74
     0
  0
LTYPE
  5
C9
330
5
100
AcDbSymbolTableRecord
100
AcDbLinetypeTableRecord
  2
AI-Linetype-7
 70
     0
  3
Adobe Illustrator Linetype No. 7
 72
    65
 73
     2
 40
0.0389639453755485
 49
0.0233783672253291
 74
     0
 49
-0.0155855781502194
 74
     0
  0
LTYPE
  5
D1
330
5
100
AcDbSymbolTableRecord
100
AcDbLinetypeTableRecord
  2
AI-Linetype-8
 70
     0
  3
Adobe Illustrator Linetype No. 8
 72
    65
 73
     2
 40
0.0389639453755485
 49
0.0233783672253291
 74
     0
 49
-0.0155855781502194
 74
     0
  0
LTYPE
  5
D6
330
5
100
AcDbSymbolTableRecord
100
AcDbLinetypeTableRecord
  2
AI-Linetype-9
 70
     0
  3
Adobe Illustrator Linetype No. 9
 72
    65
 73
     2
 40
0.0389639453755485
 49
0.0233783672253291
 74
     0
 49
-0.0155855781502194
 74
     0
  0
LTYPE
  5
DB
330
5
100
AcDbSymbolTableRecord
100
AcDbLinetypeTableRecord
  2
AI-Linetype-10
 70
     0
  3
Adobe Illustrator Linetype No. 10
 72
    65
 73
     2
 40
0.0389639453755485
 49
0.0233783672253291
 74
     0
 49
-0.0155855781502194
 74
     0
  0
LTYPE
  5
E0
330
5
100
AcDbSymbolTableRecord
100
AcDbLinetypeTableRecord
  2
AI-Linetype-11
 70
     0
  3
Adobe Illustrator Linetype No. 11
 72
    65
 73
     2
 40
0.0389639453755485
 49
0.0233783672253291
 74
     0
 49
-0.0155855781502194
 74
     0
  0
LTYPE
  5
EB
330
5
100
AcDbSymbolTableRecord
100
AcDbLinetypeTableRecord
  2
AI-Linetype-12
 70
     0
  3
Adobe Illustrator Linetype No. 12
 72
    65
 73
     2
 40
0.0129604997734229
 49
0.0086403331822819
 74
     0
 49
-0.004320166591141
 74
     0
  0
LTYPE
  5
F0
330
5
100
AcDbSymbolTableRecord
100
AcDbLinetypeTableRecord
  2
AI-Linetype-13
 70
     0
  3
Adobe Illustrator Linetype No. 13
 72
    65
 73
     2
 40
0.0129604997734229
 49
0.0086403331822819
 74
     0
 49
-0.004320166591141
 74
     0
  0
LTYPE
  5
F3
330
5
100
AcDbSymbolTableRecord
100
AcDbLinetypeTableRecord
  2
AI-Linetype-14
 70
     0
  3
Adobe Illustrator Linetype No. 14
 72
    65
 73
     2
 40
0.0389639453755485
 49
0.0233783672253291
 74
     0
 49
-0.0155855781502194
 74
     0
  0
LTYPE
  5
F5
330
5
100
AcDbSymbolTableRecord
100
AcDbLinetypeTableRecord
  2
AI-Linetype-15
 70
     0
  3
Adobe Illustrator Linetype No. 15
 72
    65
 73
     2
 40
0.0389639453755485
 49
0.0233783672253291
 74
     0
 49
-0.0155855781502194
 74
     0
  0
LTYPE
  5
FC
330
5
100
AcDbSymbolTableRecord
100
AcDbLinetypeTableRecord
  2
AI-Linetype-16
 70
     0
  3
Adobe Illustrator Linetype No. 16
 72
    65
 73
     2
 40
0.0389639453755485
 49
0.0233783672253291
 74
     0
 49
-0.0155855781502194
 74
     0
  0
LTYPE
  5
101
330
5
100
AcDbSymbolTableRecord
100
AcDbLinetypeTableRecord
  2
AI-Linetype-17
 70
     0
  3
Adobe Illustrator Linetype No. 17
 72
    65
 73
     2
 40
0.0389639453755485
 49
0.0233783672253291
 74
     0
 49
-0.0155855781502194
 74
     0
  0
LTYPE
  5
109
330
5
100
AcDbSymbolTableRecord
100
AcDbLinetypeTableRecord
  2
AI-Linetype-18
 70
     0
  3
Adobe Illustrator Linetype No. 18
 72
    65
 73
     2
 40
0.0389639453755485
 49
0.0233783672253291
 74
     0
 49
-0.0155855781502194
 74
     0
  0
LTYPE
  5
10E
330
5
100
AcDbSymbolTableRecord
100
AcDbLinetypeTableRecord
  2
AI-Linetype-19
 70
     0
  3
Adobe Illustrator Linetype No. 19
 72
    65
 73
     2
 40
0.0389639453755485
 49
0.0233783672253291
 74
     0
 49
-0.0155855781502194
 74
     0
  0
LTYPE
  5
113
330
5
100
AcDbSymbolTableRecord
100
AcDbLinetypeTableRecord
  2
AI-Linetype-20
 70
     0
  3
Adobe Illustrator Linetype No. 20
 72
    65
 73
     2
 40
0.0389639453755485
 49
0.0233783672253291
 74
     0
 49
-0.0155855781502194
 74
     0
  0
LTYPE
  5
118
330
5
100
AcDbSymbolTableRecord
100
AcDbLinetypeTableRecord
  2
AI-Linetype-21
 70
     0
  3
Adobe Illustrator Linetype No. 21
 72
    65
 73
     2
 40
0.0389639453755485
 49
0.0233783672253291
 74
     0
 49
-0.0155855781502194
 74
     0
  0
LTYPE
  5
1B9
330
5
100
AcDbSymbolTableRecord
100
AcDbLinetypeTableRecord
  2
AI-Linetype-22
 70
     0
  3
Adobe Illustrator Linetype No. 22
 72
    65
 73
     2
 40
0.0389639453755485
 49
0.0233783672253291
 74
     0
 49
-0.0155855781502194
 74
     0
  0
LTYPE
  5
1C3
330
5
100
AcDbSymbolTableRecord
100
AcDbLinetypeTableRecord
  2
AI-Linetype-23
 70
     0
  3
Adobe Illustrator Linetype No. 23
 72
    65
 73
     2
 40
0.0389639453755485
 49
0.0233783672253291
 74
     0
 49
-0.0155855781502194
 74
     0
  0
LTYPE
  5
1CD
330
5
100
AcDbSymbolTableRecord
100
AcDbLinetypeTableRecord
  2
AI-Linetype-24
 70
     0
  3
Adobe Illustrator Linetype No. 24
 72
    65
 73
     2
 40
0.0389639453755485
 49
0.0233783672253291
 74
     0
 49
-0.0155855781502194
 74
     0
  0
LTYPE
  5
1D7
330
5
100
AcDbSymbolTableRecord
100
AcDbLinetypeTableRecord
  2
AI-Linetype-25
 70
     0
  3
Adobe Illustrator Linetype No. 25
 72
    65
 73
     2
 40
0.0389639453755485
 49
0.0233783672253291
 74
     0
 49
-0.0155855781502194
 74
     0
  0
LTYPE
  5
1E1
330
5
100
AcDbSymbolTableRecord
100
AcDbLinetypeTableRecord
  2
AI-Linetype-26
 70
     0
  3
Adobe Illustrator Linetype No. 26
 72
    65
 73
     2
 40
0.0389639453755485
 49
0.0233783672253291
 74
     0
 49
-0.0155855781502194
 74
     0
  0
LTYPE
  5
1EB
330
5
100
AcDbSymbolTableRecord
100
AcDbLinetypeTableRecord
  2
AI-Linetype-27
 70
     0
  3
Adobe Illustrator Linetype No. 27
 72
    65
 73
     2
 40
0.0389639453755485
 49
0.0233783672253291
 74
     0
 49
-0.0155855781502194
 74
     0
  0
LTYPE
  5
1F5
330
5
100
AcDbSymbolTableRecord
100
AcDbLinetypeTableRecord
  2
AI-Linetype-28
 70
     0
  3
Adobe Illustrator Linetype No. 28
 72
    65
 73
     2
 40
0.0389639453755485
 49
0.0233783672253291
 74
     0
 49
-0.0155855781502194
 74
     0
  0
LTYPE
  5
1FF
330
5
100
AcDbSymbolTableRecord
100
AcDbLinetypeTableRecord
  2
AI-Linetype-29
 70
     0
  3
Adobe Illustrator Linetype No. 29
 72
    65
 73
     2
 40
0.0389639453755485
 49
0.0233783672253291
 74
     0
 49
-0.0155855781502194
 74
     0
  0
LTYPE
  5
209
330
5
100
AcDbSymbolTableRecord
100
AcDbLinetypeTableRecord
  2
AI-Linetype-30
 70
     0
  3
Adobe Illustrator Linetype No. 30
 72
    65
 73
     2
 40
0.0389639453755485
 49
0.0233783672253291
 74
     0
 49
-0.0155855781502194
 74
     0
  0
LTYPE
  5
213
330
5
100
AcDbSymbolTableRecord
100
AcDbLinetypeTableRecord
  2
AI-Linetype-31
 70
     0
  3
Adobe Illustrator Linetype No. 31
 72
    65
 73
     2
 40
0.0389639453755485
 49
0.0233783672253291
 74
     0
 49
-0.0155855781502194
 74
     0
  0
LTYPE
  5
21D
330
5
100
AcDbSymbolTableRecord
100
AcDbLinetypeTableRecord
  2
AI-Linetype-32
 70
     0
  3
Adobe Illustrator Linetype No. 32
 72
    65
 73
     2
 40
0.0389639453755485
 49
0.0233783672253291
 74
     0
 49
-0.0155855781502194
 74
     0
  0
LTYPE
  5
227
330
5
100
AcDbSymbolTableRecord
100
AcDbLinetypeTableRecord
  2
AI-Linetype-33
 70
     0
  3
Adobe Illustrator Linetype No. 33
 72
    65
 73
     2
 40
0.0389639453755485
 49
0.0233783672253291
 74
     0
 49
-0.0155855781502194
 74
     0
  0
LTYPE
  5
231
330
5
100
AcDbSymbolTableRecord
100
AcDbLinetypeTableRecord
  2
AI-Linetype-34
 70
     0
  3
Adobe Illustrator Linetype No. 34
 72
    65
 73
     2
 40
0.0389639453755485
 49
0.0233783672253291
 74
     0
 49
-0.0155855781502194
 74
     0
  0
LTYPE
  5
23B
330
5
100
AcDbSymbolTableRecord
100
AcDbLinetypeTableRecord
  2
AI-Linetype-35
 70
     0
  3
Adobe Illustrator Linetype No. 35
 72
    65
 73
     2
 40
0.0389639453755485
 49
0.0233783672253291
 74
     0
 49
-0.0155855781502194
 74
     0
  0
LTYPE
  5
245
330
5
100
AcDbSymbolTableRecord
100
AcDbLinetypeTableRecord
  2
AI-Linetype-36
 70
     0
  3
Adobe Illustrator Linetype No. 36
 72
    65
 73
     2
 40
0.0389639453755485
 49
0.0233783672253291
 74
     0
 49
-0.0155855781502194
 74
     0
  0
LTYPE
  5
24F
330
5
100
AcDbSymbolTableRecord
100
AcDbLinetypeTableRecord
  2
AI-Linetype-37
 70
     0
  3
Adobe Illustrator Linetype No. 37
 72
    65
 73
     2
 40
0.0389639453755485
 49
0.0233783672253291
 74
     0
 49
-0.0155855781502194
 74
     0
  0
LTYPE
  5
259
330
5
100
AcDbSymbolTableRecord
100
AcDbLinetypeTableRecord
  2
AI-Linetype-38
 70
     0
  3
Adobe Illustrator Linetype No. 38
 72
    65
 73
     2
 40
0.0389639453755485
 49
0.0233783672253291
 74
     0
 49
-0.0155855781502194
 74
     0
  0
LTYPE
  5
263
330
5
100
AcDbSymbolTableRecord
100
AcDbLinetypeTableRecord
  2
AI-Linetype-39
 70
     0
  3
Adobe Illustrator Linetype No. 39
 72
    65
 73
     2
 40
0.0389639453755485
 49
0.0233783672253291
 74
     0
 49
-0.0155855781502194
 74
     0
  0
LTYPE
  5
26D
330
5
100
AcDbSymbolTableRecord
100
AcDbLinetypeTableRecord
  2
AI-Linetype-40
 70
     0
  3
Adobe Illustrator Linetype No. 40
 72
    65
 73
     2
 40
0.0389639453755485
 49
0.0233783672253291
 74
     0
 49
-0.0155855781502194
 74
     0
  0
LTYPE
  5
277
330
5
100
AcDbSymbolTableRecord
100
AcDbLinetypeTableRecord
  2
AI-Linetype-41
 70
     0
  3
Adobe Illustrator Linetype No. 41
 72
    65
 73
     2
 40
0.0389639453755485
 49
0.0233783672253291
 74
     0
 49
-0.0155855781502194
 74
     0
  0
ENDTAB
  0
TABLE
  2
LAYER
  5
2
330
0
100
AcDbSymbolTable
 70
     3
  0
LAYER
  5
10
330
2
100
AcDbSymbolTableRecord
100
AcDbLayerTableRecord
  2
0
 70
     0
 62
     7
  6
Continuous
370
    -3
390
F
347
3E
  0
LAYER
  5
40
330
2
100
AcDbSymbolTableRecord
100
AcDbLayerTableRecord
  2
Layer 1
 70
     0
 62
     7
  6
Continuous
370
    -3
390
F
347
3E
  0
LAYER
  5
27A
330
2
100
AcDbSymbolTableRecord
100
AcDbLayerTableRecord
  2
callouts
 70
     0
 62
     7
  6
Continuous
370
    -3
390
F
347
3E
  0
ENDTAB
  0
TABLE
  2
STYLE
  5
3
330
0
100
AcDbSymbolTable
 70
     1
  0
STYLE
  5
11
330
3
100
AcDbSymbolTableRecord
100
AcDbTextStyleTableRecord
  2
Standard
 70
     0
 40
0.0
 41
1.0
 50
0.0
 71
     0
 42
0.2
  3
txt
  4

  0
ENDTAB
  0
TABLE
  2
VIEW
  5
6
330
0
100
AcDbSymbolTable
 70
     0
  0
ENDTAB
  0
TABLE
  2
UCS
  5
7
330
0
100
AcDbSymbolTable
 70
     0
  0
ENDTAB
  0
TABLE
  2
APPID
  5
9
330
0
100
AcDbSymbolTable
 70
     1
  0
APPID
  5
12
330
9
100
AcDbSymbolTableRecord
100
AcDbRegAppTableRecord
  2
ACAD
 70
     0
  0
ENDTAB
  0
TABLE
  2
DIMSTYLE
  5
A
330
0
100
AcDbSymbolTable
 70
     1
100
AcDbDimStyleTable
  0
DIMSTYLE
105
27
330
A
100
AcDbSymbolTableRecord
100
AcDbDimStyleTableRecord
  2
Standard
 70
     0
178
     0
340
11
  0
ENDTAB
  0
TABLE
  2
BLOCK_RECORD
  5
1
330
0
100
AcDbSymbolTable
 70
    11
  0
BLOCK_RECORD
  5
1F
330
1
100
AcDbSymbolTableRecord
100
AcDbBlockTableRecord
  2
*Model_Space
340
22
 70
     0
280
     1
281
     0
  0
BLOCK_RECORD
  5
1B
330
1
100
AcDbSymbolTableRecord
100
AcDbBlockTableRecord
  2
*Paper_Space
340
1E
 70
     0
280
     1
281
     0
  0
BLOCK_RECORD
  5
23
330
1
100
AcDbSymbolTableRecord
100
AcDbBlockTableRecord
  2
*Paper_Space0
340
26
 70
     0
280
     1
281
     0
  0
BLOCK_RECORD
  5
AA
330
1
100
AcDbSymbolTableRecord
100
AcDbBlockTableRecord
  2
block 2
340
0
102
{BLKREFS
331
AB
102
}
 70
     0
280
     1
281
     0
  0
BLOCK_RECORD
  5
E2
330
1
100
AcDbSymbolTableRecord
100
AcDbBlockTableRecord
  2
block 3
340
0
102
{BLKREFS
331
E3
102
}
 70
     0
280
     1
281
     0
  0
BLOCK_RECORD
  5
150
330
1
100
AcDbSymbolTableRecord
100
AcDbBlockTableRecord
  2
block 4
340
0
102
{BLKREFS
331
151
102
}
 70
     0
280
     1
281
     0
  0
BLOCK_RECORD
  5
177
330
1
100
AcDbSymbolTableRecord
100
AcDbBlockTableRecord
  2
block 5
340
0
102
{BLKREFS
331
178
102
}
 70
     0
280
     1
281
     0
  0
BLOCK_RECORD
  5
19E
330
1
100
AcDbSymbolTableRecord
100
AcDbBlockTableRecord
  2
block 6
340
0
102
{BLKREFS
331
19F
102
}
 70
     0
280
     1
281
     0
  0
BLOCK_RECORD
  5
27B
330
1
100
AcDbSymbolTableRecord
100
AcDbBlockTableRecord
  2
block 7
340
0
102
{BLKREFS
331
27C
102
}
 70
     0
280
     1
281
     0
  0
BLOCK_RECORD
  5
28F
330
1
100
AcDbSymbolTableRecord
100
AcDbBlockTableRecord
  2
block 8
340
0
102
{BLKREFS
331
290
102
}
 70
     0
280
     1
281
     0
  0
BLOCK_RECORD
  5
29E
330
1
100
AcDbSymbolTableRecord
100
AcDbBlockTableRecord
  2
block 9
340
0
102
{BLKREFS
331
29F
102
}
 70
     0
280
     1
281
     0
  0
BLOCK_RECORD
  5
2AD
330
1
100
AcDbSymbolTableRecord
100
AcDbBlockTableRecord
  2
block 10
340
0
102
{BLKREFS
331
2AE
102
}
 70
     0
280
     1
281
     0
  0
BLOCK_RECORD
  5
2BC
330
1
100
AcDbSymbolTableRecord
100
AcDbBlockTableRecord
  2
block 11
340
0
102
{BLKREFS
331
2BD
102
}
 70
     0
280
     1
281
     0
  0
ENDTAB
  0
ENDSEC
  0
SECTION
  2
BLOCKS
  0
BLOCK
  5
20
330
1F
100
AcDbEntity
  8
0
100
AcDbBlockBegin
  2
*Model_Space
 70
     0
 10
0.0
 20
0.0
 30
0.0
  3
*Model_Space
  1

  0
ENDBLK
  5
21
330
1F
100
AcDbEntity
  8
0
100
AcDbBlockEnd
  0
BLOCK
  5
1C
330
1B
100
AcDbEntity
 67
     1
  8
0
100
AcDbBlockBegin
  2
*Paper_Space
 70
     0
 10
0.0
 20
0.0
 30
0.0
  3
*Paper_Space
  1

  0
ENDBLK
  5
1D
330
1B
100
AcDbEntity
 67
     1
  8
0
100
AcDbBlockEnd
  0
BLOCK
  5
24
330
23
100
AcDbEntity
  8
0
100
AcDbBlockBegin
  2
*Paper_Space0
 70
     0
 10
0.0
 20
0.0
 30
0.0
  3
*Paper_Space0
  1

  0
ENDBLK
  5
25
330
23
100
AcDbEntity
  8
0
100
AcDbBlockEnd
  0
BLOCK
  5
AC
330
AA
100
AcDbEntity
  8
0
100
AcDbBlockBegin
  2
block 2
 70
     0
 10
0.0
 20
0.0
 30
0.0
  3
block 2
  1

  0
SPLINE
  5
AE
330
AA
100
AcDbEntity
  8
Layer 1
 62
     7
420
 16777215
370
    30
100
AcDbSpline
210
0.0
220
0.0
230
1.0
 70
    11
 71
     3
 72
    38
 73
    34
 74
     0
 42
0.0000000001
 43
0.0000000001
 12
1.0
 22
0.0
 32
0.0
 13
1.0
 23
0.0
 33
0.0
 40
0.0
 40
0.0
 40
0.0
 40
0.0
 40
1.0
 40
1.0
 40
1.0
 40
2.0
 40
2.0
 40
2.0
 40
3.0
 40
3.0
 40
3.0
 40
4.0
 40
4.0
 40
4.0
 40
5.0
 40
5.0
 40
5.0
 40
6.0
 40
6.0
 40
6.0
 40
7.0
 40
7.0
 40
7.0
 40
8.0
 40
8.0
 40
8.0
 40
9.0
 40
9.0
 40
9.0
 40
10.0
 40
10.0
 40
10.0
 40
11.0
 40
11.0
 40
11.0
 40
11.0
 10
7.549798079906268
 20
6.061881521182436
 30
0.0
 10
7.549798079906268
 20
6.061881521182436
 30
0.0
 10
7.260656157686336
 20
6.061881521182436
 30
0.0
 10
7.260656157686336
 20
6.061881521182436
 30
0.0
 10
7.260656157686336
 20
6.061881521182436
 30
0.0
 10
7.260656157686336
 20
5.967149472067401
 30
0.0
 10
7.260656157686336
 20
5.967149472067401
 30
0.0
 10
7.260878416364031
 20
5.959806626967596
 30
0.0
 10
7.266925098707891
 20
5.93814159885134
 30
0.0
 10
7.269521578587589
 20
5.93230081378801
 30
0.0
 10
7.269521578587589
 20
5.93230081378801
 30
0.0
 10
7.36623941551463
 20
5.65058249076608
 30
0.0
 10
7.36623941551463
 20
5.65058249076608
 30
0.0
 10
7.372082533835914
 20
5.631109140133604
 30
0.0
 10
7.377923851708474
 20
5.603195694369535
 30
0.0
 10
7.381818294792828
 20
5.572037935813088
 30
0.0
 10
7.381818294792828
 20
5.572037935813088
 30
0.0
 10
7.415196562942419
 20
4.833969025087981
 30
0.0
 10
7.415196562942419
 20
4.833969025087981
 30
0.0
 10
7.415196562942419
 20
4.833969025087981
 30
0.0
 10
7.569739045382398
 20
4.833969025087981
 30
0.0
 10
7.569739045382398
 20
4.833969025087981
 30
0.0
 10
7.569739045382398
 20
4.833969025087981
 30
0.0
 10
7.569739045382398
 20
6.046911256788007
 30
0.0
 10
7.569739045382398
 20
6.046911256788007
 30
0.0
 10
7.569739045382398
 20
6.046911256788007
 30
0.0
 10
7.569809669635106
 20
6.04216307323342
 30
0.0
 10
7.569809669635106
 20
6.04216307323342
 30
0.0
 10
7.569809669635106
 20
6.052833308097635
 30
0.0
 10
7.561137426836922
 20
6.06149516497635
 30
0.0
 10
7.550458624387652
 20
6.06149516497635
 30
0.0
 10
7.550458624387652
 20
6.06149516497635
 30
0.0
 10
7.549798079906268
 20
6.061881521182436
 30
0.0
 10
7.549798079906268
 20
6.061881521182436
 30
0.0
  0
HATCH
  5
AF
330
AA
100
AcDbEntity
  8
Layer 1
 62
   254
420
 13358815
100
AcDbHatch
 10
0.0
 20
0.0
 30
0.0
210
0.0
220
0.0
230
1.0
  2
SOLID
 70
     1
 71
     0
 91
        1
 92
        1
 93
        1
 72
     4
 94
        3
 73
     0
 74
     1
 95
       38
 96
       34
 40
0.0
 40
0.0
 40
0.0
 40
0.0
 40
1.0
 40
1.0
 40
1.0
 40
2.0
 40
2.0
 40
2.0
 40
3.0
 40
3.0
 40
3.0
 40
4.0
 40
4.0
 40
4.0
 40
5.0
 40
5.0
 40
5.0
 40
6.0
 40
6.0
 40
6.0
 40
7.0
 40
7.0
 40
7.0
 40
8.0
 40
8.0
 40
8.0
 40
9.0
 40
9.0
 40
9.0
 40
10.0
 40
10.0
 40
10.0
 40
11.0
 40
11.0
 40
11.0
 40
11.0
 10
7.549798079906268
 20
6.061881521182436
 10
7.549798079906268
 20
6.061881521182436
 10
7.260656157686336
 20
6.061881521182436
 10
7.260656157686336
 20
6.061881521182436
 10
7.260656157686336
 20
6.061881521182436
 10
7.260656157686336
 20
5.967149472067401
 10
7.260656157686336
 20
5.967149472067401
 10
7.260878416364031
 20
5.959806626967596
 10
7.266925098707891
 20
5.93814159885134
 10
7.269521578587589
 20
5.93230081378801
 10
7.269521578587589
 20
5.93230081378801
 10
7.36623941551463
 20
5.65058249076608
 10
7.36623941551463
 20
5.65058249076608
 10
7.372082533835914
 20
5.631109140133604
 10
7.377923851708474
 20
5.603195694369535
 10
7.381818294792828
 20
5.572037935813088
 10
7.381818294792828
 20
5.572037935813088
 10
7.415196562942419
 20
4.833969025087981
 10
7.415196562942419
 20
4.833969025087981
 10
7.415196562942419
 20
4.833969025087981
 10
7.569739045382398
 20
4.833969025087981
 10
7.569739045382398
 20
4.833969025087981
 10
7.569739045382398
 20
4.833969025087981
 10
7.569739045382398
 20
6.046911256788007
 10
7.569739045382398
 20
6.046911256788007
 10
7.569739045382398
 20
6.046911256788007
 10
7.569809669635106
 20
6.04216307323342
 10
7.569809669635106
 20
6.04216307323342
 10
7.569809669635106
 20
6.052833308097635
 10
7.561137426836922
 20
6.06149516497635
 10
7.550458624387652
 20
6.06149516497635
 10
7.550458624387652
 20
6.06149516497635
 10
7.549798079906268
 20
6.061881521182436
 10
7.549798079906268
 20
6.061881521182436
 97
        0
 97
        0
 75
     2
 76
     1
 98
        0
  0
POLYLINE
  5
B0
330
AA
100
AcDbEntity
  8
Layer 1
  6
AI-Linetype-2
 62
   250
420
  2301728
370
    30
100
AcDb2dPolyline
 66
     1
 10
0.0
 20
0.0
 30
0.0
  0
VERTEX
  5
B1
330
B0
100
AcDbEntity
  8
Layer 1
  6
AI-Linetype-2
 62
   250
420
  2301728
370
    30
100
AcDbVertex
100
AcDb2dVertex
 10
7.396809331026311
 20
6.06149516497635
 30
0.0
  0
VERTEX
  5
B2
330
B0
100
AcDbEntity
  8
Layer 1
  6
AI-Linetype-2
 62
   250
420
  2301728
370
    30
100
AcDbVertex
100
AcDb2dVertex
 10
7.396809331026311
 20
6.054578142576802
 30
0.0
  0
SEQEND
  5
B4
330
B0
100
AcDbEntity
  8
Layer 1
  6
AI-Linetype-2
 62
   250
420
  2301728
370
    30
  0
POLYLINE
  5
B5
330
AA
100
AcDbEntity
  8
Layer 1
  6
AI-Linetype-3
 62
   250
420
  2301728
370
    30
100
AcDb2dPolyline
 66
     1
 10
0.0
 20
0.0
 30
0.0
  0
VERTEX
  5
B6
330
B5
100
AcDbEntity
  8
Layer 1
  6
AI-Linetype-3
 62
   250
420
  2301728
370
    30
100
AcDbVertex
100
AcDb2dVertex
 10
7.500464962191889
 20
6.054578142576802
 30
0.0
  0
VERTEX
  5
B7
330
B5
100
AcDbEntity
  8
Layer 1
  6
AI-Linetype-3
 62
   250
420
  2301728
370
    30
100
AcDbVertex
100
AcDb2dVertex
 10
7.500464962191889
 20
6.06149516497635
 30
0.0
  0
SEQEND
  5
B9
330
B5
100
AcDbEntity
  8
Layer 1
  6
AI-Linetype-3
 62
   250
420
  2301728
370
    30
  0
SPLINE
  5
BA
330
AA
100
AcDbEntity
  8
Layer 1
  6
AI-Linetype-4
 62
   250
420
  2301728
370
    20
100
AcDbSpline
210
0.0
220
0.0
230
1.0
 70
     8
 71
     3
 72
    20
 73
    16
 74
     0
 42
0.0000000001
 43
0.0000000001
 12
1.0
 22
0.0
 32
0.0
 13
1.0
 23
0.0
 33
0.0
 40
0.0
 40
0.0
 40
0.0
 40
0.0
 40
1.0
 40
1.0
 40
1.0
 40
2.0
 40
2.0
 40
2.0
 40
3.0
 40
3.0
 40
3.0
 40
4.0
 40
4.0
 40
4.0
 40
5.0
 40
5.0
 40
5.0
 40
5.0
 10
7.380196014164008
 20
6.054578142576802
 30
0.0
 10
7.380196014164008
 20
6.054578142576802
 30
0.0
 10
7.380185628244488
 20
5.972627006021639
 30
0.0
 10
7.380185628244488
 20
5.972627006021639
 30
0.0
 10
7.380185628244488
 20
5.959887637139849
 30
0.0
 10
7.390511586483247
 20
5.949582984303914
 30
0.0
 10
7.403229906472827
 20
5.949582984303914
 30
0.0
 10
7.403229906472827
 20
5.949582984303914
 30
0.0
 10
7.495373784443776
 20
5.949582984303914
 30
0.0
 10
7.495373784443776
 20
5.949582984303914
 30
0.0
 10
7.508081995566979
 20
5.949582984303914
 30
0.0
 10
7.518407676752607
 20
5.959887637139849
 30
0.0
 10
7.518407676752607
 20
5.972627006021639
 30
0.0
 10
7.518407676752607
 20
5.972627006021639
 30
0.0
 10
7.518407676752607
 20
6.054578142576802
 30
0.0
 10
7.518407676752607
 20
6.054578142576802
 30
0.0
  0
SPLINE
  5
BC
330
AA
100
AcDbEntity
  8
Layer 1
  6
AI-Linetype-5
 62
   250
420
  2301728
370
    20
100
AcDbSpline
210
0.0
220
0.0
230
1.0
 70
     8
 71
     3
 72
    20
 73
    16
 74
     0
 42
0.0000000001
 43
0.0000000001
 12
1.0
 22
0.0
 32
0.0
 13
1.0
 23
0.0
 33
0.0
 40
0.0
 40
0.0
 40
0.0
 40
0.0
 40
1.0
 40
1.0
 40
1.0
 40
2.0
 40
2.0
 40
2.0
 40
3.0
 40
3.0
 40
3.0
 40
4.0
 40
4.0
 40
4.0
 40
5.0
 40
5.0
 40
5.0
 40
5.0
 10
7.358530986047754
 20
6.059528331107534
 30
0.0
 10
7.358530986047754
 20
6.059528331107534
 30
0.0
 10
7.358530986047754
 20
5.972627006021639
 30
0.0
 10
7.358530986047754
 20
5.972627006021639
 30
0.0
 10
7.358530986047754
 20
5.94796044716443
 30
0.0
 10
7.378552961696136
 20
5.927938727479892
 30
0.0
 10
7.403229906472827
 20
5.927938727479892
 30
0.0
 10
7.403229906472827
 20
5.927938727479892
 30
0.0
 10
7.495373784443776
 20
5.927938727479892
 30
0.0
 10
7.495373784443776
 20
5.927938727479892
 30
0.0
 10
7.520040343300934
 20
5.927938727479892
 30
0.0
 10
7.540062318949317
 20
5.94796044716443
 30
0.0
 10
7.540062318949317
 20
5.972627006021639
 30
0.0
 10
7.540062318949317
 20
5.972627006021639
 30
0.0
 10
7.540062318949317
 20
6.054578142576802
 30
0.0
 10
7.540062318949317
 20
6.054578142576802
 30
0.0
  0
SPLINE
  5
BE
330
AA
100
AcDbEntity
  8
Layer 1
 62
   250
420
  2301728
370
    20
100
AcDbSpline
210
0.0
220
0.0
230
1.0
 70
    11
 71
     3
 72
    17
 73
    13
 74
     0
 42
0.0000000001
 43
0.0000000001
 12
1.0
 22
0.0
 32
0.0
 13
1.0
 23
0.0
 33
0.0
 40
0.0
 40
0.0
 40
0.0
 40
0.0
 40
1.0
 40
1.0
 40
1.0
 40
2.0
 40
2.0
 40
2.0
 40
3.0
 40
3.0
 40
3.0
 40
4.0
 40
4.0
 40
4.0
 40
4.0
 10
7.514197224979675
 20
5.193157514582759
 30
0.0
 10
7.514197224979675
 20
5.175692552319914
 30
0.0
 10
7.500018367652577
 20
5.161513694992865
 30
0.0
 10
7.482553405389744
 20
5.161513694992865
 30
0.0
 10
7.465078057207379
 20
5.161513694992865
 30
0.0
 10
7.450899199880293
 20
5.175692552319914
 30
0.0
 10
7.450899199880293
 20
5.193157514582759
 30
0.0
 10
7.450899199880293
 20
5.210604020032911
 30
0.0
 10
7.465078057207379
 20
5.224782639517571
 30
0.0
 10
7.482553405389744
 20
5.224782639517571
 30
0.0
 10
7.500018367652577
 20
5.224782639517571
 30
0.0
 10
7.514197224979675
 20
5.210604020032911
 30
0.0
 10
7.514197224979675
 20
5.193157514582759
 30
0.0
  0
POLYLINE
  5
BF
330
AA
100
AcDbEntity
  8
Layer 1
  6
AI-Linetype-6
 62
   250
420
  2301728
370
    20
100
AcDb2dPolyline
 66
     1
 10
0.0
 20
0.0
 30
0.0
  0
VERTEX
  5
C0
330
BF
100
AcDbEntity
  8
Layer 1
  6
AI-Linetype-6
 62
   250
420
  2301728
370
    20
100
AcDbVertex
100
AcDb2dVertex
 10
7.478091614364454
 20
5.882196804771284
 30
0.0
  0
VERTEX
  5
C1
330
BF
100
AcDbEntity
  8
Layer 1
  6
AI-Linetype-6
 62
   250
420
  2301728
370
    20
100
AcDbVertex
100
AcDb2dVertex
 10
7.478091614364454
 20
5.811462461296438
 30
0.0
  0
VERTEX
  5
C2
330
BF
100
AcDbEntity
  8
Layer 1
  6
AI-Linetype-6
 62
   250
420
  2301728
370
    20
100
AcDbVertex
100
AcDb2dVertex
 10
7.420501690632616
 20
5.811462461296438
 30
0.0
  0
VERTEX
  5
C3
330
BF
100
AcDbEntity
  8
Layer 1
  6
AI-Linetype-6
 62
   250
420
  2301728
370
    20
100
AcDbVertex
100
AcDb2dVertex
 10
7.420501690632616
 20
5.882196804771284
 30
0.0
  0
SEQEND
  5
C5
330
BF
100
AcDbEntity
  8
Layer 1
  6
AI-Linetype-6
 62
   250
420
  2301728
370
    20
  0
POLYLINE
  5
C6
330
AA
100
AcDbEntity
  8
Layer 1
  6
AI-Linetype-7
 62
   250
420
  2301728
370
    20
100
AcDb2dPolyline
 66
     1
 10
0.0
 20
0.0
 30
0.0
  0
VERTEX
  5
C7
330
C6
100
AcDbEntity
  8
Layer 1
  6
AI-Linetype-7
 62
   250
420
  2301728
370
    20
100
AcDbVertex
100
AcDb2dVertex
 10
7.478091614364454
 20
6.059974666358786
 30
0.0
  0
VERTEX
  5
C8
330
C6
100
AcDbEntity
  8
Layer 1
  6
AI-Linetype-7
 62
   250
420
  2301728
370
    20
100
AcDbVertex
100
AcDb2dVertex
 10
7.478091614364454
 20
5.949582984303914
 30
0.0
  0
SEQEND
  5
CA
330
C6
100
AcDbEntity
  8
Layer 1
  6
AI-Linetype-7
 62
   250
420
  2301728
370
    20
  0
POLYLINE
  5
CB
330
AA
100
AcDbEntity
  8
Layer 1
  6
AI-Linetype-8
 62
   250
420
  2301728
370
    20
100
AcDb2dPolyline
 66
     1
 10
0.0
 20
0.0
 30
0.0
  0
VERTEX
  5
CC
330
CB
100
AcDbEntity
  8
Layer 1
  6
AI-Linetype-8
 62
   250
420
  2301728
370
    20
100
AcDbVertex
100
AcDb2dVertex
 10
7.404841801182151
 20
5.927938727479892
 30
0.0
  0
VERTEX
  5
CD
330
CB
100
AcDbEntity
  8
Layer 1
  6
AI-Linetype-8
 62
   250
420
  2301728
370
    20
100
AcDbVertex
100
AcDb2dVertex
 10
7.493751503814918
 20
5.927938727479892
 30
0.0
  0
VERTEX
  5
CE
330
CB
100
AcDbEntity
  8
Layer 1
  6
AI-Linetype-8
 62
   250
420
  2301728
370
    20
100
AcDbVertex
100
AcDb2dVertex
 10
7.493751503814918
 20
5.882196804771284
 30
0.0
  0
VERTEX
  5
CF
330
CB
100
AcDbEntity
  8
Layer 1
  6
AI-Linetype-8
 62
   250
420
  2301728
370
    20
100
AcDbVertex
100
AcDb2dVertex
 10
7.404841801182151
 20
5.882196804771284
 30
0.0
  0
VERTEX
  5
D0
330
CB
100
AcDbEntity
  8
Layer 1
  6
AI-Linetype-8
 62
   250
420
  2301728
370
    20
100
AcDbVertex
100
AcDb2dVertex
 10
7.404841801182151
 20
5.927938727479892
 30
0.0
  0
SEQEND
  5
D2
330
CB
100
AcDbEntity
  8
Layer 1
  6
AI-Linetype-8
 62
   250
420
  2301728
370
    20
  0
POLYLINE
  5
D3
330
AA
100
AcDbEntity
  8
Layer 1
  6
AI-Linetype-9
 62
   250
420
  2301728
370
    20
100
AcDb2dPolyline
 66
     1
 10
0.0
 20
0.0
 30
0.0
  0
VERTEX
  5
D4
330
D3
100
AcDbEntity
  8
Layer 1
  6
AI-Linetype-9
 62
   250
420
  2301728
370
    20
100
AcDbVertex
100
AcDb2dVertex
 10
7.435014974568225
 20
5.927938727479892
 30
0.0
  0
VERTEX
  5
D5
330
D3
100
AcDbEntity
  8
Layer 1
  6
AI-Linetype-9
 62
   250
420
  2301728
370
    20
100
AcDbVertex
100
AcDb2dVertex
 10
7.435014974568225
 20
5.882196804771284
 30
0.0
  0
SEQEND
  5
D7
330
D3
100
AcDbEntity
  8
Layer 1
  6
AI-Linetype-9
 62
   250
420
  2301728
370
    20
  0
POLYLINE
  5
D8
330
AA
100
AcDbEntity
  8
Layer 1
  6
AI-Linetype-10
 62
   250
420
  2301728
370
    20
100
AcDb2dPolyline
 66
     1
 10
0.0
 20
0.0
 30
0.0
  0
VERTEX
  5
D9
330
D8
100
AcDbEntity
  8
Layer 1
  6
AI-Linetype-10
 62
   250
420
  2301728
370
    20
100
AcDbVertex
100
AcDb2dVertex
 10
7.467543674501156
 20
5.927938727479892
 30
0.0
  0
VERTEX
  5
DA
330
D8
100
AcDbEntity
  8
Layer 1
  6
AI-Linetype-10
 62
   250
420
  2301728
370
    20
100
AcDbVertex
100
AcDb2dVertex
 10
7.467543674501156
 20
5.882196804771284
 30
0.0
  0
SEQEND
  5
DC
330
D8
100
AcDbEntity
  8
Layer 1
  6
AI-Linetype-10
 62
   250
420
  2301728
370
    20
  0
POLYLINE
  5
DD
330
AA
100
AcDbEntity
  8
Layer 1
  6
AI-Linetype-11
 62
   250
420
  2301728
370
    20
100
AcDb2dPolyline
 66
     1
 10
0.0
 20
0.0
 30
0.0
  0
VERTEX
  5
DE
330
DD
100
AcDbEntity
  8
Layer 1
  6
AI-Linetype-11
 62
   250
420
  2301728
370
    20
100
AcDbVertex
100
AcDb2dVertex
 10
7.420501690632616
 20
5.949582984303914
 30
0.0
  0
VERTEX
  5
DF
330
DD
100
AcDbEntity
  8
Layer 1
  6
AI-Linetype-11
 62
   250
420
  2301728
370
    20
100
AcDbVertex
100
AcDb2dVertex
 10
7.420501690632616
 20
6.061717423654045
 30
0.0
  0
SEQEND
  5
E1
330
DD
100
AcDbEntity
  8
Layer 1
  6
AI-Linetype-11
 62
   250
420
  2301728
370
    20
  0
ENDBLK
  5
AD
330
AA
100
AcDbEntity
  8
0
100
AcDbBlockEnd
  0
BLOCK
  5
E4
330
E2
100
AcDbEntity
  8
0
100
AcDbBlockBegin
  2
block 3
 70
     0
 10
0.0
 20
0.0
 30
0.0
  3
block 3
  1

  0
SPLINE
  5
E6
330
E2
100
AcDbEntity
  8
Layer 1
 62
     7
420
 16777215
370
    30
100
AcDbSpline
210
0.0
220
0.0
230
1.0
 70
    11
 71
     3
 72
    38
 73
    34
 74
     0
 42
0.0000000001
 43
0.0000000001
 12
1.0
 22
0.0
 32
0.0
 13
1.0
 23
0.0
 33
0.0
 40
0.0
 40
0.0
 40
0.0
 40
0.0
 40
1.0
 40
1.0
 40
1.0
 40
2.0
 40
2.0
 40
2.0
 40
3.0
 40
3.0
 40
3.0
 40
4.0
 40
4.0
 40
4.0
 40
5.0
 40
5.0
 40
5.0
 40
6.0
 40
6.0
 40
6.0
 40
7.0
 40
7.0
 40
7.0
 40
8.0
 40
8.0
 40
8.0
 40
9.0
 40
9.0
 40
9.0
 40
10.0
 40
10.0
 40
10.0
 40
11.0
 40
11.0
 40
11.0
 40
11.0
 10
7.549798079906268
 20
7.984288528636157
 30
0.0
 10
7.549798079906268
 20
7.984288528636157
 30
0.0
 10
7.260656157686336
 20
7.984288528636157
 30
0.0
 10
7.260656157686336
 20
7.984288528636157
 30
0.0
 10
7.260656157686336
 20
7.984288528636157
 30
0.0
 10
7.260656157686336
 20
8.079020269839537
 30
0.0
 10
7.260656157686336
 20
8.079020269839537
 30
0.0
 10
7.260878416364031
 20
8.086363114939356
 30
0.0
 10
7.266925098707891
 20
8.108028143055586
 30
0.0
 10
7.269521578587589
 20
8.113869184192986
 30
0.0
 10
7.269521578587589
 20
8.113869184192986
 30
0.0
 10
7.36623941551463
 20
8.39558725114087
 30
0.0
 10
7.36623941551463
 20
8.39558725114087
 30
0.0
 10
7.372082533835914
 20
8.415060850238648
 30
0.0
 10
7.377923851708474
 20
8.442974047537405
 30
0.0
 10
7.381818294792828
 20
8.474131806093864
 30
0.0
 10
7.381818294792828
 20
8.474131806093864
 30
0.0
 10
7.415196562942419
 20
9.212200945146833
 30
0.0
 10
7.415196562942419
 20
9.212200945146833
 30
0.0
 10
7.415196562942419
 20
9.212200945146833
 30
0.0
 10
7.569739045382398
 20
9.212200945146833
 30
0.0
 10
7.569739045382398
 20
9.212200945146833
 30
0.0
 10
7.569739045382398
 20
9.212200945146833
 30
0.0
 10
7.569739045382398
 20
7.999258485118944
 30
0.0
 10
7.569739045382398
 20
7.999258485118944
 30
0.0
 10
7.569739045382398
 20
7.999258485118944
 30
0.0
 10
7.569809669635106
 20
8.00400692752295
 30
0.0
 10
7.569809669635106
 20
8.00400692752295
 30
0.0
 10
7.569809669635106
 20
7.993336433809304
 30
0.0
 10
7.561137426836922
 20
7.984674576930628
 30
0.0
 10
7.550458624387652
 20
7.984674576930628
 30
0.0
 10
7.550458624387652
 20
7.984674576930628
 30
0.0
 10
7.549798079906268
 20
7.984288528636157
 30
0.0
 10
7.549798079906268
 20
7.984288528636157
 30
0.0
  0
HATCH
  5
E7
330
E2
100
AcDbEntity
  8
Layer 1
 62
   254
420
 13358815
100
AcDbHatch
 10
0.0
 20
0.0
 30
0.0
210
0.0
220
0.0
230
1.0
  2
SOLID
 70
     1
 71
     0
 91
        1
 92
        1
 93
        1
 72
     4
 94
        3
 73
     0
 74
     1
 95
       38
 96
       34
 40
0.0
 40
0.0
 40
0.0
 40
0.0
 40
1.0
 40
1.0
 40
1.0
 40
2.0
 40
2.0
 40
2.0
 40
3.0
 40
3.0
 40
3.0
 40
4.0
 40
4.0
 40
4.0
 40
5.0
 40
5.0
 40
5.0
 40
6.0
 40
6.0
 40
6.0
 40
7.0
 40
7.0
 40
7.0
 40
8.0
 40
8.0
 40
8.0
 40
9.0
 40
9.0
 40
9.0
 40
10.0
 40
10.0
 40
10.0
 40
11.0
 40
11.0
 40
11.0
 40
11.0
 10
7.549798079906268
 20
7.984288528636157
 10
7.549798079906268
 20
7.984288528636157
 10
7.260656157686336
 20
7.984288528636157
 10
7.260656157686336
 20
7.984288528636157
 10
7.260656157686336
 20
7.984288528636157
 10
7.260656157686336
 20
8.079020269839537
 10
7.260656157686336
 20
8.079020269839537
 10
7.260878416364031
 20
8.086363114939356
 10
7.266925098707891
 20
8.108028143055586
 10
7.269521578587589
 20
8.113869184192986
 10
7.269521578587589
 20
8.113869184192986
 10
7.36623941551463
 20
8.39558725114087
 10
7.36623941551463
 20
8.39558725114087
 10
7.372082533835914
 20
8.415060850238648
 10
7.377923851708474
 20
8.442974047537405
 10
7.381818294792828
 20
8.474131806093864
 10
7.381818294792828
 20
8.474131806093864
 10
7.415196562942419
 20
9.212200945146833
 10
7.415196562942419
 20
9.212200945146833
 10
7.415196562942419
 20
9.212200945146833
 10
7.569739045382398
 20
9.212200945146833
 10
7.569739045382398
 20
9.212200945146833
 10
7.569739045382398
 20
9.212200945146833
 10
7.569739045382398
 20
7.999258485118944
 10
7.569739045382398
 20
7.999258485118944
 10
7.569739045382398
 20
7.999258485118944
 10
7.569809669635106
 20
8.00400692752295
 10
7.569809669635106
 20
8.00400692752295
 10
7.569809669635106
 20
7.993336433809304
 10
7.561137426836922
 20
7.984674576930628
 10
7.550458624387652
 20
7.984674576930628
 10
7.550458624387652
 20
7.984674576930628
 10
7.549798079906268
 20
7.984288528636157
 10
7.549798079906268
 20
7.984288528636157
 97
        0
 97
        0
 75
     2
 76
     1
 98
        0
  0
POLYLINE
  5
E8
330
E2
100
AcDbEntity
  8
Layer 1
  6
AI-Linetype-12
 62
   250
420
  2301728
370
    30
100
AcDb2dPolyline
 66
     1
 10
0.0
 20
0.0
 30
0.0
  0
VERTEX
  5
E9
330
E8
100
AcDbEntity
  8
Layer 1
  6
AI-Linetype-12
 62
   250
420
  2301728
370
    30
100
AcDbVertex
100
AcDb2dVertex
 10
7.396809331026311
 20
7.984674576930628
 30
0.0
  0
VERTEX
  5
EA
330
E8
100
AcDbEntity
  8
Layer 1
  6
AI-Linetype-12
 62
   250
420
  2301728
370
    30
100
AcDbVertex
100
AcDb2dVertex
 10
7.396809331026311
 20
7.99159159933015
 30
0.0
  0
SEQEND
  5
EC
330
E8
100
AcDbEntity
  8
Layer 1
  6
AI-Linetype-12
 62
   250
420
  2301728
370
    30
  0
POLYLINE
  5
ED
330
E2
100
AcDbEntity
  8
Layer 1
  6
AI-Linetype-13
 62
   250
420
  2301728
370
    30
100
AcDb2dPolyline
 66
     1
 10
0.0
 20
0.0
 30
0.0
  0
VERTEX
  5
EE
330
ED
100
AcDbEntity
  8
Layer 1
  6
AI-Linetype-13
 62
   250
420
  2301728
370
    30
100
AcDbVertex
100
AcDb2dVertex
 10
7.500464962191889
 20
7.99159159933015
 30
0.0
  0
VERTEX
  5
EF
330
ED
100
AcDbEntity
  8
Layer 1
  6
AI-Linetype-13
 62
   250
420
  2301728
370
    30
100
AcDbVertex
100
AcDb2dVertex
 10
7.500464962191889
 20
7.984674576930628
 30
0.0
  0
SEQEND
  5
F1
330
ED
100
AcDbEntity
  8
Layer 1
  6
AI-Linetype-13
 62
   250
420
  2301728
370
    30
  0
SPLINE
  5
F2
330
E2
100
AcDbEntity
  8
Layer 1
  6
AI-Linetype-14
 62
   250
420
  2301728
370
    20
100
AcDbSpline
210
0.0
220
0.0
230
1.0
 70
     8
 71
     3
 72
    20
 73
    16
 74
     0
 42
0.0000000001
 43
0.0000000001
 12
1.0
 22
0.0
 32
0.0
 13
1.0
 23
0.0
 33
0.0
 40
0.0
 40
0.0
 40
0.0
 40
0.0
 40
1.0
 40
1.0
 40
1.0
 40
2.0
 40
2.0
 40
2.0
 40
3.0
 40
3.0
 40
3.0
 40
4.0
 40
4.0
 40
4.0
 40
5.0
 40
5.0
 40
5.0
 40
5.0
 10
7.380196014164008
 20
7.99159159933015
 30
0.0
 10
7.380196014164008
 20
7.99159159933015
 30
0.0
 10
7.380185628244488
 20
8.073542735885338
 30
0.0
 10
7.380185628244488
 20
8.073542735885338
 30
0.0
 10
7.380185628244488
 20
8.086282104767102
 30
0.0
 10
7.390511586483247
 20
8.096587014113664
 30
0.0
 10
7.403229906472827
 20
8.096587014113664
 30
0.0
 10
7.403229906472827
 20
8.096587014113664
 30
0.0
 10
7.495373784443776
 20
8.096587014113664
 30
0.0
 10
7.495373784443776
 20
8.096587014113664
 30
0.0
 10
7.508081995566979
 20
8.096587014113664
 30
0.0
 10
7.518407676752607
 20
8.086282104767102
 30
0.0
 10
7.518407676752607
 20
8.073542735885338
 30
0.0
 10
7.518407676752607
 20
8.073542735885338
 30
0.0
 10
7.518407676752607
 20
7.99159159933015
 30
0.0
 10
7.518407676752607
 20
7.99159159933015
 30
0.0
  0
SPLINE
  5
F4
330
E2
100
AcDbEntity
  8
Layer 1
  6
AI-Linetype-15
 62
   250
420
  2301728
370
    20
100
AcDbSpline
210
0.0
220
0.0
230
1.0
 70
     8
 71
     3
 72
    20
 73
    16
 74
     0
 42
0.0000000001
 43
0.0000000001
 12
1.0
 22
0.0
 32
0.0
 13
1.0
 23
0.0
 33
0.0
 40
0.0
 40
0.0
 40
0.0
 40
0.0
 40
1.0
 40
1.0
 40
1.0
 40
2.0
 40
2.0
 40
2.0
 40
3.0
 40
3.0
 40
3.0
 40
4.0
 40
4.0
 40
4.0
 40
5.0
 40
5.0
 40
5.0
 40
5.0
 10
7.358530986047754
 20
7.986641670087478
 30
0.0
 10
7.358530986047754
 20
7.986641670087478
 30
0.0
 10
7.358530986047754
 20
8.073542735885338
 30
0.0
 10
7.358530986047754
 20
8.073542735885338
 30
0.0
 10
7.358530986047754
 20
8.098209294742508
 30
0.0
 10
7.378552961696136
 20
8.11823127039088
 30
0.0
 10
7.403229906472827
 20
8.11823127039088
 30
0.0
 10
7.403229906472827
 20
8.11823127039088
 30
0.0
 10
7.495373784443776
 20
8.11823127039088
 30
0.0
 10
7.495373784443776
 20
8.11823127039088
 30
0.0
 10
7.520040343300934
 20
8.11823127039088
 30
0.0
 10
7.540062318949317
 20
8.098209294742508
 30
0.0
 10
7.540062318949317
 20
8.073542735885338
 30
0.0
 10
7.540062318949317
 20
8.073542735885338
 30
0.0
 10
7.540062318949317
 20
7.99159159933015
 30
0.0
 10
7.540062318949317
 20
7.99159159933015
 30
0.0
  0
SPLINE
  5
F6
330
E2
100
AcDbEntity
  8
Layer 1
 62
   250
420
  2301728
370
    20
100
AcDbSpline
210
0.0
220
0.0
230
1.0
 70
    11
 71
     3
 72
    17
 73
    13
 74
     0
 42
0.0000000001
 43
0.0000000001
 12
1.0
 22
0.0
 32
0.0
 13
1.0
 23
0.0
 33
0.0
 40
0.0
 40
0.0
 40
0.0
 40
0.0
 40
1.0
 40
1.0
 40
1.0
 40
2.0
 40
2.0
 40
2.0
 40
3.0
 40
3.0
 40
3.0
 40
4.0
 40
4.0
 40
4.0
 40
4.0
 10
7.514197224979675
 20
8.853012227324168
 30
0.0
 10
7.514197224979675
 20
8.870477519885652
 30
0.0
 10
7.500018367652577
 20
8.884656046914111
 30
0.0
 10
7.482553405389744
 20
8.884656046914111
 30
0.0
 10
7.465078057207379
 20
8.884656046914111
 30
0.0
 10
7.450899199880293
 20
8.870477519885652
 30
0.0
 10
7.450899199880293
 20
8.853012227324168
 30
0.0
 10
7.450899199880293
 20
8.835565959716467
 30
0.0
 10
7.465078057207379
 20
8.821387102389382
 30
0.0
 10
7.482553405389744
 20
8.821387102389382
 30
0.0
 10
7.500018367652577
 20
8.821387102389382
 30
0.0
 10
7.514197224979675
 20
8.835565959716467
 30
0.0
 10
7.514197224979675
 20
8.853012227324168
 30
0.0
  0
POLYLINE
  5
F7
330
E2
100
AcDbEntity
  8
Layer 1
  6
AI-Linetype-16
 62
   250
420
  2301728
370
    20
100
AcDb2dPolyline
 66
     1
 10
0.0
 20
0.0
 30
0.0
  0
VERTEX
  5
F8
330
F7
100
AcDbEntity
  8
Layer 1
  6
AI-Linetype-16
 62
   250
420
  2301728
370
    20
100
AcDbVertex
100
AcDb2dVertex
 10
7.478091614364454
 20
8.163972937135656
 30
0.0
  0
VERTEX
  5
F9
330
F7
100
AcDbEntity
  8
Layer 1
  6
AI-Linetype-16
 62
   250
420
  2301728
370
    20
100
AcDbVertex
100
AcDb2dVertex
 10
7.478091614364454
 20
8.2347072806105
 30
0.0
  0
VERTEX
  5
FA
330
F7
100
AcDbEntity
  8
Layer 1
  6
AI-Linetype-16
 62
   250
420
  2301728
370
    20
100
AcDbVertex
100
AcDb2dVertex
 10
7.420501690632616
 20
8.2347072806105
 30
0.0
  0
VERTEX
  5
FB
330
F7
100
AcDbEntity
  8
Layer 1
  6
AI-Linetype-16
 62
   250
420
  2301728
370
    20
100
AcDbVertex
100
AcDb2dVertex
 10
7.420501690632616
 20
8.163972937135656
 30
0.0
  0
SEQEND
  5
FD
330
F7
100
AcDbEntity
  8
Layer 1
  6
AI-Linetype-16
 62
   250
420
  2301728
370
    20
  0
POLYLINE
  5
FE
330
E2
100
AcDbEntity
  8
Layer 1
  6
AI-Linetype-17
 62
   250
420
  2301728
370
    20
100
AcDb2dPolyline
 66
     1
 10
0.0
 20
0.0
 30
0.0
  0
VERTEX
  5
FF
330
FE
100
AcDbEntity
  8
Layer 1
  6
AI-Linetype-17
 62
   250
420
  2301728
370
    20
100
AcDbVertex
100
AcDb2dVertex
 10
7.478091614364454
 20
7.986195075548178
 30
0.0
  0
VERTEX
  5
100
330
FE
100
AcDbEntity
  8
Layer 1
  6
AI-Linetype-17
 62
   250
420
  2301728
370
    20
100
AcDbVertex
100
AcDb2dVertex
 10
7.478091614364454
 20
8.096587014113664
 30
0.0
  0
SEQEND
  5
102
330
FE
100
AcDbEntity
  8
Layer 1
  6
AI-Linetype-17
 62
   250
420
  2301728
370
    20
  0
POLYLINE
  5
103
330
E2
100
AcDbEntity
  8
Layer 1
  6
AI-Linetype-18
 62
   250
420
  2301728
370
    20
100
AcDb2dPolyline
 66
     1
 10
0.0
 20
0.0
 30
0.0
  0
VERTEX
  5
104
330
103
100
AcDbEntity
  8
Layer 1
  6
AI-Linetype-18
 62
   250
420
  2301728
370
    20
100
AcDbVertex
100
AcDb2dVertex
 10
7.404841801182151
 20
8.11823127039088
 30
0.0
  0
VERTEX
  5
105
330
103
100
AcDbEntity
  8
Layer 1
  6
AI-Linetype-18
 62
   250
420
  2301728
370
    20
100
AcDbVertex
100
AcDb2dVertex
 10
7.493751503814918
 20
8.11823127039088
 30
0.0
  0
VERTEX
  5
106
330
103
100
AcDbEntity
  8
Layer 1
  6
AI-Linetype-18
 62
   250
420
  2301728
370
    20
100
AcDbVertex
100
AcDb2dVertex
 10
7.493751503814918
 20
8.163972937135656
 30
0.0
  0
VERTEX
  5
107
330
103
100
AcDbEntity
  8
Layer 1
  6
AI-Linetype-18
 62
   250
420
  2301728
370
    20
100
AcDbVertex
100
AcDb2dVertex
 10
7.404841801182151
 20
8.163972937135656
 30
0.0
  0
VERTEX
  5
108
330
103
100
AcDbEntity
  8
Layer 1
  6
AI-Linetype-18
 62
   250
420
  2301728
370
    20
100
AcDbVertex
100
AcDb2dVertex
 10
7.404841801182151
 20
8.11823127039088
 30
0.0
  0
SEQEND
  5
10A
330
103
100
AcDbEntity
  8
Layer 1
  6
AI-Linetype-18
 62
   250
420
  2301728
370
    20
  0
POLYLINE
  5
10B
330
E2
100
AcDbEntity
  8
Layer 1
  6
AI-Linetype-19
 62
   250
420
  2301728
370
    20
100
AcDb2dPolyline
 66
     1
 10
0.0
 20
0.0
 30
0.0
  0
VERTEX
  5
10C
330
10B
100
AcDbEntity
  8
Layer 1
  6
AI-Linetype-19
 62
   250
420
  2301728
370
    20
100
AcDbVertex
100
AcDb2dVertex
 10
7.435014974568225
 20
8.11823127039088
 30
0.0
  0
VERTEX
  5
10D
330
10B
100
AcDbEntity
  8
Layer 1
  6
AI-Linetype-19
 62
   250
420
  2301728
370
    20
100
AcDbVertex
100
AcDb2dVertex
 10
7.435014974568225
 20
8.163972937135656
 30
0.0
  0
SEQEND
  5
10F
330
10B
100
AcDbEntity
  8
Layer 1
  6
AI-Linetype-19
 62
   250
420
  2301728
370
    20
  0
POLYLINE
  5
110
330
E2
100
AcDbEntity
  8
Layer 1
  6
AI-Linetype-20
 62
   250
420
  2301728
370
    20
100
AcDb2dPolyline
 66
     1
 10
0.0
 20
0.0
 30
0.0
  0
VERTEX
  5
111
330
110
100
AcDbEntity
  8
Layer 1
  6
AI-Linetype-20
 62
   250
420
  2301728
370
    20
100
AcDbVertex
100
AcDb2dVertex
 10
7.467543674501156
 20
8.11823127039088
 30
0.0
  0
VERTEX
  5
112
330
110
100
AcDbEntity
  8
Layer 1
  6
AI-Linetype-20
 62
   250
420
  2301728
370
    20
100
AcDbVertex
100
AcDb2dVertex
 10
7.467543674501156
 20
8.163972937135656
 30
0.0
  0
SEQEND
  5
114
330
110
100
AcDbEntity
  8
Layer 1
  6
AI-Linetype-20
 62
   250
420
  2301728
370
    20
  0
POLYLINE
  5
115
330
E2
100
AcDbEntity
  8
Layer 1
  6
AI-Linetype-21
 62
   250
420
  2301728
370
    20
100
AcDb2dPolyline
 66
     1
 10
0.0
 20
0.0
 30
0.0
  0
VERTEX
  5
116
330
115
100
AcDbEntity
  8
Layer 1
  6
AI-Linetype-21
 62
   250
420
  2301728
370
    20
100
AcDbVertex
100
AcDb2dVertex
 10
7.420501690632616
 20
8.096587014113664
 30
0.0
  0
VERTEX
  5
117
330
115
100
AcDbEntity
  8
Layer 1
  6
AI-Linetype-21
 62
   250
420
  2301728
370
    20
100
AcDbVertex
100
AcDb2dVertex
 10
7.420501690632616
 20
7.98445231825292
 30
0.0
  0
SEQEND
  5
119
330
115
100
AcDbEntity
  8
Layer 1
  6
AI-Linetype-21
 62
   250
420
  2301728
370
    20
  0
ENDBLK
  5
E5
330
E2
100
AcDbEntity
  8
0
100
AcDbBlockEnd
  0
BLOCK
  5
152
330
150
100
AcDbEntity
  8
0
100
AcDbBlockBegin
  2
block 4
 70
     0
 10
0.0
 20
0.0
 30
0.0
  3
block 4
  1

  0
SPLINE
  5
154
330
150
100
AcDbEntity
  8
Layer 1
 62
   250
420
  2301728
370
     9
100
AcDbSpline
210
0.0
220
0.0
230
1.0
 70
     8
 71
     3
 72
     8
 73
     4
 74
     0
 42
0.0000000001
 43
0.0000000001
 12
1.0
 22
0.0
 32
0.0
 13
1.0
 23
0.0
 33
0.0
 40
0.0
 40
0.0
 40
0.0
 40
0.0
 40
1.0
 40
1.0
 40
1.0
 40
1.0
 10
7.421332564194143
 20
7.957534399279792
 30
0.0
 10
7.421332564194143
 20
7.957534399279792
 30
0.0
 10
7.472128019376757
 20
7.974207647239559
 30
0.0
 10
7.476994861263279
 20
7.970699283626105
 30
0.0
  0
SPLINE
  5
155
330
150
100
AcDbEntity
  8
Layer 1
 62
   250
420
  2301728
370
     9
100
AcDbSpline
210
0.0
220
0.0
230
1.0
 70
     8
 71
     3
 72
     8
 73
     4
 74
     0
 42
0.0000000001
 43
0.0000000001
 12
1.0
 22
0.0
 32
0.0
 13
1.0
 23
0.0
 33
0.0
 40
0.0
 40
0.0
 40
0.0
 40
0.0
 40
1.0
 40
1.0
 40
1.0
 40
1.0
 10
7.419903739464011
 20
7.935038497033752
 30
0.0
 10
7.419903739464011
 20
7.935038497033752
 30
0.0
 10
7.472128019376757
 20
7.953761926074813
 30
0.0
 10
7.476994861263279
 20
7.950251485277451
 30
0.0
  0
SPLINE
  5
156
330
150
100
AcDbEntity
  8
Layer 1
 62
   250
420
  2301728
370
     9
100
AcDbSpline
210
0.0
220
0.0
230
1.0
 70
     8
 71
     3
 72
     8
 73
     4
 74
     0
 42
0.0000000001
 43
0.0000000001
 12
1.0
 22
0.0
 32
0.0
 13
1.0
 23
0.0
 33
0.0
 40
0.0
 40
0.0
 40
0.0
 40
0.0
 40
1.0
 40
1.0
 40
1.0
 40
1.0
 10
7.422774129823337
 20
7.912542594787674
 30
0.0
 10
7.422774129823337
 20
7.912542594787674
 30
0.0
 10
7.471164206045399
 20
7.930981450202264
 30
0.0
 10
7.476022739196322
 20
7.927452314749758
 30
0.0
  0
SPLINE
  5
157
330
150
100
AcDbEntity
  8
Layer 1
 62
   250
420
  2301728
370
     9
100
AcDbSpline
210
0.0
220
0.0
230
1.0
 70
     8
 71
     3
 72
     8
 73
     4
 74
     0
 42
0.0000000001
 43
0.0000000001
 12
1.0
 22
0.0
 32
0.0
 13
1.0
 23
0.0
 33
0.0
 40
0.0
 40
0.0
 40
0.0
 40
0.0
 40
1.0
 40
1.0
 40
1.0
 40
1.0
 10
7.421332564194143
 20
7.891749983385743
 30
0.0
 10
7.421332564194143
 20
7.891749983385743
 30
0.0
 10
7.472128019376757
 20
7.908423233007384
 30
0.0
 10
7.476994861263279
 20
7.904914869393918
 30
0.0
  0
SPLINE
  5
158
330
150
100
AcDbEntity
  8
Layer 1
 62
   250
420
  2301728
370
     9
100
AcDbSpline
210
0.0
220
0.0
230
1.0
 70
     8
 71
     3
 72
     8
 73
     4
 74
     0
 42
0.0000000001
 43
0.0000000001
 12
1.0
 22
0.0
 32
0.0
 13
1.0
 23
0.0
 33
0.0
 40
0.0
 40
0.0
 40
0.0
 40
0.0
 40
1.0
 40
1.0
 40
1.0
 40
1.0
 10
7.419903739464011
 20
7.869254081139704
 30
0.0
 10
7.419903739464011
 20
7.869254081139704
 30
0.0
 10
7.472128019376757
 20
7.887996206497759
 30
0.0
 10
7.476994861263279
 20
7.884467071045277
 30
0.0
  0
SPLINE
  5
159
330
150
100
AcDbEntity
  8
Layer 1
 62
   250
420
  2301728
370
     9
100
AcDbSpline
210
0.0
220
0.0
230
1.0
 70
     8
 71
     3
 72
     8
 73
     4
 74
     0
 42
0.0000000001
 43
0.0000000001
 12
1.0
 22
0.0
 32
0.0
 13
1.0
 23
0.0
 33
0.0
 40
0.0
 40
0.0
 40
0.0
 40
0.0
 40
1.0
 40
1.0
 40
1.0
 40
1.0
 10
7.422774129823337
 20
7.846737407054105
 30
0.0
 10
7.422774129823337
 20
7.846737407054105
 30
0.0
 10
7.471164206045399
 20
7.865197035970064
 30
0.0
 10
7.476022739196322
 20
7.861686595172702
 30
0.0
  0
SPLINE
  5
15A
330
150
100
AcDbEntity
  8
Layer 1
 62
   250
420
  2301728
370
     9
100
AcDbSpline
210
0.0
220
0.0
230
1.0
 70
     8
 71
     3
 72
     8
 73
     4
 74
     0
 42
0.0000000001
 43
0.0000000001
 12
1.0
 22
0.0
 32
0.0
 13
1.0
 23
0.0
 33
0.0
 40
0.0
 40
0.0
 40
0.0
 40
0.0
 40
1.0
 40
1.0
 40
1.0
 40
1.0
 10
7.421332564194143
 20
7.824241504808052
 30
0.0
 10
7.421332564194143
 20
7.824241504808052
 30
0.0
 10
7.472128019376757
 20
7.840914756135071
 30
0.0
 10
7.476994861263279
 20
7.837406392521605
 30
0.0
  0
SPLINE
  5
15B
330
150
100
AcDbEntity
  8
Layer 1
 62
   250
420
  2301728
370
     9
100
AcDbSpline
210
0.0
220
0.0
230
1.0
 70
     8
 71
     3
 72
     8
 73
     4
 74
     0
 42
0.0000000001
 43
0.0000000001
 12
1.0
 22
0.0
 32
0.0
 13
1.0
 23
0.0
 33
0.0
 40
0.0
 40
0.0
 40
0.0
 40
0.0
 40
1.0
 40
1.0
 40
1.0
 40
1.0
 10
7.419903739464011
 20
7.801745602562
 30
0.0
 10
7.419903739464011
 20
7.801745602562
 30
0.0
 10
7.472128019376757
 20
7.820487729625458
 30
0.0
 10
7.476994861263279
 20
7.816958594172976
 30
0.0
  0
SPLINE
  5
15C
330
150
100
AcDbEntity
  8
Layer 1
 62
   250
420
  2301728
370
     9
100
AcDbSpline
210
0.0
220
0.0
230
1.0
 70
     8
 71
     3
 72
     8
 73
     4
 74
     0
 42
0.0000000001
 43
0.0000000001
 12
1.0
 22
0.0
 32
0.0
 13
1.0
 23
0.0
 33
0.0
 40
0.0
 40
0.0
 40
0.0
 40
0.0
 40
1.0
 40
1.0
 40
1.0
 40
1.0
 10
7.422774129823337
 20
7.779228928476376
 30
0.0
 10
7.422774129823337
 20
7.779228928476376
 30
0.0
 10
7.471164206045399
 20
7.797688559097764
 30
0.0
 10
7.476022739196322
 20
7.794178118300389
 30
0.0
  0
SPLINE
  5
15D
330
150
100
AcDbEntity
  8
Layer 1
 62
   250
420
  2301728
370
     9
100
AcDbSpline
210
0.0
220
0.0
230
1.0
 70
     8
 71
     3
 72
     8
 73
     4
 74
     0
 42
0.0000000001
 43
0.0000000001
 12
1.0
 22
0.0
 32
0.0
 13
1.0
 23
0.0
 33
0.0
 40
0.0
 40
0.0
 40
0.0
 40
0.0
 40
1.0
 40
1.0
 40
1.0
 40
1.0
 10
7.421332564194143
 20
7.758457088914017
 30
0.0
 10
7.421332564194143
 20
7.758457088914017
 30
0.0
 10
7.472128019376757
 20
7.775132419086794
 30
0.0
 10
7.476994861263279
 20
7.771621978289418
 30
0.0
  0
SPLINE
  5
15E
330
150
100
AcDbEntity
  8
Layer 1
 62
   250
420
  2301728
370
     9
100
AcDbSpline
210
0.0
220
0.0
230
1.0
 70
     8
 71
     3
 72
     8
 73
     4
 74
     0
 42
0.0000000001
 43
0.0000000001
 12
1.0
 22
0.0
 32
0.0
 13
1.0
 23
0.0
 33
0.0
 40
0.0
 40
0.0
 40
0.0
 40
0.0
 40
1.0
 40
1.0
 40
1.0
 40
1.0
 10
7.419903739464011
 20
7.735961186667964
 30
0.0
 10
7.419903739464011
 20
7.735961186667964
 30
0.0
 10
7.472128019376757
 20
7.754705392577231
 30
0.0
 10
7.476994861263279
 20
7.751174179940815
 30
0.0
  0
SPLINE
  5
15F
330
150
100
AcDbEntity
  8
Layer 1
 62
   250
420
  2301728
370
     9
100
AcDbSpline
210
0.0
220
0.0
230
1.0
 70
     8
 71
     3
 72
     8
 73
     4
 74
     0
 42
0.0000000001
 43
0.0000000001
 12
1.0
 22
0.0
 32
0.0
 13
1.0
 23
0.0
 33
0.0
 40
0.0
 40
0.0
 40
0.0
 40
0.0
 40
1.0
 40
1.0
 40
1.0
 40
1.0
 10
7.422774129823337
 20
7.713444512582328
 30
0.0
 10
7.422774129823337
 20
7.713444512582328
 30
0.0
 10
7.471164206045399
 20
7.731904144865577
 30
0.0
 10
7.476022739196322
 20
7.728395781252137
 30
0.0
  0
SPLINE
  5
160
330
150
100
AcDbEntity
  8
Layer 1
 62
   250
420
  2301728
370
     9
100
AcDbSpline
210
0.0
220
0.0
230
1.0
 70
     8
 71
     3
 72
     8
 73
     4
 74
     0
 42
0.0000000001
 43
0.0000000001
 12
1.0
 22
0.0
 32
0.0
 13
1.0
 23
0.0
 33
0.0
 40
0.0
 40
0.0
 40
0.0
 40
0.0
 40
1.0
 40
1.0
 40
1.0
 40
1.0
 10
7.421332564194143
 20
7.692693444859527
 30
0.0
 10
7.421332564194143
 20
7.692693444859527
 30
0.0
 10
7.472128019376757
 20
7.709366699509738
 30
0.0
 10
7.476994861263279
 20
7.705858335896298
 30
0.0
  0
SPLINE
  5
161
330
150
100
AcDbEntity
  8
Layer 1
 62
   250
420
  2301728
370
     9
100
AcDbSpline
210
0.0
220
0.0
230
1.0
 70
     8
 71
     3
 72
     8
 73
     4
 74
     0
 42
0.0000000001
 43
0.0000000001
 12
1.0
 22
0.0
 32
0.0
 13
1.0
 23
0.0
 33
0.0
 40
0.0
 40
0.0
 40
0.0
 40
0.0
 40
1.0
 40
1.0
 40
1.0
 40
1.0
 10
7.419903739464011
 20
7.670197542613512
 30
0.0
 10
7.419903739464011
 20
7.670197542613512
 30
0.0
 10
7.472128019376757
 20
7.688920978345006
 30
0.0
 10
7.476994861263279
 20
7.685410537547669
 30
0.0
  0
SPLINE
  5
162
330
150
100
AcDbEntity
  8
Layer 1
 62
   250
420
  2301728
370
     9
100
AcDbSpline
210
0.0
220
0.0
230
1.0
 70
     8
 71
     3
 72
     8
 73
     4
 74
     0
 42
0.0000000001
 43
0.0000000001
 12
1.0
 22
0.0
 32
0.0
 13
1.0
 23
0.0
 33
0.0
 40
0.0
 40
0.0
 40
0.0
 40
0.0
 40
1.0
 40
1.0
 40
1.0
 40
1.0
 10
7.422774129823337
 20
7.647701640367434
 30
0.0
 10
7.422774129823337
 20
7.647701640367434
 30
0.0
 10
7.471164206045399
 20
7.666140502472431
 30
0.0
 10
7.476022739196322
 20
7.66261136701995
 30
0.0
  0
SPLINE
  5
163
330
150
100
AcDbEntity
  8
Layer 1
 62
   250
420
  2301728
370
     9
100
AcDbSpline
210
0.0
220
0.0
230
1.0
 70
     8
 71
     3
 72
     8
 73
     4
 74
     0
 42
0.0000000001
 43
0.0000000001
 12
1.0
 22
0.0
 32
0.0
 13
1.0
 23
0.0
 33
0.0
 40
0.0
 40
0.0
 40
0.0
 40
0.0
 40
1.0
 40
1.0
 40
1.0
 40
1.0
 10
7.421332564194143
 20
7.626909028965492
 30
0.0
 10
7.421332564194143
 20
7.626909028965492
 30
0.0
 10
7.472128019376757
 20
7.643582285277577
 30
0.0
 10
7.476994861263279
 20
7.640073921664111
 30
0.0
  0
SPLINE
  5
164
330
150
100
AcDbEntity
  8
Layer 1
 62
   250
420
  2301728
370
     9
100
AcDbSpline
210
0.0
220
0.0
230
1.0
 70
     8
 71
     3
 72
     8
 73
     4
 74
     0
 42
0.0000000001
 43
0.0000000001
 12
1.0
 22
0.0
 32
0.0
 13
1.0
 23
0.0
 33
0.0
 40
0.0
 40
0.0
 40
0.0
 40
0.0
 40
1.0
 40
1.0
 40
1.0
 40
1.0
 10
7.419903739464011
 20
7.604413126719477
 30
0.0
 10
7.419903739464011
 20
7.604413126719477
 30
0.0
 10
7.472128019376757
 20
7.623155258767952
 30
0.0
 10
7.476994861263279
 20
7.61962612331547
 30
0.0
  0
SPLINE
  5
165
330
150
100
AcDbEntity
  8
Layer 1
 62
   250
420
  2301728
370
     9
100
AcDbSpline
210
0.0
220
0.0
230
1.0
 70
     8
 71
     3
 72
     8
 73
     4
 74
     0
 42
0.0000000001
 43
0.0000000001
 12
1.0
 22
0.0
 32
0.0
 13
1.0
 23
0.0
 33
0.0
 40
0.0
 40
0.0
 40
0.0
 40
0.0
 40
1.0
 40
1.0
 40
1.0
 40
1.0
 10
7.422774129823337
 20
7.58189645263384
 30
0.0
 10
7.422774129823337
 20
7.58189645263384
 30
0.0
 10
7.471164206045399
 20
7.60035608824027
 30
0.0
 10
7.476022739196322
 20
7.596845647442895
 30
0.0
  0
SPLINE
  5
166
330
150
100
AcDbEntity
  8
Layer 1
 62
   250
420
  2301728
370
     9
100
AcDbSpline
210
0.0
220
0.0
230
1.0
 70
     8
 71
     3
 72
     8
 73
     4
 74
     0
 42
0.0000000001
 43
0.0000000001
 12
1.0
 22
0.0
 32
0.0
 13
1.0
 23
0.0
 33
0.0
 40
0.0
 40
0.0
 40
0.0
 40
0.0
 40
1.0
 40
1.0
 40
1.0
 40
1.0
 10
7.421332564194143
 20
7.559400550387787
 30
0.0
 10
7.421332564194143
 20
7.559400550387787
 30
0.0
 10
7.472128019376757
 20
7.576073808405264
 30
0.0
 10
7.476994861263279
 20
7.572565444791798
 30
0.0
  0
SPLINE
  5
167
330
150
100
AcDbEntity
  8
Layer 1
 62
   250
420
  2301728
370
     9
100
AcDbSpline
210
0.0
220
0.0
230
1.0
 70
     8
 71
     3
 72
     8
 73
     4
 74
     0
 42
0.0000000001
 43
0.0000000001
 12
1.0
 22
0.0
 32
0.0
 13
1.0
 23
0.0
 33
0.0
 40
0.0
 40
0.0
 40
0.0
 40
0.0
 40
1.0
 40
1.0
 40
1.0
 40
1.0
 10
7.419903739464011
 20
7.536904648141735
 30
0.0
 10
7.419903739464011
 20
7.536904648141735
 30
0.0
 10
7.472128019376757
 20
7.555646781895676
 30
0.0
 10
7.476994861263279
 20
7.552117646443169
 30
0.0
  0
SPLINE
  5
168
330
150
100
AcDbEntity
  8
Layer 1
 62
   250
420
  2301728
370
     9
100
AcDbSpline
210
0.0
220
0.0
230
1.0
 70
     8
 71
     3
 72
     8
 73
     4
 74
     0
 42
0.0000000001
 43
0.0000000001
 12
1.0
 22
0.0
 32
0.0
 13
1.0
 23
0.0
 33
0.0
 40
0.0
 40
0.0
 40
0.0
 40
0.0
 40
1.0
 40
1.0
 40
1.0
 40
1.0
 10
7.422774129823337
 20
7.514387974056135
 30
0.0
 10
7.422774129823337
 20
7.514387974056135
 30
0.0
 10
7.471164206045399
 20
7.532847611367957
 30
0.0
 10
7.476022739196322
 20
7.529337170570582
 30
0.0
  0
SPLINE
  5
169
330
150
100
AcDbEntity
  8
Layer 1
 62
   250
420
  2301728
370
     9
100
AcDbSpline
210
0.0
220
0.0
230
1.0
 70
     8
 71
     3
 72
     8
 73
     4
 74
     0
 42
0.0000000001
 43
0.0000000001
 12
1.0
 22
0.0
 32
0.0
 13
1.0
 23
0.0
 33
0.0
 40
0.0
 40
0.0
 40
0.0
 40
0.0
 40
1.0
 40
1.0
 40
1.0
 40
1.0
 10
7.421332564194143
 20
7.493616134493752
 30
0.0
 10
7.421332564194143
 20
7.493616134493752
 30
0.0
 10
7.472128019376757
 20
7.510291471356986
 30
0.0
 10
7.476994861263279
 20
7.506781030559637
 30
0.0
  0
SPLINE
  5
16A
330
150
100
AcDbEntity
  8
Layer 1
 62
   250
420
  2301728
370
     9
100
AcDbSpline
210
0.0
220
0.0
230
1.0
 70
     8
 71
     3
 72
     8
 73
     4
 74
     0
 42
0.0000000001
 43
0.0000000001
 12
1.0
 22
0.0
 32
0.0
 13
1.0
 23
0.0
 33
0.0
 40
0.0
 40
0.0
 40
0.0
 40
0.0
 40
1.0
 40
1.0
 40
1.0
 40
1.0
 10
7.419903739464011
 20
7.471120232247712
 30
0.0
 10
7.419903739464011
 20
7.471120232247712
 30
0.0
 10
7.472128019376757
 20
7.489864444847399
 30
0.0
 10
7.476994861263279
 20
7.48633323221097
 30
0.0
  0
SPLINE
  5
16B
330
150
100
AcDbEntity
  8
Layer 1
 62
   250
420
  2301728
370
     9
100
AcDbSpline
210
0.0
220
0.0
230
1.0
 70
     8
 71
     3
 72
     8
 73
     4
 74
     0
 42
0.0000000001
 43
0.0000000001
 12
1.0
 22
0.0
 32
0.0
 13
1.0
 23
0.0
 33
0.0
 40
0.0
 40
0.0
 40
0.0
 40
0.0
 40
1.0
 40
1.0
 40
1.0
 40
1.0
 10
7.422774129823337
 20
7.4486035581621
 30
0.0
 10
7.422774129823337
 20
7.4486035581621
 30
0.0
 10
7.471164206045399
 20
7.467063197135758
 30
0.0
 10
7.476022739196322
 20
7.463554833522316
 30
0.0
  0
SPLINE
  5
16C
330
150
100
AcDbEntity
  8
Layer 1
 62
   250
420
  2301728
370
     9
100
AcDbSpline
210
0.0
220
0.0
230
1.0
 70
     8
 71
     3
 72
     8
 73
     4
 74
     0
 42
0.0000000001
 43
0.0000000001
 12
1.0
 22
0.0
 32
0.0
 13
1.0
 23
0.0
 33
0.0
 40
0.0
 40
0.0
 40
0.0
 40
0.0
 40
1.0
 40
1.0
 40
1.0
 40
1.0
 10
7.421332564194143
 20
7.427852490439287
 30
0.0
 10
7.421332564194143
 20
7.427852490439287
 30
0.0
 10
7.472128019376757
 20
7.444525751779969
 30
0.0
 10
7.476994861263279
 20
7.441017388166503
 30
0.0
  0
SPLINE
  5
16D
330
150
100
AcDbEntity
  8
Layer 1
 62
   250
420
  2301728
370
     9
100
AcDbSpline
210
0.0
220
0.0
230
1.0
 70
     8
 71
     3
 72
     8
 73
     4
 74
     0
 42
0.0000000001
 43
0.0000000001
 12
1.0
 22
0.0
 32
0.0
 13
1.0
 23
0.0
 33
0.0
 40
0.0
 40
0.0
 40
0.0
 40
0.0
 40
1.0
 40
1.0
 40
1.0
 40
1.0
 10
7.419903739464011
 20
7.405356588193247
 30
0.0
 10
7.419903739464011
 20
7.405356588193247
 30
0.0
 10
7.472128019376757
 20
7.424080030615212
 30
0.0
 10
7.476994861263279
 20
7.420569589817837
 30
0.0
  0
SPLINE
  5
16E
330
150
100
AcDbEntity
  8
Layer 1
 62
   250
420
  2301728
370
     9
100
AcDbSpline
210
0.0
220
0.0
230
1.0
 70
     8
 71
     3
 72
     8
 73
     4
 74
     0
 42
0.0000000001
 43
0.0000000001
 12
1.0
 22
0.0
 32
0.0
 13
1.0
 23
0.0
 33
0.0
 40
0.0
 40
0.0
 40
0.0
 40
0.0
 40
1.0
 40
1.0
 40
1.0
 40
1.0
 10
7.422774129823337
 20
7.382860685947207
 30
0.0
 10
7.422774129823337
 20
7.382860685947207
 30
0.0
 10
7.471164206045399
 20
7.401299554742612
 30
0.0
 10
7.476022739196322
 20
7.39777041929013
 30
0.0
  0
SPLINE
  5
16F
330
150
100
AcDbEntity
  8
Layer 1
 62
   250
420
  2301728
370
     9
100
AcDbSpline
210
0.0
220
0.0
230
1.0
 70
     8
 71
     3
 72
     8
 73
     4
 74
     0
 42
0.0000000001
 43
0.0000000001
 12
1.0
 22
0.0
 32
0.0
 13
1.0
 23
0.0
 33
0.0
 40
0.0
 40
0.0
 40
0.0
 40
0.0
 40
1.0
 40
1.0
 40
1.0
 40
1.0
 10
7.421332564194143
 20
7.362068074545252
 30
0.0
 10
7.421332564194143
 20
7.362068074545252
 30
0.0
 10
7.472128019376757
 20
7.378741337547758
 30
0.0
 10
7.476994861263279
 20
7.375232973934291
 30
0.0
  0
SPLINE
  5
170
330
150
100
AcDbEntity
  8
Layer 1
 62
   250
420
  2301728
370
     9
100
AcDbSpline
210
0.0
220
0.0
230
1.0
 70
     8
 71
     3
 72
     8
 73
     4
 74
     0
 42
0.0000000001
 43
0.0000000001
 12
1.0
 22
0.0
 32
0.0
 13
1.0
 23
0.0
 33
0.0
 40
0.0
 40
0.0
 40
0.0
 40
0.0
 40
1.0
 40
1.0
 40
1.0
 40
1.0
 10
7.419903739464011
 20
7.339572172299212
 30
0.0
 10
7.419903739464011
 20
7.339572172299212
 30
0.0
 10
7.472128019376757
 20
7.358314311038157
 30
0.0
 10
7.476994861263279
 20
7.354785175585675
 30
0.0
  0
SPLINE
  5
171
330
150
100
AcDbEntity
  8
Layer 1
 62
   250
420
  2301728
370
     9
100
AcDbSpline
210
0.0
220
0.0
230
1.0
 70
     8
 71
     3
 72
     8
 73
     4
 74
     0
 42
0.0000000001
 43
0.0000000001
 12
1.0
 22
0.0
 32
0.0
 13
1.0
 23
0.0
 33
0.0
 40
0.0
 40
0.0
 40
0.0
 40
0.0
 40
1.0
 40
1.0
 40
1.0
 40
1.0
 10
7.422774129823337
 20
7.317055498213575
 30
0.0
 10
7.422774129823337
 20
7.317055498213575
 30
0.0
 10
7.471164206045399
 20
7.335515140510425
 30
0.0
 10
7.476022739196322
 20
7.332004699713075
 30
0.0
  0
SPLINE
  5
172
330
150
100
AcDbEntity
  8
Layer 1
 62
   250
420
  2301728
370
     9
100
AcDbSpline
210
0.0
220
0.0
230
1.0
 70
     8
 71
     3
 72
     8
 73
     4
 74
     0
 42
0.0000000001
 43
0.0000000001
 12
1.0
 22
0.0
 32
0.0
 13
1.0
 23
0.0
 33
0.0
 40
0.0
 40
0.0
 40
0.0
 40
0.0
 40
1.0
 40
1.0
 40
1.0
 40
1.0
 10
7.421332564194143
 20
7.294559595967534
 30
0.0
 10
7.421332564194143
 20
7.294559595967534
 30
0.0
 10
7.472128019376757
 20
7.311232860675469
 30
0.0
 10
7.476994861263279
 20
7.307724497062003
 30
0.0
  0
SPLINE
  5
173
330
150
100
AcDbEntity
  8
Layer 1
 62
   250
420
  2301728
370
     9
100
AcDbSpline
210
0.0
220
0.0
230
1.0
 70
     8
 71
     3
 72
     8
 73
     4
 74
     0
 42
0.0000000001
 43
0.0000000001
 12
1.0
 22
0.0
 32
0.0
 13
1.0
 23
0.0
 33
0.0
 40
0.0
 40
0.0
 40
0.0
 40
0.0
 40
1.0
 40
1.0
 40
1.0
 40
1.0
 10
7.419903739464011
 20
7.27206369372147
 30
0.0
 10
7.419903739464011
 20
7.27206369372147
 30
0.0
 10
7.472128019376757
 20
7.290805834165844
 30
0.0
 10
7.476994861263279
 20
7.287276698713362
 30
0.0
  0
SPLINE
  5
174
330
150
100
AcDbEntity
  8
Layer 1
 62
   250
420
  2301728
370
     9
100
AcDbSpline
210
0.0
220
0.0
230
1.0
 70
     8
 71
     3
 72
     8
 73
     4
 74
     0
 42
0.0000000001
 43
0.0000000001
 12
1.0
 22
0.0
 32
0.0
 13
1.0
 23
0.0
 33
0.0
 40
0.0
 40
0.0
 40
0.0
 40
0.0
 40
1.0
 40
1.0
 40
1.0
 40
1.0
 10
7.422774129823337
 20
7.249547019635909
 30
0.0
 10
7.422774129823337
 20
7.249547019635909
 30
0.0
 10
7.471164206045399
 20
7.268006663638162
 30
0.0
 10
7.476022739196322
 20
7.264496222840787
 30
0.0
  0
SPLINE
  5
175
330
150
100
AcDbEntity
  8
Layer 1
 62
   250
420
  2301728
370
     9
100
AcDbSpline
210
0.0
220
0.0
230
1.0
 70
     8
 71
     3
 72
     8
 73
     4
 74
     0
 42
0.0000000001
 43
0.0000000001
 12
1.0
 22
0.0
 32
0.0
 13
1.0
 23
0.0
 33
0.0
 40
0.0
 40
0.0
 40
0.0
 40
0.0
 40
1.0
 40
1.0
 40
1.0
 40
1.0
 10
7.421332564194143
 20
7.228775180073525
 30
0.0
 10
7.421332564194143
 20
7.228775180073525
 30
0.0
 10
7.472128019376757
 20
7.245450523627166
 30
0.0
 10
7.476994861263279
 20
7.241940082829792
 30
0.0
  0
SPLINE
  5
176
330
150
100
AcDbEntity
  8
Layer 1
 62
   250
420
  2301728
370
     9
100
AcDbSpline
210
0.0
220
0.0
230
1.0
 70
     8
 71
     3
 72
     8
 73
     4
 74
     0
 42
0.0000000001
 43
0.0000000001
 12
1.0
 22
0.0
 32
0.0
 13
1.0
 23
0.0
 33
0.0
 40
0.0
 40
0.0
 40
0.0
 40
0.0
 40
1.0
 40
1.0
 40
1.0
 40
1.0
 10
7.419903739464011
 20
7.206279277827434
 30
0.0
 10
7.419903739464011
 20
7.206279277827434
 30
0.0
 10
7.472128019376757
 20
7.225023497117566
 30
0.0
 10
7.476994861263279
 20
7.221492284481201
 30
0.0
  0
ENDBLK
  5
153
330
150
100
AcDbEntity
  8
0
100
AcDbBlockEnd
  0
BLOCK
  5
179
330
177
100
AcDbEntity
  8
0
100
AcDbBlockBegin
  2
block 5
 70
     0
 10
0.0
 20
0.0
 30
0.0
  3
block 5
  1

  0
SPLINE
  5
17B
330
177
100
AcDbEntity
  8
Layer 1
 62
   250
420
  2301728
370
     9
100
AcDbSpline
210
0.0
220
0.0
230
1.0
 70
     8
 71
     3
 72
     8
 73
     4
 74
     0
 42
0.0000000001
 43
0.0000000001
 12
1.0
 22
0.0
 32
0.0
 13
1.0
 23
0.0
 33
0.0
 40
0.0
 40
0.0
 40
0.0
 40
0.0
 40
1.0
 40
1.0
 40
1.0
 40
1.0
 10
7.421332564194143
 20
7.183772701972733
 30
0.0
 10
7.421332564194143
 20
7.183772701972733
 30
0.0
 10
7.472128019376757
 20
7.200446257168247
 30
0.0
 10
7.476994861263279
 20
7.196937893554806
 30
0.0
  0
SPLINE
  5
17C
330
177
100
AcDbEntity
  8
Layer 1
 62
   250
420
  2301728
370
     9
100
AcDbSpline
210
0.0
220
0.0
230
1.0
 70
     8
 71
     3
 72
     8
 73
     4
 74
     0
 42
0.0000000001
 43
0.0000000001
 12
1.0
 22
0.0
 32
0.0
 13
1.0
 23
0.0
 33
0.0
 40
0.0
 40
0.0
 40
0.0
 40
0.0
 40
1.0
 40
1.0
 40
1.0
 40
1.0
 10
7.419903739464011
 20
7.161276800295
 30
0.0
 10
7.419903739464011
 20
7.161276800295
 30
0.0
 10
7.472128019376757
 20
7.180000536003515
 30
0.0
 10
7.476994861263279
 20
7.17649009520614
 30
0.0
  0
SPLINE
  5
17D
330
177
100
AcDbEntity
  8
Layer 1
 62
   250
420
  2301728
370
     9
100
AcDbSpline
210
0.0
220
0.0
230
1.0
 70
     8
 71
     3
 72
     8
 73
     4
 74
     0
 42
0.0000000001
 43
0.0000000001
 12
1.0
 22
0.0
 32
0.0
 13
1.0
 23
0.0
 33
0.0
 40
0.0
 40
0.0
 40
0.0
 40
0.0
 40
1.0
 40
1.0
 40
1.0
 40
1.0
 10
7.422774129823337
 20
7.138780898617218
 30
0.0
 10
7.422774129823337
 20
7.138780898617218
 30
0.0
 10
7.471164206045399
 20
7.15722006013094
 30
0.0
 10
7.476022739196322
 20
7.153690924678433
 30
0.0
  0
SPLINE
  5
17E
330
177
100
AcDbEntity
  8
Layer 1
 62
   250
420
  2301728
370
     9
100
AcDbSpline
210
0.0
220
0.0
230
1.0
 70
     8
 71
     3
 72
     8
 73
     4
 74
     0
 42
0.0000000001
 43
0.0000000001
 12
1.0
 22
0.0
 32
0.0
 13
1.0
 23
0.0
 33
0.0
 40
0.0
 40
0.0
 40
0.0
 40
0.0
 40
1.0
 40
1.0
 40
1.0
 40
1.0
 10
7.421332564194143
 20
7.117988287740546
 30
0.0
 10
7.421332564194143
 20
7.117988287740546
 30
0.0
 10
7.472128019376757
 20
7.134663920119995
 30
0.0
 10
7.476994861263279
 20
7.13115347932262
 30
0.0
  0
SPLINE
  5
17F
330
177
100
AcDbEntity
  8
Layer 1
 62
   250
420
  2301728
370
     9
100
AcDbSpline
210
0.0
220
0.0
230
1.0
 70
     8
 71
     3
 72
     8
 73
     4
 74
     0
 42
0.0000000001
 43
0.0000000001
 12
1.0
 22
0.0
 32
0.0
 13
1.0
 23
0.0
 33
0.0
 40
0.0
 40
0.0
 40
0.0
 40
0.0
 40
1.0
 40
1.0
 40
1.0
 40
1.0
 10
7.419903739464011
 20
7.095492386062788
 30
0.0
 10
7.419903739464011
 20
7.095492386062788
 30
0.0
 10
7.472128019376757
 20
7.114236893610369
 30
0.0
 10
7.476994861263279
 20
7.110705680973979
 30
0.0
  0
SPLINE
  5
180
330
177
100
AcDbEntity
  8
Layer 1
 62
   250
420
  2301728
370
     9
100
AcDbSpline
210
0.0
220
0.0
230
1.0
 70
     8
 71
     3
 72
     8
 73
     4
 74
     0
 42
0.0000000001
 43
0.0000000001
 12
1.0
 22
0.0
 32
0.0
 13
1.0
 23
0.0
 33
0.0
 40
0.0
 40
0.0
 40
0.0
 40
0.0
 40
1.0
 40
1.0
 40
1.0
 40
1.0
 10
7.422774129823337
 20
7.072975712546016
 30
0.0
 10
7.422774129823337
 20
7.072975712546016
 30
0.0
 10
7.471164206045399
 20
7.091435645898754
 30
0.0
 10
7.476022739196322
 20
7.087927282285313
 30
0.0
  0
SPLINE
  5
181
330
177
100
AcDbEntity
  8
Layer 1
 62
   250
420
  2301728
370
     9
100
AcDbSpline
210
0.0
220
0.0
230
1.0
 70
     8
 71
     3
 72
     8
 73
     4
 74
     0
 42
0.0000000001
 43
0.0000000001
 12
1.0
 22
0.0
 32
0.0
 13
1.0
 23
0.0
 33
0.0
 40
0.0
 40
0.0
 40
0.0
 40
0.0
 40
1.0
 40
1.0
 40
1.0
 40
1.0
 10
7.421332564194143
 20
7.050479810868232
 30
0.0
 10
7.421332564194143
 20
7.050479810868232
 30
0.0
 10
7.472128019376757
 20
7.067155443247682
 30
0.0
 10
7.476994861263279
 20
7.063645002450307
 30
0.0
  0
SPLINE
  5
182
330
177
100
AcDbEntity
  8
Layer 1
 62
   250
420
  2301728
370
     9
100
AcDbSpline
210
0.0
220
0.0
230
1.0
 70
     8
 71
     3
 72
     8
 73
     4
 74
     0
 42
0.0000000001
 43
0.0000000001
 12
1.0
 22
0.0
 32
0.0
 13
1.0
 23
0.0
 33
0.0
 40
0.0
 40
0.0
 40
0.0
 40
0.0
 40
1.0
 40
1.0
 40
1.0
 40
1.0
 10
7.419903739464011
 20
7.027983909190501
 30
0.0
 10
7.419903739464011
 20
7.027983909190501
 30
0.0
 10
7.472128019376757
 20
7.046728416738056
 30
0.0
 10
7.476994861263279
 20
7.043197204101665
 30
0.0
  0
SPLINE
  5
183
330
177
100
AcDbEntity
  8
Layer 1
 62
   250
420
  2301728
370
     9
100
AcDbSpline
210
0.0
220
0.0
230
1.0
 70
     8
 71
     3
 72
     8
 73
     4
 74
     0
 42
0.0000000001
 43
0.0000000001
 12
1.0
 22
0.0
 32
0.0
 13
1.0
 23
0.0
 33
0.0
 40
0.0
 40
0.0
 40
0.0
 40
0.0
 40
1.0
 40
1.0
 40
1.0
 40
1.0
 10
7.422774129823337
 20
7.005467235673702
 30
0.0
 10
7.422774129823337
 20
7.005467235673702
 30
0.0
 10
7.471164206045399
 20
7.02392716902644
 30
0.0
 10
7.476022739196322
 20
7.020418805413
 30
0.0
  0
SPLINE
  5
184
330
177
100
AcDbEntity
  8
Layer 1
 62
   250
420
  2301728
370
     9
100
AcDbSpline
210
0.0
220
0.0
230
1.0
 70
     8
 71
     3
 72
     8
 73
     4
 74
     0
 42
0.0000000001
 43
0.0000000001
 12
1.0
 22
0.0
 32
0.0
 13
1.0
 23
0.0
 33
0.0
 40
0.0
 40
0.0
 40
0.0
 40
0.0
 40
1.0
 40
1.0
 40
1.0
 40
1.0
 10
7.421332564194143
 20
6.984706065215605
 30
0.0
 10
7.421332564194143
 20
6.984706065215605
 30
0.0
 10
7.472128019376757
 20
7.001371029015495
 30
0.0
 10
7.476994861263279
 20
6.99786058821812
 30
0.0
  0
SPLINE
  5
185
330
177
100
AcDbEntity
  8
Layer 1
 62
   250
420
  2301728
370
     9
100
AcDbSpline
210
0.0
220
0.0
230
1.0
 70
     8
 71
     3
 72
     8
 73
     4
 74
     0
 42
0.0000000001
 43
0.0000000001
 12
1.0
 22
0.0
 32
0.0
 13
1.0
 23
0.0
 33
0.0
 40
0.0
 40
0.0
 40
0.0
 40
0.0
 40
1.0
 40
1.0
 40
1.0
 40
1.0
 10
7.419903739464011
 20
6.962189391130019
 30
0.0
 10
7.419903739464011
 20
6.962189391130019
 30
0.0
 10
7.472128019376757
 20
6.980933616586348
 30
0.0
 10
7.476994861263279
 20
6.977404481133867
 30
0.0
  0
SPLINE
  5
186
330
177
100
AcDbEntity
  8
Layer 1
 62
   250
420
  2301728
370
     9
100
AcDbSpline
210
0.0
220
0.0
230
1.0
 70
     8
 71
     3
 72
     8
 73
     4
 74
     0
 42
0.0000000001
 43
0.0000000001
 12
1.0
 22
0.0
 32
0.0
 13
1.0
 23
0.0
 33
0.0
 40
0.0
 40
0.0
 40
0.0
 40
0.0
 40
1.0
 40
1.0
 40
1.0
 40
1.0
 10
7.422774129823337
 20
6.939672717044383
 30
0.0
 10
7.422774129823337
 20
6.939672717044383
 30
0.0
 10
7.471164206045399
 20
6.958132368874758
 30
0.0
 10
7.476022739196322
 20
6.954644777100308
 30
0.0
  0
SPLINE
  5
187
330
177
100
AcDbEntity
  8
Layer 1
 62
   250
420
  2301728
370
     9
100
AcDbSpline
210
0.0
220
0.0
230
1.0
 70
     8
 71
     3
 72
     8
 73
     4
 74
     0
 42
0.0000000001
 43
0.0000000001
 12
1.0
 22
0.0
 32
0.0
 13
1.0
 23
0.0
 33
0.0
 40
0.0
 40
0.0
 40
0.0
 40
0.0
 40
1.0
 40
1.0
 40
1.0
 40
1.0
 10
7.421332564194143
 20
6.918942421161141
 30
0.0
 10
7.421332564194143
 20
6.918942421161141
 30
0.0
 10
7.472128019376757
 20
6.935615695357935
 30
0.0
 10
7.476994861263279
 20
6.932086559905454
 30
0.0
  0
SPLINE
  5
188
330
177
100
AcDbEntity
  8
Layer 1
 62
   250
420
  2301728
370
     9
100
AcDbSpline
210
0.0
220
0.0
230
1.0
 70
     8
 71
     3
 72
     8
 73
     4
 74
     0
 42
0.0000000001
 43
0.0000000001
 12
1.0
 22
0.0
 32
0.0
 13
1.0
 23
0.0
 33
0.0
 40
0.0
 40
0.0
 40
0.0
 40
0.0
 40
1.0
 40
1.0
 40
1.0
 40
1.0
 10
7.419903739464011
 20
6.89642574707553
 30
0.0
 10
7.419903739464011
 20
6.89642574707553
 30
0.0
 10
7.472128019376757
 20
6.915169974193203
 30
0.0
 10
7.476994861263279
 20
6.911638761556812
 30
0.0
  0
SPLINE
  5
189
330
177
100
AcDbEntity
  8
Layer 1
 62
   250
420
  2301728
370
     9
100
AcDbSpline
210
0.0
220
0.0
230
1.0
 70
     8
 71
     3
 72
     8
 73
     4
 74
     0
 42
0.0000000001
 43
0.0000000001
 12
1.0
 22
0.0
 32
0.0
 13
1.0
 23
0.0
 33
0.0
 40
0.0
 40
0.0
 40
0.0
 40
0.0
 40
1.0
 40
1.0
 40
1.0
 40
1.0
 10
7.422774129823337
 20
6.873950616669086
 30
0.0
 10
7.422774129823337
 20
6.873950616669086
 30
0.0
 10
7.471164206045399
 20
6.892368726481613
 30
0.0
 10
7.476022739196322
 20
6.888839591029131
 30
0.0
  0
SPLINE
  5
18A
330
177
100
AcDbEntity
  8
Layer 1
 62
   250
420
  2301728
370
     9
100
AcDbSpline
210
0.0
220
0.0
230
1.0
 70
     8
 71
     3
 72
     8
 73
     4
 74
     0
 42
0.0000000001
 43
0.0000000001
 12
1.0
 22
0.0
 32
0.0
 13
1.0
 23
0.0
 33
0.0
 40
0.0
 40
0.0
 40
0.0
 40
0.0
 40
1.0
 40
1.0
 40
1.0
 40
1.0
 10
7.421332564194143
 20
6.85313723342756
 30
0.0
 10
7.421332564194143
 20
6.85313723342756
 30
0.0
 10
7.472128019376757
 20
6.869812586470642
 30
0.0
 10
7.476994861263279
 20
6.866322917512307
 30
0.0
  0
SPLINE
  5
18B
330
177
100
AcDbEntity
  8
Layer 1
 62
   250
420
  2301728
370
     9
100
AcDbSpline
210
0.0
220
0.0
230
1.0
 70
     8
 71
     3
 72
     8
 73
     4
 74
     0
 42
0.0000000001
 43
0.0000000001
 12
1.0
 22
0.0
 32
0.0
 13
1.0
 23
0.0
 33
0.0
 40
0.0
 40
0.0
 40
0.0
 40
0.0
 40
1.0
 40
1.0
 40
1.0
 40
1.0
 10
7.419903739464011
 20
6.830662103021066
 30
0.0
 10
7.419903739464011
 20
6.830662103021066
 30
0.0
 10
7.472128019376757
 20
6.849404254616198
 30
0.0
 10
7.476994861263279
 20
6.845875119163666
 30
0.0
  0
SPLINE
  5
18C
330
177
100
AcDbEntity
  8
Layer 1
 62
   250
420
  2301728
370
     9
100
AcDbSpline
210
0.0
220
0.0
230
1.0
 70
     8
 71
     3
 72
     8
 73
     4
 74
     0
 42
0.0000000001
 43
0.0000000001
 12
1.0
 22
0.0
 32
0.0
 13
1.0
 23
0.0
 33
0.0
 40
0.0
 40
0.0
 40
0.0
 40
0.0
 40
1.0
 40
1.0
 40
1.0
 40
1.0
 10
7.422774129823337
 20
6.808145428935454
 30
0.0
 10
7.422774129823337
 20
6.808145428935454
 30
0.0
 10
7.471164206045399
 20
6.826605084088467
 30
0.0
 10
7.476022739196322
 20
6.823075948635985
 30
0.0
  0
SPLINE
  5
18D
330
177
100
AcDbEntity
  8
Layer 1
 62
   250
420
  2301728
370
     9
100
AcDbSpline
210
0.0
220
0.0
230
1.0
 70
     8
 71
     3
 72
     8
 73
     4
 74
     0
 42
0.0000000001
 43
0.0000000001
 12
1.0
 22
0.0
 32
0.0
 13
1.0
 23
0.0
 33
0.0
 40
0.0
 40
0.0
 40
0.0
 40
0.0
 40
1.0
 40
1.0
 40
1.0
 40
1.0
 10
7.421332564194143
 20
6.785628754849843
 30
0.0
 10
7.421332564194143
 20
6.785628754849843
 30
0.0
 10
7.472128019376757
 20
6.802304109598329
 30
0.0
 10
7.476994861263279
 20
6.798814440639994
 30
0.0
  0
SPLINE
  5
18E
330
177
100
AcDbEntity
  8
Layer 1
 62
   250
420
  2301728
370
     9
100
AcDbSpline
210
0.0
220
0.0
230
1.0
 70
     8
 71
     3
 72
     8
 73
     4
 74
     0
 42
0.0000000001
 43
0.0000000001
 12
1.0
 22
0.0
 32
0.0
 13
1.0
 23
0.0
 33
0.0
 40
0.0
 40
0.0
 40
0.0
 40
0.0
 40
1.0
 40
1.0
 40
1.0
 40
1.0
 10
7.419903739464011
 20
6.763153624443349
 30
0.0
 10
7.419903739464011
 20
6.763153624443349
 30
0.0
 10
7.472128019376757
 20
6.781895777743885
 30
0.0
 10
7.476994861263279
 20
6.778366642291378
 30
0.0
  0
SPLINE
  5
18F
330
177
100
AcDbEntity
  8
Layer 1
 62
   250
420
  2301728
370
     9
100
AcDbSpline
210
0.0
220
0.0
230
1.0
 70
     8
 71
     3
 72
     8
 73
     4
 74
     0
 42
0.0000000001
 43
0.0000000001
 12
1.0
 22
0.0
 32
0.0
 13
1.0
 23
0.0
 33
0.0
 40
0.0
 40
0.0
 40
0.0
 40
0.0
 40
1.0
 40
1.0
 40
1.0
 40
1.0
 10
7.422774129823337
 20
6.740636950357712
 30
0.0
 10
7.422774129823337
 20
6.740636950357712
 30
0.0
 10
7.471164206045399
 20
6.759096607216153
 30
0.0
 10
7.476022739196322
 20
6.755567471763672
 30
0.0
  0
SPLINE
  5
190
330
177
100
AcDbEntity
  8
Layer 1
 62
   250
420
  2301728
370
     9
100
AcDbSpline
210
0.0
220
0.0
230
1.0
 70
     8
 71
     3
 72
     8
 73
     4
 74
     0
 42
0.0000000001
 43
0.0000000001
 12
1.0
 22
0.0
 32
0.0
 13
1.0
 23
0.0
 33
0.0
 40
0.0
 40
0.0
 40
0.0
 40
0.0
 40
1.0
 40
1.0
 40
1.0
 40
1.0
 10
7.421332564194143
 20
6.719865110795379
 30
0.0
 10
7.421332564194143
 20
6.719865110795379
 30
0.0
 10
7.472128019376757
 20
6.736540467205183
 30
0.0
 10
7.476994861263279
 20
6.733009254568792
 30
0.0
  0
SPLINE
  5
191
330
177
100
AcDbEntity
  8
Layer 1
 62
   250
420
  2301728
370
     9
100
AcDbSpline
210
0.0
220
0.0
230
1.0
 70
     8
 71
     3
 72
     8
 73
     4
 74
     0
 42
0.0000000001
 43
0.0000000001
 12
1.0
 22
0.0
 32
0.0
 13
1.0
 23
0.0
 33
0.0
 40
0.0
 40
0.0
 40
0.0
 40
0.0
 40
1.0
 40
1.0
 40
1.0
 40
1.0
 10
7.419903739464011
 20
6.697348436709767
 30
0.0
 10
7.419903739464011
 20
6.697348436709767
 30
0.0
 10
7.472128019376757
 20
6.716092668856541
 30
0.0
 10
7.476994861263279
 20
6.712563533404035
 30
0.0
  0
SPLINE
  5
192
330
177
100
AcDbEntity
  8
Layer 1
 62
   250
420
  2301728
370
     9
100
AcDbSpline
210
0.0
220
0.0
230
1.0
 70
     8
 71
     3
 72
     8
 73
     4
 74
     0
 42
0.0000000001
 43
0.0000000001
 12
1.0
 22
0.0
 32
0.0
 13
1.0
 23
0.0
 33
0.0
 40
0.0
 40
0.0
 40
0.0
 40
0.0
 40
1.0
 40
1.0
 40
1.0
 40
1.0
 10
7.422774129823337
 20
6.674831762624156
 30
0.0
 10
7.422774129823337
 20
6.674831762624156
 30
0.0
 10
7.471164206045399
 20
6.693291421144926
 30
0.0
 10
7.476022739196322
 20
6.689803829370526
 30
0.0
  0
SPLINE
  5
193
330
177
100
AcDbEntity
  8
Layer 1
 62
   250
420
  2301728
370
     9
100
AcDbSpline
210
0.0
220
0.0
230
1.0
 70
     8
 71
     3
 72
     8
 73
     4
 74
     0
 42
0.0000000001
 43
0.0000000001
 12
1.0
 22
0.0
 32
0.0
 13
1.0
 23
0.0
 33
0.0
 40
0.0
 40
0.0
 40
0.0
 40
0.0
 40
1.0
 40
1.0
 40
1.0
 40
1.0
 10
7.421332564194143
 20
6.654101466740914
 30
0.0
 10
7.421332564194143
 20
6.654101466740914
 30
0.0
 10
7.472128019376757
 20
6.670774747628153
 30
0.0
 10
7.476994861263279
 20
6.667245612175646
 30
0.0
  0
SPLINE
  5
194
330
177
100
AcDbEntity
  8
Layer 1
 62
   250
420
  2301728
370
     9
100
AcDbSpline
210
0.0
220
0.0
230
1.0
 70
     8
 71
     3
 72
     8
 73
     4
 74
     0
 42
0.0000000001
 43
0.0000000001
 12
1.0
 22
0.0
 32
0.0
 13
1.0
 23
0.0
 33
0.0
 40
0.0
 40
0.0
 40
0.0
 40
0.0
 40
1.0
 40
1.0
 40
1.0
 40
1.0
 10
7.419903739464011
 20
6.631584792655278
 30
0.0
 10
7.419903739464011
 20
6.631584792655278
 30
0.0
 10
7.472128019376757
 20
6.650329026463396
 30
0.0
 10
7.476994861263279
 20
6.646797813827005
 30
0.0
  0
SPLINE
  5
195
330
177
100
AcDbEntity
  8
Layer 1
 62
   250
420
  2301728
370
     9
100
AcDbSpline
210
0.0
220
0.0
230
1.0
 70
     8
 71
     3
 72
     8
 73
     4
 74
     0
 42
0.0000000001
 43
0.0000000001
 12
1.0
 22
0.0
 32
0.0
 13
1.0
 23
0.0
 33
0.0
 40
0.0
 40
0.0
 40
0.0
 40
0.0
 40
1.0
 40
1.0
 40
1.0
 40
1.0
 10
7.422774129823337
 20
6.609109662248809
 30
0.0
 10
7.422774129823337
 20
6.609109662248809
 30
0.0
 10
7.471164206045399
 20
6.62752777875178
 30
0.0
 10
7.476022739196322
 20
6.623998643299299
 30
0.0
  0
SPLINE
  5
196
330
177
100
AcDbEntity
  8
Layer 1
 62
   250
420
  2301728
370
     9
100
AcDbSpline
210
0.0
220
0.0
230
1.0
 70
     8
 71
     3
 72
     8
 73
     4
 74
     0
 42
0.0000000001
 43
0.0000000001
 12
1.0
 22
0.0
 32
0.0
 13
1.0
 23
0.0
 33
0.0
 40
0.0
 40
0.0
 40
0.0
 40
0.0
 40
1.0
 40
1.0
 40
1.0
 40
1.0
 10
7.421332564194143
 20
6.588296279007308
 30
0.0
 10
7.421332564194143
 20
6.588296279007308
 30
0.0
 10
7.472128019376757
 20
6.604971638740835
 30
0.0
 10
7.476994861263279
 20
6.6014819697825
 30
0.0
  0
SPLINE
  5
197
330
177
100
AcDbEntity
  8
Layer 1
 62
   250
420
  2301728
370
     9
100
AcDbSpline
210
0.0
220
0.0
230
1.0
 70
     8
 71
     3
 72
     8
 73
     4
 74
     0
 42
0.0000000001
 43
0.0000000001
 12
1.0
 22
0.0
 32
0.0
 13
1.0
 23
0.0
 33
0.0
 40
0.0
 40
0.0
 40
0.0
 40
0.0
 40
1.0
 40
1.0
 40
1.0
 40
1.0
 10
7.419903739464011
 20
6.565821148600813
 30
0.0
 10
7.419903739464011
 20
6.565821148600813
 30
0.0
 10
7.472128019376757
 20
6.584563306886341
 30
0.0
 10
7.476994861263279
 20
6.581034171433859
 30
0.0
  0
SPLINE
  5
198
330
177
100
AcDbEntity
  8
Layer 1
 62
   250
420
  2301728
370
     9
100
AcDbSpline
210
0.0
220
0.0
230
1.0
 70
     8
 71
     3
 72
     8
 73
     4
 74
     0
 42
0.0000000001
 43
0.0000000001
 12
1.0
 22
0.0
 32
0.0
 13
1.0
 23
0.0
 33
0.0
 40
0.0
 40
0.0
 40
0.0
 40
0.0
 40
1.0
 40
1.0
 40
1.0
 40
1.0
 10
7.422774129823337
 20
6.543304474515176
 30
0.0
 10
7.422774129823337
 20
6.543304474515176
 30
0.0
 10
7.471164206045399
 20
6.56176413635866
 30
0.0
 10
7.476022739196322
 20
6.558235000906152
 30
0.0
  0
SPLINE
  5
199
330
177
100
AcDbEntity
  8
Layer 1
 62
   250
420
  2301728
370
     9
100
AcDbSpline
210
0.0
220
0.0
230
1.0
 70
     8
 71
     3
 72
     8
 73
     4
 74
     0
 42
0.0000000001
 43
0.0000000001
 12
1.0
 22
0.0
 32
0.0
 13
1.0
 23
0.0
 33
0.0
 40
0.0
 40
0.0
 40
0.0
 40
0.0
 40
1.0
 40
1.0
 40
1.0
 40
1.0
 10
7.421332564194143
 20
6.52078780042959
 30
0.0
 10
7.421332564194143
 20
6.52078780042959
 30
0.0
 10
7.472128019376757
 20
6.537463161868522
 30
0.0
 10
7.476994861263279
 20
6.533973492910187
 30
0.0
  0
SPLINE
  5
19A
330
177
100
AcDbEntity
  8
Layer 1
 62
   250
420
  2301728
370
     9
100
AcDbSpline
210
0.0
220
0.0
230
1.0
 70
     8
 71
     3
 72
     8
 73
     4
 74
     0
 42
0.0000000001
 43
0.0000000001
 12
1.0
 22
0.0
 32
0.0
 13
1.0
 23
0.0
 33
0.0
 40
0.0
 40
0.0
 40
0.0
 40
0.0
 40
1.0
 40
1.0
 40
1.0
 40
1.0
 10
7.419903739464011
 20
6.498312670023122
 30
0.0
 10
7.419903739464011
 20
6.498312670023122
 30
0.0
 10
7.472128019376757
 20
6.517054830014078
 30
0.0
 10
7.476994861263279
 20
6.513525694561571
 30
0.0
  0
SPLINE
  5
19B
330
177
100
AcDbEntity
  8
Layer 1
 62
   250
420
  2301728
370
     9
100
AcDbSpline
210
0.0
220
0.0
230
1.0
 70
     8
 71
     3
 72
     8
 73
     4
 74
     0
 42
0.0000000001
 43
0.0000000001
 12
1.0
 22
0.0
 32
0.0
 13
1.0
 23
0.0
 33
0.0
 40
0.0
 40
0.0
 40
0.0
 40
0.0
 40
1.0
 40
1.0
 40
1.0
 40
1.0
 10
7.422774129823337
 20
6.475795995937485
 30
0.0
 10
7.422774129823337
 20
6.475795995937485
 30
0.0
 10
7.471164206045399
 20
6.494255659486346
 30
0.0
 10
7.476022739196322
 20
6.490726524033865
 30
0.0
  0
SPLINE
  5
19C
330
177
100
AcDbEntity
  8
Layer 1
 62
   250
420
  2301728
370
     9
100
AcDbSpline
210
0.0
220
0.0
230
1.0
 70
     8
 71
     3
 72
     8
 73
     4
 74
     0
 42
0.0000000001
 43
0.0000000001
 12
1.0
 22
0.0
 32
0.0
 13
1.0
 23
0.0
 33
0.0
 40
0.0
 40
0.0
 40
0.0
 40
0.0
 40
1.0
 40
1.0
 40
1.0
 40
1.0
 10
7.421332564194143
 20
6.455024156375101
 30
0.0
 10
7.421332564194143
 20
6.455024156375101
 30
0.0
 10
7.472128019376757
 20
6.471699519475376
 30
0.0
 10
7.476994861263279
 20
6.468168306838985
 30
0.0
  0
SPLINE
  5
19D
330
177
100
AcDbEntity
  8
Layer 1
 62
   250
420
  2301728
370
     9
100
AcDbSpline
210
0.0
220
0.0
230
1.0
 70
     8
 71
     3
 72
     8
 73
     4
 74
     0
 42
0.0000000001
 43
0.0000000001
 12
1.0
 22
0.0
 32
0.0
 13
1.0
 23
0.0
 33
0.0
 40
0.0
 40
0.0
 40
0.0
 40
0.0
 40
1.0
 40
1.0
 40
1.0
 40
1.0
 10
7.419903739464011
 20
6.432507482289489
 30
0.0
 10
7.419903739464011
 20
6.432507482289489
 30
0.0
 10
7.472128019376757
 20
6.451251721126734
 30
0.0
 10
7.476994861263279
 20
6.447722585674228
 30
0.0
  0
ENDBLK
  5
17A
330
177
100
AcDbEntity
  8
0
100
AcDbBlockEnd
  0
BLOCK
  5
1A0
330
19E
100
AcDbEntity
  8
0
100
AcDbBlockBegin
  2
block 6
 70
     0
 10
0.0
 20
0.0
 30
0.0
  3
block 6
  1

  0
SPLINE
  5
1A2
330
19E
100
AcDbEntity
  8
Layer 1
 62
   250
420
  2301728
370
     9
100
AcDbSpline
210
0.0
220
0.0
230
1.0
 70
     8
 71
     3
 72
     8
 73
     4
 74
     0
 42
0.0000000001
 43
0.0000000001
 12
1.0
 22
0.0
 32
0.0
 13
1.0
 23
0.0
 33
0.0
 40
0.0
 40
0.0
 40
0.0
 40
0.0
 40
1.0
 40
1.0
 40
1.0
 40
1.0
 10
7.421332564194143
 20
6.410032351883021
 30
0.0
 10
7.421332564194143
 20
6.410032351883021
 30
0.0
 10
7.472128019376757
 20
6.426705638935951
 30
0.0
 10
7.476994861263279
 20
6.42317650348347
 30
0.0
  0
SPLINE
  5
1A3
330
19E
100
AcDbEntity
  8
Layer 1
 62
   250
420
  2301728
370
     9
100
AcDbSpline
210
0.0
220
0.0
230
1.0
 70
     8
 71
     3
 72
     8
 73
     4
 74
     0
 42
0.0000000001
 43
0.0000000001
 12
1.0
 22
0.0
 32
0.0
 13
1.0
 23
0.0
 33
0.0
 40
0.0
 40
0.0
 40
0.0
 40
0.0
 40
1.0
 40
1.0
 40
1.0
 40
1.0
 10
7.419903739464011
 20
6.38751567779741
 30
0.0
 10
7.419903739464011
 20
6.38751567779741
 30
0.0
 10
7.472128019376757
 20
6.406259917771219
 30
0.0
 10
7.476994861263279
 20
6.402728705134829
 30
0.0
  0
SPLINE
  5
1A4
330
19E
100
AcDbEntity
  8
Layer 1
 62
   250
420
  2301728
370
     9
100
AcDbSpline
210
0.0
220
0.0
230
1.0
 70
     8
 71
     3
 72
     8
 73
     4
 74
     0
 42
0.0000000001
 43
0.0000000001
 12
1.0
 22
0.0
 32
0.0
 13
1.0
 23
0.0
 33
0.0
 40
0.0
 40
0.0
 40
0.0
 40
0.0
 40
1.0
 40
1.0
 40
1.0
 40
1.0
 10
7.422774129823337
 20
6.36504054739094
 30
0.0
 10
7.422774129823337
 20
6.36504054739094
 30
0.0
 10
7.471164206045399
 20
6.383458670059629
 30
0.0
 10
7.476022739196322
 20
6.379929534607122
 30
0.0
  0
SPLINE
  5
1A5
330
19E
100
AcDbEntity
  8
Layer 1
 62
   250
420
  2301728
370
     9
100
AcDbSpline
210
0.0
220
0.0
230
1.0
 70
     8
 71
     3
 72
     8
 73
     4
 74
     0
 42
0.0000000001
 43
0.0000000001
 12
1.0
 22
0.0
 32
0.0
 13
1.0
 23
0.0
 33
0.0
 40
0.0
 40
0.0
 40
0.0
 40
0.0
 40
1.0
 40
1.0
 40
1.0
 40
1.0
 10
7.421332564194143
 20
6.344227164149439
 30
0.0
 10
7.421332564194143
 20
6.344227164149439
 30
0.0
 10
7.472128019376757
 20
6.360902530048659
 30
0.0
 10
7.476994861263279
 20
6.357412861090324
 30
0.0
  0
SPLINE
  5
1A6
330
19E
100
AcDbEntity
  8
Layer 1
 62
   250
420
  2301728
370
     9
100
AcDbSpline
210
0.0
220
0.0
230
1.0
 70
     8
 71
     3
 72
     8
 73
     4
 74
     0
 42
0.0000000001
 43
0.0000000001
 12
1.0
 22
0.0
 32
0.0
 13
1.0
 23
0.0
 33
0.0
 40
0.0
 40
0.0
 40
0.0
 40
0.0
 40
1.0
 40
1.0
 40
1.0
 40
1.0
 10
7.419903739464011
 20
6.321752033742945
 30
0.0
 10
7.419903739464011
 20
6.321752033742945
 30
0.0
 10
7.472128019376757
 20
6.340494198194165
 30
0.0
 10
7.476994861263279
 20
6.336965062741683
 30
0.0
  0
SPLINE
  5
1A7
330
19E
100
AcDbEntity
  8
Layer 1
 62
   250
420
  2301728
370
     9
100
AcDbSpline
210
0.0
220
0.0
230
1.0
 70
     8
 71
     3
 72
     8
 73
     4
 74
     0
 42
0.0000000001
 43
0.0000000001
 12
1.0
 22
0.0
 32
0.0
 13
1.0
 23
0.0
 33
0.0
 40
0.0
 40
0.0
 40
0.0
 40
0.0
 40
1.0
 40
1.0
 40
1.0
 40
1.0
 10
7.422774129823337
 20
6.299235359657309
 30
0.0
 10
7.422774129823337
 20
6.299235359657309
 30
0.0
 10
7.471164206045399
 20
6.317695027666483
 30
0.0
 10
7.476022739196322
 20
6.314165892214001
 30
0.0
  0
SPLINE
  5
1A8
330
19E
100
AcDbEntity
  8
Layer 1
 62
   250
420
  2301728
370
     9
100
AcDbSpline
210
0.0
220
0.0
230
1.0
 70
     8
 71
     3
 72
     8
 73
     4
 74
     0
 42
0.0000000001
 43
0.0000000001
 12
1.0
 22
0.0
 32
0.0
 13
1.0
 23
0.0
 33
0.0
 40
0.0
 40
0.0
 40
0.0
 40
0.0
 40
1.0
 40
1.0
 40
1.0
 40
1.0
 10
7.421332564194143
 20
6.276718685571697
 30
0.0
 10
7.421332564194143
 20
6.276718685571697
 30
0.0
 10
7.472128019376757
 20
6.293394053176345
 30
0.0
 10
7.476994861263279
 20
6.289904384218036
 30
0.0
  0
SPLINE
  5
1A9
330
19E
100
AcDbEntity
  8
Layer 1
 62
   250
420
  2301728
370
     9
100
AcDbSpline
210
0.0
220
0.0
230
1.0
 70
     8
 71
     3
 72
     8
 73
     4
 74
     0
 42
0.0000000001
 43
0.0000000001
 12
1.0
 22
0.0
 32
0.0
 13
1.0
 23
0.0
 33
0.0
 40
0.0
 40
0.0
 40
0.0
 40
0.0
 40
1.0
 40
1.0
 40
1.0
 40
1.0
 10
7.419903739464011
 20
6.254243555165203
 30
0.0
 10
7.419903739464011
 20
6.254243555165203
 30
0.0
 10
7.472128019376757
 20
6.272985721321902
 30
0.0
 10
7.476994861263279
 20
6.26945658586937
 30
0.0
  0
SPLINE
  5
1AA
330
19E
100
AcDbEntity
  8
Layer 1
 62
   250
420
  2301728
370
     9
100
AcDbSpline
210
0.0
220
0.0
230
1.0
 70
     8
 71
     3
 72
     8
 73
     4
 74
     0
 42
0.0000000001
 43
0.0000000001
 12
1.0
 22
0.0
 32
0.0
 13
1.0
 23
0.0
 33
0.0
 40
0.0
 40
0.0
 40
0.0
 40
0.0
 40
1.0
 40
1.0
 40
1.0
 40
1.0
 10
7.422774129823337
 20
6.231726881079616
 30
0.0
 10
7.422774129823337
 20
6.231726881079616
 30
0.0
 10
7.471164206045399
 20
6.25018655079417
 30
0.0
 10
7.476022739196322
 20
6.246657415341688
 30
0.0
  0
SPLINE
  5
1AB
330
19E
100
AcDbEntity
  8
Layer 1
 62
   250
420
  2301728
370
     9
100
AcDbSpline
210
0.0
220
0.0
230
1.0
 70
     8
 71
     3
 72
     8
 73
     4
 74
     0
 42
0.0000000001
 43
0.0000000001
 12
1.0
 22
0.0
 32
0.0
 13
1.0
 23
0.0
 33
0.0
 40
0.0
 40
0.0
 40
0.0
 40
0.0
 40
1.0
 40
1.0
 40
1.0
 40
1.0
 10
7.421332564194143
 20
6.210955041517233
 30
0.0
 10
7.421332564194143
 20
6.210955041517233
 30
0.0
 10
7.472128019376757
 20
6.227630410783199
 30
0.0
 10
7.476994861263279
 20
6.224099198146809
 30
0.0
  0
SPLINE
  5
1AC
330
19E
100
AcDbEntity
  8
Layer 1
 62
   250
420
  2301728
370
     9
100
AcDbSpline
210
0.0
220
0.0
230
1.0
 70
     8
 71
     3
 72
     8
 73
     4
 74
     0
 42
0.0000000001
 43
0.0000000001
 12
1.0
 22
0.0
 32
0.0
 13
1.0
 23
0.0
 33
0.0
 40
0.0
 40
0.0
 40
0.0
 40
0.0
 40
1.0
 40
1.0
 40
1.0
 40
1.0
 10
7.419903739464011
 20
6.188438367431647
 30
0.0
 10
7.419903739464011
 20
6.188438367431647
 30
0.0
 10
7.472128019376757
 20
6.207182612434559
 30
0.0
 10
7.476994861263279
 20
6.203653476982077
 30
0.0
  0
SPLINE
  5
1AD
330
19E
100
AcDbEntity
  8
Layer 1
 62
   250
420
  2301728
370
     9
100
AcDbSpline
210
0.0
220
0.0
230
1.0
 70
     8
 71
     3
 72
     8
 73
     4
 74
     0
 42
0.0000000001
 43
0.0000000001
 12
1.0
 22
0.0
 32
0.0
 13
1.0
 23
0.0
 33
0.0
 40
0.0
 40
0.0
 40
0.0
 40
0.0
 40
1.0
 40
1.0
 40
1.0
 40
1.0
 10
7.422774129823337
 20
6.16592169334601
 30
0.0
 10
7.422774129823337
 20
6.16592169334601
 30
0.0
 10
7.471164206045399
 20
6.184381364722968
 30
0.0
 10
7.476022739196322
 20
6.180893772948543
 30
0.0
  0
SPLINE
  5
1AE
330
19E
100
AcDbEntity
  8
Layer 1
 62
   250
420
  2301728
370
     9
100
AcDbSpline
210
0.0
220
0.0
230
1.0
 70
     8
 71
     3
 72
     8
 73
     4
 74
     0
 42
0.0000000001
 43
0.0000000001
 12
1.0
 22
0.0
 32
0.0
 13
1.0
 23
0.0
 33
0.0
 40
0.0
 40
0.0
 40
0.0
 40
0.0
 40
1.0
 40
1.0
 40
1.0
 40
1.0
 10
7.421332564194143
 20
6.145191397462768
 30
0.0
 10
7.421332564194143
 20
6.145191397462768
 30
0.0
 10
7.472128019376757
 20
6.16186469120617
 30
0.0
 10
7.476994861263279
 20
6.158335555753663
 30
0.0
  0
SPLINE
  5
1AF
330
19E
100
AcDbEntity
  8
Layer 1
 62
   250
420
  2301728
370
     9
100
AcDbSpline
210
0.0
220
0.0
230
1.0
 70
     8
 71
     3
 72
     8
 73
     4
 74
     0
 42
0.0000000001
 43
0.0000000001
 12
1.0
 22
0.0
 32
0.0
 13
1.0
 23
0.0
 33
0.0
 40
0.0
 40
0.0
 40
0.0
 40
0.0
 40
1.0
 40
1.0
 40
1.0
 40
1.0
 10
7.419903739464011
 20
6.122674723377131
 30
0.0
 10
7.419903739464011
 20
6.122674723377131
 30
0.0
 10
7.472128019376757
 20
6.141418970041412
 30
0.0
 10
7.476994861263279
 20
6.137887757405021
 30
0.0
  0
SPLINE
  5
1B0
330
19E
100
AcDbEntity
  8
Layer 1
 62
   250
420
  2301728
370
     9
100
AcDbSpline
210
0.0
220
0.0
230
1.0
 70
     8
 71
     3
 72
     8
 73
     4
 74
     0
 42
0.0000000001
 43
0.0000000001
 12
1.0
 22
0.0
 32
0.0
 13
1.0
 23
0.0
 33
0.0
 40
0.0
 40
0.0
 40
0.0
 40
0.0
 40
1.0
 40
1.0
 40
1.0
 40
1.0
 10
7.422774129823337
 20
6.100199592970688
 30
0.0
 10
7.422774129823337
 20
6.100199592970688
 30
0.0
 10
7.471164206045399
 20
6.118617722329822
 30
0.0
 10
7.476022739196322
 20
6.115088586877341
 30
0.0
  0
SPLINE
  5
1B1
330
19E
100
AcDbEntity
  8
Layer 1
 62
   250
420
  2301728
370
     9
100
AcDbSpline
210
0.0
220
0.0
230
1.0
 70
     8
 71
     3
 72
     8
 73
     4
 74
     0
 42
0.0000000001
 43
0.0000000001
 12
1.0
 22
0.0
 32
0.0
 13
1.0
 23
0.0
 33
0.0
 40
0.0
 40
0.0
 40
0.0
 40
0.0
 40
1.0
 40
1.0
 40
1.0
 40
1.0
 10
7.421332564194143
 20
6.079386209729162
 30
0.0
 10
7.421332564194143
 20
6.079386209729162
 30
0.0
 10
7.472128019376757
 20
6.096061582318852
 30
0.0
 10
7.476994861263279
 20
6.092571913360517
 30
0.0
  0
ENDBLK
  5
1A1
330
19E
100
AcDbEntity
  8
0
100
AcDbBlockEnd
  0
BLOCK
  5
27D
330
27B
100
AcDbEntity
  8
0
100
AcDbBlockBegin
  2
block 7
 70
     0
 10
0.0
 20
0.0
 30
0.0
  3
block 7
  1

  0
POLYLINE
  5
27F
330
27B
100
AcDbEntity
  8
callouts
 62
   250
420
  2301728
370
    20
100
AcDb2dPolyline
 66
     1
 10
0.0
 20
0.0
 30
0.0
  0
VERTEX
  5
280
330
27F
100
AcDbEntity
  8
callouts
 62
   250
420
  2301728
370
    20
100
AcDbVertex
100
AcDb2dVertex
 10
7.968481499100486
 20
8.634343247740592
 30
0.0
  0
VERTEX
  5
281
330
27F
100
AcDbEntity
  8
callouts
 62
   250
420
  2301728
370
    20
100
AcDbVertex
100
AcDb2dVertex
 10
8.176928981027029
 20
8.633470830478977
 30
0.0
  0
SEQEND
  5
282
330
27F
100
AcDbEntity
  8
callouts
 62
   250
420
  2301728
370
    20
  0
POLYLINE
  5
283
330
27B
100
AcDbEntity
  8
callouts
370
     0
100
AcDb2dPolyline
 66
     1
 10
0.0
 20
0.0
 30
0.0
  0
VERTEX
  5
284
330
283
100
AcDbEntity
  8
callouts
370
     0
100
AcDbVertex
100
AcDb2dVertex
 10
8.010328446025698
 20
8.670886819826137
 30
0.0
  0
VERTEX
  5
285
330
283
100
AcDbEntity
  8
callouts
370
     0
100
AcDbVertex
100
AcDb2dVertex
 10
7.900241853494056
 20
8.630955036460186
 30
0.0
  0
VERTEX
  5
286
330
283
100
AcDbEntity
  8
callouts
370
     0
100
AcDbVertex
100
AcDb2dVertex
 10
8.008910022094646
 20
8.598245621527616
 30
0.0
  0
VERTEX
  5
287
330
283
100
AcDbEntity
  8
callouts
370
     0
100
AcDbVertex
100
AcDb2dVertex
 10
8.010328446025698
 20
8.670886819826137
 30
0.0
  0
SEQEND
  5
289
330
283
100
AcDbEntity
  8
callouts
370
     0
  0
HATCH
  5
288
330
27B
100
AcDbEntity
  8
callouts
 62
   250
420
  2301728
100
AcDbHatch
 10
0.0
 20
0.0
 30
0.0
210
0.0
220
0.0
230
1.0
  2
SOLID
 70
     1
 71
     0
 91
        1
 92
        1
 93
        3
 72
     1
 10
8.010328446025698
 20
8.670886819826137
 11
7.900241853494056
 21
8.630955036460186
 72
     1
 10
7.900241853494056
 20
8.630955036460186
 11
8.008910022094646
 21
8.598245621527616
 72
     1
 10
8.008910022094646
 20
8.598245621527616
 11
8.010328446025698
 21
8.670886819826137
 97
        0
 75
     2
 76
     1
 98
        0
  0
ENDBLK
  5
27E
330
27B
100
AcDbEntity
  8
0
100
AcDbBlockEnd
  0
BLOCK
  5
291
330
28F
100
AcDbEntity
  8
0
100
AcDbBlockBegin
  2
block 8
 70
     0
 10
0.0
 20
0.0
 30
0.0
  3
block 8
  1

  0
POLYLINE
  5
293
330
28F
100
AcDbEntity
  8
callouts
 62
   250
420
  2301728
370
    20
100
AcDb2dPolyline
 66
     1
 10
0.0
 20
0.0
 30
0.0
  0
VERTEX
  5
294
330
293
100
AcDbEntity
  8
callouts
 62
   250
420
  2301728
370
    20
100
AcDbVertex
100
AcDb2dVertex
 10
7.357131240306532
 20
7.332085709885328
 30
0.0
  0
VERTEX
  5
295
330
293
100
AcDbEntity
  8
callouts
 62
   250
420
  2301728
370
    20
100
AcDbVertex
100
AcDb2dVertex
 10
6.798908823907317
 20
7.957534399279792
 30
0.0
  0
SEQEND
  5
296
330
293
100
AcDbEntity
  8
callouts
 62
   250
420
  2301728
370
    20
  0
POLYLINE
  5
297
330
28F
100
AcDbEntity
  8
callouts
370
     0
100
AcDb2dPolyline
 66
     1
 10
0.0
 20
0.0
 30
0.0
  0
VERTEX
  5
298
330
297
100
AcDbEntity
  8
callouts
370
     0
100
AcDbVertex
100
AcDb2dVertex
 10
7.371675405790774
 20
7.364016180853973
 30
0.0
  0
VERTEX
  5
299
330
297
100
AcDbEntity
  8
callouts
370
     0
100
AcDbVertex
100
AcDb2dVertex
 10
7.318184041127097
 20
7.316143323423931
 30
0.0
  0
VERTEX
  5
29A
330
297
100
AcDbEntity
  8
callouts
370
     0
100
AcDbVertex
100
AcDb2dVertex
 10
7.419537877301283
 20
7.262651683534235
 30
0.0
  0
VERTEX
  5
29B
330
297
100
AcDbEntity
  8
callouts
370
     0
100
AcDbVertex
100
AcDb2dVertex
 10
7.371675405790774
 20
7.364016180853973
 30
0.0
  0
SEQEND
  5
29D
330
297
100
AcDbEntity
  8
callouts
370
     0
  0
HATCH
  5
29C
330
28F
100
AcDbEntity
  8
callouts
 62
   250
420
  2301728
100
AcDbHatch
 10
0.0
 20
0.0
 30
0.0
210
0.0
220
0.0
230
1.0
  2
SOLID
 70
     1
 71
     0
 91
        1
 92
        1
 93
        3
 72
     1
 10
7.371675405790774
 20
7.364016180853973
 11
7.318184041127097
 21
7.316143323423931
 72
     1
 10
7.318184041127097
 20
7.316143323423931
 11
7.419537877301283
 21
7.262651683534235
 72
     1
 10
7.419537877301283
 20
7.262651683534235
 11
7.371675405790774
 21
7.364016180853973
 97
        0
 75
     2
 76
     1
 98
        0
  0
ENDBLK
  5
292
330
28F
100
AcDbEntity
  8
0
100
AcDbBlockEnd
  0
BLOCK
  5
2A0
330
29E
100
AcDbEntity
  8
0
100
AcDbBlockBegin
  2
block 9
 70
     0
 10
0.0
 20
0.0
 30
0.0
  3
block 9
  1

  0
POLYLINE
  5
2A2
330
29E
100
AcDbEntity
  8
callouts
 62
   250
420
  2301728
370
    20
100
AcDb2dPolyline
 66
     1
 10
0.0
 20
0.0
 30
0.0
  0
VERTEX
  5
2A3
330
2A2
100
AcDbEntity
  8
callouts
 62
   250
420
  2301728
370
    20
100
AcDbVertex
100
AcDb2dVertex
 10
7.302291802443518
 20
8.641544842762805
 30
0.0
  0
VERTEX
  5
2A4
330
2A2
100
AcDbEntity
  8
callouts
 62
   250
420
  2301728
370
    20
100
AcDbVertex
100
AcDb2dVertex
 10
6.983654173615276
 20
8.998555799351909
 30
0.0
  0
SEQEND
  5
2A5
330
2A2
100
AcDbEntity
  8
callouts
 62
   250
420
  2301728
370
    20
  0
POLYLINE
  5
2A6
330
29E
100
AcDbEntity
  8
callouts
370
     0
100
AcDb2dPolyline
 66
     1
 10
0.0
 20
0.0
 30
0.0
  0
VERTEX
  5
2A7
330
2A6
100
AcDbEntity
  8
callouts
370
     0
100
AcDbVertex
100
AcDb2dVertex
 10
7.316835967927759
 20
8.673475313731462
 30
0.0
  0
VERTEX
  5
2A8
330
2A6
100
AcDbEntity
  8
callouts
370
     0
100
AcDbVertex
100
AcDb2dVertex
 10
7.263344603264082
 20
8.625602456301408
 30
0.0
  0
VERTEX
  5
2A9
330
2A6
100
AcDbEntity
  8
callouts
370
     0
100
AcDbVertex
100
AcDb2dVertex
 10
7.36469843943827
 20
8.572110816411698
 30
0.0
  0
VERTEX
  5
2AA
330
2A6
100
AcDbEntity
  8
callouts
370
     0
100
AcDbVertex
100
AcDb2dVertex
 10
7.316835967927759
 20
8.673475313731462
 30
0.0
  0
SEQEND
  5
2AC
330
2A6
100
AcDbEntity
  8
callouts
370
     0
  0
HATCH
  5
2AB
330
29E
100
AcDbEntity
  8
callouts
 62
   250
420
  2301728
100
AcDbHatch
 10
0.0
 20
0.0
 30
0.0
210
0.0
220
0.0
230
1.0
  2
SOLID
 70
     1
 71
     0
 91
        1
 92
        1
 93
        3
 72
     1
 10
7.316835967927759
 20
8.673475313731462
 11
7.263344603264082
 21
8.625602456301408
 72
     1
 10
7.263344603264082
 20
8.625602456301408
 11
7.36469843943827
 21
8.572110816411698
 72
     1
 10
7.36469843943827
 20
8.572110816411698
 11
7.316835967927759
 21
8.673475313731462
 97
        0
 75
     2
 76
     1
 98
        0
  0
ENDBLK
  5
2A1
330
29E
100
AcDbEntity
  8
0
100
AcDbBlockEnd
  0
BLOCK
  5
2AF
330
2AD
100
AcDbEntity
  8
0
100
AcDbBlockBegin
  2
block 10
 70
     0
 10
0.0
 20
0.0
 30
0.0
  3
block 10
  1

  0
POLYLINE
  5
2B1
330
2AD
100
AcDbEntity
  8
callouts
 62
   250
420
  2301728
370
    20
100
AcDb2dPolyline
 66
     1
 10
0.0
 20
0.0
 30
0.0
  0
VERTEX
  5
2B2
330
2B1
100
AcDbEntity
  8
callouts
 62
   250
420
  2301728
370
    20
100
AcDbVertex
100
AcDb2dVertex
 10
8.193043525125733
 20
7.76316352915761
 30
0.0
  0
VERTEX
  5
2B3
330
2B1
100
AcDbEntity
  8
callouts
 62
   250
420
  2301728
370
    20
100
AcDbVertex
100
AcDb2dVertex
 10
8.417840538067392
 20
8.040519666183298
 30
0.0
  0
SEQEND
  5
2B4
330
2B1
100
AcDbEntity
  8
callouts
 62
   250
420
  2301728
370
    20
  0
POLYLINE
  5
2B5
330
2AD
100
AcDbEntity
  8
callouts
370
     0
100
AcDb2dPolyline
 66
     1
 10
0.0
 20
0.0
 30
0.0
  0
VERTEX
  5
2B6
330
2B5
100
AcDbEntity
  8
callouts
370
     0
100
AcDbVertex
100
AcDb2dVertex
 10
8.226892761279865
 20
7.753926812333184
 30
0.0
  0
VERTEX
  5
2B7
330
2B5
100
AcDbEntity
  8
callouts
370
     0
100
AcDbVertex
100
AcDb2dVertex
 10
8.171063095118598
 20
7.799050918401008
 30
0.0
  0
VERTEX
  5
2B8
330
2B5
100
AcDbEntity
  8
callouts
370
     0
100
AcDbVertex
100
AcDb2dVertex
 10
8.134513143666657
 20
7.690432058647389
 30
0.0
  0
VERTEX
  5
2B9
330
2B5
100
AcDbEntity
  8
callouts
370
     0
100
AcDbVertex
100
AcDb2dVertex
 10
8.226892761279865
 20
7.753926812333184
 30
0.0
  0
SEQEND
  5
2BB
330
2B5
100
AcDbEntity
  8
callouts
370
     0
  0
HATCH
  5
2BA
330
2AD
100
AcDbEntity
  8
callouts
 62
   250
420
  2301728
100
AcDbHatch
 10
0.0
 20
0.0
 30
0.0
210
0.0
220
0.0
230
1.0
  2
SOLID
 70
     1
 71
     0
 91
        1
 92
        1
 93
        3
 72
     1
 10
8.226892761279865
 20
7.753926812333184
 11
8.171063095118598
 21
7.799050918401008
 72
     1
 10
8.171063095118598
 20
7.799050918401008
 11
8.134513143666657
 21
7.690432058647389
 72
     1
 10
8.134513143666657
 20
7.690432058647389
 11
8.226892761279865
 21
7.753926812333184
 97
        0
 75
     2
 76
     1
 98
        0
  0
ENDBLK
  5
2B0
330
2AD
100
AcDbEntity
  8
0
100
AcDbBlockEnd
  0
BLOCK
  5
2BE
330
2BC
100
AcDbEntity
  8
0
100
AcDbBlockBegin
  2
block 11
 70
     0
 10
0.0
 20
0.0
 30
0.0
  3
block 11
  1

  0
POLYLINE
  5
2C0
330
2BC
100
AcDbEntity
  8
callouts
 62
   250
420
  2301728
370
    20
100
AcDb2dPolyline
 66
     1
 10
0.0
 20
0.0
 30
0.0
  0
VERTEX
  5
2C1
330
2C0
100
AcDbEntity
  8
callouts
 62
   250
420
  2301728
370
    20
100
AcDbVertex
100
AcDb2dVertex
 10
7.960113412473977
 20
6.719064763099115
 30
0.0
  0
VERTEX
  5
2C2
330
2C0
100
AcDbEntity
  8
callouts
 62
   250
420
  2301728
370
    20
100
AcDbVertex
100
AcDb2dVertex
 10
8.516510972679296
 20
6.091992132350924
 30
0.0
  0
SEQEND
  5
2C3
330
2C0
100
AcDbEntity
  8
callouts
 62
   250
420
  2301728
370
    20
  0
POLYLINE
  5
2C4
330
2BC
100
AcDbEntity
  8
callouts
370
     0
100
AcDb2dPolyline
 66
     1
 10
0.0
 20
0.0
 30
0.0
  0
VERTEX
  5
2C5
330
2C4
100
AcDbEntity
  8
callouts
370
     0
100
AcDbVertex
100
AcDb2dVertex
 10
7.945476266975194
 20
6.68717680773097
 30
0.0
  0
VERTEX
  5
2C6
330
2C4
100
AcDbEntity
  8
callouts
370
     0
100
AcDbVertex
100
AcDb2dVertex
 10
7.999106900608492
 20
6.734893594171277
 30
0.0
  0
VERTEX
  5
2C7
330
2C4
100
AcDbEntity
  8
callouts
370
     0
100
AcDbVertex
100
AcDb2dVertex
 10
7.897909363272851
 20
6.788680340517557
 30
0.0
  0
VERTEX
  5
2C8
330
2C4
100
AcDbEntity
  8
callouts
370
     0
100
AcDbVertex
100
AcDb2dVertex
 10
7.945476266975194
 20
6.68717680773097
 30
0.0
  0
SEQEND
  5
2CA
330
2C4
100
AcDbEntity
  8
callouts
370
     0
  0
HATCH
  5
2C9
330
2BC
100
AcDbEntity
  8
callouts
 62
   250
420
  2301728
100
AcDbHatch
 10
0.0
 20
0.0
 30
0.0
210
0.0
220
0.0
230
1.0
  2
SOLID
 70
     1
 71
     0
 91
        1
 92
        1
 93
        3
 72
     1
 10
7.945476266975194
 20
6.68717680773097
 11
7.999106900608492
 21
6.734893594171277
 72
     1
 10
7.999106900608492
 20
6.734893594171277
 11
7.897909363272851
 21
6.788680340517557
 72
     1
 10
7.897909363272851
 20
6.788680340517557
 11
7.945476266975194
 21
6.68717680773097
 97
        0
 75
     2
 76
     1
 98
        0
  0
ENDBLK
  5
2BF
330
2BC
100
AcDbEntity
  8
0
100
AcDbBlockEnd
  0
ENDSEC
  0
SECTION
  2
ENTITIES
  0
POLYLINE
  5
41
330
1F
100
AcDbEntity
  8
Layer 1
370
     0
100
AcDb2dPolyline
 66
     1
 10
0.0
 20
0.0
 30
0.0
  0
VERTEX
  5
42
330
41
100
AcDbEntity
  8
Layer 1
370
     0
100
AcDbVertex
100
AcDb2dVertex
 10
7.892026880877185
 20
4.74309222700261
 30
0.0
  0
VERTEX
  5
43
330
41
100
AcDbEntity
  8
Layer 1
370
     0
100
AcDbVertex
100
AcDb2dVertex
 10
7.78557120312002
 20
4.74309222700261
 30
0.0
  0
VERTEX
  5
44
330
41
100
AcDbEntity
  8
Layer 1
370
     0
100
AcDbVertex
100
AcDb2dVertex
 10
7.757009923721752
 20
4.795021825908533
 30
0.0
  0
VERTEX
  5
45
330
41
100
AcDbEntity
  8
Layer 1
370
     0
100
AcDbVertex
100
AcDb2dVertex
 10
7.715466244597009
 20
4.680776708315483
 30
0.0
  0
VERTEX
  5
46
330
41
100
AcDbEntity
  8
Layer 1
370
     0
100
AcDbVertex
100
AcDb2dVertex
 10
7.684308485253445
 20
4.7482851868932
 30
0.0
  0
VERTEX
  5
47
330
41
100
AcDbEntity
  8
Layer 1
370
     0
100
AcDbVertex
100
AcDb2dVertex
 10
7.570063367660396
 20
4.7482851868932
 30
0.0
  0
VERTEX
  5
48
330
41
100
AcDbEntity
  8
Layer 1
370
     0
100
AcDbVertex
100
AcDb2dVertex
 10
7.570063367660396
 20
6.352909793086509
 30
0.0
  0
VERTEX
  5
49
330
41
100
AcDbEntity
  8
Layer 1
370
     0
100
AcDbVertex
100
AcDb2dVertex
 10
6.37568259282399
 20
6.352909793086509
 30
0.0
  0
VERTEX
  5
4A
330
41
100
AcDbEntity
  8
Layer 1
370
     0
100
AcDbVertex
100
AcDb2dVertex
 10
6.37568259282399
 20
6.963082580231204
 30
0.0
  0
VERTEX
  5
4B
330
41
100
AcDbEntity
  8
Layer 1
370
     0
100
AcDbVertex
100
AcDb2dVertex
 10
6.432805151620514
 20
6.994240339574768
 30
0.0
  0
VERTEX
  5
4C
330
41
100
AcDbEntity
  8
Layer 1
370
     0
100
AcDbVertex
100
AcDb2dVertex
 10
6.315963554082158
 20
7.038380498644806
 30
0.0
  0
VERTEX
  5
4D
330
41
100
AcDbEntity
  8
Layer 1
370
     0
100
AcDbVertex
100
AcDb2dVertex
 10
6.380875552714567
 20
7.066941778043074
 30
0.0
  0
VERTEX
  5
4E
330
41
100
AcDbEntity
  8
Layer 1
370
     0
100
AcDbVertex
100
AcDb2dVertex
 10
6.380875552714567
 20
7.690096964914233
 30
0.0
  0
VERTEX
  5
4F
330
41
100
AcDbEntity
  8
Layer 1
370
     0
100
AcDbVertex
100
AcDb2dVertex
 10
7.5674668877151
 20
7.690096964914233
 30
0.0
  0
VERTEX
  5
50
330
41
100
AcDbEntity
  8
Layer 1
370
     0
100
AcDbVertex
100
AcDb2dVertex
 10
7.5674668877151
 20
9.299914530998118
 30
0.0
  0
VERTEX
  5
51
330
41
100
AcDbEntity
  8
Layer 1
370
     0
100
AcDbVertex
100
AcDb2dVertex
 10
7.663536645691086
 20
9.299914530998118
 30
0.0
  0
VERTEX
  5
52
330
41
100
AcDbEntity
  8
Layer 1
370
     0
100
AcDbVertex
100
AcDb2dVertex
 10
7.692097925089355
 20
9.235002532365721
 30
0.0
  0
VERTEX
  5
53
330
41
100
AcDbEntity
  8
Layer 1
370
     0
100
AcDbVertex
100
AcDb2dVertex
 10
7.733641604214098
 20
9.35963356973995
 30
0.0
  0
VERTEX
  5
54
330
41
100
AcDbEntity
  8
Layer 1
370
     0
100
AcDbVertex
100
AcDb2dVertex
 10
7.762202883612367
 20
9.297318051052835
 30
0.0
  0
VERTEX
  5
55
330
41
100
AcDbEntity
  8
Layer 1
370
     0
100
AcDbVertex
100
AcDb2dVertex
 10
7.88943040093189
 20
9.297318051052835
 30
0.0
  0
VERTEX
  5
56
330
41
100
AcDbEntity
  8
Layer 1
370
     0
100
AcDbVertex
100
AcDb2dVertex
 10
7.88943040093189
 20
7.692693444859527
 30
0.0
  0
VERTEX
  5
57
330
41
100
AcDbEntity
  8
Layer 1
370
     0
100
AcDbVertex
100
AcDb2dVertex
 10
8.915039979324066
 20
7.692693444859527
 30
0.0
  0
VERTEX
  5
58
330
41
100
AcDbEntity
  8
Layer 1
370
     0
100
AcDbVertex
100
AcDb2dVertex
 10
8.915039979324066
 20
7.064345298097755
 30
0.0
  0
VERTEX
  5
59
330
41
100
AcDbEntity
  8
Layer 1
370
     0
100
AcDbVertex
100
AcDb2dVertex
 10
8.847531500746324
 20
7.038380498644806
 30
0.0
  0
VERTEX
  5
5A
330
41
100
AcDbEntity
  8
Layer 1
370
     0
100
AcDbVertex
100
AcDb2dVertex
 10
8.964373098284694
 20
6.996836819520063
 30
0.0
  0
VERTEX
  5
5B
330
41
100
AcDbEntity
  8
Layer 1
370
     0
100
AcDbVertex
100
AcDb2dVertex
 10
8.909847019433451
 20
6.965679060176499
 30
0.0
  0
VERTEX
  5
5C
330
41
100
AcDbEntity
  8
Layer 1
370
     0
100
AcDbVertex
100
AcDb2dVertex
 10
8.909847019433451
 20
6.352909793086509
 30
0.0
  0
VERTEX
  5
5D
330
41
100
AcDbEntity
  8
Layer 1
370
     0
100
AcDbVertex
100
AcDb2dVertex
 10
7.892026880877185
 20
6.352909793086509
 30
0.0
  0
VERTEX
  5
5E
330
41
100
AcDbEntity
  8
Layer 1
370
     0
100
AcDbVertex
100
AcDb2dVertex
 10
7.892026880877185
 20
4.74309222700261
 30
0.0
  0
SEQEND
  5
60
330
41
100
AcDbEntity
  8
Layer 1
370
     0
  0
HATCH
  5
5F
330
1F
100
AcDbEntity
  8
Layer 1
 62
    43
420
 15510365
100
AcDbHatch
 10
0.0
 20
0.0
 30
0.0
210
0.0
220
0.0
230
1.0
  2
SOLID
 70
     1
 71
     0
 91
        1
 92
        1
 93
       28
 72
     1
 10
7.892026880877185
 20
4.74309222700261
 11
7.78557120312002
 21
4.74309222700261
 72
     1
 10
7.78557120312002
 20
4.74309222700261
 11
7.757009923721752
 21
4.795021825908533
 72
     1
 10
7.757009923721752
 20
4.795021825908533
 11
7.715466244597009
 21
4.680776708315483
 72
     1
 10
7.715466244597009
 20
4.680776708315483
 11
7.684308485253445
 21
4.7482851868932
 72
     1
 10
7.684308485253445
 20
4.7482851868932
 11
7.570063367660396
 21
4.7482851868932
 72
     1
 10
7.570063367660396
 20
4.7482851868932
 11
7.570063367660396
 21
6.352909793086509
 72
     1
 10
7.570063367660396
 20
6.352909793086509
 11
6.37568259282399
 21
6.352909793086509
 72
     1
 10
6.37568259282399
 20
6.352909793086509
 11
6.37568259282399
 21
6.963082580231204
 72
     1
 10
6.37568259282399
 20
6.963082580231204
 11
6.432805151620514
 21
6.994240339574768
 72
     1
 10
6.432805151620514
 20
6.994240339574768
 11
6.315963554082158
 21
7.038380498644806
 72
     1
 10
6.315963554082158
 20
7.038380498644806
 11
6.380875552714567
 21
7.066941778043074
 72
     1
 10
6.380875552714567
 20
7.066941778043074
 11
6.380875552714567
 21
7.690096964914233
 72
     1
 10
6.380875552714567
 20
7.690096964914233
 11
7.5674668877151
 21
7.690096964914233
 72
     1
 10
7.5674668877151
 20
7.690096964914233
 11
7.5674668877151
 21
9.299914530998118
 72
     1
 10
7.5674668877151
 20
9.299914530998118
 11
7.663536645691086
 21
9.299914530998118
 72
     1
 10
7.663536645691086
 20
9.299914530998118
 11
7.692097925089355
 21
9.235002532365721
 72
     1
 10
7.692097925089355
 20
9.235002532365721
 11
7.733641604214098
 21
9.35963356973995
 72
     1
 10
7.733641604214098
 20
9.35963356973995
 11
7.762202883612367
 21
9.297318051052835
 72
     1
 10
7.762202883612367
 20
9.297318051052835
 11
7.88943040093189
 21
9.297318051052835
 72
     1
 10
7.88943040093189
 20
9.297318051052835
 11
7.88943040093189
 21
7.692693444859527
 72
     1
 10
7.88943040093189
 20
7.692693444859527
 11
8.915039979324066
 21
7.692693444859527
 72
     1
 10
8.915039979324066
 20
7.692693444859527
 11
8.915039979324066
 21
7.064345298097755
 72
     1
 10
8.915039979324066
 20
7.064345298097755
 11
8.847531500746324
 21
7.038380498644806
 72
     1
 10
8.847531500746324
 20
7.038380498644806
 11
8.964373098284694
 21
6.996836819520063
 72
     1
 10
8.964373098284694
 20
6.996836819520063
 11
8.909847019433451
 21
6.965679060176499
 72
     1
 10
8.909847019433451
 20
6.965679060176499
 11
8.909847019433451
 21
6.352909793086509
 72
     1
 10
8.909847019433451
 20
6.352909793086509
 11
7.892026880877185
 21
6.352909793086509
 72
     1
 10
7.892026880877185
 20
6.352909793086509
 11
7.892026880877185
 21
4.74309222700261
 97
        0
 75
     2
 76
     1
 98
        0
  0
POLYLINE
  5
61
330
1F
100
AcDbEntity
  8
Layer 1
  6
AI-Linetype-1
 62
     7
420
 16777215
370
    20
100
AcDb2dPolyline
 66
     1
 10
0.0
 20
0.0
 30
0.0
  0
VERTEX
  5
62
330
61
100
AcDbEntity
  8
Layer 1
  6
AI-Linetype-1
 62
     7
420
 16777215
370
    20
100
AcDbVertex
100
AcDb2dVertex
 10
7.478091614364454
 20
6.357892690572119
 30
0.0
  0
VERTEX
  5
63
330
61
100
AcDbEntity
  8
Layer 1
  6
AI-Linetype-1
 62
     7
420
 16777215
370
    20
100
AcDbVertex
100
AcDb2dVertex
 10
7.420501690632616
 20
6.357892690572119
 30
0.0
  0
VERTEX
  5
64
330
61
100
AcDbEntity
  8
Layer 1
  6
AI-Linetype-1
 62
     7
420
 16777215
370
    20
100
AcDbVertex
100
AcDb2dVertex
 10
7.420501690632616
 20
7.692682758394729
 30
0.0
  0
VERTEX
  5
65
330
61
100
AcDbEntity
  8
Layer 1
  6
AI-Linetype-1
 62
     7
420
 16777215
370
    20
100
AcDbVertex
100
AcDb2dVertex
 10
7.478091614364454
 20
7.692682758394729
 30
0.0
  0
VERTEX
  5
66
330
61
100
AcDbEntity
  8
Layer 1
  6
AI-Linetype-1
 62
     7
420
 16777215
370
    20
100
AcDbVertex
100
AcDb2dVertex
 10
7.478091614364454
 20
6.357892690572119
 30
0.0
  0
SEQEND
  5
69
330
61
100
AcDbEntity
  8
Layer 1
  6
AI-Linetype-1
 62
     7
420
 16777215
370
    20
  0
HATCH
  5
68
330
1F
100
AcDbEntity
  8
Layer 1
 62
   254
420
 16376262
100
AcDbHatch
 10
0.0
 20
0.0
 30
0.0
210
0.0
220
0.0
230
1.0
  2
SOLID
 70
     1
 71
     0
 91
        1
 92
        1
 93
        4
 72
     1
 10
7.478091614364454
 20
6.357892690572119
 11
7.420501690632616
 21
6.357892690572119
 72
     1
 10
7.420501690632616
 20
6.357892690572119
 11
7.420501690632616
 21
7.692682758394729
 72
     1
 10
7.420501690632616
 20
7.692682758394729
 11
7.478091614364454
 21
7.692682758394729
 72
     1
 10
7.478091614364454
 20
7.692682758394729
 11
7.478091614364454
 21
6.357892690572119
 97
        0
 75
     2
 76
     1
 98
        0
  0
POLYLINE
  5
6A
330
1F
100
AcDbEntity
  8
Layer 1
370
     0
100
AcDb2dPolyline
 66
     1
 10
0.0
 20
0.0
 30
0.0
  0
VERTEX
  5
6B
330
6A
100
AcDbEntity
  8
Layer 1
370
     0
100
AcDbVertex
100
AcDb2dVertex
 10
7.478091614364454
 20
6.063828101896964
 30
0.0
  0
VERTEX
  5
6C
330
6A
100
AcDbEntity
  8
Layer 1
370
     0
100
AcDbVertex
100
AcDb2dVertex
 10
7.420501690632616
 20
6.063828101896964
 30
0.0
  0
VERTEX
  5
6D
330
6A
100
AcDbEntity
  8
Layer 1
370
     0
100
AcDbVertex
100
AcDb2dVertex
 10
7.420501690632616
 20
6.356378690293392
 30
0.0
  0
VERTEX
  5
6E
330
6A
100
AcDbEntity
  8
Layer 1
370
     0
100
AcDbVertex
100
AcDb2dVertex
 10
7.478091614364454
 20
6.356378690293392
 30
0.0
  0
VERTEX
  5
6F
330
6A
100
AcDbEntity
  8
Layer 1
370
     0
100
AcDbVertex
100
AcDb2dVertex
 10
7.478091614364454
 20
6.063828101896964
 30
0.0
  0
SEQEND
  5
71
330
6A
100
AcDbEntity
  8
Layer 1
370
     0
  0
HATCH
  5
70
330
1F
100
AcDbEntity
  8
Layer 1
 62
   253
420
 10987947
100
AcDbHatch
 10
0.0
 20
0.0
 30
0.0
210
0.0
220
0.0
230
1.0
  2
SOLID
 70
     1
 71
     0
 91
        1
 92
        1
 93
        4
 72
     1
 10
7.478091614364454
 20
6.063828101896964
 11
7.420501690632616
 21
6.063828101896964
 72
     1
 10
7.420501690632616
 20
6.063828101896964
 11
7.420501690632616
 21
6.356378690293392
 72
     1
 10
7.420501690632616
 20
6.356378690293392
 11
7.478091614364454
 21
6.356378690293392
 72
     1
 10
7.478091614364454
 20
6.356378690293392
 11
7.478091614364454
 21
6.063828101896964
 97
        0
 75
     2
 76
     1
 98
        0
  0
POLYLINE
  5
72
330
1F
100
AcDbEntity
  8
Layer 1
370
     0
100
AcDb2dPolyline
 66
     1
 10
0.0
 20
0.0
 30
0.0
  0
VERTEX
  5
73
330
72
100
AcDbEntity
  8
Layer 1
370
     0
100
AcDbVertex
100
AcDb2dVertex
 10
7.478091614364454
 20
7.692682758394729
 30
0.0
  0
VERTEX
  5
74
330
72
100
AcDbEntity
  8
Layer 1
370
     0
100
AcDbVertex
100
AcDb2dVertex
 10
7.420501690632616
 20
7.692682758394729
 30
0.0
  0
VERTEX
  5
75
330
72
100
AcDbEntity
  8
Layer 1
370
     0
100
AcDbVertex
100
AcDb2dVertex
 10
7.420501690632616
 20
7.985223261416422
 30
0.0
  0
VERTEX
  5
76
330
72
100
AcDbEntity
  8
Layer 1
370
     0
100
AcDbVertex
100
AcDb2dVertex
 10
7.478091614364454
 20
7.985223261416422
 30
0.0
  0
VERTEX
  5
77
330
72
100
AcDbEntity
  8
Layer 1
370
     0
100
AcDbVertex
100
AcDb2dVertex
 10
7.478091614364454
 20
7.692682758394729
 30
0.0
  0
SEQEND
  5
79
330
72
100
AcDbEntity
  8
Layer 1
370
     0
  0
HATCH
  5
78
330
1F
100
AcDbEntity
  8
Layer 1
 62
   253
420
 10987947
100
AcDbHatch
 10
0.0
 20
0.0
 30
0.0
210
0.0
220
0.0
230
1.0
  2
SOLID
 70
     1
 71
     0
 91
        1
 92
        1
 93
        4
 72
     1
 10
7.478091614364454
 20
7.692682758394729
 11
7.420501690632616
 21
7.692682758394729
 72
     1
 10
7.420501690632616
 20
7.692682758394729
 11
7.420501690632616
 21
7.985223261416422
 72
     1
 10
7.420501690632616
 20
7.985223261416422
 11
7.478091614364454
 21
7.985223261416422
 72
     1
 10
7.478091614364454
 20
7.985223261416422
 11
7.478091614364454
 21
7.692682758394729
 97
        0
 75
     2
 76
     1
 98
        0
  0
POLYLINE
  5
7A
330
1F
100
AcDbEntity
  8
Layer 1
 62
   250
420
  2301728
370
    30
100
AcDb2dPolyline
 66
     1
 10
0.0
 20
0.0
 30
0.0
  0
VERTEX
  5
7B
330
7A
100
AcDbEntity
  8
Layer 1
 62
   250
420
  2301728
370
    30
100
AcDbVertex
100
AcDb2dVertex
 10
6.381940896509579
 20
7.691282736443567
 30
0.0
  0
VERTEX
  5
7C
330
7A
100
AcDbEntity
  8
Layer 1
 62
   250
420
  2301728
370
    30
100
AcDbVertex
100
AcDb2dVertex
 10
8.915770832492196
 20
7.691282736443567
 30
0.0
  0
SEQEND
  5
7D
330
7A
100
AcDbEntity
  8
Layer 1
 62
   250
420
  2301728
370
    30
  0
POLYLINE
  5
7E
330
1F
100
AcDbEntity
  8
Layer 1
 62
   250
420
  2301728
370
    20
100
AcDb2dPolyline
 66
     1
 10
0.0
 20
0.0
 30
0.0
  0
VERTEX
  5
7F
330
7E
100
AcDbEntity
  8
Layer 1
 62
   250
420
  2301728
370
    20
100
AcDbVertex
100
AcDb2dVertex
 10
6.381940896509579
 20
7.553123003452596
 30
0.0
  0
VERTEX
  5
80
330
7E
100
AcDbEntity
  8
Layer 1
 62
   250
420
  2301728
370
    20
100
AcDbVertex
100
AcDb2dVertex
 10
8.915770832492196
 20
7.553123003452596
 30
0.0
  0
SEQEND
  5
81
330
7E
100
AcDbEntity
  8
Layer 1
 62
   250
420
  2301728
370
    20
  0
POLYLINE
  5
82
330
1F
100
AcDbEntity
  8
Layer 1
 62
   250
420
  2301728
370
    20
100
AcDb2dPolyline
 66
     1
 10
0.0
 20
0.0
 30
0.0
  0
VERTEX
  5
83
330
82
100
AcDbEntity
  8
Layer 1
 62
   250
420
  2301728
370
    20
100
AcDbVertex
100
AcDb2dVertex
 10
6.374820310087481
 20
6.632072657133222
 30
0.0
  0
VERTEX
  5
84
330
82
100
AcDbEntity
  8
Layer 1
 62
   250
420
  2301728
370
    20
100
AcDbVertex
100
AcDb2dVertex
 10
8.908650246070085
 20
6.632072657133222
 30
0.0
  0
SEQEND
  5
85
330
82
100
AcDbEntity
  8
Layer 1
 62
   250
420
  2301728
370
    20
  0
POLYLINE
  5
86
330
1F
100
AcDbEntity
  8
Layer 1
 62
   250
420
  2301728
370
    30
100
AcDb2dPolyline
 66
     1
 10
0.0
 20
0.0
 30
0.0
  0
VERTEX
  5
87
330
86
100
AcDbEntity
  8
Layer 1
 62
   250
420
  2301728
370
    30
100
AcDbVertex
100
AcDb2dVertex
 10
7.569809669635106
 20
6.355769808622451
 30
0.0
  0
VERTEX
  5
88
330
86
100
AcDbEntity
  8
Layer 1
 62
   250
420
  2301728
370
    30
100
AcDbVertex
100
AcDb2dVertex
 10
7.569809669635106
 20
4.746114303550485
 30
0.0
  0
SEQEND
  5
89
330
86
100
AcDbEntity
  8
Layer 1
 62
   250
420
  2301728
370
    30
  0
POLYLINE
  5
8A
330
1F
100
AcDbEntity
  8
Layer 1
 62
   250
420
  2301728
370
    30
100
AcDb2dPolyline
 66
     1
 10
0.0
 20
0.0
 30
0.0
  0
VERTEX
  5
8B
330
8A
100
AcDbEntity
  8
Layer 1
 62
   250
420
  2301728
370
    30
100
AcDbVertex
100
AcDb2dVertex
 10
7.892311165349484
 20
6.355769808622451
 30
0.0
  0
VERTEX
  5
8C
330
8A
100
AcDbEntity
  8
Layer 1
 62
   250
420
  2301728
370
    30
100
AcDbVertex
100
AcDb2dVertex
 10
7.892311165349484
 20
4.738993717128374
 30
0.0
  0
SEQEND
  5
8D
330
8A
100
AcDbEntity
  8
Layer 1
 62
   250
420
  2301728
370
    30
  0
POLYLINE
  5
8E
330
1F
100
AcDbEntity
  8
Layer 1
 62
   250
420
  2301728
370
    30
100
AcDb2dPolyline
 66
     1
 10
0.0
 20
0.0
 30
0.0
  0
VERTEX
  5
8F
330
8E
100
AcDbEntity
  8
Layer 1
 62
   250
420
  2301728
370
    30
100
AcDbVertex
100
AcDb2dVertex
 10
7.892311165349484
 20
9.295614760208712
 30
0.0
  0
VERTEX
  5
90
330
8E
100
AcDbEntity
  8
Layer 1
 62
   250
420
  2301728
370
    30
100
AcDbVertex
100
AcDb2dVertex
 10
7.892311165349484
 20
7.691282736443567
 30
0.0
  0
SEQEND
  5
91
330
8E
100
AcDbEntity
  8
Layer 1
 62
   250
420
  2301728
370
    30
  0
POLYLINE
  5
92
330
1F
100
AcDbEntity
  8
Layer 1
 62
   250
420
  2301728
370
    30
100
AcDb2dPolyline
 66
     1
 10
0.0
 20
0.0
 30
0.0
  0
VERTEX
  5
93
330
92
100
AcDbEntity
  8
Layer 1
 62
   250
420
  2301728
370
    30
100
AcDbVertex
100
AcDb2dVertex
 10
7.569809669635106
 20
9.30272461967282
 30
0.0
  0
VERTEX
  5
94
330
92
100
AcDbEntity
  8
Layer 1
 62
   250
420
  2301728
370
    30
100
AcDbVertex
100
AcDb2dVertex
 10
7.569809669635106
 20
7.691282736443567
 30
0.0
  0
SEQEND
  5
95
330
92
100
AcDbEntity
  8
Layer 1
 62
   250
420
  2301728
370
    30
  0
POLYLINE
  5
96
330
1F
100
AcDbEntity
  8
Layer 1
 62
   250
420
  2301728
370
    20
100
AcDb2dPolyline
 66
     1
 10
0.0
 20
0.0
 30
0.0
  0
VERTEX
  5
97
330
96
100
AcDbEntity
  8
Layer 1
 62
   250
420
  2301728
370
    20
100
AcDbVertex
100
AcDb2dVertex
 10
6.374820310087481
 20
6.493931618797356
 30
0.0
  0
VERTEX
  5
98
330
96
100
AcDbEntity
  8
Layer 1
 62
   250
420
  2301728
370
    20
100
AcDbVertex
100
AcDb2dVertex
 10
8.908650246070085
 20
6.493931618797356
 30
0.0
  0
SEQEND
  5
99
330
96
100
AcDbEntity
  8
Layer 1
 62
   250
420
  2301728
370
    20
  0
POLYLINE
  5
9A
330
1F
100
AcDbEntity
  8
Layer 1
 62
   250
420
  2301728
370
    30
100
AcDb2dPolyline
 66
     1
 10
0.0
 20
0.0
 30
0.0
  0
VERTEX
  5
9B
330
9A
100
AcDbEntity
  8
Layer 1
 62
   250
420
  2301728
370
    30
100
AcDbVertex
100
AcDb2dVertex
 10
6.374820310087481
 20
6.355769808622451
 30
0.0
  0
VERTEX
  5
9C
330
9A
100
AcDbEntity
  8
Layer 1
 62
   250
420
  2301728
370
    30
100
AcDbVertex
100
AcDb2dVertex
 10
8.908650246070085
 20
6.355769808622451
 30
0.0
  0
SEQEND
  5
9D
330
9A
100
AcDbEntity
  8
Layer 1
 62
   250
420
  2301728
370
    30
  0
POLYLINE
  5
9E
330
1F
100
AcDbEntity
  8
Layer 1
 62
   250
420
  2301728
370
    30
100
AcDb2dPolyline
 66
     1
 10
0.0
 20
0.0
 30
0.0
  0
VERTEX
  5
9F
330
9E
100
AcDbEntity
  8
Layer 1
 62
   250
420
  2301728
370
    30
100
AcDbVertex
100
AcDb2dVertex
 10
7.569739045382398
 20
5.258127672724691
 30
0.0
  0
VERTEX
  5
A0
330
9E
100
AcDbEntity
  8
Layer 1
 62
   250
420
  2301728
370
    30
100
AcDbVertex
100
AcDb2dVertex
 10
7.569739045382398
 20
6.040804336110922
 30
0.0
  0
SEQEND
  5
A1
330
9E
100
AcDbEntity
  8
Layer 1
 62
   250
420
  2301728
370
    30
  0
POLYLINE
  5
A2
330
1F
100
AcDbEntity
  8
Layer 1
 62
   250
420
  2301728
370
    20
100
AcDb2dPolyline
 66
     1
 10
0.0
 20
0.0
 30
0.0
  0
VERTEX
  5
A3
330
A2
100
AcDbEntity
  8
Layer 1
 62
   250
420
  2301728
370
    20
100
AcDbVertex
100
AcDb2dVertex
 10
7.478091614364454
 20
6.356378690293392
 30
0.0
  0
VERTEX
  5
A4
330
A2
100
AcDbEntity
  8
Layer 1
 62
   250
420
  2301728
370
    20
100
AcDbVertex
100
AcDb2dVertex
 10
7.478091614364454
 20
6.063828101896964
 30
0.0
  0
SEQEND
  5
A5
330
A2
100
AcDbEntity
  8
Layer 1
 62
   250
420
  2301728
370
    20
  0
POLYLINE
  5
A6
330
1F
100
AcDbEntity
  8
Layer 1
 62
   250
420
  2301728
370
    20
100
AcDb2dPolyline
 66
     1
 10
0.0
 20
0.0
 30
0.0
  0
VERTEX
  5
A7
330
A6
100
AcDbEntity
  8
Layer 1
 62
   250
420
  2301728
370
    20
100
AcDbVertex
100
AcDb2dVertex
 10
7.478091614364454
 20
7.986957402040856
 30
0.0
  0
VERTEX
  5
A8
330
A6
100
AcDbEntity
  8
Layer 1
 62
   250
420
  2301728
370
    20
100
AcDbVertex
100
AcDb2dVertex
 10
7.478091614364454
 20
7.692682758394729
 30
0.0
  0
SEQEND
  5
A9
330
A6
100
AcDbEntity
  8
Layer 1
 62
   250
420
  2301728
370
    20
  0
INSERT
  5
AB
330
1F
100
AcDbEntity
  8
Layer 1
100
AcDbBlockReference
  2
block 2
 10
0.0
 20
0.0
 30
0.0
  0
INSERT
  5
E3
330
1F
100
AcDbEntity
  8
Layer 1
100
AcDbBlockReference
  2
block 3
 10
0.0
 20
0.0
 30
0.0
  0
POLYLINE
  5
11A
330
1F
100
AcDbEntity
  8
Layer 1
 62
   250
420
  2301728
370
    20
100
AcDb2dPolyline
 66
     1
 10
0.0
 20
0.0
 30
0.0
  0
VERTEX
  5
11B
330
11A
100
AcDbEntity
  8
Layer 1
 62
   250
420
  2301728
370
    20
100
AcDbVertex
100
AcDb2dVertex
 10
7.420501690632616
 20
7.692682758394729
 30
0.0
  0
VERTEX
  5
11C
330
11A
100
AcDbEntity
  8
Layer 1
 62
   250
420
  2301728
370
    20
100
AcDbVertex
100
AcDb2dVertex
 10
7.420501690632616
 20
7.985223261416422
 30
0.0
  0
SEQEND
  5
11D
330
11A
100
AcDbEntity
  8
Layer 1
 62
   250
420
  2301728
370
    20
  0
POLYLINE
  5
11E
330
1F
100
AcDbEntity
  8
Layer 1
 62
   250
420
  2301728
370
    20
100
AcDb2dPolyline
 66
     1
 10
0.0
 20
0.0
 30
0.0
  0
VERTEX
  5
11F
330
11E
100
AcDbEntity
  8
Layer 1
 62
   250
420
  2301728
370
    20
100
AcDbVertex
100
AcDb2dVertex
 10
7.420501690632616
 20
6.062104039213282
 30
0.0
  0
VERTEX
  5
120
330
11E
100
AcDbEntity
  8
Layer 1
 62
   250
420
  2301728
370
    20
100
AcDbVertex
100
AcDb2dVertex
 10
7.420501690632616
 20
6.356378690293392
 30
0.0
  0
SEQEND
  5
121
330
11E
100
AcDbEntity
  8
Layer 1
 62
   250
420
  2301728
370
    20
  0
POLYLINE
  5
122
330
1F
100
AcDbEntity
  8
Layer 1
 62
   250
420
  2301728
370
    30
100
AcDb2dPolyline
 66
     1
 10
0.0
 20
0.0
 30
0.0
  0
VERTEX
  5
123
330
122
100
AcDbEntity
  8
Layer 1
 62
   250
420
  2301728
370
    30
100
AcDbVertex
100
AcDb2dVertex
 10
6.381940896509579
 20
7.812233000791921
 30
0.0
  0
VERTEX
  5
124
330
122
100
AcDbEntity
  8
Layer 1
 62
   250
420
  2301728
370
    30
100
AcDbVertex
100
AcDb2dVertex
 10
6.381940896509579
 20
7.067367316005831
 30
0.0
  0
VERTEX
  5
125
330
122
100
AcDbEntity
  8
Layer 1
 62
   250
420
  2301728
370
    30
100
AcDbVertex
100
AcDb2dVertex
 10
6.310770594191568
 20
7.038369828709316
 30
0.0
  0
VERTEX
  5
126
330
122
100
AcDbEntity
  8
Layer 1
 62
   250
420
  2301728
370
    30
100
AcDbVertex
100
AcDb2dVertex
 10
6.438880661679541
 20
6.995172712246661
 30
0.0
  0
VERTEX
  5
127
330
122
100
AcDbEntity
  8
Layer 1
 62
   250
420
  2301728
370
    30
100
AcDbVertex
100
AcDb2dVertex
 10
6.374830947401922
 20
6.96618561086964
 30
0.0
  0
VERTEX
  5
128
330
122
100
AcDbEntity
  8
Layer 1
 62
   250
420
  2301728
370
    30
100
AcDbVertex
100
AcDb2dVertex
 10
6.374830947401922
 20
6.205986154505985
 30
0.0
  0
SEQEND
  5
129
330
122
100
AcDbEntity
  8
Layer 1
 62
   250
420
  2301728
370
    30
  0
POLYLINE
  5
12A
330
1F
100
AcDbEntity
  8
Layer 1
 62
   250
420
  2301728
370
    20
100
AcDb2dPolyline
 66
     1
 10
0.0
 20
0.0
 30
0.0
  0
VERTEX
  5
12B
330
12A
100
AcDbEntity
  8
Layer 1
 62
   250
420
  2301728
370
    20
100
AcDbVertex
100
AcDb2dVertex
 10
6.381940896509579
 20
7.484042098365156
 30
0.0
  0
VERTEX
  5
12C
330
12A
100
AcDbEntity
  8
Layer 1
 62
   250
420
  2301728
370
    20
100
AcDbVertex
100
AcDb2dVertex
 10
8.915770832492196
 20
7.484042098365156
 30
0.0
  0
SEQEND
  5
12D
330
12A
100
AcDbEntity
  8
Layer 1
 62
   250
420
  2301728
370
    20
  0
POLYLINE
  5
12E
330
1F
100
AcDbEntity
  8
Layer 1
 62
   250
420
  2301728
370
    30
100
AcDb2dPolyline
 66
     1
 10
0.0
 20
0.0
 30
0.0
  0
VERTEX
  5
12F
330
12E
100
AcDbEntity
  8
Layer 1
 62
   250
420
  2301728
370
    30
100
AcDbVertex
100
AcDb2dVertex
 10
8.915770832492196
 20
7.812233000791921
 30
0.0
  0
VERTEX
  5
130
330
12E
100
AcDbEntity
  8
Layer 1
 62
   250
420
  2301728
370
    30
100
AcDbVertex
100
AcDb2dVertex
 10
8.915770832492196
 20
7.067367316005831
 30
0.0
  0
VERTEX
  5
131
330
12E
100
AcDbEntity
  8
Layer 1
 62
   250
420
  2301728
370
    30
100
AcDbVertex
100
AcDb2dVertex
 10
8.844610666317067
 20
7.038369828709316
 30
0.0
  0
VERTEX
  5
132
330
12E
100
AcDbEntity
  8
Layer 1
 62
   250
420
  2301728
370
    30
100
AcDbVertex
100
AcDb2dVertex
 10
8.97271059766212
 20
6.995172712246661
 30
0.0
  0
VERTEX
  5
133
330
12E
100
AcDbEntity
  8
Layer 1
 62
   250
420
  2301728
370
    30
100
AcDbVertex
100
AcDb2dVertex
 10
8.908671017909102
 20
6.96618561086964
 30
0.0
  0
VERTEX
  5
134
330
12E
100
AcDbEntity
  8
Layer 1
 62
   250
420
  2301728
370
    30
100
AcDbVertex
100
AcDb2dVertex
 10
8.908671017909102
 20
6.205986154505985
 30
0.0
  0
SEQEND
  5
135
330
12E
100
AcDbEntity
  8
Layer 1
 62
   250
420
  2301728
370
    30
  0
POLYLINE
  5
136
330
1F
100
AcDbEntity
  8
Layer 1
 62
   250
420
  2301728
370
    20
100
AcDb2dPolyline
 66
     1
 10
0.0
 20
0.0
 30
0.0
  0
VERTEX
  5
137
330
136
100
AcDbEntity
  8
Layer 1
 62
   250
420
  2301728
370
    20
100
AcDbVertex
100
AcDb2dVertex
 10
7.592843561943937
 20
7.484042098365156
 30
0.0
  0
VERTEX
  5
138
330
136
100
AcDbEntity
  8
Layer 1
 62
   250
420
  2301728
370
    20
100
AcDbVertex
100
AcDb2dVertex
 10
7.592843561943937
 20
6.632072657133222
 30
0.0
  0
VERTEX
  5
139
330
136
100
AcDbEntity
  8
Layer 1
 62
   250
420
  2301728
370
    20
100
AcDbVertex
100
AcDb2dVertex
 10
7.882206820275869
 20
6.632072657133222
 30
0.0
  0
VERTEX
  5
13A
330
136
100
AcDbEntity
  8
Layer 1
 62
   250
420
  2301728
370
    20
100
AcDbVertex
100
AcDb2dVertex
 10
7.882206820275869
 20
7.484042098365156
 30
0.0
  0
VERTEX
  5
13B
330
136
100
AcDbEntity
  8
Layer 1
 62
   250
420
  2301728
370
    20
100
AcDbVertex
100
AcDb2dVertex
 10
7.592843561943937
 20
7.484042098365156
 30
0.0
  0
VERTEX
  5
13C
330
136
100
AcDbEntity
  8
Layer 1
 62
   250
420
  2301728
370
    20
100
AcDbVertex
100
AcDb2dVertex
 10
7.882206820275869
 20
6.632072657133222
 30
0.0
  0
VERTEX
  5
13D
330
136
100
AcDbEntity
  8
Layer 1
 62
   250
420
  2301728
370
    20
100
AcDbVertex
100
AcDb2dVertex
 10
7.592843561943937
 20
6.632072657133222
 30
0.0
  0
VERTEX
  5
13E
330
136
100
AcDbEntity
  8
Layer 1
 62
   250
420
  2301728
370
    20
100
AcDbVertex
100
AcDb2dVertex
 10
7.882206820275869
 20
7.484042098365156
 30
0.0
  0
SEQEND
  5
13F
330
136
100
AcDbEntity
  8
Layer 1
 62
   250
420
  2301728
370
    20
  0
POLYLINE
  5
140
330
1F
100
AcDbEntity
  8
Layer 1
 62
   250
420
  2301728
370
    30
100
AcDb2dPolyline
 66
     1
 10
0.0
 20
0.0
 30
0.0
  0
VERTEX
  5
141
330
140
100
AcDbEntity
  8
Layer 1
 62
   250
420
  2301728
370
    30
100
AcDbVertex
100
AcDb2dVertex
 10
7.448678690287162
 20
9.30272461967282
 30
0.0
  0
VERTEX
  5
142
330
140
100
AcDbEntity
  8
Layer 1
 62
   250
420
  2301728
370
    30
100
AcDbVertex
100
AcDb2dVertex
 10
7.665260708374793
 20
9.30272461967282
 30
0.0
  0
VERTEX
  5
143
330
140
100
AcDbEntity
  8
Layer 1
 62
   250
420
  2301728
370
    30
100
AcDbVertex
100
AcDb2dVertex
 10
7.694289069435954
 20
9.231583148152847
 30
0.0
  0
VERTEX
  5
144
330
140
100
AcDbEntity
  8
Layer 1
 62
   250
420
  2301728
370
    30
100
AcDbVertex
100
AcDb2dVertex
 10
7.737515266473261
 20
9.35963356973995
 30
0.0
  0
VERTEX
  5
145
330
140
100
AcDbEntity
  8
Layer 1
 62
   250
420
  2301728
370
    30
100
AcDbVertex
100
AcDb2dVertex
 10
7.766523426241368
 20
9.295614760208712
 30
0.0
  0
VERTEX
  5
146
330
140
100
AcDbEntity
  8
Layer 1
 62
   250
420
  2301728
370
    30
100
AcDbVertex
100
AcDb2dVertex
 10
8.011444186521253
 20
9.295614760208712
 30
0.0
  0
SEQEND
  5
147
330
140
100
AcDbEntity
  8
Layer 1
 62
   250
420
  2301728
370
    30
  0
POLYLINE
  5
148
330
1F
100
AcDbEntity
  8
Layer 1
 62
   250
420
  2301728
370
    30
100
AcDb2dPolyline
 66
     1
 10
0.0
 20
0.0
 30
0.0
  0
VERTEX
  5
149
330
148
100
AcDbEntity
  8
Layer 1
 62
   250
420
  2301728
370
    30
100
AcDbVertex
100
AcDb2dVertex
 10
7.448678690287162
 20
4.746114303550485
 30
0.0
  0
VERTEX
  5
14A
330
148
100
AcDbEntity
  8
Layer 1
 62
   250
420
  2301728
370
    30
100
AcDbVertex
100
AcDb2dVertex
 10
7.686032547937152
 20
4.746114303550485
 30
0.0
  0
VERTEX
  5
14B
330
148
100
AcDbEntity
  8
Layer 1
 62
   250
420
  2301728
370
    30
100
AcDbVertex
100
AcDb2dVertex
 10
7.715060908473561
 20
4.674974909214395
 30
0.0
  0
VERTEX
  5
14C
330
148
100
AcDbEntity
  8
Layer 1
 62
   250
420
  2301728
370
    30
100
AcDbVertex
100
AcDb2dVertex
 10
7.758287105510893
 20
4.803033296881393
 30
0.0
  0
VERTEX
  5
14D
330
148
100
AcDbEntity
  8
Layer 1
 62
   250
420
  2301728
370
    30
100
AcDbVertex
100
AcDb2dVertex
 10
7.787295265803701
 20
4.738993717128374
 30
0.0
  0
VERTEX
  5
14E
330
148
100
AcDbEntity
  8
Layer 1
 62
   250
420
  2301728
370
    30
100
AcDbVertex
100
AcDb2dVertex
 10
8.011444186521253
 20
4.738993717128374
 30
0.0
  0
SEQEND
  5
14F
330
148
100
AcDbEntity
  8
Layer 1
 62
   250
420
  2301728
370
    30
  0
INSERT
  5
151
330
1F
100
AcDbEntity
  8
Layer 1
100
AcDbBlockReference
  2
block 4
 10
0.0
 20
0.0
 30
0.0
  0
INSERT
  5
178
330
1F
100
AcDbEntity
  8
Layer 1
100
AcDbBlockReference
  2
block 5
 10
0.0
 20
0.0
 30
0.0
  0
INSERT
  5
19F
330
1F
100
AcDbEntity
  8
Layer 1
100
AcDbBlockReference
  2
block 6
 10
0.0
 20
0.0
 30
0.0
  0
POLYLINE
  5
1B2
330
1F
100
AcDbEntity
  8
Layer 1
  6
AI-Linetype-22
 62
   250
420
  2301728
370
    20
100
AcDb2dPolyline
 66
     1
 10
0.0
 20
0.0
 30
0.0
  0
VERTEX
  5
1B3
330
1B2
100
AcDbEntity
  8
Layer 1
  6
AI-Linetype-22
 62
   250
420
  2301728
370
    20
100
AcDbVertex
100
AcDb2dVertex
 10
7.575650992502688
 20
5.191134337460526
 30
0.0
  0
VERTEX
  5
1B4
330
1B2
100
AcDbEntity
  8
Layer 1
  6
AI-Linetype-22
 62
   250
420
  2301728
370
    20
100
AcDbVertex
100
AcDb2dVertex
 10
7.763247420673072
 20
5.191134337460526
 30
0.0
  0
VERTEX
  5
1B5
330
1B2
100
AcDbEntity
  8
Layer 1
  6
AI-Linetype-22
 62
   250
420
  2301728
370
    20
100
AcDbVertex
100
AcDb2dVertex
 10
7.802417165005131
 20
5.180335058344856
 30
0.0
  0
VERTEX
  5
1B6
330
1B2
100
AcDbEntity
  8
Layer 1
  6
AI-Linetype-22
 62
   250
420
  2301728
370
    20
100
AcDbVertex
100
AcDb2dVertex
 10
7.760650940793361
 20
5.16797789130136
 30
0.0
  0
VERTEX
  5
1B7
330
1B2
100
AcDbEntity
  8
Layer 1
  6
AI-Linetype-22
 62
   250
420
  2301728
370
    20
100
AcDbVertex
100
AcDb2dVertex
 10
7.575650992502688
 20
5.16797789130136
 30
0.0
  0
VERTEX
  5
1B8
330
1B2
100
AcDbEntity
  8
Layer 1
  6
AI-Linetype-22
 62
   250
420
  2301728
370
    20
100
AcDbVertex
100
AcDb2dVertex
 10
7.575650992502688
 20
5.191134337460526
 30
0.0
  0
SEQEND
  5
1BB
330
1B2
100
AcDbEntity
  8
Layer 1
  6
AI-Linetype-22
 62
   250
420
  2301728
370
    20
  0
HATCH
  5
1BA
330
1F
100
AcDbEntity
  8
Layer 1
 62
   254
420
 16376262
100
AcDbHatch
 10
0.0
 20
0.0
 30
0.0
210
0.0
220
0.0
230
1.0
  2
SOLID
 70
     1
 71
     0
 91
        1
 92
        1
 93
        5
 72
     1
 10
7.575650992502688
 20
5.191134337460526
 11
7.763247420673072
 21
5.191134337460526
 72
     1
 10
7.763247420673072
 20
5.191134337460526
 11
7.802417165005131
 21
5.180335058344856
 72
     1
 10
7.802417165005131
 20
5.180335058344856
 11
7.760650940793361
 21
5.16797789130136
 72
     1
 10
7.760650940793361
 20
5.16797789130136
 11
7.575650992502688
 21
5.16797789130136
 72
     1
 10
7.575650992502688
 20
5.16797789130136
 11
7.575650992502688
 21
5.191134337460526
 97
        0
 75
     2
 76
     1
 98
        0
  0
POLYLINE
  5
1BC
330
1F
100
AcDbEntity
  8
Layer 1
  6
AI-Linetype-23
 62
   250
420
  2301728
370
    20
100
AcDb2dPolyline
 66
     1
 10
0.0
 20
0.0
 30
0.0
  0
VERTEX
  5
1BD
330
1BC
100
AcDbEntity
  8
Layer 1
  6
AI-Linetype-23
 62
   250
420
  2301728
370
    20
100
AcDbVertex
100
AcDb2dVertex
 10
7.575650992502688
 20
5.090397384485464
 30
0.0
  0
VERTEX
  5
1BE
330
1BC
100
AcDbEntity
  8
Layer 1
  6
AI-Linetype-23
 62
   250
420
  2301728
370
    20
100
AcDbVertex
100
AcDb2dVertex
 10
7.763247420673072
 20
5.090397384485464
 30
0.0
  0
VERTEX
  5
1BF
330
1BC
100
AcDbEntity
  8
Layer 1
  6
AI-Linetype-23
 62
   250
420
  2301728
370
    20
100
AcDbVertex
100
AcDb2dVertex
 10
7.802417165005131
 20
5.079596027913062
 30
0.0
  0
VERTEX
  5
1C0
330
1BC
100
AcDbEntity
  8
Layer 1
  6
AI-Linetype-23
 62
   250
420
  2301728
370
    20
100
AcDbVertex
100
AcDb2dVertex
 10
7.760650940793361
 20
5.067238626336651
 30
0.0
  0
VERTEX
  5
1C1
330
1BC
100
AcDbEntity
  8
Layer 1
  6
AI-Linetype-23
 62
   250
420
  2301728
370
    20
100
AcDbVertex
100
AcDb2dVertex
 10
7.575650992502688
 20
5.067238626336651
 30
0.0
  0
VERTEX
  5
1C2
330
1BC
100
AcDbEntity
  8
Layer 1
  6
AI-Linetype-23
 62
   250
420
  2301728
370
    20
100
AcDbVertex
100
AcDb2dVertex
 10
7.575650992502688
 20
5.090397384485464
 30
0.0
  0
SEQEND
  5
1C5
330
1BC
100
AcDbEntity
  8
Layer 1
  6
AI-Linetype-23
 62
   250
420
  2301728
370
    20
  0
HATCH
  5
1C4
330
1F
100
AcDbEntity
  8
Layer 1
 62
   254
420
 16376262
100
AcDbHatch
 10
0.0
 20
0.0
 30
0.0
210
0.0
220
0.0
230
1.0
  2
SOLID
 70
     1
 71
     0
 91
        1
 92
        1
 93
        5
 72
     1
 10
7.575650992502688
 20
5.090397384485464
 11
7.763247420673072
 21
5.090397384485464
 72
     1
 10
7.763247420673072
 20
5.090397384485464
 11
7.802417165005131
 21
5.079596027913062
 72
     1
 10
7.802417165005131
 20
5.079596027913062
 11
7.760650940793361
 21
5.067238626336651
 72
     1
 10
7.760650940793361
 20
5.067238626336651
 11
7.575650992502688
 21
5.067238626336651
 72
     1
 10
7.575650992502688
 20
5.067238626336651
 11
7.575650992502688
 21
5.090397384485464
 97
        0
 75
     2
 76
     1
 98
        0
  0
POLYLINE
  5
1C6
330
1F
100
AcDbEntity
  8
Layer 1
  6
AI-Linetype-24
 62
   250
420
  2301728
370
    20
100
AcDb2dPolyline
 66
     1
 10
0.0
 20
0.0
 30
0.0
  0
VERTEX
  5
1C7
330
1C6
100
AcDbEntity
  8
Layer 1
  6
AI-Linetype-24
 62
   250
420
  2301728
370
    20
100
AcDbVertex
100
AcDb2dVertex
 10
7.575650992502688
 20
4.890659299861631
 30
0.0
  0
VERTEX
  5
1C8
330
1C6
100
AcDbEntity
  8
Layer 1
  6
AI-Linetype-24
 62
   250
420
  2301728
370
    20
100
AcDbVertex
100
AcDb2dVertex
 10
7.763247420673072
 20
4.890659299861631
 30
0.0
  0
VERTEX
  5
1C9
330
1C6
100
AcDbEntity
  8
Layer 1
  6
AI-Linetype-24
 62
   250
420
  2301728
370
    20
100
AcDbVertex
100
AcDb2dVertex
 10
7.802417165005131
 20
4.879855866378193
 30
0.0
  0
VERTEX
  5
1CA
330
1C6
100
AcDbEntity
  8
Layer 1
  6
AI-Linetype-24
 62
   250
420
  2301728
370
    20
100
AcDbVertex
100
AcDb2dVertex
 10
7.760650940793361
 20
4.867500776518581
 30
0.0
  0
VERTEX
  5
1CB
330
1C6
100
AcDbEntity
  8
Layer 1
  6
AI-Linetype-24
 62
   250
420
  2301728
370
    20
100
AcDbVertex
100
AcDb2dVertex
 10
7.575650992502688
 20
4.867500776518581
 30
0.0
  0
VERTEX
  5
1CC
330
1C6
100
AcDbEntity
  8
Layer 1
  6
AI-Linetype-24
 62
   250
420
  2301728
370
    20
100
AcDbVertex
100
AcDb2dVertex
 10
7.575650992502688
 20
4.890659299861631
 30
0.0
  0
SEQEND
  5
1CF
330
1C6
100
AcDbEntity
  8
Layer 1
  6
AI-Linetype-24
 62
   250
420
  2301728
370
    20
  0
HATCH
  5
1CE
330
1F
100
AcDbEntity
  8
Layer 1
 62
   254
420
 16376262
100
AcDbHatch
 10
0.0
 20
0.0
 30
0.0
210
0.0
220
0.0
230
1.0
  2
SOLID
 70
     1
 71
     0
 91
        1
 92
        1
 93
        5
 72
     1
 10
7.575650992502688
 20
4.890659299861631
 11
7.763247420673072
 21
4.890659299861631
 72
     1
 10
7.763247420673072
 20
4.890659299861631
 11
7.802417165005131
 21
4.879855866378193
 72
     1
 10
7.802417165005131
 20
4.879855866378193
 11
7.760650940793361
 21
4.867500776518581
 72
     1
 10
7.760650940793361
 20
4.867500776518581
 11
7.575650992502688
 21
4.867500776518581
 72
     1
 10
7.575650992502688
 20
4.867500776518581
 11
7.575650992502688
 21
4.890659299861631
 97
        0
 75
     2
 76
     1
 98
        0
  0
POLYLINE
  5
1D0
330
1F
100
AcDbEntity
  8
Layer 1
  6
AI-Linetype-25
 62
   250
420
  2301728
370
    20
100
AcDb2dPolyline
 66
     1
 10
0.0
 20
0.0
 30
0.0
  0
VERTEX
  5
1D1
330
1D0
100
AcDbEntity
  8
Layer 1
  6
AI-Linetype-25
 62
   250
420
  2301728
370
    20
100
AcDbVertex
100
AcDb2dVertex
 10
7.575650992502688
 20
4.990239496208056
 30
0.0
  0
VERTEX
  5
1D2
330
1D0
100
AcDbEntity
  8
Layer 1
  6
AI-Linetype-25
 62
   250
420
  2301728
370
    20
100
AcDbVertex
100
AcDb2dVertex
 10
7.763247420673072
 20
4.990239496208056
 30
0.0
  0
VERTEX
  5
1D3
330
1D0
100
AcDbEntity
  8
Layer 1
  6
AI-Linetype-25
 62
   250
420
  2301728
370
    20
100
AcDbVertex
100
AcDb2dVertex
 10
7.802417165005131
 20
4.979436062724592
 30
0.0
  0
VERTEX
  5
1D4
330
1D0
100
AcDbEntity
  8
Layer 1
  6
AI-Linetype-25
 62
   250
420
  2301728
370
    20
100
AcDbVertex
100
AcDb2dVertex
 10
7.760650940793361
 20
4.967080972865006
 30
0.0
  0
VERTEX
  5
1D5
330
1D0
100
AcDbEntity
  8
Layer 1
  6
AI-Linetype-25
 62
   250
420
  2301728
370
    20
100
AcDbVertex
100
AcDb2dVertex
 10
7.575650992502688
 20
4.967080972865006
 30
0.0
  0
VERTEX
  5
1D6
330
1D0
100
AcDbEntity
  8
Layer 1
  6
AI-Linetype-25
 62
   250
420
  2301728
370
    20
100
AcDbVertex
100
AcDb2dVertex
 10
7.575650992502688
 20
4.990239496208056
 30
0.0
  0
SEQEND
  5
1D9
330
1D0
100
AcDbEntity
  8
Layer 1
  6
AI-Linetype-25
 62
   250
420
  2301728
370
    20
  0
HATCH
  5
1D8
330
1F
100
AcDbEntity
  8
Layer 1
 62
   254
420
 16376262
100
AcDbHatch
 10
0.0
 20
0.0
 30
0.0
210
0.0
220
0.0
230
1.0
  2
SOLID
 70
     1
 71
     0
 91
        1
 92
        1
 93
        5
 72
     1
 10
7.575650992502688
 20
4.990239496208056
 11
7.763247420673072
 21
4.990239496208056
 72
     1
 10
7.763247420673072
 20
4.990239496208056
 11
7.802417165005131
 21
4.979436062724592
 72
     1
 10
7.802417165005131
 20
4.979436062724592
 11
7.760650940793361
 21
4.967080972865006
 72
     1
 10
7.760650940793361
 20
4.967080972865006
 11
7.575650992502688
 21
4.967080972865006
 72
     1
 10
7.575650992502688
 20
4.967080972865006
 11
7.575650992502688
 21
4.990239496208056
 97
        0
 75
     2
 76
     1
 98
        0
  0
POLYLINE
  5
1DA
330
1F
100
AcDbEntity
  8
Layer 1
  6
AI-Linetype-26
 62
   250
420
  2301728
370
    20
100
AcDb2dPolyline
 66
     1
 10
0.0
 20
0.0
 30
0.0
  0
VERTEX
  5
1DB
330
1DA
100
AcDbEntity
  8
Layer 1
  6
AI-Linetype-26
 62
   250
420
  2301728
370
    20
100
AcDbVertex
100
AcDb2dVertex
 10
7.575650992502688
 20
5.590387778418946
 30
0.0
  0
VERTEX
  5
1DC
330
1DA
100
AcDbEntity
  8
Layer 1
  6
AI-Linetype-26
 62
   250
420
  2301728
370
    20
100
AcDbVertex
100
AcDb2dVertex
 10
7.763247420673072
 20
5.590387778418946
 30
0.0
  0
VERTEX
  5
1DD
330
1DA
100
AcDbEntity
  8
Layer 1
  6
AI-Linetype-26
 62
   250
420
  2301728
370
    20
100
AcDbVertex
100
AcDb2dVertex
 10
7.802417165005131
 20
5.579586422119367
 30
0.0
  0
VERTEX
  5
1DE
330
1DA
100
AcDbEntity
  8
Layer 1
  6
AI-Linetype-26
 62
   250
420
  2301728
370
    20
100
AcDbVertex
100
AcDb2dVertex
 10
7.760650940793361
 20
5.567229255075896
 30
0.0
  0
VERTEX
  5
1DF
330
1DA
100
AcDbEntity
  8
Layer 1
  6
AI-Linetype-26
 62
   250
420
  2301728
370
    20
100
AcDbVertex
100
AcDb2dVertex
 10
7.575650992502688
 20
5.567229255075896
 30
0.0
  0
VERTEX
  5
1E0
330
1DA
100
AcDbEntity
  8
Layer 1
  6
AI-Linetype-26
 62
   250
420
  2301728
370
    20
100
AcDbVertex
100
AcDb2dVertex
 10
7.575650992502688
 20
5.590387778418946
 30
0.0
  0
SEQEND
  5
1E3
330
1DA
100
AcDbEntity
  8
Layer 1
  6
AI-Linetype-26
 62
   250
420
  2301728
370
    20
  0
HATCH
  5
1E2
330
1F
100
AcDbEntity
  8
Layer 1
 62
   254
420
 16376262
100
AcDbHatch
 10
0.0
 20
0.0
 30
0.0
210
0.0
220
0.0
230
1.0
  2
SOLID
 70
     1
 71
     0
 91
        1
 92
        1
 93
        5
 72
     1
 10
7.575650992502688
 20
5.590387778418946
 11
7.763247420673072
 21
5.590387778418946
 72
     1
 10
7.763247420673072
 20
5.590387778418946
 11
7.802417165005131
 21
5.579586422119367
 72
     1
 10
7.802417165005131
 20
5.579586422119367
 11
7.760650940793361
 21
5.567229255075896
 72
     1
 10
7.760650940793361
 20
5.567229255075896
 11
7.575650992502688
 21
5.567229255075896
 72
     1
 10
7.575650992502688
 20
5.567229255075896
 11
7.575650992502688
 21
5.590387778418946
 97
        0
 75
     2
 76
     1
 98
        0
  0
POLYLINE
  5
1E4
330
1F
100
AcDbEntity
  8
Layer 1
  6
AI-Linetype-27
 62
   250
420
  2301728
370
    20
100
AcDb2dPolyline
 66
     1
 10
0.0
 20
0.0
 30
0.0
  0
VERTEX
  5
1E5
330
1E4
100
AcDbEntity
  8
Layer 1
  6
AI-Linetype-27
 62
   250
420
  2301728
370
    20
100
AcDbVertex
100
AcDb2dVertex
 10
7.575650992502688
 20
5.489648513454236
 30
0.0
  0
VERTEX
  5
1E6
330
1E4
100
AcDbEntity
  8
Layer 1
  6
AI-Linetype-27
 62
   250
420
  2301728
370
    20
100
AcDbVertex
100
AcDb2dVertex
 10
7.763247420673072
 20
5.489648513454236
 30
0.0
  0
VERTEX
  5
1E7
330
1E4
100
AcDbEntity
  8
Layer 1
  6
AI-Linetype-27
 62
   250
420
  2301728
370
    20
100
AcDbVertex
100
AcDb2dVertex
 10
7.802417165005131
 20
5.478847157154657
 30
0.0
  0
VERTEX
  5
1E8
330
1E4
100
AcDbEntity
  8
Layer 1
  6
AI-Linetype-27
 62
   250
420
  2301728
370
    20
100
AcDbVertex
100
AcDb2dVertex
 10
7.760650940793361
 20
5.466489990111161
 30
0.0
  0
VERTEX
  5
1E9
330
1E4
100
AcDbEntity
  8
Layer 1
  6
AI-Linetype-27
 62
   250
420
  2301728
370
    20
100
AcDbVertex
100
AcDb2dVertex
 10
7.575650992502688
 20
5.466489990111161
 30
0.0
  0
VERTEX
  5
1EA
330
1E4
100
AcDbEntity
  8
Layer 1
  6
AI-Linetype-27
 62
   250
420
  2301728
370
    20
100
AcDbVertex
100
AcDb2dVertex
 10
7.575650992502688
 20
5.489648513454236
 30
0.0
  0
SEQEND
  5
1ED
330
1E4
100
AcDbEntity
  8
Layer 1
  6
AI-Linetype-27
 62
   250
420
  2301728
370
    20
  0
HATCH
  5
1EC
330
1F
100
AcDbEntity
  8
Layer 1
 62
   254
420
 16376262
100
AcDbHatch
 10
0.0
 20
0.0
 30
0.0
210
0.0
220
0.0
230
1.0
  2
SOLID
 70
     1
 71
     0
 91
        1
 92
        1
 93
        5
 72
     1
 10
7.575650992502688
 20
5.489648513454236
 11
7.763247420673072
 21
5.489648513454236
 72
     1
 10
7.763247420673072
 20
5.489648513454236
 11
7.802417165005131
 21
5.478847157154657
 72
     1
 10
7.802417165005131
 20
5.478847157154657
 11
7.760650940793361
 21
5.466489990111161
 72
     1
 10
7.760650940793361
 20
5.466489990111161
 11
7.575650992502688
 21
5.466489990111161
 72
     1
 10
7.575650992502688
 20
5.466489990111161
 11
7.575650992502688
 21
5.489648513454236
 97
        0
 75
     2
 76
     1
 98
        0
  0
POLYLINE
  5
1EE
330
1F
100
AcDbEntity
  8
Layer 1
  6
AI-Linetype-28
 62
   250
420
  2301728
370
    20
100
AcDb2dPolyline
 66
     1
 10
0.0
 20
0.0
 30
0.0
  0
VERTEX
  5
1EF
330
1EE
100
AcDbEntity
  8
Layer 1
  6
AI-Linetype-28
 62
   250
420
  2301728
370
    20
100
AcDbVertex
100
AcDb2dVertex
 10
7.575650992502688
 20
5.289910903482096
 30
0.0
  0
VERTEX
  5
1F0
330
1EE
100
AcDbEntity
  8
Layer 1
  6
AI-Linetype-28
 62
   250
420
  2301728
370
    20
100
AcDbVertex
100
AcDb2dVertex
 10
7.763247420673072
 20
5.289910903482096
 30
0.0
  0
VERTEX
  5
1F1
330
1EE
100
AcDbEntity
  8
Layer 1
  6
AI-Linetype-28
 62
   250
420
  2301728
370
    20
100
AcDbVertex
100
AcDb2dVertex
 10
7.802417165005131
 20
5.279107230152704
 30
0.0
  0
VERTEX
  5
1F2
330
1EE
100
AcDbEntity
  8
Layer 1
  6
AI-Linetype-28
 62
   250
420
  2301728
370
    20
100
AcDbVertex
100
AcDb2dVertex
 10
7.760650940793361
 20
5.266752140293091
 30
0.0
  0
VERTEX
  5
1F3
330
1EE
100
AcDbEntity
  8
Layer 1
  6
AI-Linetype-28
 62
   250
420
  2301728
370
    20
100
AcDbVertex
100
AcDb2dVertex
 10
7.575650992502688
 20
5.266752140293091
 30
0.0
  0
VERTEX
  5
1F4
330
1EE
100
AcDbEntity
  8
Layer 1
  6
AI-Linetype-28
 62
   250
420
  2301728
370
    20
100
AcDbVertex
100
AcDb2dVertex
 10
7.575650992502688
 20
5.289910903482096
 30
0.0
  0
SEQEND
  5
1F7
330
1EE
100
AcDbEntity
  8
Layer 1
  6
AI-Linetype-28
 62
   250
420
  2301728
370
    20
  0
HATCH
  5
1F6
330
1F
100
AcDbEntity
  8
Layer 1
 62
   254
420
 16376262
100
AcDbHatch
 10
0.0
 20
0.0
 30
0.0
210
0.0
220
0.0
230
1.0
  2
SOLID
 70
     1
 71
     0
 91
        1
 92
        1
 93
        5
 72
     1
 10
7.575650992502688
 20
5.289910903482096
 11
7.763247420673072
 21
5.289910903482096
 72
     1
 10
7.763247420673072
 20
5.289910903482096
 11
7.802417165005131
 21
5.279107230152704
 72
     1
 10
7.802417165005131
 20
5.279107230152704
 11
7.760650940793361
 21
5.266752140293091
 72
     1
 10
7.760650940793361
 20
5.266752140293091
 11
7.575650992502688
 21
5.266752140293091
 72
     1
 10
7.575650992502688
 20
5.266752140293091
 11
7.575650992502688
 21
5.289910903482096
 97
        0
 75
     2
 76
     1
 98
        0
  0
POLYLINE
  5
1F8
330
1F
100
AcDbEntity
  8
Layer 1
  6
AI-Linetype-29
 62
   250
420
  2301728
370
    20
100
AcDb2dPolyline
 66
     1
 10
0.0
 20
0.0
 30
0.0
  0
VERTEX
  5
1F9
330
1F8
100
AcDbEntity
  8
Layer 1
  6
AI-Linetype-29
 62
   250
420
  2301728
370
    20
100
AcDbVertex
100
AcDb2dVertex
 10
7.575650992502688
 20
5.389491102344108
 30
0.0
  0
VERTEX
  5
1FA
330
1F8
100
AcDbEntity
  8
Layer 1
  6
AI-Linetype-29
 62
   250
420
  2301728
370
    20
100
AcDbVertex
100
AcDb2dVertex
 10
7.763247420673072
 20
5.389491102344108
 30
0.0
  0
VERTEX
  5
1FB
330
1F8
100
AcDbEntity
  8
Layer 1
  6
AI-Linetype-29
 62
   250
420
  2301728
370
    20
100
AcDbVertex
100
AcDb2dVertex
 10
7.802417165005131
 20
5.378687426499103
 30
0.0
  0
VERTEX
  5
1FC
330
1F8
100
AcDbEntity
  8
Layer 1
  6
AI-Linetype-29
 62
   250
420
  2301728
370
    20
100
AcDbVertex
100
AcDb2dVertex
 10
7.760650940793361
 20
5.366332336639516
 30
0.0
  0
VERTEX
  5
1FD
330
1F8
100
AcDbEntity
  8
Layer 1
  6
AI-Linetype-29
 62
   250
420
  2301728
370
    20
100
AcDbVertex
100
AcDb2dVertex
 10
7.575650992502688
 20
5.366332336639516
 30
0.0
  0
VERTEX
  5
1FE
330
1F8
100
AcDbEntity
  8
Layer 1
  6
AI-Linetype-29
 62
   250
420
  2301728
370
    20
100
AcDbVertex
100
AcDb2dVertex
 10
7.575650992502688
 20
5.389491102344108
 30
0.0
  0
SEQEND
  5
201
330
1F8
100
AcDbEntity
  8
Layer 1
  6
AI-Linetype-29
 62
   250
420
  2301728
370
    20
  0
HATCH
  5
200
330
1F
100
AcDbEntity
  8
Layer 1
 62
   254
420
 16376262
100
AcDbHatch
 10
0.0
 20
0.0
 30
0.0
210
0.0
220
0.0
230
1.0
  2
SOLID
 70
     1
 71
     0
 91
        1
 92
        1
 93
        5
 72
     1
 10
7.575650992502688
 20
5.389491102344108
 11
7.763247420673072
 21
5.389491102344108
 72
     1
 10
7.763247420673072
 20
5.389491102344108
 11
7.802417165005131
 21
5.378687426499103
 72
     1
 10
7.802417165005131
 20
5.378687426499103
 11
7.760650940793361
 21
5.366332336639516
 72
     1
 10
7.760650940793361
 20
5.366332336639516
 11
7.575650992502688
 21
5.366332336639516
 72
     1
 10
7.575650992502688
 20
5.366332336639516
 11
7.575650992502688
 21
5.389491102344108
 97
        0
 75
     2
 76
     1
 98
        0
  0
POLYLINE
  5
202
330
1F
100
AcDbEntity
  8
Layer 1
  6
AI-Linetype-30
 62
   250
420
  2301728
370
    20
100
AcDb2dPolyline
 66
     1
 10
0.0
 20
0.0
 30
0.0
  0
VERTEX
  5
203
330
202
100
AcDbEntity
  8
Layer 1
  6
AI-Linetype-30
 62
   250
420
  2301728
370
    20
100
AcDbVertex
100
AcDb2dVertex
 10
7.575650992502688
 20
5.689162027410677
 30
0.0
  0
VERTEX
  5
204
330
202
100
AcDbEntity
  8
Layer 1
  6
AI-Linetype-30
 62
   250
420
  2301728
370
    20
100
AcDbVertex
100
AcDb2dVertex
 10
7.763247420673072
 20
5.689162027410677
 30
0.0
  0
VERTEX
  5
205
330
202
100
AcDbEntity
  8
Layer 1
  6
AI-Linetype-30
 62
   250
420
  2301728
370
    20
100
AcDbVertex
100
AcDb2dVertex
 10
7.802417165005131
 20
5.678358593927214
 30
0.0
  0
VERTEX
  5
206
330
202
100
AcDbEntity
  8
Layer 1
  6
AI-Linetype-30
 62
   250
420
  2301728
370
    20
100
AcDbVertex
100
AcDb2dVertex
 10
7.760650940793361
 20
5.666003504067602
 30
0.0
  0
VERTEX
  5
207
330
202
100
AcDbEntity
  8
Layer 1
  6
AI-Linetype-30
 62
   250
420
  2301728
370
    20
100
AcDbVertex
100
AcDb2dVertex
 10
7.575650992502688
 20
5.666003504067602
 30
0.0
  0
VERTEX
  5
208
330
202
100
AcDbEntity
  8
Layer 1
  6
AI-Linetype-30
 62
   250
420
  2301728
370
    20
100
AcDbVertex
100
AcDb2dVertex
 10
7.575650992502688
 20
5.689162027410677
 30
0.0
  0
SEQEND
  5
20B
330
202
100
AcDbEntity
  8
Layer 1
  6
AI-Linetype-30
 62
   250
420
  2301728
370
    20
  0
HATCH
  5
20A
330
1F
100
AcDbEntity
  8
Layer 1
 62
   254
420
 16376262
100
AcDbHatch
 10
0.0
 20
0.0
 30
0.0
210
0.0
220
0.0
230
1.0
  2
SOLID
 70
     1
 71
     0
 91
        1
 92
        1
 93
        5
 72
     1
 10
7.575650992502688
 20
5.689162027410677
 11
7.763247420673072
 21
5.689162027410677
 72
     1
 10
7.763247420673072
 20
5.689162027410677
 11
7.802417165005131
 21
5.678358593927214
 72
     1
 10
7.802417165005131
 20
5.678358593927214
 11
7.760650940793361
 21
5.666003504067602
 72
     1
 10
7.760650940793361
 20
5.666003504067602
 11
7.575650992502688
 21
5.666003504067602
 72
     1
 10
7.575650992502688
 20
5.666003504067602
 11
7.575650992502688
 21
5.689162027410677
 97
        0
 75
     2
 76
     1
 98
        0
  0
POLYLINE
  5
20C
330
1F
100
AcDbEntity
  8
Layer 1
  6
AI-Linetype-31
 62
   250
420
  2301728
370
    20
100
AcDb2dPolyline
 66
     1
 10
0.0
 20
0.0
 30
0.0
  0
VERTEX
  5
20D
330
20C
100
AcDbEntity
  8
Layer 1
  6
AI-Linetype-31
 62
   250
420
  2301728
370
    20
100
AcDbVertex
100
AcDb2dVertex
 10
7.575650992502688
 20
5.788742223757102
 30
0.0
  0
VERTEX
  5
20E
330
20C
100
AcDbEntity
  8
Layer 1
  6
AI-Linetype-31
 62
   250
420
  2301728
370
    20
100
AcDbVertex
100
AcDb2dVertex
 10
7.763247420673072
 20
5.788742223757102
 30
0.0
  0
VERTEX
  5
20F
330
20C
100
AcDbEntity
  8
Layer 1
  6
AI-Linetype-31
 62
   250
420
  2301728
370
    20
100
AcDbVertex
100
AcDb2dVertex
 10
7.802417165005131
 20
5.777938790273613
 30
0.0
  0
VERTEX
  5
210
330
20C
100
AcDbEntity
  8
Layer 1
  6
AI-Linetype-31
 62
   250
420
  2301728
370
    20
100
AcDbVertex
100
AcDb2dVertex
 10
7.760650940793361
 20
5.765583700414027
 30
0.0
  0
VERTEX
  5
211
330
20C
100
AcDbEntity
  8
Layer 1
  6
AI-Linetype-31
 62
   250
420
  2301728
370
    20
100
AcDbVertex
100
AcDb2dVertex
 10
7.575650992502688
 20
5.765583700414027
 30
0.0
  0
VERTEX
  5
212
330
20C
100
AcDbEntity
  8
Layer 1
  6
AI-Linetype-31
 62
   250
420
  2301728
370
    20
100
AcDbVertex
100
AcDb2dVertex
 10
7.575650992502688
 20
5.788742223757102
 30
0.0
  0
SEQEND
  5
215
330
20C
100
AcDbEntity
  8
Layer 1
  6
AI-Linetype-31
 62
   250
420
  2301728
370
    20
  0
HATCH
  5
214
330
1F
100
AcDbEntity
  8
Layer 1
 62
   254
420
 16376262
100
AcDbHatch
 10
0.0
 20
0.0
 30
0.0
210
0.0
220
0.0
230
1.0
  2
SOLID
 70
     1
 71
     0
 91
        1
 92
        1
 93
        5
 72
     1
 10
7.575650992502688
 20
5.788742223757102
 11
7.763247420673072
 21
5.788742223757102
 72
     1
 10
7.763247420673072
 20
5.788742223757102
 11
7.802417165005131
 21
5.777938790273613
 72
     1
 10
7.802417165005131
 20
5.777938790273613
 11
7.760650940793361
 21
5.765583700414027
 72
     1
 10
7.760650940793361
 20
5.765583700414027
 11
7.575650992502688
 21
5.765583700414027
 72
     1
 10
7.575650992502688
 20
5.765583700414027
 11
7.575650992502688
 21
5.788742223757102
 97
        0
 75
     2
 76
     1
 98
        0
  0
POLYLINE
  5
216
330
1F
100
AcDbEntity
  8
Layer 1
  6
AI-Linetype-32
 62
   250
420
  2301728
370
    20
100
AcDb2dPolyline
 66
     1
 10
0.0
 20
0.0
 30
0.0
  0
VERTEX
  5
217
330
216
100
AcDbEntity
  8
Layer 1
  6
AI-Linetype-32
 62
   250
420
  2301728
370
    20
100
AcDbVertex
100
AcDb2dVertex
 10
7.575650992502688
 20
8.572110816411698
 30
0.0
  0
VERTEX
  5
218
330
216
100
AcDbEntity
  8
Layer 1
  6
AI-Linetype-32
 62
   250
420
  2301728
370
    20
100
AcDbVertex
100
AcDb2dVertex
 10
7.763247420673072
 20
8.572110816411698
 30
0.0
  0
VERTEX
  5
219
330
216
100
AcDbEntity
  8
Layer 1
  6
AI-Linetype-32
 62
   250
420
  2301728
370
    20
100
AcDbVertex
100
AcDb2dVertex
 10
7.802417165005131
 20
8.5613112145348
 30
0.0
  0
VERTEX
  5
21A
330
216
100
AcDbEntity
  8
Layer 1
  6
AI-Linetype-32
 62
   250
420
  2301728
370
    20
100
AcDbVertex
100
AcDb2dVertex
 10
7.760650940793361
 20
8.548954047491305
 30
0.0
  0
VERTEX
  5
21B
330
216
100
AcDbEntity
  8
Layer 1
  6
AI-Linetype-32
 62
   250
420
  2301728
370
    20
100
AcDbVertex
100
AcDb2dVertex
 10
7.575650992502688
 20
8.548954047491305
 30
0.0
  0
VERTEX
  5
21C
330
216
100
AcDbEntity
  8
Layer 1
  6
AI-Linetype-32
 62
   250
420
  2301728
370
    20
100
AcDbVertex
100
AcDb2dVertex
 10
7.575650992502688
 20
8.572110816411698
 30
0.0
  0
SEQEND
  5
21F
330
216
100
AcDbEntity
  8
Layer 1
  6
AI-Linetype-32
 62
   250
420
  2301728
370
    20
  0
HATCH
  5
21E
330
1F
100
AcDbEntity
  8
Layer 1
 62
   254
420
 16376262
100
AcDbHatch
 10
0.0
 20
0.0
 30
0.0
210
0.0
220
0.0
230
1.0
  2
SOLID
 70
     1
 71
     0
 91
        1
 92
        1
 93
        5
 72
     1
 10
7.575650992502688
 20
8.572110816411698
 11
7.763247420673072
 21
8.572110816411698
 72
     1
 10
7.763247420673072
 20
8.572110816411698
 11
7.802417165005131
 21
8.5613112145348
 72
     1
 10
7.802417165005131
 20
8.5613112145348
 11
7.760650940793361
 21
8.548954047491305
 72
     1
 10
7.760650940793361
 20
8.548954047491305
 11
7.575650992502688
 21
8.548954047491305
 72
     1
 10
7.575650992502688
 20
8.548954047491305
 11
7.575650992502688
 21
8.572110816411698
 97
        0
 75
     2
 76
     1
 98
        0
  0
POLYLINE
  5
220
330
1F
100
AcDbEntity
  8
Layer 1
  6
AI-Linetype-33
 62
   250
420
  2301728
370
    20
100
AcDb2dPolyline
 66
     1
 10
0.0
 20
0.0
 30
0.0
  0
VERTEX
  5
221
330
220
100
AcDbEntity
  8
Layer 1
  6
AI-Linetype-33
 62
   250
420
  2301728
370
    20
100
AcDbVertex
100
AcDb2dVertex
 10
7.575650992502688
 20
8.47137330586967
 30
0.0
  0
VERTEX
  5
222
330
220
100
AcDbEntity
  8
Layer 1
  6
AI-Linetype-33
 62
   250
420
  2301728
370
    20
100
AcDbVertex
100
AcDb2dVertex
 10
7.763247420673072
 20
8.47137330586967
 30
0.0
  0
VERTEX
  5
223
330
220
100
AcDbEntity
  8
Layer 1
  6
AI-Linetype-33
 62
   250
420
  2301728
370
    20
100
AcDbVertex
100
AcDb2dVertex
 10
7.802417165005131
 20
8.460571949570104
 30
0.0
  0
VERTEX
  5
224
330
220
100
AcDbEntity
  8
Layer 1
  6
AI-Linetype-33
 62
   250
420
  2301728
370
    20
100
AcDbVertex
100
AcDb2dVertex
 10
7.760650940793361
 20
8.448214782526609
 30
0.0
  0
VERTEX
  5
225
330
220
100
AcDbEntity
  8
Layer 1
  6
AI-Linetype-33
 62
   250
420
  2301728
370
    20
100
AcDbVertex
100
AcDb2dVertex
 10
7.575650992502688
 20
8.448214782526609
 30
0.0
  0
VERTEX
  5
226
330
220
100
AcDbEntity
  8
Layer 1
  6
AI-Linetype-33
 62
   250
420
  2301728
370
    20
100
AcDbVertex
100
AcDb2dVertex
 10
7.575650992502688
 20
8.47137330586967
 30
0.0
  0
SEQEND
  5
229
330
220
100
AcDbEntity
  8
Layer 1
  6
AI-Linetype-33
 62
   250
420
  2301728
370
    20
  0
HATCH
  5
228
330
1F
100
AcDbEntity
  8
Layer 1
 62
   254
420
 16376262
100
AcDbHatch
 10
0.0
 20
0.0
 30
0.0
210
0.0
220
0.0
230
1.0
  2
SOLID
 70
     1
 71
     0
 91
        1
 92
        1
 93
        5
 72
     1
 10
7.575650992502688
 20
8.47137330586967
 11
7.763247420673072
 21
8.47137330586967
 72
     1
 10
7.763247420673072
 20
8.47137330586967
 11
7.802417165005131
 21
8.460571949570104
 72
     1
 10
7.802417165005131
 20
8.460571949570104
 11
7.760650940793361
 21
8.448214782526609
 72
     1
 10
7.760650940793361
 20
8.448214782526609
 11
7.575650992502688
 21
8.448214782526609
 72
     1
 10
7.575650992502688
 20
8.448214782526609
 11
7.575650992502688
 21
8.47137330586967
 97
        0
 75
     2
 76
     1
 98
        0
  0
POLYLINE
  5
22A
330
1F
100
AcDbEntity
  8
Layer 1
  6
AI-Linetype-34
 62
   250
420
  2301728
370
    20
100
AcDb2dPolyline
 66
     1
 10
0.0
 20
0.0
 30
0.0
  0
VERTEX
  5
22B
330
22A
100
AcDbEntity
  8
Layer 1
  6
AI-Linetype-34
 62
   250
420
  2301728
370
    20
100
AcDbVertex
100
AcDb2dVertex
 10
7.575650992502688
 20
8.271635456051602
 30
0.0
  0
VERTEX
  5
22C
330
22A
100
AcDbEntity
  8
Layer 1
  6
AI-Linetype-34
 62
   250
420
  2301728
370
    20
100
AcDbVertex
100
AcDb2dVertex
 10
7.763247420673072
 20
8.271635456051602
 30
0.0
  0
VERTEX
  5
22D
330
22A
100
AcDbEntity
  8
Layer 1
  6
AI-Linetype-34
 62
   250
420
  2301728
370
    20
100
AcDbVertex
100
AcDb2dVertex
 10
7.802417165005131
 20
8.260832022568138
 30
0.0
  0
VERTEX
  5
22E
330
22A
100
AcDbEntity
  8
Layer 1
  6
AI-Linetype-34
 62
   250
420
  2301728
370
    20
100
AcDbVertex
100
AcDb2dVertex
 10
7.760650940793361
 20
8.24847693270855
 30
0.0
  0
VERTEX
  5
22F
330
22A
100
AcDbEntity
  8
Layer 1
  6
AI-Linetype-34
 62
   250
420
  2301728
370
    20
100
AcDbVertex
100
AcDb2dVertex
 10
7.575650992502688
 20
8.24847693270855
 30
0.0
  0
VERTEX
  5
230
330
22A
100
AcDbEntity
  8
Layer 1
  6
AI-Linetype-34
 62
   250
420
  2301728
370
    20
100
AcDbVertex
100
AcDb2dVertex
 10
7.575650992502688
 20
8.271635456051602
 30
0.0
  0
SEQEND
  5
233
330
22A
100
AcDbEntity
  8
Layer 1
  6
AI-Linetype-34
 62
   250
420
  2301728
370
    20
  0
HATCH
  5
232
330
1F
100
AcDbEntity
  8
Layer 1
 62
   254
420
 16376262
100
AcDbHatch
 10
0.0
 20
0.0
 30
0.0
210
0.0
220
0.0
230
1.0
  2
SOLID
 70
     1
 71
     0
 91
        1
 92
        1
 93
        5
 72
     1
 10
7.575650992502688
 20
8.271635456051602
 11
7.763247420673072
 21
8.271635456051602
 72
     1
 10
7.763247420673072
 20
8.271635456051602
 11
7.802417165005131
 21
8.260832022568138
 72
     1
 10
7.802417165005131
 20
8.260832022568138
 11
7.760650940793361
 21
8.24847693270855
 72
     1
 10
7.760650940793361
 20
8.24847693270855
 11
7.575650992502688
 21
8.24847693270855
 72
     1
 10
7.575650992502688
 20
8.24847693270855
 11
7.575650992502688
 21
8.271635456051602
 97
        0
 75
     2
 76
     1
 98
        0
  0
POLYLINE
  5
234
330
1F
100
AcDbEntity
  8
Layer 1
  6
AI-Linetype-35
 62
   250
420
  2301728
370
    20
100
AcDb2dPolyline
 66
     1
 10
0.0
 20
0.0
 30
0.0
  0
VERTEX
  5
235
330
234
100
AcDbEntity
  8
Layer 1
  6
AI-Linetype-35
 62
   250
420
  2301728
370
    20
100
AcDbVertex
100
AcDb2dVertex
 10
7.575650992502688
 20
8.371215652398
 30
0.0
  0
VERTEX
  5
236
330
234
100
AcDbEntity
  8
Layer 1
  6
AI-Linetype-35
 62
   250
420
  2301728
370
    20
100
AcDbVertex
100
AcDb2dVertex
 10
7.763247420673072
 20
8.371215652398
 30
0.0
  0
VERTEX
  5
237
330
234
100
AcDbEntity
  8
Layer 1
  6
AI-Linetype-35
 62
   250
420
  2301728
370
    20
100
AcDbVertex
100
AcDb2dVertex
 10
7.802417165005131
 20
8.360412218914536
 30
0.0
  0
VERTEX
  5
238
330
234
100
AcDbEntity
  8
Layer 1
  6
AI-Linetype-35
 62
   250
420
  2301728
370
    20
100
AcDbVertex
100
AcDb2dVertex
 10
7.760650940793361
 20
8.348057129054963
 30
0.0
  0
VERTEX
  5
239
330
234
100
AcDbEntity
  8
Layer 1
  6
AI-Linetype-35
 62
   250
420
  2301728
370
    20
100
AcDbVertex
100
AcDb2dVertex
 10
7.575650992502688
 20
8.348057129054963
 30
0.0
  0
VERTEX
  5
23A
330
234
100
AcDbEntity
  8
Layer 1
  6
AI-Linetype-35
 62
   250
420
  2301728
370
    20
100
AcDbVertex
100
AcDb2dVertex
 10
7.575650992502688
 20
8.371215652398
 30
0.0
  0
SEQEND
  5
23D
330
234
100
AcDbEntity
  8
Layer 1
  6
AI-Linetype-35
 62
   250
420
  2301728
370
    20
  0
HATCH
  5
23C
330
1F
100
AcDbEntity
  8
Layer 1
 62
   254
420
 16376262
100
AcDbHatch
 10
0.0
 20
0.0
 30
0.0
210
0.0
220
0.0
230
1.0
  2
SOLID
 70
     1
 71
     0
 91
        1
 92
        1
 93
        5
 72
     1
 10
7.575650992502688
 20
8.371215652398
 11
7.763247420673072
 21
8.371215652398
 72
     1
 10
7.763247420673072
 20
8.371215652398
 11
7.802417165005131
 21
8.360412218914536
 72
     1
 10
7.802417165005131
 20
8.360412218914536
 11
7.760650940793361
 21
8.348057129054963
 72
     1
 10
7.760650940793361
 20
8.348057129054963
 11
7.575650992502688
 21
8.348057129054963
 72
     1
 10
7.575650992502688
 20
8.348057129054963
 11
7.575650992502688
 21
8.371215652398
 97
        0
 75
     2
 76
     1
 98
        0
  0
POLYLINE
  5
23E
330
1F
100
AcDbEntity
  8
Layer 1
  6
AI-Linetype-36
 62
   250
420
  2301728
370
    20
100
AcDb2dPolyline
 66
     1
 10
0.0
 20
0.0
 30
0.0
  0
VERTEX
  5
23F
330
23E
100
AcDbEntity
  8
Layer 1
  6
AI-Linetype-36
 62
   250
420
  2301728
370
    20
100
AcDbVertex
100
AcDb2dVertex
 10
7.575650992502688
 20
8.971363934608878
 30
0.0
  0
VERTEX
  5
240
330
23E
100
AcDbEntity
  8
Layer 1
  6
AI-Linetype-36
 62
   250
420
  2301728
370
    20
100
AcDbVertex
100
AcDb2dVertex
 10
7.763247420673072
 20
8.971363934608878
 30
0.0
  0
VERTEX
  5
241
330
23E
100
AcDbEntity
  8
Layer 1
  6
AI-Linetype-36
 62
   250
420
  2301728
370
    20
100
AcDbVertex
100
AcDb2dVertex
 10
7.802417165005131
 20
8.960562578309323
 30
0.0
  0
VERTEX
  5
242
330
23E
100
AcDbEntity
  8
Layer 1
  6
AI-Linetype-36
 62
   250
420
  2301728
370
    20
100
AcDbVertex
100
AcDb2dVertex
 10
7.760650940793361
 20
8.948205743528028
 30
0.0
  0
VERTEX
  5
243
330
23E
100
AcDbEntity
  8
Layer 1
  6
AI-Linetype-36
 62
   250
420
  2301728
370
    20
100
AcDbVertex
100
AcDb2dVertex
 10
7.575650992502688
 20
8.948205743528028
 30
0.0
  0
VERTEX
  5
244
330
23E
100
AcDbEntity
  8
Layer 1
  6
AI-Linetype-36
 62
   250
420
  2301728
370
    20
100
AcDbVertex
100
AcDb2dVertex
 10
7.575650992502688
 20
8.971363934608878
 30
0.0
  0
SEQEND
  5
247
330
23E
100
AcDbEntity
  8
Layer 1
  6
AI-Linetype-36
 62
   250
420
  2301728
370
    20
  0
HATCH
  5
246
330
1F
100
AcDbEntity
  8
Layer 1
 62
   254
420
 16376262
100
AcDbHatch
 10
0.0
 20
0.0
 30
0.0
210
0.0
220
0.0
230
1.0
  2
SOLID
 70
     1
 71
     0
 91
        1
 92
        1
 93
        5
 72
     1
 10
7.575650992502688
 20
8.971363934608878
 11
7.763247420673072
 21
8.971363934608878
 72
     1
 10
7.763247420673072
 20
8.971363934608878
 11
7.802417165005131
 21
8.960562578309323
 72
     1
 10
7.802417165005131
 20
8.960562578309323
 11
7.760650940793361
 21
8.948205743528028
 72
     1
 10
7.760650940793361
 20
8.948205743528028
 11
7.575650992502688
 21
8.948205743528028
 72
     1
 10
7.575650992502688
 20
8.948205743528028
 11
7.575650992502688
 21
8.971363934608878
 97
        0
 75
     2
 76
     1
 98
        0
  0
POLYLINE
  5
248
330
1F
100
AcDbEntity
  8
Layer 1
  6
AI-Linetype-37
 62
   250
420
  2301728
370
    20
100
AcDb2dPolyline
 66
     1
 10
0.0
 20
0.0
 30
0.0
  0
VERTEX
  5
249
330
248
100
AcDbEntity
  8
Layer 1
  6
AI-Linetype-37
 62
   250
420
  2301728
370
    20
100
AcDbVertex
100
AcDb2dVertex
 10
7.575650992502688
 20
8.870624669644181
 30
0.0
  0
VERTEX
  5
24A
330
248
100
AcDbEntity
  8
Layer 1
  6
AI-Linetype-37
 62
   250
420
  2301728
370
    20
100
AcDbVertex
100
AcDb2dVertex
 10
7.763247420673072
 20
8.870624669644181
 30
0.0
  0
VERTEX
  5
24B
330
248
100
AcDbEntity
  8
Layer 1
  6
AI-Linetype-37
 62
   250
420
  2301728
370
    20
100
AcDbVertex
100
AcDb2dVertex
 10
7.802417165005131
 20
8.859823313344602
 30
0.0
  0
VERTEX
  5
24C
330
248
100
AcDbEntity
  8
Layer 1
  6
AI-Linetype-37
 62
   250
420
  2301728
370
    20
100
AcDbVertex
100
AcDb2dVertex
 10
7.760650940793361
 20
8.847466146301132
 30
0.0
  0
VERTEX
  5
24D
330
248
100
AcDbEntity
  8
Layer 1
  6
AI-Linetype-37
 62
   250
420
  2301728
370
    20
100
AcDbVertex
100
AcDb2dVertex
 10
7.575650992502688
 20
8.847466146301132
 30
0.0
  0
VERTEX
  5
24E
330
248
100
AcDbEntity
  8
Layer 1
  6
AI-Linetype-37
 62
   250
420
  2301728
370
    20
100
AcDbVertex
100
AcDb2dVertex
 10
7.575650992502688
 20
8.870624669644181
 30
0.0
  0
SEQEND
  5
251
330
248
100
AcDbEntity
  8
Layer 1
  6
AI-Linetype-37
 62
   250
420
  2301728
370
    20
  0
HATCH
  5
250
330
1F
100
AcDbEntity
  8
Layer 1
 62
   254
420
 16376262
100
AcDbHatch
 10
0.0
 20
0.0
 30
0.0
210
0.0
220
0.0
230
1.0
  2
SOLID
 70
     1
 71
     0
 91
        1
 92
        1
 93
        5
 72
     1
 10
7.575650992502688
 20
8.870624669644181
 11
7.763247420673072
 21
8.870624669644181
 72
     1
 10
7.763247420673072
 20
8.870624669644181
 11
7.802417165005131
 21
8.859823313344602
 72
     1
 10
7.802417165005131
 20
8.859823313344602
 11
7.760650940793361
 21
8.847466146301132
 72
     1
 10
7.760650940793361
 20
8.847466146301132
 11
7.575650992502688
 21
8.847466146301132
 72
     1
 10
7.575650992502688
 20
8.847466146301132
 11
7.575650992502688
 21
8.870624669644181
 97
        0
 75
     2
 76
     1
 98
        0
  0
POLYLINE
  5
252
330
1F
100
AcDbEntity
  8
Layer 1
  6
AI-Linetype-38
 62
   250
420
  2301728
370
    20
100
AcDb2dPolyline
 66
     1
 10
0.0
 20
0.0
 30
0.0
  0
VERTEX
  5
253
330
252
100
AcDbEntity
  8
Layer 1
  6
AI-Linetype-38
 62
   250
420
  2301728
370
    20
100
AcDbVertex
100
AcDb2dVertex
 10
7.575650992502688
 20
8.670886819826137
 30
0.0
  0
VERTEX
  5
254
330
252
100
AcDbEntity
  8
Layer 1
  6
AI-Linetype-38
 62
   250
420
  2301728
370
    20
100
AcDbVertex
100
AcDb2dVertex
 10
7.763247420673072
 20
8.670886819826137
 30
0.0
  0
VERTEX
  5
255
330
252
100
AcDbEntity
  8
Layer 1
  6
AI-Linetype-38
 62
   250
420
  2301728
370
    20
100
AcDbVertex
100
AcDb2dVertex
 10
7.802417165005131
 20
8.660083386342649
 30
0.0
  0
VERTEX
  5
256
330
252
100
AcDbEntity
  8
Layer 1
  6
AI-Linetype-38
 62
   250
420
  2301728
370
    20
100
AcDbVertex
100
AcDb2dVertex
 10
7.760650940793361
 20
8.647728296483061
 30
0.0
  0
VERTEX
  5
257
330
252
100
AcDbEntity
  8
Layer 1
  6
AI-Linetype-38
 62
   250
420
  2301728
370
    20
100
AcDbVertex
100
AcDb2dVertex
 10
7.575650992502688
 20
8.647728296483061
 30
0.0
  0
VERTEX
  5
258
330
252
100
AcDbEntity
  8
Layer 1
  6
AI-Linetype-38
 62
   250
420
  2301728
370
    20
100
AcDbVertex
100
AcDb2dVertex
 10
7.575650992502688
 20
8.670886819826137
 30
0.0
  0
SEQEND
  5
25B
330
252
100
AcDbEntity
  8
Layer 1
  6
AI-Linetype-38
 62
   250
420
  2301728
370
    20
  0
HATCH
  5
25A
330
1F
100
AcDbEntity
  8
Layer 1
 62
   254
420
 16376262
100
AcDbHatch
 10
0.0
 20
0.0
 30
0.0
210
0.0
220
0.0
230
1.0
  2
SOLID
 70
     1
 71
     0
 91
        1
 92
        1
 93
        5
 72
     1
 10
7.575650992502688
 20
8.670886819826137
 11
7.763247420673072
 21
8.670886819826137
 72
     1
 10
7.763247420673072
 20
8.670886819826137
 11
7.802417165005131
 21
8.660083386342649
 72
     1
 10
7.802417165005131
 20
8.660083386342649
 11
7.760650940793361
 21
8.647728296483061
 72
     1
 10
7.760650940793361
 20
8.647728296483061
 11
7.575650992502688
 21
8.647728296483061
 72
     1
 10
7.575650992502688
 20
8.647728296483061
 11
7.575650992502688
 21
8.670886819826137
 97
        0
 75
     2
 76
     1
 98
        0
  0
POLYLINE
  5
25C
330
1F
100
AcDbEntity
  8
Layer 1
  6
AI-Linetype-39
 62
   250
420
  2301728
370
    20
100
AcDb2dPolyline
 66
     1
 10
0.0
 20
0.0
 30
0.0
  0
VERTEX
  5
25D
330
25C
100
AcDbEntity
  8
Layer 1
  6
AI-Linetype-39
 62
   250
420
  2301728
370
    20
100
AcDbVertex
100
AcDb2dVertex
 10
7.575650992502688
 20
8.770467016172535
 30
0.0
  0
VERTEX
  5
25E
330
25C
100
AcDbEntity
  8
Layer 1
  6
AI-Linetype-39
 62
   250
420
  2301728
370
    20
100
AcDbVertex
100
AcDb2dVertex
 10
7.763247420673072
 20
8.770467016172535
 30
0.0
  0
VERTEX
  5
25F
330
25C
100
AcDbEntity
  8
Layer 1
  6
AI-Linetype-39
 62
   250
420
  2301728
370
    20
100
AcDbVertex
100
AcDb2dVertex
 10
7.802417165005131
 20
8.759663582689047
 30
0.0
  0
VERTEX
  5
260
330
25C
100
AcDbEntity
  8
Layer 1
  6
AI-Linetype-39
 62
   250
420
  2301728
370
    20
100
AcDbVertex
100
AcDb2dVertex
 10
7.760650940793361
 20
8.747308492829486
 30
0.0
  0
VERTEX
  5
261
330
25C
100
AcDbEntity
  8
Layer 1
  6
AI-Linetype-39
 62
   250
420
  2301728
370
    20
100
AcDbVertex
100
AcDb2dVertex
 10
7.575650992502688
 20
8.747308492829486
 30
0.0
  0
VERTEX
  5
262
330
25C
100
AcDbEntity
  8
Layer 1
  6
AI-Linetype-39
 62
   250
420
  2301728
370
    20
100
AcDbVertex
100
AcDb2dVertex
 10
7.575650992502688
 20
8.770467016172535
 30
0.0
  0
SEQEND
  5
265
330
25C
100
AcDbEntity
  8
Layer 1
  6
AI-Linetype-39
 62
   250
420
  2301728
370
    20
  0
HATCH
  5
264
330
1F
100
AcDbEntity
  8
Layer 1
 62
   254
420
 16376262
100
AcDbHatch
 10
0.0
 20
0.0
 30
0.0
210
0.0
220
0.0
230
1.0
  2
SOLID
 70
     1
 71
     0
 91
        1
 92
        1
 93
        5
 72
     1
 10
7.575650992502688
 20
8.770467016172535
 11
7.763247420673072
 21
8.770467016172535
 72
     1
 10
7.763247420673072
 20
8.770467016172535
 11
7.802417165005131
 21
8.759663582689047
 72
     1
 10
7.802417165005131
 20
8.759663582689047
 11
7.760650940793361
 21
8.747308492829486
 72
     1
 10
7.760650940793361
 20
8.747308492829486
 11
7.575650992502688
 21
8.747308492829486
 72
     1
 10
7.575650992502688
 20
8.747308492829486
 11
7.575650992502688
 21
8.770467016172535
 97
        0
 75
     2
 76
     1
 98
        0
  0
POLYLINE
  5
266
330
1F
100
AcDbEntity
  8
Layer 1
  6
AI-Linetype-40
 62
   250
420
  2301728
370
    20
100
AcDb2dPolyline
 66
     1
 10
0.0
 20
0.0
 30
0.0
  0
VERTEX
  5
267
330
266
100
AcDbEntity
  8
Layer 1
  6
AI-Linetype-40
 62
   250
420
  2301728
370
    20
100
AcDbVertex
100
AcDb2dVertex
 10
7.575650992502688
 20
9.070138183600635
 30
0.0
  0
VERTEX
  5
268
330
266
100
AcDbEntity
  8
Layer 1
  6
AI-Linetype-40
 62
   250
420
  2301728
370
    20
100
AcDbVertex
100
AcDb2dVertex
 10
7.763247420673072
 20
9.070138183600635
 30
0.0
  0
VERTEX
  5
269
330
266
100
AcDbEntity
  8
Layer 1
  6
AI-Linetype-40
 62
   250
420
  2301728
370
    20
100
AcDbVertex
100
AcDb2dVertex
 10
7.802417165005131
 20
9.05933508518673
 30
0.0
  0
VERTEX
  5
26A
330
266
100
AcDbEntity
  8
Layer 1
  6
AI-Linetype-40
 62
   250
420
  2301728
370
    20
100
AcDbVertex
100
AcDb2dVertex
 10
7.760650940793361
 20
9.046979660257584
 30
0.0
  0
VERTEX
  5
26B
330
266
100
AcDbEntity
  8
Layer 1
  6
AI-Linetype-40
 62
   250
420
  2301728
370
    20
100
AcDbVertex
100
AcDb2dVertex
 10
7.575650992502688
 20
9.046979660257584
 30
0.0
  0
VERTEX
  5
26C
330
266
100
AcDbEntity
  8
Layer 1
  6
AI-Linetype-40
 62
   250
420
  2301728
370
    20
100
AcDbVertex
100
AcDb2dVertex
 10
7.575650992502688
 20
9.070138183600635
 30
0.0
  0
SEQEND
  5
26F
330
266
100
AcDbEntity
  8
Layer 1
  6
AI-Linetype-40
 62
   250
420
  2301728
370
    20
  0
HATCH
  5
26E
330
1F
100
AcDbEntity
  8
Layer 1
 62
   254
420
 16376262
100
AcDbHatch
 10
0.0
 20
0.0
 30
0.0
210
0.0
220
0.0
230
1.0
  2
SOLID
 70
     1
 71
     0
 91
        1
 92
        1
 93
        5
 72
     1
 10
7.575650992502688
 20
9.070138183600635
 11
7.763247420673072
 21
9.070138183600635
 72
     1
 10
7.763247420673072
 20
9.070138183600635
 11
7.802417165005131
 21
9.05933508518673
 72
     1
 10
7.802417165005131
 20
9.05933508518673
 11
7.760650940793361
 21
9.046979660257584
 72
     1
 10
7.760650940793361
 20
9.046979660257584
 11
7.575650992502688
 21
9.046979660257584
 72
     1
 10
7.575650992502688
 20
9.046979660257584
 11
7.575650992502688
 21
9.070138183600635
 97
        0
 75
     2
 76
     1
 98
        0
  0
POLYLINE
  5
270
330
1F
100
AcDbEntity
  8
Layer 1
  6
AI-Linetype-41
 62
   250
420
  2301728
370
    20
100
AcDb2dPolyline
 66
     1
 10
0.0
 20
0.0
 30
0.0
  0
VERTEX
  5
271
330
270
100
AcDbEntity
  8
Layer 1
  6
AI-Linetype-41
 62
   250
420
  2301728
370
    20
100
AcDbVertex
100
AcDb2dVertex
 10
7.575650992502688
 20
9.169718379947046
 30
0.0
  0
VERTEX
  5
272
330
270
100
AcDbEntity
  8
Layer 1
  6
AI-Linetype-41
 62
   250
420
  2301728
370
    20
100
AcDbVertex
100
AcDb2dVertex
 10
7.763247420673072
 20
9.169718379947046
 30
0.0
  0
VERTEX
  5
273
330
270
100
AcDbEntity
  8
Layer 1
  6
AI-Linetype-41
 62
   250
420
  2301728
370
    20
100
AcDbVertex
100
AcDb2dVertex
 10
7.802417165005131
 20
9.158915284048728
 30
0.0
  0
VERTEX
  5
274
330
270
100
AcDbEntity
  8
Layer 1
  6
AI-Linetype-41
 62
   250
420
  2301728
370
    20
100
AcDbVertex
100
AcDb2dVertex
 10
7.760650940793361
 20
9.146559856603997
 30
0.0
  0
VERTEX
  5
275
330
270
100
AcDbEntity
  8
Layer 1
  6
AI-Linetype-41
 62
   250
420
  2301728
370
    20
100
AcDbVertex
100
AcDb2dVertex
 10
7.575650992502688
 20
9.146559856603997
 30
0.0
  0
VERTEX
  5
276
330
270
100
AcDbEntity
  8
Layer 1
  6
AI-Linetype-41
 62
   250
420
  2301728
370
    20
100
AcDbVertex
100
AcDb2dVertex
 10
7.575650992502688
 20
9.169718379947046
 30
0.0
  0
SEQEND
  5
279
330
270
100
AcDbEntity
  8
Layer 1
  6
AI-Linetype-41
 62
   250
420
  2301728
370
    20
  0
HATCH
  5
278
330
1F
100
AcDbEntity
  8
Layer 1
 62
   254
420
 16376262
100
AcDbHatch
 10
0.0
 20
0.0
 30
0.0
210
0.0
220
0.0
230
1.0
  2
SOLID
 70
     1
 71
     0
 91
        1
 92
        1
 93
        5
 72
     1
 10
7.575650992502688
 20
9.169718379947046
 11
7.763247420673072
 21
9.169718379947046
 72
     1
 10
7.763247420673072
 20
9.169718379947046
 11
7.802417165005131
 21
9.158915284048728
 72
     1
 10
7.802417165005131
 20
9.158915284048728
 11
7.760650940793361
 21
9.146559856603997
 72
     1
 10
7.760650940793361
 20
9.146559856603997
 11
7.575650992502688
 21
9.146559856603997
 72
     1
 10
7.575650992502688
 20
9.146559856603997
 11
7.575650992502688
 21
9.169718379947046
 97
        0
 75
     2
 76
     1
 98
        0
  0
INSERT
  5
27C
330
1F
100
AcDbEntity
  8
callouts
100
AcDbBlockReference
  2
block 7
 10
0.0
 20
0.0
 30
0.0
  0
MTEXT
  5
28A
330
1F
100
AcDbEntity
  8
callouts
 62
   250
420
  2301728
100
AcDbMText
 10
8.241712782118055
 20
8.591064453125
 30
0.0
 40
0.118
 41
0.0
 46
0.0
 71
     7
 72
     1
  1
\fHelvetica Neue LT Std 57 Condensed|b0|i0|c0|p34;\W1;Stud 
 73
     1
 44
1.0
  0
MTEXT
  5
28B
330
1F
100
AcDbEntity
  8
callouts
 62
   250
420
  2301728
100
AcDbMText
 10
6.272108289930555
 20
9.05855984157986
 30
0.0
 40
0.118
 41
0.0
 46
0.0
 71
     7
 72
     1
  1
\fHelvetica Neue LT Std 57 Condensed|b0|i0|c0|p34;\W1;HDU8-SDS2.5
 73
     1
 44
1.0
  0
MTEXT
  5
28C
330
1F
100
AcDbEntity
  8
callouts
 62
   250
420
  2301728
100
AcDbMText
 10
8.402086046006945
 20
8.141099717881945
 30
0.0
 40
0.118
 41
0.0
 46
0.0
 71
     7
 72
     1
  1
\fHelvetica Neue LT Std 57 Condensed|b0|i0|c0|p34;\W1;Mid Floor
 73
     1
 44
1.0
  0
MTEXT
  5
28D
330
1F
100
AcDbEntity
  8
callouts
 62
   250
420
  2301728
100
AcDbMText
 10
8.18173556857639
 20
7.080552842881944
 30
0.0
 40
0.118
 41
0.0
 46
0.0
 71
     7
 72
     1
  1
\fHelvetica LT Std Condensed|b0|i0|c0|p34;\W1;Floor
 73
     1
 44
1.0
  0
MTEXT
  5
28E
330
1F
100
AcDbEntity
  8
callouts
 62
   250
420
  2301728
100
AcDbMText
 10
8.190985785590277
 20
6.893527560763888
 30
0.0
 40
0.118
 41
0.0
 46
0.0
 71
     7
 72
     1
  1
\fHelvetica LT Std Condensed|b0|i0|c0|p34;\W1;Joist
 73
     1
 44
1.0
  0
INSERT
  5
290
330
1F
100
AcDbEntity
  8
callouts
100
AcDbBlockReference
  2
block 8
 10
0.0
 20
0.0
 30
0.0
  0
INSERT
  5
29F
330
1F
100
AcDbEntity
  8
callouts
100
AcDbBlockReference
  2
block 9
 10
0.0
 20
0.0
 30
0.0
  0
INSERT
  5
2AE
330
1F
100
AcDbEntity
  8
callouts
100
AcDbBlockReference
  2
block 10
 10
0.0
 20
0.0
 30
0.0
  0
INSERT
  5
2BD
330
1F
100
AcDbEntity
  8
callouts
100
AcDbBlockReference
  2
block 11
 10
0.0
 20
0.0
 30
0.0
  0
MTEXT
  5
2CB
330
1F
100
AcDbEntity
  8
callouts
 62
   250
420
  2301728
100
AcDbMText
 10
6.460747612847221
 20
8.152601453993055
 30
0.0
 40
0.118
 41
0.0
 46
0.0
 71
     7
 72
     1
  1
\fHelvetica Neue LT Std 57 Condensed|b0|i0|c0|p34;\W1;Threaded
 73
     1
 44
1.0
  0
MTEXT
  5
2CC
330
1F
100
AcDbEntity
  8
callouts
 62
   250
420
  2301728
100
AcDbMText
 10
6.627739800347221
 20
8.007195366753471
 30
0.0
 40
0.118
 41
0.0
 46
0.0
 71
     7
 72
     1
  1
\fHelvetica Neue LT Std 57 Condensed|b0|i0|c0|p34;\W1;Rod
 73
     1
 44
1.0
  0
MTEXT
  5
2CD
330
1F
100
AcDbEntity
  8
callouts
 62
   250
420
  2301728
100
AcDbMText
 10
8.326239691840277
 20
5.905069986979166
 30
0.0
 40
0.118
 41
0.0
 46
0.0
 71
     7
 72
     1
  1
\fHelvetica Neue LT Std 57 Condensed|b0|i0|c0|p34;\W1;Blocking
 73
     1
 44
1.0
  0
MTEXT
  5
2CE
330
1F
100
AcDbEntity
  8
callouts
 62
   250
420
  2301728
100
AcDbMText
 10
6.230504459804958
 20
4.301304711235894
 30
0.0
 40
0.118
 41
0.0
 46
0.0
 71
     7
 72
     1
  1
\fHelvetica Neue LT Std 55 Roman|b0|i0|c0|p34;\W1;SIMPSON Strong-Tie\H0.068794;®\H0.118; HDU8-SDS2.5 ^C
 73
     1
 44
1.0
  0
MTEXT
  5
2CF
330
1F
100
AcDbEntity
  8
callouts
 62
   250
420
  2301728
100
AcDbMText
 10
6.493376096089681
 20
4.101299285888672
 30
0.0
 40
0.118
 41
0.0
 46
0.0
 71
     7
 72
     1
  1
\fHelvetica Neue LT Std 55 Roman|b0|i0|c0|p34;\W1;Mid Floor Holdown Installation 
 73
     1
 44
1.0
  0
ENDSEC
  0
SECTION
  2
OBJECTS
  0
DICTIONARY
  5
C
330
0
100
AcDbDictionary
281
     1
  3
ACAD_GROUP
350
D
  3
ACAD_LAYOUT
350
1A
  3
ACAD_MATERIAL
350
3B
  3
ACAD_MLEADERSTYLE
350
2D1
  3
ACAD_MLINESTYLE
350
17
  3
ACAD_PLOTSETTINGS
350
19
  3
ACAD_PLOTSTYLENAME
350
E
  3
ACAD_TABLESTYLE
350
2D0
  3
ACAD_VISUALSTYLE
350
2A
  0
SUN
  5
3F
330
29
100
AcDbSun
 90
        1
290
     0
 63
     7
421
 16777215
 40
1.0
291
     1
 91
  2455826
 92
 54000000
292
     0
 70
     2
 71
   256
280
     1
  0
DICTIONARY
  5
D
102
{ACAD_REACTORS
330
C
102
}
330
C
100
AcDbDictionary
281
     1
  0
DICTIONARY
  5
1A
102
{ACAD_REACTORS
330
C
102
}
330
C
100
AcDbDictionary
281
     1
  3
Layout1
350
1E
  3
Layout2
350
26
  3
Model
350
22
  0
DICTIONARY
  5
3B
102
{ACAD_REACTORS
330
C
102
}
330
C
100
AcDbDictionary
281
     1
  3
ByBlock
350
3D
  3
ByLayer
350
3C
  3
Global
350
3E
  0
DICTIONARY
  5
2D1
102
{ACAD_REACTORS
330
C
102
}
330
C
100
AcDbDictionary
281
     1
  0
DICTIONARY
  5
17
102
{ACAD_REACTORS
330
C
102
}
330
C
100
AcDbDictionary
281
     1
  3
Standard
350
18
  0
DICTIONARY
  5
19
102
{ACAD_REACTORS
330
C
102
}
330
C
100
AcDbDictionary
281
     1
  0
ACDBDICTIONARYWDFLT
  5
E
102
{ACAD_REACTORS
330
C
102
}
330
C
100
AcDbDictionary
281
     1
  3
Normal
350
F
100
AcDbDictionaryWithDefault
340
F
  0
DICTIONARY
  5
2D0
102
{ACAD_REACTORS
330
C
102
}
330
C
100
AcDbDictionary
281
     1
  0
DICTIONARY
  5
2A
102
{ACAD_REACTORS
330
C
102
}
330
C
100
AcDbDictionary
281
     1
  3
2dWireframe
350
2F
  3
3D Hidden
350
31
  3
3dWireframe
350
30
  3
Basic
350
32
  3
Brighten
350
36
  3
ColorChange
350
3A
  3
Conceptual
350
34
  3
Dim
350
35
  3
Facepattern
350
39
  3
Flat
350
2B
  3
FlatWithEdges
350
2C
  3
Gouraud
350
2D
  3
GouraudWithEdges
350
2E
  3
Linepattern
350
38
  3
Realistic
350
33
  3
Thicken
350
37
  0
LAYOUT
  5
1E
102
{ACAD_REACTORS
330
1A
102
}
330
1A
100
AcDbPlotSettings
  1

  2
none_device
  4

  6

 40
0.0
 41
0.0
 42
0.0
 43
0.0
 44
0.0
 45
0.0
 46
0.0
 47
0.0
 48
0.0
 49
0.0
140
0.0
141
0.0
142
1.0
143
1.0
 70
   688
 72
     0
 73
     0
 74
     5
  7

 75
    16
 76
     0
 77
     2
 78
   300
147
1.0
148
0.0
149
0.0
100
AcDbLayout
  1
Layout1
 70
     1
 71
     1
 10
0.0
 20
0.0
 11
12.0
 21
9.0
 12
0.0
 22
0.0
 32
0.0
 14
1.000000000000000E+20
 24
1.000000000000000E+20
 34
1.000000000000000E+20
 15
-1.000000000000000E+20
 25
-1.000000000000000E+20
 35
-1.000000000000000E+20
146
0.0
 13
0.0
 23
0.0
 33
0.0
 16
1.0
 26
0.0
 36
0.0
 17
0.0
 27
1.0
 37
0.0
 76
     0
330
1B
  0
LAYOUT
  5
26
102
{ACAD_REACTORS
330
1A
102
}
330
1A
100
AcDbPlotSettings
  1

  2
none_device
  4

  6

 40
0.0
 41
0.0
 42
0.0
 43
0.0
 44
0.0
 45
0.0
 46
0.0
 47
0.0
 48
0.0
 49
0.0
140
0.0
141
0.0
142
1.0
143
1.0
 70
   688
 72
     0
 73
     0
 74
     5
  7

 75
    16
 76
     0
 77
     2
 78
   300
147
1.0
148
0.0
149
0.0
100
AcDbLayout
  1
Layout2
 70
     1
 71
     2
 10
0.0
 20
0.0
 11
0.0
 21
0.0
 12
0.0
 22
0.0
 32
0.0
 14
0.0
 24
0.0
 34
0.0
 15
0.0
 25
0.0
 35
0.0
146
0.0
 13
0.0
 23
0.0
 33
0.0
 16
1.0
 26
0.0
 36
0.0
 17
0.0
 27
1.0
 37
0.0
 76
     0
330
23
  0
LAYOUT
  5
22
102
{ACAD_REACTORS
330
1A
102
}
330
1A
100
AcDbPlotSettings
  1

  2
none_device
  4

  6

 40
0.0
 41
0.0
 42
0.0
 43
0.0
 44
0.0
 45
0.0
 46
0.0
 47
0.0
 48
0.0
 49
0.0
140
0.0
141
0.0
142
1.0
143
1.0
 70
  1712
 72
     0
 73
     0
 74
     0
  7

 75
     0
 76
     0
 77
     2
 78
   300
147
1.0
148
0.0
149
0.0
100
AcDbLayout
  1
Model
 70
     1
 71
     0
 10
0.0
 20
0.0
 11
12.0
 21
9.0
 12
0.0
 22
0.0
 32
0.0
 14
1.000000000000000E+20
 24
1.000000000000000E+20
 34
1.000000000000000E+20
 15
-1.000000000000000E+20
 25
-1.000000000000000E+20
 35
-1.000000000000000E+20
146
0.0
 13
0.0
 23
0.0
 33
0.0
 16
1.0
 26
0.0
 36
0.0
 17
0.0
 27
1.0
 37
0.0
 76
     0
330
1F
331
29
  0
MATERIAL
  5
3D
102
{ACAD_REACTORS
330
3B
102
}
330
3B
100
AcDbMaterial
  1
ByBlock
 72
     1
 94
      127
  0
MATERIAL
  5
3C
102
{ACAD_REACTORS
330
3B
102
}
330
3B
100
AcDbMaterial
  1
ByLayer
 72
     1
 94
      127
  0
MATERIAL
  5
3E
102
{ACAD_REACTORS
330
3B
102
}
330
3B
100
AcDbMaterial
  1
Global
 72
     1
 94
      127
  0
MLINESTYLE
  5
18
102
{ACAD_REACTORS
330
17
102
}
330
17
100
AcDbMlineStyle
  2
Standard
 70
     0
  3

 62
   256
 51
90.0
 52
90.0
 71
     2
 49
0.5
 62
   256
  6
BYLAYER
 49
-0.5
 62
   256
  6
BYLAYER
  0
ACDBPLACEHOLDER
  5
F
102
{ACAD_REACTORS
330
E
102
}
330
E
  0
VISUALSTYLE
  5
2F
102
{ACAD_REACTORS
330
2A
102
}
330
2A
100
AcDbVisualStyle
  2
2dWireframe
 70
     4
177
     2
291
     0
 71
     0
176
     1
 72
     2
176
     1
 73
     0
176
     1
 90
        0
176
     1
 40
-0.6
176
     1
 41
-30.0
176
     1
 62
     5
 63
     7
421
 16777215
176
     1
 74
     1
176
     1
 91
        4
176
     1
 64
     7
176
     1
 65
   257
176
     1
 75
     1
176
     1
175
     1
176
     1
 42
1.0
176
     1
 92
        0
176
     1
 66
   257
176
     1
 43
1.0
176
     1
 76
     1
176
     1
 77
     6
176
     1
 78
     2
176
     1
 67
     7
176
     1
 79
     5
176
     1
170
     0
176
     1
171
     0
176
     1
290
     0
176
     1
 93
        1
176
     1
 44
0.0
176
     1
173
     0
176
     1
  0
VISUALSTYLE
  5
31
102
{ACAD_REACTORS
330
2A
102
}
330
2A
100
AcDbVisualStyle
  2
3D Hidden
 70
     6
177
     2
291
     0
 71
     1
176
     1
 72
     2
176
     1
 73
     2
176
     1
 90
        0
176
     1
 40
-0.6
176
     1
 41
-30.0
176
     1
 62
     5
 63
     7
421
 16777215
176
     1
 74
     2
176
     1
 91
        2
176
     1
 64
     7
176
     1
 65
   257
176
     1
 75
     2
176
     1
175
     1
176
     1
 42
40.0
176
     1
 92
        0
176
     1
 66
   257
176
     1
 43
1.0
176
     1
 76
     1
176
     1
 77
     6
176
     1
 78
     2
176
     1
 67
     7
176
     1
 79
     3
176
     1
170
     0
176
     1
171
     0
176
     1
290
     0
176
     1
 93
        1
176
     1
 44
0.0
176
     1
173
     0
176
     1
  0
VISUALSTYLE
  5
30
102
{ACAD_REACTORS
330
2A
102
}
330
2A
100
AcDbVisualStyle
  2
3dWireframe
 70
     5
177
     2
291
     0
 71
     0
176
     1
 72
     2
176
     1
 73
     0
176
     1
 90
        0
176
     1
 40
-0.6
176
     1
 41
-30.0
176
     1
 62
     5
 63
     7
421
 16777215
176
     1
 74
     1
176
     1
 91
        4
176
     1
 64
     7
176
     1
 65
   257
176
     1
 75
     1
176
     1
175
     1
176
     1
 42
1.0
176
     1
 92
        0
176
     1
 66
   257
176
     1
 43
1.0
176
     1
 76
     1
176
     1
 77
     6
176
     1
 78
     2
176
     1
 67
     7
176
     1
 79
     5
176
     1
170
     0
176
     1
171
     0
176
     1
290
     0
176
     1
 93
        1
176
     1
 44
0.0
176
     1
173
     0
176
     1
  0
VISUALSTYLE
  5
32
102
{ACAD_REACTORS
330
2A
102
}
330
2A
100
AcDbVisualStyle
  2
Basic
 70
     7
177
     2
291
     1
 71
     1
176
     1
 72
     0
176
     1
 73
     1
176
     1
 90
        0
176
     1
 40
-0.6
176
     1
 41
-30.0
176
     1
 62
     5
 63
     7
421
 16777215
176
     1
 74
     0
176
     1
 91
        4
176
     1
 64
     7
176
     1
 65
   257
176
     1
 75
     1
176
     1
175
     1
176
     1
 42
1.0
176
     1
 92
        8
176
     1
 66
     7
176
     1
 43
1.0
176
     1
 76
     1
176
     1
 77
     6
176
     1
 78
     2
176
     1
 67
     7
176
     1
 79
     5
176
     1
170
     0
176
     1
171
     0
176
     1
290
     0
176
     1
 93
        1
176
     1
 44
0.0
176
     1
173
     0
176
     1
  0
VISUALSTYLE
  5
36
102
{ACAD_REACTORS
330
2A
102
}
330
2A
100
AcDbVisualStyle
  2
Brighten
 70
    12
177
     2
291
     1
 71
     2
176
     1
 72
     2
176
     1
 73
     0
176
     1
 90
        0
176
     1
 40
-0.6
176
     1
 41
-30.0
176
     1
 62
     5
 63
     7
421
 16777215
176
     1
 74
     1
176
     1
 91
        4
176
     1
 64
     7
176
     1
 65
   257
176
     1
 75
     1
176
     1
175
     1
176
     1
 42
1.0
176
     1
 92
        8
176
     1
 66
     7
176
     1
 43
1.0
176
     1
 76
     1
176
     1
 77
     6
176
     1
 78
     2
176
     1
 67
     7
176
     1
 79
     5
176
     1
170
     0
176
     1
171
     0
176
     1
290
     0
176
     1
 93
        1
176
     1
 44
50.0
176
     1
173
     0
176
     1
  0
VISUALSTYLE
  5
3A
102
{ACAD_REACTORS
330
2A
102
}
330
2A
100
AcDbVisualStyle
  2
ColorChange
 70
    16
177
     2
291
     1
 71
     2
176
     1
 72
     2
176
     1
 73
     3
176
     1
 90
        0
176
     1
 40
-0.6
176
     1
 41
-30.0
176
     1
 62
     5
 63
     8
421
  8421504
176
     1
 74
     1
176
     1
 91
        4
176
     1
 64
     7
176
     1
 65
   257
176
     1
 75
     1
176
     1
175
     1
176
     1
 42
1.0
176
     1
 92
        8
176
     1
 66
     8
424
  8421504
176
     1
 43
1.0
176
     1
 76
     1
176
     1
 77
     6
176
     1
 78
     2
176
     1
 67
     7
176
     1
 79
     5
176
     1
170
     0
176
     1
171
     0
176
     1
290
     0
176
     1
 93
        1
176
     1
 44
0.0
176
     1
173
     0
176
     1
  0
VISUALSTYLE
  5
34
102
{ACAD_REACTORS
330
2A
102
}
330
2A
100
AcDbVisualStyle
  2
Conceptual
 70
     9
177
     2
291
     0
 71
     3
176
     1
 72
     2
176
     1
 73
     0
176
     1
 90
        0
176
     1
 40
-0.6
176
     1
 41
-30.0
176
     1
 62
     5
 63
     7
421
 16777215
176
     1
 74
     2
176
     1
 91
        2
176
     1
 64
     7
176
     1
 65
   257
176
     1
 75
     1
176
     1
175
     1
176
     1
 42
40.0
176
     1
 92
        8
176
     1
 66
     7
176
     1
 43
1.0
176
     1
 76
     1
176
     1
 77
     6
176
     1
 78
     2
176
     1
 67
     7
176
     1
 79
     3
176
     1
170
     0
176
     1
171
     0
176
     1
290
     0
176
     1
 93
        1
176
     1
 44
0.0
176
     1
173
     0
176
     1
  0
VISUALSTYLE
  5
35
102
{ACAD_REACTORS
330
2A
102
}
330
2A
100
AcDbVisualStyle
  2
Dim
 70
    11
177
     2
291
     1
 71
     2
176
     1
 72
     2
176
     1
 73
     0
176
     1
 90
        0
176
     1
 40
-0.6
176
     1
 41
-30.0
176
     1
 62
     5
 63
     7
421
 16777215
176
     1
 74
     1
176
     1
 91
        4
176
     1
 64
     7
176
     1
 65
   257
176
     1
 75
     1
176
     1
175
     1
176
     1
 42
1.0
176
     1
 92
        8
176
     1
 66
     7
176
     1
 43
1.0
176
     1
 76
     1
176
     1
 77
     6
176
     1
 78
     2
176
     1
 67
     7
176
     1
 79
     5
176
     1
170
     0
176
     1
171
     0
176
     1
290
     0
176
     1
 93
        1
176
     1
 44
-50.0
176
     1
173
     0
176
     1
  0
VISUALSTYLE
  5
39
102
{ACAD_REACTORS
330
2A
102
}
330
2A
100
AcDbVisualStyle
  2
Facepattern
 70
    15
177
     2
291
     1
 71
     2
176
     1
 72
     2
176
     1
 73
     0
176
     1
 90
        0
176
     1
 40
-0.6
176
     1
 41
-30.0
176
     1
 62
     5
 63
     7
421
 16777215
176
     1
 74
     1
176
     1
 91
        4
176
     1
 64
     7
176
     1
 65
   257
176
     1
 75
     1
176
     1
175
     1
176
     1
 42
1.0
176
     1
 92
        8
176
     1
 66
     7
176
     1
 43
1.0
176
     1
 76
     1
176
     1
 77
     6
176
     1
 78
     2
176
     1
 67
     7
176
     1
 79
     5
176
     1
170
     0
176
     1
171
     0
176
     1
290
     0
176
     1
 93
        1
176
     1
 44
0.0
176
     1
173
     0
176
     1
  0
VISUALSTYLE
  5
2B
102
{ACAD_REACTORS
330
2A
102
}
330
2A
100
AcDbVisualStyle
  2
Flat
 70
     0
177
     2
291
     1
 71
     2
176
     1
 72
     1
176
     1
 73
     1
176
     1
 90
        2
176
     1
 40
-0.6
176
     1
 41
30.0
176
     1
 62
     5
 63
     7
421
 16777215
176
     1
 74
     0
176
     1
 91
        4
176
     1
 64
     7
176
     1
 65
   257
176
     1
 75
     1
176
     1
175
     1
176
     1
 42
1.0
176
     1
 92
        8
176
     1
 66
     7
176
     1
 43
1.0
176
     1
 76
     1
176
     1
 77
     6
176
     1
 78
     2
176
     1
 67
     7
176
     1
 79
     5
176
     1
170
     0
176
     1
171
     0
176
     1
290
     0
176
     1
 93
       13
176
     1
 44
0.0
176
     1
173
     0
176
     1
  0
VISUALSTYLE
  5
2C
102
{ACAD_REACTORS
330
2A
102
}
330
2A
100
AcDbVisualStyle
  2
FlatWithEdges
 70
     1
177
     2
291
     1
 71
     2
176
     1
 72
     1
176
     1
 73
     1
176
     1
 90
        2
176
     1
 40
-0.6
176
     1
 41
30.0
176
     1
 62
     5
 63
     7
421
 16777215
176
     1
 74
     1
176
     1
 91
        4
176
     1
 64
     7
176
     1
 65
   257
176
     1
 75
     1
176
     1
175
     1
176
     1
 42
1.0
176
     1
 92
        0
176
     1
 66
   257
176
     1
 43
1.0
176
     1
 76
     1
176
     1
 77
     6
176
     1
 78
     2
176
     1
 67
     7
176
     1
 79
     5
176
     1
170
     0
176
     1
171
     0
176
     1
290
     0
176
     1
 93
       13
176
     1
 44
0.0
176
     1
173
     0
176
     1
  0
VISUALSTYLE
  5
2D
102
{ACAD_REACTORS
330
2A
102
}
330
2A
100
AcDbVisualStyle
  2
Gouraud
 70
     2
177
     2
291
     1
 71
     2
176
     1
 72
     2
176
     1
 73
     1
176
     1
 90
        2
176
     1
 40
-0.6
176
     1
 41
30.0
176
     1
 62
     5
 63
     7
421
 16777215
176
     1
 74
     0
176
     1
 91
        4
176
     1
 64
     7
176
     1
 65
   257
176
     1
 75
     1
176
     1
175
     1
176
     1
 42
1.0
176
     1
 92
        0
176
     1
 66
     7
176
     1
 43
1.0
176
     1
 76
     1
176
     1
 77
     6
176
     1
 78
     2
176
     1
 67
     7
176
     1
 79
     5
176
     1
170
     0
176
     1
171
     0
176
     1
290
     0
176
     1
 93
       13
176
     1
 44
0.0
176
     1
173
     0
176
     1
  0
VISUALSTYLE
  5
2E
102
{ACAD_REACTORS
330
2A
102
}
330
2A
100
AcDbVisualStyle
  2
GouraudWithEdges
 70
     3
177
     2
291
     1
 71
     2
176
     1
 72
     2
176
     1
 73
     1
176
     1
 90
        2
176
     1
 40
-0.6
176
     1
 41
30.0
176
     1
 62
     5
 63
     7
421
 16777215
176
     1
 74
     1
176
     1
 91
        4
176
     1
 64
     7
176
     1
 65
   257
176
     1
 75
     1
176
     1
175
     1
176
     1
 42
1.0
176
     1
 92
        0
176
     1
 66
   257
176
     1
 43
1.0
176
     1
 76
     1
176
     1
 77
     6
176
     1
 78
     2
176
     1
 67
     7
176
     1
 79
     5
176
     1
170
     0
176
     1
171
     0
176
     1
290
     0
176
     1
 93
       13
176
     1
 44
0.0
176
     1
173
     0
176
     1
  0
VISUALSTYLE
  5
38
102
{ACAD_REACTORS
330
2A
102
}
330
2A
100
AcDbVisualStyle
  2
Linepattern
 70
    14
177
     2
291
     1
 71
     2
176
     1
 72
     2
176
     1
 73
     0
176
     1
 90
        0
176
     1
 40
-0.6
176
     1
 41
-30.0
176
     1
 62
     5
 63
     7
421
 16777215
176
     1
 74
     1
176
     1
 91
        4
176
     1
 64
     7
176
     1
 65
   257
176
     1
 75
     7
176
     1
175
     7
176
     1
 42
1.0
176
     1
 92
        8
176
     1
 66
     7
176
     1
 43
1.0
176
     1
 76
     1
176
     1
 77
     6
176
     1
 78
     2
176
     1
 67
     7
176
     1
 79
     5
176
     1
170
     0
176
     1
171
     0
176
     1
290
     0
176
     1
 93
        1
176
     1
 44
0.0
176
     1
173
     0
176
     1
  0
VISUALSTYLE
  5
33
102
{ACAD_REACTORS
330
2A
102
}
330
2A
100
AcDbVisualStyle
  2
Realistic
 70
     8
177
     2
291
     0
 71
     2
176
     1
 72
     2
176
     1
 73
     0
176
     1
 90
        0
176
     1
 40
-0.6
176
     1
 41
-30.0
176
     1
 62
     5
 63
     7
421
 16777215
176
     1
 74
     1
176
     1
 91
        0
176
     1
 64
     7
176
     1
 65
   257
176
     1
 75
     1
176
     1
175
     1
176
     1
 42
1.0
176
     1
 92
        8
176
     1
 66
     8
424
  7895160
176
     1
 43
1.0
176
     1
 76
     1
176
     1
 77
     6
176
     1
 78
     2
176
     1
 67
     7
176
     1
 79
     5
176
     1
170
     0
176
     1
171
     0
176
     1
290
     0
176
     1
 93
       13
176
     1
 44
0.0
176
     1
173
     0
176
     1
  0
VISUALSTYLE
  5
37
102
{ACAD_REACTORS
330
2A
102
}
330
2A
100
AcDbVisualStyle
  2
Thicken
 70
    13
177
     2
291
     1
 71
     2
176
     1
 72
     2
176
     1
 73
     0
176
     1
 90
        0
176
     1
 40
-0.6
176
     1
 41
-30.0
176
     1
 62
     5
 63
     7
421
 16777215
176
     1
 74
     1
176
     1
 91
        4
176
     1
 64
     7
176
     1
 65
   257
176
     1
 75
     1
176
     1
175
     1
176
     1
 42
1.0
176
     1
 92
       12
176
     1
 66
     7
176
     1
 43
1.0
176
     1
 76
     1
176
     1
 77
     6
176
     1
 78
     2
176
     1
 67
     7
176
     1
 79
     5
176
     1
170
     0
176
     1
171
     0
176
     1
290
     0
176
     1
 93
        1
176
     1
 44
0.0
176
     1
173
     0
176
     1
  0
ENDSEC
  0
EOF
