  0
SECTION
  2
HEADER
  9
$ACADVER
  1
AC1024
  9
$ACADMAINTVER
 70
     6
  9
$DWGCODEPAGE
  3
ANSI_1252
  9
$INSBASE
 10
0.0
 20
0.0
 30
0.0
  9
$EXTMIN
 10
1.000000000000000E+20
 20
1.000000000000000E+20
 30
1.000000000000000E+20
  9
$EXTMAX
 10
-1.000000000000000E+20
 20
-1.000000000000000E+20
 30
-1.000000000000000E+20
  9
$LIMMIN
 10
0.0
 20
0.0
  9
$LIMMAX
 10
12.0
 20
9.0
  9
$ORTHOMODE
 70
     0
  9
$REGENMODE
 70
     1
  9
$FILLMODE
 70
     1
  9
$QTEXTMODE
 70
     0
  9
$MIRRTEXT
 70
     1
  9
$LTSCALE
 40
1.0
  9
$ATTMODE
 70
     1
  9
$TEXTSIZE
 40
0.2
  9
$TRACEWID
 40
0.05
  9
$TEXTSTYLE
  7
Standard
  9
$CLAYER
  8
0
  9
$CELTYPE
  6
ByLayer
  9
$CECOLOR
 62
   256
  9
$CELTSCALE
 40
1.0
  9
$DISPSILH
 70
     0
  9
$DIMSCALE
 40
1.0
  9
$DIMASZ
 40
0.18
  9
$DIMEXO
 40
0.0625
  9
$DIMDLI
 40
0.38
  9
$DIMRND
 40
0.0
  9
$DIMDLE
 40
0.0
  9
$DIMEXE
 40
0.18
  9
$DIMTP
 40
0.0
  9
$DIMTM
 40
0.0
  9
$DIMTXT
 40
0.18
  9
$DIMCEN
 40
0.09
  9
$DIMTSZ
 40
0.0
  9
$DIMTOL
 70
     0
  9
$DIMLIM
 70
     0
  9
$DIMTIH
 70
     1
  9
$DIMTOH
 70
     1
  9
$DIMSE1
 70
     0
  9
$DIMSE2
 70
     0
  9
$DIMTAD
 70
     0
  9
$DIMZIN
 70
     0
  9
$DIMBLK
  1

  9
$DIMASO
 70
     1
  9
$DIMSHO
 70
     1
  9
$DIMPOST
  1

  9
$DIMAPOST
  1

  9
$DIMALT
 70
     0
  9
$DIMALTD
 70
     2
  9
$DIMALTF
 40
25.4
  9
$DIMLFAC
 40
1.0
  9
$DIMTOFL
 70
     0
  9
$DIMTVP
 40
0.0
  9
$DIMTIX
 70
     0
  9
$DIMSOXD
 70
     0
  9
$DIMSAH
 70
     0
  9
$DIMBLK1
  1

  9
$DIMBLK2
  1

  9
$DIMSTYLE
  2
Standard
  9
$DIMCLRD
 70
     0
  9
$DIMCLRE
 70
     0
  9
$DIMCLRT
 70
     0
  9
$DIMTFAC
 40
1.0
  9
$DIMGAP
 40
0.09
  9
$DIMJUST
 70
     0
  9
$DIMSD1
 70
     0
  9
$DIMSD2
 70
     0
  9
$DIMTOLJ
 70
     1
  9
$DIMTZIN
 70
     0
  9
$DIMALTZ
 70
     0
  9
$DIMALTTZ
 70
     0
  9
$DIMUPT
 70
     0
  9
$DIMDEC
 70
     4
  9
$DIMTDEC
 70
     4
  9
$DIMALTU
 70
     2
  9
$DIMALTTD
 70
     2
  9
$DIMTXSTY
  7
Standard
  9
$DIMAUNIT
 70
     0
  9
$DIMADEC
 70
     0
  9
$DIMALTRND
 40
0.0
  9
$DIMAZIN
 70
     0
  9
$DIMDSEP
 70
    46
  9
$DIMATFIT
 70
     3
  9
$DIMFRAC
 70
     0
  9
$DIMLDRBLK
  1

  9
$DIMLUNIT
 70
     2
  9
$DIMLWD
 70
    -2
  9
$DIMLWE
 70
    -2
  9
$DIMTMOVE
 70
     0
  9
$DIMFXL
 40
1.0
  9
$DIMFXLON
 70
     0
  9
$DIMJOGANG
 40
0.7853981633974483
  9
$DIMTFILL
 70
     0
  9
$DIMTFILLCLR
 70
     0
  9
$DIMARCSYM
 70
     0
  9
$DIMLTYPE
  6

  9
$DIMLTEX1
  6

  9
$DIMLTEX2
  6

  9
$DIMTXTDIRECTION
 70
     0
  9
$LUNITS
 70
     2
  9
$LUPREC
 70
     4
  9
$SKETCHINC
 40
0.1
  9
$FILLETRAD
 40
0.5
  9
$AUNITS
 70
     0
  9
$AUPREC
 70
     0
  9
$MENU
  1
.
  9
$ELEVATION
 40
0.0
  9
$PELEVATION
 40
0.0
  9
$THICKNESS
 40
0.0
  9
$LIMCHECK
 70
     0
  9
$CHAMFERA
 40
0.5
  9
$CHAMFERB
 40
0.5
  9
$CHAMFERC
 40
1.0
  9
$CHAMFERD
 40
0.0
  9
$SKPOLY
 70
     0
  9
$TDCREATE
 40
2459160.618749954
  9
$TDUCREATE
 40
2459160.077083287
  9
$TDUPDATE
 40
2459160.618750231
  9
$TDUUPDATE
 40
2459160.077083565
  9
$TDINDWG
 40
0.0000000116
  9
$TDUSRTIMER
 40
0.0000000116
  9
$USRTIMER
 70
     1
  9
$ANGBASE
 50
0.0
  9
$ANGDIR
 70
     0
  9
$PDMODE
 70
     0
  9
$PDSIZE
 40
0.0
  9
$PLINEWID
 40
0.0
  9
$SPLFRAME
 70
     0
  9
$SPLINETYPE
 70
     6
  9
$SPLINESEGS
 70
     8
  9
$HANDSEED
  5
4FF
  9
$SURFTAB1
 70
     6
  9
$SURFTAB2
 70
     6
  9
$SURFTYPE
 70
     6
  9
$SURFU
 70
     6
  9
$SURFV
 70
     6
  9
$UCSBASE
  2

  9
$UCSNAME
  2

  9
$UCSORG
 10
0.0
 20
0.0
 30
0.0
  9
$UCSXDIR
 10
1.0
 20
0.0
 30
0.0
  9
$UCSYDIR
 10
0.0
 20
1.0
 30
0.0
  9
$UCSORTHOREF
  2

  9
$UCSORTHOVIEW
 70
     0
  9
$UCSORGTOP
 10
0.0
 20
0.0
 30
0.0
  9
$UCSORGBOTTOM
 10
0.0
 20
0.0
 30
0.0
  9
$UCSORGLEFT
 10
0.0
 20
0.0
 30
0.0
  9
$UCSORGRIGHT
 10
0.0
 20
0.0
 30
0.0
  9
$UCSORGFRONT
 10
0.0
 20
0.0
 30
0.0
  9
$UCSORGBACK
 10
0.0
 20
0.0
 30
0.0
  9
$PUCSBASE
  2

  9
$PUCSNAME
  2

  9
$PUCSORG
 10
0.0
 20
0.0
 30
0.0
  9
$PUCSXDIR
 10
1.0
 20
0.0
 30
0.0
  9
$PUCSYDIR
 10
0.0
 20
1.0
 30
0.0
  9
$PUCSORTHOREF
  2

  9
$PUCSORTHOVIEW
 70
     0
  9
$PUCSORGTOP
 10
0.0
 20
0.0
 30
0.0
  9
$PUCSORGBOTTOM
 10
0.0
 20
0.0
 30
0.0
  9
$PUCSORGLEFT
 10
0.0
 20
0.0
 30
0.0
  9
$PUCSORGRIGHT
 10
0.0
 20
0.0
 30
0.0
  9
$PUCSORGFRONT
 10
0.0
 20
0.0
 30
0.0
  9
$PUCSORGBACK
 10
0.0
 20
0.0
 30
0.0
  9
$USERI1
 70
     0
  9
$USERI2
 70
     0
  9
$USERI3
 70
     0
  9
$USERI4
 70
     0
  9
$USERI5
 70
     0
  9
$USERR1
 40
0.0
  9
$USERR2
 40
0.0
  9
$USERR3
 40
0.0
  9
$USERR4
 40
0.0
  9
$USERR5
 40
0.0
  9
$WORLDVIEW
 70
     1
  9
$SHADEDGE
 70
     3
  9
$SHADEDIF
 70
    70
  9
$TILEMODE
 70
     1
  9
$MAXACTVP
 70
    64
  9
$PINSBASE
 10
0.0
 20
0.0
 30
0.0
  9
$PLIMCHECK
 70
     0
  9
$PEXTMIN
 10
1.000000000000000E+20
 20
1.000000000000000E+20
 30
1.000000000000000E+20
  9
$PEXTMAX
 10
-1.000000000000000E+20
 20
-1.000000000000000E+20
 30
-1.000000000000000E+20
  9
$PLIMMIN
 10
0.0
 20
0.0
  9
$PLIMMAX
 10
12.0
 20
9.0
  9
$UNITMODE
 70
     0
  9
$VISRETAIN
 70
     1
  9
$PLINEGEN
 70
     0
  9
$PSLTSCALE
 70
     1
  9
$TREEDEPTH
 70
  3020
  9
$CMLSTYLE
  2
Standard
  9
$CMLJUST
 70
     0
  9
$CMLSCALE
 40
1.0
  9
$PROXYGRAPHICS
 70
     1
  9
$MEASUREMENT
 70
     0
  9
$CELWEIGHT
370
    -1
  9
$ENDCAPS
280
     0
  9
$JOINSTYLE
280
     0
  9
$LWDISPLAY
290
     1
  9
$INSUNITS
 70
     0
  9
$HYPERLINKBASE
  1

  9
$STYLESHEET
  1

  9
$XEDIT
290
     1
  9
$CEPSNTYPE
380
     0
  9
$PSTYLEMODE
290
     1
  9
$FINGERPRINTGUID
  2
{AD657744-437D-44AF-9355-F62BB512387E}
  9
$VERSIONGUID
  2
{FAEB1C32-E019-11D5-929B-00C0DF256EC4}
  9
$EXTNAMES
290
     1
  9
$PSVPSCALE
 40
0.0
  9
$OLESTARTUP
290
     0
  9
$SORTENTS
280
   127
  9
$INDEXCTL
280
     0
  9
$HIDETEXT
280
     1
  9
$XCLIPFRAME
280
     2
  9
$HALOGAP
280
     0
  9
$OBSCOLOR
 70
   257
  9
$OBSLTYPE
280
     0
  9
$INTERSECTIONDISPLAY
280
     0
  9
$INTERSECTIONCOLOR
 70
   257
  9
$DIMASSOC
280
     2
  9
$PROJECTNAME
  1

  9
$CAMERADISPLAY
290
     0
  9
$LENSLENGTH
 40
50.0
  9
$CAMERAHEIGHT
 40
0.0
  9
$STEPSPERSEC
 40
2.0
  9
$STEPSIZE
 40
6.0
  9
$3DDWFPREC
 40
2.0
  9
$PSOLWIDTH
 40
0.25
  9
$PSOLHEIGHT
 40
4.0
  9
$LOFTANG1
 40
1.570796326794897
  9
$LOFTANG2
 40
1.570796326794897
  9
$LOFTMAG1
 40
0.0
  9
$LOFTMAG2
 40
0.0
  9
$LOFTPARAM
 70
     7
  9
$LOFTNORMALS
280
     1
  9
$LATITUDE
 40
37.795
  9
$LONGITUDE
 40
-122.394
  9
$NORTHDIRECTION
 40
0.0
  9
$TIMEZONE
 70
 -8000
  9
$LIGHTGLYPHDISPLAY
280
     1
  9
$TILEMODELIGHTSYNCH
280
     1
  9
$CMATERIAL
347
3C
  9
$SOLIDHIST
280
     1
  9
$SHOWHIST
280
     1
  9
$DWFFRAME
280
     2
  9
$DGNFRAME
280
     2
  9
$REALWORLDSCALE
290
     1
  9
$INTERFERECOLOR
 62
   256
  9
$CSHADOW
280
     0
  9
$SHADOWPLANELOCATION
 40
0.0
  0
ENDSEC
  0
SECTION
  2
CLASSES
  0
CLASS
  1
ACDBDICTIONARYWDFLT
  2
AcDbDictionaryWithDefault
  3
ObjectDBX Classes
 90
        0
 91
        4
280
     0
281
     0
  0
CLASS
  1
VISUALSTYLE
  2
AcDbVisualStyle
  3
ObjectDBX Classes
 90
     4095
 91
        4
280
     0
281
     0
  0
CLASS
  1
MATERIAL
  2
AcDbMaterial
  3
ObjectDBX Classes
 90
     1153
 91
        4
280
     0
281
     0
  0
CLASS
  1
SUN
  2
AcDbSun
  3
SCENEOE
 90
     1024
 91
        4
280
     0
281
     0
  0
ENDSEC
  0
SECTION
  2
TABLES
  0
TABLE
  2
VPORT
  5
8
330
0
100
AcDbSymbolTable
 70
     1
  0
VPORT
  5
29
330
8
100
AcDbSymbolTableRecord
100
AcDbViewportTableRecord
  2
*Active
 70
     0
 10
0.0
 20
0.0
 11
1.0
 21
1.0
 12
0.0
 22
0.0
 13
0.0
 23
0.0
 14
0.5
 24
0.5
 15
0.5
 25
0.5
 16
0.0
 26
0.0
 36
1.0
 17
266.0737499999996
 27
-298.3446999999996
 37
0.0
 40
841.8897637795271
 41
0.7070707070707065
 42
50.0
 43
0.0
 44
0.0
 50
0.0
 51
0.0
 71
     0
 72
   100
 73
     1
 74
     3
 75
     0
 76
     0
 77
     0
 78
     0
281
     0
 65
     1
110
0.0
120
0.0
130
0.0
111
1.0
121
0.0
131
0.0
112
0.0
122
1.0
132
0.0
 79
     0
146
0.0
 60
     3
 61
     5
292
     1
282
     1
141
0.0
142
0.0
 63
   250
361
3F
  0
ENDTAB
  0
TABLE
  2
LTYPE
  5
5
330
0
100
AcDbSymbolTable
 70
     1
  0
LTYPE
  5
14
330
5
100
AcDbSymbolTableRecord
100
AcDbLinetypeTableRecord
  2
ByBlock
 70
     0
  3

 72
    65
 73
     0
 40
0.0
  0
LTYPE
  5
15
330
5
100
AcDbSymbolTableRecord
100
AcDbLinetypeTableRecord
  2
ByLayer
 70
     0
  3

 72
    65
 73
     0
 40
0.0
  0
LTYPE
  5
16
330
5
100
AcDbSymbolTableRecord
100
AcDbLinetypeTableRecord
  2
Continuous
 70
     0
  3
Solid line
 72
    65
 73
     0
 40
0.0
  0
ENDTAB
  0
TABLE
  2
LAYER
  5
2
330
0
100
AcDbSymbolTable
 70
     3
  0
LAYER
  5
10
330
2
100
AcDbSymbolTableRecord
100
AcDbLayerTableRecord
  2
0
 70
     0
 62
     7
  6
Continuous
370
    -3
390
F
347
3E
  0
LAYER
  5
40
330
2
100
AcDbSymbolTableRecord
100
AcDbLayerTableRecord
  2
Layer 1
 70
     0
 62
     7
  6
Continuous
370
    -3
390
F
347
3E
  0
LAYER
  5
4E6
330
2
100
AcDbSymbolTableRecord
100
AcDbLayerTableRecord
  2
callouts
 70
     0
 62
     7
  6
Continuous
370
    -3
390
F
347
3E
  0
ENDTAB
  0
TABLE
  2
STYLE
  5
3
330
0
100
AcDbSymbolTable
 70
     1
  0
STYLE
  5
11
330
3
100
AcDbSymbolTableRecord
100
AcDbTextStyleTableRecord
  2
Standard
 70
     0
 40
0.0
 41
1.0
 50
0.0
 71
     0
 42
0.2
  3
txt
  4

  0
ENDTAB
  0
TABLE
  2
VIEW
  5
6
330
0
100
AcDbSymbolTable
 70
     0
  0
ENDTAB
  0
TABLE
  2
UCS
  5
7
330
0
100
AcDbSymbolTable
 70
     0
  0
ENDTAB
  0
TABLE
  2
APPID
  5
9
330
0
100
AcDbSymbolTable
 70
     1
  0
APPID
  5
12
330
9
100
AcDbSymbolTableRecord
100
AcDbRegAppTableRecord
  2
ACAD
 70
     0
  0
ENDTAB
  0
TABLE
  2
DIMSTYLE
  5
A
330
0
100
AcDbSymbolTable
 70
     1
100
AcDbDimStyleTable
  0
DIMSTYLE
105
27
330
A
100
AcDbSymbolTableRecord
100
AcDbDimStyleTableRecord
  2
Standard
 70
     0
178
     0
340
11
  0
ENDTAB
  0
TABLE
  2
BLOCK_RECORD
  5
1
330
0
100
AcDbSymbolTable
 70
     2
  0
BLOCK_RECORD
  5
1F
330
1
100
AcDbSymbolTableRecord
100
AcDbBlockTableRecord
  2
*Model_Space
340
22
 70
     0
280
     1
281
     0
  0
BLOCK_RECORD
  5
1B
330
1
100
AcDbSymbolTableRecord
100
AcDbBlockTableRecord
  2
*Paper_Space
340
1E
 70
     0
280
     1
281
     0
  0
BLOCK_RECORD
  5
23
330
1
100
AcDbSymbolTableRecord
100
AcDbBlockTableRecord
  2
*Paper_Space0
340
26
 70
     0
280
     1
281
     0
  0
BLOCK_RECORD
  5
41
330
1
100
AcDbSymbolTableRecord
100
AcDbBlockTableRecord
  2
block 2
340
0
102
{BLKREFS
331
42
102
}
 70
     0
280
     1
281
     0
  0
ENDTAB
  0
ENDSEC
  0
SECTION
  2
BLOCKS
  0
BLOCK
  5
20
330
1F
100
AcDbEntity
  8
0
100
AcDbBlockBegin
  2
*Model_Space
 70
     0
 10
0.0
 20
0.0
 30
0.0
  3
*Model_Space
  1

  0
ENDBLK
  5
21
330
1F
100
AcDbEntity
  8
0
100
AcDbBlockEnd
  0
BLOCK
  5
1C
330
1B
100
AcDbEntity
 67
     1
  8
0
100
AcDbBlockBegin
  2
*Paper_Space
 70
     0
 10
0.0
 20
0.0
 30
0.0
  3
*Paper_Space
  1

  0
ENDBLK
  5
1D
330
1B
100
AcDbEntity
 67
     1
  8
0
100
AcDbBlockEnd
  0
BLOCK
  5
24
330
23
100
AcDbEntity
  8
0
100
AcDbBlockBegin
  2
*Paper_Space0
 70
     0
 10
0.0
 20
0.0
 30
0.0
  3
*Paper_Space0
  1

  0
ENDBLK
  5
25
330
23
100
AcDbEntity
  8
0
100
AcDbBlockEnd
  0
BLOCK
  5
43
330
41
100
AcDbEntity
  8
0
100
AcDbBlockBegin
  2
block 2
 70
     0
 10
0.0
 20
0.0
 30
0.0
  3
block 2
  1

  0
POLYLINE
  5
45
330
41
100
AcDbEntity
  8
Layer 1
 62
     7
420
 16777215
370
    18
100
AcDb2dPolyline
 66
     1
 10
0.0
 20
0.0
 30
0.0
  0
VERTEX
  5
46
330
45
100
AcDbEntity
  8
Layer 1
 62
     7
420
 16777215
370
    18
100
AcDbVertex
100
AcDb2dVertex
 10
178.1397912031343
 20
-202.6913385965572
 30
0.0
  0
VERTEX
  5
47
330
45
100
AcDbEntity
  8
Layer 1
 62
     7
420
 16777215
370
    18
100
AcDbVertex
100
AcDb2dVertex
 10
114.685284856525
 20
-202.6913385965572
 30
0.0
  0
VERTEX
  5
48
330
45
100
AcDbEntity
  8
Layer 1
 62
     7
420
 16777215
370
    18
100
AcDbVertex
100
AcDb2dVertex
 10
114.685284856525
 20
-183.6137146257042
 30
0.0
  0
VERTEX
  5
49
330
45
100
AcDbEntity
  8
Layer 1
 62
     7
420
 16777215
370
    18
100
AcDbVertex
100
AcDb2dVertex
 10
178.1397912031343
 20
-183.6137146257042
 30
0.0
  0
VERTEX
  5
4A
330
45
100
AcDbEntity
  8
Layer 1
 62
     7
420
 16777215
370
    18
100
AcDbVertex
100
AcDb2dVertex
 10
178.1397912031343
 20
-202.6913385965572
 30
0.0
  0
SEQEND
  5
4C
330
45
100
AcDbEntity
  8
Layer 1
 62
     7
420
 16777215
370
    18
  0
HATCH
  5
4B
330
41
100
AcDbEntity
  8
Layer 1
 62
    21
420
 16227434
100
AcDbHatch
 10
0.0
 20
0.0
 30
0.0
210
0.0
220
0.0
230
1.0
  2
SOLID
 70
     1
 71
     0
 91
        1
 92
        1
 93
        4
 72
     1
 10
178.1397912031343
 20
-202.6913385965572
 11
114.685284856525
 21
-202.6913385965572
 72
     1
 10
114.685284856525
 20
-202.6913385965572
 11
114.685284856525
 21
-183.6137146257042
 72
     1
 10
114.685284856525
 20
-183.6137146257042
 11
178.1397912031343
 21
-183.6137146257042
 72
     1
 10
178.1397912031343
 20
-183.6137146257042
 11
178.1397912031343
 21
-202.6913385965572
 97
        0
 75
     2
 76
     1
 98
        0
  0
POLYLINE
  5
4D
330
41
100
AcDbEntity
  8
Layer 1
 62
     7
420
 16777215
370
    18
100
AcDb2dPolyline
 66
     1
 10
0.0
 20
0.0
 30
0.0
  0
VERTEX
  5
4E
330
4D
100
AcDbEntity
  8
Layer 1
 62
     7
420
 16777215
370
    18
100
AcDbVertex
100
AcDb2dVertex
 10
111.4999657952603
 20
-202.6913385965572
 30
0.0
  0
VERTEX
  5
4F
330
4D
100
AcDbEntity
  8
Layer 1
 62
     7
420
 16777215
370
    18
100
AcDbVertex
100
AcDb2dVertex
 10
91.31093830712689
 20
-202.6913385965572
 30
0.0
  0
VERTEX
  5
50
330
4D
100
AcDbEntity
  8
Layer 1
 62
     7
420
 16777215
370
    18
100
AcDbVertex
100
AcDb2dVertex
 10
91.31093830712689
 20
-183.6137146257042
 30
0.0
  0
VERTEX
  5
51
330
4D
100
AcDbEntity
  8
Layer 1
 62
     7
420
 16777215
370
    18
100
AcDbVertex
100
AcDb2dVertex
 10
111.4999657952603
 20
-183.6137146257042
 30
0.0
  0
VERTEX
  5
52
330
4D
100
AcDbEntity
  8
Layer 1
 62
     7
420
 16777215
370
    18
100
AcDbVertex
100
AcDb2dVertex
 10
111.4999657952603
 20
-202.6913385965572
 30
0.0
  0
SEQEND
  5
54
330
4D
100
AcDbEntity
  8
Layer 1
 62
     7
420
 16777215
370
    18
  0
HATCH
  5
53
330
41
100
AcDbEntity
  8
Layer 1
 62
    21
420
 16227434
100
AcDbHatch
 10
0.0
 20
0.0
 30
0.0
210
0.0
220
0.0
230
1.0
  2
SOLID
 70
     1
 71
     0
 91
        1
 92
        1
 93
        4
 72
     1
 10
111.4999657952603
 20
-202.6913385965572
 11
91.31093830712689
 21
-202.6913385965572
 72
     1
 10
91.31093830712689
 20
-202.6913385965572
 11
91.31093830712689
 21
-183.6137146257042
 72
     1
 10
91.31093830712689
 20
-183.6137146257042
 11
111.4999657952603
 21
-183.6137146257042
 72
     1
 10
111.4999657952603
 20
-183.6137146257042
 11
111.4999657952603
 21
-202.6913385965572
 97
        0
 75
     2
 76
     1
 98
        0
  0
POLYLINE
  5
55
330
41
100
AcDbEntity
  8
Layer 1
 62
     7
420
 16777215
370
    18
100
AcDb2dPolyline
 66
     1
 10
0.0
 20
0.0
 30
0.0
  0
VERTEX
  5
56
330
55
100
AcDbEntity
  8
Layer 1
 62
     7
420
 16777215
370
    18
100
AcDbVertex
100
AcDb2dVertex
 10
111.4999657952603
 20
-247.7644476335981
 30
0.0
  0
VERTEX
  5
57
330
55
100
AcDbEntity
  8
Layer 1
 62
     7
420
 16777215
370
    18
100
AcDbVertex
100
AcDb2dVertex
 10
91.31093830712689
 20
-247.7644476335981
 30
0.0
  0
VERTEX
  5
58
330
55
100
AcDbEntity
  8
Layer 1
 62
     7
420
 16777215
370
    18
100
AcDbVertex
100
AcDb2dVertex
 10
91.31093830712689
 20
-228.6868236627452
 30
0.0
  0
VERTEX
  5
59
330
55
100
AcDbEntity
  8
Layer 1
 62
     7
420
 16777215
370
    18
100
AcDbVertex
100
AcDb2dVertex
 10
111.4999657952603
 20
-228.6868236627452
 30
0.0
  0
VERTEX
  5
5A
330
55
100
AcDbEntity
  8
Layer 1
 62
     7
420
 16777215
370
    18
100
AcDbVertex
100
AcDb2dVertex
 10
111.4999657952603
 20
-247.7644476335981
 30
0.0
  0
SEQEND
  5
5C
330
55
100
AcDbEntity
  8
Layer 1
 62
     7
420
 16777215
370
    18
  0
HATCH
  5
5B
330
41
100
AcDbEntity
  8
Layer 1
 62
    21
420
 16227434
100
AcDbHatch
 10
0.0
 20
0.0
 30
0.0
210
0.0
220
0.0
230
1.0
  2
SOLID
 70
     1
 71
     0
 91
        1
 92
        1
 93
        4
 72
     1
 10
111.4999657952603
 20
-247.7644476335981
 11
91.31093830712689
 21
-247.7644476335981
 72
     1
 10
91.31093830712689
 20
-247.7644476335981
 11
91.31093830712689
 21
-228.6868236627452
 72
     1
 10
91.31093830712689
 20
-228.6868236627452
 11
111.4999657952603
 21
-228.6868236627452
 72
     1
 10
111.4999657952603
 20
-228.6868236627452
 11
111.4999657952603
 21
-247.7644476335981
 97
        0
 75
     2
 76
     1
 98
        0
  0
POLYLINE
  5
5D
330
41
100
AcDbEntity
  8
Layer 1
 62
     7
420
 16777215
370
    18
100
AcDb2dPolyline
 66
     1
 10
0.0
 20
0.0
 30
0.0
  0
VERTEX
  5
5E
330
5D
100
AcDbEntity
  8
Layer 1
 62
     7
420
 16777215
370
    18
100
AcDbVertex
100
AcDb2dVertex
 10
111.4999657952603
 20
-292.8385271535644
 30
0.0
  0
VERTEX
  5
5F
330
5D
100
AcDbEntity
  8
Layer 1
 62
     7
420
 16777215
370
    18
100
AcDbVertex
100
AcDb2dVertex
 10
91.31093830712689
 20
-292.8385271535644
 30
0.0
  0
VERTEX
  5
60
330
5D
100
AcDbEntity
  8
Layer 1
 62
     7
420
 16777215
370
    18
100
AcDbVertex
100
AcDb2dVertex
 10
91.31093830712689
 20
-273.7612266770211
 30
0.0
  0
VERTEX
  5
61
330
5D
100
AcDbEntity
  8
Layer 1
 62
     7
420
 16777215
370
    18
100
AcDbVertex
100
AcDb2dVertex
 10
111.4999657952603
 20
-273.7612266770211
 30
0.0
  0
VERTEX
  5
62
330
5D
100
AcDbEntity
  8
Layer 1
 62
     7
420
 16777215
370
    18
100
AcDbVertex
100
AcDb2dVertex
 10
111.4999657952603
 20
-292.8385271535644
 30
0.0
  0
SEQEND
  5
64
330
5D
100
AcDbEntity
  8
Layer 1
 62
     7
420
 16777215
370
    18
  0
HATCH
  5
63
330
41
100
AcDbEntity
  8
Layer 1
 62
    21
420
 16227434
100
AcDbHatch
 10
0.0
 20
0.0
 30
0.0
210
0.0
220
0.0
230
1.0
  2
SOLID
 70
     1
 71
     0
 91
        1
 92
        1
 93
        4
 72
     1
 10
111.4999657952603
 20
-292.8385271535644
 11
91.31093830712689
 21
-292.8385271535644
 72
     1
 10
91.31093830712689
 20
-292.8385271535644
 11
91.31093830712689
 21
-273.7612266770211
 72
     1
 10
91.31093830712689
 20
-273.7612266770211
 11
111.4999657952603
 21
-273.7612266770211
 72
     1
 10
111.4999657952603
 20
-273.7612266770211
 11
111.4999657952603
 21
-292.8385271535644
 97
        0
 75
     2
 76
     1
 98
        0
  0
POLYLINE
  5
65
330
41
100
AcDbEntity
  8
Layer 1
 62
     7
420
 16777215
370
    18
100
AcDb2dPolyline
 66
     1
 10
0.0
 20
0.0
 30
0.0
  0
VERTEX
  5
66
330
65
100
AcDbEntity
  8
Layer 1
 62
     7
420
 16777215
370
    18
100
AcDbVertex
100
AcDb2dVertex
 10
244.7796171373784
 20
-202.6913385965572
 30
0.0
  0
VERTEX
  5
67
330
65
100
AcDbEntity
  8
Layer 1
 62
     7
420
 16777215
370
    18
100
AcDbVertex
100
AcDb2dVertex
 10
181.3251101839314
 20
-202.6913385965572
 30
0.0
  0
VERTEX
  5
68
330
65
100
AcDbEntity
  8
Layer 1
 62
     7
420
 16777215
370
    18
100
AcDbVertex
100
AcDb2dVertex
 10
181.3251101839314
 20
-183.6137146257042
 30
0.0
  0
VERTEX
  5
69
330
65
100
AcDbEntity
  8
Layer 1
 62
     7
420
 16777215
370
    18
100
AcDbVertex
100
AcDb2dVertex
 10
244.7796171373784
 20
-183.6137146257042
 30
0.0
  0
VERTEX
  5
6A
330
65
100
AcDbEntity
  8
Layer 1
 62
     7
420
 16777215
370
    18
100
AcDbVertex
100
AcDb2dVertex
 10
244.7796171373784
 20
-202.6913385965572
 30
0.0
  0
SEQEND
  5
6C
330
65
100
AcDbEntity
  8
Layer 1
 62
     7
420
 16777215
370
    18
  0
HATCH
  5
6B
330
41
100
AcDbEntity
  8
Layer 1
 62
    21
420
 16227434
100
AcDbHatch
 10
0.0
 20
0.0
 30
0.0
210
0.0
220
0.0
230
1.0
  2
SOLID
 70
     1
 71
     0
 91
        1
 92
        1
 93
        4
 72
     1
 10
244.7796171373784
 20
-202.6913385965572
 11
181.3251101839314
 21
-202.6913385965572
 72
     1
 10
181.3251101839314
 20
-202.6913385965572
 11
181.3251101839314
 21
-183.6137146257042
 72
     1
 10
181.3251101839314
 20
-183.6137146257042
 11
244.7796171373784
 21
-183.6137146257042
 72
     1
 10
244.7796171373784
 20
-183.6137146257042
 11
244.7796171373784
 21
-202.6913385965572
 97
        0
 75
     2
 76
     1
 98
        0
  0
POLYLINE
  5
6D
330
41
100
AcDbEntity
  8
Layer 1
 62
     7
420
 16777215
370
    18
100
AcDb2dPolyline
 66
     1
 10
0.0
 20
0.0
 30
0.0
  0
VERTEX
  5
6E
330
6D
100
AcDbEntity
  8
Layer 1
 62
     7
420
 16777215
370
    18
100
AcDbVertex
100
AcDb2dVertex
 10
311.4194430716216
 20
-202.6913385965572
 30
0.0
  0
VERTEX
  5
6F
330
6D
100
AcDbEntity
  8
Layer 1
 62
     7
420
 16777215
370
    18
100
AcDbVertex
100
AcDb2dVertex
 10
247.9649361181746
 20
-202.6913385965572
 30
0.0
  0
VERTEX
  5
70
330
6D
100
AcDbEntity
  8
Layer 1
 62
     7
420
 16777215
370
    18
100
AcDbVertex
100
AcDb2dVertex
 10
247.9649361181746
 20
-183.6137146257042
 30
0.0
  0
VERTEX
  5
71
330
6D
100
AcDbEntity
  8
Layer 1
 62
     7
420
 16777215
370
    18
100
AcDbVertex
100
AcDb2dVertex
 10
311.4194430716216
 20
-183.6137146257042
 30
0.0
  0
VERTEX
  5
72
330
6D
100
AcDbEntity
  8
Layer 1
 62
     7
420
 16777215
370
    18
100
AcDbVertex
100
AcDb2dVertex
 10
311.4194430716216
 20
-202.6913385965572
 30
0.0
  0
SEQEND
  5
74
330
6D
100
AcDbEntity
  8
Layer 1
 62
     7
420
 16777215
370
    18
  0
HATCH
  5
73
330
41
100
AcDbEntity
  8
Layer 1
 62
    21
420
 16227434
100
AcDbHatch
 10
0.0
 20
0.0
 30
0.0
210
0.0
220
0.0
230
1.0
  2
SOLID
 70
     1
 71
     0
 91
        1
 92
        1
 93
        4
 72
     1
 10
311.4194430716216
 20
-202.6913385965572
 11
247.9649361181746
 21
-202.6913385965572
 72
     1
 10
247.9649361181746
 20
-202.6913385965572
 11
247.9649361181746
 21
-183.6137146257042
 72
     1
 10
247.9649361181746
 20
-183.6137146257042
 11
311.4194430716216
 21
-183.6137146257042
 72
     1
 10
311.4194430716216
 20
-183.6137146257042
 11
311.4194430716216
 21
-202.6913385965572
 97
        0
 75
     2
 76
     1
 98
        0
  0
POLYLINE
  5
75
330
41
100
AcDbEntity
  8
Layer 1
 62
     7
420
 16777215
370
    18
100
AcDb2dPolyline
 66
     1
 10
0.0
 20
0.0
 30
0.0
  0
VERTEX
  5
76
330
75
100
AcDbEntity
  8
Layer 1
 62
     7
420
 16777215
370
    18
100
AcDbVertex
100
AcDb2dVertex
 10
378.0592690058656
 20
-202.6913385965572
 30
0.0
  0
VERTEX
  5
77
330
75
100
AcDbEntity
  8
Layer 1
 62
     7
420
 16777215
370
    18
100
AcDbVertex
100
AcDb2dVertex
 10
314.6050855467183
 20
-202.6913385965572
 30
0.0
  0
VERTEX
  5
78
330
75
100
AcDbEntity
  8
Layer 1
 62
     7
420
 16777215
370
    18
100
AcDbVertex
100
AcDb2dVertex
 10
314.6050855467183
 20
-183.6137146257042
 30
0.0
  0
VERTEX
  5
79
330
75
100
AcDbEntity
  8
Layer 1
 62
     7
420
 16777215
370
    18
100
AcDbVertex
100
AcDb2dVertex
 10
378.0592690058656
 20
-183.6137146257042
 30
0.0
  0
VERTEX
  5
7A
330
75
100
AcDbEntity
  8
Layer 1
 62
     7
420
 16777215
370
    18
100
AcDbVertex
100
AcDb2dVertex
 10
378.0592690058656
 20
-202.6913385965572
 30
0.0
  0
SEQEND
  5
7C
330
75
100
AcDbEntity
  8
Layer 1
 62
     7
420
 16777215
370
    18
  0
HATCH
  5
7B
330
41
100
AcDbEntity
  8
Layer 1
 62
    21
420
 16227434
100
AcDbHatch
 10
0.0
 20
0.0
 30
0.0
210
0.0
220
0.0
230
1.0
  2
SOLID
 70
     1
 71
     0
 91
        1
 92
        1
 93
        4
 72
     1
 10
378.0592690058656
 20
-202.6913385965572
 11
314.6050855467183
 21
-202.6913385965572
 72
     1
 10
314.6050855467183
 20
-202.6913385965572
 11
314.6050855467183
 21
-183.6137146257042
 72
     1
 10
314.6050855467183
 20
-183.6137146257042
 11
378.0592690058656
 21
-183.6137146257042
 72
     1
 10
378.0592690058656
 20
-183.6137146257042
 11
378.0592690058656
 21
-202.6913385965572
 97
        0
 75
     2
 76
     1
 98
        0
  0
POLYLINE
  5
7D
330
41
100
AcDbEntity
  8
Layer 1
 62
     7
420
 16777215
370
    18
100
AcDb2dPolyline
 66
     1
 10
0.0
 20
0.0
 30
0.0
  0
VERTEX
  5
7E
330
7D
100
AcDbEntity
  8
Layer 1
 62
     7
420
 16777215
370
    18
100
AcDbVertex
100
AcDb2dVertex
 10
434.8615772536032
 20
-202.6913385965572
 30
0.0
  0
VERTEX
  5
7F
330
7D
100
AcDbEntity
  8
Layer 1
 62
     7
420
 16777215
370
    18
100
AcDbVertex
100
AcDb2dVertex
 10
381.2449114809624
 20
-202.6913385965572
 30
0.0
  0
VERTEX
  5
80
330
7D
100
AcDbEntity
  8
Layer 1
 62
     7
420
 16777215
370
    18
100
AcDbVertex
100
AcDb2dVertex
 10
381.2449114809624
 20
-183.6137146257042
 30
0.0
  0
VERTEX
  5
81
330
7D
100
AcDbEntity
  8
Layer 1
 62
     7
420
 16777215
370
    18
100
AcDbVertex
100
AcDb2dVertex
 10
434.8615772536032
 20
-183.6137146257042
 30
0.0
  0
VERTEX
  5
82
330
7D
100
AcDbEntity
  8
Layer 1
 62
     7
420
 16777215
370
    18
100
AcDbVertex
100
AcDb2dVertex
 10
434.8615772536032
 20
-202.6913385965572
 30
0.0
  0
SEQEND
  5
84
330
7D
100
AcDbEntity
  8
Layer 1
 62
     7
420
 16777215
370
    18
  0
HATCH
  5
83
330
41
100
AcDbEntity
  8
Layer 1
 62
    21
420
 16227434
100
AcDbHatch
 10
0.0
 20
0.0
 30
0.0
210
0.0
220
0.0
230
1.0
  2
SOLID
 70
     1
 71
     0
 91
        1
 92
        1
 93
        4
 72
     1
 10
434.8615772536032
 20
-202.6913385965572
 11
381.2449114809624
 21
-202.6913385965572
 72
     1
 10
381.2449114809624
 20
-202.6913385965572
 11
381.2449114809624
 21
-183.6137146257042
 72
     1
 10
381.2449114809624
 20
-183.6137146257042
 11
434.8615772536032
 21
-183.6137146257042
 72
     1
 10
434.8615772536032
 20
-183.6137146257042
 11
434.8615772536032
 21
-202.6913385965572
 97
        0
 75
     2
 76
     1
 98
        0
  0
POLYLINE
  5
85
330
41
100
AcDbEntity
  8
Layer 1
 62
     7
420
 16777215
370
    18
100
AcDb2dPolyline
 66
     1
 10
0.0
 20
0.0
 30
0.0
  0
VERTEX
  5
86
330
85
100
AcDbEntity
  8
Layer 1
 62
     7
420
 16777215
370
    18
100
AcDbVertex
100
AcDb2dVertex
 10
211.1362098696054
 20
-225.5513874239005
 30
0.0
  0
VERTEX
  5
87
330
85
100
AcDbEntity
  8
Layer 1
 62
     7
420
 16777215
370
    18
100
AcDbVertex
100
AcDb2dVertex
 10
147.6817043565543
 20
-225.5513874239005
 30
0.0
  0
VERTEX
  5
88
330
85
100
AcDbEntity
  8
Layer 1
 62
     7
420
 16777215
370
    18
100
AcDbVertex
100
AcDb2dVertex
 10
147.6817043565543
 20
-206.4737634530484
 30
0.0
  0
VERTEX
  5
89
330
85
100
AcDbEntity
  8
Layer 1
 62
     7
420
 16777215
370
    18
100
AcDbVertex
100
AcDb2dVertex
 10
211.1362098696054
 20
-206.4737634530484
 30
0.0
  0
VERTEX
  5
8A
330
85
100
AcDbEntity
  8
Layer 1
 62
     7
420
 16777215
370
    18
100
AcDbVertex
100
AcDb2dVertex
 10
211.1362098696054
 20
-225.5513874239005
 30
0.0
  0
SEQEND
  5
8C
330
85
100
AcDbEntity
  8
Layer 1
 62
     7
420
 16777215
370
    18
  0
HATCH
  5
8B
330
41
100
AcDbEntity
  8
Layer 1
 62
    21
420
 16227434
100
AcDbHatch
 10
0.0
 20
0.0
 30
0.0
210
0.0
220
0.0
230
1.0
  2
SOLID
 70
     1
 71
     0
 91
        1
 92
        1
 93
        4
 72
     1
 10
211.1362098696054
 20
-225.5513874239005
 11
147.6817043565543
 21
-225.5513874239005
 72
     1
 10
147.6817043565543
 20
-225.5513874239005
 11
147.6817043565543
 21
-206.4737634530484
 72
     1
 10
147.6817043565543
 20
-206.4737634530484
 11
211.1362098696054
 21
-206.4737634530484
 72
     1
 10
211.1362098696054
 20
-206.4737634530484
 11
211.1362098696054
 21
-225.5513874239005
 97
        0
 75
     2
 76
     1
 98
        0
  0
POLYLINE
  5
8D
330
41
100
AcDbEntity
  8
Layer 1
 62
     7
420
 16777215
370
    18
100
AcDb2dPolyline
 66
     1
 10
0.0
 20
0.0
 30
0.0
  0
VERTEX
  5
8E
330
8D
100
AcDbEntity
  8
Layer 1
 62
     7
420
 16777215
370
    18
100
AcDbVertex
100
AcDb2dVertex
 10
144.2806145913046
 20
-225.5513874239005
 30
0.0
  0
VERTEX
  5
8F
330
8D
100
AcDbEntity
  8
Layer 1
 62
     7
420
 16777215
370
    18
100
AcDbVertex
100
AcDb2dVertex
 10
90.75903825360274
 20
-225.5513874239005
 30
0.0
  0
VERTEX
  5
90
330
8D
100
AcDbEntity
  8
Layer 1
 62
     7
420
 16777215
370
    18
100
AcDbVertex
100
AcDb2dVertex
 10
90.75903825360274
 20
-206.4737634530484
 30
0.0
  0
VERTEX
  5
91
330
8D
100
AcDbEntity
  8
Layer 1
 62
     7
420
 16777215
370
    18
100
AcDbVertex
100
AcDb2dVertex
 10
144.2806145913046
 20
-206.4737634530484
 30
0.0
  0
VERTEX
  5
92
330
8D
100
AcDbEntity
  8
Layer 1
 62
     7
420
 16777215
370
    18
100
AcDbVertex
100
AcDb2dVertex
 10
144.2806145913046
 20
-225.5513874239005
 30
0.0
  0
SEQEND
  5
94
330
8D
100
AcDbEntity
  8
Layer 1
 62
     7
420
 16777215
370
    18
  0
HATCH
  5
93
330
41
100
AcDbEntity
  8
Layer 1
 62
    21
420
 16227434
100
AcDbHatch
 10
0.0
 20
0.0
 30
0.0
210
0.0
220
0.0
230
1.0
  2
SOLID
 70
     1
 71
     0
 91
        1
 92
        1
 93
        4
 72
     1
 10
144.2806145913046
 20
-225.5513874239005
 11
90.75903825360274
 21
-225.5513874239005
 72
     1
 10
90.75903825360274
 20
-225.5513874239005
 11
90.75903825360274
 21
-206.4737634530484
 72
     1
 10
90.75903825360274
 20
-206.4737634530484
 11
144.2806145913046
 21
-206.4737634530484
 72
     1
 10
144.2806145913046
 20
-206.4737634530484
 11
144.2806145913046
 21
-225.5513874239005
 97
        0
 75
     2
 76
     1
 98
        0
  0
POLYLINE
  5
95
330
41
100
AcDbEntity
  8
Layer 1
 62
     7
420
 16777215
370
    18
100
AcDb2dPolyline
 66
     1
 10
0.0
 20
0.0
 30
0.0
  0
VERTEX
  5
96
330
95
100
AcDbEntity
  8
Layer 1
 62
     7
420
 16777215
370
    18
100
AcDbVertex
100
AcDb2dVertex
 10
277.7760358038468
 20
-225.5513874239005
 30
0.0
  0
VERTEX
  5
97
330
95
100
AcDbEntity
  8
Layer 1
 62
     7
420
 16777215
370
    18
100
AcDbVertex
100
AcDb2dVertex
 10
214.3215288504016
 20
-225.5513874239005
 30
0.0
  0
VERTEX
  5
98
330
95
100
AcDbEntity
  8
Layer 1
 62
     7
420
 16777215
370
    18
100
AcDbVertex
100
AcDb2dVertex
 10
214.3215288504016
 20
-206.4737634530484
 30
0.0
  0
VERTEX
  5
99
330
95
100
AcDbEntity
  8
Layer 1
 62
     7
420
 16777215
370
    18
100
AcDbVertex
100
AcDb2dVertex
 10
277.7760358038468
 20
-206.4737634530484
 30
0.0
  0
VERTEX
  5
9A
330
95
100
AcDbEntity
  8
Layer 1
 62
     7
420
 16777215
370
    18
100
AcDbVertex
100
AcDb2dVertex
 10
277.7760358038468
 20
-225.5513874239005
 30
0.0
  0
SEQEND
  5
9C
330
95
100
AcDbEntity
  8
Layer 1
 62
     7
420
 16777215
370
    18
  0
HATCH
  5
9B
330
41
100
AcDbEntity
  8
Layer 1
 62
    21
420
 16227434
100
AcDbHatch
 10
0.0
 20
0.0
 30
0.0
210
0.0
220
0.0
230
1.0
  2
SOLID
 70
     1
 71
     0
 91
        1
 92
        1
 93
        4
 72
     1
 10
277.7760358038468
 20
-225.5513874239005
 11
214.3215288504016
 21
-225.5513874239005
 72
     1
 10
214.3215288504016
 20
-225.5513874239005
 11
214.3215288504016
 21
-206.4737634530484
 72
     1
 10
214.3215288504016
 20
-206.4737634530484
 11
277.7760358038468
 21
-206.4737634530484
 72
     1
 10
277.7760358038468
 20
-206.4737634530484
 11
277.7760358038468
 21
-225.5513874239005
 97
        0
 75
     2
 76
     1
 98
        0
  0
POLYLINE
  5
9D
330
41
100
AcDbEntity
  8
Layer 1
 62
     7
420
 16777215
370
    18
100
AcDb2dPolyline
 66
     1
 10
0.0
 20
0.0
 30
0.0
  0
VERTEX
  5
9E
330
9D
100
AcDbEntity
  8
Layer 1
 62
     7
420
 16777215
370
    18
100
AcDbVertex
100
AcDb2dVertex
 10
344.4158617380926
 20
-225.5513874239005
 30
0.0
  0
VERTEX
  5
9F
330
9D
100
AcDbEntity
  8
Layer 1
 62
     7
420
 16777215
370
    18
100
AcDbVertex
100
AcDb2dVertex
 10
280.9616782789453
 20
-225.5513874239005
 30
0.0
  0
VERTEX
  5
A0
330
9D
100
AcDbEntity
  8
Layer 1
 62
     7
420
 16777215
370
    18
100
AcDbVertex
100
AcDb2dVertex
 10
280.9616782789453
 20
-206.4737634530484
 30
0.0
  0
VERTEX
  5
A1
330
9D
100
AcDbEntity
  8
Layer 1
 62
     7
420
 16777215
370
    18
100
AcDbVertex
100
AcDb2dVertex
 10
344.4158617380926
 20
-206.4737634530484
 30
0.0
  0
VERTEX
  5
A2
330
9D
100
AcDbEntity
  8
Layer 1
 62
     7
420
 16777215
370
    18
100
AcDbVertex
100
AcDb2dVertex
 10
344.4158617380926
 20
-225.5513874239005
 30
0.0
  0
SEQEND
  5
A4
330
9D
100
AcDbEntity
  8
Layer 1
 62
     7
420
 16777215
370
    18
  0
HATCH
  5
A3
330
41
100
AcDbEntity
  8
Layer 1
 62
    21
420
 16227434
100
AcDbHatch
 10
0.0
 20
0.0
 30
0.0
210
0.0
220
0.0
230
1.0
  2
SOLID
 70
     1
 71
     0
 91
        1
 92
        1
 93
        4
 72
     1
 10
344.4158617380926
 20
-225.5513874239005
 11
280.9616782789453
 21
-225.5513874239005
 72
     1
 10
280.9616782789453
 20
-225.5513874239005
 11
280.9616782789453
 21
-206.4737634530484
 72
     1
 10
280.9616782789453
 20
-206.4737634530484
 11
344.4158617380926
 21
-206.4737634530484
 72
     1
 10
344.4158617380926
 20
-206.4737634530484
 11
344.4158617380926
 21
-225.5513874239005
 97
        0
 75
     2
 76
     1
 98
        0
  0
POLYLINE
  5
A5
330
41
100
AcDbEntity
  8
Layer 1
 62
     7
420
 16777215
370
    18
100
AcDb2dPolyline
 66
     1
 10
0.0
 20
0.0
 30
0.0
  0
VERTEX
  5
A6
330
A5
100
AcDbEntity
  8
Layer 1
 62
     7
420
 16777215
370
    18
100
AcDbVertex
100
AcDb2dVertex
 10
411.0556876723349
 20
-225.5513874239005
 30
0.0
  0
VERTEX
  5
A7
330
A5
100
AcDbEntity
  8
Layer 1
 62
     7
420
 16777215
370
    18
100
AcDbVertex
100
AcDb2dVertex
 10
347.6015042131894
 20
-225.5513874239005
 30
0.0
  0
VERTEX
  5
A8
330
A5
100
AcDbEntity
  8
Layer 1
 62
     7
420
 16777215
370
    18
100
AcDbVertex
100
AcDb2dVertex
 10
347.6015042131894
 20
-206.4737634530484
 30
0.0
  0
VERTEX
  5
A9
330
A5
100
AcDbEntity
  8
Layer 1
 62
     7
420
 16777215
370
    18
100
AcDbVertex
100
AcDb2dVertex
 10
411.0556876723349
 20
-206.4737634530484
 30
0.0
  0
VERTEX
  5
AA
330
A5
100
AcDbEntity
  8
Layer 1
 62
     7
420
 16777215
370
    18
100
AcDbVertex
100
AcDb2dVertex
 10
411.0556876723349
 20
-225.5513874239005
 30
0.0
  0
SEQEND
  5
AC
330
A5
100
AcDbEntity
  8
Layer 1
 62
     7
420
 16777215
370
    18
  0
HATCH
  5
AB
330
41
100
AcDbEntity
  8
Layer 1
 62
    21
420
 16227434
100
AcDbHatch
 10
0.0
 20
0.0
 30
0.0
210
0.0
220
0.0
230
1.0
  2
SOLID
 70
     1
 71
     0
 91
        1
 92
        1
 93
        4
 72
     1
 10
411.0556876723349
 20
-225.5513874239005
 11
347.6015042131894
 21
-225.5513874239005
 72
     1
 10
347.6015042131894
 20
-225.5513874239005
 11
347.6015042131894
 21
-206.4737634530484
 72
     1
 10
347.6015042131894
 20
-206.4737634530484
 11
411.0556876723349
 21
-206.4737634530484
 72
     1
 10
411.0556876723349
 20
-206.4737634530484
 11
411.0556876723349
 21
-225.5513874239005
 97
        0
 75
     2
 76
     1
 98
        0
  0
POLYLINE
  5
AD
330
41
100
AcDbEntity
  8
Layer 1
 62
     7
420
 16777215
370
    18
100
AcDb2dPolyline
 66
     1
 10
0.0
 20
0.0
 30
0.0
  0
VERTEX
  5
AE
330
AD
100
AcDbEntity
  8
Layer 1
 62
     7
420
 16777215
370
    18
100
AcDbVertex
100
AcDb2dVertex
 10
434.8615772536032
 20
-225.5513874239005
 30
0.0
  0
VERTEX
  5
AF
330
AD
100
AcDbEntity
  8
Layer 1
 62
     7
420
 16777215
370
    18
100
AcDbVertex
100
AcDb2dVertex
 10
414.2413301474335
 20
-225.5513874239005
 30
0.0
  0
VERTEX
  5
B0
330
AD
100
AcDbEntity
  8
Layer 1
 62
     7
420
 16777215
370
    18
100
AcDbVertex
100
AcDb2dVertex
 10
414.2413301474335
 20
-206.4737634530484
 30
0.0
  0
VERTEX
  5
B1
330
AD
100
AcDbEntity
  8
Layer 1
 62
     7
420
 16777215
370
    18
100
AcDbVertex
100
AcDb2dVertex
 10
434.8615772536032
 20
-206.4737634530484
 30
0.0
  0
VERTEX
  5
B2
330
AD
100
AcDbEntity
  8
Layer 1
 62
     7
420
 16777215
370
    18
100
AcDbVertex
100
AcDb2dVertex
 10
434.8615772536032
 20
-225.5513874239005
 30
0.0
  0
SEQEND
  5
B4
330
AD
100
AcDbEntity
  8
Layer 1
 62
     7
420
 16777215
370
    18
  0
HATCH
  5
B3
330
41
100
AcDbEntity
  8
Layer 1
 62
    21
420
 16227434
100
AcDbHatch
 10
0.0
 20
0.0
 30
0.0
210
0.0
220
0.0
230
1.0
  2
SOLID
 70
     1
 71
     0
 91
        1
 92
        1
 93
        4
 72
     1
 10
434.8615772536032
 20
-225.5513874239005
 11
414.2413301474335
 21
-225.5513874239005
 72
     1
 10
414.2413301474335
 20
-225.5513874239005
 11
414.2413301474335
 21
-206.4737634530484
 72
     1
 10
414.2413301474335
 20
-206.4737634530484
 11
434.8615772536032
 21
-206.4737634530484
 72
     1
 10
434.8615772536032
 20
-206.4737634530484
 11
434.8615772536032
 21
-225.5513874239005
 97
        0
 75
     2
 76
     1
 98
        0
  0
POLYLINE
  5
B5
330
41
100
AcDbEntity
  8
Layer 1
 62
     7
420
 16777215
370
    18
100
AcDb2dPolyline
 66
     1
 10
0.0
 20
0.0
 30
0.0
  0
VERTEX
  5
B6
330
B5
100
AcDbEntity
  8
Layer 1
 62
     7
420
 16777215
370
    18
100
AcDbVertex
100
AcDb2dVertex
 10
178.1397912031343
 20
-247.7644476335981
 30
0.0
  0
VERTEX
  5
B7
330
B5
100
AcDbEntity
  8
Layer 1
 62
     7
420
 16777215
370
    18
100
AcDbVertex
100
AcDb2dVertex
 10
114.6856083508337
 20
-247.7644476335981
 30
0.0
  0
VERTEX
  5
B8
330
B5
100
AcDbEntity
  8
Layer 1
 62
     7
420
 16777215
370
    18
100
AcDbVertex
100
AcDb2dVertex
 10
114.6856083508337
 20
-228.6868236627452
 30
0.0
  0
VERTEX
  5
B9
330
B5
100
AcDbEntity
  8
Layer 1
 62
     7
420
 16777215
370
    18
100
AcDbVertex
100
AcDb2dVertex
 10
178.1397912031343
 20
-228.6868236627452
 30
0.0
  0
VERTEX
  5
BA
330
B5
100
AcDbEntity
  8
Layer 1
 62
     7
420
 16777215
370
    18
100
AcDbVertex
100
AcDb2dVertex
 10
178.1397912031343
 20
-247.7644476335981
 30
0.0
  0
SEQEND
  5
BC
330
B5
100
AcDbEntity
  8
Layer 1
 62
     7
420
 16777215
370
    18
  0
HATCH
  5
BB
330
41
100
AcDbEntity
  8
Layer 1
 62
    21
420
 16227434
100
AcDbHatch
 10
0.0
 20
0.0
 30
0.0
210
0.0
220
0.0
230
1.0
  2
SOLID
 70
     1
 71
     0
 91
        1
 92
        1
 93
        4
 72
     1
 10
178.1397912031343
 20
-247.7644476335981
 11
114.6856083508337
 21
-247.7644476335981
 72
     1
 10
114.6856083508337
 20
-247.7644476335981
 11
114.6856083508337
 21
-228.6868236627452
 72
     1
 10
114.6856083508337
 20
-228.6868236627452
 11
178.1397912031343
 21
-228.6868236627452
 72
     1
 10
178.1397912031343
 20
-228.6868236627452
 11
178.1397912031343
 21
-247.7644476335981
 97
        0
 75
     2
 76
     1
 98
        0
  0
POLYLINE
  5
BD
330
41
100
AcDbEntity
  8
Layer 1
 62
     7
420
 16777215
370
    18
100
AcDb2dPolyline
 66
     1
 10
0.0
 20
0.0
 30
0.0
  0
VERTEX
  5
BE
330
BD
100
AcDbEntity
  8
Layer 1
 62
     7
420
 16777215
370
    18
100
AcDbVertex
100
AcDb2dVertex
 10
244.7796171373784
 20
-247.7644476335981
 30
0.0
  0
VERTEX
  5
BF
330
BD
100
AcDbEntity
  8
Layer 1
 62
     7
420
 16777215
370
    18
100
AcDbVertex
100
AcDb2dVertex
 10
181.3254336782311
 20
-247.7644476335981
 30
0.0
  0
VERTEX
  5
C0
330
BD
100
AcDbEntity
  8
Layer 1
 62
     7
420
 16777215
370
    18
100
AcDbVertex
100
AcDb2dVertex
 10
181.3254336782311
 20
-228.6868236627452
 30
0.0
  0
VERTEX
  5
C1
330
BD
100
AcDbEntity
  8
Layer 1
 62
     7
420
 16777215
370
    18
100
AcDbVertex
100
AcDb2dVertex
 10
244.7796171373784
 20
-228.6868236627452
 30
0.0
  0
VERTEX
  5
C2
330
BD
100
AcDbEntity
  8
Layer 1
 62
     7
420
 16777215
370
    18
100
AcDbVertex
100
AcDb2dVertex
 10
244.7796171373784
 20
-247.7644476335981
 30
0.0
  0
SEQEND
  5
C4
330
BD
100
AcDbEntity
  8
Layer 1
 62
     7
420
 16777215
370
    18
  0
HATCH
  5
C3
330
41
100
AcDbEntity
  8
Layer 1
 62
    21
420
 16227434
100
AcDbHatch
 10
0.0
 20
0.0
 30
0.0
210
0.0
220
0.0
230
1.0
  2
SOLID
 70
     1
 71
     0
 91
        1
 92
        1
 93
        4
 72
     1
 10
244.7796171373784
 20
-247.7644476335981
 11
181.3254336782311
 21
-247.7644476335981
 72
     1
 10
181.3254336782311
 20
-247.7644476335981
 11
181.3254336782311
 21
-228.6868236627452
 72
     1
 10
181.3254336782311
 20
-228.6868236627452
 11
244.7796171373784
 21
-228.6868236627452
 72
     1
 10
244.7796171373784
 20
-228.6868236627452
 11
244.7796171373784
 21
-247.7644476335981
 97
        0
 75
     2
 76
     1
 98
        0
  0
POLYLINE
  5
C5
330
41
100
AcDbEntity
  8
Layer 1
 62
     7
420
 16777215
370
    18
100
AcDb2dPolyline
 66
     1
 10
0.0
 20
0.0
 30
0.0
  0
VERTEX
  5
C6
330
C5
100
AcDbEntity
  8
Layer 1
 62
     7
420
 16777215
370
    18
100
AcDbVertex
100
AcDb2dVertex
 10
311.4194430716216
 20
-247.7644476335981
 30
0.0
  0
VERTEX
  5
C7
330
C5
100
AcDbEntity
  8
Layer 1
 62
     7
420
 16777215
370
    18
100
AcDbVertex
100
AcDb2dVertex
 10
247.9652596124752
 20
-247.7644476335981
 30
0.0
  0
VERTEX
  5
C8
330
C5
100
AcDbEntity
  8
Layer 1
 62
     7
420
 16777215
370
    18
100
AcDbVertex
100
AcDb2dVertex
 10
247.9652596124752
 20
-228.6868236627452
 30
0.0
  0
VERTEX
  5
C9
330
C5
100
AcDbEntity
  8
Layer 1
 62
     7
420
 16777215
370
    18
100
AcDbVertex
100
AcDb2dVertex
 10
311.4194430716216
 20
-228.6868236627452
 30
0.0
  0
VERTEX
  5
CA
330
C5
100
AcDbEntity
  8
Layer 1
 62
     7
420
 16777215
370
    18
100
AcDbVertex
100
AcDb2dVertex
 10
311.4194430716216
 20
-247.7644476335981
 30
0.0
  0
SEQEND
  5
CC
330
C5
100
AcDbEntity
  8
Layer 1
 62
     7
420
 16777215
370
    18
  0
HATCH
  5
CB
330
41
100
AcDbEntity
  8
Layer 1
 62
    21
420
 16227434
100
AcDbHatch
 10
0.0
 20
0.0
 30
0.0
210
0.0
220
0.0
230
1.0
  2
SOLID
 70
     1
 71
     0
 91
        1
 92
        1
 93
        4
 72
     1
 10
311.4194430716216
 20
-247.7644476335981
 11
247.9652596124752
 21
-247.7644476335981
 72
     1
 10
247.9652596124752
 20
-247.7644476335981
 11
247.9652596124752
 21
-228.6868236627452
 72
     1
 10
247.9652596124752
 20
-228.6868236627452
 11
311.4194430716216
 21
-228.6868236627452
 72
     1
 10
311.4194430716216
 20
-228.6868236627452
 11
311.4194430716216
 21
-247.7644476335981
 97
        0
 75
     2
 76
     1
 98
        0
  0
POLYLINE
  5
CD
330
41
100
AcDbEntity
  8
Layer 1
 62
     7
420
 16777215
370
    18
100
AcDb2dPolyline
 66
     1
 10
0.0
 20
0.0
 30
0.0
  0
VERTEX
  5
CE
330
CD
100
AcDbEntity
  8
Layer 1
 62
     7
420
 16777215
370
    18
100
AcDbVertex
100
AcDb2dVertex
 10
378.0592690058656
 20
-247.7644476335981
 30
0.0
  0
VERTEX
  5
CF
330
CD
100
AcDbEntity
  8
Layer 1
 62
     7
420
 16777215
370
    18
100
AcDbVertex
100
AcDb2dVertex
 10
314.6050855467183
 20
-247.7644476335981
 30
0.0
  0
VERTEX
  5
D0
330
CD
100
AcDbEntity
  8
Layer 1
 62
     7
420
 16777215
370
    18
100
AcDbVertex
100
AcDb2dVertex
 10
314.6050855467183
 20
-228.6868236627452
 30
0.0
  0
VERTEX
  5
D1
330
CD
100
AcDbEntity
  8
Layer 1
 62
     7
420
 16777215
370
    18
100
AcDbVertex
100
AcDb2dVertex
 10
378.0592690058656
 20
-228.6868236627452
 30
0.0
  0
VERTEX
  5
D2
330
CD
100
AcDbEntity
  8
Layer 1
 62
     7
420
 16777215
370
    18
100
AcDbVertex
100
AcDb2dVertex
 10
378.0592690058656
 20
-247.7644476335981
 30
0.0
  0
SEQEND
  5
D4
330
CD
100
AcDbEntity
  8
Layer 1
 62
     7
420
 16777215
370
    18
  0
HATCH
  5
D3
330
41
100
AcDbEntity
  8
Layer 1
 62
    21
420
 16227434
100
AcDbHatch
 10
0.0
 20
0.0
 30
0.0
210
0.0
220
0.0
230
1.0
  2
SOLID
 70
     1
 71
     0
 91
        1
 92
        1
 93
        4
 72
     1
 10
378.0592690058656
 20
-247.7644476335981
 11
314.6050855467183
 21
-247.7644476335981
 72
     1
 10
314.6050855467183
 20
-247.7644476335981
 11
314.6050855467183
 21
-228.6868236627452
 72
     1
 10
314.6050855467183
 20
-228.6868236627452
 11
378.0592690058656
 21
-228.6868236627452
 72
     1
 10
378.0592690058656
 20
-228.6868236627452
 11
378.0592690058656
 21
-247.7644476335981
 97
        0
 75
     2
 76
     1
 98
        0
  0
POLYLINE
  5
D5
330
41
100
AcDbEntity
  8
Layer 1
 62
     7
420
 16777215
370
    18
100
AcDb2dPolyline
 66
     1
 10
0.0
 20
0.0
 30
0.0
  0
VERTEX
  5
D6
330
D5
100
AcDbEntity
  8
Layer 1
 62
     7
420
 16777215
370
    18
100
AcDbVertex
100
AcDb2dVertex
 10
434.8615772536032
 20
-247.7644476335981
 30
0.0
  0
VERTEX
  5
D7
330
D5
100
AcDbEntity
  8
Layer 1
 62
     7
420
 16777215
370
    18
100
AcDbVertex
100
AcDb2dVertex
 10
381.2449114809624
 20
-247.7644476335981
 30
0.0
  0
VERTEX
  5
D8
330
D5
100
AcDbEntity
  8
Layer 1
 62
     7
420
 16777215
370
    18
100
AcDbVertex
100
AcDb2dVertex
 10
381.2449114809624
 20
-228.6868236627452
 30
0.0
  0
VERTEX
  5
D9
330
D5
100
AcDbEntity
  8
Layer 1
 62
     7
420
 16777215
370
    18
100
AcDbVertex
100
AcDb2dVertex
 10
434.8615772536032
 20
-228.6868236627452
 30
0.0
  0
VERTEX
  5
DA
330
D5
100
AcDbEntity
  8
Layer 1
 62
     7
420
 16777215
370
    18
100
AcDbVertex
100
AcDb2dVertex
 10
434.8615772536032
 20
-247.7644476335981
 30
0.0
  0
SEQEND
  5
DC
330
D5
100
AcDbEntity
  8
Layer 1
 62
     7
420
 16777215
370
    18
  0
HATCH
  5
DB
330
41
100
AcDbEntity
  8
Layer 1
 62
    21
420
 16227434
100
AcDbHatch
 10
0.0
 20
0.0
 30
0.0
210
0.0
220
0.0
230
1.0
  2
SOLID
 70
     1
 71
     0
 91
        1
 92
        1
 93
        4
 72
     1
 10
434.8615772536032
 20
-247.7644476335981
 11
381.2449114809624
 21
-247.7644476335981
 72
     1
 10
381.2449114809624
 20
-247.7644476335981
 11
381.2449114809624
 21
-228.6868236627452
 72
     1
 10
381.2449114809624
 20
-228.6868236627452
 11
434.8615772536032
 21
-228.6868236627452
 72
     1
 10
434.8615772536032
 20
-228.6868236627452
 11
434.8615772536032
 21
-247.7644476335981
 97
        0
 75
     2
 76
     1
 98
        0
  0
POLYLINE
  5
DD
330
41
100
AcDbEntity
  8
Layer 1
 62
     7
420
 16777215
370
    18
100
AcDb2dPolyline
 66
     1
 10
0.0
 20
0.0
 30
0.0
  0
VERTEX
  5
DE
330
DD
100
AcDbEntity
  8
Layer 1
 62
     7
420
 16777215
370
    18
100
AcDbVertex
100
AcDb2dVertex
 10
145.3834713889473
 20
-269.7623841279255
 30
0.0
  0
VERTEX
  5
DF
330
DD
100
AcDbEntity
  8
Layer 1
 62
     7
420
 16777215
370
    18
100
AcDbVertex
100
AcDb2dVertex
 10
91.86220495879297
 20
-269.7623841279255
 30
0.0
  0
VERTEX
  5
E0
330
DD
100
AcDbEntity
  8
Layer 1
 62
     7
420
 16777215
370
    18
100
AcDbVertex
100
AcDb2dVertex
 10
91.86220495879297
 20
-250.6850836513822
 30
0.0
  0
VERTEX
  5
E1
330
DD
100
AcDbEntity
  8
Layer 1
 62
     7
420
 16777215
370
    18
100
AcDbVertex
100
AcDb2dVertex
 10
145.3834713889473
 20
-250.6850836513822
 30
0.0
  0
VERTEX
  5
E2
330
DD
100
AcDbEntity
  8
Layer 1
 62
     7
420
 16777215
370
    18
100
AcDbVertex
100
AcDb2dVertex
 10
145.3834713889473
 20
-269.7623841279255
 30
0.0
  0
SEQEND
  5
E4
330
DD
100
AcDbEntity
  8
Layer 1
 62
     7
420
 16777215
370
    18
  0
HATCH
  5
E3
330
41
100
AcDbEntity
  8
Layer 1
 62
    21
420
 16227434
100
AcDbHatch
 10
0.0
 20
0.0
 30
0.0
210
0.0
220
0.0
230
1.0
  2
SOLID
 70
     1
 71
     0
 91
        1
 92
        1
 93
        4
 72
     1
 10
145.3834713889473
 20
-269.7623841279255
 11
91.86220495879297
 21
-269.7623841279255
 72
     1
 10
91.86220495879297
 20
-269.7623841279255
 11
91.86220495879297
 21
-250.6850836513822
 72
     1
 10
91.86220495879297
 20
-250.6850836513822
 11
145.3834713889473
 21
-250.6850836513822
 72
     1
 10
145.3834713889473
 20
-250.6850836513822
 11
145.3834713889473
 21
-269.7623841279255
 97
        0
 75
     2
 76
     1
 98
        0
  0
POLYLINE
  5
E5
330
41
100
AcDbEntity
  8
Layer 1
 62
     7
420
 16777215
370
    18
100
AcDb2dPolyline
 66
     1
 10
0.0
 20
0.0
 30
0.0
  0
VERTEX
  5
E6
330
E5
100
AcDbEntity
  8
Layer 1
 62
     7
420
 16777215
370
    18
100
AcDbVertex
100
AcDb2dVertex
 10
212.0232959408513
 20
-269.7623841279255
 30
0.0
  0
VERTEX
  5
E7
330
E5
100
AcDbEntity
  8
Layer 1
 62
     7
420
 16777215
370
    18
100
AcDbVertex
100
AcDb2dVertex
 10
148.5691139445207
 20
-269.7623841279255
 30
0.0
  0
VERTEX
  5
E8
330
E5
100
AcDbEntity
  8
Layer 1
 62
     7
420
 16777215
370
    18
100
AcDbVertex
100
AcDb2dVertex
 10
148.5691139445207
 20
-250.6850836513822
 30
0.0
  0
VERTEX
  5
E9
330
E5
100
AcDbEntity
  8
Layer 1
 62
     7
420
 16777215
370
    18
100
AcDbVertex
100
AcDb2dVertex
 10
212.0232959408513
 20
-250.6850836513822
 30
0.0
  0
VERTEX
  5
EA
330
E5
100
AcDbEntity
  8
Layer 1
 62
     7
420
 16777215
370
    18
100
AcDbVertex
100
AcDb2dVertex
 10
212.0232959408513
 20
-269.7623841279255
 30
0.0
  0
SEQEND
  5
EC
330
E5
100
AcDbEntity
  8
Layer 1
 62
     7
420
 16777215
370
    18
  0
HATCH
  5
EB
330
41
100
AcDbEntity
  8
Layer 1
 62
    21
420
 16227434
100
AcDbHatch
 10
0.0
 20
0.0
 30
0.0
210
0.0
220
0.0
230
1.0
  2
SOLID
 70
     1
 71
     0
 91
        1
 92
        1
 93
        4
 72
     1
 10
212.0232959408513
 20
-269.7623841279255
 11
148.5691139445207
 21
-269.7623841279255
 72
     1
 10
148.5691139445207
 20
-269.7623841279255
 11
148.5691139445207
 21
-250.6850836513822
 72
     1
 10
148.5691139445207
 20
-250.6850836513822
 11
212.0232959408513
 21
-250.6850836513822
 72
     1
 10
212.0232959408513
 20
-250.6850836513822
 11
212.0232959408513
 21
-269.7623841279255
 97
        0
 75
     2
 76
     1
 98
        0
  0
POLYLINE
  5
ED
330
41
100
AcDbEntity
  8
Layer 1
 62
     7
420
 16777215
370
    18
100
AcDb2dPolyline
 66
     1
 10
0.0
 20
0.0
 30
0.0
  0
VERTEX
  5
EE
330
ED
100
AcDbEntity
  8
Layer 1
 62
     7
420
 16777215
370
    18
100
AcDbVertex
100
AcDb2dVertex
 10
278.6631218750954
 20
-269.7623841279255
 30
0.0
  0
VERTEX
  5
EF
330
ED
100
AcDbEntity
  8
Layer 1
 62
     7
420
 16777215
370
    18
100
AcDbVertex
100
AcDb2dVertex
 10
215.2089415622277
 20
-269.7623841279255
 30
0.0
  0
VERTEX
  5
F0
330
ED
100
AcDbEntity
  8
Layer 1
 62
     7
420
 16777215
370
    18
100
AcDbVertex
100
AcDb2dVertex
 10
215.2089415622277
 20
-250.6850836513822
 30
0.0
  0
VERTEX
  5
F1
330
ED
100
AcDbEntity
  8
Layer 1
 62
     7
420
 16777215
370
    18
100
AcDbVertex
100
AcDb2dVertex
 10
278.6631218750954
 20
-250.6850836513822
 30
0.0
  0
VERTEX
  5
F2
330
ED
100
AcDbEntity
  8
Layer 1
 62
     7
420
 16777215
370
    18
100
AcDbVertex
100
AcDb2dVertex
 10
278.6631218750954
 20
-269.7623841279255
 30
0.0
  0
SEQEND
  5
F4
330
ED
100
AcDbEntity
  8
Layer 1
 62
     7
420
 16777215
370
    18
  0
HATCH
  5
F3
330
41
100
AcDbEntity
  8
Layer 1
 62
    21
420
 16227434
100
AcDbHatch
 10
0.0
 20
0.0
 30
0.0
210
0.0
220
0.0
230
1.0
  2
SOLID
 70
     1
 71
     0
 91
        1
 92
        1
 93
        4
 72
     1
 10
278.6631218750954
 20
-269.7623841279255
 11
215.2089415622277
 21
-269.7623841279255
 72
     1
 10
215.2089415622277
 20
-269.7623841279255
 11
215.2089415622277
 21
-250.6850836513822
 72
     1
 10
215.2089415622277
 20
-250.6850836513822
 11
278.6631218750954
 21
-250.6850836513822
 72
     1
 10
278.6631218750954
 20
-250.6850836513822
 11
278.6631218750954
 21
-269.7623841279255
 97
        0
 75
     2
 76
     1
 98
        0
  0
POLYLINE
  5
F5
330
41
100
AcDbEntity
  8
Layer 1
 62
     7
420
 16777215
370
    18
100
AcDb2dPolyline
 66
     1
 10
0.0
 20
0.0
 30
0.0
  0
VERTEX
  5
F6
330
F5
100
AcDbEntity
  8
Layer 1
 62
     7
420
 16777215
370
    18
100
AcDbVertex
100
AcDb2dVertex
 10
345.3029478093376
 20
-269.7623841279255
 30
0.0
  0
VERTEX
  5
F7
330
F5
100
AcDbEntity
  8
Layer 1
 62
     7
420
 16777215
370
    18
100
AcDbVertex
100
AcDb2dVertex
 10
281.8487691799346
 20
-269.7623841279255
 30
0.0
  0
VERTEX
  5
F8
330
F5
100
AcDbEntity
  8
Layer 1
 62
     7
420
 16777215
370
    18
100
AcDbVertex
100
AcDb2dVertex
 10
281.8487691799346
 20
-250.6850836513822
 30
0.0
  0
VERTEX
  5
F9
330
F5
100
AcDbEntity
  8
Layer 1
 62
     7
420
 16777215
370
    18
100
AcDbVertex
100
AcDb2dVertex
 10
345.3029478093376
 20
-250.6850836513822
 30
0.0
  0
VERTEX
  5
FA
330
F5
100
AcDbEntity
  8
Layer 1
 62
     7
420
 16777215
370
    18
100
AcDbVertex
100
AcDb2dVertex
 10
345.3029478093376
 20
-269.7623841279255
 30
0.0
  0
SEQEND
  5
FC
330
F5
100
AcDbEntity
  8
Layer 1
 62
     7
420
 16777215
370
    18
  0
HATCH
  5
FB
330
41
100
AcDbEntity
  8
Layer 1
 62
    21
420
 16227434
100
AcDbHatch
 10
0.0
 20
0.0
 30
0.0
210
0.0
220
0.0
230
1.0
  2
SOLID
 70
     1
 71
     0
 91
        1
 92
        1
 93
        4
 72
     1
 10
345.3029478093376
 20
-269.7623841279255
 11
281.8487691799346
 21
-269.7623841279255
 72
     1
 10
281.8487691799346
 20
-269.7623841279255
 11
281.8487691799346
 21
-250.6850836513822
 72
     1
 10
281.8487691799346
 20
-250.6850836513822
 11
345.3029478093376
 21
-250.6850836513822
 72
     1
 10
345.3029478093376
 20
-250.6850836513822
 11
345.3029478093376
 21
-269.7623841279255
 97
        0
 75
     2
 76
     1
 98
        0
  0
POLYLINE
  5
FD
330
41
100
AcDbEntity
  8
Layer 1
 62
     7
420
 16777215
370
    18
100
AcDb2dPolyline
 66
     1
 10
0.0
 20
0.0
 30
0.0
  0
VERTEX
  5
FE
330
FD
100
AcDbEntity
  8
Layer 1
 62
     7
420
 16777215
370
    18
100
AcDbVertex
100
AcDb2dVertex
 10
411.9427737435817
 20
-269.7623841279255
 30
0.0
  0
VERTEX
  5
FF
330
FD
100
AcDbEntity
  8
Layer 1
 62
     7
420
 16777215
370
    18
100
AcDbVertex
100
AcDb2dVertex
 10
348.4885967976425
 20
-269.7623841279255
 30
0.0
  0
VERTEX
  5
100
330
FD
100
AcDbEntity
  8
Layer 1
 62
     7
420
 16777215
370
    18
100
AcDbVertex
100
AcDb2dVertex
 10
348.4885967976425
 20
-250.6850836513822
 30
0.0
  0
VERTEX
  5
101
330
FD
100
AcDbEntity
  8
Layer 1
 62
     7
420
 16777215
370
    18
100
AcDbVertex
100
AcDb2dVertex
 10
411.9427737435817
 20
-250.6850836513822
 30
0.0
  0
VERTEX
  5
102
330
FD
100
AcDbEntity
  8
Layer 1
 62
     7
420
 16777215
370
    18
100
AcDbVertex
100
AcDb2dVertex
 10
411.9427737435817
 20
-269.7623841279255
 30
0.0
  0
SEQEND
  5
104
330
FD
100
AcDbEntity
  8
Layer 1
 62
     7
420
 16777215
370
    18
  0
HATCH
  5
103
330
41
100
AcDbEntity
  8
Layer 1
 62
    21
420
 16227434
100
AcDbHatch
 10
0.0
 20
0.0
 30
0.0
210
0.0
220
0.0
230
1.0
  2
SOLID
 70
     1
 71
     0
 91
        1
 92
        1
 93
        4
 72
     1
 10
411.9427737435817
 20
-269.7623841279255
 11
348.4885967976425
 21
-269.7623841279255
 72
     1
 10
348.4885967976425
 20
-269.7623841279255
 11
348.4885967976425
 21
-250.6850836513822
 72
     1
 10
348.4885967976425
 20
-250.6850836513822
 11
411.9427737435817
 21
-250.6850836513822
 72
     1
 10
411.9427737435817
 20
-250.6850836513822
 11
411.9427737435817
 21
-269.7623841279255
 97
        0
 75
     2
 76
     1
 98
        0
  0
POLYLINE
  5
105
330
41
100
AcDbEntity
  8
Layer 1
 62
     7
420
 16777215
370
    18
100
AcDb2dPolyline
 66
     1
 10
0.0
 20
0.0
 30
0.0
  0
VERTEX
  5
106
330
105
100
AcDbEntity
  8
Layer 1
 62
     7
420
 16777215
370
    18
100
AcDbVertex
100
AcDb2dVertex
 10
434.8615772536032
 20
-269.7623841279255
 30
0.0
  0
VERTEX
  5
107
330
105
100
AcDbEntity
  8
Layer 1
 62
     7
420
 16777215
370
    18
100
AcDbVertex
100
AcDb2dVertex
 10
415.1284244153503
 20
-269.7623841279255
 30
0.0
  0
VERTEX
  5
108
330
105
100
AcDbEntity
  8
Layer 1
 62
     7
420
 16777215
370
    18
100
AcDbVertex
100
AcDb2dVertex
 10
415.1284244153503
 20
-250.6850836513822
 30
0.0
  0
VERTEX
  5
109
330
105
100
AcDbEntity
  8
Layer 1
 62
     7
420
 16777215
370
    18
100
AcDbVertex
100
AcDb2dVertex
 10
434.8615772536032
 20
-250.6850836513822
 30
0.0
  0
VERTEX
  5
10A
330
105
100
AcDbEntity
  8
Layer 1
 62
     7
420
 16777215
370
    18
100
AcDbVertex
100
AcDb2dVertex
 10
434.8615772536032
 20
-269.7623841279255
 30
0.0
  0
SEQEND
  5
10C
330
105
100
AcDbEntity
  8
Layer 1
 62
     7
420
 16777215
370
    18
  0
HATCH
  5
10B
330
41
100
AcDbEntity
  8
Layer 1
 62
    21
420
 16227434
100
AcDbHatch
 10
0.0
 20
0.0
 30
0.0
210
0.0
220
0.0
230
1.0
  2
SOLID
 70
     1
 71
     0
 91
        1
 92
        1
 93
        4
 72
     1
 10
434.8615772536032
 20
-269.7623841279255
 11
415.1284244153503
 21
-269.7623841279255
 72
     1
 10
415.1284244153503
 20
-269.7623841279255
 11
415.1284244153503
 21
-250.6850836513822
 72
     1
 10
415.1284244153503
 20
-250.6850836513822
 11
434.8615772536032
 21
-250.6850836513822
 72
     1
 10
434.8615772536032
 20
-250.6850836513822
 11
434.8615772536032
 21
-269.7623841279255
 97
        0
 75
     2
 76
     1
 98
        0
  0
POLYLINE
  5
10D
330
41
100
AcDbEntity
  8
Layer 1
 62
     7
420
 16777215
370
    18
100
AcDb2dPolyline
 66
     1
 10
0.0
 20
0.0
 30
0.0
  0
VERTEX
  5
10E
330
10D
100
AcDbEntity
  8
Layer 1
 62
     7
420
 16777215
370
    18
100
AcDbVertex
100
AcDb2dVertex
 10
434.8615772536032
 20
-315.2683285501735
 30
0.0
  0
VERTEX
  5
10F
330
10D
100
AcDbEntity
  8
Layer 1
 62
     7
420
 16777215
370
    18
100
AcDbVertex
100
AcDb2dVertex
 10
415.1284244153503
 20
-315.2683285501735
 30
0.0
  0
VERTEX
  5
110
330
10D
100
AcDbEntity
  8
Layer 1
 62
     7
420
 16777215
370
    18
100
AcDbVertex
100
AcDb2dVertex
 10
415.1284244153503
 20
-296.1909633747682
 30
0.0
  0
VERTEX
  5
111
330
10D
100
AcDbEntity
  8
Layer 1
 62
     7
420
 16777215
370
    18
100
AcDbVertex
100
AcDb2dVertex
 10
434.8615772536032
 20
-296.1909633747682
 30
0.0
  0
VERTEX
  5
112
330
10D
100
AcDbEntity
  8
Layer 1
 62
     7
420
 16777215
370
    18
100
AcDbVertex
100
AcDb2dVertex
 10
434.8615772536032
 20
-315.2683285501735
 30
0.0
  0
SEQEND
  5
114
330
10D
100
AcDbEntity
  8
Layer 1
 62
     7
420
 16777215
370
    18
  0
HATCH
  5
113
330
41
100
AcDbEntity
  8
Layer 1
 62
    21
420
 16227434
100
AcDbHatch
 10
0.0
 20
0.0
 30
0.0
210
0.0
220
0.0
230
1.0
  2
SOLID
 70
     1
 71
     0
 91
        1
 92
        1
 93
        4
 72
     1
 10
434.8615772536032
 20
-315.2683285501735
 11
415.1284244153503
 21
-315.2683285501735
 72
     1
 10
415.1284244153503
 20
-315.2683285501735
 11
415.1284244153503
 21
-296.1909633747682
 72
     1
 10
415.1284244153503
 20
-296.1909633747682
 11
434.8615772536032
 21
-296.1909633747682
 72
     1
 10
434.8615772536032
 20
-296.1909633747682
 11
434.8615772536032
 21
-315.2683285501735
 97
        0
 75
     2
 76
     1
 98
        0
  0
POLYLINE
  5
115
330
41
100
AcDbEntity
  8
Layer 1
 62
     7
420
 16777215
370
    18
100
AcDb2dPolyline
 66
     1
 10
0.0
 20
0.0
 30
0.0
  0
VERTEX
  5
116
330
115
100
AcDbEntity
  8
Layer 1
 62
     7
420
 16777215
370
    18
100
AcDbVertex
100
AcDb2dVertex
 10
178.1401146974349
 20
-292.8385271535644
 30
0.0
  0
VERTEX
  5
117
330
115
100
AcDbEntity
  8
Layer 1
 62
     7
420
 16777215
370
    18
100
AcDbVertex
100
AcDb2dVertex
 10
114.6859318451416
 20
-292.8385271535644
 30
0.0
  0
VERTEX
  5
118
330
115
100
AcDbEntity
  8
Layer 1
 62
     7
420
 16777215
370
    18
100
AcDbVertex
100
AcDb2dVertex
 10
114.6859318451416
 20
-273.7612266770211
 30
0.0
  0
VERTEX
  5
119
330
115
100
AcDbEntity
  8
Layer 1
 62
     7
420
 16777215
370
    18
100
AcDbVertex
100
AcDb2dVertex
 10
178.1401146974349
 20
-273.7612266770211
 30
0.0
  0
VERTEX
  5
11A
330
115
100
AcDbEntity
  8
Layer 1
 62
     7
420
 16777215
370
    18
100
AcDbVertex
100
AcDb2dVertex
 10
178.1401146974349
 20
-292.8385271535644
 30
0.0
  0
SEQEND
  5
11C
330
115
100
AcDbEntity
  8
Layer 1
 62
     7
420
 16777215
370
    18
  0
HATCH
  5
11B
330
41
100
AcDbEntity
  8
Layer 1
 62
    21
420
 16227434
100
AcDbHatch
 10
0.0
 20
0.0
 30
0.0
210
0.0
220
0.0
230
1.0
  2
SOLID
 70
     1
 71
     0
 91
        1
 92
        1
 93
        4
 72
     1
 10
178.1401146974349
 20
-292.8385271535644
 11
114.6859318451416
 21
-292.8385271535644
 72
     1
 10
114.6859318451416
 20
-292.8385271535644
 11
114.6859318451416
 21
-273.7612266770211
 72
     1
 10
114.6859318451416
 20
-273.7612266770211
 11
178.1401146974349
 21
-273.7612266770211
 72
     1
 10
178.1401146974349
 20
-273.7612266770211
 11
178.1401146974349
 21
-292.8385271535644
 97
        0
 75
     2
 76
     1
 98
        0
  0
POLYLINE
  5
11D
330
41
100
AcDbEntity
  8
Layer 1
 62
     7
420
 16777215
370
    18
100
AcDb2dPolyline
 66
     1
 10
0.0
 20
0.0
 30
0.0
  0
VERTEX
  5
11E
330
11D
100
AcDbEntity
  8
Layer 1
 62
     7
420
 16777215
370
    18
100
AcDbVertex
100
AcDb2dVertex
 10
244.7796171373784
 20
-292.8385271535644
 30
0.0
  0
VERTEX
  5
11F
330
11D
100
AcDbEntity
  8
Layer 1
 62
     7
420
 16777215
370
    18
100
AcDbVertex
100
AcDb2dVertex
 10
181.3257571725317
 20
-292.8385271535644
 30
0.0
  0
VERTEX
  5
120
330
11D
100
AcDbEntity
  8
Layer 1
 62
     7
420
 16777215
370
    18
100
AcDbVertex
100
AcDb2dVertex
 10
181.3257571725317
 20
-273.7612266770211
 30
0.0
  0
VERTEX
  5
121
330
11D
100
AcDbEntity
  8
Layer 1
 62
     7
420
 16777215
370
    18
100
AcDbVertex
100
AcDb2dVertex
 10
244.7796171373784
 20
-273.7612266770211
 30
0.0
  0
VERTEX
  5
122
330
11D
100
AcDbEntity
  8
Layer 1
 62
     7
420
 16777215
370
    18
100
AcDbVertex
100
AcDb2dVertex
 10
244.7796171373784
 20
-292.8385271535644
 30
0.0
  0
SEQEND
  5
124
330
11D
100
AcDbEntity
  8
Layer 1
 62
     7
420
 16777215
370
    18
  0
HATCH
  5
123
330
41
100
AcDbEntity
  8
Layer 1
 62
    21
420
 16227434
100
AcDbHatch
 10
0.0
 20
0.0
 30
0.0
210
0.0
220
0.0
230
1.0
  2
SOLID
 70
     1
 71
     0
 91
        1
 92
        1
 93
        4
 72
     1
 10
244.7796171373784
 20
-292.8385271535644
 11
181.3257571725317
 21
-292.8385271535644
 72
     1
 10
181.3257571725317
 20
-292.8385271535644
 11
181.3257571725317
 21
-273.7612266770211
 72
     1
 10
181.3257571725317
 20
-273.7612266770211
 11
244.7796171373784
 21
-273.7612266770211
 72
     1
 10
244.7796171373784
 20
-273.7612266770211
 11
244.7796171373784
 21
-292.8385271535644
 97
        0
 75
     2
 76
     1
 98
        0
  0
POLYLINE
  5
125
330
41
100
AcDbEntity
  8
Layer 1
 62
     7
420
 16777215
370
    18
100
AcDb2dPolyline
 66
     1
 10
0.0
 20
0.0
 30
0.0
  0
VERTEX
  5
126
330
125
100
AcDbEntity
  8
Layer 1
 62
     7
420
 16777215
370
    18
100
AcDbVertex
100
AcDb2dVertex
 10
311.4194430716216
 20
-292.8385271535644
 30
0.0
  0
VERTEX
  5
127
330
125
100
AcDbEntity
  8
Layer 1
 62
     7
420
 16777215
370
    18
100
AcDbVertex
100
AcDb2dVertex
 10
247.9652596124752
 20
-292.8385271535644
 30
0.0
  0
VERTEX
  5
128
330
125
100
AcDbEntity
  8
Layer 1
 62
     7
420
 16777215
370
    18
100
AcDbVertex
100
AcDb2dVertex
 10
247.9652596124752
 20
-273.7612266770211
 30
0.0
  0
VERTEX
  5
129
330
125
100
AcDbEntity
  8
Layer 1
 62
     7
420
 16777215
370
    18
100
AcDbVertex
100
AcDb2dVertex
 10
311.4194430716216
 20
-273.7612266770211
 30
0.0
  0
VERTEX
  5
12A
330
125
100
AcDbEntity
  8
Layer 1
 62
     7
420
 16777215
370
    18
100
AcDbVertex
100
AcDb2dVertex
 10
311.4194430716216
 20
-292.8385271535644
 30
0.0
  0
SEQEND
  5
12C
330
125
100
AcDbEntity
  8
Layer 1
 62
     7
420
 16777215
370
    18
  0
HATCH
  5
12B
330
41
100
AcDbEntity
  8
Layer 1
 62
    21
420
 16227434
100
AcDbHatch
 10
0.0
 20
0.0
 30
0.0
210
0.0
220
0.0
230
1.0
  2
SOLID
 70
     1
 71
     0
 91
        1
 92
        1
 93
        4
 72
     1
 10
311.4194430716216
 20
-292.8385271535644
 11
247.9652596124752
 21
-292.8385271535644
 72
     1
 10
247.9652596124752
 20
-292.8385271535644
 11
247.9652596124752
 21
-273.7612266770211
 72
     1
 10
247.9652596124752
 20
-273.7612266770211
 11
311.4194430716216
 21
-273.7612266770211
 72
     1
 10
311.4194430716216
 20
-273.7612266770211
 11
311.4194430716216
 21
-292.8385271535644
 97
        0
 75
     2
 76
     1
 98
        0
  0
POLYLINE
  5
12D
330
41
100
AcDbEntity
  8
Layer 1
 62
     7
420
 16777215
370
    18
100
AcDb2dPolyline
 66
     1
 10
0.0
 20
0.0
 30
0.0
  0
VERTEX
  5
12E
330
12D
100
AcDbEntity
  8
Layer 1
 62
     7
420
 16777215
370
    18
100
AcDbVertex
100
AcDb2dVertex
 10
378.0592690058656
 20
-292.8385271535644
 30
0.0
  0
VERTEX
  5
12F
330
12D
100
AcDbEntity
  8
Layer 1
 62
     7
420
 16777215
370
    18
100
AcDbVertex
100
AcDb2dVertex
 10
314.6050855467183
 20
-292.8385271535644
 30
0.0
  0
VERTEX
  5
130
330
12D
100
AcDbEntity
  8
Layer 1
 62
     7
420
 16777215
370
    18
100
AcDbVertex
100
AcDb2dVertex
 10
314.6050855467183
 20
-273.7612266770211
 30
0.0
  0
VERTEX
  5
131
330
12D
100
AcDbEntity
  8
Layer 1
 62
     7
420
 16777215
370
    18
100
AcDbVertex
100
AcDb2dVertex
 10
378.0592690058656
 20
-273.7612266770211
 30
0.0
  0
VERTEX
  5
132
330
12D
100
AcDbEntity
  8
Layer 1
 62
     7
420
 16777215
370
    18
100
AcDbVertex
100
AcDb2dVertex
 10
378.0592690058656
 20
-292.8385271535644
 30
0.0
  0
SEQEND
  5
134
330
12D
100
AcDbEntity
  8
Layer 1
 62
     7
420
 16777215
370
    18
  0
HATCH
  5
133
330
41
100
AcDbEntity
  8
Layer 1
 62
    21
420
 16227434
100
AcDbHatch
 10
0.0
 20
0.0
 30
0.0
210
0.0
220
0.0
230
1.0
  2
SOLID
 70
     1
 71
     0
 91
        1
 92
        1
 93
        4
 72
     1
 10
378.0592690058656
 20
-292.8385271535644
 11
314.6050855467183
 21
-292.8385271535644
 72
     1
 10
314.6050855467183
 20
-292.8385271535644
 11
314.6050855467183
 21
-273.7612266770211
 72
     1
 10
314.6050855467183
 20
-273.7612266770211
 11
378.0592690058656
 21
-273.7612266770211
 72
     1
 10
378.0592690058656
 20
-273.7612266770211
 11
378.0592690058656
 21
-292.8385271535644
 97
        0
 75
     2
 76
     1
 98
        0
  0
POLYLINE
  5
135
330
41
100
AcDbEntity
  8
Layer 1
 62
     7
420
 16777215
370
    18
100
AcDb2dPolyline
 66
     1
 10
0.0
 20
0.0
 30
0.0
  0
VERTEX
  5
136
330
135
100
AcDbEntity
  8
Layer 1
 62
     7
420
 16777215
370
    18
100
AcDbVertex
100
AcDb2dVertex
 10
434.8615772536032
 20
-292.8385271535644
 30
0.0
  0
VERTEX
  5
137
330
135
100
AcDbEntity
  8
Layer 1
 62
     7
420
 16777215
370
    18
100
AcDbVertex
100
AcDb2dVertex
 10
381.2449114809624
 20
-292.8385271535644
 30
0.0
  0
VERTEX
  5
138
330
135
100
AcDbEntity
  8
Layer 1
 62
     7
420
 16777215
370
    18
100
AcDbVertex
100
AcDb2dVertex
 10
381.2449114809624
 20
-273.7612266770211
 30
0.0
  0
VERTEX
  5
139
330
135
100
AcDbEntity
  8
Layer 1
 62
     7
420
 16777215
370
    18
100
AcDbVertex
100
AcDb2dVertex
 10
434.8615772536032
 20
-273.7612266770211
 30
0.0
  0
VERTEX
  5
13A
330
135
100
AcDbEntity
  8
Layer 1
 62
     7
420
 16777215
370
    18
100
AcDbVertex
100
AcDb2dVertex
 10
434.8615772536032
 20
-292.8385271535644
 30
0.0
  0
SEQEND
  5
13C
330
135
100
AcDbEntity
  8
Layer 1
 62
     7
420
 16777215
370
    18
  0
HATCH
  5
13B
330
41
100
AcDbEntity
  8
Layer 1
 62
    21
420
 16227434
100
AcDbHatch
 10
0.0
 20
0.0
 30
0.0
210
0.0
220
0.0
230
1.0
  2
SOLID
 70
     1
 71
     0
 91
        1
 92
        1
 93
        4
 72
     1
 10
434.8615772536032
 20
-292.8385271535644
 11
381.2449114809624
 21
-292.8385271535644
 72
     1
 10
381.2449114809624
 20
-292.8385271535644
 11
381.2449114809624
 21
-273.7612266770211
 72
     1
 10
381.2449114809624
 20
-273.7612266770211
 11
434.8615772536032
 21
-273.7612266770211
 72
     1
 10
434.8615772536032
 20
-273.7612266770211
 11
434.8615772536032
 21
-292.8385271535644
 97
        0
 75
     2
 76
     1
 98
        0
  0
POLYLINE
  5
13D
330
41
100
AcDbEntity
  8
Layer 1
 62
     7
420
 16777215
370
    18
100
AcDb2dPolyline
 66
     1
 10
0.0
 20
0.0
 30
0.0
  0
VERTEX
  5
13E
330
13D
100
AcDbEntity
  8
Layer 1
 62
     7
420
 16777215
370
    18
100
AcDbVertex
100
AcDb2dVertex
 10
145.3837948832552
 20
-315.267681561555
 30
0.0
  0
VERTEX
  5
13F
330
13D
100
AcDbEntity
  8
Layer 1
 62
     7
420
 16777215
370
    18
100
AcDbVertex
100
AcDb2dVertex
 10
91.86252198321563
 20
-315.267681561555
 30
0.0
  0
VERTEX
  5
140
330
13D
100
AcDbEntity
  8
Layer 1
 62
     7
420
 16777215
370
    18
100
AcDbVertex
100
AcDb2dVertex
 10
91.86252198321563
 20
-296.1903810850126
 30
0.0
  0
VERTEX
  5
141
330
13D
100
AcDbEntity
  8
Layer 1
 62
     7
420
 16777215
370
    18
100
AcDbVertex
100
AcDb2dVertex
 10
145.3837948832552
 20
-296.1903810850126
 30
0.0
  0
VERTEX
  5
142
330
13D
100
AcDbEntity
  8
Layer 1
 62
     7
420
 16777215
370
    18
100
AcDbVertex
100
AcDb2dVertex
 10
145.3837948832552
 20
-315.267681561555
 30
0.0
  0
SEQEND
  5
144
330
13D
100
AcDbEntity
  8
Layer 1
 62
     7
420
 16777215
370
    18
  0
HATCH
  5
143
330
41
100
AcDbEntity
  8
Layer 1
 62
    21
420
 16227434
100
AcDbHatch
 10
0.0
 20
0.0
 30
0.0
210
0.0
220
0.0
230
1.0
  2
SOLID
 70
     1
 71
     0
 91
        1
 92
        1
 93
        4
 72
     1
 10
145.3837948832552
 20
-315.267681561555
 11
91.86252198321563
 21
-315.267681561555
 72
     1
 10
91.86252198321563
 20
-315.267681561555
 11
91.86252198321563
 21
-296.1903810850126
 72
     1
 10
91.86252198321563
 20
-296.1903810850126
 11
145.3837948832552
 21
-296.1903810850126
 72
     1
 10
145.3837948832552
 20
-296.1903810850126
 11
145.3837948832552
 21
-315.267681561555
 97
        0
 75
     2
 76
     1
 98
        0
  0
POLYLINE
  5
145
330
41
100
AcDbEntity
  8
Layer 1
 62
     7
420
 16777215
370
    18
100
AcDb2dPolyline
 66
     1
 10
0.0
 20
0.0
 30
0.0
  0
VERTEX
  5
146
330
145
100
AcDbEntity
  8
Layer 1
 62
     7
420
 16777215
370
    18
100
AcDbVertex
100
AcDb2dVertex
 10
212.0232959408513
 20
-315.267681561555
 30
0.0
  0
VERTEX
  5
147
330
145
100
AcDbEntity
  8
Layer 1
 62
     7
420
 16777215
370
    18
100
AcDbVertex
100
AcDb2dVertex
 10
148.5694374388286
 20
-315.267681561555
 30
0.0
  0
VERTEX
  5
148
330
145
100
AcDbEntity
  8
Layer 1
 62
     7
420
 16777215
370
    18
100
AcDbVertex
100
AcDb2dVertex
 10
148.5694374388286
 20
-296.1903810850126
 30
0.0
  0
VERTEX
  5
149
330
145
100
AcDbEntity
  8
Layer 1
 62
     7
420
 16777215
370
    18
100
AcDbVertex
100
AcDb2dVertex
 10
212.0232959408513
 20
-296.1903810850126
 30
0.0
  0
VERTEX
  5
14A
330
145
100
AcDbEntity
  8
Layer 1
 62
     7
420
 16777215
370
    18
100
AcDbVertex
100
AcDb2dVertex
 10
212.0232959408513
 20
-315.267681561555
 30
0.0
  0
SEQEND
  5
14C
330
145
100
AcDbEntity
  8
Layer 1
 62
     7
420
 16777215
370
    18
  0
HATCH
  5
14B
330
41
100
AcDbEntity
  8
Layer 1
 62
    21
420
 16227434
100
AcDbHatch
 10
0.0
 20
0.0
 30
0.0
210
0.0
220
0.0
230
1.0
  2
SOLID
 70
     1
 71
     0
 91
        1
 92
        1
 93
        4
 72
     1
 10
212.0232959408513
 20
-315.267681561555
 11
148.5694374388286
 21
-315.267681561555
 72
     1
 10
148.5694374388286
 20
-315.267681561555
 11
148.5694374388286
 21
-296.1903810850126
 72
     1
 10
148.5694374388286
 20
-296.1903810850126
 11
212.0232959408513
 21
-296.1903810850126
 72
     1
 10
212.0232959408513
 20
-296.1903810850126
 11
212.0232959408513
 21
-315.267681561555
 97
        0
 75
     2
 76
     1
 98
        0
  0
POLYLINE
  5
14D
330
41
100
AcDbEntity
  8
Layer 1
 62
     7
420
 16777215
370
    18
100
AcDb2dPolyline
 66
     1
 10
0.0
 20
0.0
 30
0.0
  0
VERTEX
  5
14E
330
14D
100
AcDbEntity
  8
Layer 1
 62
     7
420
 16777215
370
    18
100
AcDbVertex
100
AcDb2dVertex
 10
278.6631218750954
 20
-315.267681561555
 30
0.0
  0
VERTEX
  5
14F
330
14D
100
AcDbEntity
  8
Layer 1
 62
     7
420
 16777215
370
    18
100
AcDbVertex
100
AcDb2dVertex
 10
215.2089415622277
 20
-315.267681561555
 30
0.0
  0
VERTEX
  5
150
330
14D
100
AcDbEntity
  8
Layer 1
 62
     7
420
 16777215
370
    18
100
AcDbVertex
100
AcDb2dVertex
 10
215.2089415622277
 20
-296.1903810850126
 30
0.0
  0
VERTEX
  5
151
330
14D
100
AcDbEntity
  8
Layer 1
 62
     7
420
 16777215
370
    18
100
AcDbVertex
100
AcDb2dVertex
 10
278.6631218750954
 20
-296.1903810850126
 30
0.0
  0
VERTEX
  5
152
330
14D
100
AcDbEntity
  8
Layer 1
 62
     7
420
 16777215
370
    18
100
AcDbVertex
100
AcDb2dVertex
 10
278.6631218750954
 20
-315.267681561555
 30
0.0
  0
SEQEND
  5
154
330
14D
100
AcDbEntity
  8
Layer 1
 62
     7
420
 16777215
370
    18
  0
HATCH
  5
153
330
41
100
AcDbEntity
  8
Layer 1
 62
    21
420
 16227434
100
AcDbHatch
 10
0.0
 20
0.0
 30
0.0
210
0.0
220
0.0
230
1.0
  2
SOLID
 70
     1
 71
     0
 91
        1
 92
        1
 93
        4
 72
     1
 10
278.6631218750954
 20
-315.267681561555
 11
215.2089415622277
 21
-315.267681561555
 72
     1
 10
215.2089415622277
 20
-315.267681561555
 11
215.2089415622277
 21
-296.1903810850126
 72
     1
 10
215.2089415622277
 20
-296.1903810850126
 11
278.6631218750954
 21
-296.1903810850126
 72
     1
 10
278.6631218750954
 20
-296.1903810850126
 11
278.6631218750954
 21
-315.267681561555
 97
        0
 75
     2
 76
     1
 98
        0
  0
POLYLINE
  5
155
330
41
100
AcDbEntity
  8
Layer 1
 62
     7
420
 16777215
370
    18
100
AcDb2dPolyline
 66
     1
 10
0.0
 20
0.0
 30
0.0
  0
VERTEX
  5
156
330
155
100
AcDbEntity
  8
Layer 1
 62
     7
420
 16777215
370
    18
100
AcDbVertex
100
AcDb2dVertex
 10
345.3029478093376
 20
-315.267681561555
 30
0.0
  0
VERTEX
  5
157
330
155
100
AcDbEntity
  8
Layer 1
 62
     7
420
 16777215
370
    18
100
AcDbVertex
100
AcDb2dVertex
 10
281.8487691799346
 20
-315.267681561555
 30
0.0
  0
VERTEX
  5
158
330
155
100
AcDbEntity
  8
Layer 1
 62
     7
420
 16777215
370
    18
100
AcDbVertex
100
AcDb2dVertex
 10
281.8487691799346
 20
-296.1903810850126
 30
0.0
  0
VERTEX
  5
159
330
155
100
AcDbEntity
  8
Layer 1
 62
     7
420
 16777215
370
    18
100
AcDbVertex
100
AcDb2dVertex
 10
345.3029478093376
 20
-296.1903810850126
 30
0.0
  0
VERTEX
  5
15A
330
155
100
AcDbEntity
  8
Layer 1
 62
     7
420
 16777215
370
    18
100
AcDbVertex
100
AcDb2dVertex
 10
345.3029478093376
 20
-315.267681561555
 30
0.0
  0
SEQEND
  5
15C
330
155
100
AcDbEntity
  8
Layer 1
 62
     7
420
 16777215
370
    18
  0
HATCH
  5
15B
330
41
100
AcDbEntity
  8
Layer 1
 62
    21
420
 16227434
100
AcDbHatch
 10
0.0
 20
0.0
 30
0.0
210
0.0
220
0.0
230
1.0
  2
SOLID
 70
     1
 71
     0
 91
        1
 92
        1
 93
        4
 72
     1
 10
345.3029478093376
 20
-315.267681561555
 11
281.8487691799346
 21
-315.267681561555
 72
     1
 10
281.8487691799346
 20
-315.267681561555
 11
281.8487691799346
 21
-296.1903810850126
 72
     1
 10
281.8487691799346
 20
-296.1903810850126
 11
345.3029478093376
 21
-296.1903810850126
 72
     1
 10
345.3029478093376
 20
-296.1903810850126
 11
345.3029478093376
 21
-315.267681561555
 97
        0
 75
     2
 76
     1
 98
        0
  0
POLYLINE
  5
15D
330
41
100
AcDbEntity
  8
Layer 1
 62
     7
420
 16777215
370
    18
100
AcDb2dPolyline
 66
     1
 10
0.0
 20
0.0
 30
0.0
  0
VERTEX
  5
15E
330
15D
100
AcDbEntity
  8
Layer 1
 62
     7
420
 16777215
370
    18
100
AcDbVertex
100
AcDb2dVertex
 10
411.9427737435817
 20
-315.267681561555
 30
0.0
  0
VERTEX
  5
15F
330
15D
100
AcDbEntity
  8
Layer 1
 62
     7
420
 16777215
370
    18
100
AcDbVertex
100
AcDb2dVertex
 10
348.4885967976425
 20
-315.267681561555
 30
0.0
  0
VERTEX
  5
160
330
15D
100
AcDbEntity
  8
Layer 1
 62
     7
420
 16777215
370
    18
100
AcDbVertex
100
AcDb2dVertex
 10
348.4885967976425
 20
-296.1903810850126
 30
0.0
  0
VERTEX
  5
161
330
15D
100
AcDbEntity
  8
Layer 1
 62
     7
420
 16777215
370
    18
100
AcDbVertex
100
AcDb2dVertex
 10
411.9427737435817
 20
-296.1903810850126
 30
0.0
  0
VERTEX
  5
162
330
15D
100
AcDbEntity
  8
Layer 1
 62
     7
420
 16777215
370
    18
100
AcDbVertex
100
AcDb2dVertex
 10
411.9427737435817
 20
-315.267681561555
 30
0.0
  0
SEQEND
  5
164
330
15D
100
AcDbEntity
  8
Layer 1
 62
     7
420
 16777215
370
    18
  0
HATCH
  5
163
330
41
100
AcDbEntity
  8
Layer 1
 62
    21
420
 16227434
100
AcDbHatch
 10
0.0
 20
0.0
 30
0.0
210
0.0
220
0.0
230
1.0
  2
SOLID
 70
     1
 71
     0
 91
        1
 92
        1
 93
        4
 72
     1
 10
411.9427737435817
 20
-315.267681561555
 11
348.4885967976425
 21
-315.267681561555
 72
     1
 10
348.4885967976425
 20
-315.267681561555
 11
348.4885967976425
 21
-296.1903810850126
 72
     1
 10
348.4885967976425
 20
-296.1903810850126
 11
411.9427737435817
 21
-296.1903810850126
 72
     1
 10
411.9427737435817
 20
-296.1903810850126
 11
411.9427737435817
 21
-315.267681561555
 97
        0
 75
     2
 76
     1
 98
        0
  0
ENDBLK
  5
44
330
41
100
AcDbEntity
  8
0
100
AcDbBlockEnd
  0
ENDSEC
  0
SECTION
  2
ENTITIES
  0
INSERT
  5
42
330
1F
100
AcDbEntity
  8
Layer 1
100
AcDbBlockReference
  2
block 2
 10
0.0
 20
0.0
 30
0.0
  0
POLYLINE
  5
165
330
1F
100
AcDbEntity
  8
Layer 1
 62
   250
420
  2301728
370
    18
100
AcDb2dPolyline
 66
     1
 10
0.0
 20
0.0
 30
0.0
  0
VERTEX
  5
166
330
165
100
AcDbEntity
  8
Layer 1
 62
   250
420
  2301728
370
    18
100
AcDbVertex
100
AcDb2dVertex
 10
137.2468131356864
 20
-206.4737634530484
 30
0.0
  0
VERTEX
  5
167
330
165
100
AcDbEntity
  8
Layer 1
 62
   250
420
  2301728
370
    18
100
AcDbVertex
100
AcDb2dVertex
 10
131.9091570400933
 20
-206.4737634530484
 30
0.0
  0
VERTEX
  5
168
330
165
100
AcDbEntity
  8
Layer 1
 62
   250
420
  2301728
370
    18
100
AcDbVertex
100
AcDb2dVertex
 10
131.9091570400933
 20
-202.6913385965572
 30
0.0
  0
VERTEX
  5
169
330
165
100
AcDbEntity
  8
Layer 1
 62
   250
420
  2301728
370
    18
100
AcDbVertex
100
AcDb2dVertex
 10
137.2468131356864
 20
-202.6913385965572
 30
0.0
  0
VERTEX
  5
16A
330
165
100
AcDbEntity
  8
Layer 1
 62
   250
420
  2301728
370
    18
100
AcDbVertex
100
AcDb2dVertex
 10
137.2468131356864
 20
-206.4737634530484
 30
0.0
  0
SEQEND
  5
16C
330
165
100
AcDbEntity
  8
Layer 1
 62
   250
420
  2301728
370
    18
  0
HATCH
  5
16B
330
1F
100
AcDbEntity
  8
Layer 1
 62
   254
420
 13750996
100
AcDbHatch
 10
0.0
 20
0.0
 30
0.0
210
0.0
220
0.0
230
1.0
  2
SOLID
 70
     1
 71
     0
 91
        1
 92
        1
 93
        4
 72
     1
 10
137.2468131356864
 20
-206.4737634530484
 11
131.9091570400933
 21
-206.4737634530484
 72
     1
 10
131.9091570400933
 20
-206.4737634530484
 11
131.9091570400933
 21
-202.6913385965572
 72
     1
 10
131.9091570400933
 20
-202.6913385965572
 11
137.2468131356864
 21
-202.6913385965572
 72
     1
 10
137.2468131356864
 20
-202.6913385965572
 11
137.2468131356864
 21
-206.4737634530484
 97
        0
 75
     2
 76
     1
 98
        0
  0
POLYLINE
  5
16D
330
1F
100
AcDbEntity
  8
Layer 1
 62
   250
420
  2301728
370
    18
100
AcDb2dPolyline
 66
     1
 10
0.0
 20
0.0
 30
0.0
  0
VERTEX
  5
16E
330
16D
100
AcDbEntity
  8
Layer 1
 62
   250
420
  2301728
370
    18
100
AcDbVertex
100
AcDb2dVertex
 10
142.5844692312794
 20
-206.4737634530484
 30
0.0
  0
VERTEX
  5
16F
330
16D
100
AcDbEntity
  8
Layer 1
 62
   250
420
  2301728
370
    18
100
AcDbVertex
100
AcDb2dVertex
 10
137.2468131356864
 20
-206.4737634530484
 30
0.0
  0
VERTEX
  5
170
330
16D
100
AcDbEntity
  8
Layer 1
 62
   250
420
  2301728
370
    18
100
AcDbVertex
100
AcDb2dVertex
 10
137.2468131356864
 20
-202.6913385965572
 30
0.0
  0
VERTEX
  5
171
330
16D
100
AcDbEntity
  8
Layer 1
 62
   250
420
  2301728
370
    18
100
AcDbVertex
100
AcDb2dVertex
 10
142.5844692312794
 20
-202.6913385965572
 30
0.0
  0
VERTEX
  5
172
330
16D
100
AcDbEntity
  8
Layer 1
 62
   250
420
  2301728
370
    18
100
AcDbVertex
100
AcDb2dVertex
 10
142.5844692312794
 20
-206.4737634530484
 30
0.0
  0
SEQEND
  5
174
330
16D
100
AcDbEntity
  8
Layer 1
 62
   250
420
  2301728
370
    18
  0
HATCH
  5
173
330
1F
100
AcDbEntity
  8
Layer 1
 62
   254
420
 13750996
100
AcDbHatch
 10
0.0
 20
0.0
 30
0.0
210
0.0
220
0.0
230
1.0
  2
SOLID
 70
     1
 71
     0
 91
        1
 92
        1
 93
        4
 72
     1
 10
142.5844692312794
 20
-206.4737634530484
 11
137.2468131356864
 21
-206.4737634530484
 72
     1
 10
137.2468131356864
 20
-206.4737634530484
 11
137.2468131356864
 21
-202.6913385965572
 72
     1
 10
137.2468131356864
 20
-202.6913385965572
 11
142.5844692312794
 21
-202.6913385965572
 72
     1
 10
142.5844692312794
 20
-202.6913385965572
 11
142.5844692312794
 21
-206.4737634530484
 97
        0
 75
     2
 76
     1
 98
        0
  0
POLYLINE
  5
175
330
1F
100
AcDbEntity
  8
Layer 1
 62
   250
420
  2301728
370
    18
100
AcDb2dPolyline
 66
     1
 10
0.0
 20
0.0
 30
0.0
  0
VERTEX
  5
176
330
175
100
AcDbEntity
  8
Layer 1
 62
   250
420
  2301728
370
    18
100
AcDbVertex
100
AcDb2dVertex
 10
147.9221253268715
 20
-206.4737634530484
 30
0.0
  0
VERTEX
  5
177
330
175
100
AcDbEntity
  8
Layer 1
 62
   250
420
  2301728
370
    18
100
AcDbVertex
100
AcDb2dVertex
 10
142.5844692312794
 20
-206.4737634530484
 30
0.0
  0
VERTEX
  5
178
330
175
100
AcDbEntity
  8
Layer 1
 62
   250
420
  2301728
370
    18
100
AcDbVertex
100
AcDb2dVertex
 10
142.5844692312794
 20
-202.6913385965572
 30
0.0
  0
VERTEX
  5
179
330
175
100
AcDbEntity
  8
Layer 1
 62
   250
420
  2301728
370
    18
100
AcDbVertex
100
AcDb2dVertex
 10
147.9221253268715
 20
-202.6913385965572
 30
0.0
  0
VERTEX
  5
17A
330
175
100
AcDbEntity
  8
Layer 1
 62
   250
420
  2301728
370
    18
100
AcDbVertex
100
AcDb2dVertex
 10
147.9221253268715
 20
-206.4737634530484
 30
0.0
  0
SEQEND
  5
17C
330
175
100
AcDbEntity
  8
Layer 1
 62
   250
420
  2301728
370
    18
  0
HATCH
  5
17B
330
1F
100
AcDbEntity
  8
Layer 1
 62
   254
420
 13750996
100
AcDbHatch
 10
0.0
 20
0.0
 30
0.0
210
0.0
220
0.0
230
1.0
  2
SOLID
 70
     1
 71
     0
 91
        1
 92
        1
 93
        4
 72
     1
 10
147.9221253268715
 20
-206.4737634530484
 11
142.5844692312794
 21
-206.4737634530484
 72
     1
 10
142.5844692312794
 20
-206.4737634530484
 11
142.5844692312794
 21
-202.6913385965572
 72
     1
 10
142.5844692312794
 20
-202.6913385965572
 11
147.9221253268715
 21
-202.6913385965572
 72
     1
 10
147.9221253268715
 20
-202.6913385965572
 11
147.9221253268715
 21
-206.4737634530484
 97
        0
 75
     2
 76
     1
 98
        0
  0
POLYLINE
  5
17D
330
1F
100
AcDbEntity
  8
Layer 1
 62
   250
420
  2301728
370
    18
100
AcDb2dPolyline
 66
     1
 10
0.0
 20
0.0
 30
0.0
  0
VERTEX
  5
17E
330
17D
100
AcDbEntity
  8
Layer 1
 62
   250
420
  2301728
370
    18
100
AcDbVertex
100
AcDb2dVertex
 10
153.2597814224664
 20
-206.4737634530484
 30
0.0
  0
VERTEX
  5
17F
330
17D
100
AcDbEntity
  8
Layer 1
 62
   250
420
  2301728
370
    18
100
AcDbVertex
100
AcDb2dVertex
 10
147.9221253268715
 20
-206.4737634530484
 30
0.0
  0
VERTEX
  5
180
330
17D
100
AcDbEntity
  8
Layer 1
 62
   250
420
  2301728
370
    18
100
AcDbVertex
100
AcDb2dVertex
 10
147.9221253268715
 20
-202.6913385965572
 30
0.0
  0
VERTEX
  5
181
330
17D
100
AcDbEntity
  8
Layer 1
 62
   250
420
  2301728
370
    18
100
AcDbVertex
100
AcDb2dVertex
 10
153.2597814224664
 20
-202.6913385965572
 30
0.0
  0
VERTEX
  5
182
330
17D
100
AcDbEntity
  8
Layer 1
 62
   250
420
  2301728
370
    18
100
AcDbVertex
100
AcDb2dVertex
 10
153.2597814224664
 20
-206.4737634530484
 30
0.0
  0
SEQEND
  5
184
330
17D
100
AcDbEntity
  8
Layer 1
 62
   250
420
  2301728
370
    18
  0
HATCH
  5
183
330
1F
100
AcDbEntity
  8
Layer 1
 62
   254
420
 13750996
100
AcDbHatch
 10
0.0
 20
0.0
 30
0.0
210
0.0
220
0.0
230
1.0
  2
SOLID
 70
     1
 71
     0
 91
        1
 92
        1
 93
        4
 72
     1
 10
153.2597814224664
 20
-206.4737634530484
 11
147.9221253268715
 21
-206.4737634530484
 72
     1
 10
147.9221253268715
 20
-206.4737634530484
 11
147.9221253268715
 21
-202.6913385965572
 72
     1
 10
147.9221253268715
 20
-202.6913385965572
 11
153.2597814224664
 21
-202.6913385965572
 72
     1
 10
153.2597814224664
 20
-202.6913385965572
 11
153.2597814224664
 21
-206.4737634530484
 97
        0
 75
     2
 76
     1
 98
        0
  0
POLYLINE
  5
185
330
1F
100
AcDbEntity
  8
Layer 1
 62
   250
420
  2301728
370
    18
100
AcDb2dPolyline
 66
     1
 10
0.0
 20
0.0
 30
0.0
  0
VERTEX
  5
186
330
185
100
AcDbEntity
  8
Layer 1
 62
   250
420
  2301728
370
    18
100
AcDbVertex
100
AcDb2dVertex
 10
158.5974375180595
 20
-206.4737634530484
 30
0.0
  0
VERTEX
  5
187
330
185
100
AcDbEntity
  8
Layer 1
 62
   250
420
  2301728
370
    18
100
AcDbVertex
100
AcDb2dVertex
 10
153.2597814224664
 20
-206.4737634530484
 30
0.0
  0
VERTEX
  5
188
330
185
100
AcDbEntity
  8
Layer 1
 62
   250
420
  2301728
370
    18
100
AcDbVertex
100
AcDb2dVertex
 10
153.2597814224664
 20
-202.6913385965572
 30
0.0
  0
VERTEX
  5
189
330
185
100
AcDbEntity
  8
Layer 1
 62
   250
420
  2301728
370
    18
100
AcDbVertex
100
AcDb2dVertex
 10
158.5974375180595
 20
-202.6913385965572
 30
0.0
  0
VERTEX
  5
18A
330
185
100
AcDbEntity
  8
Layer 1
 62
   250
420
  2301728
370
    18
100
AcDbVertex
100
AcDb2dVertex
 10
158.5974375180595
 20
-206.4737634530484
 30
0.0
  0
SEQEND
  5
18C
330
185
100
AcDbEntity
  8
Layer 1
 62
   250
420
  2301728
370
    18
  0
HATCH
  5
18B
330
1F
100
AcDbEntity
  8
Layer 1
 62
   254
420
 13750996
100
AcDbHatch
 10
0.0
 20
0.0
 30
0.0
210
0.0
220
0.0
230
1.0
  2
SOLID
 70
     1
 71
     0
 91
        1
 92
        1
 93
        4
 72
     1
 10
158.5974375180595
 20
-206.4737634530484
 11
153.2597814224664
 21
-206.4737634530484
 72
     1
 10
153.2597814224664
 20
-206.4737634530484
 11
153.2597814224664
 21
-202.6913385965572
 72
     1
 10
153.2597814224664
 20
-202.6913385965572
 11
158.5974375180595
 21
-202.6913385965572
 72
     1
 10
158.5974375180595
 20
-202.6913385965572
 11
158.5974375180595
 21
-206.4737634530484
 97
        0
 75
     2
 76
     1
 98
        0
  0
POLYLINE
  5
18D
330
1F
100
AcDbEntity
  8
Layer 1
 62
   250
420
  2301728
370
    18
100
AcDb2dPolyline
 66
     1
 10
0.0
 20
0.0
 30
0.0
  0
VERTEX
  5
18E
330
18D
100
AcDbEntity
  8
Layer 1
 62
   250
420
  2301728
370
    18
100
AcDbVertex
100
AcDb2dVertex
 10
163.9350936136516
 20
-206.4737634530484
 30
0.0
  0
VERTEX
  5
18F
330
18D
100
AcDbEntity
  8
Layer 1
 62
   250
420
  2301728
370
    18
100
AcDbVertex
100
AcDb2dVertex
 10
158.5974375180595
 20
-206.4737634530484
 30
0.0
  0
VERTEX
  5
190
330
18D
100
AcDbEntity
  8
Layer 1
 62
   250
420
  2301728
370
    18
100
AcDbVertex
100
AcDb2dVertex
 10
158.5974375180595
 20
-202.6913385965572
 30
0.0
  0
VERTEX
  5
191
330
18D
100
AcDbEntity
  8
Layer 1
 62
   250
420
  2301728
370
    18
100
AcDbVertex
100
AcDb2dVertex
 10
163.9350936136516
 20
-202.6913385965572
 30
0.0
  0
VERTEX
  5
192
330
18D
100
AcDbEntity
  8
Layer 1
 62
   250
420
  2301728
370
    18
100
AcDbVertex
100
AcDb2dVertex
 10
163.9350936136516
 20
-206.4737634530484
 30
0.0
  0
SEQEND
  5
194
330
18D
100
AcDbEntity
  8
Layer 1
 62
   250
420
  2301728
370
    18
  0
HATCH
  5
193
330
1F
100
AcDbEntity
  8
Layer 1
 62
   254
420
 13750996
100
AcDbHatch
 10
0.0
 20
0.0
 30
0.0
210
0.0
220
0.0
230
1.0
  2
SOLID
 70
     1
 71
     0
 91
        1
 92
        1
 93
        4
 72
     1
 10
163.9350936136516
 20
-206.4737634530484
 11
158.5974375180595
 21
-206.4737634530484
 72
     1
 10
158.5974375180595
 20
-206.4737634530484
 11
158.5974375180595
 21
-202.6913385965572
 72
     1
 10
158.5974375180595
 20
-202.6913385965572
 11
163.9350936136516
 21
-202.6913385965572
 72
     1
 10
163.9350936136516
 20
-202.6913385965572
 11
163.9350936136516
 21
-206.4737634530484
 97
        0
 75
     2
 76
     1
 98
        0
  0
POLYLINE
  5
195
330
1F
100
AcDbEntity
  8
Layer 1
 62
   250
420
  2301728
370
    18
100
AcDb2dPolyline
 66
     1
 10
0.0
 20
0.0
 30
0.0
  0
VERTEX
  5
196
330
195
100
AcDbEntity
  8
Layer 1
 62
   250
420
  2301728
370
    18
100
AcDbVertex
100
AcDb2dVertex
 10
169.2727497092446
 20
-206.4737634530484
 30
0.0
  0
VERTEX
  5
197
330
195
100
AcDbEntity
  8
Layer 1
 62
   250
420
  2301728
370
    18
100
AcDbVertex
100
AcDb2dVertex
 10
163.9350936136516
 20
-206.4737634530484
 30
0.0
  0
VERTEX
  5
198
330
195
100
AcDbEntity
  8
Layer 1
 62
   250
420
  2301728
370
    18
100
AcDbVertex
100
AcDb2dVertex
 10
163.9350936136516
 20
-202.6913385965572
 30
0.0
  0
VERTEX
  5
199
330
195
100
AcDbEntity
  8
Layer 1
 62
   250
420
  2301728
370
    18
100
AcDbVertex
100
AcDb2dVertex
 10
169.2727497092446
 20
-202.6913385965572
 30
0.0
  0
VERTEX
  5
19A
330
195
100
AcDbEntity
  8
Layer 1
 62
   250
420
  2301728
370
    18
100
AcDbVertex
100
AcDb2dVertex
 10
169.2727497092446
 20
-206.4737634530484
 30
0.0
  0
SEQEND
  5
19C
330
195
100
AcDbEntity
  8
Layer 1
 62
   250
420
  2301728
370
    18
  0
HATCH
  5
19B
330
1F
100
AcDbEntity
  8
Layer 1
 62
   254
420
 13750996
100
AcDbHatch
 10
0.0
 20
0.0
 30
0.0
210
0.0
220
0.0
230
1.0
  2
SOLID
 70
     1
 71
     0
 91
        1
 92
        1
 93
        4
 72
     1
 10
169.2727497092446
 20
-206.4737634530484
 11
163.9350936136516
 21
-206.4737634530484
 72
     1
 10
163.9350936136516
 20
-206.4737634530484
 11
163.9350936136516
 21
-202.6913385965572
 72
     1
 10
163.9350936136516
 20
-202.6913385965572
 11
169.2727497092446
 21
-202.6913385965572
 72
     1
 10
169.2727497092446
 20
-202.6913385965572
 11
169.2727497092446
 21
-206.4737634530484
 97
        0
 75
     2
 76
     1
 98
        0
  0
POLYLINE
  5
19D
330
1F
100
AcDbEntity
  8
Layer 1
 62
   250
420
  2301728
370
    18
100
AcDb2dPolyline
 66
     1
 10
0.0
 20
0.0
 30
0.0
  0
VERTEX
  5
19E
330
19D
100
AcDbEntity
  8
Layer 1
 62
   250
420
  2301728
370
    18
100
AcDbVertex
100
AcDb2dVertex
 10
174.6104058048377
 20
-206.4737634530484
 30
0.0
  0
VERTEX
  5
19F
330
19D
100
AcDbEntity
  8
Layer 1
 62
   250
420
  2301728
370
    18
100
AcDbVertex
100
AcDb2dVertex
 10
169.2727497092446
 20
-206.4737634530484
 30
0.0
  0
VERTEX
  5
1A0
330
19D
100
AcDbEntity
  8
Layer 1
 62
   250
420
  2301728
370
    18
100
AcDbVertex
100
AcDb2dVertex
 10
169.2727497092446
 20
-202.6913385965572
 30
0.0
  0
VERTEX
  5
1A1
330
19D
100
AcDbEntity
  8
Layer 1
 62
   250
420
  2301728
370
    18
100
AcDbVertex
100
AcDb2dVertex
 10
174.6104058048377
 20
-202.6913385965572
 30
0.0
  0
VERTEX
  5
1A2
330
19D
100
AcDbEntity
  8
Layer 1
 62
   250
420
  2301728
370
    18
100
AcDbVertex
100
AcDb2dVertex
 10
174.6104058048377
 20
-206.4737634530484
 30
0.0
  0
SEQEND
  5
1A4
330
19D
100
AcDbEntity
  8
Layer 1
 62
   250
420
  2301728
370
    18
  0
HATCH
  5
1A3
330
1F
100
AcDbEntity
  8
Layer 1
 62
   254
420
 13750996
100
AcDbHatch
 10
0.0
 20
0.0
 30
0.0
210
0.0
220
0.0
230
1.0
  2
SOLID
 70
     1
 71
     0
 91
        1
 92
        1
 93
        4
 72
     1
 10
174.6104058048377
 20
-206.4737634530484
 11
169.2727497092446
 21
-206.4737634530484
 72
     1
 10
169.2727497092446
 20
-206.4737634530484
 11
169.2727497092446
 21
-202.6913385965572
 72
     1
 10
169.2727497092446
 20
-202.6913385965572
 11
174.6104058048377
 21
-202.6913385965572
 72
     1
 10
174.6104058048377
 20
-202.6913385965572
 11
174.6104058048377
 21
-206.4737634530484
 97
        0
 75
     2
 76
     1
 98
        0
  0
POLYLINE
  5
1A5
330
1F
100
AcDbEntity
  8
Layer 1
 62
   250
420
  2301728
370
    18
100
AcDb2dPolyline
 66
     1
 10
0.0
 20
0.0
 30
0.0
  0
VERTEX
  5
1A6
330
1A5
100
AcDbEntity
  8
Layer 1
 62
   250
420
  2301728
370
    18
100
AcDbVertex
100
AcDb2dVertex
 10
179.9480619004307
 20
-206.4737634530484
 30
0.0
  0
VERTEX
  5
1A7
330
1A5
100
AcDbEntity
  8
Layer 1
 62
   250
420
  2301728
370
    18
100
AcDbVertex
100
AcDb2dVertex
 10
174.6104058048377
 20
-206.4737634530484
 30
0.0
  0
VERTEX
  5
1A8
330
1A5
100
AcDbEntity
  8
Layer 1
 62
   250
420
  2301728
370
    18
100
AcDbVertex
100
AcDb2dVertex
 10
174.6104058048377
 20
-202.6913385965572
 30
0.0
  0
VERTEX
  5
1A9
330
1A5
100
AcDbEntity
  8
Layer 1
 62
   250
420
  2301728
370
    18
100
AcDbVertex
100
AcDb2dVertex
 10
179.9480619004307
 20
-202.6913385965572
 30
0.0
  0
VERTEX
  5
1AA
330
1A5
100
AcDbEntity
  8
Layer 1
 62
   250
420
  2301728
370
    18
100
AcDbVertex
100
AcDb2dVertex
 10
179.9480619004307
 20
-206.4737634530484
 30
0.0
  0
SEQEND
  5
1AC
330
1A5
100
AcDbEntity
  8
Layer 1
 62
   250
420
  2301728
370
    18
  0
HATCH
  5
1AB
330
1F
100
AcDbEntity
  8
Layer 1
 62
   254
420
 13750996
100
AcDbHatch
 10
0.0
 20
0.0
 30
0.0
210
0.0
220
0.0
230
1.0
  2
SOLID
 70
     1
 71
     0
 91
        1
 92
        1
 93
        4
 72
     1
 10
179.9480619004307
 20
-206.4737634530484
 11
174.6104058048377
 21
-206.4737634530484
 72
     1
 10
174.6104058048377
 20
-206.4737634530484
 11
174.6104058048377
 21
-202.6913385965572
 72
     1
 10
174.6104058048377
 20
-202.6913385965572
 11
179.9480619004307
 21
-202.6913385965572
 72
     1
 10
179.9480619004307
 20
-202.6913385965572
 11
179.9480619004307
 21
-206.4737634530484
 97
        0
 75
     2
 76
     1
 98
        0
  0
POLYLINE
  5
1AD
330
1F
100
AcDbEntity
  8
Layer 1
 62
   250
420
  2301728
370
    18
100
AcDb2dPolyline
 66
     1
 10
0.0
 20
0.0
 30
0.0
  0
VERTEX
  5
1AE
330
1AD
100
AcDbEntity
  8
Layer 1
 62
   250
420
  2301728
370
    18
100
AcDbVertex
100
AcDb2dVertex
 10
185.2857179960238
 20
-206.4737634530484
 30
0.0
  0
VERTEX
  5
1AF
330
1AD
100
AcDbEntity
  8
Layer 1
 62
   250
420
  2301728
370
    18
100
AcDbVertex
100
AcDb2dVertex
 10
179.9480619004307
 20
-206.4737634530484
 30
0.0
  0
VERTEX
  5
1B0
330
1AD
100
AcDbEntity
  8
Layer 1
 62
   250
420
  2301728
370
    18
100
AcDbVertex
100
AcDb2dVertex
 10
179.9480619004307
 20
-202.6913385965572
 30
0.0
  0
VERTEX
  5
1B1
330
1AD
100
AcDbEntity
  8
Layer 1
 62
   250
420
  2301728
370
    18
100
AcDbVertex
100
AcDb2dVertex
 10
185.2857179960238
 20
-202.6913385965572
 30
0.0
  0
VERTEX
  5
1B2
330
1AD
100
AcDbEntity
  8
Layer 1
 62
   250
420
  2301728
370
    18
100
AcDbVertex
100
AcDb2dVertex
 10
185.2857179960238
 20
-206.4737634530484
 30
0.0
  0
SEQEND
  5
1B4
330
1AD
100
AcDbEntity
  8
Layer 1
 62
   250
420
  2301728
370
    18
  0
HATCH
  5
1B3
330
1F
100
AcDbEntity
  8
Layer 1
 62
   254
420
 13750996
100
AcDbHatch
 10
0.0
 20
0.0
 30
0.0
210
0.0
220
0.0
230
1.0
  2
SOLID
 70
     1
 71
     0
 91
        1
 92
        1
 93
        4
 72
     1
 10
185.2857179960238
 20
-206.4737634530484
 11
179.9480619004307
 21
-206.4737634530484
 72
     1
 10
179.9480619004307
 20
-206.4737634530484
 11
179.9480619004307
 21
-202.6913385965572
 72
     1
 10
179.9480619004307
 20
-202.6913385965572
 11
185.2857179960238
 21
-202.6913385965572
 72
     1
 10
185.2857179960238
 20
-202.6913385965572
 11
185.2857179960238
 21
-206.4737634530484
 97
        0
 75
     2
 76
     1
 98
        0
  0
POLYLINE
  5
1B5
330
1F
100
AcDbEntity
  8
Layer 1
 62
   250
420
  2301728
370
    18
100
AcDb2dPolyline
 66
     1
 10
0.0
 20
0.0
 30
0.0
  0
VERTEX
  5
1B6
330
1B5
100
AcDbEntity
  8
Layer 1
 62
   250
420
  2301728
370
    18
100
AcDbVertex
100
AcDb2dVertex
 10
190.6233740916168
 20
-206.4737634530484
 30
0.0
  0
VERTEX
  5
1B7
330
1B5
100
AcDbEntity
  8
Layer 1
 62
   250
420
  2301728
370
    18
100
AcDbVertex
100
AcDb2dVertex
 10
185.2857179960238
 20
-206.4737634530484
 30
0.0
  0
VERTEX
  5
1B8
330
1B5
100
AcDbEntity
  8
Layer 1
 62
   250
420
  2301728
370
    18
100
AcDbVertex
100
AcDb2dVertex
 10
185.2857179960238
 20
-202.6913385965572
 30
0.0
  0
VERTEX
  5
1B9
330
1B5
100
AcDbEntity
  8
Layer 1
 62
   250
420
  2301728
370
    18
100
AcDbVertex
100
AcDb2dVertex
 10
190.6233740916168
 20
-202.6913385965572
 30
0.0
  0
VERTEX
  5
1BA
330
1B5
100
AcDbEntity
  8
Layer 1
 62
   250
420
  2301728
370
    18
100
AcDbVertex
100
AcDb2dVertex
 10
190.6233740916168
 20
-206.4737634530484
 30
0.0
  0
SEQEND
  5
1BC
330
1B5
100
AcDbEntity
  8
Layer 1
 62
   250
420
  2301728
370
    18
  0
HATCH
  5
1BB
330
1F
100
AcDbEntity
  8
Layer 1
 62
   254
420
 13750996
100
AcDbHatch
 10
0.0
 20
0.0
 30
0.0
210
0.0
220
0.0
230
1.0
  2
SOLID
 70
     1
 71
     0
 91
        1
 92
        1
 93
        4
 72
     1
 10
190.6233740916168
 20
-206.4737634530484
 11
185.2857179960238
 21
-206.4737634530484
 72
     1
 10
185.2857179960238
 20
-206.4737634530484
 11
185.2857179960238
 21
-202.6913385965572
 72
     1
 10
185.2857179960238
 20
-202.6913385965572
 11
190.6233740916168
 21
-202.6913385965572
 72
     1
 10
190.6233740916168
 20
-202.6913385965572
 11
190.6233740916168
 21
-206.4737634530484
 97
        0
 75
     2
 76
     1
 98
        0
  0
POLYLINE
  5
1BD
330
1F
100
AcDbEntity
  8
Layer 1
 62
   250
420
  2301728
370
    18
100
AcDb2dPolyline
 66
     1
 10
0.0
 20
0.0
 30
0.0
  0
VERTEX
  5
1BE
330
1BD
100
AcDbEntity
  8
Layer 1
 62
   250
420
  2301728
370
    18
100
AcDbVertex
100
AcDb2dVertex
 10
195.9610301872099
 20
-206.4737634530484
 30
0.0
  0
VERTEX
  5
1BF
330
1BD
100
AcDbEntity
  8
Layer 1
 62
   250
420
  2301728
370
    18
100
AcDbVertex
100
AcDb2dVertex
 10
190.6233740916168
 20
-206.4737634530484
 30
0.0
  0
VERTEX
  5
1C0
330
1BD
100
AcDbEntity
  8
Layer 1
 62
   250
420
  2301728
370
    18
100
AcDbVertex
100
AcDb2dVertex
 10
190.6233740916168
 20
-202.6913385965572
 30
0.0
  0
VERTEX
  5
1C1
330
1BD
100
AcDbEntity
  8
Layer 1
 62
   250
420
  2301728
370
    18
100
AcDbVertex
100
AcDb2dVertex
 10
195.9610301872099
 20
-202.6913385965572
 30
0.0
  0
VERTEX
  5
1C2
330
1BD
100
AcDbEntity
  8
Layer 1
 62
   250
420
  2301728
370
    18
100
AcDbVertex
100
AcDb2dVertex
 10
195.9610301872099
 20
-206.4737634530484
 30
0.0
  0
SEQEND
  5
1C4
330
1BD
100
AcDbEntity
  8
Layer 1
 62
   250
420
  2301728
370
    18
  0
HATCH
  5
1C3
330
1F
100
AcDbEntity
  8
Layer 1
 62
   254
420
 13750996
100
AcDbHatch
 10
0.0
 20
0.0
 30
0.0
210
0.0
220
0.0
230
1.0
  2
SOLID
 70
     1
 71
     0
 91
        1
 92
        1
 93
        4
 72
     1
 10
195.9610301872099
 20
-206.4737634530484
 11
190.6233740916168
 21
-206.4737634530484
 72
     1
 10
190.6233740916168
 20
-206.4737634530484
 11
190.6233740916168
 21
-202.6913385965572
 72
     1
 10
190.6233740916168
 20
-202.6913385965572
 11
195.9610301872099
 21
-202.6913385965572
 72
     1
 10
195.9610301872099
 20
-202.6913385965572
 11
195.9610301872099
 21
-206.4737634530484
 97
        0
 75
     2
 76
     1
 98
        0
  0
POLYLINE
  5
1C5
330
1F
100
AcDbEntity
  8
Layer 1
 62
   250
420
  2301728
370
    18
100
AcDb2dPolyline
 66
     1
 10
0.0
 20
0.0
 30
0.0
  0
VERTEX
  5
1C6
330
1C5
100
AcDbEntity
  8
Layer 1
 62
   250
420
  2301728
370
    18
100
AcDbVertex
100
AcDb2dVertex
 10
201.2986862828038
 20
-206.4737634530484
 30
0.0
  0
VERTEX
  5
1C7
330
1C5
100
AcDbEntity
  8
Layer 1
 62
   250
420
  2301728
370
    18
100
AcDbVertex
100
AcDb2dVertex
 10
195.9610301872099
 20
-206.4737634530484
 30
0.0
  0
VERTEX
  5
1C8
330
1C5
100
AcDbEntity
  8
Layer 1
 62
   250
420
  2301728
370
    18
100
AcDbVertex
100
AcDb2dVertex
 10
195.9610301872099
 20
-202.6913385965572
 30
0.0
  0
VERTEX
  5
1C9
330
1C5
100
AcDbEntity
  8
Layer 1
 62
   250
420
  2301728
370
    18
100
AcDbVertex
100
AcDb2dVertex
 10
201.2986862828038
 20
-202.6913385965572
 30
0.0
  0
VERTEX
  5
1CA
330
1C5
100
AcDbEntity
  8
Layer 1
 62
   250
420
  2301728
370
    18
100
AcDbVertex
100
AcDb2dVertex
 10
201.2986862828038
 20
-206.4737634530484
 30
0.0
  0
SEQEND
  5
1CC
330
1C5
100
AcDbEntity
  8
Layer 1
 62
   250
420
  2301728
370
    18
  0
HATCH
  5
1CB
330
1F
100
AcDbEntity
  8
Layer 1
 62
   254
420
 13750996
100
AcDbHatch
 10
0.0
 20
0.0
 30
0.0
210
0.0
220
0.0
230
1.0
  2
SOLID
 70
     1
 71
     0
 91
        1
 92
        1
 93
        4
 72
     1
 10
201.2986862828038
 20
-206.4737634530484
 11
195.9610301872099
 21
-206.4737634530484
 72
     1
 10
195.9610301872099
 20
-206.4737634530484
 11
195.9610301872099
 21
-202.6913385965572
 72
     1
 10
195.9610301872099
 20
-202.6913385965572
 11
201.2986862828038
 21
-202.6913385965572
 72
     1
 10
201.2986862828038
 20
-202.6913385965572
 11
201.2986862828038
 21
-206.4737634530484
 97
        0
 75
     2
 76
     1
 98
        0
  0
POLYLINE
  5
1CD
330
1F
100
AcDbEntity
  8
Layer 1
 62
   250
420
  2301728
370
    18
100
AcDb2dPolyline
 66
     1
 10
0.0
 20
0.0
 30
0.0
  0
VERTEX
  5
1CE
330
1CD
100
AcDbEntity
  8
Layer 1
 62
   250
420
  2301728
370
    18
100
AcDbVertex
100
AcDb2dVertex
 10
206.6363423783969
 20
-206.4737634530484
 30
0.0
  0
VERTEX
  5
1CF
330
1CD
100
AcDbEntity
  8
Layer 1
 62
   250
420
  2301728
370
    18
100
AcDbVertex
100
AcDb2dVertex
 10
201.2986862828038
 20
-206.4737634530484
 30
0.0
  0
VERTEX
  5
1D0
330
1CD
100
AcDbEntity
  8
Layer 1
 62
   250
420
  2301728
370
    18
100
AcDbVertex
100
AcDb2dVertex
 10
201.2986862828038
 20
-202.6913385965572
 30
0.0
  0
VERTEX
  5
1D1
330
1CD
100
AcDbEntity
  8
Layer 1
 62
   250
420
  2301728
370
    18
100
AcDbVertex
100
AcDb2dVertex
 10
206.6363423783969
 20
-202.6913385965572
 30
0.0
  0
VERTEX
  5
1D2
330
1CD
100
AcDbEntity
  8
Layer 1
 62
   250
420
  2301728
370
    18
100
AcDbVertex
100
AcDb2dVertex
 10
206.6363423783969
 20
-206.4737634530484
 30
0.0
  0
SEQEND
  5
1D4
330
1CD
100
AcDbEntity
  8
Layer 1
 62
   250
420
  2301728
370
    18
  0
HATCH
  5
1D3
330
1F
100
AcDbEntity
  8
Layer 1
 62
   254
420
 13750996
100
AcDbHatch
 10
0.0
 20
0.0
 30
0.0
210
0.0
220
0.0
230
1.0
  2
SOLID
 70
     1
 71
     0
 91
        1
 92
        1
 93
        4
 72
     1
 10
206.6363423783969
 20
-206.4737634530484
 11
201.2986862828038
 21
-206.4737634530484
 72
     1
 10
201.2986862828038
 20
-206.4737634530484
 11
201.2986862828038
 21
-202.6913385965572
 72
     1
 10
201.2986862828038
 20
-202.6913385965572
 11
206.6363423783969
 21
-202.6913385965572
 72
     1
 10
206.6363423783969
 20
-202.6913385965572
 11
206.6363423783969
 21
-206.4737634530484
 97
        0
 75
     2
 76
     1
 98
        0
  0
POLYLINE
  5
1D5
330
1F
100
AcDbEntity
  8
Layer 1
 62
   250
420
  2301728
370
    18
100
AcDb2dPolyline
 66
     1
 10
0.0
 20
0.0
 30
0.0
  0
VERTEX
  5
1D6
330
1D5
100
AcDbEntity
  8
Layer 1
 62
   250
420
  2301728
370
    18
100
AcDbVertex
100
AcDb2dVertex
 10
211.9739984739899
 20
-206.4737634530484
 30
0.0
  0
VERTEX
  5
1D7
330
1D5
100
AcDbEntity
  8
Layer 1
 62
   250
420
  2301728
370
    18
100
AcDbVertex
100
AcDb2dVertex
 10
206.6363423783969
 20
-206.4737634530484
 30
0.0
  0
VERTEX
  5
1D8
330
1D5
100
AcDbEntity
  8
Layer 1
 62
   250
420
  2301728
370
    18
100
AcDbVertex
100
AcDb2dVertex
 10
206.6363423783969
 20
-202.6913385965572
 30
0.0
  0
VERTEX
  5
1D9
330
1D5
100
AcDbEntity
  8
Layer 1
 62
   250
420
  2301728
370
    18
100
AcDbVertex
100
AcDb2dVertex
 10
211.9739984739899
 20
-202.6913385965572
 30
0.0
  0
VERTEX
  5
1DA
330
1D5
100
AcDbEntity
  8
Layer 1
 62
   250
420
  2301728
370
    18
100
AcDbVertex
100
AcDb2dVertex
 10
211.9739984739899
 20
-206.4737634530484
 30
0.0
  0
SEQEND
  5
1DC
330
1D5
100
AcDbEntity
  8
Layer 1
 62
   250
420
  2301728
370
    18
  0
HATCH
  5
1DB
330
1F
100
AcDbEntity
  8
Layer 1
 62
   254
420
 13750996
100
AcDbHatch
 10
0.0
 20
0.0
 30
0.0
210
0.0
220
0.0
230
1.0
  2
SOLID
 70
     1
 71
     0
 91
        1
 92
        1
 93
        4
 72
     1
 10
211.9739984739899
 20
-206.4737634530484
 11
206.6363423783969
 21
-206.4737634530484
 72
     1
 10
206.6363423783969
 20
-206.4737634530484
 11
206.6363423783969
 21
-202.6913385965572
 72
     1
 10
206.6363423783969
 20
-202.6913385965572
 11
211.9739984739899
 21
-202.6913385965572
 72
     1
 10
211.9739984739899
 20
-202.6913385965572
 11
211.9739984739899
 21
-206.4737634530484
 97
        0
 75
     2
 76
     1
 98
        0
  0
POLYLINE
  5
1DD
330
1F
100
AcDbEntity
  8
Layer 1
 62
   250
420
  2301728
370
    18
100
AcDb2dPolyline
 66
     1
 10
0.0
 20
0.0
 30
0.0
  0
VERTEX
  5
1DE
330
1DD
100
AcDbEntity
  8
Layer 1
 62
   250
420
  2301728
370
    18
100
AcDbVertex
100
AcDb2dVertex
 10
217.311654569583
 20
-206.4737634530484
 30
0.0
  0
VERTEX
  5
1DF
330
1DD
100
AcDbEntity
  8
Layer 1
 62
   250
420
  2301728
370
    18
100
AcDbVertex
100
AcDb2dVertex
 10
211.9739984739899
 20
-206.4737634530484
 30
0.0
  0
VERTEX
  5
1E0
330
1DD
100
AcDbEntity
  8
Layer 1
 62
   250
420
  2301728
370
    18
100
AcDbVertex
100
AcDb2dVertex
 10
211.9739984739899
 20
-202.6913385965572
 30
0.0
  0
VERTEX
  5
1E1
330
1DD
100
AcDbEntity
  8
Layer 1
 62
   250
420
  2301728
370
    18
100
AcDbVertex
100
AcDb2dVertex
 10
217.311654569583
 20
-202.6913385965572
 30
0.0
  0
VERTEX
  5
1E2
330
1DD
100
AcDbEntity
  8
Layer 1
 62
   250
420
  2301728
370
    18
100
AcDbVertex
100
AcDb2dVertex
 10
217.311654569583
 20
-206.4737634530484
 30
0.0
  0
SEQEND
  5
1E4
330
1DD
100
AcDbEntity
  8
Layer 1
 62
   250
420
  2301728
370
    18
  0
HATCH
  5
1E3
330
1F
100
AcDbEntity
  8
Layer 1
 62
   254
420
 13750996
100
AcDbHatch
 10
0.0
 20
0.0
 30
0.0
210
0.0
220
0.0
230
1.0
  2
SOLID
 70
     1
 71
     0
 91
        1
 92
        1
 93
        4
 72
     1
 10
217.311654569583
 20
-206.4737634530484
 11
211.9739984739899
 21
-206.4737634530484
 72
     1
 10
211.9739984739899
 20
-206.4737634530484
 11
211.9739984739899
 21
-202.6913385965572
 72
     1
 10
211.9739984739899
 20
-202.6913385965572
 11
217.311654569583
 21
-202.6913385965572
 72
     1
 10
217.311654569583
 20
-202.6913385965572
 11
217.311654569583
 21
-206.4737634530484
 97
        0
 75
     2
 76
     1
 98
        0
  0
POLYLINE
  5
1E5
330
1F
100
AcDbEntity
  8
Layer 1
 62
   250
420
  2301728
370
    18
100
AcDb2dPolyline
 66
     1
 10
0.0
 20
0.0
 30
0.0
  0
VERTEX
  5
1E6
330
1E5
100
AcDbEntity
  8
Layer 1
 62
   250
420
  2301728
370
    18
100
AcDbVertex
100
AcDb2dVertex
 10
222.649310665176
 20
-206.4737634530484
 30
0.0
  0
VERTEX
  5
1E7
330
1E5
100
AcDbEntity
  8
Layer 1
 62
   250
420
  2301728
370
    18
100
AcDbVertex
100
AcDb2dVertex
 10
217.311654569583
 20
-206.4737634530484
 30
0.0
  0
VERTEX
  5
1E8
330
1E5
100
AcDbEntity
  8
Layer 1
 62
   250
420
  2301728
370
    18
100
AcDbVertex
100
AcDb2dVertex
 10
217.311654569583
 20
-202.6913385965572
 30
0.0
  0
VERTEX
  5
1E9
330
1E5
100
AcDbEntity
  8
Layer 1
 62
   250
420
  2301728
370
    18
100
AcDbVertex
100
AcDb2dVertex
 10
222.649310665176
 20
-202.6913385965572
 30
0.0
  0
VERTEX
  5
1EA
330
1E5
100
AcDbEntity
  8
Layer 1
 62
   250
420
  2301728
370
    18
100
AcDbVertex
100
AcDb2dVertex
 10
222.649310665176
 20
-206.4737634530484
 30
0.0
  0
SEQEND
  5
1EC
330
1E5
100
AcDbEntity
  8
Layer 1
 62
   250
420
  2301728
370
    18
  0
HATCH
  5
1EB
330
1F
100
AcDbEntity
  8
Layer 1
 62
   254
420
 13750996
100
AcDbHatch
 10
0.0
 20
0.0
 30
0.0
210
0.0
220
0.0
230
1.0
  2
SOLID
 70
     1
 71
     0
 91
        1
 92
        1
 93
        4
 72
     1
 10
222.649310665176
 20
-206.4737634530484
 11
217.311654569583
 21
-206.4737634530484
 72
     1
 10
217.311654569583
 20
-206.4737634530484
 11
217.311654569583
 21
-202.6913385965572
 72
     1
 10
217.311654569583
 20
-202.6913385965572
 11
222.649310665176
 21
-202.6913385965572
 72
     1
 10
222.649310665176
 20
-202.6913385965572
 11
222.649310665176
 21
-206.4737634530484
 97
        0
 75
     2
 76
     1
 98
        0
  0
POLYLINE
  5
1ED
330
1F
100
AcDbEntity
  8
Layer 1
 62
   250
420
  2301728
370
    18
100
AcDb2dPolyline
 66
     1
 10
0.0
 20
0.0
 30
0.0
  0
VERTEX
  5
1EE
330
1ED
100
AcDbEntity
  8
Layer 1
 62
   250
420
  2301728
370
    18
100
AcDbVertex
100
AcDb2dVertex
 10
227.9869667607691
 20
-206.4737634530484
 30
0.0
  0
VERTEX
  5
1EF
330
1ED
100
AcDbEntity
  8
Layer 1
 62
   250
420
  2301728
370
    18
100
AcDbVertex
100
AcDb2dVertex
 10
222.649310665176
 20
-206.4737634530484
 30
0.0
  0
VERTEX
  5
1F0
330
1ED
100
AcDbEntity
  8
Layer 1
 62
   250
420
  2301728
370
    18
100
AcDbVertex
100
AcDb2dVertex
 10
222.649310665176
 20
-202.6913385965572
 30
0.0
  0
VERTEX
  5
1F1
330
1ED
100
AcDbEntity
  8
Layer 1
 62
   250
420
  2301728
370
    18
100
AcDbVertex
100
AcDb2dVertex
 10
227.9869667607691
 20
-202.6913385965572
 30
0.0
  0
VERTEX
  5
1F2
330
1ED
100
AcDbEntity
  8
Layer 1
 62
   250
420
  2301728
370
    18
100
AcDbVertex
100
AcDb2dVertex
 10
227.9869667607691
 20
-206.4737634530484
 30
0.0
  0
SEQEND
  5
1F4
330
1ED
100
AcDbEntity
  8
Layer 1
 62
   250
420
  2301728
370
    18
  0
HATCH
  5
1F3
330
1F
100
AcDbEntity
  8
Layer 1
 62
   254
420
 13750996
100
AcDbHatch
 10
0.0
 20
0.0
 30
0.0
210
0.0
220
0.0
230
1.0
  2
SOLID
 70
     1
 71
     0
 91
        1
 92
        1
 93
        4
 72
     1
 10
227.9869667607691
 20
-206.4737634530484
 11
222.649310665176
 21
-206.4737634530484
 72
     1
 10
222.649310665176
 20
-206.4737634530484
 11
222.649310665176
 21
-202.6913385965572
 72
     1
 10
222.649310665176
 20
-202.6913385965572
 11
227.9869667607691
 21
-202.6913385965572
 72
     1
 10
227.9869667607691
 20
-202.6913385965572
 11
227.9869667607691
 21
-206.4737634530484
 97
        0
 75
     2
 76
     1
 98
        0
  0
POLYLINE
  5
1F5
330
1F
100
AcDbEntity
  8
Layer 1
 62
   250
420
  2301728
370
    18
100
AcDb2dPolyline
 66
     1
 10
0.0
 20
0.0
 30
0.0
  0
VERTEX
  5
1F6
330
1F5
100
AcDbEntity
  8
Layer 1
 62
   250
420
  2301728
370
    18
100
AcDbVertex
100
AcDb2dVertex
 10
233.3246228563621
 20
-206.4737634530484
 30
0.0
  0
VERTEX
  5
1F7
330
1F5
100
AcDbEntity
  8
Layer 1
 62
   250
420
  2301728
370
    18
100
AcDbVertex
100
AcDb2dVertex
 10
227.9869667607691
 20
-206.4737634530484
 30
0.0
  0
VERTEX
  5
1F8
330
1F5
100
AcDbEntity
  8
Layer 1
 62
   250
420
  2301728
370
    18
100
AcDbVertex
100
AcDb2dVertex
 10
227.9869667607691
 20
-202.6913385965572
 30
0.0
  0
VERTEX
  5
1F9
330
1F5
100
AcDbEntity
  8
Layer 1
 62
   250
420
  2301728
370
    18
100
AcDbVertex
100
AcDb2dVertex
 10
233.3246228563621
 20
-202.6913385965572
 30
0.0
  0
VERTEX
  5
1FA
330
1F5
100
AcDbEntity
  8
Layer 1
 62
   250
420
  2301728
370
    18
100
AcDbVertex
100
AcDb2dVertex
 10
233.3246228563621
 20
-206.4737634530484
 30
0.0
  0
SEQEND
  5
1FC
330
1F5
100
AcDbEntity
  8
Layer 1
 62
   250
420
  2301728
370
    18
  0
HATCH
  5
1FB
330
1F
100
AcDbEntity
  8
Layer 1
 62
   254
420
 13750996
100
AcDbHatch
 10
0.0
 20
0.0
 30
0.0
210
0.0
220
0.0
230
1.0
  2
SOLID
 70
     1
 71
     0
 91
        1
 92
        1
 93
        4
 72
     1
 10
233.3246228563621
 20
-206.4737634530484
 11
227.9869667607691
 21
-206.4737634530484
 72
     1
 10
227.9869667607691
 20
-206.4737634530484
 11
227.9869667607691
 21
-202.6913385965572
 72
     1
 10
227.9869667607691
 20
-202.6913385965572
 11
233.3246228563621
 21
-202.6913385965572
 72
     1
 10
233.3246228563621
 20
-202.6913385965572
 11
233.3246228563621
 21
-206.4737634530484
 97
        0
 75
     2
 76
     1
 98
        0
  0
POLYLINE
  5
1FD
330
1F
100
AcDbEntity
  8
Layer 1
 62
   250
420
  2301728
370
    18
100
AcDb2dPolyline
 66
     1
 10
0.0
 20
0.0
 30
0.0
  0
VERTEX
  5
1FE
330
1FD
100
AcDbEntity
  8
Layer 1
 62
   250
420
  2301728
370
    18
100
AcDbVertex
100
AcDb2dVertex
 10
238.6622789519552
 20
-206.4737634530484
 30
0.0
  0
VERTEX
  5
1FF
330
1FD
100
AcDbEntity
  8
Layer 1
 62
   250
420
  2301728
370
    18
100
AcDbVertex
100
AcDb2dVertex
 10
233.3246228563621
 20
-206.4737634530484
 30
0.0
  0
VERTEX
  5
200
330
1FD
100
AcDbEntity
  8
Layer 1
 62
   250
420
  2301728
370
    18
100
AcDbVertex
100
AcDb2dVertex
 10
233.3246228563621
 20
-202.6913385965572
 30
0.0
  0
VERTEX
  5
201
330
1FD
100
AcDbEntity
  8
Layer 1
 62
   250
420
  2301728
370
    18
100
AcDbVertex
100
AcDb2dVertex
 10
238.6622789519552
 20
-202.6913385965572
 30
0.0
  0
VERTEX
  5
202
330
1FD
100
AcDbEntity
  8
Layer 1
 62
   250
420
  2301728
370
    18
100
AcDbVertex
100
AcDb2dVertex
 10
238.6622789519552
 20
-206.4737634530484
 30
0.0
  0
SEQEND
  5
204
330
1FD
100
AcDbEntity
  8
Layer 1
 62
   250
420
  2301728
370
    18
  0
HATCH
  5
203
330
1F
100
AcDbEntity
  8
Layer 1
 62
   254
420
 13750996
100
AcDbHatch
 10
0.0
 20
0.0
 30
0.0
210
0.0
220
0.0
230
1.0
  2
SOLID
 70
     1
 71
     0
 91
        1
 92
        1
 93
        4
 72
     1
 10
238.6622789519552
 20
-206.4737634530484
 11
233.3246228563621
 21
-206.4737634530484
 72
     1
 10
233.3246228563621
 20
-206.4737634530484
 11
233.3246228563621
 21
-202.6913385965572
 72
     1
 10
233.3246228563621
 20
-202.6913385965572
 11
238.6622789519552
 21
-202.6913385965572
 72
     1
 10
238.6622789519552
 20
-202.6913385965572
 11
238.6622789519552
 21
-206.4737634530484
 97
        0
 75
     2
 76
     1
 98
        0
  0
POLYLINE
  5
205
330
1F
100
AcDbEntity
  8
Layer 1
 62
   250
420
  2301728
370
    18
100
AcDb2dPolyline
 66
     1
 10
0.0
 20
0.0
 30
0.0
  0
VERTEX
  5
206
330
205
100
AcDbEntity
  8
Layer 1
 62
   250
420
  2301728
370
    18
100
AcDbVertex
100
AcDb2dVertex
 10
243.9999350475482
 20
-206.4737634530484
 30
0.0
  0
VERTEX
  5
207
330
205
100
AcDbEntity
  8
Layer 1
 62
   250
420
  2301728
370
    18
100
AcDbVertex
100
AcDb2dVertex
 10
238.6622789519552
 20
-206.4737634530484
 30
0.0
  0
VERTEX
  5
208
330
205
100
AcDbEntity
  8
Layer 1
 62
   250
420
  2301728
370
    18
100
AcDbVertex
100
AcDb2dVertex
 10
238.6622789519552
 20
-202.6913385965572
 30
0.0
  0
VERTEX
  5
209
330
205
100
AcDbEntity
  8
Layer 1
 62
   250
420
  2301728
370
    18
100
AcDbVertex
100
AcDb2dVertex
 10
243.9999350475482
 20
-202.6913385965572
 30
0.0
  0
VERTEX
  5
20A
330
205
100
AcDbEntity
  8
Layer 1
 62
   250
420
  2301728
370
    18
100
AcDbVertex
100
AcDb2dVertex
 10
243.9999350475482
 20
-206.4737634530484
 30
0.0
  0
SEQEND
  5
20C
330
205
100
AcDbEntity
  8
Layer 1
 62
   250
420
  2301728
370
    18
  0
HATCH
  5
20B
330
1F
100
AcDbEntity
  8
Layer 1
 62
   254
420
 13750996
100
AcDbHatch
 10
0.0
 20
0.0
 30
0.0
210
0.0
220
0.0
230
1.0
  2
SOLID
 70
     1
 71
     0
 91
        1
 92
        1
 93
        4
 72
     1
 10
243.9999350475482
 20
-206.4737634530484
 11
238.6622789519552
 21
-206.4737634530484
 72
     1
 10
238.6622789519552
 20
-206.4737634530484
 11
238.6622789519552
 21
-202.6913385965572
 72
     1
 10
238.6622789519552
 20
-202.6913385965572
 11
243.9999350475482
 21
-202.6913385965572
 72
     1
 10
243.9999350475482
 20
-202.6913385965572
 11
243.9999350475482
 21
-206.4737634530484
 97
        0
 75
     2
 76
     1
 98
        0
  0
POLYLINE
  5
20D
330
1F
100
AcDbEntity
  8
Layer 1
 62
   250
420
  2301728
370
    18
100
AcDb2dPolyline
 66
     1
 10
0.0
 20
0.0
 30
0.0
  0
VERTEX
  5
20E
330
20D
100
AcDbEntity
  8
Layer 1
 62
   250
420
  2301728
370
    18
100
AcDbVertex
100
AcDb2dVertex
 10
249.3375911431413
 20
-206.4737634530484
 30
0.0
  0
VERTEX
  5
20F
330
20D
100
AcDbEntity
  8
Layer 1
 62
   250
420
  2301728
370
    18
100
AcDbVertex
100
AcDb2dVertex
 10
243.9999350475482
 20
-206.4737634530484
 30
0.0
  0
VERTEX
  5
210
330
20D
100
AcDbEntity
  8
Layer 1
 62
   250
420
  2301728
370
    18
100
AcDbVertex
100
AcDb2dVertex
 10
243.9999350475482
 20
-202.6913385965572
 30
0.0
  0
VERTEX
  5
211
330
20D
100
AcDbEntity
  8
Layer 1
 62
   250
420
  2301728
370
    18
100
AcDbVertex
100
AcDb2dVertex
 10
249.3375911431413
 20
-202.6913385965572
 30
0.0
  0
VERTEX
  5
212
330
20D
100
AcDbEntity
  8
Layer 1
 62
   250
420
  2301728
370
    18
100
AcDbVertex
100
AcDb2dVertex
 10
249.3375911431413
 20
-206.4737634530484
 30
0.0
  0
SEQEND
  5
214
330
20D
100
AcDbEntity
  8
Layer 1
 62
   250
420
  2301728
370
    18
  0
HATCH
  5
213
330
1F
100
AcDbEntity
  8
Layer 1
 62
   254
420
 13750996
100
AcDbHatch
 10
0.0
 20
0.0
 30
0.0
210
0.0
220
0.0
230
1.0
  2
SOLID
 70
     1
 71
     0
 91
        1
 92
        1
 93
        4
 72
     1
 10
249.3375911431413
 20
-206.4737634530484
 11
243.9999350475482
 21
-206.4737634530484
 72
     1
 10
243.9999350475482
 20
-206.4737634530484
 11
243.9999350475482
 21
-202.6913385965572
 72
     1
 10
243.9999350475482
 20
-202.6913385965572
 11
249.3375911431413
 21
-202.6913385965572
 72
     1
 10
249.3375911431413
 20
-202.6913385965572
 11
249.3375911431413
 21
-206.4737634530484
 97
        0
 75
     2
 76
     1
 98
        0
  0
POLYLINE
  5
215
330
1F
100
AcDbEntity
  8
Layer 1
 62
   250
420
  2301728
370
    18
100
AcDb2dPolyline
 66
     1
 10
0.0
 20
0.0
 30
0.0
  0
VERTEX
  5
216
330
215
100
AcDbEntity
  8
Layer 1
 62
   250
420
  2301728
370
    18
100
AcDbVertex
100
AcDb2dVertex
 10
254.6752472387343
 20
-206.4737634530484
 30
0.0
  0
VERTEX
  5
217
330
215
100
AcDbEntity
  8
Layer 1
 62
   250
420
  2301728
370
    18
100
AcDbVertex
100
AcDb2dVertex
 10
249.3375911431413
 20
-206.4737634530484
 30
0.0
  0
VERTEX
  5
218
330
215
100
AcDbEntity
  8
Layer 1
 62
   250
420
  2301728
370
    18
100
AcDbVertex
100
AcDb2dVertex
 10
249.3375911431413
 20
-202.6913385965572
 30
0.0
  0
VERTEX
  5
219
330
215
100
AcDbEntity
  8
Layer 1
 62
   250
420
  2301728
370
    18
100
AcDbVertex
100
AcDb2dVertex
 10
254.6752472387343
 20
-202.6913385965572
 30
0.0
  0
VERTEX
  5
21A
330
215
100
AcDbEntity
  8
Layer 1
 62
   250
420
  2301728
370
    18
100
AcDbVertex
100
AcDb2dVertex
 10
254.6752472387343
 20
-206.4737634530484
 30
0.0
  0
SEQEND
  5
21C
330
215
100
AcDbEntity
  8
Layer 1
 62
   250
420
  2301728
370
    18
  0
HATCH
  5
21B
330
1F
100
AcDbEntity
  8
Layer 1
 62
   254
420
 13750996
100
AcDbHatch
 10
0.0
 20
0.0
 30
0.0
210
0.0
220
0.0
230
1.0
  2
SOLID
 70
     1
 71
     0
 91
        1
 92
        1
 93
        4
 72
     1
 10
254.6752472387343
 20
-206.4737634530484
 11
249.3375911431413
 21
-206.4737634530484
 72
     1
 10
249.3375911431413
 20
-206.4737634530484
 11
249.3375911431413
 21
-202.6913385965572
 72
     1
 10
249.3375911431413
 20
-202.6913385965572
 11
254.6752472387343
 21
-202.6913385965572
 72
     1
 10
254.6752472387343
 20
-202.6913385965572
 11
254.6752472387343
 21
-206.4737634530484
 97
        0
 75
     2
 76
     1
 98
        0
  0
POLYLINE
  5
21D
330
1F
100
AcDbEntity
  8
Layer 1
 62
   250
420
  2301728
370
    18
100
AcDb2dPolyline
 66
     1
 10
0.0
 20
0.0
 30
0.0
  0
VERTEX
  5
21E
330
21D
100
AcDbEntity
  8
Layer 1
 62
   250
420
  2301728
370
    18
100
AcDbVertex
100
AcDb2dVertex
 10
260.0129033343273
 20
-206.4737634530484
 30
0.0
  0
VERTEX
  5
21F
330
21D
100
AcDbEntity
  8
Layer 1
 62
   250
420
  2301728
370
    18
100
AcDbVertex
100
AcDb2dVertex
 10
254.6752472387343
 20
-206.4737634530484
 30
0.0
  0
VERTEX
  5
220
330
21D
100
AcDbEntity
  8
Layer 1
 62
   250
420
  2301728
370
    18
100
AcDbVertex
100
AcDb2dVertex
 10
254.6752472387343
 20
-202.6913385965572
 30
0.0
  0
VERTEX
  5
221
330
21D
100
AcDbEntity
  8
Layer 1
 62
   250
420
  2301728
370
    18
100
AcDbVertex
100
AcDb2dVertex
 10
260.0129033343273
 20
-202.6913385965572
 30
0.0
  0
VERTEX
  5
222
330
21D
100
AcDbEntity
  8
Layer 1
 62
   250
420
  2301728
370
    18
100
AcDbVertex
100
AcDb2dVertex
 10
260.0129033343273
 20
-206.4737634530484
 30
0.0
  0
SEQEND
  5
224
330
21D
100
AcDbEntity
  8
Layer 1
 62
   250
420
  2301728
370
    18
  0
HATCH
  5
223
330
1F
100
AcDbEntity
  8
Layer 1
 62
   254
420
 13750996
100
AcDbHatch
 10
0.0
 20
0.0
 30
0.0
210
0.0
220
0.0
230
1.0
  2
SOLID
 70
     1
 71
     0
 91
        1
 92
        1
 93
        4
 72
     1
 10
260.0129033343273
 20
-206.4737634530484
 11
254.6752472387343
 21
-206.4737634530484
 72
     1
 10
254.6752472387343
 20
-206.4737634530484
 11
254.6752472387343
 21
-202.6913385965572
 72
     1
 10
254.6752472387343
 20
-202.6913385965572
 11
260.0129033343273
 21
-202.6913385965572
 72
     1
 10
260.0129033343273
 20
-202.6913385965572
 11
260.0129033343273
 21
-206.4737634530484
 97
        0
 75
     2
 76
     1
 98
        0
  0
POLYLINE
  5
225
330
1F
100
AcDbEntity
  8
Layer 1
 62
   250
420
  2301728
370
    18
100
AcDb2dPolyline
 66
     1
 10
0.0
 20
0.0
 30
0.0
  0
VERTEX
  5
226
330
225
100
AcDbEntity
  8
Layer 1
 62
   250
420
  2301728
370
    18
100
AcDbVertex
100
AcDb2dVertex
 10
265.3505594299204
 20
-206.4737634530484
 30
0.0
  0
VERTEX
  5
227
330
225
100
AcDbEntity
  8
Layer 1
 62
   250
420
  2301728
370
    18
100
AcDbVertex
100
AcDb2dVertex
 10
260.0129033343273
 20
-206.4737634530484
 30
0.0
  0
VERTEX
  5
228
330
225
100
AcDbEntity
  8
Layer 1
 62
   250
420
  2301728
370
    18
100
AcDbVertex
100
AcDb2dVertex
 10
260.0129033343273
 20
-202.6913385965572
 30
0.0
  0
VERTEX
  5
229
330
225
100
AcDbEntity
  8
Layer 1
 62
   250
420
  2301728
370
    18
100
AcDbVertex
100
AcDb2dVertex
 10
265.3505594299204
 20
-202.6913385965572
 30
0.0
  0
VERTEX
  5
22A
330
225
100
AcDbEntity
  8
Layer 1
 62
   250
420
  2301728
370
    18
100
AcDbVertex
100
AcDb2dVertex
 10
265.3505594299204
 20
-206.4737634530484
 30
0.0
  0
SEQEND
  5
22C
330
225
100
AcDbEntity
  8
Layer 1
 62
   250
420
  2301728
370
    18
  0
HATCH
  5
22B
330
1F
100
AcDbEntity
  8
Layer 1
 62
   254
420
 13750996
100
AcDbHatch
 10
0.0
 20
0.0
 30
0.0
210
0.0
220
0.0
230
1.0
  2
SOLID
 70
     1
 71
     0
 91
        1
 92
        1
 93
        4
 72
     1
 10
265.3505594299204
 20
-206.4737634530484
 11
260.0129033343273
 21
-206.4737634530484
 72
     1
 10
260.0129033343273
 20
-206.4737634530484
 11
260.0129033343273
 21
-202.6913385965572
 72
     1
 10
260.0129033343273
 20
-202.6913385965572
 11
265.3505594299204
 21
-202.6913385965572
 72
     1
 10
265.3505594299204
 20
-202.6913385965572
 11
265.3505594299204
 21
-206.4737634530484
 97
        0
 75
     2
 76
     1
 98
        0
  0
POLYLINE
  5
22D
330
1F
100
AcDbEntity
  8
Layer 1
 62
   250
420
  2301728
370
    18
100
AcDb2dPolyline
 66
     1
 10
0.0
 20
0.0
 30
0.0
  0
VERTEX
  5
22E
330
22D
100
AcDbEntity
  8
Layer 1
 62
   250
420
  2301728
370
    18
100
AcDbVertex
100
AcDb2dVertex
 10
270.6882155255134
 20
-206.4737634530484
 30
0.0
  0
VERTEX
  5
22F
330
22D
100
AcDbEntity
  8
Layer 1
 62
   250
420
  2301728
370
    18
100
AcDbVertex
100
AcDb2dVertex
 10
265.3505594299204
 20
-206.4737634530484
 30
0.0
  0
VERTEX
  5
230
330
22D
100
AcDbEntity
  8
Layer 1
 62
   250
420
  2301728
370
    18
100
AcDbVertex
100
AcDb2dVertex
 10
265.3505594299204
 20
-202.6913385965572
 30
0.0
  0
VERTEX
  5
231
330
22D
100
AcDbEntity
  8
Layer 1
 62
   250
420
  2301728
370
    18
100
AcDbVertex
100
AcDb2dVertex
 10
270.6882155255134
 20
-202.6913385965572
 30
0.0
  0
VERTEX
  5
232
330
22D
100
AcDbEntity
  8
Layer 1
 62
   250
420
  2301728
370
    18
100
AcDbVertex
100
AcDb2dVertex
 10
270.6882155255134
 20
-206.4737634530484
 30
0.0
  0
SEQEND
  5
234
330
22D
100
AcDbEntity
  8
Layer 1
 62
   250
420
  2301728
370
    18
  0
HATCH
  5
233
330
1F
100
AcDbEntity
  8
Layer 1
 62
   254
420
 13750996
100
AcDbHatch
 10
0.0
 20
0.0
 30
0.0
210
0.0
220
0.0
230
1.0
  2
SOLID
 70
     1
 71
     0
 91
        1
 92
        1
 93
        4
 72
     1
 10
270.6882155255134
 20
-206.4737634530484
 11
265.3505594299204
 21
-206.4737634530484
 72
     1
 10
265.3505594299204
 20
-206.4737634530484
 11
265.3505594299204
 21
-202.6913385965572
 72
     1
 10
265.3505594299204
 20
-202.6913385965572
 11
270.6882155255134
 21
-202.6913385965572
 72
     1
 10
270.6882155255134
 20
-202.6913385965572
 11
270.6882155255134
 21
-206.4737634530484
 97
        0
 75
     2
 76
     1
 98
        0
  0
POLYLINE
  5
235
330
1F
100
AcDbEntity
  8
Layer 1
 62
   250
420
  2301728
370
    18
100
AcDb2dPolyline
 66
     1
 10
0.0
 20
0.0
 30
0.0
  0
VERTEX
  5
236
330
235
100
AcDbEntity
  8
Layer 1
 62
   250
420
  2301728
370
    18
100
AcDbVertex
100
AcDb2dVertex
 10
276.0258716211065
 20
-206.4737634530484
 30
0.0
  0
VERTEX
  5
237
330
235
100
AcDbEntity
  8
Layer 1
 62
   250
420
  2301728
370
    18
100
AcDbVertex
100
AcDb2dVertex
 10
270.6882155255134
 20
-206.4737634530484
 30
0.0
  0
VERTEX
  5
238
330
235
100
AcDbEntity
  8
Layer 1
 62
   250
420
  2301728
370
    18
100
AcDbVertex
100
AcDb2dVertex
 10
270.6882155255134
 20
-202.6913385965572
 30
0.0
  0
VERTEX
  5
239
330
235
100
AcDbEntity
  8
Layer 1
 62
   250
420
  2301728
370
    18
100
AcDbVertex
100
AcDb2dVertex
 10
276.0258716211065
 20
-202.6913385965572
 30
0.0
  0
VERTEX
  5
23A
330
235
100
AcDbEntity
  8
Layer 1
 62
   250
420
  2301728
370
    18
100
AcDbVertex
100
AcDb2dVertex
 10
276.0258716211065
 20
-206.4737634530484
 30
0.0
  0
SEQEND
  5
23C
330
235
100
AcDbEntity
  8
Layer 1
 62
   250
420
  2301728
370
    18
  0
HATCH
  5
23B
330
1F
100
AcDbEntity
  8
Layer 1
 62
   254
420
 13750996
100
AcDbHatch
 10
0.0
 20
0.0
 30
0.0
210
0.0
220
0.0
230
1.0
  2
SOLID
 70
     1
 71
     0
 91
        1
 92
        1
 93
        4
 72
     1
 10
276.0258716211065
 20
-206.4737634530484
 11
270.6882155255134
 21
-206.4737634530484
 72
     1
 10
270.6882155255134
 20
-206.4737634530484
 11
270.6882155255134
 21
-202.6913385965572
 72
     1
 10
270.6882155255134
 20
-202.6913385965572
 11
276.0258716211065
 21
-202.6913385965572
 72
     1
 10
276.0258716211065
 20
-202.6913385965572
 11
276.0258716211065
 21
-206.4737634530484
 97
        0
 75
     2
 76
     1
 98
        0
  0
POLYLINE
  5
23D
330
1F
100
AcDbEntity
  8
Layer 1
 62
   250
420
  2301728
370
    18
100
AcDb2dPolyline
 66
     1
 10
0.0
 20
0.0
 30
0.0
  0
VERTEX
  5
23E
330
23D
100
AcDbEntity
  8
Layer 1
 62
   250
420
  2301728
370
    18
100
AcDbVertex
100
AcDb2dVertex
 10
281.3635277166995
 20
-206.4737634530484
 30
0.0
  0
VERTEX
  5
23F
330
23D
100
AcDbEntity
  8
Layer 1
 62
   250
420
  2301728
370
    18
100
AcDbVertex
100
AcDb2dVertex
 10
276.0258716211065
 20
-206.4737634530484
 30
0.0
  0
VERTEX
  5
240
330
23D
100
AcDbEntity
  8
Layer 1
 62
   250
420
  2301728
370
    18
100
AcDbVertex
100
AcDb2dVertex
 10
276.0258716211065
 20
-202.6913385965572
 30
0.0
  0
VERTEX
  5
241
330
23D
100
AcDbEntity
  8
Layer 1
 62
   250
420
  2301728
370
    18
100
AcDbVertex
100
AcDb2dVertex
 10
281.3635277166995
 20
-202.6913385965572
 30
0.0
  0
VERTEX
  5
242
330
23D
100
AcDbEntity
  8
Layer 1
 62
   250
420
  2301728
370
    18
100
AcDbVertex
100
AcDb2dVertex
 10
281.3635277166995
 20
-206.4737634530484
 30
0.0
  0
SEQEND
  5
244
330
23D
100
AcDbEntity
  8
Layer 1
 62
   250
420
  2301728
370
    18
  0
HATCH
  5
243
330
1F
100
AcDbEntity
  8
Layer 1
 62
   254
420
 13750996
100
AcDbHatch
 10
0.0
 20
0.0
 30
0.0
210
0.0
220
0.0
230
1.0
  2
SOLID
 70
     1
 71
     0
 91
        1
 92
        1
 93
        4
 72
     1
 10
281.3635277166995
 20
-206.4737634530484
 11
276.0258716211065
 21
-206.4737634530484
 72
     1
 10
276.0258716211065
 20
-206.4737634530484
 11
276.0258716211065
 21
-202.6913385965572
 72
     1
 10
276.0258716211065
 20
-202.6913385965572
 11
281.3635277166995
 21
-202.6913385965572
 72
     1
 10
281.3635277166995
 20
-202.6913385965572
 11
281.3635277166995
 21
-206.4737634530484
 97
        0
 75
     2
 76
     1
 98
        0
  0
POLYLINE
  5
245
330
1F
100
AcDbEntity
  8
Layer 1
 62
   250
420
  2301728
370
    18
100
AcDb2dPolyline
 66
     1
 10
0.0
 20
0.0
 30
0.0
  0
VERTEX
  5
246
330
245
100
AcDbEntity
  8
Layer 1
 62
   250
420
  2301728
370
    18
100
AcDbVertex
100
AcDb2dVertex
 10
286.7011838122926
 20
-206.4737634530484
 30
0.0
  0
VERTEX
  5
247
330
245
100
AcDbEntity
  8
Layer 1
 62
   250
420
  2301728
370
    18
100
AcDbVertex
100
AcDb2dVertex
 10
281.3635277166995
 20
-206.4737634530484
 30
0.0
  0
VERTEX
  5
248
330
245
100
AcDbEntity
  8
Layer 1
 62
   250
420
  2301728
370
    18
100
AcDbVertex
100
AcDb2dVertex
 10
281.3635277166995
 20
-202.6913385965572
 30
0.0
  0
VERTEX
  5
249
330
245
100
AcDbEntity
  8
Layer 1
 62
   250
420
  2301728
370
    18
100
AcDbVertex
100
AcDb2dVertex
 10
286.7011838122926
 20
-202.6913385965572
 30
0.0
  0
VERTEX
  5
24A
330
245
100
AcDbEntity
  8
Layer 1
 62
   250
420
  2301728
370
    18
100
AcDbVertex
100
AcDb2dVertex
 10
286.7011838122926
 20
-206.4737634530484
 30
0.0
  0
SEQEND
  5
24C
330
245
100
AcDbEntity
  8
Layer 1
 62
   250
420
  2301728
370
    18
  0
HATCH
  5
24B
330
1F
100
AcDbEntity
  8
Layer 1
 62
   254
420
 13750996
100
AcDbHatch
 10
0.0
 20
0.0
 30
0.0
210
0.0
220
0.0
230
1.0
  2
SOLID
 70
     1
 71
     0
 91
        1
 92
        1
 93
        4
 72
     1
 10
286.7011838122926
 20
-206.4737634530484
 11
281.3635277166995
 21
-206.4737634530484
 72
     1
 10
281.3635277166995
 20
-206.4737634530484
 11
281.3635277166995
 21
-202.6913385965572
 72
     1
 10
281.3635277166995
 20
-202.6913385965572
 11
286.7011838122926
 21
-202.6913385965572
 72
     1
 10
286.7011838122926
 20
-202.6913385965572
 11
286.7011838122926
 21
-206.4737634530484
 97
        0
 75
     2
 76
     1
 98
        0
  0
POLYLINE
  5
24D
330
1F
100
AcDbEntity
  8
Layer 1
 62
   250
420
  2301728
370
    18
100
AcDb2dPolyline
 66
     1
 10
0.0
 20
0.0
 30
0.0
  0
VERTEX
  5
24E
330
24D
100
AcDbEntity
  8
Layer 1
 62
   250
420
  2301728
370
    18
100
AcDbVertex
100
AcDb2dVertex
 10
292.0388399078856
 20
-206.4737634530484
 30
0.0
  0
VERTEX
  5
24F
330
24D
100
AcDbEntity
  8
Layer 1
 62
   250
420
  2301728
370
    18
100
AcDbVertex
100
AcDb2dVertex
 10
286.7011838122926
 20
-206.4737634530484
 30
0.0
  0
VERTEX
  5
250
330
24D
100
AcDbEntity
  8
Layer 1
 62
   250
420
  2301728
370
    18
100
AcDbVertex
100
AcDb2dVertex
 10
286.7011838122926
 20
-202.6913385965572
 30
0.0
  0
VERTEX
  5
251
330
24D
100
AcDbEntity
  8
Layer 1
 62
   250
420
  2301728
370
    18
100
AcDbVertex
100
AcDb2dVertex
 10
292.0388399078856
 20
-202.6913385965572
 30
0.0
  0
VERTEX
  5
252
330
24D
100
AcDbEntity
  8
Layer 1
 62
   250
420
  2301728
370
    18
100
AcDbVertex
100
AcDb2dVertex
 10
292.0388399078856
 20
-206.4737634530484
 30
0.0
  0
SEQEND
  5
254
330
24D
100
AcDbEntity
  8
Layer 1
 62
   250
420
  2301728
370
    18
  0
HATCH
  5
253
330
1F
100
AcDbEntity
  8
Layer 1
 62
   254
420
 13750996
100
AcDbHatch
 10
0.0
 20
0.0
 30
0.0
210
0.0
220
0.0
230
1.0
  2
SOLID
 70
     1
 71
     0
 91
        1
 92
        1
 93
        4
 72
     1
 10
292.0388399078856
 20
-206.4737634530484
 11
286.7011838122926
 21
-206.4737634530484
 72
     1
 10
286.7011838122926
 20
-206.4737634530484
 11
286.7011838122926
 21
-202.6913385965572
 72
     1
 10
286.7011838122926
 20
-202.6913385965572
 11
292.0388399078856
 21
-202.6913385965572
 72
     1
 10
292.0388399078856
 20
-202.6913385965572
 11
292.0388399078856
 21
-206.4737634530484
 97
        0
 75
     2
 76
     1
 98
        0
  0
POLYLINE
  5
255
330
1F
100
AcDbEntity
  8
Layer 1
 62
   250
420
  2301728
370
    18
100
AcDb2dPolyline
 66
     1
 10
0.0
 20
0.0
 30
0.0
  0
VERTEX
  5
256
330
255
100
AcDbEntity
  8
Layer 1
 62
   250
420
  2301728
370
    18
100
AcDbVertex
100
AcDb2dVertex
 10
297.3764960034787
 20
-206.4737634530484
 30
0.0
  0
VERTEX
  5
257
330
255
100
AcDbEntity
  8
Layer 1
 62
   250
420
  2301728
370
    18
100
AcDbVertex
100
AcDb2dVertex
 10
292.0388399078856
 20
-206.4737634530484
 30
0.0
  0
VERTEX
  5
258
330
255
100
AcDbEntity
  8
Layer 1
 62
   250
420
  2301728
370
    18
100
AcDbVertex
100
AcDb2dVertex
 10
292.0388399078856
 20
-202.6913385965572
 30
0.0
  0
VERTEX
  5
259
330
255
100
AcDbEntity
  8
Layer 1
 62
   250
420
  2301728
370
    18
100
AcDbVertex
100
AcDb2dVertex
 10
297.3764960034787
 20
-202.6913385965572
 30
0.0
  0
VERTEX
  5
25A
330
255
100
AcDbEntity
  8
Layer 1
 62
   250
420
  2301728
370
    18
100
AcDbVertex
100
AcDb2dVertex
 10
297.3764960034787
 20
-206.4737634530484
 30
0.0
  0
SEQEND
  5
25C
330
255
100
AcDbEntity
  8
Layer 1
 62
   250
420
  2301728
370
    18
  0
HATCH
  5
25B
330
1F
100
AcDbEntity
  8
Layer 1
 62
   254
420
 13750996
100
AcDbHatch
 10
0.0
 20
0.0
 30
0.0
210
0.0
220
0.0
230
1.0
  2
SOLID
 70
     1
 71
     0
 91
        1
 92
        1
 93
        4
 72
     1
 10
297.3764960034787
 20
-206.4737634530484
 11
292.0388399078856
 21
-206.4737634530484
 72
     1
 10
292.0388399078856
 20
-206.4737634530484
 11
292.0388399078856
 21
-202.6913385965572
 72
     1
 10
292.0388399078856
 20
-202.6913385965572
 11
297.3764960034787
 21
-202.6913385965572
 72
     1
 10
297.3764960034787
 20
-202.6913385965572
 11
297.3764960034787
 21
-206.4737634530484
 97
        0
 75
     2
 76
     1
 98
        0
  0
POLYLINE
  5
25D
330
1F
100
AcDbEntity
  8
Layer 1
 62
   250
420
  2301728
370
    18
100
AcDb2dPolyline
 66
     1
 10
0.0
 20
0.0
 30
0.0
  0
VERTEX
  5
25E
330
25D
100
AcDbEntity
  8
Layer 1
 62
   250
420
  2301728
370
    18
100
AcDbVertex
100
AcDb2dVertex
 10
302.7141520990717
 20
-206.4737634530484
 30
0.0
  0
VERTEX
  5
25F
330
25D
100
AcDbEntity
  8
Layer 1
 62
   250
420
  2301728
370
    18
100
AcDbVertex
100
AcDb2dVertex
 10
297.3764960034787
 20
-206.4737634530484
 30
0.0
  0
VERTEX
  5
260
330
25D
100
AcDbEntity
  8
Layer 1
 62
   250
420
  2301728
370
    18
100
AcDbVertex
100
AcDb2dVertex
 10
297.3764960034787
 20
-202.6913385965572
 30
0.0
  0
VERTEX
  5
261
330
25D
100
AcDbEntity
  8
Layer 1
 62
   250
420
  2301728
370
    18
100
AcDbVertex
100
AcDb2dVertex
 10
302.7141520990717
 20
-202.6913385965572
 30
0.0
  0
VERTEX
  5
262
330
25D
100
AcDbEntity
  8
Layer 1
 62
   250
420
  2301728
370
    18
100
AcDbVertex
100
AcDb2dVertex
 10
302.7141520990717
 20
-206.4737634530484
 30
0.0
  0
SEQEND
  5
264
330
25D
100
AcDbEntity
  8
Layer 1
 62
   250
420
  2301728
370
    18
  0
HATCH
  5
263
330
1F
100
AcDbEntity
  8
Layer 1
 62
   254
420
 13750996
100
AcDbHatch
 10
0.0
 20
0.0
 30
0.0
210
0.0
220
0.0
230
1.0
  2
SOLID
 70
     1
 71
     0
 91
        1
 92
        1
 93
        4
 72
     1
 10
302.7141520990717
 20
-206.4737634530484
 11
297.3764960034787
 21
-206.4737634530484
 72
     1
 10
297.3764960034787
 20
-206.4737634530484
 11
297.3764960034787
 21
-202.6913385965572
 72
     1
 10
297.3764960034787
 20
-202.6913385965572
 11
302.7141520990717
 21
-202.6913385965572
 72
     1
 10
302.7141520990717
 20
-202.6913385965572
 11
302.7141520990717
 21
-206.4737634530484
 97
        0
 75
     2
 76
     1
 98
        0
  0
POLYLINE
  5
265
330
1F
100
AcDbEntity
  8
Layer 1
 62
   250
420
  2301728
370
    18
100
AcDb2dPolyline
 66
     1
 10
0.0
 20
0.0
 30
0.0
  0
VERTEX
  5
266
330
265
100
AcDbEntity
  8
Layer 1
 62
   250
420
  2301728
370
    18
100
AcDbVertex
100
AcDb2dVertex
 10
308.0518081946648
 20
-206.4737634530484
 30
0.0
  0
VERTEX
  5
267
330
265
100
AcDbEntity
  8
Layer 1
 62
   250
420
  2301728
370
    18
100
AcDbVertex
100
AcDb2dVertex
 10
302.7141520990717
 20
-206.4737634530484
 30
0.0
  0
VERTEX
  5
268
330
265
100
AcDbEntity
  8
Layer 1
 62
   250
420
  2301728
370
    18
100
AcDbVertex
100
AcDb2dVertex
 10
302.7141520990717
 20
-202.6913385965572
 30
0.0
  0
VERTEX
  5
269
330
265
100
AcDbEntity
  8
Layer 1
 62
   250
420
  2301728
370
    18
100
AcDbVertex
100
AcDb2dVertex
 10
308.0518081946648
 20
-202.6913385965572
 30
0.0
  0
VERTEX
  5
26A
330
265
100
AcDbEntity
  8
Layer 1
 62
   250
420
  2301728
370
    18
100
AcDbVertex
100
AcDb2dVertex
 10
308.0518081946648
 20
-206.4737634530484
 30
0.0
  0
SEQEND
  5
26C
330
265
100
AcDbEntity
  8
Layer 1
 62
   250
420
  2301728
370
    18
  0
HATCH
  5
26B
330
1F
100
AcDbEntity
  8
Layer 1
 62
   254
420
 13750996
100
AcDbHatch
 10
0.0
 20
0.0
 30
0.0
210
0.0
220
0.0
230
1.0
  2
SOLID
 70
     1
 71
     0
 91
        1
 92
        1
 93
        4
 72
     1
 10
308.0518081946648
 20
-206.4737634530484
 11
302.7141520990717
 21
-206.4737634530484
 72
     1
 10
302.7141520990717
 20
-206.4737634530484
 11
302.7141520990717
 21
-202.6913385965572
 72
     1
 10
302.7141520990717
 20
-202.6913385965572
 11
308.0518081946648
 21
-202.6913385965572
 72
     1
 10
308.0518081946648
 20
-202.6913385965572
 11
308.0518081946648
 21
-206.4737634530484
 97
        0
 75
     2
 76
     1
 98
        0
  0
POLYLINE
  5
26D
330
1F
100
AcDbEntity
  8
Layer 1
 62
   250
420
  2301728
370
    18
100
AcDb2dPolyline
 66
     1
 10
0.0
 20
0.0
 30
0.0
  0
VERTEX
  5
26E
330
26D
100
AcDbEntity
  8
Layer 1
 62
   250
420
  2301728
370
    18
100
AcDbVertex
100
AcDb2dVertex
 10
313.3894642902578
 20
-206.4737634530484
 30
0.0
  0
VERTEX
  5
26F
330
26D
100
AcDbEntity
  8
Layer 1
 62
   250
420
  2301728
370
    18
100
AcDbVertex
100
AcDb2dVertex
 10
308.0518081946648
 20
-206.4737634530484
 30
0.0
  0
VERTEX
  5
270
330
26D
100
AcDbEntity
  8
Layer 1
 62
   250
420
  2301728
370
    18
100
AcDbVertex
100
AcDb2dVertex
 10
308.0518081946648
 20
-202.6913385965572
 30
0.0
  0
VERTEX
  5
271
330
26D
100
AcDbEntity
  8
Layer 1
 62
   250
420
  2301728
370
    18
100
AcDbVertex
100
AcDb2dVertex
 10
313.3894642902578
 20
-202.6913385965572
 30
0.0
  0
VERTEX
  5
272
330
26D
100
AcDbEntity
  8
Layer 1
 62
   250
420
  2301728
370
    18
100
AcDbVertex
100
AcDb2dVertex
 10
313.3894642902578
 20
-206.4737634530484
 30
0.0
  0
SEQEND
  5
274
330
26D
100
AcDbEntity
  8
Layer 1
 62
   250
420
  2301728
370
    18
  0
HATCH
  5
273
330
1F
100
AcDbEntity
  8
Layer 1
 62
   254
420
 13750996
100
AcDbHatch
 10
0.0
 20
0.0
 30
0.0
210
0.0
220
0.0
230
1.0
  2
SOLID
 70
     1
 71
     0
 91
        1
 92
        1
 93
        4
 72
     1
 10
313.3894642902578
 20
-206.4737634530484
 11
308.0518081946648
 21
-206.4737634530484
 72
     1
 10
308.0518081946648
 20
-206.4737634530484
 11
308.0518081946648
 21
-202.6913385965572
 72
     1
 10
308.0518081946648
 20
-202.6913385965572
 11
313.3894642902578
 21
-202.6913385965572
 72
     1
 10
313.3894642902578
 20
-202.6913385965572
 11
313.3894642902578
 21
-206.4737634530484
 97
        0
 75
     2
 76
     1
 98
        0
  0
POLYLINE
  5
275
330
1F
100
AcDbEntity
  8
Layer 1
 62
   250
420
  2301728
370
    18
100
AcDb2dPolyline
 66
     1
 10
0.0
 20
0.0
 30
0.0
  0
VERTEX
  5
276
330
275
100
AcDbEntity
  8
Layer 1
 62
   250
420
  2301728
370
    18
100
AcDbVertex
100
AcDb2dVertex
 10
318.7271203858509
 20
-206.4737634530484
 30
0.0
  0
VERTEX
  5
277
330
275
100
AcDbEntity
  8
Layer 1
 62
   250
420
  2301728
370
    18
100
AcDbVertex
100
AcDb2dVertex
 10
313.3894642902578
 20
-206.4737634530484
 30
0.0
  0
VERTEX
  5
278
330
275
100
AcDbEntity
  8
Layer 1
 62
   250
420
  2301728
370
    18
100
AcDbVertex
100
AcDb2dVertex
 10
313.3894642902578
 20
-202.6913385965572
 30
0.0
  0
VERTEX
  5
279
330
275
100
AcDbEntity
  8
Layer 1
 62
   250
420
  2301728
370
    18
100
AcDbVertex
100
AcDb2dVertex
 10
318.7271203858509
 20
-202.6913385965572
 30
0.0
  0
VERTEX
  5
27A
330
275
100
AcDbEntity
  8
Layer 1
 62
   250
420
  2301728
370
    18
100
AcDbVertex
100
AcDb2dVertex
 10
318.7271203858509
 20
-206.4737634530484
 30
0.0
  0
SEQEND
  5
27C
330
275
100
AcDbEntity
  8
Layer 1
 62
   250
420
  2301728
370
    18
  0
HATCH
  5
27B
330
1F
100
AcDbEntity
  8
Layer 1
 62
   254
420
 13750996
100
AcDbHatch
 10
0.0
 20
0.0
 30
0.0
210
0.0
220
0.0
230
1.0
  2
SOLID
 70
     1
 71
     0
 91
        1
 92
        1
 93
        4
 72
     1
 10
318.7271203858509
 20
-206.4737634530484
 11
313.3894642902578
 21
-206.4737634530484
 72
     1
 10
313.3894642902578
 20
-206.4737634530484
 11
313.3894642902578
 21
-202.6913385965572
 72
     1
 10
313.3894642902578
 20
-202.6913385965572
 11
318.7271203858509
 21
-202.6913385965572
 72
     1
 10
318.7271203858509
 20
-202.6913385965572
 11
318.7271203858509
 21
-206.4737634530484
 97
        0
 75
     2
 76
     1
 98
        0
  0
POLYLINE
  5
27D
330
1F
100
AcDbEntity
  8
Layer 1
 62
   250
420
  2301728
370
    18
100
AcDb2dPolyline
 66
     1
 10
0.0
 20
0.0
 30
0.0
  0
VERTEX
  5
27E
330
27D
100
AcDbEntity
  8
Layer 1
 62
   250
420
  2301728
370
    18
100
AcDbVertex
100
AcDb2dVertex
 10
324.0647764814439
 20
-206.4737634530484
 30
0.0
  0
VERTEX
  5
27F
330
27D
100
AcDbEntity
  8
Layer 1
 62
   250
420
  2301728
370
    18
100
AcDbVertex
100
AcDb2dVertex
 10
318.7271203858509
 20
-206.4737634530484
 30
0.0
  0
VERTEX
  5
280
330
27D
100
AcDbEntity
  8
Layer 1
 62
   250
420
  2301728
370
    18
100
AcDbVertex
100
AcDb2dVertex
 10
318.7271203858509
 20
-202.6913385965572
 30
0.0
  0
VERTEX
  5
281
330
27D
100
AcDbEntity
  8
Layer 1
 62
   250
420
  2301728
370
    18
100
AcDbVertex
100
AcDb2dVertex
 10
324.0647764814439
 20
-202.6913385965572
 30
0.0
  0
VERTEX
  5
282
330
27D
100
AcDbEntity
  8
Layer 1
 62
   250
420
  2301728
370
    18
100
AcDbVertex
100
AcDb2dVertex
 10
324.0647764814439
 20
-206.4737634530484
 30
0.0
  0
SEQEND
  5
284
330
27D
100
AcDbEntity
  8
Layer 1
 62
   250
420
  2301728
370
    18
  0
HATCH
  5
283
330
1F
100
AcDbEntity
  8
Layer 1
 62
   254
420
 13750996
100
AcDbHatch
 10
0.0
 20
0.0
 30
0.0
210
0.0
220
0.0
230
1.0
  2
SOLID
 70
     1
 71
     0
 91
        1
 92
        1
 93
        4
 72
     1
 10
324.0647764814439
 20
-206.4737634530484
 11
318.7271203858509
 21
-206.4737634530484
 72
     1
 10
318.7271203858509
 20
-206.4737634530484
 11
318.7271203858509
 21
-202.6913385965572
 72
     1
 10
318.7271203858509
 20
-202.6913385965572
 11
324.0647764814439
 21
-202.6913385965572
 72
     1
 10
324.0647764814439
 20
-202.6913385965572
 11
324.0647764814439
 21
-206.4737634530484
 97
        0
 75
     2
 76
     1
 98
        0
  0
POLYLINE
  5
285
330
1F
100
AcDbEntity
  8
Layer 1
 62
   250
420
  2301728
370
    18
100
AcDb2dPolyline
 66
     1
 10
0.0
 20
0.0
 30
0.0
  0
VERTEX
  5
286
330
285
100
AcDbEntity
  8
Layer 1
 62
   250
420
  2301728
370
    18
100
AcDbVertex
100
AcDb2dVertex
 10
329.402432577037
 20
-206.4737634530484
 30
0.0
  0
VERTEX
  5
287
330
285
100
AcDbEntity
  8
Layer 1
 62
   250
420
  2301728
370
    18
100
AcDbVertex
100
AcDb2dVertex
 10
324.0647764814439
 20
-206.4737634530484
 30
0.0
  0
VERTEX
  5
288
330
285
100
AcDbEntity
  8
Layer 1
 62
   250
420
  2301728
370
    18
100
AcDbVertex
100
AcDb2dVertex
 10
324.0647764814439
 20
-202.6913385965572
 30
0.0
  0
VERTEX
  5
289
330
285
100
AcDbEntity
  8
Layer 1
 62
   250
420
  2301728
370
    18
100
AcDbVertex
100
AcDb2dVertex
 10
329.402432577037
 20
-202.6913385965572
 30
0.0
  0
VERTEX
  5
28A
330
285
100
AcDbEntity
  8
Layer 1
 62
   250
420
  2301728
370
    18
100
AcDbVertex
100
AcDb2dVertex
 10
329.402432577037
 20
-206.4737634530484
 30
0.0
  0
SEQEND
  5
28C
330
285
100
AcDbEntity
  8
Layer 1
 62
   250
420
  2301728
370
    18
  0
HATCH
  5
28B
330
1F
100
AcDbEntity
  8
Layer 1
 62
   254
420
 13750996
100
AcDbHatch
 10
0.0
 20
0.0
 30
0.0
210
0.0
220
0.0
230
1.0
  2
SOLID
 70
     1
 71
     0
 91
        1
 92
        1
 93
        4
 72
     1
 10
329.402432577037
 20
-206.4737634530484
 11
324.0647764814439
 21
-206.4737634530484
 72
     1
 10
324.0647764814439
 20
-206.4737634530484
 11
324.0647764814439
 21
-202.6913385965572
 72
     1
 10
324.0647764814439
 20
-202.6913385965572
 11
329.402432577037
 21
-202.6913385965572
 72
     1
 10
329.402432577037
 20
-202.6913385965572
 11
329.402432577037
 21
-206.4737634530484
 97
        0
 75
     2
 76
     1
 98
        0
  0
POLYLINE
  5
28D
330
1F
100
AcDbEntity
  8
Layer 1
 62
   250
420
  2301728
370
    18
100
AcDb2dPolyline
 66
     1
 10
0.0
 20
0.0
 30
0.0
  0
VERTEX
  5
28E
330
28D
100
AcDbEntity
  8
Layer 1
 62
   250
420
  2301728
370
    18
100
AcDbVertex
100
AcDb2dVertex
 10
334.74008867263
 20
-206.4737634530484
 30
0.0
  0
VERTEX
  5
28F
330
28D
100
AcDbEntity
  8
Layer 1
 62
   250
420
  2301728
370
    18
100
AcDbVertex
100
AcDb2dVertex
 10
329.402432577037
 20
-206.4737634530484
 30
0.0
  0
VERTEX
  5
290
330
28D
100
AcDbEntity
  8
Layer 1
 62
   250
420
  2301728
370
    18
100
AcDbVertex
100
AcDb2dVertex
 10
329.402432577037
 20
-202.6913385965572
 30
0.0
  0
VERTEX
  5
291
330
28D
100
AcDbEntity
  8
Layer 1
 62
   250
420
  2301728
370
    18
100
AcDbVertex
100
AcDb2dVertex
 10
334.74008867263
 20
-202.6913385965572
 30
0.0
  0
VERTEX
  5
292
330
28D
100
AcDbEntity
  8
Layer 1
 62
   250
420
  2301728
370
    18
100
AcDbVertex
100
AcDb2dVertex
 10
334.74008867263
 20
-206.4737634530484
 30
0.0
  0
SEQEND
  5
294
330
28D
100
AcDbEntity
  8
Layer 1
 62
   250
420
  2301728
370
    18
  0
HATCH
  5
293
330
1F
100
AcDbEntity
  8
Layer 1
 62
   254
420
 13750996
100
AcDbHatch
 10
0.0
 20
0.0
 30
0.0
210
0.0
220
0.0
230
1.0
  2
SOLID
 70
     1
 71
     0
 91
        1
 92
        1
 93
        4
 72
     1
 10
334.74008867263
 20
-206.4737634530484
 11
329.402432577037
 21
-206.4737634530484
 72
     1
 10
329.402432577037
 20
-206.4737634530484
 11
329.402432577037
 21
-202.6913385965572
 72
     1
 10
329.402432577037
 20
-202.6913385965572
 11
334.74008867263
 21
-202.6913385965572
 72
     1
 10
334.74008867263
 20
-202.6913385965572
 11
334.74008867263
 21
-206.4737634530484
 97
        0
 75
     2
 76
     1
 98
        0
  0
POLYLINE
  5
295
330
1F
100
AcDbEntity
  8
Layer 1
 62
   250
420
  2301728
370
    18
100
AcDb2dPolyline
 66
     1
 10
0.0
 20
0.0
 30
0.0
  0
VERTEX
  5
296
330
295
100
AcDbEntity
  8
Layer 1
 62
   250
420
  2301728
370
    18
100
AcDbVertex
100
AcDb2dVertex
 10
340.0777447682231
 20
-206.4737634530484
 30
0.0
  0
VERTEX
  5
297
330
295
100
AcDbEntity
  8
Layer 1
 62
   250
420
  2301728
370
    18
100
AcDbVertex
100
AcDb2dVertex
 10
334.74008867263
 20
-206.4737634530484
 30
0.0
  0
VERTEX
  5
298
330
295
100
AcDbEntity
  8
Layer 1
 62
   250
420
  2301728
370
    18
100
AcDbVertex
100
AcDb2dVertex
 10
334.74008867263
 20
-202.6913385965572
 30
0.0
  0
VERTEX
  5
299
330
295
100
AcDbEntity
  8
Layer 1
 62
   250
420
  2301728
370
    18
100
AcDbVertex
100
AcDb2dVertex
 10
340.0777447682231
 20
-202.6913385965572
 30
0.0
  0
VERTEX
  5
29A
330
295
100
AcDbEntity
  8
Layer 1
 62
   250
420
  2301728
370
    18
100
AcDbVertex
100
AcDb2dVertex
 10
340.0777447682231
 20
-206.4737634530484
 30
0.0
  0
SEQEND
  5
29C
330
295
100
AcDbEntity
  8
Layer 1
 62
   250
420
  2301728
370
    18
  0
HATCH
  5
29B
330
1F
100
AcDbEntity
  8
Layer 1
 62
   254
420
 13750996
100
AcDbHatch
 10
0.0
 20
0.0
 30
0.0
210
0.0
220
0.0
230
1.0
  2
SOLID
 70
     1
 71
     0
 91
        1
 92
        1
 93
        4
 72
     1
 10
340.0777447682231
 20
-206.4737634530484
 11
334.74008867263
 21
-206.4737634530484
 72
     1
 10
334.74008867263
 20
-206.4737634530484
 11
334.74008867263
 21
-202.6913385965572
 72
     1
 10
334.74008867263
 20
-202.6913385965572
 11
340.0777447682231
 21
-202.6913385965572
 72
     1
 10
340.0777447682231
 20
-202.6913385965572
 11
340.0777447682231
 21
-206.4737634530484
 97
        0
 75
     2
 76
     1
 98
        0
  0
POLYLINE
  5
29D
330
1F
100
AcDbEntity
  8
Layer 1
 62
   250
420
  2301728
370
    18
100
AcDb2dPolyline
 66
     1
 10
0.0
 20
0.0
 30
0.0
  0
VERTEX
  5
29E
330
29D
100
AcDbEntity
  8
Layer 1
 62
   250
420
  2301728
370
    18
100
AcDbVertex
100
AcDb2dVertex
 10
345.4154008638161
 20
-206.4737634530484
 30
0.0
  0
VERTEX
  5
29F
330
29D
100
AcDbEntity
  8
Layer 1
 62
   250
420
  2301728
370
    18
100
AcDbVertex
100
AcDb2dVertex
 10
340.0777447682231
 20
-206.4737634530484
 30
0.0
  0
VERTEX
  5
2A0
330
29D
100
AcDbEntity
  8
Layer 1
 62
   250
420
  2301728
370
    18
100
AcDbVertex
100
AcDb2dVertex
 10
340.0777447682231
 20
-202.6913385965572
 30
0.0
  0
VERTEX
  5
2A1
330
29D
100
AcDbEntity
  8
Layer 1
 62
   250
420
  2301728
370
    18
100
AcDbVertex
100
AcDb2dVertex
 10
345.4154008638161
 20
-202.6913385965572
 30
0.0
  0
VERTEX
  5
2A2
330
29D
100
AcDbEntity
  8
Layer 1
 62
   250
420
  2301728
370
    18
100
AcDbVertex
100
AcDb2dVertex
 10
345.4154008638161
 20
-206.4737634530484
 30
0.0
  0
SEQEND
  5
2A4
330
29D
100
AcDbEntity
  8
Layer 1
 62
   250
420
  2301728
370
    18
  0
HATCH
  5
2A3
330
1F
100
AcDbEntity
  8
Layer 1
 62
   254
420
 13750996
100
AcDbHatch
 10
0.0
 20
0.0
 30
0.0
210
0.0
220
0.0
230
1.0
  2
SOLID
 70
     1
 71
     0
 91
        1
 92
        1
 93
        4
 72
     1
 10
345.4154008638161
 20
-206.4737634530484
 11
340.0777447682231
 21
-206.4737634530484
 72
     1
 10
340.0777447682231
 20
-206.4737634530484
 11
340.0777447682231
 21
-202.6913385965572
 72
     1
 10
340.0777447682231
 20
-202.6913385965572
 11
345.4154008638161
 21
-202.6913385965572
 72
     1
 10
345.4154008638161
 20
-202.6913385965572
 11
345.4154008638161
 21
-206.4737634530484
 97
        0
 75
     2
 76
     1
 98
        0
  0
POLYLINE
  5
2A5
330
1F
100
AcDbEntity
  8
Layer 1
 62
   250
420
  2301728
370
    18
100
AcDb2dPolyline
 66
     1
 10
0.0
 20
0.0
 30
0.0
  0
VERTEX
  5
2A6
330
2A5
100
AcDbEntity
  8
Layer 1
 62
   250
420
  2301728
370
    18
100
AcDbVertex
100
AcDb2dVertex
 10
350.7530569594092
 20
-206.4737634530484
 30
0.0
  0
VERTEX
  5
2A7
330
2A5
100
AcDbEntity
  8
Layer 1
 62
   250
420
  2301728
370
    18
100
AcDbVertex
100
AcDb2dVertex
 10
345.4154008638161
 20
-206.4737634530484
 30
0.0
  0
VERTEX
  5
2A8
330
2A5
100
AcDbEntity
  8
Layer 1
 62
   250
420
  2301728
370
    18
100
AcDbVertex
100
AcDb2dVertex
 10
345.4154008638161
 20
-202.6913385965572
 30
0.0
  0
VERTEX
  5
2A9
330
2A5
100
AcDbEntity
  8
Layer 1
 62
   250
420
  2301728
370
    18
100
AcDbVertex
100
AcDb2dVertex
 10
350.7530569594092
 20
-202.6913385965572
 30
0.0
  0
VERTEX
  5
2AA
330
2A5
100
AcDbEntity
  8
Layer 1
 62
   250
420
  2301728
370
    18
100
AcDbVertex
100
AcDb2dVertex
 10
350.7530569594092
 20
-206.4737634530484
 30
0.0
  0
SEQEND
  5
2AC
330
2A5
100
AcDbEntity
  8
Layer 1
 62
   250
420
  2301728
370
    18
  0
HATCH
  5
2AB
330
1F
100
AcDbEntity
  8
Layer 1
 62
   254
420
 13750996
100
AcDbHatch
 10
0.0
 20
0.0
 30
0.0
210
0.0
220
0.0
230
1.0
  2
SOLID
 70
     1
 71
     0
 91
        1
 92
        1
 93
        4
 72
     1
 10
350.7530569594092
 20
-206.4737634530484
 11
345.4154008638161
 21
-206.4737634530484
 72
     1
 10
345.4154008638161
 20
-206.4737634530484
 11
345.4154008638161
 21
-202.6913385965572
 72
     1
 10
345.4154008638161
 20
-202.6913385965572
 11
350.7530569594092
 21
-202.6913385965572
 72
     1
 10
350.7530569594092
 20
-202.6913385965572
 11
350.7530569594092
 21
-206.4737634530484
 97
        0
 75
     2
 76
     1
 98
        0
  0
POLYLINE
  5
2AD
330
1F
100
AcDbEntity
  8
Layer 1
 62
   250
420
  2301728
370
    18
100
AcDb2dPolyline
 66
     1
 10
0.0
 20
0.0
 30
0.0
  0
VERTEX
  5
2AE
330
2AD
100
AcDbEntity
  8
Layer 1
 62
   250
420
  2301728
370
    18
100
AcDbVertex
100
AcDb2dVertex
 10
356.0907130550022
 20
-206.4737634530484
 30
0.0
  0
VERTEX
  5
2AF
330
2AD
100
AcDbEntity
  8
Layer 1
 62
   250
420
  2301728
370
    18
100
AcDbVertex
100
AcDb2dVertex
 10
350.7530569594092
 20
-206.4737634530484
 30
0.0
  0
VERTEX
  5
2B0
330
2AD
100
AcDbEntity
  8
Layer 1
 62
   250
420
  2301728
370
    18
100
AcDbVertex
100
AcDb2dVertex
 10
350.7530569594092
 20
-202.6913385965572
 30
0.0
  0
VERTEX
  5
2B1
330
2AD
100
AcDbEntity
  8
Layer 1
 62
   250
420
  2301728
370
    18
100
AcDbVertex
100
AcDb2dVertex
 10
356.0907130550022
 20
-202.6913385965572
 30
0.0
  0
VERTEX
  5
2B2
330
2AD
100
AcDbEntity
  8
Layer 1
 62
   250
420
  2301728
370
    18
100
AcDbVertex
100
AcDb2dVertex
 10
356.0907130550022
 20
-206.4737634530484
 30
0.0
  0
SEQEND
  5
2B4
330
2AD
100
AcDbEntity
  8
Layer 1
 62
   250
420
  2301728
370
    18
  0
HATCH
  5
2B3
330
1F
100
AcDbEntity
  8
Layer 1
 62
   254
420
 13750996
100
AcDbHatch
 10
0.0
 20
0.0
 30
0.0
210
0.0
220
0.0
230
1.0
  2
SOLID
 70
     1
 71
     0
 91
        1
 92
        1
 93
        4
 72
     1
 10
356.0907130550022
 20
-206.4737634530484
 11
350.7530569594092
 21
-206.4737634530484
 72
     1
 10
350.7530569594092
 20
-206.4737634530484
 11
350.7530569594092
 21
-202.6913385965572
 72
     1
 10
350.7530569594092
 20
-202.6913385965572
 11
356.0907130550022
 21
-202.6913385965572
 72
     1
 10
356.0907130550022
 20
-202.6913385965572
 11
356.0907130550022
 21
-206.4737634530484
 97
        0
 75
     2
 76
     1
 98
        0
  0
POLYLINE
  5
2B5
330
1F
100
AcDbEntity
  8
Layer 1
 62
   250
420
  2301728
370
    18
100
AcDb2dPolyline
 66
     1
 10
0.0
 20
0.0
 30
0.0
  0
VERTEX
  5
2B6
330
2B5
100
AcDbEntity
  8
Layer 1
 62
   250
420
  2301728
370
    18
100
AcDbVertex
100
AcDb2dVertex
 10
361.4283691505952
 20
-206.4737634530484
 30
0.0
  0
VERTEX
  5
2B7
330
2B5
100
AcDbEntity
  8
Layer 1
 62
   250
420
  2301728
370
    18
100
AcDbVertex
100
AcDb2dVertex
 10
356.0907130550022
 20
-206.4737634530484
 30
0.0
  0
VERTEX
  5
2B8
330
2B5
100
AcDbEntity
  8
Layer 1
 62
   250
420
  2301728
370
    18
100
AcDbVertex
100
AcDb2dVertex
 10
356.0907130550022
 20
-202.6913385965572
 30
0.0
  0
VERTEX
  5
2B9
330
2B5
100
AcDbEntity
  8
Layer 1
 62
   250
420
  2301728
370
    18
100
AcDbVertex
100
AcDb2dVertex
 10
361.4283691505952
 20
-202.6913385965572
 30
0.0
  0
VERTEX
  5
2BA
330
2B5
100
AcDbEntity
  8
Layer 1
 62
   250
420
  2301728
370
    18
100
AcDbVertex
100
AcDb2dVertex
 10
361.4283691505952
 20
-206.4737634530484
 30
0.0
  0
SEQEND
  5
2BC
330
2B5
100
AcDbEntity
  8
Layer 1
 62
   250
420
  2301728
370
    18
  0
HATCH
  5
2BB
330
1F
100
AcDbEntity
  8
Layer 1
 62
   254
420
 13750996
100
AcDbHatch
 10
0.0
 20
0.0
 30
0.0
210
0.0
220
0.0
230
1.0
  2
SOLID
 70
     1
 71
     0
 91
        1
 92
        1
 93
        4
 72
     1
 10
361.4283691505952
 20
-206.4737634530484
 11
356.0907130550022
 21
-206.4737634530484
 72
     1
 10
356.0907130550022
 20
-206.4737634530484
 11
356.0907130550022
 21
-202.6913385965572
 72
     1
 10
356.0907130550022
 20
-202.6913385965572
 11
361.4283691505952
 21
-202.6913385965572
 72
     1
 10
361.4283691505952
 20
-202.6913385965572
 11
361.4283691505952
 21
-206.4737634530484
 97
        0
 75
     2
 76
     1
 98
        0
  0
POLYLINE
  5
2BD
330
1F
100
AcDbEntity
  8
Layer 1
 62
   250
420
  2301728
370
    18
100
AcDb2dPolyline
 66
     1
 10
0.0
 20
0.0
 30
0.0
  0
VERTEX
  5
2BE
330
2BD
100
AcDbEntity
  8
Layer 1
 62
   250
420
  2301728
370
    18
100
AcDbVertex
100
AcDb2dVertex
 10
366.7660252461883
 20
-206.4737634530484
 30
0.0
  0
VERTEX
  5
2BF
330
2BD
100
AcDbEntity
  8
Layer 1
 62
   250
420
  2301728
370
    18
100
AcDbVertex
100
AcDb2dVertex
 10
361.4283691505952
 20
-206.4737634530484
 30
0.0
  0
VERTEX
  5
2C0
330
2BD
100
AcDbEntity
  8
Layer 1
 62
   250
420
  2301728
370
    18
100
AcDbVertex
100
AcDb2dVertex
 10
361.4283691505952
 20
-202.6913385965572
 30
0.0
  0
VERTEX
  5
2C1
330
2BD
100
AcDbEntity
  8
Layer 1
 62
   250
420
  2301728
370
    18
100
AcDbVertex
100
AcDb2dVertex
 10
366.7660252461883
 20
-202.6913385965572
 30
0.0
  0
VERTEX
  5
2C2
330
2BD
100
AcDbEntity
  8
Layer 1
 62
   250
420
  2301728
370
    18
100
AcDbVertex
100
AcDb2dVertex
 10
366.7660252461883
 20
-206.4737634530484
 30
0.0
  0
SEQEND
  5
2C4
330
2BD
100
AcDbEntity
  8
Layer 1
 62
   250
420
  2301728
370
    18
  0
HATCH
  5
2C3
330
1F
100
AcDbEntity
  8
Layer 1
 62
   254
420
 13750996
100
AcDbHatch
 10
0.0
 20
0.0
 30
0.0
210
0.0
220
0.0
230
1.0
  2
SOLID
 70
     1
 71
     0
 91
        1
 92
        1
 93
        4
 72
     1
 10
366.7660252461883
 20
-206.4737634530484
 11
361.4283691505952
 21
-206.4737634530484
 72
     1
 10
361.4283691505952
 20
-206.4737634530484
 11
361.4283691505952
 21
-202.6913385965572
 72
     1
 10
361.4283691505952
 20
-202.6913385965572
 11
366.7660252461883
 21
-202.6913385965572
 72
     1
 10
366.7660252461883
 20
-202.6913385965572
 11
366.7660252461883
 21
-206.4737634530484
 97
        0
 75
     2
 76
     1
 98
        0
  0
POLYLINE
  5
2C5
330
1F
100
AcDbEntity
  8
Layer 1
 62
   250
420
  2301728
370
    18
100
AcDb2dPolyline
 66
     1
 10
0.0
 20
0.0
 30
0.0
  0
VERTEX
  5
2C6
330
2C5
100
AcDbEntity
  8
Layer 1
 62
   250
420
  2301728
370
    18
100
AcDbVertex
100
AcDb2dVertex
 10
372.1036813417813
 20
-206.4737634530484
 30
0.0
  0
VERTEX
  5
2C7
330
2C5
100
AcDbEntity
  8
Layer 1
 62
   250
420
  2301728
370
    18
100
AcDbVertex
100
AcDb2dVertex
 10
366.7660252461883
 20
-206.4737634530484
 30
0.0
  0
VERTEX
  5
2C8
330
2C5
100
AcDbEntity
  8
Layer 1
 62
   250
420
  2301728
370
    18
100
AcDbVertex
100
AcDb2dVertex
 10
366.7660252461883
 20
-202.6913385965572
 30
0.0
  0
VERTEX
  5
2C9
330
2C5
100
AcDbEntity
  8
Layer 1
 62
   250
420
  2301728
370
    18
100
AcDbVertex
100
AcDb2dVertex
 10
372.1036813417813
 20
-202.6913385965572
 30
0.0
  0
VERTEX
  5
2CA
330
2C5
100
AcDbEntity
  8
Layer 1
 62
   250
420
  2301728
370
    18
100
AcDbVertex
100
AcDb2dVertex
 10
372.1036813417813
 20
-206.4737634530484
 30
0.0
  0
SEQEND
  5
2CC
330
2C5
100
AcDbEntity
  8
Layer 1
 62
   250
420
  2301728
370
    18
  0
HATCH
  5
2CB
330
1F
100
AcDbEntity
  8
Layer 1
 62
   254
420
 13750996
100
AcDbHatch
 10
0.0
 20
0.0
 30
0.0
210
0.0
220
0.0
230
1.0
  2
SOLID
 70
     1
 71
     0
 91
        1
 92
        1
 93
        4
 72
     1
 10
372.1036813417813
 20
-206.4737634530484
 11
366.7660252461883
 21
-206.4737634530484
 72
     1
 10
366.7660252461883
 20
-206.4737634530484
 11
366.7660252461883
 21
-202.6913385965572
 72
     1
 10
366.7660252461883
 20
-202.6913385965572
 11
372.1036813417813
 21
-202.6913385965572
 72
     1
 10
372.1036813417813
 20
-202.6913385965572
 11
372.1036813417813
 21
-206.4737634530484
 97
        0
 75
     2
 76
     1
 98
        0
  0
POLYLINE
  5
2CD
330
1F
100
AcDbEntity
  8
Layer 1
 62
   250
420
  2301728
370
    18
100
AcDb2dPolyline
 66
     1
 10
0.0
 20
0.0
 30
0.0
  0
VERTEX
  5
2CE
330
2CD
100
AcDbEntity
  8
Layer 1
 62
   250
420
  2301728
370
    18
100
AcDbVertex
100
AcDb2dVertex
 10
377.4413374373744
 20
-206.4737634530484
 30
0.0
  0
VERTEX
  5
2CF
330
2CD
100
AcDbEntity
  8
Layer 1
 62
   250
420
  2301728
370
    18
100
AcDbVertex
100
AcDb2dVertex
 10
372.1036813417813
 20
-206.4737634530484
 30
0.0
  0
VERTEX
  5
2D0
330
2CD
100
AcDbEntity
  8
Layer 1
 62
   250
420
  2301728
370
    18
100
AcDbVertex
100
AcDb2dVertex
 10
372.1036813417813
 20
-202.6913385965572
 30
0.0
  0
VERTEX
  5
2D1
330
2CD
100
AcDbEntity
  8
Layer 1
 62
   250
420
  2301728
370
    18
100
AcDbVertex
100
AcDb2dVertex
 10
377.4413374373744
 20
-202.6913385965572
 30
0.0
  0
VERTEX
  5
2D2
330
2CD
100
AcDbEntity
  8
Layer 1
 62
   250
420
  2301728
370
    18
100
AcDbVertex
100
AcDb2dVertex
 10
377.4413374373744
 20
-206.4737634530484
 30
0.0
  0
SEQEND
  5
2D4
330
2CD
100
AcDbEntity
  8
Layer 1
 62
   250
420
  2301728
370
    18
  0
HATCH
  5
2D3
330
1F
100
AcDbEntity
  8
Layer 1
 62
   254
420
 13750996
100
AcDbHatch
 10
0.0
 20
0.0
 30
0.0
210
0.0
220
0.0
230
1.0
  2
SOLID
 70
     1
 71
     0
 91
        1
 92
        1
 93
        4
 72
     1
 10
377.4413374373744
 20
-206.4737634530484
 11
372.1036813417813
 21
-206.4737634530484
 72
     1
 10
372.1036813417813
 20
-206.4737634530484
 11
372.1036813417813
 21
-202.6913385965572
 72
     1
 10
372.1036813417813
 20
-202.6913385965572
 11
377.4413374373744
 21
-202.6913385965572
 72
     1
 10
377.4413374373744
 20
-202.6913385965572
 11
377.4413374373744
 21
-206.4737634530484
 97
        0
 75
     2
 76
     1
 98
        0
  0
POLYLINE
  5
2D5
330
1F
100
AcDbEntity
  8
Layer 1
 62
   250
420
  2301728
370
    18
100
AcDb2dPolyline
 66
     1
 10
0.0
 20
0.0
 30
0.0
  0
VERTEX
  5
2D6
330
2D5
100
AcDbEntity
  8
Layer 1
 62
   250
420
  2301728
370
    18
100
AcDbVertex
100
AcDb2dVertex
 10
382.7789935329674
 20
-206.4737634530484
 30
0.0
  0
VERTEX
  5
2D7
330
2D5
100
AcDbEntity
  8
Layer 1
 62
   250
420
  2301728
370
    18
100
AcDbVertex
100
AcDb2dVertex
 10
377.4413374373744
 20
-206.4737634530484
 30
0.0
  0
VERTEX
  5
2D8
330
2D5
100
AcDbEntity
  8
Layer 1
 62
   250
420
  2301728
370
    18
100
AcDbVertex
100
AcDb2dVertex
 10
377.4413374373744
 20
-202.6913385965572
 30
0.0
  0
VERTEX
  5
2D9
330
2D5
100
AcDbEntity
  8
Layer 1
 62
   250
420
  2301728
370
    18
100
AcDbVertex
100
AcDb2dVertex
 10
382.7789935329674
 20
-202.6913385965572
 30
0.0
  0
VERTEX
  5
2DA
330
2D5
100
AcDbEntity
  8
Layer 1
 62
   250
420
  2301728
370
    18
100
AcDbVertex
100
AcDb2dVertex
 10
382.7789935329674
 20
-206.4737634530484
 30
0.0
  0
SEQEND
  5
2DC
330
2D5
100
AcDbEntity
  8
Layer 1
 62
   250
420
  2301728
370
    18
  0
HATCH
  5
2DB
330
1F
100
AcDbEntity
  8
Layer 1
 62
   254
420
 13750996
100
AcDbHatch
 10
0.0
 20
0.0
 30
0.0
210
0.0
220
0.0
230
1.0
  2
SOLID
 70
     1
 71
     0
 91
        1
 92
        1
 93
        4
 72
     1
 10
382.7789935329674
 20
-206.4737634530484
 11
377.4413374373744
 21
-206.4737634530484
 72
     1
 10
377.4413374373744
 20
-206.4737634530484
 11
377.4413374373744
 21
-202.6913385965572
 72
     1
 10
377.4413374373744
 20
-202.6913385965572
 11
382.7789935329674
 21
-202.6913385965572
 72
     1
 10
382.7789935329674
 20
-202.6913385965572
 11
382.7789935329674
 21
-206.4737634530484
 97
        0
 75
     2
 76
     1
 98
        0
  0
POLYLINE
  5
2DD
330
1F
100
AcDbEntity
  8
Layer 1
 62
   250
420
  2301728
370
    18
100
AcDb2dPolyline
 66
     1
 10
0.0
 20
0.0
 30
0.0
  0
VERTEX
  5
2DE
330
2DD
100
AcDbEntity
  8
Layer 1
 62
   250
420
  2301728
370
    18
100
AcDbVertex
100
AcDb2dVertex
 10
388.1166496285605
 20
-206.4737634530484
 30
0.0
  0
VERTEX
  5
2DF
330
2DD
100
AcDbEntity
  8
Layer 1
 62
   250
420
  2301728
370
    18
100
AcDbVertex
100
AcDb2dVertex
 10
382.7789935329674
 20
-206.4737634530484
 30
0.0
  0
VERTEX
  5
2E0
330
2DD
100
AcDbEntity
  8
Layer 1
 62
   250
420
  2301728
370
    18
100
AcDbVertex
100
AcDb2dVertex
 10
382.7789935329674
 20
-202.6913385965572
 30
0.0
  0
VERTEX
  5
2E1
330
2DD
100
AcDbEntity
  8
Layer 1
 62
   250
420
  2301728
370
    18
100
AcDbVertex
100
AcDb2dVertex
 10
388.1166496285605
 20
-202.6913385965572
 30
0.0
  0
VERTEX
  5
2E2
330
2DD
100
AcDbEntity
  8
Layer 1
 62
   250
420
  2301728
370
    18
100
AcDbVertex
100
AcDb2dVertex
 10
388.1166496285605
 20
-206.4737634530484
 30
0.0
  0
SEQEND
  5
2E4
330
2DD
100
AcDbEntity
  8
Layer 1
 62
   250
420
  2301728
370
    18
  0
HATCH
  5
2E3
330
1F
100
AcDbEntity
  8
Layer 1
 62
   254
420
 13750996
100
AcDbHatch
 10
0.0
 20
0.0
 30
0.0
210
0.0
220
0.0
230
1.0
  2
SOLID
 70
     1
 71
     0
 91
        1
 92
        1
 93
        4
 72
     1
 10
388.1166496285605
 20
-206.4737634530484
 11
382.7789935329674
 21
-206.4737634530484
 72
     1
 10
382.7789935329674
 20
-206.4737634530484
 11
382.7789935329674
 21
-202.6913385965572
 72
     1
 10
382.7789935329674
 20
-202.6913385965572
 11
388.1166496285605
 21
-202.6913385965572
 72
     1
 10
388.1166496285605
 20
-202.6913385965572
 11
388.1166496285605
 21
-206.4737634530484
 97
        0
 75
     2
 76
     1
 98
        0
  0
POLYLINE
  5
2E5
330
1F
100
AcDbEntity
  8
Layer 1
 62
   250
420
  2301728
370
    18
100
AcDb2dPolyline
 66
     1
 10
0.0
 20
0.0
 30
0.0
  0
VERTEX
  5
2E6
330
2E5
100
AcDbEntity
  8
Layer 1
 62
   250
420
  2301728
370
    18
100
AcDbVertex
100
AcDb2dVertex
 10
393.4543057241535
 20
-206.4737634530484
 30
0.0
  0
VERTEX
  5
2E7
330
2E5
100
AcDbEntity
  8
Layer 1
 62
   250
420
  2301728
370
    18
100
AcDbVertex
100
AcDb2dVertex
 10
388.1166496285605
 20
-206.4737634530484
 30
0.0
  0
VERTEX
  5
2E8
330
2E5
100
AcDbEntity
  8
Layer 1
 62
   250
420
  2301728
370
    18
100
AcDbVertex
100
AcDb2dVertex
 10
388.1166496285605
 20
-202.6913385965572
 30
0.0
  0
VERTEX
  5
2E9
330
2E5
100
AcDbEntity
  8
Layer 1
 62
   250
420
  2301728
370
    18
100
AcDbVertex
100
AcDb2dVertex
 10
393.4543057241535
 20
-202.6913385965572
 30
0.0
  0
VERTEX
  5
2EA
330
2E5
100
AcDbEntity
  8
Layer 1
 62
   250
420
  2301728
370
    18
100
AcDbVertex
100
AcDb2dVertex
 10
393.4543057241535
 20
-206.4737634530484
 30
0.0
  0
SEQEND
  5
2EC
330
2E5
100
AcDbEntity
  8
Layer 1
 62
   250
420
  2301728
370
    18
  0
HATCH
  5
2EB
330
1F
100
AcDbEntity
  8
Layer 1
 62
   254
420
 13750996
100
AcDbHatch
 10
0.0
 20
0.0
 30
0.0
210
0.0
220
0.0
230
1.0
  2
SOLID
 70
     1
 71
     0
 91
        1
 92
        1
 93
        4
 72
     1
 10
393.4543057241535
 20
-206.4737634530484
 11
388.1166496285605
 21
-206.4737634530484
 72
     1
 10
388.1166496285605
 20
-206.4737634530484
 11
388.1166496285605
 21
-202.6913385965572
 72
     1
 10
388.1166496285605
 20
-202.6913385965572
 11
393.4543057241535
 21
-202.6913385965572
 72
     1
 10
393.4543057241535
 20
-202.6913385965572
 11
393.4543057241535
 21
-206.4737634530484
 97
        0
 75
     2
 76
     1
 98
        0
  0
POLYLINE
  5
2ED
330
1F
100
AcDbEntity
  8
Layer 1
 62
   250
420
  2301728
370
    18
100
AcDb2dPolyline
 66
     1
 10
0.0
 20
0.0
 30
0.0
  0
VERTEX
  5
2EE
330
2ED
100
AcDbEntity
  8
Layer 1
 62
   250
420
  2301728
370
    18
100
AcDbVertex
100
AcDb2dVertex
 10
398.7919618197466
 20
-206.4737634530484
 30
0.0
  0
VERTEX
  5
2EF
330
2ED
100
AcDbEntity
  8
Layer 1
 62
   250
420
  2301728
370
    18
100
AcDbVertex
100
AcDb2dVertex
 10
393.4543057241535
 20
-206.4737634530484
 30
0.0
  0
VERTEX
  5
2F0
330
2ED
100
AcDbEntity
  8
Layer 1
 62
   250
420
  2301728
370
    18
100
AcDbVertex
100
AcDb2dVertex
 10
393.4543057241535
 20
-202.6913385965572
 30
0.0
  0
VERTEX
  5
2F1
330
2ED
100
AcDbEntity
  8
Layer 1
 62
   250
420
  2301728
370
    18
100
AcDbVertex
100
AcDb2dVertex
 10
398.7919618197466
 20
-202.6913385965572
 30
0.0
  0
VERTEX
  5
2F2
330
2ED
100
AcDbEntity
  8
Layer 1
 62
   250
420
  2301728
370
    18
100
AcDbVertex
100
AcDb2dVertex
 10
398.7919618197466
 20
-206.4737634530484
 30
0.0
  0
SEQEND
  5
2F4
330
2ED
100
AcDbEntity
  8
Layer 1
 62
   250
420
  2301728
370
    18
  0
HATCH
  5
2F3
330
1F
100
AcDbEntity
  8
Layer 1
 62
   254
420
 13750996
100
AcDbHatch
 10
0.0
 20
0.0
 30
0.0
210
0.0
220
0.0
230
1.0
  2
SOLID
 70
     1
 71
     0
 91
        1
 92
        1
 93
        4
 72
     1
 10
398.7919618197466
 20
-206.4737634530484
 11
393.4543057241535
 21
-206.4737634530484
 72
     1
 10
393.4543057241535
 20
-206.4737634530484
 11
393.4543057241535
 21
-202.6913385965572
 72
     1
 10
393.4543057241535
 20
-202.6913385965572
 11
398.7919618197466
 21
-202.6913385965572
 72
     1
 10
398.7919618197466
 20
-202.6913385965572
 11
398.7919618197466
 21
-206.4737634530484
 97
        0
 75
     2
 76
     1
 98
        0
  0
POLYLINE
  5
2F5
330
1F
100
AcDbEntity
  8
Layer 1
 62
   250
420
  2301728
370
    18
100
AcDb2dPolyline
 66
     1
 10
0.0
 20
0.0
 30
0.0
  0
VERTEX
  5
2F6
330
2F5
100
AcDbEntity
  8
Layer 1
 62
   250
420
  2301728
370
    18
100
AcDbVertex
100
AcDb2dVertex
 10
404.1296179153396
 20
-206.4737634530484
 30
0.0
  0
VERTEX
  5
2F7
330
2F5
100
AcDbEntity
  8
Layer 1
 62
   250
420
  2301728
370
    18
100
AcDbVertex
100
AcDb2dVertex
 10
398.7919618197466
 20
-206.4737634530484
 30
0.0
  0
VERTEX
  5
2F8
330
2F5
100
AcDbEntity
  8
Layer 1
 62
   250
420
  2301728
370
    18
100
AcDbVertex
100
AcDb2dVertex
 10
398.7919618197466
 20
-202.6913385965572
 30
0.0
  0
VERTEX
  5
2F9
330
2F5
100
AcDbEntity
  8
Layer 1
 62
   250
420
  2301728
370
    18
100
AcDbVertex
100
AcDb2dVertex
 10
404.1296179153396
 20
-202.6913385965572
 30
0.0
  0
VERTEX
  5
2FA
330
2F5
100
AcDbEntity
  8
Layer 1
 62
   250
420
  2301728
370
    18
100
AcDbVertex
100
AcDb2dVertex
 10
404.1296179153396
 20
-206.4737634530484
 30
0.0
  0
SEQEND
  5
2FC
330
2F5
100
AcDbEntity
  8
Layer 1
 62
   250
420
  2301728
370
    18
  0
HATCH
  5
2FB
330
1F
100
AcDbEntity
  8
Layer 1
 62
   254
420
 13750996
100
AcDbHatch
 10
0.0
 20
0.0
 30
0.0
210
0.0
220
0.0
230
1.0
  2
SOLID
 70
     1
 71
     0
 91
        1
 92
        1
 93
        4
 72
     1
 10
404.1296179153396
 20
-206.4737634530484
 11
398.7919618197466
 21
-206.4737634530484
 72
     1
 10
398.7919618197466
 20
-206.4737634530484
 11
398.7919618197466
 21
-202.6913385965572
 72
     1
 10
398.7919618197466
 20
-202.6913385965572
 11
404.1296179153396
 21
-202.6913385965572
 72
     1
 10
404.1296179153396
 20
-202.6913385965572
 11
404.1296179153396
 21
-206.4737634530484
 97
        0
 75
     2
 76
     1
 98
        0
  0
POLYLINE
  5
2FD
330
1F
100
AcDbEntity
  8
Layer 1
 62
   250
420
  2301728
370
    18
100
AcDb2dPolyline
 66
     1
 10
0.0
 20
0.0
 30
0.0
  0
VERTEX
  5
2FE
330
2FD
100
AcDbEntity
  8
Layer 1
 62
   250
420
  2301728
370
    18
100
AcDbVertex
100
AcDb2dVertex
 10
409.4672740109327
 20
-206.4737634530484
 30
0.0
  0
VERTEX
  5
2FF
330
2FD
100
AcDbEntity
  8
Layer 1
 62
   250
420
  2301728
370
    18
100
AcDbVertex
100
AcDb2dVertex
 10
404.1296179153396
 20
-206.4737634530484
 30
0.0
  0
VERTEX
  5
300
330
2FD
100
AcDbEntity
  8
Layer 1
 62
   250
420
  2301728
370
    18
100
AcDbVertex
100
AcDb2dVertex
 10
404.1296179153396
 20
-202.6913385965572
 30
0.0
  0
VERTEX
  5
301
330
2FD
100
AcDbEntity
  8
Layer 1
 62
   250
420
  2301728
370
    18
100
AcDbVertex
100
AcDb2dVertex
 10
409.4672740109327
 20
-202.6913385965572
 30
0.0
  0
VERTEX
  5
302
330
2FD
100
AcDbEntity
  8
Layer 1
 62
   250
420
  2301728
370
    18
100
AcDbVertex
100
AcDb2dVertex
 10
409.4672740109327
 20
-206.4737634530484
 30
0.0
  0
SEQEND
  5
304
330
2FD
100
AcDbEntity
  8
Layer 1
 62
   250
420
  2301728
370
    18
  0
HATCH
  5
303
330
1F
100
AcDbEntity
  8
Layer 1
 62
   254
420
 13750996
100
AcDbHatch
 10
0.0
 20
0.0
 30
0.0
210
0.0
220
0.0
230
1.0
  2
SOLID
 70
     1
 71
     0
 91
        1
 92
        1
 93
        4
 72
     1
 10
409.4672740109327
 20
-206.4737634530484
 11
404.1296179153396
 21
-206.4737634530484
 72
     1
 10
404.1296179153396
 20
-206.4737634530484
 11
404.1296179153396
 21
-202.6913385965572
 72
     1
 10
404.1296179153396
 20
-202.6913385965572
 11
409.4672740109327
 21
-202.6913385965572
 72
     1
 10
409.4672740109327
 20
-202.6913385965572
 11
409.4672740109327
 21
-206.4737634530484
 97
        0
 75
     2
 76
     1
 98
        0
  0
POLYLINE
  5
305
330
1F
100
AcDbEntity
  8
Layer 1
 62
   250
420
  2301728
370
    18
100
AcDb2dPolyline
 66
     1
 10
0.0
 20
0.0
 30
0.0
  0
VERTEX
  5
306
330
305
100
AcDbEntity
  8
Layer 1
 62
   250
420
  2301728
370
    18
100
AcDbVertex
100
AcDb2dVertex
 10
414.8049301065257
 20
-206.4737634530484
 30
0.0
  0
VERTEX
  5
307
330
305
100
AcDbEntity
  8
Layer 1
 62
   250
420
  2301728
370
    18
100
AcDbVertex
100
AcDb2dVertex
 10
409.4672740109327
 20
-206.4737634530484
 30
0.0
  0
VERTEX
  5
308
330
305
100
AcDbEntity
  8
Layer 1
 62
   250
420
  2301728
370
    18
100
AcDbVertex
100
AcDb2dVertex
 10
409.4672740109327
 20
-202.6913385965572
 30
0.0
  0
VERTEX
  5
309
330
305
100
AcDbEntity
  8
Layer 1
 62
   250
420
  2301728
370
    18
100
AcDbVertex
100
AcDb2dVertex
 10
414.8049301065257
 20
-202.6913385965572
 30
0.0
  0
VERTEX
  5
30A
330
305
100
AcDbEntity
  8
Layer 1
 62
   250
420
  2301728
370
    18
100
AcDbVertex
100
AcDb2dVertex
 10
414.8049301065257
 20
-206.4737634530484
 30
0.0
  0
SEQEND
  5
30C
330
305
100
AcDbEntity
  8
Layer 1
 62
   250
420
  2301728
370
    18
  0
HATCH
  5
30B
330
1F
100
AcDbEntity
  8
Layer 1
 62
   254
420
 13750996
100
AcDbHatch
 10
0.0
 20
0.0
 30
0.0
210
0.0
220
0.0
230
1.0
  2
SOLID
 70
     1
 71
     0
 91
        1
 92
        1
 93
        4
 72
     1
 10
414.8049301065257
 20
-206.4737634530484
 11
409.4672740109327
 21
-206.4737634530484
 72
     1
 10
409.4672740109327
 20
-206.4737634530484
 11
409.4672740109327
 21
-202.6913385965572
 72
     1
 10
409.4672740109327
 20
-202.6913385965572
 11
414.8049301065257
 21
-202.6913385965572
 72
     1
 10
414.8049301065257
 20
-202.6913385965572
 11
414.8049301065257
 21
-206.4737634530484
 97
        0
 75
     2
 76
     1
 98
        0
  0
POLYLINE
  5
30D
330
1F
100
AcDbEntity
  8
Layer 1
 62
   250
420
  2301728
370
    18
100
AcDb2dPolyline
 66
     1
 10
0.0
 20
0.0
 30
0.0
  0
VERTEX
  5
30E
330
30D
100
AcDbEntity
  8
Layer 1
 62
   250
420
  2301728
370
    18
100
AcDbVertex
100
AcDb2dVertex
 10
420.1425862021188
 20
-206.4737634530484
 30
0.0
  0
VERTEX
  5
30F
330
30D
100
AcDbEntity
  8
Layer 1
 62
   250
420
  2301728
370
    18
100
AcDbVertex
100
AcDb2dVertex
 10
414.8049301065257
 20
-206.4737634530484
 30
0.0
  0
VERTEX
  5
310
330
30D
100
AcDbEntity
  8
Layer 1
 62
   250
420
  2301728
370
    18
100
AcDbVertex
100
AcDb2dVertex
 10
414.8049301065257
 20
-202.6913385965572
 30
0.0
  0
VERTEX
  5
311
330
30D
100
AcDbEntity
  8
Layer 1
 62
   250
420
  2301728
370
    18
100
AcDbVertex
100
AcDb2dVertex
 10
420.1425862021188
 20
-202.6913385965572
 30
0.0
  0
VERTEX
  5
312
330
30D
100
AcDbEntity
  8
Layer 1
 62
   250
420
  2301728
370
    18
100
AcDbVertex
100
AcDb2dVertex
 10
420.1425862021188
 20
-206.4737634530484
 30
0.0
  0
SEQEND
  5
314
330
30D
100
AcDbEntity
  8
Layer 1
 62
   250
420
  2301728
370
    18
  0
HATCH
  5
313
330
1F
100
AcDbEntity
  8
Layer 1
 62
   254
420
 13750996
100
AcDbHatch
 10
0.0
 20
0.0
 30
0.0
210
0.0
220
0.0
230
1.0
  2
SOLID
 70
     1
 71
     0
 91
        1
 92
        1
 93
        4
 72
     1
 10
420.1425862021188
 20
-206.4737634530484
 11
414.8049301065257
 21
-206.4737634530484
 72
     1
 10
414.8049301065257
 20
-206.4737634530484
 11
414.8049301065257
 21
-202.6913385965572
 72
     1
 10
414.8049301065257
 20
-202.6913385965572
 11
420.1425862021188
 21
-202.6913385965572
 72
     1
 10
420.1425862021188
 20
-202.6913385965572
 11
420.1425862021188
 21
-206.4737634530484
 97
        0
 75
     2
 76
     1
 98
        0
  0
POLYLINE
  5
315
330
1F
100
AcDbEntity
  8
Layer 1
 62
   250
420
  2301728
370
    18
100
AcDb2dPolyline
 66
     1
 10
0.0
 20
0.0
 30
0.0
  0
VERTEX
  5
316
330
315
100
AcDbEntity
  8
Layer 1
 62
   250
420
  2301728
370
    18
100
AcDbVertex
100
AcDb2dVertex
 10
425.4802422977118
 20
-206.4737634530484
 30
0.0
  0
VERTEX
  5
317
330
315
100
AcDbEntity
  8
Layer 1
 62
   250
420
  2301728
370
    18
100
AcDbVertex
100
AcDb2dVertex
 10
420.1425862021188
 20
-206.4737634530484
 30
0.0
  0
VERTEX
  5
318
330
315
100
AcDbEntity
  8
Layer 1
 62
   250
420
  2301728
370
    18
100
AcDbVertex
100
AcDb2dVertex
 10
420.1425862021188
 20
-202.6913385965572
 30
0.0
  0
VERTEX
  5
319
330
315
100
AcDbEntity
  8
Layer 1
 62
   250
420
  2301728
370
    18
100
AcDbVertex
100
AcDb2dVertex
 10
425.4802422977118
 20
-202.6913385965572
 30
0.0
  0
VERTEX
  5
31A
330
315
100
AcDbEntity
  8
Layer 1
 62
   250
420
  2301728
370
    18
100
AcDbVertex
100
AcDb2dVertex
 10
425.4802422977118
 20
-206.4737634530484
 30
0.0
  0
SEQEND
  5
31C
330
315
100
AcDbEntity
  8
Layer 1
 62
   250
420
  2301728
370
    18
  0
HATCH
  5
31B
330
1F
100
AcDbEntity
  8
Layer 1
 62
   254
420
 13750996
100
AcDbHatch
 10
0.0
 20
0.0
 30
0.0
210
0.0
220
0.0
230
1.0
  2
SOLID
 70
     1
 71
     0
 91
        1
 92
        1
 93
        4
 72
     1
 10
425.4802422977118
 20
-206.4737634530484
 11
420.1425862021188
 21
-206.4737634530484
 72
     1
 10
420.1425862021188
 20
-206.4737634530484
 11
420.1425862021188
 21
-202.6913385965572
 72
     1
 10
420.1425862021188
 20
-202.6913385965572
 11
425.4802422977118
 21
-202.6913385965572
 72
     1
 10
425.4802422977118
 20
-202.6913385965572
 11
425.4802422977118
 21
-206.4737634530484
 97
        0
 75
     2
 76
     1
 98
        0
  0
POLYLINE
  5
31D
330
1F
100
AcDbEntity
  8
Layer 1
 62
   250
420
  2301728
370
    18
100
AcDb2dPolyline
 66
     1
 10
0.0
 20
0.0
 30
0.0
  0
VERTEX
  5
31E
330
31D
100
AcDbEntity
  8
Layer 1
 62
   250
420
  2301728
370
    18
100
AcDbVertex
100
AcDb2dVertex
 10
105.2208765621281
 20
-296.1903810850126
 30
0.0
  0
VERTEX
  5
31F
330
31D
100
AcDbEntity
  8
Layer 1
 62
   250
420
  2301728
370
    18
100
AcDbVertex
100
AcDb2dVertex
 10
99.88322046653502
 20
-296.1903810850126
 30
0.0
  0
VERTEX
  5
320
330
31D
100
AcDbEntity
  8
Layer 1
 62
   250
420
  2301728
370
    18
100
AcDbVertex
100
AcDb2dVertex
 10
99.88322046653502
 20
-292.8385271535644
 30
0.0
  0
VERTEX
  5
321
330
31D
100
AcDbEntity
  8
Layer 1
 62
   250
420
  2301728
370
    18
100
AcDbVertex
100
AcDb2dVertex
 10
105.2208765621281
 20
-292.8385271535644
 30
0.0
  0
VERTEX
  5
322
330
31D
100
AcDbEntity
  8
Layer 1
 62
   250
420
  2301728
370
    18
100
AcDbVertex
100
AcDb2dVertex
 10
105.2208765621281
 20
-296.1903810850126
 30
0.0
  0
SEQEND
  5
324
330
31D
100
AcDbEntity
  8
Layer 1
 62
   250
420
  2301728
370
    18
  0
HATCH
  5
323
330
1F
100
AcDbEntity
  8
Layer 1
 62
   254
420
 13750996
100
AcDbHatch
 10
0.0
 20
0.0
 30
0.0
210
0.0
220
0.0
230
1.0
  2
SOLID
 70
     1
 71
     0
 91
        1
 92
        1
 93
        4
 72
     1
 10
105.2208765621281
 20
-296.1903810850126
 11
99.88322046653502
 21
-296.1903810850126
 72
     1
 10
99.88322046653502
 20
-296.1903810850126
 11
99.88322046653502
 21
-292.8385271535644
 72
     1
 10
99.88322046653502
 20
-292.8385271535644
 11
105.2208765621281
 21
-292.8385271535644
 72
     1
 10
105.2208765621281
 20
-292.8385271535644
 11
105.2208765621281
 21
-296.1903810850126
 97
        0
 75
     2
 76
     1
 98
        0
  0
POLYLINE
  5
325
330
1F
100
AcDbEntity
  8
Layer 1
 62
   250
420
  2301728
370
    18
100
AcDb2dPolyline
 66
     1
 10
0.0
 20
0.0
 30
0.0
  0
VERTEX
  5
326
330
325
100
AcDbEntity
  8
Layer 1
 62
   250
420
  2301728
370
    18
100
AcDbVertex
100
AcDb2dVertex
 10
110.5585326577211
 20
-296.1903810850126
 30
0.0
  0
VERTEX
  5
327
330
325
100
AcDbEntity
  8
Layer 1
 62
   250
420
  2301728
370
    18
100
AcDbVertex
100
AcDb2dVertex
 10
105.2208765621281
 20
-296.1903810850126
 30
0.0
  0
VERTEX
  5
328
330
325
100
AcDbEntity
  8
Layer 1
 62
   250
420
  2301728
370
    18
100
AcDbVertex
100
AcDb2dVertex
 10
105.2208765621281
 20
-292.8385271535644
 30
0.0
  0
VERTEX
  5
329
330
325
100
AcDbEntity
  8
Layer 1
 62
   250
420
  2301728
370
    18
100
AcDbVertex
100
AcDb2dVertex
 10
110.5585326577211
 20
-292.8385271535644
 30
0.0
  0
VERTEX
  5
32A
330
325
100
AcDbEntity
  8
Layer 1
 62
   250
420
  2301728
370
    18
100
AcDbVertex
100
AcDb2dVertex
 10
110.5585326577211
 20
-296.1903810850126
 30
0.0
  0
SEQEND
  5
32C
330
325
100
AcDbEntity
  8
Layer 1
 62
   250
420
  2301728
370
    18
  0
HATCH
  5
32B
330
1F
100
AcDbEntity
  8
Layer 1
 62
   254
420
 13750996
100
AcDbHatch
 10
0.0
 20
0.0
 30
0.0
210
0.0
220
0.0
230
1.0
  2
SOLID
 70
     1
 71
     0
 91
        1
 92
        1
 93
        4
 72
     1
 10
110.5585326577211
 20
-296.1903810850126
 11
105.2208765621281
 21
-296.1903810850126
 72
     1
 10
105.2208765621281
 20
-296.1903810850126
 11
105.2208765621281
 21
-292.8385271535644
 72
     1
 10
105.2208765621281
 20
-292.8385271535644
 11
110.5585326577211
 21
-292.8385271535644
 72
     1
 10
110.5585326577211
 20
-292.8385271535644
 11
110.5585326577211
 21
-296.1903810850126
 97
        0
 75
     2
 76
     1
 98
        0
  0
POLYLINE
  5
32D
330
1F
100
AcDbEntity
  8
Layer 1
 62
   250
420
  2301728
370
    18
100
AcDb2dPolyline
 66
     1
 10
0.0
 20
0.0
 30
0.0
  0
VERTEX
  5
32E
330
32D
100
AcDbEntity
  8
Layer 1
 62
   250
420
  2301728
370
    18
100
AcDbVertex
100
AcDb2dVertex
 10
115.8961887533142
 20
-296.1903810850126
 30
0.0
  0
VERTEX
  5
32F
330
32D
100
AcDbEntity
  8
Layer 1
 62
   250
420
  2301728
370
    18
100
AcDbVertex
100
AcDb2dVertex
 10
110.5585326577211
 20
-296.1903810850126
 30
0.0
  0
VERTEX
  5
330
330
32D
100
AcDbEntity
  8
Layer 1
 62
   250
420
  2301728
370
    18
100
AcDbVertex
100
AcDb2dVertex
 10
110.5585326577211
 20
-292.8385271535644
 30
0.0
  0
VERTEX
  5
331
330
32D
100
AcDbEntity
  8
Layer 1
 62
   250
420
  2301728
370
    18
100
AcDbVertex
100
AcDb2dVertex
 10
115.8961887533142
 20
-292.8385271535644
 30
0.0
  0
VERTEX
  5
332
330
32D
100
AcDbEntity
  8
Layer 1
 62
   250
420
  2301728
370
    18
100
AcDbVertex
100
AcDb2dVertex
 10
115.8961887533142
 20
-296.1903810850126
 30
0.0
  0
SEQEND
  5
334
330
32D
100
AcDbEntity
  8
Layer 1
 62
   250
420
  2301728
370
    18
  0
HATCH
  5
333
330
1F
100
AcDbEntity
  8
Layer 1
 62
   254
420
 13750996
100
AcDbHatch
 10
0.0
 20
0.0
 30
0.0
210
0.0
220
0.0
230
1.0
  2
SOLID
 70
     1
 71
     0
 91
        1
 92
        1
 93
        4
 72
     1
 10
115.8961887533142
 20
-296.1903810850126
 11
110.5585326577211
 21
-296.1903810850126
 72
     1
 10
110.5585326577211
 20
-296.1903810850126
 11
110.5585326577211
 21
-292.8385271535644
 72
     1
 10
110.5585326577211
 20
-292.8385271535644
 11
115.8961887533142
 21
-292.8385271535644
 72
     1
 10
115.8961887533142
 20
-292.8385271535644
 11
115.8961887533142
 21
-296.1903810850126
 97
        0
 75
     2
 76
     1
 98
        0
  0
POLYLINE
  5
335
330
1F
100
AcDbEntity
  8
Layer 1
 62
   250
420
  2301728
370
    18
100
AcDb2dPolyline
 66
     1
 10
0.0
 20
0.0
 30
0.0
  0
VERTEX
  5
336
330
335
100
AcDbEntity
  8
Layer 1
 62
   250
420
  2301728
370
    18
100
AcDbVertex
100
AcDb2dVertex
 10
121.2338448489072
 20
-296.1903810850126
 30
0.0
  0
VERTEX
  5
337
330
335
100
AcDbEntity
  8
Layer 1
 62
   250
420
  2301728
370
    18
100
AcDbVertex
100
AcDb2dVertex
 10
115.8961887533142
 20
-296.1903810850126
 30
0.0
  0
VERTEX
  5
338
330
335
100
AcDbEntity
  8
Layer 1
 62
   250
420
  2301728
370
    18
100
AcDbVertex
100
AcDb2dVertex
 10
115.8961887533142
 20
-292.8385271535644
 30
0.0
  0
VERTEX
  5
339
330
335
100
AcDbEntity
  8
Layer 1
 62
   250
420
  2301728
370
    18
100
AcDbVertex
100
AcDb2dVertex
 10
121.2338448489072
 20
-292.8385271535644
 30
0.0
  0
VERTEX
  5
33A
330
335
100
AcDbEntity
  8
Layer 1
 62
   250
420
  2301728
370
    18
100
AcDbVertex
100
AcDb2dVertex
 10
121.2338448489072
 20
-296.1903810850126
 30
0.0
  0
SEQEND
  5
33C
330
335
100
AcDbEntity
  8
Layer 1
 62
   250
420
  2301728
370
    18
  0
HATCH
  5
33B
330
1F
100
AcDbEntity
  8
Layer 1
 62
   254
420
 13750996
100
AcDbHatch
 10
0.0
 20
0.0
 30
0.0
210
0.0
220
0.0
230
1.0
  2
SOLID
 70
     1
 71
     0
 91
        1
 92
        1
 93
        4
 72
     1
 10
121.2338448489072
 20
-296.1903810850126
 11
115.8961887533142
 21
-296.1903810850126
 72
     1
 10
115.8961887533142
 20
-296.1903810850126
 11
115.8961887533142
 21
-292.8385271535644
 72
     1
 10
115.8961887533142
 20
-292.8385271535644
 11
121.2338448489072
 21
-292.8385271535644
 72
     1
 10
121.2338448489072
 20
-292.8385271535644
 11
121.2338448489072
 21
-296.1903810850126
 97
        0
 75
     2
 76
     1
 98
        0
  0
POLYLINE
  5
33D
330
1F
100
AcDbEntity
  8
Layer 1
 62
   250
420
  2301728
370
    18
100
AcDb2dPolyline
 66
     1
 10
0.0
 20
0.0
 30
0.0
  0
VERTEX
  5
33E
330
33D
100
AcDbEntity
  8
Layer 1
 62
   250
420
  2301728
370
    18
100
AcDbVertex
100
AcDb2dVertex
 10
126.5715009445003
 20
-296.1903810850126
 30
0.0
  0
VERTEX
  5
33F
330
33D
100
AcDbEntity
  8
Layer 1
 62
   250
420
  2301728
370
    18
100
AcDbVertex
100
AcDb2dVertex
 10
121.2338448489072
 20
-296.1903810850126
 30
0.0
  0
VERTEX
  5
340
330
33D
100
AcDbEntity
  8
Layer 1
 62
   250
420
  2301728
370
    18
100
AcDbVertex
100
AcDb2dVertex
 10
121.2338448489072
 20
-292.8385271535644
 30
0.0
  0
VERTEX
  5
341
330
33D
100
AcDbEntity
  8
Layer 1
 62
   250
420
  2301728
370
    18
100
AcDbVertex
100
AcDb2dVertex
 10
126.5715009445003
 20
-292.8385271535644
 30
0.0
  0
VERTEX
  5
342
330
33D
100
AcDbEntity
  8
Layer 1
 62
   250
420
  2301728
370
    18
100
AcDbVertex
100
AcDb2dVertex
 10
126.5715009445003
 20
-296.1903810850126
 30
0.0
  0
SEQEND
  5
344
330
33D
100
AcDbEntity
  8
Layer 1
 62
   250
420
  2301728
370
    18
  0
HATCH
  5
343
330
1F
100
AcDbEntity
  8
Layer 1
 62
   254
420
 13750996
100
AcDbHatch
 10
0.0
 20
0.0
 30
0.0
210
0.0
220
0.0
230
1.0
  2
SOLID
 70
     1
 71
     0
 91
        1
 92
        1
 93
        4
 72
     1
 10
126.5715009445003
 20
-296.1903810850126
 11
121.2338448489072
 21
-296.1903810850126
 72
     1
 10
121.2338448489072
 20
-296.1903810850126
 11
121.2338448489072
 21
-292.8385271535644
 72
     1
 10
121.2338448489072
 20
-292.8385271535644
 11
126.5715009445003
 21
-292.8385271535644
 72
     1
 10
126.5715009445003
 20
-292.8385271535644
 11
126.5715009445003
 21
-296.1903810850126
 97
        0
 75
     2
 76
     1
 98
        0
  0
POLYLINE
  5
345
330
1F
100
AcDbEntity
  8
Layer 1
 62
   250
420
  2301728
370
    18
100
AcDb2dPolyline
 66
     1
 10
0.0
 20
0.0
 30
0.0
  0
VERTEX
  5
346
330
345
100
AcDbEntity
  8
Layer 1
 62
   250
420
  2301728
370
    18
100
AcDbVertex
100
AcDb2dVertex
 10
131.9091570400933
 20
-296.1903810850126
 30
0.0
  0
VERTEX
  5
347
330
345
100
AcDbEntity
  8
Layer 1
 62
   250
420
  2301728
370
    18
100
AcDbVertex
100
AcDb2dVertex
 10
126.5715009445003
 20
-296.1903810850126
 30
0.0
  0
VERTEX
  5
348
330
345
100
AcDbEntity
  8
Layer 1
 62
   250
420
  2301728
370
    18
100
AcDbVertex
100
AcDb2dVertex
 10
126.5715009445003
 20
-292.8385271535644
 30
0.0
  0
VERTEX
  5
349
330
345
100
AcDbEntity
  8
Layer 1
 62
   250
420
  2301728
370
    18
100
AcDbVertex
100
AcDb2dVertex
 10
131.9091570400933
 20
-292.8385271535644
 30
0.0
  0
VERTEX
  5
34A
330
345
100
AcDbEntity
  8
Layer 1
 62
   250
420
  2301728
370
    18
100
AcDbVertex
100
AcDb2dVertex
 10
131.9091570400933
 20
-296.1903810850126
 30
0.0
  0
SEQEND
  5
34C
330
345
100
AcDbEntity
  8
Layer 1
 62
   250
420
  2301728
370
    18
  0
HATCH
  5
34B
330
1F
100
AcDbEntity
  8
Layer 1
 62
   254
420
 13750996
100
AcDbHatch
 10
0.0
 20
0.0
 30
0.0
210
0.0
220
0.0
230
1.0
  2
SOLID
 70
     1
 71
     0
 91
        1
 92
        1
 93
        4
 72
     1
 10
131.9091570400933
 20
-296.1903810850126
 11
126.5715009445003
 21
-296.1903810850126
 72
     1
 10
126.5715009445003
 20
-296.1903810850126
 11
126.5715009445003
 21
-292.8385271535644
 72
     1
 10
126.5715009445003
 20
-292.8385271535644
 11
131.9091570400933
 21
-292.8385271535644
 72
     1
 10
131.9091570400933
 20
-292.8385271535644
 11
131.9091570400933
 21
-296.1903810850126
 97
        0
 75
     2
 76
     1
 98
        0
  0
POLYLINE
  5
34D
330
1F
100
AcDbEntity
  8
Layer 1
 62
   250
420
  2301728
370
    18
100
AcDb2dPolyline
 66
     1
 10
0.0
 20
0.0
 30
0.0
  0
VERTEX
  5
34E
330
34D
100
AcDbEntity
  8
Layer 1
 62
   250
420
  2301728
370
    18
100
AcDbVertex
100
AcDb2dVertex
 10
137.2468131356864
 20
-296.1903810850126
 30
0.0
  0
VERTEX
  5
34F
330
34D
100
AcDbEntity
  8
Layer 1
 62
   250
420
  2301728
370
    18
100
AcDbVertex
100
AcDb2dVertex
 10
131.9091570400933
 20
-296.1903810850126
 30
0.0
  0
VERTEX
  5
350
330
34D
100
AcDbEntity
  8
Layer 1
 62
   250
420
  2301728
370
    18
100
AcDbVertex
100
AcDb2dVertex
 10
131.9091570400933
 20
-292.8385271535644
 30
0.0
  0
VERTEX
  5
351
330
34D
100
AcDbEntity
  8
Layer 1
 62
   250
420
  2301728
370
    18
100
AcDbVertex
100
AcDb2dVertex
 10
137.2468131356864
 20
-292.8385271535644
 30
0.0
  0
VERTEX
  5
352
330
34D
100
AcDbEntity
  8
Layer 1
 62
   250
420
  2301728
370
    18
100
AcDbVertex
100
AcDb2dVertex
 10
137.2468131356864
 20
-296.1903810850126
 30
0.0
  0
SEQEND
  5
354
330
34D
100
AcDbEntity
  8
Layer 1
 62
   250
420
  2301728
370
    18
  0
HATCH
  5
353
330
1F
100
AcDbEntity
  8
Layer 1
 62
   254
420
 13750996
100
AcDbHatch
 10
0.0
 20
0.0
 30
0.0
210
0.0
220
0.0
230
1.0
  2
SOLID
 70
     1
 71
     0
 91
        1
 92
        1
 93
        4
 72
     1
 10
137.2468131356864
 20
-296.1903810850126
 11
131.9091570400933
 21
-296.1903810850126
 72
     1
 10
131.9091570400933
 20
-296.1903810850126
 11
131.9091570400933
 21
-292.8385271535644
 72
     1
 10
131.9091570400933
 20
-292.8385271535644
 11
137.2468131356864
 21
-292.8385271535644
 72
     1
 10
137.2468131356864
 20
-292.8385271535644
 11
137.2468131356864
 21
-296.1903810850126
 97
        0
 75
     2
 76
     1
 98
        0
  0
POLYLINE
  5
355
330
1F
100
AcDbEntity
  8
Layer 1
 62
   250
420
  2301728
370
    18
100
AcDb2dPolyline
 66
     1
 10
0.0
 20
0.0
 30
0.0
  0
VERTEX
  5
356
330
355
100
AcDbEntity
  8
Layer 1
 62
   250
420
  2301728
370
    18
100
AcDbVertex
100
AcDb2dVertex
 10
142.5844692312794
 20
-296.1903810850126
 30
0.0
  0
VERTEX
  5
357
330
355
100
AcDbEntity
  8
Layer 1
 62
   250
420
  2301728
370
    18
100
AcDbVertex
100
AcDb2dVertex
 10
137.2468131356864
 20
-296.1903810850126
 30
0.0
  0
VERTEX
  5
358
330
355
100
AcDbEntity
  8
Layer 1
 62
   250
420
  2301728
370
    18
100
AcDbVertex
100
AcDb2dVertex
 10
137.2468131356864
 20
-292.8385271535644
 30
0.0
  0
VERTEX
  5
359
330
355
100
AcDbEntity
  8
Layer 1
 62
   250
420
  2301728
370
    18
100
AcDbVertex
100
AcDb2dVertex
 10
142.5844692312794
 20
-292.8385271535644
 30
0.0
  0
VERTEX
  5
35A
330
355
100
AcDbEntity
  8
Layer 1
 62
   250
420
  2301728
370
    18
100
AcDbVertex
100
AcDb2dVertex
 10
142.5844692312794
 20
-296.1903810850126
 30
0.0
  0
SEQEND
  5
35C
330
355
100
AcDbEntity
  8
Layer 1
 62
   250
420
  2301728
370
    18
  0
HATCH
  5
35B
330
1F
100
AcDbEntity
  8
Layer 1
 62
   254
420
 13750996
100
AcDbHatch
 10
0.0
 20
0.0
 30
0.0
210
0.0
220
0.0
230
1.0
  2
SOLID
 70
     1
 71
     0
 91
        1
 92
        1
 93
        4
 72
     1
 10
142.5844692312794
 20
-296.1903810850126
 11
137.2468131356864
 21
-296.1903810850126
 72
     1
 10
137.2468131356864
 20
-296.1903810850126
 11
137.2468131356864
 21
-292.8385271535644
 72
     1
 10
137.2468131356864
 20
-292.8385271535644
 11
142.5844692312794
 21
-292.8385271535644
 72
     1
 10
142.5844692312794
 20
-292.8385271535644
 11
142.5844692312794
 21
-296.1903810850126
 97
        0
 75
     2
 76
     1
 98
        0
  0
POLYLINE
  5
35D
330
1F
100
AcDbEntity
  8
Layer 1
 62
   250
420
  2301728
370
    18
100
AcDb2dPolyline
 66
     1
 10
0.0
 20
0.0
 30
0.0
  0
VERTEX
  5
35E
330
35D
100
AcDbEntity
  8
Layer 1
 62
   250
420
  2301728
370
    18
100
AcDbVertex
100
AcDb2dVertex
 10
147.9221253268715
 20
-296.1903810850126
 30
0.0
  0
VERTEX
  5
35F
330
35D
100
AcDbEntity
  8
Layer 1
 62
   250
420
  2301728
370
    18
100
AcDbVertex
100
AcDb2dVertex
 10
142.5844692312794
 20
-296.1903810850126
 30
0.0
  0
VERTEX
  5
360
330
35D
100
AcDbEntity
  8
Layer 1
 62
   250
420
  2301728
370
    18
100
AcDbVertex
100
AcDb2dVertex
 10
142.5844692312794
 20
-292.8385271535644
 30
0.0
  0
VERTEX
  5
361
330
35D
100
AcDbEntity
  8
Layer 1
 62
   250
420
  2301728
370
    18
100
AcDbVertex
100
AcDb2dVertex
 10
147.9221253268715
 20
-292.8385271535644
 30
0.0
  0
VERTEX
  5
362
330
35D
100
AcDbEntity
  8
Layer 1
 62
   250
420
  2301728
370
    18
100
AcDbVertex
100
AcDb2dVertex
 10
147.9221253268715
 20
-296.1903810850126
 30
0.0
  0
SEQEND
  5
364
330
35D
100
AcDbEntity
  8
Layer 1
 62
   250
420
  2301728
370
    18
  0
HATCH
  5
363
330
1F
100
AcDbEntity
  8
Layer 1
 62
   254
420
 13750996
100
AcDbHatch
 10
0.0
 20
0.0
 30
0.0
210
0.0
220
0.0
230
1.0
  2
SOLID
 70
     1
 71
     0
 91
        1
 92
        1
 93
        4
 72
     1
 10
147.9221253268715
 20
-296.1903810850126
 11
142.5844692312794
 21
-296.1903810850126
 72
     1
 10
142.5844692312794
 20
-296.1903810850126
 11
142.5844692312794
 21
-292.8385271535644
 72
     1
 10
142.5844692312794
 20
-292.8385271535644
 11
147.9221253268715
 21
-292.8385271535644
 72
     1
 10
147.9221253268715
 20
-292.8385271535644
 11
147.9221253268715
 21
-296.1903810850126
 97
        0
 75
     2
 76
     1
 98
        0
  0
POLYLINE
  5
365
330
1F
100
AcDbEntity
  8
Layer 1
 62
   250
420
  2301728
370
    18
100
AcDb2dPolyline
 66
     1
 10
0.0
 20
0.0
 30
0.0
  0
VERTEX
  5
366
330
365
100
AcDbEntity
  8
Layer 1
 62
   250
420
  2301728
370
    18
100
AcDbVertex
100
AcDb2dVertex
 10
153.2597814224664
 20
-296.1903810850126
 30
0.0
  0
VERTEX
  5
367
330
365
100
AcDbEntity
  8
Layer 1
 62
   250
420
  2301728
370
    18
100
AcDbVertex
100
AcDb2dVertex
 10
147.9221253268715
 20
-296.1903810850126
 30
0.0
  0
VERTEX
  5
368
330
365
100
AcDbEntity
  8
Layer 1
 62
   250
420
  2301728
370
    18
100
AcDbVertex
100
AcDb2dVertex
 10
147.9221253268715
 20
-292.8385271535644
 30
0.0
  0
VERTEX
  5
369
330
365
100
AcDbEntity
  8
Layer 1
 62
   250
420
  2301728
370
    18
100
AcDbVertex
100
AcDb2dVertex
 10
153.2597814224664
 20
-292.8385271535644
 30
0.0
  0
VERTEX
  5
36A
330
365
100
AcDbEntity
  8
Layer 1
 62
   250
420
  2301728
370
    18
100
AcDbVertex
100
AcDb2dVertex
 10
153.2597814224664
 20
-296.1903810850126
 30
0.0
  0
SEQEND
  5
36C
330
365
100
AcDbEntity
  8
Layer 1
 62
   250
420
  2301728
370
    18
  0
HATCH
  5
36B
330
1F
100
AcDbEntity
  8
Layer 1
 62
   254
420
 13750996
100
AcDbHatch
 10
0.0
 20
0.0
 30
0.0
210
0.0
220
0.0
230
1.0
  2
SOLID
 70
     1
 71
     0
 91
        1
 92
        1
 93
        4
 72
     1
 10
153.2597814224664
 20
-296.1903810850126
 11
147.9221253268715
 21
-296.1903810850126
 72
     1
 10
147.9221253268715
 20
-296.1903810850126
 11
147.9221253268715
 21
-292.8385271535644
 72
     1
 10
147.9221253268715
 20
-292.8385271535644
 11
153.2597814224664
 21
-292.8385271535644
 72
     1
 10
153.2597814224664
 20
-292.8385271535644
 11
153.2597814224664
 21
-296.1903810850126
 97
        0
 75
     2
 76
     1
 98
        0
  0
POLYLINE
  5
36D
330
1F
100
AcDbEntity
  8
Layer 1
 62
   250
420
  2301728
370
    18
100
AcDb2dPolyline
 66
     1
 10
0.0
 20
0.0
 30
0.0
  0
VERTEX
  5
36E
330
36D
100
AcDbEntity
  8
Layer 1
 62
   250
420
  2301728
370
    18
100
AcDbVertex
100
AcDb2dVertex
 10
158.5974375180595
 20
-296.1903810850126
 30
0.0
  0
VERTEX
  5
36F
330
36D
100
AcDbEntity
  8
Layer 1
 62
   250
420
  2301728
370
    18
100
AcDbVertex
100
AcDb2dVertex
 10
153.2597814224664
 20
-296.1903810850126
 30
0.0
  0
VERTEX
  5
370
330
36D
100
AcDbEntity
  8
Layer 1
 62
   250
420
  2301728
370
    18
100
AcDbVertex
100
AcDb2dVertex
 10
153.2597814224664
 20
-292.8385271535644
 30
0.0
  0
VERTEX
  5
371
330
36D
100
AcDbEntity
  8
Layer 1
 62
   250
420
  2301728
370
    18
100
AcDbVertex
100
AcDb2dVertex
 10
158.5974375180595
 20
-292.8385271535644
 30
0.0
  0
VERTEX
  5
372
330
36D
100
AcDbEntity
  8
Layer 1
 62
   250
420
  2301728
370
    18
100
AcDbVertex
100
AcDb2dVertex
 10
158.5974375180595
 20
-296.1903810850126
 30
0.0
  0
SEQEND
  5
374
330
36D
100
AcDbEntity
  8
Layer 1
 62
   250
420
  2301728
370
    18
  0
HATCH
  5
373
330
1F
100
AcDbEntity
  8
Layer 1
 62
   254
420
 13750996
100
AcDbHatch
 10
0.0
 20
0.0
 30
0.0
210
0.0
220
0.0
230
1.0
  2
SOLID
 70
     1
 71
     0
 91
        1
 92
        1
 93
        4
 72
     1
 10
158.5974375180595
 20
-296.1903810850126
 11
153.2597814224664
 21
-296.1903810850126
 72
     1
 10
153.2597814224664
 20
-296.1903810850126
 11
153.2597814224664
 21
-292.8385271535644
 72
     1
 10
153.2597814224664
 20
-292.8385271535644
 11
158.5974375180595
 21
-292.8385271535644
 72
     1
 10
158.5974375180595
 20
-292.8385271535644
 11
158.5974375180595
 21
-296.1903810850126
 97
        0
 75
     2
 76
     1
 98
        0
  0
POLYLINE
  5
375
330
1F
100
AcDbEntity
  8
Layer 1
 62
   250
420
  2301728
370
    18
100
AcDb2dPolyline
 66
     1
 10
0.0
 20
0.0
 30
0.0
  0
VERTEX
  5
376
330
375
100
AcDbEntity
  8
Layer 1
 62
   250
420
  2301728
370
    18
100
AcDbVertex
100
AcDb2dVertex
 10
163.9350936136516
 20
-296.1903810850126
 30
0.0
  0
VERTEX
  5
377
330
375
100
AcDbEntity
  8
Layer 1
 62
   250
420
  2301728
370
    18
100
AcDbVertex
100
AcDb2dVertex
 10
158.5974375180595
 20
-296.1903810850126
 30
0.0
  0
VERTEX
  5
378
330
375
100
AcDbEntity
  8
Layer 1
 62
   250
420
  2301728
370
    18
100
AcDbVertex
100
AcDb2dVertex
 10
158.5974375180595
 20
-292.8385271535644
 30
0.0
  0
VERTEX
  5
379
330
375
100
AcDbEntity
  8
Layer 1
 62
   250
420
  2301728
370
    18
100
AcDbVertex
100
AcDb2dVertex
 10
163.9350936136516
 20
-292.8385271535644
 30
0.0
  0
VERTEX
  5
37A
330
375
100
AcDbEntity
  8
Layer 1
 62
   250
420
  2301728
370
    18
100
AcDbVertex
100
AcDb2dVertex
 10
163.9350936136516
 20
-296.1903810850126
 30
0.0
  0
SEQEND
  5
37C
330
375
100
AcDbEntity
  8
Layer 1
 62
   250
420
  2301728
370
    18
  0
HATCH
  5
37B
330
1F
100
AcDbEntity
  8
Layer 1
 62
   254
420
 13750996
100
AcDbHatch
 10
0.0
 20
0.0
 30
0.0
210
0.0
220
0.0
230
1.0
  2
SOLID
 70
     1
 71
     0
 91
        1
 92
        1
 93
        4
 72
     1
 10
163.9350936136516
 20
-296.1903810850126
 11
158.5974375180595
 21
-296.1903810850126
 72
     1
 10
158.5974375180595
 20
-296.1903810850126
 11
158.5974375180595
 21
-292.8385271535644
 72
     1
 10
158.5974375180595
 20
-292.8385271535644
 11
163.9350936136516
 21
-292.8385271535644
 72
     1
 10
163.9350936136516
 20
-292.8385271535644
 11
163.9350936136516
 21
-296.1903810850126
 97
        0
 75
     2
 76
     1
 98
        0
  0
POLYLINE
  5
37D
330
1F
100
AcDbEntity
  8
Layer 1
 62
   250
420
  2301728
370
    18
100
AcDb2dPolyline
 66
     1
 10
0.0
 20
0.0
 30
0.0
  0
VERTEX
  5
37E
330
37D
100
AcDbEntity
  8
Layer 1
 62
   250
420
  2301728
370
    18
100
AcDbVertex
100
AcDb2dVertex
 10
169.2727497092446
 20
-296.1903810850126
 30
0.0
  0
VERTEX
  5
37F
330
37D
100
AcDbEntity
  8
Layer 1
 62
   250
420
  2301728
370
    18
100
AcDbVertex
100
AcDb2dVertex
 10
163.9350936136516
 20
-296.1903810850126
 30
0.0
  0
VERTEX
  5
380
330
37D
100
AcDbEntity
  8
Layer 1
 62
   250
420
  2301728
370
    18
100
AcDbVertex
100
AcDb2dVertex
 10
163.9350936136516
 20
-292.8385271535644
 30
0.0
  0
VERTEX
  5
381
330
37D
100
AcDbEntity
  8
Layer 1
 62
   250
420
  2301728
370
    18
100
AcDbVertex
100
AcDb2dVertex
 10
169.2727497092446
 20
-292.8385271535644
 30
0.0
  0
VERTEX
  5
382
330
37D
100
AcDbEntity
  8
Layer 1
 62
   250
420
  2301728
370
    18
100
AcDbVertex
100
AcDb2dVertex
 10
169.2727497092446
 20
-296.1903810850126
 30
0.0
  0
SEQEND
  5
384
330
37D
100
AcDbEntity
  8
Layer 1
 62
   250
420
  2301728
370
    18
  0
HATCH
  5
383
330
1F
100
AcDbEntity
  8
Layer 1
 62
   254
420
 13750996
100
AcDbHatch
 10
0.0
 20
0.0
 30
0.0
210
0.0
220
0.0
230
1.0
  2
SOLID
 70
     1
 71
     0
 91
        1
 92
        1
 93
        4
 72
     1
 10
169.2727497092446
 20
-296.1903810850126
 11
163.9350936136516
 21
-296.1903810850126
 72
     1
 10
163.9350936136516
 20
-296.1903810850126
 11
163.9350936136516
 21
-292.8385271535644
 72
     1
 10
163.9350936136516
 20
-292.8385271535644
 11
169.2727497092446
 21
-292.8385271535644
 72
     1
 10
169.2727497092446
 20
-292.8385271535644
 11
169.2727497092446
 21
-296.1903810850126
 97
        0
 75
     2
 76
     1
 98
        0
  0
POLYLINE
  5
385
330
1F
100
AcDbEntity
  8
Layer 1
 62
   250
420
  2301728
370
    18
100
AcDb2dPolyline
 66
     1
 10
0.0
 20
0.0
 30
0.0
  0
VERTEX
  5
386
330
385
100
AcDbEntity
  8
Layer 1
 62
   250
420
  2301728
370
    18
100
AcDbVertex
100
AcDb2dVertex
 10
174.6104058048377
 20
-296.1903810850126
 30
0.0
  0
VERTEX
  5
387
330
385
100
AcDbEntity
  8
Layer 1
 62
   250
420
  2301728
370
    18
100
AcDbVertex
100
AcDb2dVertex
 10
169.2727497092446
 20
-296.1903810850126
 30
0.0
  0
VERTEX
  5
388
330
385
100
AcDbEntity
  8
Layer 1
 62
   250
420
  2301728
370
    18
100
AcDbVertex
100
AcDb2dVertex
 10
169.2727497092446
 20
-292.8385271535644
 30
0.0
  0
VERTEX
  5
389
330
385
100
AcDbEntity
  8
Layer 1
 62
   250
420
  2301728
370
    18
100
AcDbVertex
100
AcDb2dVertex
 10
174.6104058048377
 20
-292.8385271535644
 30
0.0
  0
VERTEX
  5
38A
330
385
100
AcDbEntity
  8
Layer 1
 62
   250
420
  2301728
370
    18
100
AcDbVertex
100
AcDb2dVertex
 10
174.6104058048377
 20
-296.1903810850126
 30
0.0
  0
SEQEND
  5
38C
330
385
100
AcDbEntity
  8
Layer 1
 62
   250
420
  2301728
370
    18
  0
HATCH
  5
38B
330
1F
100
AcDbEntity
  8
Layer 1
 62
   254
420
 13750996
100
AcDbHatch
 10
0.0
 20
0.0
 30
0.0
210
0.0
220
0.0
230
1.0
  2
SOLID
 70
     1
 71
     0
 91
        1
 92
        1
 93
        4
 72
     1
 10
174.6104058048377
 20
-296.1903810850126
 11
169.2727497092446
 21
-296.1903810850126
 72
     1
 10
169.2727497092446
 20
-296.1903810850126
 11
169.2727497092446
 21
-292.8385271535644
 72
     1
 10
169.2727497092446
 20
-292.8385271535644
 11
174.6104058048377
 21
-292.8385271535644
 72
     1
 10
174.6104058048377
 20
-292.8385271535644
 11
174.6104058048377
 21
-296.1903810850126
 97
        0
 75
     2
 76
     1
 98
        0
  0
POLYLINE
  5
38D
330
1F
100
AcDbEntity
  8
Layer 1
 62
   250
420
  2301728
370
    18
100
AcDb2dPolyline
 66
     1
 10
0.0
 20
0.0
 30
0.0
  0
VERTEX
  5
38E
330
38D
100
AcDbEntity
  8
Layer 1
 62
   250
420
  2301728
370
    18
100
AcDbVertex
100
AcDb2dVertex
 10
179.9480619004307
 20
-296.1903810850126
 30
0.0
  0
VERTEX
  5
38F
330
38D
100
AcDbEntity
  8
Layer 1
 62
   250
420
  2301728
370
    18
100
AcDbVertex
100
AcDb2dVertex
 10
174.6104058048377
 20
-296.1903810850126
 30
0.0
  0
VERTEX
  5
390
330
38D
100
AcDbEntity
  8
Layer 1
 62
   250
420
  2301728
370
    18
100
AcDbVertex
100
AcDb2dVertex
 10
174.6104058048377
 20
-292.8385271535644
 30
0.0
  0
VERTEX
  5
391
330
38D
100
AcDbEntity
  8
Layer 1
 62
   250
420
  2301728
370
    18
100
AcDbVertex
100
AcDb2dVertex
 10
179.9480619004307
 20
-292.8385271535644
 30
0.0
  0
VERTEX
  5
392
330
38D
100
AcDbEntity
  8
Layer 1
 62
   250
420
  2301728
370
    18
100
AcDbVertex
100
AcDb2dVertex
 10
179.9480619004307
 20
-296.1903810850126
 30
0.0
  0
SEQEND
  5
394
330
38D
100
AcDbEntity
  8
Layer 1
 62
   250
420
  2301728
370
    18
  0
HATCH
  5
393
330
1F
100
AcDbEntity
  8
Layer 1
 62
   254
420
 13750996
100
AcDbHatch
 10
0.0
 20
0.0
 30
0.0
210
0.0
220
0.0
230
1.0
  2
SOLID
 70
     1
 71
     0
 91
        1
 92
        1
 93
        4
 72
     1
 10
179.9480619004307
 20
-296.1903810850126
 11
174.6104058048377
 21
-296.1903810850126
 72
     1
 10
174.6104058048377
 20
-296.1903810850126
 11
174.6104058048377
 21
-292.8385271535644
 72
     1
 10
174.6104058048377
 20
-292.8385271535644
 11
179.9480619004307
 21
-292.8385271535644
 72
     1
 10
179.9480619004307
 20
-292.8385271535644
 11
179.9480619004307
 21
-296.1903810850126
 97
        0
 75
     2
 76
     1
 98
        0
  0
POLYLINE
  5
395
330
1F
100
AcDbEntity
  8
Layer 1
 62
   250
420
  2301728
370
    18
100
AcDb2dPolyline
 66
     1
 10
0.0
 20
0.0
 30
0.0
  0
VERTEX
  5
396
330
395
100
AcDbEntity
  8
Layer 1
 62
   250
420
  2301728
370
    18
100
AcDbVertex
100
AcDb2dVertex
 10
185.2857179960238
 20
-296.1903810850126
 30
0.0
  0
VERTEX
  5
397
330
395
100
AcDbEntity
  8
Layer 1
 62
   250
420
  2301728
370
    18
100
AcDbVertex
100
AcDb2dVertex
 10
179.9480619004307
 20
-296.1903810850126
 30
0.0
  0
VERTEX
  5
398
330
395
100
AcDbEntity
  8
Layer 1
 62
   250
420
  2301728
370
    18
100
AcDbVertex
100
AcDb2dVertex
 10
179.9480619004307
 20
-292.8385271535644
 30
0.0
  0
VERTEX
  5
399
330
395
100
AcDbEntity
  8
Layer 1
 62
   250
420
  2301728
370
    18
100
AcDbVertex
100
AcDb2dVertex
 10
185.2857179960238
 20
-292.8385271535644
 30
0.0
  0
VERTEX
  5
39A
330
395
100
AcDbEntity
  8
Layer 1
 62
   250
420
  2301728
370
    18
100
AcDbVertex
100
AcDb2dVertex
 10
185.2857179960238
 20
-296.1903810850126
 30
0.0
  0
SEQEND
  5
39C
330
395
100
AcDbEntity
  8
Layer 1
 62
   250
420
  2301728
370
    18
  0
HATCH
  5
39B
330
1F
100
AcDbEntity
  8
Layer 1
 62
   254
420
 13750996
100
AcDbHatch
 10
0.0
 20
0.0
 30
0.0
210
0.0
220
0.0
230
1.0
  2
SOLID
 70
     1
 71
     0
 91
        1
 92
        1
 93
        4
 72
     1
 10
185.2857179960238
 20
-296.1903810850126
 11
179.9480619004307
 21
-296.1903810850126
 72
     1
 10
179.9480619004307
 20
-296.1903810850126
 11
179.9480619004307
 21
-292.8385271535644
 72
     1
 10
179.9480619004307
 20
-292.8385271535644
 11
185.2857179960238
 21
-292.8385271535644
 72
     1
 10
185.2857179960238
 20
-292.8385271535644
 11
185.2857179960238
 21
-296.1903810850126
 97
        0
 75
     2
 76
     1
 98
        0
  0
POLYLINE
  5
39D
330
1F
100
AcDbEntity
  8
Layer 1
 62
   250
420
  2301728
370
    18
100
AcDb2dPolyline
 66
     1
 10
0.0
 20
0.0
 30
0.0
  0
VERTEX
  5
39E
330
39D
100
AcDbEntity
  8
Layer 1
 62
   250
420
  2301728
370
    18
100
AcDbVertex
100
AcDb2dVertex
 10
190.6233740916168
 20
-296.1903810850126
 30
0.0
  0
VERTEX
  5
39F
330
39D
100
AcDbEntity
  8
Layer 1
 62
   250
420
  2301728
370
    18
100
AcDbVertex
100
AcDb2dVertex
 10
185.2857179960238
 20
-296.1903810850126
 30
0.0
  0
VERTEX
  5
3A0
330
39D
100
AcDbEntity
  8
Layer 1
 62
   250
420
  2301728
370
    18
100
AcDbVertex
100
AcDb2dVertex
 10
185.2857179960238
 20
-292.8385271535644
 30
0.0
  0
VERTEX
  5
3A1
330
39D
100
AcDbEntity
  8
Layer 1
 62
   250
420
  2301728
370
    18
100
AcDbVertex
100
AcDb2dVertex
 10
190.6233740916168
 20
-292.8385271535644
 30
0.0
  0
VERTEX
  5
3A2
330
39D
100
AcDbEntity
  8
Layer 1
 62
   250
420
  2301728
370
    18
100
AcDbVertex
100
AcDb2dVertex
 10
190.6233740916168
 20
-296.1903810850126
 30
0.0
  0
SEQEND
  5
3A4
330
39D
100
AcDbEntity
  8
Layer 1
 62
   250
420
  2301728
370
    18
  0
HATCH
  5
3A3
330
1F
100
AcDbEntity
  8
Layer 1
 62
   254
420
 13750996
100
AcDbHatch
 10
0.0
 20
0.0
 30
0.0
210
0.0
220
0.0
230
1.0
  2
SOLID
 70
     1
 71
     0
 91
        1
 92
        1
 93
        4
 72
     1
 10
190.6233740916168
 20
-296.1903810850126
 11
185.2857179960238
 21
-296.1903810850126
 72
     1
 10
185.2857179960238
 20
-296.1903810850126
 11
185.2857179960238
 21
-292.8385271535644
 72
     1
 10
185.2857179960238
 20
-292.8385271535644
 11
190.6233740916168
 21
-292.8385271535644
 72
     1
 10
190.6233740916168
 20
-292.8385271535644
 11
190.6233740916168
 21
-296.1903810850126
 97
        0
 75
     2
 76
     1
 98
        0
  0
POLYLINE
  5
3A5
330
1F
100
AcDbEntity
  8
Layer 1
 62
   250
420
  2301728
370
    18
100
AcDb2dPolyline
 66
     1
 10
0.0
 20
0.0
 30
0.0
  0
VERTEX
  5
3A6
330
3A5
100
AcDbEntity
  8
Layer 1
 62
   250
420
  2301728
370
    18
100
AcDbVertex
100
AcDb2dVertex
 10
195.9610301872099
 20
-296.1903810850126
 30
0.0
  0
VERTEX
  5
3A7
330
3A5
100
AcDbEntity
  8
Layer 1
 62
   250
420
  2301728
370
    18
100
AcDbVertex
100
AcDb2dVertex
 10
190.6233740916168
 20
-296.1903810850126
 30
0.0
  0
VERTEX
  5
3A8
330
3A5
100
AcDbEntity
  8
Layer 1
 62
   250
420
  2301728
370
    18
100
AcDbVertex
100
AcDb2dVertex
 10
190.6233740916168
 20
-292.8385271535644
 30
0.0
  0
VERTEX
  5
3A9
330
3A5
100
AcDbEntity
  8
Layer 1
 62
   250
420
  2301728
370
    18
100
AcDbVertex
100
AcDb2dVertex
 10
195.9610301872099
 20
-292.8385271535644
 30
0.0
  0
VERTEX
  5
3AA
330
3A5
100
AcDbEntity
  8
Layer 1
 62
   250
420
  2301728
370
    18
100
AcDbVertex
100
AcDb2dVertex
 10
195.9610301872099
 20
-296.1903810850126
 30
0.0
  0
SEQEND
  5
3AC
330
3A5
100
AcDbEntity
  8
Layer 1
 62
   250
420
  2301728
370
    18
  0
HATCH
  5
3AB
330
1F
100
AcDbEntity
  8
Layer 1
 62
   254
420
 13750996
100
AcDbHatch
 10
0.0
 20
0.0
 30
0.0
210
0.0
220
0.0
230
1.0
  2
SOLID
 70
     1
 71
     0
 91
        1
 92
        1
 93
        4
 72
     1
 10
195.9610301872099
 20
-296.1903810850126
 11
190.6233740916168
 21
-296.1903810850126
 72
     1
 10
190.6233740916168
 20
-296.1903810850126
 11
190.6233740916168
 21
-292.8385271535644
 72
     1
 10
190.6233740916168
 20
-292.8385271535644
 11
195.9610301872099
 21
-292.8385271535644
 72
     1
 10
195.9610301872099
 20
-292.8385271535644
 11
195.9610301872099
 21
-296.1903810850126
 97
        0
 75
     2
 76
     1
 98
        0
  0
POLYLINE
  5
3AD
330
1F
100
AcDbEntity
  8
Layer 1
 62
   250
420
  2301728
370
    18
100
AcDb2dPolyline
 66
     1
 10
0.0
 20
0.0
 30
0.0
  0
VERTEX
  5
3AE
330
3AD
100
AcDbEntity
  8
Layer 1
 62
   250
420
  2301728
370
    18
100
AcDbVertex
100
AcDb2dVertex
 10
201.2986862828038
 20
-296.1903810850126
 30
0.0
  0
VERTEX
  5
3AF
330
3AD
100
AcDbEntity
  8
Layer 1
 62
   250
420
  2301728
370
    18
100
AcDbVertex
100
AcDb2dVertex
 10
195.9610301872099
 20
-296.1903810850126
 30
0.0
  0
VERTEX
  5
3B0
330
3AD
100
AcDbEntity
  8
Layer 1
 62
   250
420
  2301728
370
    18
100
AcDbVertex
100
AcDb2dVertex
 10
195.9610301872099
 20
-292.8385271535644
 30
0.0
  0
VERTEX
  5
3B1
330
3AD
100
AcDbEntity
  8
Layer 1
 62
   250
420
  2301728
370
    18
100
AcDbVertex
100
AcDb2dVertex
 10
201.2986862828038
 20
-292.8385271535644
 30
0.0
  0
VERTEX
  5
3B2
330
3AD
100
AcDbEntity
  8
Layer 1
 62
   250
420
  2301728
370
    18
100
AcDbVertex
100
AcDb2dVertex
 10
201.2986862828038
 20
-296.1903810850126
 30
0.0
  0
SEQEND
  5
3B4
330
3AD
100
AcDbEntity
  8
Layer 1
 62
   250
420
  2301728
370
    18
  0
HATCH
  5
3B3
330
1F
100
AcDbEntity
  8
Layer 1
 62
   254
420
 13750996
100
AcDbHatch
 10
0.0
 20
0.0
 30
0.0
210
0.0
220
0.0
230
1.0
  2
SOLID
 70
     1
 71
     0
 91
        1
 92
        1
 93
        4
 72
     1
 10
201.2986862828038
 20
-296.1903810850126
 11
195.9610301872099
 21
-296.1903810850126
 72
     1
 10
195.9610301872099
 20
-296.1903810850126
 11
195.9610301872099
 21
-292.8385271535644
 72
     1
 10
195.9610301872099
 20
-292.8385271535644
 11
201.2986862828038
 21
-292.8385271535644
 72
     1
 10
201.2986862828038
 20
-292.8385271535644
 11
201.2986862828038
 21
-296.1903810850126
 97
        0
 75
     2
 76
     1
 98
        0
  0
POLYLINE
  5
3B5
330
1F
100
AcDbEntity
  8
Layer 1
 62
   250
420
  2301728
370
    18
100
AcDb2dPolyline
 66
     1
 10
0.0
 20
0.0
 30
0.0
  0
VERTEX
  5
3B6
330
3B5
100
AcDbEntity
  8
Layer 1
 62
   250
420
  2301728
370
    18
100
AcDbVertex
100
AcDb2dVertex
 10
206.6363423783969
 20
-296.1903810850126
 30
0.0
  0
VERTEX
  5
3B7
330
3B5
100
AcDbEntity
  8
Layer 1
 62
   250
420
  2301728
370
    18
100
AcDbVertex
100
AcDb2dVertex
 10
201.2986862828038
 20
-296.1903810850126
 30
0.0
  0
VERTEX
  5
3B8
330
3B5
100
AcDbEntity
  8
Layer 1
 62
   250
420
  2301728
370
    18
100
AcDbVertex
100
AcDb2dVertex
 10
201.2986862828038
 20
-292.8385271535644
 30
0.0
  0
VERTEX
  5
3B9
330
3B5
100
AcDbEntity
  8
Layer 1
 62
   250
420
  2301728
370
    18
100
AcDbVertex
100
AcDb2dVertex
 10
206.6363423783969
 20
-292.8385271535644
 30
0.0
  0
VERTEX
  5
3BA
330
3B5
100
AcDbEntity
  8
Layer 1
 62
   250
420
  2301728
370
    18
100
AcDbVertex
100
AcDb2dVertex
 10
206.6363423783969
 20
-296.1903810850126
 30
0.0
  0
SEQEND
  5
3BC
330
3B5
100
AcDbEntity
  8
Layer 1
 62
   250
420
  2301728
370
    18
  0
HATCH
  5
3BB
330
1F
100
AcDbEntity
  8
Layer 1
 62
   254
420
 13750996
100
AcDbHatch
 10
0.0
 20
0.0
 30
0.0
210
0.0
220
0.0
230
1.0
  2
SOLID
 70
     1
 71
     0
 91
        1
 92
        1
 93
        4
 72
     1
 10
206.6363423783969
 20
-296.1903810850126
 11
201.2986862828038
 21
-296.1903810850126
 72
     1
 10
201.2986862828038
 20
-296.1903810850126
 11
201.2986862828038
 21
-292.8385271535644
 72
     1
 10
201.2986862828038
 20
-292.8385271535644
 11
206.6363423783969
 21
-292.8385271535644
 72
     1
 10
206.6363423783969
 20
-292.8385271535644
 11
206.6363423783969
 21
-296.1903810850126
 97
        0
 75
     2
 76
     1
 98
        0
  0
POLYLINE
  5
3BD
330
1F
100
AcDbEntity
  8
Layer 1
 62
   250
420
  2301728
370
    18
100
AcDb2dPolyline
 66
     1
 10
0.0
 20
0.0
 30
0.0
  0
VERTEX
  5
3BE
330
3BD
100
AcDbEntity
  8
Layer 1
 62
   250
420
  2301728
370
    18
100
AcDbVertex
100
AcDb2dVertex
 10
211.9739984739899
 20
-296.1903810850126
 30
0.0
  0
VERTEX
  5
3BF
330
3BD
100
AcDbEntity
  8
Layer 1
 62
   250
420
  2301728
370
    18
100
AcDbVertex
100
AcDb2dVertex
 10
206.6363423783969
 20
-296.1903810850126
 30
0.0
  0
VERTEX
  5
3C0
330
3BD
100
AcDbEntity
  8
Layer 1
 62
   250
420
  2301728
370
    18
100
AcDbVertex
100
AcDb2dVertex
 10
206.6363423783969
 20
-292.8385271535644
 30
0.0
  0
VERTEX
  5
3C1
330
3BD
100
AcDbEntity
  8
Layer 1
 62
   250
420
  2301728
370
    18
100
AcDbVertex
100
AcDb2dVertex
 10
211.9739984739899
 20
-292.8385271535644
 30
0.0
  0
VERTEX
  5
3C2
330
3BD
100
AcDbEntity
  8
Layer 1
 62
   250
420
  2301728
370
    18
100
AcDbVertex
100
AcDb2dVertex
 10
211.9739984739899
 20
-296.1903810850126
 30
0.0
  0
SEQEND
  5
3C4
330
3BD
100
AcDbEntity
  8
Layer 1
 62
   250
420
  2301728
370
    18
  0
HATCH
  5
3C3
330
1F
100
AcDbEntity
  8
Layer 1
 62
   254
420
 13750996
100
AcDbHatch
 10
0.0
 20
0.0
 30
0.0
210
0.0
220
0.0
230
1.0
  2
SOLID
 70
     1
 71
     0
 91
        1
 92
        1
 93
        4
 72
     1
 10
211.9739984739899
 20
-296.1903810850126
 11
206.6363423783969
 21
-296.1903810850126
 72
     1
 10
206.6363423783969
 20
-296.1903810850126
 11
206.6363423783969
 21
-292.8385271535644
 72
     1
 10
206.6363423783969
 20
-292.8385271535644
 11
211.9739984739899
 21
-292.8385271535644
 72
     1
 10
211.9739984739899
 20
-292.8385271535644
 11
211.9739984739899
 21
-296.1903810850126
 97
        0
 75
     2
 76
     1
 98
        0
  0
POLYLINE
  5
3C5
330
1F
100
AcDbEntity
  8
Layer 1
 62
   250
420
  2301728
370
    18
100
AcDb2dPolyline
 66
     1
 10
0.0
 20
0.0
 30
0.0
  0
VERTEX
  5
3C6
330
3C5
100
AcDbEntity
  8
Layer 1
 62
   250
420
  2301728
370
    18
100
AcDbVertex
100
AcDb2dVertex
 10
217.311654569583
 20
-296.1903810850126
 30
0.0
  0
VERTEX
  5
3C7
330
3C5
100
AcDbEntity
  8
Layer 1
 62
   250
420
  2301728
370
    18
100
AcDbVertex
100
AcDb2dVertex
 10
211.9739984739899
 20
-296.1903810850126
 30
0.0
  0
VERTEX
  5
3C8
330
3C5
100
AcDbEntity
  8
Layer 1
 62
   250
420
  2301728
370
    18
100
AcDbVertex
100
AcDb2dVertex
 10
211.9739984739899
 20
-292.8385271535644
 30
0.0
  0
VERTEX
  5
3C9
330
3C5
100
AcDbEntity
  8
Layer 1
 62
   250
420
  2301728
370
    18
100
AcDbVertex
100
AcDb2dVertex
 10
217.311654569583
 20
-292.8385271535644
 30
0.0
  0
VERTEX
  5
3CA
330
3C5
100
AcDbEntity
  8
Layer 1
 62
   250
420
  2301728
370
    18
100
AcDbVertex
100
AcDb2dVertex
 10
217.311654569583
 20
-296.1903810850126
 30
0.0
  0
SEQEND
  5
3CC
330
3C5
100
AcDbEntity
  8
Layer 1
 62
   250
420
  2301728
370
    18
  0
HATCH
  5
3CB
330
1F
100
AcDbEntity
  8
Layer 1
 62
   254
420
 13750996
100
AcDbHatch
 10
0.0
 20
0.0
 30
0.0
210
0.0
220
0.0
230
1.0
  2
SOLID
 70
     1
 71
     0
 91
        1
 92
        1
 93
        4
 72
     1
 10
217.311654569583
 20
-296.1903810850126
 11
211.9739984739899
 21
-296.1903810850126
 72
     1
 10
211.9739984739899
 20
-296.1903810850126
 11
211.9739984739899
 21
-292.8385271535644
 72
     1
 10
211.9739984739899
 20
-292.8385271535644
 11
217.311654569583
 21
-292.8385271535644
 72
     1
 10
217.311654569583
 20
-292.8385271535644
 11
217.311654569583
 21
-296.1903810850126
 97
        0
 75
     2
 76
     1
 98
        0
  0
POLYLINE
  5
3CD
330
1F
100
AcDbEntity
  8
Layer 1
 62
   250
420
  2301728
370
    18
100
AcDb2dPolyline
 66
     1
 10
0.0
 20
0.0
 30
0.0
  0
VERTEX
  5
3CE
330
3CD
100
AcDbEntity
  8
Layer 1
 62
   250
420
  2301728
370
    18
100
AcDbVertex
100
AcDb2dVertex
 10
222.649310665176
 20
-296.1903810850126
 30
0.0
  0
VERTEX
  5
3CF
330
3CD
100
AcDbEntity
  8
Layer 1
 62
   250
420
  2301728
370
    18
100
AcDbVertex
100
AcDb2dVertex
 10
217.311654569583
 20
-296.1903810850126
 30
0.0
  0
VERTEX
  5
3D0
330
3CD
100
AcDbEntity
  8
Layer 1
 62
   250
420
  2301728
370
    18
100
AcDbVertex
100
AcDb2dVertex
 10
217.311654569583
 20
-292.8385271535644
 30
0.0
  0
VERTEX
  5
3D1
330
3CD
100
AcDbEntity
  8
Layer 1
 62
   250
420
  2301728
370
    18
100
AcDbVertex
100
AcDb2dVertex
 10
222.649310665176
 20
-292.8385271535644
 30
0.0
  0
VERTEX
  5
3D2
330
3CD
100
AcDbEntity
  8
Layer 1
 62
   250
420
  2301728
370
    18
100
AcDbVertex
100
AcDb2dVertex
 10
222.649310665176
 20
-296.1903810850126
 30
0.0
  0
SEQEND
  5
3D4
330
3CD
100
AcDbEntity
  8
Layer 1
 62
   250
420
  2301728
370
    18
  0
HATCH
  5
3D3
330
1F
100
AcDbEntity
  8
Layer 1
 62
   254
420
 13750996
100
AcDbHatch
 10
0.0
 20
0.0
 30
0.0
210
0.0
220
0.0
230
1.0
  2
SOLID
 70
     1
 71
     0
 91
        1
 92
        1
 93
        4
 72
     1
 10
222.649310665176
 20
-296.1903810850126
 11
217.311654569583
 21
-296.1903810850126
 72
     1
 10
217.311654569583
 20
-296.1903810850126
 11
217.311654569583
 21
-292.8385271535644
 72
     1
 10
217.311654569583
 20
-292.8385271535644
 11
222.649310665176
 21
-292.8385271535644
 72
     1
 10
222.649310665176
 20
-292.8385271535644
 11
222.649310665176
 21
-296.1903810850126
 97
        0
 75
     2
 76
     1
 98
        0
  0
POLYLINE
  5
3D5
330
1F
100
AcDbEntity
  8
Layer 1
 62
   250
420
  2301728
370
    18
100
AcDb2dPolyline
 66
     1
 10
0.0
 20
0.0
 30
0.0
  0
VERTEX
  5
3D6
330
3D5
100
AcDbEntity
  8
Layer 1
 62
   250
420
  2301728
370
    18
100
AcDbVertex
100
AcDb2dVertex
 10
227.9869667607691
 20
-296.1903810850126
 30
0.0
  0
VERTEX
  5
3D7
330
3D5
100
AcDbEntity
  8
Layer 1
 62
   250
420
  2301728
370
    18
100
AcDbVertex
100
AcDb2dVertex
 10
222.649310665176
 20
-296.1903810850126
 30
0.0
  0
VERTEX
  5
3D8
330
3D5
100
AcDbEntity
  8
Layer 1
 62
   250
420
  2301728
370
    18
100
AcDbVertex
100
AcDb2dVertex
 10
222.649310665176
 20
-292.8385271535644
 30
0.0
  0
VERTEX
  5
3D9
330
3D5
100
AcDbEntity
  8
Layer 1
 62
   250
420
  2301728
370
    18
100
AcDbVertex
100
AcDb2dVertex
 10
227.9869667607691
 20
-292.8385271535644
 30
0.0
  0
VERTEX
  5
3DA
330
3D5
100
AcDbEntity
  8
Layer 1
 62
   250
420
  2301728
370
    18
100
AcDbVertex
100
AcDb2dVertex
 10
227.9869667607691
 20
-296.1903810850126
 30
0.0
  0
SEQEND
  5
3DC
330
3D5
100
AcDbEntity
  8
Layer 1
 62
   250
420
  2301728
370
    18
  0
HATCH
  5
3DB
330
1F
100
AcDbEntity
  8
Layer 1
 62
   254
420
 13750996
100
AcDbHatch
 10
0.0
 20
0.0
 30
0.0
210
0.0
220
0.0
230
1.0
  2
SOLID
 70
     1
 71
     0
 91
        1
 92
        1
 93
        4
 72
     1
 10
227.9869667607691
 20
-296.1903810850126
 11
222.649310665176
 21
-296.1903810850126
 72
     1
 10
222.649310665176
 20
-296.1903810850126
 11
222.649310665176
 21
-292.8385271535644
 72
     1
 10
222.649310665176
 20
-292.8385271535644
 11
227.9869667607691
 21
-292.8385271535644
 72
     1
 10
227.9869667607691
 20
-292.8385271535644
 11
227.9869667607691
 21
-296.1903810850126
 97
        0
 75
     2
 76
     1
 98
        0
  0
POLYLINE
  5
3DD
330
1F
100
AcDbEntity
  8
Layer 1
 62
   250
420
  2301728
370
    18
100
AcDb2dPolyline
 66
     1
 10
0.0
 20
0.0
 30
0.0
  0
VERTEX
  5
3DE
330
3DD
100
AcDbEntity
  8
Layer 1
 62
   250
420
  2301728
370
    18
100
AcDbVertex
100
AcDb2dVertex
 10
233.3246228563621
 20
-296.1903810850126
 30
0.0
  0
VERTEX
  5
3DF
330
3DD
100
AcDbEntity
  8
Layer 1
 62
   250
420
  2301728
370
    18
100
AcDbVertex
100
AcDb2dVertex
 10
227.9869667607691
 20
-296.1903810850126
 30
0.0
  0
VERTEX
  5
3E0
330
3DD
100
AcDbEntity
  8
Layer 1
 62
   250
420
  2301728
370
    18
100
AcDbVertex
100
AcDb2dVertex
 10
227.9869667607691
 20
-292.8385271535644
 30
0.0
  0
VERTEX
  5
3E1
330
3DD
100
AcDbEntity
  8
Layer 1
 62
   250
420
  2301728
370
    18
100
AcDbVertex
100
AcDb2dVertex
 10
233.3246228563621
 20
-292.8385271535644
 30
0.0
  0
VERTEX
  5
3E2
330
3DD
100
AcDbEntity
  8
Layer 1
 62
   250
420
  2301728
370
    18
100
AcDbVertex
100
AcDb2dVertex
 10
233.3246228563621
 20
-296.1903810850126
 30
0.0
  0
SEQEND
  5
3E4
330
3DD
100
AcDbEntity
  8
Layer 1
 62
   250
420
  2301728
370
    18
  0
HATCH
  5
3E3
330
1F
100
AcDbEntity
  8
Layer 1
 62
   254
420
 13750996
100
AcDbHatch
 10
0.0
 20
0.0
 30
0.0
210
0.0
220
0.0
230
1.0
  2
SOLID
 70
     1
 71
     0
 91
        1
 92
        1
 93
        4
 72
     1
 10
233.3246228563621
 20
-296.1903810850126
 11
227.9869667607691
 21
-296.1903810850126
 72
     1
 10
227.9869667607691
 20
-296.1903810850126
 11
227.9869667607691
 21
-292.8385271535644
 72
     1
 10
227.9869667607691
 20
-292.8385271535644
 11
233.3246228563621
 21
-292.8385271535644
 72
     1
 10
233.3246228563621
 20
-292.8385271535644
 11
233.3246228563621
 21
-296.1903810850126
 97
        0
 75
     2
 76
     1
 98
        0
  0
POLYLINE
  5
3E5
330
1F
100
AcDbEntity
  8
Layer 1
 62
   250
420
  2301728
370
    18
100
AcDb2dPolyline
 66
     1
 10
0.0
 20
0.0
 30
0.0
  0
VERTEX
  5
3E6
330
3E5
100
AcDbEntity
  8
Layer 1
 62
   250
420
  2301728
370
    18
100
AcDbVertex
100
AcDb2dVertex
 10
238.6622789519552
 20
-296.1903810850126
 30
0.0
  0
VERTEX
  5
3E7
330
3E5
100
AcDbEntity
  8
Layer 1
 62
   250
420
  2301728
370
    18
100
AcDbVertex
100
AcDb2dVertex
 10
233.3246228563621
 20
-296.1903810850126
 30
0.0
  0
VERTEX
  5
3E8
330
3E5
100
AcDbEntity
  8
Layer 1
 62
   250
420
  2301728
370
    18
100
AcDbVertex
100
AcDb2dVertex
 10
233.3246228563621
 20
-292.8385271535644
 30
0.0
  0
VERTEX
  5
3E9
330
3E5
100
AcDbEntity
  8
Layer 1
 62
   250
420
  2301728
370
    18
100
AcDbVertex
100
AcDb2dVertex
 10
238.6622789519552
 20
-292.8385271535644
 30
0.0
  0
VERTEX
  5
3EA
330
3E5
100
AcDbEntity
  8
Layer 1
 62
   250
420
  2301728
370
    18
100
AcDbVertex
100
AcDb2dVertex
 10
238.6622789519552
 20
-296.1903810850126
 30
0.0
  0
SEQEND
  5
3EC
330
3E5
100
AcDbEntity
  8
Layer 1
 62
   250
420
  2301728
370
    18
  0
HATCH
  5
3EB
330
1F
100
AcDbEntity
  8
Layer 1
 62
   254
420
 13750996
100
AcDbHatch
 10
0.0
 20
0.0
 30
0.0
210
0.0
220
0.0
230
1.0
  2
SOLID
 70
     1
 71
     0
 91
        1
 92
        1
 93
        4
 72
     1
 10
238.6622789519552
 20
-296.1903810850126
 11
233.3246228563621
 21
-296.1903810850126
 72
     1
 10
233.3246228563621
 20
-296.1903810850126
 11
233.3246228563621
 21
-292.8385271535644
 72
     1
 10
233.3246228563621
 20
-292.8385271535644
 11
238.6622789519552
 21
-292.8385271535644
 72
     1
 10
238.6622789519552
 20
-292.8385271535644
 11
238.6622789519552
 21
-296.1903810850126
 97
        0
 75
     2
 76
     1
 98
        0
  0
POLYLINE
  5
3ED
330
1F
100
AcDbEntity
  8
Layer 1
 62
   250
420
  2301728
370
    18
100
AcDb2dPolyline
 66
     1
 10
0.0
 20
0.0
 30
0.0
  0
VERTEX
  5
3EE
330
3ED
100
AcDbEntity
  8
Layer 1
 62
   250
420
  2301728
370
    18
100
AcDbVertex
100
AcDb2dVertex
 10
243.9999350475482
 20
-296.1903810850126
 30
0.0
  0
VERTEX
  5
3EF
330
3ED
100
AcDbEntity
  8
Layer 1
 62
   250
420
  2301728
370
    18
100
AcDbVertex
100
AcDb2dVertex
 10
238.6622789519552
 20
-296.1903810850126
 30
0.0
  0
VERTEX
  5
3F0
330
3ED
100
AcDbEntity
  8
Layer 1
 62
   250
420
  2301728
370
    18
100
AcDbVertex
100
AcDb2dVertex
 10
238.6622789519552
 20
-292.8385271535644
 30
0.0
  0
VERTEX
  5
3F1
330
3ED
100
AcDbEntity
  8
Layer 1
 62
   250
420
  2301728
370
    18
100
AcDbVertex
100
AcDb2dVertex
 10
243.9999350475482
 20
-292.8385271535644
 30
0.0
  0
VERTEX
  5
3F2
330
3ED
100
AcDbEntity
  8
Layer 1
 62
   250
420
  2301728
370
    18
100
AcDbVertex
100
AcDb2dVertex
 10
243.9999350475482
 20
-296.1903810850126
 30
0.0
  0
SEQEND
  5
3F4
330
3ED
100
AcDbEntity
  8
Layer 1
 62
   250
420
  2301728
370
    18
  0
HATCH
  5
3F3
330
1F
100
AcDbEntity
  8
Layer 1
 62
   254
420
 13750996
100
AcDbHatch
 10
0.0
 20
0.0
 30
0.0
210
0.0
220
0.0
230
1.0
  2
SOLID
 70
     1
 71
     0
 91
        1
 92
        1
 93
        4
 72
     1
 10
243.9999350475482
 20
-296.1903810850126
 11
238.6622789519552
 21
-296.1903810850126
 72
     1
 10
238.6622789519552
 20
-296.1903810850126
 11
238.6622789519552
 21
-292.8385271535644
 72
     1
 10
238.6622789519552
 20
-292.8385271535644
 11
243.9999350475482
 21
-292.8385271535644
 72
     1
 10
243.9999350475482
 20
-292.8385271535644
 11
243.9999350475482
 21
-296.1903810850126
 97
        0
 75
     2
 76
     1
 98
        0
  0
POLYLINE
  5
3F5
330
1F
100
AcDbEntity
  8
Layer 1
 62
   250
420
  2301728
370
    18
100
AcDb2dPolyline
 66
     1
 10
0.0
 20
0.0
 30
0.0
  0
VERTEX
  5
3F6
330
3F5
100
AcDbEntity
  8
Layer 1
 62
   250
420
  2301728
370
    18
100
AcDbVertex
100
AcDb2dVertex
 10
249.3375911431413
 20
-296.1903810850126
 30
0.0
  0
VERTEX
  5
3F7
330
3F5
100
AcDbEntity
  8
Layer 1
 62
   250
420
  2301728
370
    18
100
AcDbVertex
100
AcDb2dVertex
 10
243.9999350475482
 20
-296.1903810850126
 30
0.0
  0
VERTEX
  5
3F8
330
3F5
100
AcDbEntity
  8
Layer 1
 62
   250
420
  2301728
370
    18
100
AcDbVertex
100
AcDb2dVertex
 10
243.9999350475482
 20
-292.8385271535644
 30
0.0
  0
VERTEX
  5
3F9
330
3F5
100
AcDbEntity
  8
Layer 1
 62
   250
420
  2301728
370
    18
100
AcDbVertex
100
AcDb2dVertex
 10
249.3375911431413
 20
-292.8385271535644
 30
0.0
  0
VERTEX
  5
3FA
330
3F5
100
AcDbEntity
  8
Layer 1
 62
   250
420
  2301728
370
    18
100
AcDbVertex
100
AcDb2dVertex
 10
249.3375911431413
 20
-296.1903810850126
 30
0.0
  0
SEQEND
  5
3FC
330
3F5
100
AcDbEntity
  8
Layer 1
 62
   250
420
  2301728
370
    18
  0
HATCH
  5
3FB
330
1F
100
AcDbEntity
  8
Layer 1
 62
   254
420
 13750996
100
AcDbHatch
 10
0.0
 20
0.0
 30
0.0
210
0.0
220
0.0
230
1.0
  2
SOLID
 70
     1
 71
     0
 91
        1
 92
        1
 93
        4
 72
     1
 10
249.3375911431413
 20
-296.1903810850126
 11
243.9999350475482
 21
-296.1903810850126
 72
     1
 10
243.9999350475482
 20
-296.1903810850126
 11
243.9999350475482
 21
-292.8385271535644
 72
     1
 10
243.9999350475482
 20
-292.8385271535644
 11
249.3375911431413
 21
-292.8385271535644
 72
     1
 10
249.3375911431413
 20
-292.8385271535644
 11
249.3375911431413
 21
-296.1903810850126
 97
        0
 75
     2
 76
     1
 98
        0
  0
POLYLINE
  5
3FD
330
1F
100
AcDbEntity
  8
Layer 1
 62
   250
420
  2301728
370
    18
100
AcDb2dPolyline
 66
     1
 10
0.0
 20
0.0
 30
0.0
  0
VERTEX
  5
3FE
330
3FD
100
AcDbEntity
  8
Layer 1
 62
   250
420
  2301728
370
    18
100
AcDbVertex
100
AcDb2dVertex
 10
254.6752472387343
 20
-296.1903810850126
 30
0.0
  0
VERTEX
  5
3FF
330
3FD
100
AcDbEntity
  8
Layer 1
 62
   250
420
  2301728
370
    18
100
AcDbVertex
100
AcDb2dVertex
 10
249.3375911431413
 20
-296.1903810850126
 30
0.0
  0
VERTEX
  5
400
330
3FD
100
AcDbEntity
  8
Layer 1
 62
   250
420
  2301728
370
    18
100
AcDbVertex
100
AcDb2dVertex
 10
249.3375911431413
 20
-292.8385271535644
 30
0.0
  0
VERTEX
  5
401
330
3FD
100
AcDbEntity
  8
Layer 1
 62
   250
420
  2301728
370
    18
100
AcDbVertex
100
AcDb2dVertex
 10
254.6752472387343
 20
-292.8385271535644
 30
0.0
  0
VERTEX
  5
402
330
3FD
100
AcDbEntity
  8
Layer 1
 62
   250
420
  2301728
370
    18
100
AcDbVertex
100
AcDb2dVertex
 10
254.6752472387343
 20
-296.1903810850126
 30
0.0
  0
SEQEND
  5
404
330
3FD
100
AcDbEntity
  8
Layer 1
 62
   250
420
  2301728
370
    18
  0
HATCH
  5
403
330
1F
100
AcDbEntity
  8
Layer 1
 62
   254
420
 13750996
100
AcDbHatch
 10
0.0
 20
0.0
 30
0.0
210
0.0
220
0.0
230
1.0
  2
SOLID
 70
     1
 71
     0
 91
        1
 92
        1
 93
        4
 72
     1
 10
254.6752472387343
 20
-296.1903810850126
 11
249.3375911431413
 21
-296.1903810850126
 72
     1
 10
249.3375911431413
 20
-296.1903810850126
 11
249.3375911431413
 21
-292.8385271535644
 72
     1
 10
249.3375911431413
 20
-292.8385271535644
 11
254.6752472387343
 21
-292.8385271535644
 72
     1
 10
254.6752472387343
 20
-292.8385271535644
 11
254.6752472387343
 21
-296.1903810850126
 97
        0
 75
     2
 76
     1
 98
        0
  0
POLYLINE
  5
405
330
1F
100
AcDbEntity
  8
Layer 1
 62
   250
420
  2301728
370
    18
100
AcDb2dPolyline
 66
     1
 10
0.0
 20
0.0
 30
0.0
  0
VERTEX
  5
406
330
405
100
AcDbEntity
  8
Layer 1
 62
   250
420
  2301728
370
    18
100
AcDbVertex
100
AcDb2dVertex
 10
260.0129033343273
 20
-296.1903810850126
 30
0.0
  0
VERTEX
  5
407
330
405
100
AcDbEntity
  8
Layer 1
 62
   250
420
  2301728
370
    18
100
AcDbVertex
100
AcDb2dVertex
 10
254.6752472387343
 20
-296.1903810850126
 30
0.0
  0
VERTEX
  5
408
330
405
100
AcDbEntity
  8
Layer 1
 62
   250
420
  2301728
370
    18
100
AcDbVertex
100
AcDb2dVertex
 10
254.6752472387343
 20
-292.8385271535644
 30
0.0
  0
VERTEX
  5
409
330
405
100
AcDbEntity
  8
Layer 1
 62
   250
420
  2301728
370
    18
100
AcDbVertex
100
AcDb2dVertex
 10
260.0129033343273
 20
-292.8385271535644
 30
0.0
  0
VERTEX
  5
40A
330
405
100
AcDbEntity
  8
Layer 1
 62
   250
420
  2301728
370
    18
100
AcDbVertex
100
AcDb2dVertex
 10
260.0129033343273
 20
-296.1903810850126
 30
0.0
  0
SEQEND
  5
40C
330
405
100
AcDbEntity
  8
Layer 1
 62
   250
420
  2301728
370
    18
  0
HATCH
  5
40B
330
1F
100
AcDbEntity
  8
Layer 1
 62
   254
420
 13750996
100
AcDbHatch
 10
0.0
 20
0.0
 30
0.0
210
0.0
220
0.0
230
1.0
  2
SOLID
 70
     1
 71
     0
 91
        1
 92
        1
 93
        4
 72
     1
 10
260.0129033343273
 20
-296.1903810850126
 11
254.6752472387343
 21
-296.1903810850126
 72
     1
 10
254.6752472387343
 20
-296.1903810850126
 11
254.6752472387343
 21
-292.8385271535644
 72
     1
 10
254.6752472387343
 20
-292.8385271535644
 11
260.0129033343273
 21
-292.8385271535644
 72
     1
 10
260.0129033343273
 20
-292.8385271535644
 11
260.0129033343273
 21
-296.1903810850126
 97
        0
 75
     2
 76
     1
 98
        0
  0
POLYLINE
  5
40D
330
1F
100
AcDbEntity
  8
Layer 1
 62
   250
420
  2301728
370
    18
100
AcDb2dPolyline
 66
     1
 10
0.0
 20
0.0
 30
0.0
  0
VERTEX
  5
40E
330
40D
100
AcDbEntity
  8
Layer 1
 62
   250
420
  2301728
370
    18
100
AcDbVertex
100
AcDb2dVertex
 10
265.3505594299204
 20
-296.1903810850126
 30
0.0
  0
VERTEX
  5
40F
330
40D
100
AcDbEntity
  8
Layer 1
 62
   250
420
  2301728
370
    18
100
AcDbVertex
100
AcDb2dVertex
 10
260.0129033343273
 20
-296.1903810850126
 30
0.0
  0
VERTEX
  5
410
330
40D
100
AcDbEntity
  8
Layer 1
 62
   250
420
  2301728
370
    18
100
AcDbVertex
100
AcDb2dVertex
 10
260.0129033343273
 20
-292.8385271535644
 30
0.0
  0
VERTEX
  5
411
330
40D
100
AcDbEntity
  8
Layer 1
 62
   250
420
  2301728
370
    18
100
AcDbVertex
100
AcDb2dVertex
 10
265.3505594299204
 20
-292.8385271535644
 30
0.0
  0
VERTEX
  5
412
330
40D
100
AcDbEntity
  8
Layer 1
 62
   250
420
  2301728
370
    18
100
AcDbVertex
100
AcDb2dVertex
 10
265.3505594299204
 20
-296.1903810850126
 30
0.0
  0
SEQEND
  5
414
330
40D
100
AcDbEntity
  8
Layer 1
 62
   250
420
  2301728
370
    18
  0
HATCH
  5
413
330
1F
100
AcDbEntity
  8
Layer 1
 62
   254
420
 13750996
100
AcDbHatch
 10
0.0
 20
0.0
 30
0.0
210
0.0
220
0.0
230
1.0
  2
SOLID
 70
     1
 71
     0
 91
        1
 92
        1
 93
        4
 72
     1
 10
265.3505594299204
 20
-296.1903810850126
 11
260.0129033343273
 21
-296.1903810850126
 72
     1
 10
260.0129033343273
 20
-296.1903810850126
 11
260.0129033343273
 21
-292.8385271535644
 72
     1
 10
260.0129033343273
 20
-292.8385271535644
 11
265.3505594299204
 21
-292.8385271535644
 72
     1
 10
265.3505594299204
 20
-292.8385271535644
 11
265.3505594299204
 21
-296.1903810850126
 97
        0
 75
     2
 76
     1
 98
        0
  0
POLYLINE
  5
415
330
1F
100
AcDbEntity
  8
Layer 1
 62
   250
420
  2301728
370
    18
100
AcDb2dPolyline
 66
     1
 10
0.0
 20
0.0
 30
0.0
  0
VERTEX
  5
416
330
415
100
AcDbEntity
  8
Layer 1
 62
   250
420
  2301728
370
    18
100
AcDbVertex
100
AcDb2dVertex
 10
270.6882155255134
 20
-296.1903810850126
 30
0.0
  0
VERTEX
  5
417
330
415
100
AcDbEntity
  8
Layer 1
 62
   250
420
  2301728
370
    18
100
AcDbVertex
100
AcDb2dVertex
 10
265.3505594299204
 20
-296.1903810850126
 30
0.0
  0
VERTEX
  5
418
330
415
100
AcDbEntity
  8
Layer 1
 62
   250
420
  2301728
370
    18
100
AcDbVertex
100
AcDb2dVertex
 10
265.3505594299204
 20
-292.8385271535644
 30
0.0
  0
VERTEX
  5
419
330
415
100
AcDbEntity
  8
Layer 1
 62
   250
420
  2301728
370
    18
100
AcDbVertex
100
AcDb2dVertex
 10
270.6882155255134
 20
-292.8385271535644
 30
0.0
  0
VERTEX
  5
41A
330
415
100
AcDbEntity
  8
Layer 1
 62
   250
420
  2301728
370
    18
100
AcDbVertex
100
AcDb2dVertex
 10
270.6882155255134
 20
-296.1903810850126
 30
0.0
  0
SEQEND
  5
41C
330
415
100
AcDbEntity
  8
Layer 1
 62
   250
420
  2301728
370
    18
  0
HATCH
  5
41B
330
1F
100
AcDbEntity
  8
Layer 1
 62
   254
420
 13750996
100
AcDbHatch
 10
0.0
 20
0.0
 30
0.0
210
0.0
220
0.0
230
1.0
  2
SOLID
 70
     1
 71
     0
 91
        1
 92
        1
 93
        4
 72
     1
 10
270.6882155255134
 20
-296.1903810850126
 11
265.3505594299204
 21
-296.1903810850126
 72
     1
 10
265.3505594299204
 20
-296.1903810850126
 11
265.3505594299204
 21
-292.8385271535644
 72
     1
 10
265.3505594299204
 20
-292.8385271535644
 11
270.6882155255134
 21
-292.8385271535644
 72
     1
 10
270.6882155255134
 20
-292.8385271535644
 11
270.6882155255134
 21
-296.1903810850126
 97
        0
 75
     2
 76
     1
 98
        0
  0
POLYLINE
  5
41D
330
1F
100
AcDbEntity
  8
Layer 1
 62
   250
420
  2301728
370
    18
100
AcDb2dPolyline
 66
     1
 10
0.0
 20
0.0
 30
0.0
  0
VERTEX
  5
41E
330
41D
100
AcDbEntity
  8
Layer 1
 62
   250
420
  2301728
370
    18
100
AcDbVertex
100
AcDb2dVertex
 10
276.0258716211065
 20
-296.1903810850126
 30
0.0
  0
VERTEX
  5
41F
330
41D
100
AcDbEntity
  8
Layer 1
 62
   250
420
  2301728
370
    18
100
AcDbVertex
100
AcDb2dVertex
 10
270.6882155255134
 20
-296.1903810850126
 30
0.0
  0
VERTEX
  5
420
330
41D
100
AcDbEntity
  8
Layer 1
 62
   250
420
  2301728
370
    18
100
AcDbVertex
100
AcDb2dVertex
 10
270.6882155255134
 20
-292.8385271535644
 30
0.0
  0
VERTEX
  5
421
330
41D
100
AcDbEntity
  8
Layer 1
 62
   250
420
  2301728
370
    18
100
AcDbVertex
100
AcDb2dVertex
 10
276.0258716211065
 20
-292.8385271535644
 30
0.0
  0
VERTEX
  5
422
330
41D
100
AcDbEntity
  8
Layer 1
 62
   250
420
  2301728
370
    18
100
AcDbVertex
100
AcDb2dVertex
 10
276.0258716211065
 20
-296.1903810850126
 30
0.0
  0
SEQEND
  5
424
330
41D
100
AcDbEntity
  8
Layer 1
 62
   250
420
  2301728
370
    18
  0
HATCH
  5
423
330
1F
100
AcDbEntity
  8
Layer 1
 62
   254
420
 13750996
100
AcDbHatch
 10
0.0
 20
0.0
 30
0.0
210
0.0
220
0.0
230
1.0
  2
SOLID
 70
     1
 71
     0
 91
        1
 92
        1
 93
        4
 72
     1
 10
276.0258716211065
 20
-296.1903810850126
 11
270.6882155255134
 21
-296.1903810850126
 72
     1
 10
270.6882155255134
 20
-296.1903810850126
 11
270.6882155255134
 21
-292.8385271535644
 72
     1
 10
270.6882155255134
 20
-292.8385271535644
 11
276.0258716211065
 21
-292.8385271535644
 72
     1
 10
276.0258716211065
 20
-292.8385271535644
 11
276.0258716211065
 21
-296.1903810850126
 97
        0
 75
     2
 76
     1
 98
        0
  0
POLYLINE
  5
425
330
1F
100
AcDbEntity
  8
Layer 1
 62
   250
420
  2301728
370
    18
100
AcDb2dPolyline
 66
     1
 10
0.0
 20
0.0
 30
0.0
  0
VERTEX
  5
426
330
425
100
AcDbEntity
  8
Layer 1
 62
   250
420
  2301728
370
    18
100
AcDbVertex
100
AcDb2dVertex
 10
281.3635277166995
 20
-296.1903810850126
 30
0.0
  0
VERTEX
  5
427
330
425
100
AcDbEntity
  8
Layer 1
 62
   250
420
  2301728
370
    18
100
AcDbVertex
100
AcDb2dVertex
 10
276.0258716211065
 20
-296.1903810850126
 30
0.0
  0
VERTEX
  5
428
330
425
100
AcDbEntity
  8
Layer 1
 62
   250
420
  2301728
370
    18
100
AcDbVertex
100
AcDb2dVertex
 10
276.0258716211065
 20
-292.8385271535644
 30
0.0
  0
VERTEX
  5
429
330
425
100
AcDbEntity
  8
Layer 1
 62
   250
420
  2301728
370
    18
100
AcDbVertex
100
AcDb2dVertex
 10
281.3635277166995
 20
-292.8385271535644
 30
0.0
  0
VERTEX
  5
42A
330
425
100
AcDbEntity
  8
Layer 1
 62
   250
420
  2301728
370
    18
100
AcDbVertex
100
AcDb2dVertex
 10
281.3635277166995
 20
-296.1903810850126
 30
0.0
  0
SEQEND
  5
42C
330
425
100
AcDbEntity
  8
Layer 1
 62
   250
420
  2301728
370
    18
  0
HATCH
  5
42B
330
1F
100
AcDbEntity
  8
Layer 1
 62
   254
420
 13750996
100
AcDbHatch
 10
0.0
 20
0.0
 30
0.0
210
0.0
220
0.0
230
1.0
  2
SOLID
 70
     1
 71
     0
 91
        1
 92
        1
 93
        4
 72
     1
 10
281.3635277166995
 20
-296.1903810850126
 11
276.0258716211065
 21
-296.1903810850126
 72
     1
 10
276.0258716211065
 20
-296.1903810850126
 11
276.0258716211065
 21
-292.8385271535644
 72
     1
 10
276.0258716211065
 20
-292.8385271535644
 11
281.3635277166995
 21
-292.8385271535644
 72
     1
 10
281.3635277166995
 20
-292.8385271535644
 11
281.3635277166995
 21
-296.1903810850126
 97
        0
 75
     2
 76
     1
 98
        0
  0
POLYLINE
  5
42D
330
1F
100
AcDbEntity
  8
Layer 1
 62
   250
420
  2301728
370
    18
100
AcDb2dPolyline
 66
     1
 10
0.0
 20
0.0
 30
0.0
  0
VERTEX
  5
42E
330
42D
100
AcDbEntity
  8
Layer 1
 62
   250
420
  2301728
370
    18
100
AcDbVertex
100
AcDb2dVertex
 10
286.7011838122926
 20
-296.1903810850126
 30
0.0
  0
VERTEX
  5
42F
330
42D
100
AcDbEntity
  8
Layer 1
 62
   250
420
  2301728
370
    18
100
AcDbVertex
100
AcDb2dVertex
 10
281.3635277166995
 20
-296.1903810850126
 30
0.0
  0
VERTEX
  5
430
330
42D
100
AcDbEntity
  8
Layer 1
 62
   250
420
  2301728
370
    18
100
AcDbVertex
100
AcDb2dVertex
 10
281.3635277166995
 20
-292.8385271535644
 30
0.0
  0
VERTEX
  5
431
330
42D
100
AcDbEntity
  8
Layer 1
 62
   250
420
  2301728
370
    18
100
AcDbVertex
100
AcDb2dVertex
 10
286.7011838122926
 20
-292.8385271535644
 30
0.0
  0
VERTEX
  5
432
330
42D
100
AcDbEntity
  8
Layer 1
 62
   250
420
  2301728
370
    18
100
AcDbVertex
100
AcDb2dVertex
 10
286.7011838122926
 20
-296.1903810850126
 30
0.0
  0
SEQEND
  5
434
330
42D
100
AcDbEntity
  8
Layer 1
 62
   250
420
  2301728
370
    18
  0
HATCH
  5
433
330
1F
100
AcDbEntity
  8
Layer 1
 62
   254
420
 13750996
100
AcDbHatch
 10
0.0
 20
0.0
 30
0.0
210
0.0
220
0.0
230
1.0
  2
SOLID
 70
     1
 71
     0
 91
        1
 92
        1
 93
        4
 72
     1
 10
286.7011838122926
 20
-296.1903810850126
 11
281.3635277166995
 21
-296.1903810850126
 72
     1
 10
281.3635277166995
 20
-296.1903810850126
 11
281.3635277166995
 21
-292.8385271535644
 72
     1
 10
281.3635277166995
 20
-292.8385271535644
 11
286.7011838122926
 21
-292.8385271535644
 72
     1
 10
286.7011838122926
 20
-292.8385271535644
 11
286.7011838122926
 21
-296.1903810850126
 97
        0
 75
     2
 76
     1
 98
        0
  0
POLYLINE
  5
435
330
1F
100
AcDbEntity
  8
Layer 1
 62
   250
420
  2301728
370
    18
100
AcDb2dPolyline
 66
     1
 10
0.0
 20
0.0
 30
0.0
  0
VERTEX
  5
436
330
435
100
AcDbEntity
  8
Layer 1
 62
   250
420
  2301728
370
    18
100
AcDbVertex
100
AcDb2dVertex
 10
292.0388399078856
 20
-296.1903810850126
 30
0.0
  0
VERTEX
  5
437
330
435
100
AcDbEntity
  8
Layer 1
 62
   250
420
  2301728
370
    18
100
AcDbVertex
100
AcDb2dVertex
 10
286.7011838122926
 20
-296.1903810850126
 30
0.0
  0
VERTEX
  5
438
330
435
100
AcDbEntity
  8
Layer 1
 62
   250
420
  2301728
370
    18
100
AcDbVertex
100
AcDb2dVertex
 10
286.7011838122926
 20
-292.8385271535644
 30
0.0
  0
VERTEX
  5
439
330
435
100
AcDbEntity
  8
Layer 1
 62
   250
420
  2301728
370
    18
100
AcDbVertex
100
AcDb2dVertex
 10
292.0388399078856
 20
-292.8385271535644
 30
0.0
  0
VERTEX
  5
43A
330
435
100
AcDbEntity
  8
Layer 1
 62
   250
420
  2301728
370
    18
100
AcDbVertex
100
AcDb2dVertex
 10
292.0388399078856
 20
-296.1903810850126
 30
0.0
  0
SEQEND
  5
43C
330
435
100
AcDbEntity
  8
Layer 1
 62
   250
420
  2301728
370
    18
  0
HATCH
  5
43B
330
1F
100
AcDbEntity
  8
Layer 1
 62
   254
420
 13750996
100
AcDbHatch
 10
0.0
 20
0.0
 30
0.0
210
0.0
220
0.0
230
1.0
  2
SOLID
 70
     1
 71
     0
 91
        1
 92
        1
 93
        4
 72
     1
 10
292.0388399078856
 20
-296.1903810850126
 11
286.7011838122926
 21
-296.1903810850126
 72
     1
 10
286.7011838122926
 20
-296.1903810850126
 11
286.7011838122926
 21
-292.8385271535644
 72
     1
 10
286.7011838122926
 20
-292.8385271535644
 11
292.0388399078856
 21
-292.8385271535644
 72
     1
 10
292.0388399078856
 20
-292.8385271535644
 11
292.0388399078856
 21
-296.1903810850126
 97
        0
 75
     2
 76
     1
 98
        0
  0
POLYLINE
  5
43D
330
1F
100
AcDbEntity
  8
Layer 1
 62
   250
420
  2301728
370
    18
100
AcDb2dPolyline
 66
     1
 10
0.0
 20
0.0
 30
0.0
  0
VERTEX
  5
43E
330
43D
100
AcDbEntity
  8
Layer 1
 62
   250
420
  2301728
370
    18
100
AcDbVertex
100
AcDb2dVertex
 10
297.3764960034787
 20
-296.1903810850126
 30
0.0
  0
VERTEX
  5
43F
330
43D
100
AcDbEntity
  8
Layer 1
 62
   250
420
  2301728
370
    18
100
AcDbVertex
100
AcDb2dVertex
 10
292.0388399078856
 20
-296.1903810850126
 30
0.0
  0
VERTEX
  5
440
330
43D
100
AcDbEntity
  8
Layer 1
 62
   250
420
  2301728
370
    18
100
AcDbVertex
100
AcDb2dVertex
 10
292.0388399078856
 20
-292.8385271535644
 30
0.0
  0
VERTEX
  5
441
330
43D
100
AcDbEntity
  8
Layer 1
 62
   250
420
  2301728
370
    18
100
AcDbVertex
100
AcDb2dVertex
 10
297.3764960034787
 20
-292.8385271535644
 30
0.0
  0
VERTEX
  5
442
330
43D
100
AcDbEntity
  8
Layer 1
 62
   250
420
  2301728
370
    18
100
AcDbVertex
100
AcDb2dVertex
 10
297.3764960034787
 20
-296.1903810850126
 30
0.0
  0
SEQEND
  5
444
330
43D
100
AcDbEntity
  8
Layer 1
 62
   250
420
  2301728
370
    18
  0
HATCH
  5
443
330
1F
100
AcDbEntity
  8
Layer 1
 62
   254
420
 13750996
100
AcDbHatch
 10
0.0
 20
0.0
 30
0.0
210
0.0
220
0.0
230
1.0
  2
SOLID
 70
     1
 71
     0
 91
        1
 92
        1
 93
        4
 72
     1
 10
297.3764960034787
 20
-296.1903810850126
 11
292.0388399078856
 21
-296.1903810850126
 72
     1
 10
292.0388399078856
 20
-296.1903810850126
 11
292.0388399078856
 21
-292.8385271535644
 72
     1
 10
292.0388399078856
 20
-292.8385271535644
 11
297.3764960034787
 21
-292.8385271535644
 72
     1
 10
297.3764960034787
 20
-292.8385271535644
 11
297.3764960034787
 21
-296.1903810850126
 97
        0
 75
     2
 76
     1
 98
        0
  0
POLYLINE
  5
445
330
1F
100
AcDbEntity
  8
Layer 1
 62
   250
420
  2301728
370
    18
100
AcDb2dPolyline
 66
     1
 10
0.0
 20
0.0
 30
0.0
  0
VERTEX
  5
446
330
445
100
AcDbEntity
  8
Layer 1
 62
   250
420
  2301728
370
    18
100
AcDbVertex
100
AcDb2dVertex
 10
302.7141520990717
 20
-296.1903810850126
 30
0.0
  0
VERTEX
  5
447
330
445
100
AcDbEntity
  8
Layer 1
 62
   250
420
  2301728
370
    18
100
AcDbVertex
100
AcDb2dVertex
 10
297.3764960034787
 20
-296.1903810850126
 30
0.0
  0
VERTEX
  5
448
330
445
100
AcDbEntity
  8
Layer 1
 62
   250
420
  2301728
370
    18
100
AcDbVertex
100
AcDb2dVertex
 10
297.3764960034787
 20
-292.8385271535644
 30
0.0
  0
VERTEX
  5
449
330
445
100
AcDbEntity
  8
Layer 1
 62
   250
420
  2301728
370
    18
100
AcDbVertex
100
AcDb2dVertex
 10
302.7141520990717
 20
-292.8385271535644
 30
0.0
  0
VERTEX
  5
44A
330
445
100
AcDbEntity
  8
Layer 1
 62
   250
420
  2301728
370
    18
100
AcDbVertex
100
AcDb2dVertex
 10
302.7141520990717
 20
-296.1903810850126
 30
0.0
  0
SEQEND
  5
44C
330
445
100
AcDbEntity
  8
Layer 1
 62
   250
420
  2301728
370
    18
  0
HATCH
  5
44B
330
1F
100
AcDbEntity
  8
Layer 1
 62
   254
420
 13750996
100
AcDbHatch
 10
0.0
 20
0.0
 30
0.0
210
0.0
220
0.0
230
1.0
  2
SOLID
 70
     1
 71
     0
 91
        1
 92
        1
 93
        4
 72
     1
 10
302.7141520990717
 20
-296.1903810850126
 11
297.3764960034787
 21
-296.1903810850126
 72
     1
 10
297.3764960034787
 20
-296.1903810850126
 11
297.3764960034787
 21
-292.8385271535644
 72
     1
 10
297.3764960034787
 20
-292.8385271535644
 11
302.7141520990717
 21
-292.8385271535644
 72
     1
 10
302.7141520990717
 20
-292.8385271535644
 11
302.7141520990717
 21
-296.1903810850126
 97
        0
 75
     2
 76
     1
 98
        0
  0
POLYLINE
  5
44D
330
1F
100
AcDbEntity
  8
Layer 1
 62
   250
420
  2301728
370
    18
100
AcDb2dPolyline
 66
     1
 10
0.0
 20
0.0
 30
0.0
  0
VERTEX
  5
44E
330
44D
100
AcDbEntity
  8
Layer 1
 62
   250
420
  2301728
370
    18
100
AcDbVertex
100
AcDb2dVertex
 10
308.0518081946648
 20
-296.1903810850126
 30
0.0
  0
VERTEX
  5
44F
330
44D
100
AcDbEntity
  8
Layer 1
 62
   250
420
  2301728
370
    18
100
AcDbVertex
100
AcDb2dVertex
 10
302.7141520990717
 20
-296.1903810850126
 30
0.0
  0
VERTEX
  5
450
330
44D
100
AcDbEntity
  8
Layer 1
 62
   250
420
  2301728
370
    18
100
AcDbVertex
100
AcDb2dVertex
 10
302.7141520990717
 20
-292.8385271535644
 30
0.0
  0
VERTEX
  5
451
330
44D
100
AcDbEntity
  8
Layer 1
 62
   250
420
  2301728
370
    18
100
AcDbVertex
100
AcDb2dVertex
 10
308.0518081946648
 20
-292.8385271535644
 30
0.0
  0
VERTEX
  5
452
330
44D
100
AcDbEntity
  8
Layer 1
 62
   250
420
  2301728
370
    18
100
AcDbVertex
100
AcDb2dVertex
 10
308.0518081946648
 20
-296.1903810850126
 30
0.0
  0
SEQEND
  5
454
330
44D
100
AcDbEntity
  8
Layer 1
 62
   250
420
  2301728
370
    18
  0
HATCH
  5
453
330
1F
100
AcDbEntity
  8
Layer 1
 62
   254
420
 13750996
100
AcDbHatch
 10
0.0
 20
0.0
 30
0.0
210
0.0
220
0.0
230
1.0
  2
SOLID
 70
     1
 71
     0
 91
        1
 92
        1
 93
        4
 72
     1
 10
308.0518081946648
 20
-296.1903810850126
 11
302.7141520990717
 21
-296.1903810850126
 72
     1
 10
302.7141520990717
 20
-296.1903810850126
 11
302.7141520990717
 21
-292.8385271535644
 72
     1
 10
302.7141520990717
 20
-292.8385271535644
 11
308.0518081946648
 21
-292.8385271535644
 72
     1
 10
308.0518081946648
 20
-292.8385271535644
 11
308.0518081946648
 21
-296.1903810850126
 97
        0
 75
     2
 76
     1
 98
        0
  0
POLYLINE
  5
455
330
1F
100
AcDbEntity
  8
Layer 1
 62
   250
420
  2301728
370
    18
100
AcDb2dPolyline
 66
     1
 10
0.0
 20
0.0
 30
0.0
  0
VERTEX
  5
456
330
455
100
AcDbEntity
  8
Layer 1
 62
   250
420
  2301728
370
    18
100
AcDbVertex
100
AcDb2dVertex
 10
313.3894642902578
 20
-296.1903810850126
 30
0.0
  0
VERTEX
  5
457
330
455
100
AcDbEntity
  8
Layer 1
 62
   250
420
  2301728
370
    18
100
AcDbVertex
100
AcDb2dVertex
 10
308.0518081946648
 20
-296.1903810850126
 30
0.0
  0
VERTEX
  5
458
330
455
100
AcDbEntity
  8
Layer 1
 62
   250
420
  2301728
370
    18
100
AcDbVertex
100
AcDb2dVertex
 10
308.0518081946648
 20
-292.8385271535644
 30
0.0
  0
VERTEX
  5
459
330
455
100
AcDbEntity
  8
Layer 1
 62
   250
420
  2301728
370
    18
100
AcDbVertex
100
AcDb2dVertex
 10
313.3894642902578
 20
-292.8385271535644
 30
0.0
  0
VERTEX
  5
45A
330
455
100
AcDbEntity
  8
Layer 1
 62
   250
420
  2301728
370
    18
100
AcDbVertex
100
AcDb2dVertex
 10
313.3894642902578
 20
-296.1903810850126
 30
0.0
  0
SEQEND
  5
45C
330
455
100
AcDbEntity
  8
Layer 1
 62
   250
420
  2301728
370
    18
  0
HATCH
  5
45B
330
1F
100
AcDbEntity
  8
Layer 1
 62
   254
420
 13750996
100
AcDbHatch
 10
0.0
 20
0.0
 30
0.0
210
0.0
220
0.0
230
1.0
  2
SOLID
 70
     1
 71
     0
 91
        1
 92
        1
 93
        4
 72
     1
 10
313.3894642902578
 20
-296.1903810850126
 11
308.0518081946648
 21
-296.1903810850126
 72
     1
 10
308.0518081946648
 20
-296.1903810850126
 11
308.0518081946648
 21
-292.8385271535644
 72
     1
 10
308.0518081946648
 20
-292.8385271535644
 11
313.3894642902578
 21
-292.8385271535644
 72
     1
 10
313.3894642902578
 20
-292.8385271535644
 11
313.3894642902578
 21
-296.1903810850126
 97
        0
 75
     2
 76
     1
 98
        0
  0
POLYLINE
  5
45D
330
1F
100
AcDbEntity
  8
Layer 1
 62
   250
420
  2301728
370
    18
100
AcDb2dPolyline
 66
     1
 10
0.0
 20
0.0
 30
0.0
  0
VERTEX
  5
45E
330
45D
100
AcDbEntity
  8
Layer 1
 62
   250
420
  2301728
370
    18
100
AcDbVertex
100
AcDb2dVertex
 10
318.7271203858509
 20
-296.1903810850126
 30
0.0
  0
VERTEX
  5
45F
330
45D
100
AcDbEntity
  8
Layer 1
 62
   250
420
  2301728
370
    18
100
AcDbVertex
100
AcDb2dVertex
 10
313.3894642902578
 20
-296.1903810850126
 30
0.0
  0
VERTEX
  5
460
330
45D
100
AcDbEntity
  8
Layer 1
 62
   250
420
  2301728
370
    18
100
AcDbVertex
100
AcDb2dVertex
 10
313.3894642902578
 20
-292.8385271535644
 30
0.0
  0
VERTEX
  5
461
330
45D
100
AcDbEntity
  8
Layer 1
 62
   250
420
  2301728
370
    18
100
AcDbVertex
100
AcDb2dVertex
 10
318.7271203858509
 20
-292.8385271535644
 30
0.0
  0
VERTEX
  5
462
330
45D
100
AcDbEntity
  8
Layer 1
 62
   250
420
  2301728
370
    18
100
AcDbVertex
100
AcDb2dVertex
 10
318.7271203858509
 20
-296.1903810850126
 30
0.0
  0
SEQEND
  5
464
330
45D
100
AcDbEntity
  8
Layer 1
 62
   250
420
  2301728
370
    18
  0
HATCH
  5
463
330
1F
100
AcDbEntity
  8
Layer 1
 62
   254
420
 13750996
100
AcDbHatch
 10
0.0
 20
0.0
 30
0.0
210
0.0
220
0.0
230
1.0
  2
SOLID
 70
     1
 71
     0
 91
        1
 92
        1
 93
        4
 72
     1
 10
318.7271203858509
 20
-296.1903810850126
 11
313.3894642902578
 21
-296.1903810850126
 72
     1
 10
313.3894642902578
 20
-296.1903810850126
 11
313.3894642902578
 21
-292.8385271535644
 72
     1
 10
313.3894642902578
 20
-292.8385271535644
 11
318.7271203858509
 21
-292.8385271535644
 72
     1
 10
318.7271203858509
 20
-292.8385271535644
 11
318.7271203858509
 21
-296.1903810850126
 97
        0
 75
     2
 76
     1
 98
        0
  0
POLYLINE
  5
465
330
1F
100
AcDbEntity
  8
Layer 1
 62
   250
420
  2301728
370
    18
100
AcDb2dPolyline
 66
     1
 10
0.0
 20
0.0
 30
0.0
  0
VERTEX
  5
466
330
465
100
AcDbEntity
  8
Layer 1
 62
   250
420
  2301728
370
    18
100
AcDbVertex
100
AcDb2dVertex
 10
324.0647764814439
 20
-296.1903810850126
 30
0.0
  0
VERTEX
  5
467
330
465
100
AcDbEntity
  8
Layer 1
 62
   250
420
  2301728
370
    18
100
AcDbVertex
100
AcDb2dVertex
 10
318.7271203858509
 20
-296.1903810850126
 30
0.0
  0
VERTEX
  5
468
330
465
100
AcDbEntity
  8
Layer 1
 62
   250
420
  2301728
370
    18
100
AcDbVertex
100
AcDb2dVertex
 10
318.7271203858509
 20
-292.8385271535644
 30
0.0
  0
VERTEX
  5
469
330
465
100
AcDbEntity
  8
Layer 1
 62
   250
420
  2301728
370
    18
100
AcDbVertex
100
AcDb2dVertex
 10
324.0647764814439
 20
-292.8385271535644
 30
0.0
  0
VERTEX
  5
46A
330
465
100
AcDbEntity
  8
Layer 1
 62
   250
420
  2301728
370
    18
100
AcDbVertex
100
AcDb2dVertex
 10
324.0647764814439
 20
-296.1903810850126
 30
0.0
  0
SEQEND
  5
46C
330
465
100
AcDbEntity
  8
Layer 1
 62
   250
420
  2301728
370
    18
  0
HATCH
  5
46B
330
1F
100
AcDbEntity
  8
Layer 1
 62
   254
420
 13750996
100
AcDbHatch
 10
0.0
 20
0.0
 30
0.0
210
0.0
220
0.0
230
1.0
  2
SOLID
 70
     1
 71
     0
 91
        1
 92
        1
 93
        4
 72
     1
 10
324.0647764814439
 20
-296.1903810850126
 11
318.7271203858509
 21
-296.1903810850126
 72
     1
 10
318.7271203858509
 20
-296.1903810850126
 11
318.7271203858509
 21
-292.8385271535644
 72
     1
 10
318.7271203858509
 20
-292.8385271535644
 11
324.0647764814439
 21
-292.8385271535644
 72
     1
 10
324.0647764814439
 20
-292.8385271535644
 11
324.0647764814439
 21
-296.1903810850126
 97
        0
 75
     2
 76
     1
 98
        0
  0
POLYLINE
  5
46D
330
1F
100
AcDbEntity
  8
Layer 1
 62
   250
420
  2301728
370
    18
100
AcDb2dPolyline
 66
     1
 10
0.0
 20
0.0
 30
0.0
  0
VERTEX
  5
46E
330
46D
100
AcDbEntity
  8
Layer 1
 62
   250
420
  2301728
370
    18
100
AcDbVertex
100
AcDb2dVertex
 10
329.402432577037
 20
-296.1903810850126
 30
0.0
  0
VERTEX
  5
46F
330
46D
100
AcDbEntity
  8
Layer 1
 62
   250
420
  2301728
370
    18
100
AcDbVertex
100
AcDb2dVertex
 10
324.0647764814439
 20
-296.1903810850126
 30
0.0
  0
VERTEX
  5
470
330
46D
100
AcDbEntity
  8
Layer 1
 62
   250
420
  2301728
370
    18
100
AcDbVertex
100
AcDb2dVertex
 10
324.0647764814439
 20
-292.8385271535644
 30
0.0
  0
VERTEX
  5
471
330
46D
100
AcDbEntity
  8
Layer 1
 62
   250
420
  2301728
370
    18
100
AcDbVertex
100
AcDb2dVertex
 10
329.402432577037
 20
-292.8385271535644
 30
0.0
  0
VERTEX
  5
472
330
46D
100
AcDbEntity
  8
Layer 1
 62
   250
420
  2301728
370
    18
100
AcDbVertex
100
AcDb2dVertex
 10
329.402432577037
 20
-296.1903810850126
 30
0.0
  0
SEQEND
  5
474
330
46D
100
AcDbEntity
  8
Layer 1
 62
   250
420
  2301728
370
    18
  0
HATCH
  5
473
330
1F
100
AcDbEntity
  8
Layer 1
 62
   254
420
 13750996
100
AcDbHatch
 10
0.0
 20
0.0
 30
0.0
210
0.0
220
0.0
230
1.0
  2
SOLID
 70
     1
 71
     0
 91
        1
 92
        1
 93
        4
 72
     1
 10
329.402432577037
 20
-296.1903810850126
 11
324.0647764814439
 21
-296.1903810850126
 72
     1
 10
324.0647764814439
 20
-296.1903810850126
 11
324.0647764814439
 21
-292.8385271535644
 72
     1
 10
324.0647764814439
 20
-292.8385271535644
 11
329.402432577037
 21
-292.8385271535644
 72
     1
 10
329.402432577037
 20
-292.8385271535644
 11
329.402432577037
 21
-296.1903810850126
 97
        0
 75
     2
 76
     1
 98
        0
  0
POLYLINE
  5
475
330
1F
100
AcDbEntity
  8
Layer 1
 62
   250
420
  2301728
370
    18
100
AcDb2dPolyline
 66
     1
 10
0.0
 20
0.0
 30
0.0
  0
VERTEX
  5
476
330
475
100
AcDbEntity
  8
Layer 1
 62
   250
420
  2301728
370
    18
100
AcDbVertex
100
AcDb2dVertex
 10
334.74008867263
 20
-296.1903810850126
 30
0.0
  0
VERTEX
  5
477
330
475
100
AcDbEntity
  8
Layer 1
 62
   250
420
  2301728
370
    18
100
AcDbVertex
100
AcDb2dVertex
 10
329.402432577037
 20
-296.1903810850126
 30
0.0
  0
VERTEX
  5
478
330
475
100
AcDbEntity
  8
Layer 1
 62
   250
420
  2301728
370
    18
100
AcDbVertex
100
AcDb2dVertex
 10
329.402432577037
 20
-292.8385271535644
 30
0.0
  0
VERTEX
  5
479
330
475
100
AcDbEntity
  8
Layer 1
 62
   250
420
  2301728
370
    18
100
AcDbVertex
100
AcDb2dVertex
 10
334.74008867263
 20
-292.8385271535644
 30
0.0
  0
VERTEX
  5
47A
330
475
100
AcDbEntity
  8
Layer 1
 62
   250
420
  2301728
370
    18
100
AcDbVertex
100
AcDb2dVertex
 10
334.74008867263
 20
-296.1903810850126
 30
0.0
  0
SEQEND
  5
47C
330
475
100
AcDbEntity
  8
Layer 1
 62
   250
420
  2301728
370
    18
  0
HATCH
  5
47B
330
1F
100
AcDbEntity
  8
Layer 1
 62
   254
420
 13750996
100
AcDbHatch
 10
0.0
 20
0.0
 30
0.0
210
0.0
220
0.0
230
1.0
  2
SOLID
 70
     1
 71
     0
 91
        1
 92
        1
 93
        4
 72
     1
 10
334.74008867263
 20
-296.1903810850126
 11
329.402432577037
 21
-296.1903810850126
 72
     1
 10
329.402432577037
 20
-296.1903810850126
 11
329.402432577037
 21
-292.8385271535644
 72
     1
 10
329.402432577037
 20
-292.8385271535644
 11
334.74008867263
 21
-292.8385271535644
 72
     1
 10
334.74008867263
 20
-292.8385271535644
 11
334.74008867263
 21
-296.1903810850126
 97
        0
 75
     2
 76
     1
 98
        0
  0
POLYLINE
  5
47D
330
1F
100
AcDbEntity
  8
Layer 1
 62
   250
420
  2301728
370
    18
100
AcDb2dPolyline
 66
     1
 10
0.0
 20
0.0
 30
0.0
  0
VERTEX
  5
47E
330
47D
100
AcDbEntity
  8
Layer 1
 62
   250
420
  2301728
370
    18
100
AcDbVertex
100
AcDb2dVertex
 10
340.0777447682231
 20
-296.1903810850126
 30
0.0
  0
VERTEX
  5
47F
330
47D
100
AcDbEntity
  8
Layer 1
 62
   250
420
  2301728
370
    18
100
AcDbVertex
100
AcDb2dVertex
 10
334.74008867263
 20
-296.1903810850126
 30
0.0
  0
VERTEX
  5
480
330
47D
100
AcDbEntity
  8
Layer 1
 62
   250
420
  2301728
370
    18
100
AcDbVertex
100
AcDb2dVertex
 10
334.74008867263
 20
-292.8385271535644
 30
0.0
  0
VERTEX
  5
481
330
47D
100
AcDbEntity
  8
Layer 1
 62
   250
420
  2301728
370
    18
100
AcDbVertex
100
AcDb2dVertex
 10
340.0777447682231
 20
-292.8385271535644
 30
0.0
  0
VERTEX
  5
482
330
47D
100
AcDbEntity
  8
Layer 1
 62
   250
420
  2301728
370
    18
100
AcDbVertex
100
AcDb2dVertex
 10
340.0777447682231
 20
-296.1903810850126
 30
0.0
  0
SEQEND
  5
484
330
47D
100
AcDbEntity
  8
Layer 1
 62
   250
420
  2301728
370
    18
  0
HATCH
  5
483
330
1F
100
AcDbEntity
  8
Layer 1
 62
   254
420
 13750996
100
AcDbHatch
 10
0.0
 20
0.0
 30
0.0
210
0.0
220
0.0
230
1.0
  2
SOLID
 70
     1
 71
     0
 91
        1
 92
        1
 93
        4
 72
     1
 10
340.0777447682231
 20
-296.1903810850126
 11
334.74008867263
 21
-296.1903810850126
 72
     1
 10
334.74008867263
 20
-296.1903810850126
 11
334.74008867263
 21
-292.8385271535644
 72
     1
 10
334.74008867263
 20
-292.8385271535644
 11
340.0777447682231
 21
-292.8385271535644
 72
     1
 10
340.0777447682231
 20
-292.8385271535644
 11
340.0777447682231
 21
-296.1903810850126
 97
        0
 75
     2
 76
     1
 98
        0
  0
POLYLINE
  5
485
330
1F
100
AcDbEntity
  8
Layer 1
 62
   250
420
  2301728
370
    18
100
AcDb2dPolyline
 66
     1
 10
0.0
 20
0.0
 30
0.0
  0
VERTEX
  5
486
330
485
100
AcDbEntity
  8
Layer 1
 62
   250
420
  2301728
370
    18
100
AcDbVertex
100
AcDb2dVertex
 10
345.4154008638161
 20
-296.1903810850126
 30
0.0
  0
VERTEX
  5
487
330
485
100
AcDbEntity
  8
Layer 1
 62
   250
420
  2301728
370
    18
100
AcDbVertex
100
AcDb2dVertex
 10
340.0777447682231
 20
-296.1903810850126
 30
0.0
  0
VERTEX
  5
488
330
485
100
AcDbEntity
  8
Layer 1
 62
   250
420
  2301728
370
    18
100
AcDbVertex
100
AcDb2dVertex
 10
340.0777447682231
 20
-292.8385271535644
 30
0.0
  0
VERTEX
  5
489
330
485
100
AcDbEntity
  8
Layer 1
 62
   250
420
  2301728
370
    18
100
AcDbVertex
100
AcDb2dVertex
 10
345.4154008638161
 20
-292.8385271535644
 30
0.0
  0
VERTEX
  5
48A
330
485
100
AcDbEntity
  8
Layer 1
 62
   250
420
  2301728
370
    18
100
AcDbVertex
100
AcDb2dVertex
 10
345.4154008638161
 20
-296.1903810850126
 30
0.0
  0
SEQEND
  5
48C
330
485
100
AcDbEntity
  8
Layer 1
 62
   250
420
  2301728
370
    18
  0
HATCH
  5
48B
330
1F
100
AcDbEntity
  8
Layer 1
 62
   254
420
 13750996
100
AcDbHatch
 10
0.0
 20
0.0
 30
0.0
210
0.0
220
0.0
230
1.0
  2
SOLID
 70
     1
 71
     0
 91
        1
 92
        1
 93
        4
 72
     1
 10
345.4154008638161
 20
-296.1903810850126
 11
340.0777447682231
 21
-296.1903810850126
 72
     1
 10
340.0777447682231
 20
-296.1903810850126
 11
340.0777447682231
 21
-292.8385271535644
 72
     1
 10
340.0777447682231
 20
-292.8385271535644
 11
345.4154008638161
 21
-292.8385271535644
 72
     1
 10
345.4154008638161
 20
-292.8385271535644
 11
345.4154008638161
 21
-296.1903810850126
 97
        0
 75
     2
 76
     1
 98
        0
  0
POLYLINE
  5
48D
330
1F
100
AcDbEntity
  8
Layer 1
 62
   250
420
  2301728
370
    18
100
AcDb2dPolyline
 66
     1
 10
0.0
 20
0.0
 30
0.0
  0
VERTEX
  5
48E
330
48D
100
AcDbEntity
  8
Layer 1
 62
   250
420
  2301728
370
    18
100
AcDbVertex
100
AcDb2dVertex
 10
350.7530569594092
 20
-296.1903810850126
 30
0.0
  0
VERTEX
  5
48F
330
48D
100
AcDbEntity
  8
Layer 1
 62
   250
420
  2301728
370
    18
100
AcDbVertex
100
AcDb2dVertex
 10
345.4154008638161
 20
-296.1903810850126
 30
0.0
  0
VERTEX
  5
490
330
48D
100
AcDbEntity
  8
Layer 1
 62
   250
420
  2301728
370
    18
100
AcDbVertex
100
AcDb2dVertex
 10
345.4154008638161
 20
-292.8385271535644
 30
0.0
  0
VERTEX
  5
491
330
48D
100
AcDbEntity
  8
Layer 1
 62
   250
420
  2301728
370
    18
100
AcDbVertex
100
AcDb2dVertex
 10
350.7530569594092
 20
-292.8385271535644
 30
0.0
  0
VERTEX
  5
492
330
48D
100
AcDbEntity
  8
Layer 1
 62
   250
420
  2301728
370
    18
100
AcDbVertex
100
AcDb2dVertex
 10
350.7530569594092
 20
-296.1903810850126
 30
0.0
  0
SEQEND
  5
494
330
48D
100
AcDbEntity
  8
Layer 1
 62
   250
420
  2301728
370
    18
  0
HATCH
  5
493
330
1F
100
AcDbEntity
  8
Layer 1
 62
   254
420
 13750996
100
AcDbHatch
 10
0.0
 20
0.0
 30
0.0
210
0.0
220
0.0
230
1.0
  2
SOLID
 70
     1
 71
     0
 91
        1
 92
        1
 93
        4
 72
     1
 10
350.7530569594092
 20
-296.1903810850126
 11
345.4154008638161
 21
-296.1903810850126
 72
     1
 10
345.4154008638161
 20
-296.1903810850126
 11
345.4154008638161
 21
-292.8385271535644
 72
     1
 10
345.4154008638161
 20
-292.8385271535644
 11
350.7530569594092
 21
-292.8385271535644
 72
     1
 10
350.7530569594092
 20
-292.8385271535644
 11
350.7530569594092
 21
-296.1903810850126
 97
        0
 75
     2
 76
     1
 98
        0
  0
POLYLINE
  5
495
330
1F
100
AcDbEntity
  8
Layer 1
 62
   250
420
  2301728
370
    18
100
AcDb2dPolyline
 66
     1
 10
0.0
 20
0.0
 30
0.0
  0
VERTEX
  5
496
330
495
100
AcDbEntity
  8
Layer 1
 62
   250
420
  2301728
370
    18
100
AcDbVertex
100
AcDb2dVertex
 10
356.0907130550022
 20
-296.1903810850126
 30
0.0
  0
VERTEX
  5
497
330
495
100
AcDbEntity
  8
Layer 1
 62
   250
420
  2301728
370
    18
100
AcDbVertex
100
AcDb2dVertex
 10
350.7530569594092
 20
-296.1903810850126
 30
0.0
  0
VERTEX
  5
498
330
495
100
AcDbEntity
  8
Layer 1
 62
   250
420
  2301728
370
    18
100
AcDbVertex
100
AcDb2dVertex
 10
350.7530569594092
 20
-292.8385271535644
 30
0.0
  0
VERTEX
  5
499
330
495
100
AcDbEntity
  8
Layer 1
 62
   250
420
  2301728
370
    18
100
AcDbVertex
100
AcDb2dVertex
 10
356.0907130550022
 20
-292.8385271535644
 30
0.0
  0
VERTEX
  5
49A
330
495
100
AcDbEntity
  8
Layer 1
 62
   250
420
  2301728
370
    18
100
AcDbVertex
100
AcDb2dVertex
 10
356.0907130550022
 20
-296.1903810850126
 30
0.0
  0
SEQEND
  5
49C
330
495
100
AcDbEntity
  8
Layer 1
 62
   250
420
  2301728
370
    18
  0
HATCH
  5
49B
330
1F
100
AcDbEntity
  8
Layer 1
 62
   254
420
 13750996
100
AcDbHatch
 10
0.0
 20
0.0
 30
0.0
210
0.0
220
0.0
230
1.0
  2
SOLID
 70
     1
 71
     0
 91
        1
 92
        1
 93
        4
 72
     1
 10
356.0907130550022
 20
-296.1903810850126
 11
350.7530569594092
 21
-296.1903810850126
 72
     1
 10
350.7530569594092
 20
-296.1903810850126
 11
350.7530569594092
 21
-292.8385271535644
 72
     1
 10
350.7530569594092
 20
-292.8385271535644
 11
356.0907130550022
 21
-292.8385271535644
 72
     1
 10
356.0907130550022
 20
-292.8385271535644
 11
356.0907130550022
 21
-296.1903810850126
 97
        0
 75
     2
 76
     1
 98
        0
  0
POLYLINE
  5
49D
330
1F
100
AcDbEntity
  8
Layer 1
 62
   250
420
  2301728
370
    18
100
AcDb2dPolyline
 66
     1
 10
0.0
 20
0.0
 30
0.0
  0
VERTEX
  5
49E
330
49D
100
AcDbEntity
  8
Layer 1
 62
   250
420
  2301728
370
    18
100
AcDbVertex
100
AcDb2dVertex
 10
361.4283691505952
 20
-296.1903810850126
 30
0.0
  0
VERTEX
  5
49F
330
49D
100
AcDbEntity
  8
Layer 1
 62
   250
420
  2301728
370
    18
100
AcDbVertex
100
AcDb2dVertex
 10
356.0907130550022
 20
-296.1903810850126
 30
0.0
  0
VERTEX
  5
4A0
330
49D
100
AcDbEntity
  8
Layer 1
 62
   250
420
  2301728
370
    18
100
AcDbVertex
100
AcDb2dVertex
 10
356.0907130550022
 20
-292.8385271535644
 30
0.0
  0
VERTEX
  5
4A1
330
49D
100
AcDbEntity
  8
Layer 1
 62
   250
420
  2301728
370
    18
100
AcDbVertex
100
AcDb2dVertex
 10
361.4283691505952
 20
-292.8385271535644
 30
0.0
  0
VERTEX
  5
4A2
330
49D
100
AcDbEntity
  8
Layer 1
 62
   250
420
  2301728
370
    18
100
AcDbVertex
100
AcDb2dVertex
 10
361.4283691505952
 20
-296.1903810850126
 30
0.0
  0
SEQEND
  5
4A4
330
49D
100
AcDbEntity
  8
Layer 1
 62
   250
420
  2301728
370
    18
  0
HATCH
  5
4A3
330
1F
100
AcDbEntity
  8
Layer 1
 62
   254
420
 13750996
100
AcDbHatch
 10
0.0
 20
0.0
 30
0.0
210
0.0
220
0.0
230
1.0
  2
SOLID
 70
     1
 71
     0
 91
        1
 92
        1
 93
        4
 72
     1
 10
361.4283691505952
 20
-296.1903810850126
 11
356.0907130550022
 21
-296.1903810850126
 72
     1
 10
356.0907130550022
 20
-296.1903810850126
 11
356.0907130550022
 21
-292.8385271535644
 72
     1
 10
356.0907130550022
 20
-292.8385271535644
 11
361.4283691505952
 21
-292.8385271535644
 72
     1
 10
361.4283691505952
 20
-292.8385271535644
 11
361.4283691505952
 21
-296.1903810850126
 97
        0
 75
     2
 76
     1
 98
        0
  0
POLYLINE
  5
4A5
330
1F
100
AcDbEntity
  8
Layer 1
 62
   250
420
  2301728
370
    18
100
AcDb2dPolyline
 66
     1
 10
0.0
 20
0.0
 30
0.0
  0
VERTEX
  5
4A6
330
4A5
100
AcDbEntity
  8
Layer 1
 62
   250
420
  2301728
370
    18
100
AcDbVertex
100
AcDb2dVertex
 10
366.7660252461883
 20
-296.1903810850126
 30
0.0
  0
VERTEX
  5
4A7
330
4A5
100
AcDbEntity
  8
Layer 1
 62
   250
420
  2301728
370
    18
100
AcDbVertex
100
AcDb2dVertex
 10
361.4283691505952
 20
-296.1903810850126
 30
0.0
  0
VERTEX
  5
4A8
330
4A5
100
AcDbEntity
  8
Layer 1
 62
   250
420
  2301728
370
    18
100
AcDbVertex
100
AcDb2dVertex
 10
361.4283691505952
 20
-292.8385271535644
 30
0.0
  0
VERTEX
  5
4A9
330
4A5
100
AcDbEntity
  8
Layer 1
 62
   250
420
  2301728
370
    18
100
AcDbVertex
100
AcDb2dVertex
 10
366.7660252461883
 20
-292.8385271535644
 30
0.0
  0
VERTEX
  5
4AA
330
4A5
100
AcDbEntity
  8
Layer 1
 62
   250
420
  2301728
370
    18
100
AcDbVertex
100
AcDb2dVertex
 10
366.7660252461883
 20
-296.1903810850126
 30
0.0
  0
SEQEND
  5
4AC
330
4A5
100
AcDbEntity
  8
Layer 1
 62
   250
420
  2301728
370
    18
  0
HATCH
  5
4AB
330
1F
100
AcDbEntity
  8
Layer 1
 62
   254
420
 13750996
100
AcDbHatch
 10
0.0
 20
0.0
 30
0.0
210
0.0
220
0.0
230
1.0
  2
SOLID
 70
     1
 71
     0
 91
        1
 92
        1
 93
        4
 72
     1
 10
366.7660252461883
 20
-296.1903810850126
 11
361.4283691505952
 21
-296.1903810850126
 72
     1
 10
361.4283691505952
 20
-296.1903810850126
 11
361.4283691505952
 21
-292.8385271535644
 72
     1
 10
361.4283691505952
 20
-292.8385271535644
 11
366.7660252461883
 21
-292.8385271535644
 72
     1
 10
366.7660252461883
 20
-292.8385271535644
 11
366.7660252461883
 21
-296.1903810850126
 97
        0
 75
     2
 76
     1
 98
        0
  0
POLYLINE
  5
4AD
330
1F
100
AcDbEntity
  8
Layer 1
 62
   250
420
  2301728
370
    18
100
AcDb2dPolyline
 66
     1
 10
0.0
 20
0.0
 30
0.0
  0
VERTEX
  5
4AE
330
4AD
100
AcDbEntity
  8
Layer 1
 62
   250
420
  2301728
370
    18
100
AcDbVertex
100
AcDb2dVertex
 10
372.1036813417813
 20
-296.1903810850126
 30
0.0
  0
VERTEX
  5
4AF
330
4AD
100
AcDbEntity
  8
Layer 1
 62
   250
420
  2301728
370
    18
100
AcDbVertex
100
AcDb2dVertex
 10
366.7660252461883
 20
-296.1903810850126
 30
0.0
  0
VERTEX
  5
4B0
330
4AD
100
AcDbEntity
  8
Layer 1
 62
   250
420
  2301728
370
    18
100
AcDbVertex
100
AcDb2dVertex
 10
366.7660252461883
 20
-292.8385271535644
 30
0.0
  0
VERTEX
  5
4B1
330
4AD
100
AcDbEntity
  8
Layer 1
 62
   250
420
  2301728
370
    18
100
AcDbVertex
100
AcDb2dVertex
 10
372.1036813417813
 20
-292.8385271535644
 30
0.0
  0
VERTEX
  5
4B2
330
4AD
100
AcDbEntity
  8
Layer 1
 62
   250
420
  2301728
370
    18
100
AcDbVertex
100
AcDb2dVertex
 10
372.1036813417813
 20
-296.1903810850126
 30
0.0
  0
SEQEND
  5
4B4
330
4AD
100
AcDbEntity
  8
Layer 1
 62
   250
420
  2301728
370
    18
  0
HATCH
  5
4B3
330
1F
100
AcDbEntity
  8
Layer 1
 62
   254
420
 13750996
100
AcDbHatch
 10
0.0
 20
0.0
 30
0.0
210
0.0
220
0.0
230
1.0
  2
SOLID
 70
     1
 71
     0
 91
        1
 92
        1
 93
        4
 72
     1
 10
372.1036813417813
 20
-296.1903810850126
 11
366.7660252461883
 21
-296.1903810850126
 72
     1
 10
366.7660252461883
 20
-296.1903810850126
 11
366.7660252461883
 21
-292.8385271535644
 72
     1
 10
366.7660252461883
 20
-292.8385271535644
 11
372.1036813417813
 21
-292.8385271535644
 72
     1
 10
372.1036813417813
 20
-292.8385271535644
 11
372.1036813417813
 21
-296.1903810850126
 97
        0
 75
     2
 76
     1
 98
        0
  0
POLYLINE
  5
4B5
330
1F
100
AcDbEntity
  8
Layer 1
 62
   250
420
  2301728
370
    18
100
AcDb2dPolyline
 66
     1
 10
0.0
 20
0.0
 30
0.0
  0
VERTEX
  5
4B6
330
4B5
100
AcDbEntity
  8
Layer 1
 62
   250
420
  2301728
370
    18
100
AcDbVertex
100
AcDb2dVertex
 10
377.4413374373744
 20
-296.1903810850126
 30
0.0
  0
VERTEX
  5
4B7
330
4B5
100
AcDbEntity
  8
Layer 1
 62
   250
420
  2301728
370
    18
100
AcDbVertex
100
AcDb2dVertex
 10
372.1036813417813
 20
-296.1903810850126
 30
0.0
  0
VERTEX
  5
4B8
330
4B5
100
AcDbEntity
  8
Layer 1
 62
   250
420
  2301728
370
    18
100
AcDbVertex
100
AcDb2dVertex
 10
372.1036813417813
 20
-292.8385271535644
 30
0.0
  0
VERTEX
  5
4B9
330
4B5
100
AcDbEntity
  8
Layer 1
 62
   250
420
  2301728
370
    18
100
AcDbVertex
100
AcDb2dVertex
 10
377.4413374373744
 20
-292.8385271535644
 30
0.0
  0
VERTEX
  5
4BA
330
4B5
100
AcDbEntity
  8
Layer 1
 62
   250
420
  2301728
370
    18
100
AcDbVertex
100
AcDb2dVertex
 10
377.4413374373744
 20
-296.1903810850126
 30
0.0
  0
SEQEND
  5
4BC
330
4B5
100
AcDbEntity
  8
Layer 1
 62
   250
420
  2301728
370
    18
  0
HATCH
  5
4BB
330
1F
100
AcDbEntity
  8
Layer 1
 62
   254
420
 13750996
100
AcDbHatch
 10
0.0
 20
0.0
 30
0.0
210
0.0
220
0.0
230
1.0
  2
SOLID
 70
     1
 71
     0
 91
        1
 92
        1
 93
        4
 72
     1
 10
377.4413374373744
 20
-296.1903810850126
 11
372.1036813417813
 21
-296.1903810850126
 72
     1
 10
372.1036813417813
 20
-296.1903810850126
 11
372.1036813417813
 21
-292.8385271535644
 72
     1
 10
372.1036813417813
 20
-292.8385271535644
 11
377.4413374373744
 21
-292.8385271535644
 72
     1
 10
377.4413374373744
 20
-292.8385271535644
 11
377.4413374373744
 21
-296.1903810850126
 97
        0
 75
     2
 76
     1
 98
        0
  0
POLYLINE
  5
4BD
330
1F
100
AcDbEntity
  8
Layer 1
 62
   250
420
  2301728
370
    18
100
AcDb2dPolyline
 66
     1
 10
0.0
 20
0.0
 30
0.0
  0
VERTEX
  5
4BE
330
4BD
100
AcDbEntity
  8
Layer 1
 62
   250
420
  2301728
370
    18
100
AcDbVertex
100
AcDb2dVertex
 10
382.7789935329674
 20
-296.1903810850126
 30
0.0
  0
VERTEX
  5
4BF
330
4BD
100
AcDbEntity
  8
Layer 1
 62
   250
420
  2301728
370
    18
100
AcDbVertex
100
AcDb2dVertex
 10
377.4413374373744
 20
-296.1903810850126
 30
0.0
  0
VERTEX
  5
4C0
330
4BD
100
AcDbEntity
  8
Layer 1
 62
   250
420
  2301728
370
    18
100
AcDbVertex
100
AcDb2dVertex
 10
377.4413374373744
 20
-292.8385271535644
 30
0.0
  0
VERTEX
  5
4C1
330
4BD
100
AcDbEntity
  8
Layer 1
 62
   250
420
  2301728
370
    18
100
AcDbVertex
100
AcDb2dVertex
 10
382.7789935329674
 20
-292.8385271535644
 30
0.0
  0
VERTEX
  5
4C2
330
4BD
100
AcDbEntity
  8
Layer 1
 62
   250
420
  2301728
370
    18
100
AcDbVertex
100
AcDb2dVertex
 10
382.7789935329674
 20
-296.1903810850126
 30
0.0
  0
SEQEND
  5
4C4
330
4BD
100
AcDbEntity
  8
Layer 1
 62
   250
420
  2301728
370
    18
  0
HATCH
  5
4C3
330
1F
100
AcDbEntity
  8
Layer 1
 62
   254
420
 13750996
100
AcDbHatch
 10
0.0
 20
0.0
 30
0.0
210
0.0
220
0.0
230
1.0
  2
SOLID
 70
     1
 71
     0
 91
        1
 92
        1
 93
        4
 72
     1
 10
382.7789935329674
 20
-296.1903810850126
 11
377.4413374373744
 21
-296.1903810850126
 72
     1
 10
377.4413374373744
 20
-296.1903810850126
 11
377.4413374373744
 21
-292.8385271535644
 72
     1
 10
377.4413374373744
 20
-292.8385271535644
 11
382.7789935329674
 21
-292.8385271535644
 72
     1
 10
382.7789935329674
 20
-292.8385271535644
 11
382.7789935329674
 21
-296.1903810850126
 97
        0
 75
     2
 76
     1
 98
        0
  0
POLYLINE
  5
4C5
330
1F
100
AcDbEntity
  8
Layer 1
 62
   250
420
  2301728
370
    18
100
AcDb2dPolyline
 66
     1
 10
0.0
 20
0.0
 30
0.0
  0
VERTEX
  5
4C6
330
4C5
100
AcDbEntity
  8
Layer 1
 62
   250
420
  2301728
370
    18
100
AcDbVertex
100
AcDb2dVertex
 10
388.1166496285605
 20
-296.1903810850126
 30
0.0
  0
VERTEX
  5
4C7
330
4C5
100
AcDbEntity
  8
Layer 1
 62
   250
420
  2301728
370
    18
100
AcDbVertex
100
AcDb2dVertex
 10
382.7789935329674
 20
-296.1903810850126
 30
0.0
  0
VERTEX
  5
4C8
330
4C5
100
AcDbEntity
  8
Layer 1
 62
   250
420
  2301728
370
    18
100
AcDbVertex
100
AcDb2dVertex
 10
382.7789935329674
 20
-292.8385271535644
 30
0.0
  0
VERTEX
  5
4C9
330
4C5
100
AcDbEntity
  8
Layer 1
 62
   250
420
  2301728
370
    18
100
AcDbVertex
100
AcDb2dVertex
 10
388.1166496285605
 20
-292.8385271535644
 30
0.0
  0
VERTEX
  5
4CA
330
4C5
100
AcDbEntity
  8
Layer 1
 62
   250
420
  2301728
370
    18
100
AcDbVertex
100
AcDb2dVertex
 10
388.1166496285605
 20
-296.1903810850126
 30
0.0
  0
SEQEND
  5
4CC
330
4C5
100
AcDbEntity
  8
Layer 1
 62
   250
420
  2301728
370
    18
  0
HATCH
  5
4CB
330
1F
100
AcDbEntity
  8
Layer 1
 62
   254
420
 13750996
100
AcDbHatch
 10
0.0
 20
0.0
 30
0.0
210
0.0
220
0.0
230
1.0
  2
SOLID
 70
     1
 71
     0
 91
        1
 92
        1
 93
        4
 72
     1
 10
388.1166496285605
 20
-296.1903810850126
 11
382.7789935329674
 21
-296.1903810850126
 72
     1
 10
382.7789935329674
 20
-296.1903810850126
 11
382.7789935329674
 21
-292.8385271535644
 72
     1
 10
382.7789935329674
 20
-292.8385271535644
 11
388.1166496285605
 21
-292.8385271535644
 72
     1
 10
388.1166496285605
 20
-292.8385271535644
 11
388.1166496285605
 21
-296.1903810850126
 97
        0
 75
     2
 76
     1
 98
        0
  0
POLYLINE
  5
4CD
330
1F
100
AcDbEntity
  8
Layer 1
 62
   250
420
  2301728
370
    18
100
AcDb2dPolyline
 66
     1
 10
0.0
 20
0.0
 30
0.0
  0
VERTEX
  5
4CE
330
4CD
100
AcDbEntity
  8
Layer 1
 62
   250
420
  2301728
370
    18
100
AcDbVertex
100
AcDb2dVertex
 10
393.4543057241535
 20
-296.1903810850126
 30
0.0
  0
VERTEX
  5
4CF
330
4CD
100
AcDbEntity
  8
Layer 1
 62
   250
420
  2301728
370
    18
100
AcDbVertex
100
AcDb2dVertex
 10
388.1166496285605
 20
-296.1903810850126
 30
0.0
  0
VERTEX
  5
4D0
330
4CD
100
AcDbEntity
  8
Layer 1
 62
   250
420
  2301728
370
    18
100
AcDbVertex
100
AcDb2dVertex
 10
388.1166496285605
 20
-292.8385271535644
 30
0.0
  0
VERTEX
  5
4D1
330
4CD
100
AcDbEntity
  8
Layer 1
 62
   250
420
  2301728
370
    18
100
AcDbVertex
100
AcDb2dVertex
 10
393.4543057241535
 20
-292.8385271535644
 30
0.0
  0
VERTEX
  5
4D2
330
4CD
100
AcDbEntity
  8
Layer 1
 62
   250
420
  2301728
370
    18
100
AcDbVertex
100
AcDb2dVertex
 10
393.4543057241535
 20
-296.1903810850126
 30
0.0
  0
SEQEND
  5
4D4
330
4CD
100
AcDbEntity
  8
Layer 1
 62
   250
420
  2301728
370
    18
  0
HATCH
  5
4D3
330
1F
100
AcDbEntity
  8
Layer 1
 62
   254
420
 13750996
100
AcDbHatch
 10
0.0
 20
0.0
 30
0.0
210
0.0
220
0.0
230
1.0
  2
SOLID
 70
     1
 71
     0
 91
        1
 92
        1
 93
        4
 72
     1
 10
393.4543057241535
 20
-296.1903810850126
 11
388.1166496285605
 21
-296.1903810850126
 72
     1
 10
388.1166496285605
 20
-296.1903810850126
 11
388.1166496285605
 21
-292.8385271535644
 72
     1
 10
388.1166496285605
 20
-292.8385271535644
 11
393.4543057241535
 21
-292.8385271535644
 72
     1
 10
393.4543057241535
 20
-292.8385271535644
 11
393.4543057241535
 21
-296.1903810850126
 97
        0
 75
     2
 76
     1
 98
        0
  0
SPLINE
  5
4D5
330
1F
100
AcDbEntity
  8
Layer 1
370
     0
100
AcDbSpline
210
0.0
220
0.0
230
1.0
 70
    11
 71
     3
 72
   146
 73
   142
 74
     0
 42
0.0000000001
 43
0.0000000001
 12
1.0
 22
0.0
 32
0.0
 13
1.0
 23
0.0
 33
0.0
 40
0.0
 40
0.0
 40
0.0
 40
0.0
 40
1.0
 40
1.0
 40
1.0
 40
2.0
 40
2.0
 40
2.0
 40
3.0
 40
3.0
 40
3.0
 40
4.0
 40
4.0
 40
4.0
 40
5.0
 40
5.0
 40
5.0
 40
6.0
 40
6.0
 40
6.0
 40
7.0
 40
7.0
 40
7.0
 40
8.0
 40
8.0
 40
8.0
 40
9.0
 40
9.0
 40
9.0
 40
10.0
 40
10.0
 40
10.0
 40
11.0
 40
11.0
 40
11.0
 40
12.0
 40
12.0
 40
12.0
 40
13.0
 40
13.0
 40
13.0
 40
14.0
 40
14.0
 40
14.0
 40
15.0
 40
15.0
 40
15.0
 40
16.0
 40
16.0
 40
16.0
 40
17.0
 40
17.0
 40
17.0
 40
18.0
 40
18.0
 40
18.0
 40
19.0
 40
19.0
 40
19.0
 40
20.0
 40
20.0
 40
20.0
 40
21.0
 40
21.0
 40
21.0
 40
22.0
 40
22.0
 40
22.0
 40
23.0
 40
23.0
 40
23.0
 40
24.0
 40
24.0
 40
24.0
 40
25.0
 40
25.0
 40
25.0
 40
26.0
 40
26.0
 40
26.0
 40
27.0
 40
27.0
 40
27.0
 40
28.0
 40
28.0
 40
28.0
 40
29.0
 40
29.0
 40
29.0
 40
30.0
 40
30.0
 40
30.0
 40
31.0
 40
31.0
 40
31.0
 40
32.0
 40
32.0
 40
32.0
 40
33.0
 40
33.0
 40
33.0
 40
34.0
 40
34.0
 40
34.0
 40
35.0
 40
35.0
 40
35.0
 40
36.0
 40
36.0
 40
36.0
 40
37.0
 40
37.0
 40
37.0
 40
38.0
 40
38.0
 40
38.0
 40
39.0
 40
39.0
 40
39.0
 40
40.0
 40
40.0
 40
40.0
 40
41.0
 40
41.0
 40
41.0
 40
42.0
 40
42.0
 40
42.0
 40
43.0
 40
43.0
 40
43.0
 40
44.0
 40
44.0
 40
44.0
 40
45.0
 40
45.0
 40
45.0
 40
46.0
 40
46.0
 40
46.0
 40
47.0
 40
47.0
 40
47.0
 40
47.0
 10
279.6923561173153
 20
-183.6137146257042
 30
0.0
 10
279.6923561173153
 20
-183.6137146257042
 30
0.0
 10
279.6923561173153
 20
-196.652993828051
 30
0.0
 10
279.6923561173153
 20
-196.652993828051
 30
0.0
 10
279.6923561173153
 20
-196.652993828051
 30
0.0
 10
278.6946996689039
 20
-208.298788945709
 30
0.0
 10
278.6946996689039
 20
-208.298788945709
 30
0.0
 10
278.6946996689039
 20
-208.298788945709
 30
0.0
 10
278.6631218750954
 20
-216.0124460407515
 30
0.0
 10
278.6631218750954
 20
-216.0124460407515
 30
0.0
 10
278.6631218750954
 20
-216.0124460407515
 30
0.0
 10
279.1774131142702
 20
-220.8070198906908
 30
0.0
 10
279.1774131142702
 20
-220.8070198906908
 30
0.0
 10
279.1774131142702
 20
-220.8070198906908
 30
0.0
 10
276.0258716211065
 20
-227.4926767711531
 30
0.0
 10
276.0258716211065
 20
-227.4926767711531
 30
0.0
 10
276.0258716211065
 20
-227.4926767711531
 30
0.0
 10
272.251987014366
 20
-233.3155743299812
 30
0.0
 10
272.251987014366
 20
-233.3155743299812
 30
0.0
 10
272.251987014366
 20
-233.3155743299812
 30
0.0
 10
270.6882155255134
 20
-238.2255062504473
 30
0.0
 10
270.6882155255134
 20
-238.2255062504473
 30
0.0
 10
270.6882155255134
 20
-238.2255062504473
 30
0.0
 10
271.8204456063977
 20
-244.9613694476393
 30
0.0
 10
271.8204456063977
 20
-244.9613694476393
 30
0.0
 10
271.8204456063977
 20
-244.9613694476393
 30
0.0
 10
266.4290894555388
 20
-249.4902897711727
 30
0.0
 10
266.4290894555388
 20
-249.4902897711727
 30
0.0
 10
266.4290894555388
 20
-249.4902897711727
 30
0.0
 10
263.4095935769774
 20
-251.7215594168538
 30
0.0
 10
263.4095935769774
 20
-251.7215594168538
 30
0.0
 10
263.4095935769774
 20
-251.7215594168538
 30
0.0
 10
261.8998413119061
 20
-256.1756231573254
 30
0.0
 10
261.4686277240344
 20
-257.2541531829447
 30
0.0
 10
261.0374055063694
 20
-258.3326832085631
 30
0.0
 10
260.0129033343273
 20
-262.2146149144492
 30
0.0
 10
260.0129033343273
 20
-262.2146149144492
 30
0.0
 10
260.0129033343273
 20
-262.2146149144492
 30
0.0
 10
258.4494511011553
 20
-266.0965466203352
 30
0.0
 10
258.4494511011553
 20
-266.0965466203352
 30
0.0
 10
258.4494511011553
 20
-266.0965466203352
 30
0.0
 10
254.6752472387343
 20
-269.7623841279255
 30
0.0
 10
254.6752472387343
 20
-269.7623841279255
 30
0.0
 10
254.6752472387343
 20
-269.7623841279255
 30
0.0
 10
247.9649361181746
 20
-269.7623841279255
 30
0.0
 10
247.9649361181746
 20
-269.7623841279255
 30
0.0
 10
247.9649361181746
 20
-269.7623841279255
 30
0.0
 10
245.0781376780187
 20
-274.2919514400783
 30
0.0
 10
245.0781376780187
 20
-274.2919514400783
 30
0.0
 10
245.0781376780187
 20
-274.2919514400783
 30
0.0
 10
244.7796171373784
 20
-292.8385271535644
 30
0.0
 10
244.7796171373784
 20
-292.8385271535644
 30
0.0
 10
244.7796171373784
 20
-292.8385271535644
 30
0.0
 10
246.6687630953447
 20
-294.671445907361
 30
0.0
 10
246.6687630953447
 20
-294.671445907361
 30
0.0
 10
246.6687630953447
 20
-294.671445907361
 30
0.0
 10
246.127294393893
 20
-296.5043646611557
 30
0.0
 10
245.9949205260664
 20
-298.4453305140987
 30
0.0
 10
245.8625466582389
 20
-300.3862963670417
 30
0.0
 10
244.7796171373784
 20
-305.7289989738538
 30
0.0
 10
244.7796171373784
 20
-305.7289989738538
 30
0.0
 10
244.7796171373784
 20
-305.7289989738538
 30
0.0
 10
246.0489479996386
 20
-309.8763254106989
 30
0.0
 10
246.0489479996386
 20
-309.8763254106989
 30
0.0
 10
246.0489479996386
 20
-309.8763254106989
 30
0.0
 10
243.9999350475482
 20
-315.267681561555
 30
0.0
 10
243.9999350475482
 20
-315.267681561555
 30
0.0
 10
243.9999350475482
 20
-315.267681561555
 30
0.0
 10
247.9652596124752
 20
-315.2683285501735
 30
0.0
 10
247.9652596124752
 20
-315.2683285501735
 30
0.0
 10
247.9652596124752
 20
-315.2683285501735
 30
0.0
 10
248.1478397957626
 20
-296.1903810850126
 30
0.0
 10
248.1478397957626
 20
-296.1903810850126
 30
0.0
 10
248.1478397957626
 20
-296.1903810850126
 30
0.0
 10
249.3375911431413
 20
-291.3291027085934
 30
0.0
 10
249.3375911431413
 20
-291.3291027085934
 30
0.0
 10
249.3375911431413
 20
-291.3291027085934
 30
0.0
 10
249.3375911431413
 20
-278.3893303556397
 30
0.0
 10
249.3375911431413
 20
-278.3893303556397
 30
0.0
 10
249.3375911431413
 20
-278.3893303556397
 30
0.0
 10
251.116809841672
 20
-274.5073986497537
 30
0.0
 10
251.116809841672
 20
-274.5073986497537
 30
0.0
 10
251.116809841672
 20
-274.5073986497537
 30
0.0
 10
256.076943900176
 20
-274.0758572417835
 30
0.0
 10
256.076943900176
 20
-274.0758572417835
 30
0.0
 10
256.076943900176
 20
-274.0758572417835
 30
0.0
 10
257.3440752865308
 20
-272.5664327968107
 30
0.0
 10
257.3440752865308
 20
-272.5664327968107
 30
0.0
 10
257.3440752865308
 20
-272.5664327968107
 30
0.0
 10
258.6648983053892
 20
-270.8409141535449
 30
0.0
 10
258.6648983053892
 20
-270.8409141535449
 30
0.0
 10
258.6648983053892
 20
-270.8409141535449
 30
0.0
 10
261.0374055063694
 20
-267.6059710653071
 30
0.0
 10
261.0374055063694
 20
-267.6059710653071
 30
0.0
 10
261.0374055063694
 20
-267.6059710653071
 30
0.0
 10
262.76260495933
 20
-265.4495580026878
 30
0.0
 10
262.76260495933
 20
-265.4495580026878
 30
0.0
 10
262.76260495933
 20
-265.4495580026878
 30
0.0
 10
265.3505594299204
 20
-256.6071645652955
 30
0.0
 10
265.3505594299204
 20
-256.6071645652955
 30
0.0
 10
265.3505594299204
 20
-256.6071645652955
 30
0.0
 10
268.0193874777178
 20
-250.6850836513822
 30
0.0
 10
268.0193874777178
 20
-250.6850836513822
 30
0.0
 10
268.0193874777178
 20
-250.6850836513822
 30
0.0
 10
273.3570435733091
 20
-247.7644476335981
 30
0.0
 10
273.3570435733091
 20
-247.7644476335981
 30
0.0
 10
273.3570435733091
 20
-247.7644476335981
 30
0.0
 10
276.0258716211065
 20
-244.745922237963
 30
0.0
 10
276.0258716211065
 20
-244.745922237963
 30
0.0
 10
276.0258716211065
 20
-244.745922237963
 30
0.0
 10
276.0258716211065
 20
-238.2255062504473
 30
0.0
 10
276.0258716211065
 20
-238.2255062504473
 30
0.0
 10
276.0258716211065
 20
-238.2255062504473
 30
0.0
 10
276.0258716211065
 20
-234.825322269262
 30
0.0
 10
276.0258716211065
 20
-234.825322269262
 30
0.0
 10
276.0258716211065
 20
-234.825322269262
 30
0.0
 10
279.6923561173153
 20
-228.6868236627452
 30
0.0
 10
279.6923561173153
 20
-228.6868236627452
 30
0.0
 10
279.6923561173153
 20
-228.6868236627452
 30
0.0
 10
281.8487691799346
 20
-224.6892750908864
 30
0.0
 10
281.8487691799346
 20
-224.6892750908864
 30
0.0
 10
281.8487691799346
 20
-224.6892750908864
 30
0.0
 10
281.8487691799346
 20
-206.4737634530484
 30
0.0
 10
281.8487691799346
 20
-206.4737634530484
 30
0.0
 10
281.8487691799346
 20
-206.4737634530484
 30
0.0
 10
280.9616782789453
 20
-202.6913385965572
 30
0.0
 10
280.9616782789453
 20
-202.6913385965572
 30
0.0
 10
280.9616782789453
 20
-202.6913385965572
 30
0.0
 10
280.9616782789453
 20
-193.1523972134064
 30
0.0
 10
280.9616782789453
 20
-193.1523972134064
 30
0.0
 10
280.9616782789453
 20
-193.1523972134064
 30
0.0
 10
281.8487691799346
 20
-189.7518897379132
 30
0.0
 10
281.8487691799346
 20
-189.7518897379132
 30
0.0
 10
281.8487691799346
 20
-189.7518897379132
 30
0.0
 10
282.8192521064066
 20
-184.3602100927455
 30
0.0
 10
282.8192521064066
 20
-184.3602100927455
 30
0.0
 10
282.8192521064066
 20
-184.3602100927455
 30
0.0
 10
282.8192521064066
 20
-183.6137146257042
 30
0.0
 10
282.8192521064066
 20
-183.6137146257042
 30
0.0
 10
282.8192521064066
 20
-183.6137146257042
 30
0.0
 10
279.6923561173153
 20
-183.6137146257042
 30
0.0
 10
279.6923561173153
 20
-183.6137146257042
 30
0.0
  0
HATCH
  5
4D6
330
1F
100
AcDbEntity
  8
Layer 1
 62
   250
420
  2301728
100
AcDbHatch
 10
0.0
 20
0.0
 30
0.0
210
0.0
220
0.0
230
1.0
  2
SOLID
 70
     1
 71
     0
 91
        1
 92
        1
 93
        1
 72
     4
 94
        3
 73
     0
 74
     1
 95
      146
 96
      142
 40
0.0
 40
0.0
 40
0.0
 40
0.0
 40
1.0
 40
1.0
 40
1.0
 40
2.0
 40
2.0
 40
2.0
 40
3.0
 40
3.0
 40
3.0
 40
4.0
 40
4.0
 40
4.0
 40
5.0
 40
5.0
 40
5.0
 40
6.0
 40
6.0
 40
6.0
 40
7.0
 40
7.0
 40
7.0
 40
8.0
 40
8.0
 40
8.0
 40
9.0
 40
9.0
 40
9.0
 40
10.0
 40
10.0
 40
10.0
 40
11.0
 40
11.0
 40
11.0
 40
12.0
 40
12.0
 40
12.0
 40
13.0
 40
13.0
 40
13.0
 40
14.0
 40
14.0
 40
14.0
 40
15.0
 40
15.0
 40
15.0
 40
16.0
 40
16.0
 40
16.0
 40
17.0
 40
17.0
 40
17.0
 40
18.0
 40
18.0
 40
18.0
 40
19.0
 40
19.0
 40
19.0
 40
20.0
 40
20.0
 40
20.0
 40
21.0
 40
21.0
 40
21.0
 40
22.0
 40
22.0
 40
22.0
 40
23.0
 40
23.0
 40
23.0
 40
24.0
 40
24.0
 40
24.0
 40
25.0
 40
25.0
 40
25.0
 40
26.0
 40
26.0
 40
26.0
 40
27.0
 40
27.0
 40
27.0
 40
28.0
 40
28.0
 40
28.0
 40
29.0
 40
29.0
 40
29.0
 40
30.0
 40
30.0
 40
30.0
 40
31.0
 40
31.0
 40
31.0
 40
32.0
 40
32.0
 40
32.0
 40
33.0
 40
33.0
 40
33.0
 40
34.0
 40
34.0
 40
34.0
 40
35.0
 40
35.0
 40
35.0
 40
36.0
 40
36.0
 40
36.0
 40
37.0
 40
37.0
 40
37.0
 40
38.0
 40
38.0
 40
38.0
 40
39.0
 40
39.0
 40
39.0
 40
40.0
 40
40.0
 40
40.0
 40
41.0
 40
41.0
 40
41.0
 40
42.0
 40
42.0
 40
42.0
 40
43.0
 40
43.0
 40
43.0
 40
44.0
 40
44.0
 40
44.0
 40
45.0
 40
45.0
 40
45.0
 40
46.0
 40
46.0
 40
46.0
 40
47.0
 40
47.0
 40
47.0
 40
47.0
 10
279.6923561173153
 20
-183.6137146257042
 10
279.6923561173153
 20
-183.6137146257042
 10
279.6923561173153
 20
-196.652993828051
 10
279.6923561173153
 20
-196.652993828051
 10
279.6923561173153
 20
-196.652993828051
 10
278.6946996689039
 20
-208.298788945709
 10
278.6946996689039
 20
-208.298788945709
 10
278.6946996689039
 20
-208.298788945709
 10
278.6631218750954
 20
-216.0124460407515
 10
278.6631218750954
 20
-216.0124460407515
 10
278.6631218750954
 20
-216.0124460407515
 10
279.1774131142702
 20
-220.8070198906908
 10
279.1774131142702
 20
-220.8070198906908
 10
279.1774131142702
 20
-220.8070198906908
 10
276.0258716211065
 20
-227.4926767711531
 10
276.0258716211065
 20
-227.4926767711531
 10
276.0258716211065
 20
-227.4926767711531
 10
272.251987014366
 20
-233.3155743299812
 10
272.251987014366
 20
-233.3155743299812
 10
272.251987014366
 20
-233.3155743299812
 10
270.6882155255134
 20
-238.2255062504473
 10
270.6882155255134
 20
-238.2255062504473
 10
270.6882155255134
 20
-238.2255062504473
 10
271.8204456063977
 20
-244.9613694476393
 10
271.8204456063977
 20
-244.9613694476393
 10
271.8204456063977
 20
-244.9613694476393
 10
266.4290894555388
 20
-249.4902897711727
 10
266.4290894555388
 20
-249.4902897711727
 10
266.4290894555388
 20
-249.4902897711727
 10
263.4095935769774
 20
-251.7215594168538
 10
263.4095935769774
 20
-251.7215594168538
 10
263.4095935769774
 20
-251.7215594168538
 10
261.8998413119061
 20
-256.1756231573254
 10
261.4686277240344
 20
-257.2541531829447
 10
261.0374055063694
 20
-258.3326832085631
 10
260.0129033343273
 20
-262.2146149144492
 10
260.0129033343273
 20
-262.2146149144492
 10
260.0129033343273
 20
-262.2146149144492
 10
258.4494511011553
 20
-266.0965466203352
 10
258.4494511011553
 20
-266.0965466203352
 10
258.4494511011553
 20
-266.0965466203352
 10
254.6752472387343
 20
-269.7623841279255
 10
254.6752472387343
 20
-269.7623841279255
 10
254.6752472387343
 20
-269.7623841279255
 10
247.9649361181746
 20
-269.7623841279255
 10
247.9649361181746
 20
-269.7623841279255
 10
247.9649361181746
 20
-269.7623841279255
 10
245.0781376780187
 20
-274.2919514400783
 10
245.0781376780187
 20
-274.2919514400783
 10
245.0781376780187
 20
-274.2919514400783
 10
244.7796171373784
 20
-292.8385271535644
 10
244.7796171373784
 20
-292.8385271535644
 10
244.7796171373784
 20
-292.8385271535644
 10
246.6687630953447
 20
-294.671445907361
 10
246.6687630953447
 20
-294.671445907361
 10
246.6687630953447
 20
-294.671445907361
 10
246.127294393893
 20
-296.5043646611557
 10
245.9949205260664
 20
-298.4453305140987
 10
245.8625466582389
 20
-300.3862963670417
 10
244.7796171373784
 20
-305.7289989738538
 10
244.7796171373784
 20
-305.7289989738538
 10
244.7796171373784
 20
-305.7289989738538
 10
246.0489479996386
 20
-309.8763254106989
 10
246.0489479996386
 20
-309.8763254106989
 10
246.0489479996386
 20
-309.8763254106989
 10
243.9999350475482
 20
-315.267681561555
 10
243.9999350475482
 20
-315.267681561555
 10
243.9999350475482
 20
-315.267681561555
 10
247.9652596124752
 20
-315.2683285501735
 10
247.9652596124752
 20
-315.2683285501735
 10
247.9652596124752
 20
-315.2683285501735
 10
248.1478397957626
 20
-296.1903810850126
 10
248.1478397957626
 20
-296.1903810850126
 10
248.1478397957626
 20
-296.1903810850126
 10
249.3375911431413
 20
-291.3291027085934
 10
249.3375911431413
 20
-291.3291027085934
 10
249.3375911431413
 20
-291.3291027085934
 10
249.3375911431413
 20
-278.3893303556397
 10
249.3375911431413
 20
-278.3893303556397
 10
249.3375911431413
 20
-278.3893303556397
 10
251.116809841672
 20
-274.5073986497537
 10
251.116809841672
 20
-274.5073986497537
 10
251.116809841672
 20
-274.5073986497537
 10
256.076943900176
 20
-274.0758572417835
 10
256.076943900176
 20
-274.0758572417835
 10
256.076943900176
 20
-274.0758572417835
 10
257.3440752865308
 20
-272.5664327968107
 10
257.3440752865308
 20
-272.5664327968107
 10
257.3440752865308
 20
-272.5664327968107
 10
258.6648983053892
 20
-270.8409141535449
 10
258.6648983053892
 20
-270.8409141535449
 10
258.6648983053892
 20
-270.8409141535449
 10
261.0374055063694
 20
-267.6059710653071
 10
261.0374055063694
 20
-267.6059710653071
 10
261.0374055063694
 20
-267.6059710653071
 10
262.76260495933
 20
-265.4495580026878
 10
262.76260495933
 20
-265.4495580026878
 10
262.76260495933
 20
-265.4495580026878
 10
265.3505594299204
 20
-256.6071645652955
 10
265.3505594299204
 20
-256.6071645652955
 10
265.3505594299204
 20
-256.6071645652955
 10
268.0193874777178
 20
-250.6850836513822
 10
268.0193874777178
 20
-250.6850836513822
 10
268.0193874777178
 20
-250.6850836513822
 10
273.3570435733091
 20
-247.7644476335981
 10
273.3570435733091
 20
-247.7644476335981
 10
273.3570435733091
 20
-247.7644476335981
 10
276.0258716211065
 20
-244.745922237963
 10
276.0258716211065
 20
-244.745922237963
 10
276.0258716211065
 20
-244.745922237963
 10
276.0258716211065
 20
-238.2255062504473
 10
276.0258716211065
 20
-238.2255062504473
 10
276.0258716211065
 20
-238.2255062504473
 10
276.0258716211065
 20
-234.825322269262
 10
276.0258716211065
 20
-234.825322269262
 10
276.0258716211065
 20
-234.825322269262
 10
279.6923561173153
 20
-228.6868236627452
 10
279.6923561173153
 20
-228.6868236627452
 10
279.6923561173153
 20
-228.6868236627452
 10
281.8487691799346
 20
-224.6892750908864
 10
281.8487691799346
 20
-224.6892750908864
 10
281.8487691799346
 20
-224.6892750908864
 10
281.8487691799346
 20
-206.4737634530484
 10
281.8487691799346
 20
-206.4737634530484
 10
281.8487691799346
 20
-206.4737634530484
 10
280.9616782789453
 20
-202.6913385965572
 10
280.9616782789453
 20
-202.6913385965572
 10
280.9616782789453
 20
-202.6913385965572
 10
280.9616782789453
 20
-193.1523972134064
 10
280.9616782789453
 20
-193.1523972134064
 10
280.9616782789453
 20
-193.1523972134064
 10
281.8487691799346
 20
-189.7518897379132
 10
281.8487691799346
 20
-189.7518897379132
 10
281.8487691799346
 20
-189.7518897379132
 10
282.8192521064066
 20
-184.3602100927455
 10
282.8192521064066
 20
-184.3602100927455
 10
282.8192521064066
 20
-184.3602100927455
 10
282.8192521064066
 20
-183.6137146257042
 10
282.8192521064066
 20
-183.6137146257042
 10
282.8192521064066
 20
-183.6137146257042
 10
279.6923561173153
 20
-183.6137146257042
 10
279.6923561173153
 20
-183.6137146257042
 97
        0
 97
        0
 75
     2
 76
     1
 98
        0
  0
MTEXT
  5
4D7
330
1F
100
AcDbEntity
  8
Layer 1
 62
   250
420
  2236191
100
AcDbMText
 10
114.6860961914062
 20
-122.9651107788086
 30
0.0
 40
8.495999999999999
 41
0.0
 46
0.0
 71
     7
 72
     1
  1
\fHelvetica Neue LT Std 57 Condensed|b0|i0|c0|p34;\W1;300mm max. for brick
 73
     1
 44
1.0
  0
MTEXT
  5
4D8
330
1F
100
AcDbEntity
  8
Layer 1
 62
   250
420
  2236191
100
AcDbMText
 10
114.6860961914062
 20
-137.3650131225586
 30
0.0
 40
8.495999999999999
 41
0.0
 46
0.0
 71
     7
 72
     1
  1
\fHelvetica Neue LT Std 57 Condensed|b0|i0|c0|p34;\W1;Every other course for concrete block applications
 73
     1
 44
1.0
  0
MTEXT
  5
4D9
330
1F
100
AcDbEntity
  8
Layer 1
 62
   250
420
  2236191
100
AcDbMText
 10
441.6538391113281
 20
-257.9328479766846
 30
0.0
 40
8.495999999999999
 41
0.0
 46
0.0
 71
     7
 72
     1
  1
\fHelvetica Neue LT Std 57 Condensed|b0|i0|c0|p34;\W1;Heli-Tie Stitch Tie
 73
     1
 44
1.0
  0
POLYLINE
  5
4DA
330
1F
100
AcDbEntity
  8
Layer 1
 62
   250
420
  2236191
370
    18
100
AcDb2dPolyline
 66
     1
 10
0.0
 20
0.0
 30
0.0
  0
VERTEX
  5
4DB
330
4DA
100
AcDbEntity
  8
Layer 1
 62
   250
420
  2236191
370
    18
100
AcDbVertex
100
AcDb2dVertex
 10
113.2273607055176
 20
-143.094131961946
 30
0.0
  0
VERTEX
  5
4DC
330
4DA
100
AcDbEntity
  8
Layer 1
 62
   250
420
  2236191
370
    18
100
AcDbVertex
100
AcDb2dVertex
 10
97.5806451612898
 20
-183.6137146257042
 30
0.0
  0
SEQEND
  5
4DD
330
4DA
100
AcDbEntity
  8
Layer 1
 62
   250
420
  2236191
370
    18
  0
POLYLINE
  5
4DE
330
1F
100
AcDbEntity
  8
Layer 1
 62
   250
420
  2236191
370
    18
100
AcDb2dPolyline
 66
     1
 10
0.0
 20
0.0
 30
0.0
  0
VERTEX
  5
4DF
330
4DE
100
AcDbEntity
  8
Layer 1
 62
   250
420
  2236191
370
    18
100
AcDbVertex
100
AcDb2dVertex
 10
461.4516129032254
 20
-242.0645161290331
 30
0.0
  0
VERTEX
  5
4E0
330
4DE
100
AcDbEntity
  8
Layer 1
 62
   250
420
  2236191
370
    18
100
AcDbVertex
100
AcDb2dVertex
 10
393.6374320954292
 20
-203.8735059575838
 30
0.0
  0
SEQEND
  5
4E1
330
4DE
100
AcDbEntity
  8
Layer 1
 62
   250
420
  2236191
370
    18
  0
POLYLINE
  5
4E2
330
1F
100
AcDbEntity
  8
Layer 1
 62
   250
420
  2236191
370
    18
100
AcDb2dPolyline
 66
     1
 10
0.0
 20
0.0
 30
0.0
  0
VERTEX
  5
4E3
330
4E2
100
AcDbEntity
  8
Layer 1
 62
   250
420
  2236191
370
    18
100
AcDbVertex
100
AcDb2dVertex
 10
461.4516129032254
 20
-264.5161290322576
 30
0.0
  0
VERTEX
  5
4E4
330
4E2
100
AcDbEntity
  8
Layer 1
 62
   250
420
  2236191
370
    18
100
AcDbVertex
100
AcDb2dVertex
 10
393.6374320954292
 20
-294.5144541192894
 30
0.0
  0
SEQEND
  5
4E5
330
4E2
100
AcDbEntity
  8
Layer 1
 62
   250
420
  2236191
370
    18
  0
MTEXT
  5
4E7
330
1F
100
AcDbEntity
  8
callouts
 62
   250
420
  2301728
100
AcDbMText
 10
153.1042556762695
 20
-337.4806232452393
 30
0.0
 40
8.495999999999999
 41
0.0
 46
0.0
 71
     7
 72
     1
  1
\fHelvetica Neue LT Std 55 Roman|b0|i0|c0|p34;\W1;500mm
 73
     1
 44
1.0
  0
MTEXT
  5
4E8
330
1F
100
AcDbEntity
  8
callouts
 62
   250
420
  2301728
100
AcDbMText
 10
291.8830642700195
 20
-337.4806232452393
 30
0.0
 40
8.495999999999999
 41
0.0
 46
0.0
 71
     7
 72
     1
  1
\fHelvetica Neue LT Std 55 Roman|b0|i0|c0|p34;\W1;500mm
 73
     1
 44
1.0
  0
MTEXT
  5
4E9
330
1F
100
AcDbEntity
  8
callouts
 62
   250
420
  2301728
100
AcDbMText
 10
323.5857009887695
 20
-169.9103107452393
 30
0.0
 40
8.495999999999999
 41
0.0
 46
0.0
 71
     7
 72
     1
  1
\fHelvetica Neue LT Std 55 Roman|b0|i0|c0|p34;\W1;500mm
 73
     1
 44
1.0
  0
MTEXT
  5
4EA
330
1F
100
AcDbEntity
  8
callouts
 62
   250
420
  2301728
100
AcDbMText
 10
184.4831619262695
 20
-169.9103107452393
 30
0.0
 40
8.495999999999999
 41
0.0
 46
0.0
 71
     7
 72
     1
  1
\fHelvetica Neue LT Std 55 Roman|b0|i0|c0|p34;\W1;500mm
 73
     1
 44
1.0
  0
SPLINE
  5
4EB
330
1F
100
AcDbEntity
  8
callouts
 62
   250
420
  2301728
370
    25
100
AcDbSpline
210
0.0
220
0.0
230
1.0
 70
    27
 71
     3
 72
    17
 73
    13
 74
     0
 42
0.0000000001
 43
0.0000000001
 12
1.0
 22
0.0
 32
0.0
 13
1.0
 23
0.0
 33
0.0
 40
0.0
 40
0.0
 40
0.0
 40
0.0
 40
1.0
 40
1.0
 40
1.0
 40
2.0
 40
2.0
 40
2.0
 40
3.0
 40
3.0
 40
3.0
 40
4.0
 40
4.0
 40
4.0
 40
4.0
 10
131.9091570400933
 20
-181.6105084677429
 30
0.0
 10
131.9091570400933
 20
-188.8461703720677
 30
0.0
 10
131.9091570400933
 20
-194.712027975108
 30
0.0
 10
131.9091570400933
 20
-194.712027975108
 30
0.0
 10
131.9091570400933
 20
-194.712027975108
 30
0.0
 10
131.9091570400933
 20
-188.8461703720677
 30
0.0
 10
131.9091570400933
 20
-181.6105084677429
 30
0.0
 10
131.9091570400933
 20
-174.3748465634199
 30
0.0
 10
131.9091570400933
 20
-168.5089889603787
 30
0.0
 10
131.9091570400933
 20
-168.5089889603787
 30
0.0
 10
131.9091570400933
 20
-168.5089889603787
 30
0.0
 10
131.9091570400933
 20
-174.3748465634199
 30
0.0
 10
131.9091570400933
 20
-181.6105084677429
 30
0.0
  0
SPLINE
  5
4EC
330
1F
100
AcDbEntity
  8
callouts
 62
   250
420
  2301728
370
    25
100
AcDbSpline
210
0.0
220
0.0
230
1.0
 70
    27
 71
     3
 72
    17
 73
    13
 74
     0
 42
0.0000000001
 43
0.0000000001
 12
1.0
 22
0.0
 32
0.0
 13
1.0
 23
0.0
 33
0.0
 40
0.0
 40
0.0
 40
0.0
 40
0.0
 40
1.0
 40
1.0
 40
1.0
 40
2.0
 40
2.0
 40
2.0
 40
3.0
 40
3.0
 40
3.0
 40
4.0
 40
4.0
 40
4.0
 40
4.0
 10
101.4052611895513
 20
-333.4041958891758
 30
0.0
 10
101.4052611895513
 20
-339.9252588653108
 30
0.0
 10
101.4052611895513
 20
-345.2117381612479
 30
0.0
 10
101.4052611895513
 20
-345.2117381612479
 30
0.0
 10
101.4052611895513
 20
-345.2117381612479
 30
0.0
 10
101.4052611895513
 20
-339.9252588653108
 30
0.0
 10
101.4052611895513
 20
-333.4041958891758
 30
0.0
 10
101.4052611895513
 20
-326.8831329130444
 30
0.0
 10
101.4052611895513
 20
-321.5966536171081
 30
0.0
 10
101.4052611895513
 20
-321.5966536171081
 30
0.0
 10
101.4052611895513
 20
-321.5966536171081
 30
0.0
 10
101.4052611895513
 20
-326.8831329130444
 30
0.0
 10
101.4052611895513
 20
-333.4041958891758
 30
0.0
  0
SPLINE
  5
4ED
330
1F
100
AcDbEntity
  8
callouts
 62
   250
420
  2301728
370
    25
100
AcDbSpline
210
0.0
220
0.0
230
1.0
 70
    27
 71
     3
 72
    17
 73
    13
 74
     0
 42
0.0000000001
 43
0.0000000001
 12
1.0
 22
0.0
 32
0.0
 13
1.0
 23
0.0
 33
0.0
 40
0.0
 40
0.0
 40
0.0
 40
0.0
 40
1.0
 40
1.0
 40
1.0
 40
2.0
 40
2.0
 40
2.0
 40
3.0
 40
3.0
 40
3.0
 40
4.0
 40
4.0
 40
4.0
 40
4.0
 10
246.9360301455217
 20
-333.4041958891758
 30
0.0
 10
246.9360301455217
 20
-339.9252588653108
 30
0.0
 10
246.9360301455217
 20
-345.2117381612479
 30
0.0
 10
246.9360301455217
 20
-345.2117381612479
 30
0.0
 10
246.9360301455217
 20
-345.2117381612479
 30
0.0
 10
246.9360301455217
 20
-339.9252588653108
 30
0.0
 10
246.9360301455217
 20
-333.4041958891758
 30
0.0
 10
246.9360301455217
 20
-326.8831329130444
 30
0.0
 10
246.9360301455217
 20
-321.5966536171081
 30
0.0
 10
246.9360301455217
 20
-321.5966536171081
 30
0.0
 10
246.9360301455217
 20
-321.5966536171081
 30
0.0
 10
246.9360301455217
 20
-326.8831329130444
 30
0.0
 10
246.9360301455217
 20
-333.4041958891758
 30
0.0
  0
SPLINE
  5
4EE
330
1F
100
AcDbEntity
  8
callouts
 62
   250
420
  2301728
370
    25
100
AcDbSpline
210
0.0
220
0.0
230
1.0
 70
    27
 71
     3
 72
    17
 73
    13
 74
     0
 42
0.0000000001
 43
0.0000000001
 12
1.0
 22
0.0
 32
0.0
 13
1.0
 23
0.0
 33
0.0
 40
0.0
 40
0.0
 40
0.0
 40
0.0
 40
1.0
 40
1.0
 40
1.0
 40
2.0
 40
2.0
 40
2.0
 40
3.0
 40
3.0
 40
3.0
 40
4.0
 40
4.0
 40
4.0
 40
4.0
 10
396.123133771951
 20
-333.4041958891758
 30
0.0
 10
396.123133771951
 20
-339.9252588653108
 30
0.0
 10
396.123133771951
 20
-345.2117381612479
 30
0.0
 10
396.123133771951
 20
-345.2117381612479
 30
0.0
 10
396.123133771951
 20
-345.2117381612479
 30
0.0
 10
396.123133771951
 20
-339.9252588653108
 30
0.0
 10
396.123133771951
 20
-333.4041958891758
 30
0.0
 10
396.123133771951
 20
-326.8831329130444
 30
0.0
 10
396.123133771951
 20
-321.5966536171081
 30
0.0
 10
396.123133771951
 20
-321.5966536171081
 30
0.0
 10
396.123133771951
 20
-321.5966536171081
 30
0.0
 10
396.123133771951
 20
-326.8831329130444
 30
0.0
 10
396.123133771951
 20
-333.4041958891758
 30
0.0
  0
SPLINE
  5
4EF
330
1F
100
AcDbEntity
  8
callouts
 62
   250
420
  2301728
370
    25
100
AcDbSpline
210
0.0
220
0.0
230
1.0
 70
    27
 71
     3
 72
    17
 73
    13
 74
     0
 42
0.0000000001
 43
0.0000000001
 12
1.0
 22
0.0
 32
0.0
 13
1.0
 23
0.0
 33
0.0
 40
0.0
 40
0.0
 40
0.0
 40
0.0
 40
1.0
 40
1.0
 40
1.0
 40
2.0
 40
2.0
 40
2.0
 40
3.0
 40
3.0
 40
3.0
 40
4.0
 40
4.0
 40
4.0
 40
4.0
 10
248.5620418983171
 20
-340.7143908822545
 30
0.0
 10
329.8339739850089
 20
-340.7143908822545
 30
0.0
 10
395.7187658859202
 20
-340.7143908822545
 30
0.0
 10
395.7187658859202
 20
-340.7143908822545
 30
0.0
 10
395.7187658859202
 20
-340.7143908822545
 30
0.0
 10
329.8339739850089
 20
-340.7143908822545
 30
0.0
 10
248.5620418983171
 20
-340.7143908822545
 30
0.0
 10
167.2903765847723
 20
-340.7143908822545
 30
0.0
 10
101.4052611895513
 20
-340.7143908822545
 30
0.0
 10
101.4052611895513
 20
-340.7143908822545
 30
0.0
 10
101.4052611895513
 20
-340.7143908822545
 30
0.0
 10
167.2903765847723
 20
-340.7143908822545
 30
0.0
 10
248.5620418983171
 20
-340.7143908822545
 30
0.0
  0
SPLINE
  5
4F0
330
1F
100
AcDbEntity
  8
callouts
 62
   250
420
  2301728
370
    25
100
AcDbSpline
210
0.0
220
0.0
230
1.0
 70
    27
 71
     3
 72
    17
 73
    13
 74
     0
 42
0.0000000001
 43
0.0000000001
 12
1.0
 22
0.0
 32
0.0
 13
1.0
 23
0.0
 33
0.0
 40
0.0
 40
0.0
 40
0.0
 40
0.0
 40
1.0
 40
1.0
 40
1.0
 40
2.0
 40
2.0
 40
2.0
 40
3.0
 40
3.0
 40
3.0
 40
4.0
 40
4.0
 40
4.0
 40
4.0
 10
280.9616782789453
 20
-181.6105084677429
 30
0.0
 10
280.9616782789453
 20
-188.8461703720677
 30
0.0
 10
280.9616782789453
 20
-194.712027975108
 30
0.0
 10
280.9616782789453
 20
-194.712027975108
 30
0.0
 10
280.9616782789453
 20
-194.712027975108
 30
0.0
 10
280.9616782789453
 20
-188.8461703720677
 30
0.0
 10
280.9616782789453
 20
-181.6105084677429
 30
0.0
 10
280.9616782789453
 20
-174.3748465634199
 30
0.0
 10
280.9616782789453
 20
-168.5089889603787
 30
0.0
 10
280.9616782789453
 20
-168.5089889603787
 30
0.0
 10
280.9616782789453
 20
-168.5089889603787
 30
0.0
 10
280.9616782789453
 20
-174.3748465634199
 30
0.0
 10
280.9616782789453
 20
-181.6105084677429
 30
0.0
  0
SPLINE
  5
4F1
330
1F
100
AcDbEntity
  8
callouts
 62
   250
420
  2301728
370
    25
100
AcDbSpline
210
0.0
220
0.0
230
1.0
 70
    27
 71
     3
 72
    17
 73
    13
 74
     0
 42
0.0000000001
 43
0.0000000001
 12
1.0
 22
0.0
 32
0.0
 13
1.0
 23
0.0
 33
0.0
 40
0.0
 40
0.0
 40
0.0
 40
0.0
 40
1.0
 40
1.0
 40
1.0
 40
2.0
 40
2.0
 40
2.0
 40
3.0
 40
3.0
 40
3.0
 40
4.0
 40
4.0
 40
4.0
 40
4.0
 10
427.3131610515084
 20
-181.6105084677429
 30
0.0
 10
427.3131610515084
 20
-188.8461703720677
 30
0.0
 10
427.3131610515084
 20
-194.712027975108
 30
0.0
 10
427.3131610515084
 20
-194.712027975108
 30
0.0
 10
427.3131610515084
 20
-194.712027975108
 30
0.0
 10
427.3131610515084
 20
-188.8461703720677
 30
0.0
 10
427.3131610515084
 20
-181.6105084677429
 30
0.0
 10
427.3131610515084
 20
-174.3748465634199
 30
0.0
 10
427.3131610515084
 20
-168.5089889603787
 30
0.0
 10
427.3131610515084
 20
-168.5089889603787
 30
0.0
 10
427.3131610515084
 20
-168.5089889603787
 30
0.0
 10
427.3131610515084
 20
-174.3748465634199
 30
0.0
 10
427.3131610515084
 20
-181.6105084677429
 30
0.0
  0
SPLINE
  5
4F2
330
1F
100
AcDbEntity
  8
callouts
 62
   250
420
  2301728
370
    25
100
AcDbSpline
210
0.0
220
0.0
230
1.0
 70
    27
 71
     3
 72
    17
 73
    13
 74
     0
 42
0.0000000001
 43
0.0000000001
 12
1.0
 22
0.0
 32
0.0
 13
1.0
 23
0.0
 33
0.0
 40
0.0
 40
0.0
 40
0.0
 40
0.0
 40
1.0
 40
1.0
 40
1.0
 40
2.0
 40
2.0
 40
2.0
 40
3.0
 40
3.0
 40
3.0
 40
4.0
 40
4.0
 40
4.0
 40
4.0
 10
279.6260350104149
 20
-173.7916510234718
 30
0.0
 10
361.206574617976
 20
-173.7916510234718
 30
0.0
 10
427.3428493238262
 20
-173.7916510234718
 30
0.0
 10
427.3428493238262
 20
-173.7916510234718
 30
0.0
 10
427.3428493238262
 20
-173.7916510234718
 30
0.0
 10
361.206574617976
 20
-173.7916510234718
 30
0.0
 10
279.6260350104149
 20
-173.7916510234718
 30
0.0
 10
198.0457541982942
 20
-173.7916510234718
 30
0.0
 10
131.9091570400933
 20
-173.7916510234718
 30
0.0
 10
131.9091570400933
 20
-173.7916510234718
 30
0.0
 10
131.9091570400933
 20
-173.7916510234718
 30
0.0
 10
198.0457541982942
 20
-173.7916510234718
 30
0.0
 10
279.6260350104149
 20
-173.7916510234718
 30
0.0
  0
POLYLINE
  5
4F3
330
1F
100
AcDbEntity
  8
callouts
 62
   250
420
  2301728
370
    25
100
AcDb2dPolyline
 66
     1
 10
0.0
 20
0.0
 30
0.0
  0
VERTEX
  5
4F4
330
4F3
100
AcDbEntity
  8
callouts
 62
   250
420
  2301728
370
    25
100
AcDbVertex
100
AcDb2dVertex
 10
137.2468131356864
 20
-231.8598499402742
 30
0.0
  0
VERTEX
  5
4F5
330
4F3
100
AcDbEntity
  8
callouts
 62
   250
420
  2301728
370
    25
100
AcDbVertex
100
AcDb2dVertex
 10
137.2468131356864
 20
-208.298788945709
 30
0.0
  0
SEQEND
  5
4F6
330
4F3
100
AcDbEntity
  8
callouts
 62
   250
420
  2301728
370
    25
  0
POLYLINE
  5
4F7
330
1F
100
AcDbEntity
  8
callouts
 62
   250
420
  2301728
370
    25
100
AcDb2dPolyline
 66
     1
 10
0.0
 20
0.0
 30
0.0
  0
VERTEX
  5
4F8
330
4F7
100
AcDbEntity
  8
callouts
 62
   250
420
  2301728
370
    25
100
AcDbVertex
100
AcDb2dVertex
 10
137.2468131356864
 20
-231.8598499402742
 30
0.0
  0
VERTEX
  5
4F9
330
4F7
100
AcDbEntity
  8
callouts
 62
   250
420
  2301728
370
    25
100
AcDbVertex
100
AcDb2dVertex
 10
137.2468131356864
 20
-290.5740669917977
 30
0.0
  0
SEQEND
  5
4FA
330
4F7
100
AcDbEntity
  8
callouts
 62
   250
420
  2301728
370
    25
  0
MTEXT
  5
4FB
330
1F
100
AcDbEntity
  8
callouts
 62
   250
420
  2236191
100
AcDbMText
 10
216.0004768371582
 20
-399.4226851463318
 30
0.0
 40
8.495999999999999
 41
0.0
 46
0.0
 71
     7
 72
     1
  1
\fHelvetica Neue LT Std 55 Roman|b0|i0|c0|p34;\W1;SIMPSON Strong-Tie\H4.95317;®\H8.496; ^C
 73
     1
 44
1.0
  0
MTEXT
  5
4FC
330
1F
100
AcDbEntity
  8
callouts
 62
   250
420
  2236191
100
AcDbMText
 10
198.0278205871582
 20
-413.8220992088318
 30
0.0
 40
8.495999999999999
 41
0.0
 46
0.0
 71
     7
 72
     1
  1
\fHelvetica Neue LT Std 55 Roman|b0|i0|c0|p34;\W1;Heli-Tie Stitch Tie Installation 
 73
     1
 44
1.0
  0
ENDSEC
  0
SECTION
  2
OBJECTS
  0
DICTIONARY
  5
C
330
0
100
AcDbDictionary
281
     1
  3
ACAD_GROUP
350
D
  3
ACAD_LAYOUT
350
1A
  3
ACAD_MATERIAL
350
3B
  3
ACAD_MLEADERSTYLE
350
4FE
  3
ACAD_MLINESTYLE
350
17
  3
ACAD_PLOTSETTINGS
350
19
  3
ACAD_PLOTSTYLENAME
350
E
  3
ACAD_TABLESTYLE
350
4FD
  3
ACAD_VISUALSTYLE
350
2A
  0
SUN
  5
3F
330
29
100
AcDbSun
 90
        1
290
     0
 63
     7
421
 16777215
 40
1.0
291
     1
 91
  2455826
 92
 54000000
292
     0
 70
     2
 71
   256
280
     1
  0
DICTIONARY
  5
D
102
{ACAD_REACTORS
330
C
102
}
330
C
100
AcDbDictionary
281
     1
  0
DICTIONARY
  5
1A
102
{ACAD_REACTORS
330
C
102
}
330
C
100
AcDbDictionary
281
     1
  3
Layout1
350
1E
  3
Layout2
350
26
  3
Model
350
22
  0
DICTIONARY
  5
3B
102
{ACAD_REACTORS
330
C
102
}
330
C
100
AcDbDictionary
281
     1
  3
ByBlock
350
3D
  3
ByLayer
350
3C
  3
Global
350
3E
  0
DICTIONARY
  5
4FE
102
{ACAD_REACTORS
330
C
102
}
330
C
100
AcDbDictionary
281
     1
  0
DICTIONARY
  5
17
102
{ACAD_REACTORS
330
C
102
}
330
C
100
AcDbDictionary
281
     1
  3
Standard
350
18
  0
DICTIONARY
  5
19
102
{ACAD_REACTORS
330
C
102
}
330
C
100
AcDbDictionary
281
     1
  0
ACDBDICTIONARYWDFLT
  5
E
102
{ACAD_REACTORS
330
C
102
}
330
C
100
AcDbDictionary
281
     1
  3
Normal
350
F
100
AcDbDictionaryWithDefault
340
F
  0
DICTIONARY
  5
4FD
102
{ACAD_REACTORS
330
C
102
}
330
C
100
AcDbDictionary
281
     1
  0
DICTIONARY
  5
2A
102
{ACAD_REACTORS
330
C
102
}
330
C
100
AcDbDictionary
281
     1
  3
2dWireframe
350
2F
  3
3D Hidden
350
31
  3
3dWireframe
350
30
  3
Basic
350
32
  3
Brighten
350
36
  3
ColorChange
350
3A
  3
Conceptual
350
34
  3
Dim
350
35
  3
Facepattern
350
39
  3
Flat
350
2B
  3
FlatWithEdges
350
2C
  3
Gouraud
350
2D
  3
GouraudWithEdges
350
2E
  3
Linepattern
350
38
  3
Realistic
350
33
  3
Thicken
350
37
  0
LAYOUT
  5
1E
102
{ACAD_REACTORS
330
1A
102
}
330
1A
100
AcDbPlotSettings
  1

  2
none_device
  4

  6

 40
0.0
 41
0.0
 42
0.0
 43
0.0
 44
0.0
 45
0.0
 46
0.0
 47
0.0
 48
0.0
 49
0.0
140
0.0
141
0.0
142
1.0
143
1.0
 70
   688
 72
     0
 73
     0
 74
     5
  7

 75
    16
 76
     0
 77
     2
 78
   300
147
1.0
148
0.0
149
0.0
100
AcDbLayout
  1
Layout1
 70
     1
 71
     1
 10
0.0
 20
0.0
 11
12.0
 21
9.0
 12
0.0
 22
0.0
 32
0.0
 14
1.000000000000000E+20
 24
1.000000000000000E+20
 34
1.000000000000000E+20
 15
-1.000000000000000E+20
 25
-1.000000000000000E+20
 35
-1.000000000000000E+20
146
0.0
 13
0.0
 23
0.0
 33
0.0
 16
1.0
 26
0.0
 36
0.0
 17
0.0
 27
1.0
 37
0.0
 76
     0
330
1B
  0
LAYOUT
  5
26
102
{ACAD_REACTORS
330
1A
102
}
330
1A
100
AcDbPlotSettings
  1

  2
none_device
  4

  6

 40
0.0
 41
0.0
 42
0.0
 43
0.0
 44
0.0
 45
0.0
 46
0.0
 47
0.0
 48
0.0
 49
0.0
140
0.0
141
0.0
142
1.0
143
1.0
 70
   688
 72
     0
 73
     0
 74
     5
  7

 75
    16
 76
     0
 77
     2
 78
   300
147
1.0
148
0.0
149
0.0
100
AcDbLayout
  1
Layout2
 70
     1
 71
     2
 10
0.0
 20
0.0
 11
0.0
 21
0.0
 12
0.0
 22
0.0
 32
0.0
 14
0.0
 24
0.0
 34
0.0
 15
0.0
 25
0.0
 35
0.0
146
0.0
 13
0.0
 23
0.0
 33
0.0
 16
1.0
 26
0.0
 36
0.0
 17
0.0
 27
1.0
 37
0.0
 76
     0
330
23
  0
LAYOUT
  5
22
102
{ACAD_REACTORS
330
1A
102
}
330
1A
100
AcDbPlotSettings
  1

  2
none_device
  4

  6

 40
0.0
 41
0.0
 42
0.0
 43
0.0
 44
0.0
 45
0.0
 46
0.0
 47
0.0
 48
0.0
 49
0.0
140
0.0
141
0.0
142
1.0
143
1.0
 70
  1712
 72
     0
 73
     0
 74
     0
  7

 75
     0
 76
     0
 77
     2
 78
   300
147
1.0
148
0.0
149
0.0
100
AcDbLayout
  1
Model
 70
     1
 71
     0
 10
0.0
 20
0.0
 11
12.0
 21
9.0
 12
0.0
 22
0.0
 32
0.0
 14
1.000000000000000E+20
 24
1.000000000000000E+20
 34
1.000000000000000E+20
 15
-1.000000000000000E+20
 25
-1.000000000000000E+20
 35
-1.000000000000000E+20
146
0.0
 13
0.0
 23
0.0
 33
0.0
 16
1.0
 26
0.0
 36
0.0
 17
0.0
 27
1.0
 37
0.0
 76
     0
330
1F
331
29
  0
MATERIAL
  5
3D
102
{ACAD_REACTORS
330
3B
102
}
330
3B
100
AcDbMaterial
  1
ByBlock
 72
     1
 94
      127
  0
MATERIAL
  5
3C
102
{ACAD_REACTORS
330
3B
102
}
330
3B
100
AcDbMaterial
  1
ByLayer
 72
     1
 94
      127
  0
MATERIAL
  5
3E
102
{ACAD_REACTORS
330
3B
102
}
330
3B
100
AcDbMaterial
  1
Global
 72
     1
 94
      127
  0
MLINESTYLE
  5
18
102
{ACAD_REACTORS
330
17
102
}
330
17
100
AcDbMlineStyle
  2
Standard
 70
     0
  3

 62
   256
 51
90.0
 52
90.0
 71
     2
 49
0.5
 62
   256
  6
BYLAYER
 49
-0.5
 62
   256
  6
BYLAYER
  0
ACDBPLACEHOLDER
  5
F
102
{ACAD_REACTORS
330
E
102
}
330
E
  0
VISUALSTYLE
  5
2F
102
{ACAD_REACTORS
330
2A
102
}
330
2A
100
AcDbVisualStyle
  2
2dWireframe
 70
     4
177
     2
291
     0
 71
     0
176
     1
 72
     2
176
     1
 73
     0
176
     1
 90
        0
176
     1
 40
-0.6
176
     1
 41
-30.0
176
     1
 62
     5
 63
     7
421
 16777215
176
     1
 74
     1
176
     1
 91
        4
176
     1
 64
     7
176
     1
 65
   257
176
     1
 75
     1
176
     1
175
     1
176
     1
 42
1.0
176
     1
 92
        0
176
     1
 66
   257
176
     1
 43
1.0
176
     1
 76
     1
176
     1
 77
     6
176
     1
 78
     2
176
     1
 67
     7
176
     1
 79
     5
176
     1
170
     0
176
     1
171
     0
176
     1
290
     0
176
     1
 93
        1
176
     1
 44
0.0
176
     1
173
     0
176
     1
  0
VISUALSTYLE
  5
31
102
{ACAD_REACTORS
330
2A
102
}
330
2A
100
AcDbVisualStyle
  2
3D Hidden
 70
     6
177
     2
291
     0
 71
     1
176
     1
 72
     2
176
     1
 73
     2
176
     1
 90
        0
176
     1
 40
-0.6
176
     1
 41
-30.0
176
     1
 62
     5
 63
     7
421
 16777215
176
     1
 74
     2
176
     1
 91
        2
176
     1
 64
     7
176
     1
 65
   257
176
     1
 75
     2
176
     1
175
     1
176
     1
 42
40.0
176
     1
 92
        0
176
     1
 66
   257
176
     1
 43
1.0
176
     1
 76
     1
176
     1
 77
     6
176
     1
 78
     2
176
     1
 67
     7
176
     1
 79
     3
176
     1
170
     0
176
     1
171
     0
176
     1
290
     0
176
     1
 93
        1
176
     1
 44
0.0
176
     1
173
     0
176
     1
  0
VISUALSTYLE
  5
30
102
{ACAD_REACTORS
330
2A
102
}
330
2A
100
AcDbVisualStyle
  2
3dWireframe
 70
     5
177
     2
291
     0
 71
     0
176
     1
 72
     2
176
     1
 73
     0
176
     1
 90
        0
176
     1
 40
-0.6
176
     1
 41
-30.0
176
     1
 62
     5
 63
     7
421
 16777215
176
     1
 74
     1
176
     1
 91
        4
176
     1
 64
     7
176
     1
 65
   257
176
     1
 75
     1
176
     1
175
     1
176
     1
 42
1.0
176
     1
 92
        0
176
     1
 66
   257
176
     1
 43
1.0
176
     1
 76
     1
176
     1
 77
     6
176
     1
 78
     2
176
     1
 67
     7
176
     1
 79
     5
176
     1
170
     0
176
     1
171
     0
176
     1
290
     0
176
     1
 93
        1
176
     1
 44
0.0
176
     1
173
     0
176
     1
  0
VISUALSTYLE
  5
32
102
{ACAD_REACTORS
330
2A
102
}
330
2A
100
AcDbVisualStyle
  2
Basic
 70
     7
177
     2
291
     1
 71
     1
176
     1
 72
     0
176
     1
 73
     1
176
     1
 90
        0
176
     1
 40
-0.6
176
     1
 41
-30.0
176
     1
 62
     5
 63
     7
421
 16777215
176
     1
 74
     0
176
     1
 91
        4
176
     1
 64
     7
176
     1
 65
   257
176
     1
 75
     1
176
     1
175
     1
176
     1
 42
1.0
176
     1
 92
        8
176
     1
 66
     7
176
     1
 43
1.0
176
     1
 76
     1
176
     1
 77
     6
176
     1
 78
     2
176
     1
 67
     7
176
     1
 79
     5
176
     1
170
     0
176
     1
171
     0
176
     1
290
     0
176
     1
 93
        1
176
     1
 44
0.0
176
     1
173
     0
176
     1
  0
VISUALSTYLE
  5
36
102
{ACAD_REACTORS
330
2A
102
}
330
2A
100
AcDbVisualStyle
  2
Brighten
 70
    12
177
     2
291
     1
 71
     2
176
     1
 72
     2
176
     1
 73
     0
176
     1
 90
        0
176
     1
 40
-0.6
176
     1
 41
-30.0
176
     1
 62
     5
 63
     7
421
 16777215
176
     1
 74
     1
176
     1
 91
        4
176
     1
 64
     7
176
     1
 65
   257
176
     1
 75
     1
176
     1
175
     1
176
     1
 42
1.0
176
     1
 92
        8
176
     1
 66
     7
176
     1
 43
1.0
176
     1
 76
     1
176
     1
 77
     6
176
     1
 78
     2
176
     1
 67
     7
176
     1
 79
     5
176
     1
170
     0
176
     1
171
     0
176
     1
290
     0
176
     1
 93
        1
176
     1
 44
50.0
176
     1
173
     0
176
     1
  0
VISUALSTYLE
  5
3A
102
{ACAD_REACTORS
330
2A
102
}
330
2A
100
AcDbVisualStyle
  2
ColorChange
 70
    16
177
     2
291
     1
 71
     2
176
     1
 72
     2
176
     1
 73
     3
176
     1
 90
        0
176
     1
 40
-0.6
176
     1
 41
-30.0
176
     1
 62
     5
 63
     8
421
  8421504
176
     1
 74
     1
176
     1
 91
        4
176
     1
 64
     7
176
     1
 65
   257
176
     1
 75
     1
176
     1
175
     1
176
     1
 42
1.0
176
     1
 92
        8
176
     1
 66
     8
424
  8421504
176
     1
 43
1.0
176
     1
 76
     1
176
     1
 77
     6
176
     1
 78
     2
176
     1
 67
     7
176
     1
 79
     5
176
     1
170
     0
176
     1
171
     0
176
     1
290
     0
176
     1
 93
        1
176
     1
 44
0.0
176
     1
173
     0
176
     1
  0
VISUALSTYLE
  5
34
102
{ACAD_REACTORS
330
2A
102
}
330
2A
100
AcDbVisualStyle
  2
Conceptual
 70
     9
177
     2
291
     0
 71
     3
176
     1
 72
     2
176
     1
 73
     0
176
     1
 90
        0
176
     1
 40
-0.6
176
     1
 41
-30.0
176
     1
 62
     5
 63
     7
421
 16777215
176
     1
 74
     2
176
     1
 91
        2
176
     1
 64
     7
176
     1
 65
   257
176
     1
 75
     1
176
     1
175
     1
176
     1
 42
40.0
176
     1
 92
        8
176
     1
 66
     7
176
     1
 43
1.0
176
     1
 76
     1
176
     1
 77
     6
176
     1
 78
     2
176
     1
 67
     7
176
     1
 79
     3
176
     1
170
     0
176
     1
171
     0
176
     1
290
     0
176
     1
 93
        1
176
     1
 44
0.0
176
     1
173
     0
176
     1
  0
VISUALSTYLE
  5
35
102
{ACAD_REACTORS
330
2A
102
}
330
2A
100
AcDbVisualStyle
  2
Dim
 70
    11
177
     2
291
     1
 71
     2
176
     1
 72
     2
176
     1
 73
     0
176
     1
 90
        0
176
     1
 40
-0.6
176
     1
 41
-30.0
176
     1
 62
     5
 63
     7
421
 16777215
176
     1
 74
     1
176
     1
 91
        4
176
     1
 64
     7
176
     1
 65
   257
176
     1
 75
     1
176
     1
175
     1
176
     1
 42
1.0
176
     1
 92
        8
176
     1
 66
     7
176
     1
 43
1.0
176
     1
 76
     1
176
     1
 77
     6
176
     1
 78
     2
176
     1
 67
     7
176
     1
 79
     5
176
     1
170
     0
176
     1
171
     0
176
     1
290
     0
176
     1
 93
        1
176
     1
 44
-50.0
176
     1
173
     0
176
     1
  0
VISUALSTYLE
  5
39
102
{ACAD_REACTORS
330
2A
102
}
330
2A
100
AcDbVisualStyle
  2
Facepattern
 70
    15
177
     2
291
     1
 71
     2
176
     1
 72
     2
176
     1
 73
     0
176
     1
 90
        0
176
     1
 40
-0.6
176
     1
 41
-30.0
176
     1
 62
     5
 63
     7
421
 16777215
176
     1
 74
     1
176
     1
 91
        4
176
     1
 64
     7
176
     1
 65
   257
176
     1
 75
     1
176
     1
175
     1
176
     1
 42
1.0
176
     1
 92
        8
176
     1
 66
     7
176
     1
 43
1.0
176
     1
 76
     1
176
     1
 77
     6
176
     1
 78
     2
176
     1
 67
     7
176
     1
 79
     5
176
     1
170
     0
176
     1
171
     0
176
     1
290
     0
176
     1
 93
        1
176
     1
 44
0.0
176
     1
173
     0
176
     1
  0
VISUALSTYLE
  5
2B
102
{ACAD_REACTORS
330
2A
102
}
330
2A
100
AcDbVisualStyle
  2
Flat
 70
     0
177
     2
291
     1
 71
     2
176
     1
 72
     1
176
     1
 73
     1
176
     1
 90
        2
176
     1
 40
-0.6
176
     1
 41
30.0
176
     1
 62
     5
 63
     7
421
 16777215
176
     1
 74
     0
176
     1
 91
        4
176
     1
 64
     7
176
     1
 65
   257
176
     1
 75
     1
176
     1
175
     1
176
     1
 42
1.0
176
     1
 92
        8
176
     1
 66
     7
176
     1
 43
1.0
176
     1
 76
     1
176
     1
 77
     6
176
     1
 78
     2
176
     1
 67
     7
176
     1
 79
     5
176
     1
170
     0
176
     1
171
     0
176
     1
290
     0
176
     1
 93
       13
176
     1
 44
0.0
176
     1
173
     0
176
     1
  0
VISUALSTYLE
  5
2C
102
{ACAD_REACTORS
330
2A
102
}
330
2A
100
AcDbVisualStyle
  2
FlatWithEdges
 70
     1
177
     2
291
     1
 71
     2
176
     1
 72
     1
176
     1
 73
     1
176
     1
 90
        2
176
     1
 40
-0.6
176
     1
 41
30.0
176
     1
 62
     5
 63
     7
421
 16777215
176
     1
 74
     1
176
     1
 91
        4
176
     1
 64
     7
176
     1
 65
   257
176
     1
 75
     1
176
     1
175
     1
176
     1
 42
1.0
176
     1
 92
        0
176
     1
 66
   257
176
     1
 43
1.0
176
     1
 76
     1
176
     1
 77
     6
176
     1
 78
     2
176
     1
 67
     7
176
     1
 79
     5
176
     1
170
     0
176
     1
171
     0
176
     1
290
     0
176
     1
 93
       13
176
     1
 44
0.0
176
     1
173
     0
176
     1
  0
VISUALSTYLE
  5
2D
102
{ACAD_REACTORS
330
2A
102
}
330
2A
100
AcDbVisualStyle
  2
Gouraud
 70
     2
177
     2
291
     1
 71
     2
176
     1
 72
     2
176
     1
 73
     1
176
     1
 90
        2
176
     1
 40
-0.6
176
     1
 41
30.0
176
     1
 62
     5
 63
     7
421
 16777215
176
     1
 74
     0
176
     1
 91
        4
176
     1
 64
     7
176
     1
 65
   257
176
     1
 75
     1
176
     1
175
     1
176
     1
 42
1.0
176
     1
 92
        0
176
     1
 66
     7
176
     1
 43
1.0
176
     1
 76
     1
176
     1
 77
     6
176
     1
 78
     2
176
     1
 67
     7
176
     1
 79
     5
176
     1
170
     0
176
     1
171
     0
176
     1
290
     0
176
     1
 93
       13
176
     1
 44
0.0
176
     1
173
     0
176
     1
  0
VISUALSTYLE
  5
2E
102
{ACAD_REACTORS
330
2A
102
}
330
2A
100
AcDbVisualStyle
  2
GouraudWithEdges
 70
     3
177
     2
291
     1
 71
     2
176
     1
 72
     2
176
     1
 73
     1
176
     1
 90
        2
176
     1
 40
-0.6
176
     1
 41
30.0
176
     1
 62
     5
 63
     7
421
 16777215
176
     1
 74
     1
176
     1
 91
        4
176
     1
 64
     7
176
     1
 65
   257
176
     1
 75
     1
176
     1
175
     1
176
     1
 42
1.0
176
     1
 92
        0
176
     1
 66
   257
176
     1
 43
1.0
176
     1
 76
     1
176
     1
 77
     6
176
     1
 78
     2
176
     1
 67
     7
176
     1
 79
     5
176
     1
170
     0
176
     1
171
     0
176
     1
290
     0
176
     1
 93
       13
176
     1
 44
0.0
176
     1
173
     0
176
     1
  0
VISUALSTYLE
  5
38
102
{ACAD_REACTORS
330
2A
102
}
330
2A
100
AcDbVisualStyle
  2
Linepattern
 70
    14
177
     2
291
     1
 71
     2
176
     1
 72
     2
176
     1
 73
     0
176
     1
 90
        0
176
     1
 40
-0.6
176
     1
 41
-30.0
176
     1
 62
     5
 63
     7
421
 16777215
176
     1
 74
     1
176
     1
 91
        4
176
     1
 64
     7
176
     1
 65
   257
176
     1
 75
     7
176
     1
175
     7
176
     1
 42
1.0
176
     1
 92
        8
176
     1
 66
     7
176
     1
 43
1.0
176
     1
 76
     1
176
     1
 77
     6
176
     1
 78
     2
176
     1
 67
     7
176
     1
 79
     5
176
     1
170
     0
176
     1
171
     0
176
     1
290
     0
176
     1
 93
        1
176
     1
 44
0.0
176
     1
173
     0
176
     1
  0
VISUALSTYLE
  5
33
102
{ACAD_REACTORS
330
2A
102
}
330
2A
100
AcDbVisualStyle
  2
Realistic
 70
     8
177
     2
291
     0
 71
     2
176
     1
 72
     2
176
     1
 73
     0
176
     1
 90
        0
176
     1
 40
-0.6
176
     1
 41
-30.0
176
     1
 62
     5
 63
     7
421
 16777215
176
     1
 74
     1
176
     1
 91
        0
176
     1
 64
     7
176
     1
 65
   257
176
     1
 75
     1
176
     1
175
     1
176
     1
 42
1.0
176
     1
 92
        8
176
     1
 66
     8
424
  7895160
176
     1
 43
1.0
176
     1
 76
     1
176
     1
 77
     6
176
     1
 78
     2
176
     1
 67
     7
176
     1
 79
     5
176
     1
170
     0
176
     1
171
     0
176
     1
290
     0
176
     1
 93
       13
176
     1
 44
0.0
176
     1
173
     0
176
     1
  0
VISUALSTYLE
  5
37
102
{ACAD_REACTORS
330
2A
102
}
330
2A
100
AcDbVisualStyle
  2
Thicken
 70
    13
177
     2
291
     1
 71
     2
176
     1
 72
     2
176
     1
 73
     0
176
     1
 90
        0
176
     1
 40
-0.6
176
     1
 41
-30.0
176
     1
 62
     5
 63
     7
421
 16777215
176
     1
 74
     1
176
     1
 91
        4
176
     1
 64
     7
176
     1
 65
   257
176
     1
 75
     1
176
     1
175
     1
176
     1
 42
1.0
176
     1
 92
       12
176
     1
 66
     7
176
     1
 43
1.0
176
     1
 76
     1
176
     1
 77
     6
176
     1
 78
     2
176
     1
 67
     7
176
     1
 79
     5
176
     1
170
     0
176
     1
171
     0
176
     1
290
     0
176
     1
 93
        1
176
     1
 44
0.0
176
     1
173
     0
176
     1
  0
ENDSEC
  0
EOF
