  0
SECTION
  2
HEADER
  9
$ACADVER
  1
AC1024
  9
$ACADMAINTVER
 70
     6
  9
$DWGCODEPAGE
  3
ANSI_1252
  9
$INSBASE
 10
0.0
 20
0.0
 30
0.0
  9
$EXTMIN
 10
1.000000000000000E+20
 20
1.000000000000000E+20
 30
1.000000000000000E+20
  9
$EXTMAX
 10
-1.000000000000000E+20
 20
-1.000000000000000E+20
 30
-1.000000000000000E+20
  9
$LIMMIN
 10
0.0
 20
0.0
  9
$LIMMAX
 10
12.0
 20
9.0
  9
$ORTHOMODE
 70
     0
  9
$REGENMODE
 70
     1
  9
$FILLMODE
 70
     1
  9
$QTEXTMODE
 70
     0
  9
$MIRRTEXT
 70
     1
  9
$LTSCALE
 40
1.0
  9
$ATTMODE
 70
     1
  9
$TEXTSIZE
 40
0.2
  9
$TRACEWID
 40
0.05
  9
$TEXTSTYLE
  7
Standard
  9
$CLAYER
  8
0
  9
$CELTYPE
  6
ByLayer
  9
$CECOLOR
 62
   256
  9
$CELTSCALE
 40
1.0
  9
$DISPSILH
 70
     0
  9
$DIMSCALE
 40
1.0
  9
$DIMASZ
 40
0.18
  9
$DIMEXO
 40
0.0625
  9
$DIMDLI
 40
0.38
  9
$DIMRND
 40
0.0
  9
$DIMDLE
 40
0.0
  9
$DIMEXE
 40
0.18
  9
$DIMTP
 40
0.0
  9
$DIMTM
 40
0.0
  9
$DIMTXT
 40
0.18
  9
$DIMCEN
 40
0.09
  9
$DIMTSZ
 40
0.0
  9
$DIMTOL
 70
     0
  9
$DIMLIM
 70
     0
  9
$DIMTIH
 70
     1
  9
$DIMTOH
 70
     1
  9
$DIMSE1
 70
     0
  9
$DIMSE2
 70
     0
  9
$DIMTAD
 70
     0
  9
$DIMZIN
 70
     0
  9
$DIMBLK
  1

  9
$DIMASO
 70
     1
  9
$DIMSHO
 70
     1
  9
$DIMPOST
  1

  9
$DIMAPOST
  1

  9
$DIMALT
 70
     0
  9
$DIMALTD
 70
     2
  9
$DIMALTF
 40
25.4
  9
$DIMLFAC
 40
1.0
  9
$DIMTOFL
 70
     0
  9
$DIMTVP
 40
0.0
  9
$DIMTIX
 70
     0
  9
$DIMSOXD
 70
     0
  9
$DIMSAH
 70
     0
  9
$DIMBLK1
  1

  9
$DIMBLK2
  1

  9
$DIMSTYLE
  2
Standard
  9
$DIMCLRD
 70
     0
  9
$DIMCLRE
 70
     0
  9
$DIMCLRT
 70
     0
  9
$DIMTFAC
 40
1.0
  9
$DIMGAP
 40
0.09
  9
$DIMJUST
 70
     0
  9
$DIMSD1
 70
     0
  9
$DIMSD2
 70
     0
  9
$DIMTOLJ
 70
     1
  9
$DIMTZIN
 70
     0
  9
$DIMALTZ
 70
     0
  9
$DIMALTTZ
 70
     0
  9
$DIMUPT
 70
     0
  9
$DIMDEC
 70
     4
  9
$DIMTDEC
 70
     4
  9
$DIMALTU
 70
     2
  9
$DIMALTTD
 70
     2
  9
$DIMTXSTY
  7
Standard
  9
$DIMAUNIT
 70
     0
  9
$DIMADEC
 70
     0
  9
$DIMALTRND
 40
0.0
  9
$DIMAZIN
 70
     0
  9
$DIMDSEP
 70
    46
  9
$DIMATFIT
 70
     3
  9
$DIMFRAC
 70
     0
  9
$DIMLDRBLK
  1

  9
$DIMLUNIT
 70
     2
  9
$DIMLWD
 70
    -2
  9
$DIMLWE
 70
    -2
  9
$DIMTMOVE
 70
     0
  9
$DIMFXL
 40
1.0
  9
$DIMFXLON
 70
     0
  9
$DIMJOGANG
 40
0.7853981633974483
  9
$DIMTFILL
 70
     0
  9
$DIMTFILLCLR
 70
     0
  9
$DIMARCSYM
 70
     0
  9
$DIMLTYPE
  6

  9
$DIMLTEX1
  6

  9
$DIMLTEX2
  6

  9
$DIMTXTDIRECTION
 70
     0
  9
$LUNITS
 70
     2
  9
$LUPREC
 70
     4
  9
$SKETCHINC
 40
0.1
  9
$FILLETRAD
 40
0.5
  9
$AUNITS
 70
     0
  9
$AUPREC
 70
     0
  9
$MENU
  1
.
  9
$ELEVATION
 40
0.0
  9
$PELEVATION
 40
0.0
  9
$THICKNESS
 40
0.0
  9
$LIMCHECK
 70
     0
  9
$CHAMFERA
 40
0.5
  9
$CHAMFERB
 40
0.5
  9
$CHAMFERC
 40
1.0
  9
$CHAMFERD
 40
0.0
  9
$SKPOLY
 70
     0
  9
$TDCREATE
 40
2458853.975889711
  9
$TDUCREATE
 40
2458853.434223044
  9
$TDUPDATE
 40
2458853.975889826
  9
$TDUUPDATE
 40
2458853.43422316
  9
$TDINDWG
 40
0.0000000116
  9
$TDUSRTIMER
 40
0.0000000116
  9
$USRTIMER
 70
     1
  9
$ANGBASE
 50
0.0
  9
$ANGDIR
 70
     0
  9
$PDMODE
 70
     0
  9
$PDSIZE
 40
0.0
  9
$PLINEWID
 40
0.0
  9
$SPLFRAME
 70
     0
  9
$SPLINETYPE
 70
     6
  9
$SPLINESEGS
 70
     8
  9
$HANDSEED
  5
187
  9
$SURFTAB1
 70
     6
  9
$SURFTAB2
 70
     6
  9
$SURFTYPE
 70
     6
  9
$SURFU
 70
     6
  9
$SURFV
 70
     6
  9
$UCSBASE
  2

  9
$UCSNAME
  2

  9
$UCSORG
 10
0.0
 20
0.0
 30
0.0
  9
$UCSXDIR
 10
1.0
 20
0.0
 30
0.0
  9
$UCSYDIR
 10
0.0
 20
1.0
 30
0.0
  9
$UCSORTHOREF
  2

  9
$UCSORTHOVIEW
 70
     0
  9
$UCSORGTOP
 10
0.0
 20
0.0
 30
0.0
  9
$UCSORGBOTTOM
 10
0.0
 20
0.0
 30
0.0
  9
$UCSORGLEFT
 10
0.0
 20
0.0
 30
0.0
  9
$UCSORGRIGHT
 10
0.0
 20
0.0
 30
0.0
  9
$UCSORGFRONT
 10
0.0
 20
0.0
 30
0.0
  9
$UCSORGBACK
 10
0.0
 20
0.0
 30
0.0
  9
$PUCSBASE
  2

  9
$PUCSNAME
  2

  9
$PUCSORG
 10
0.0
 20
0.0
 30
0.0
  9
$PUCSXDIR
 10
1.0
 20
0.0
 30
0.0
  9
$PUCSYDIR
 10
0.0
 20
1.0
 30
0.0
  9
$PUCSORTHOREF
  2

  9
$PUCSORTHOVIEW
 70
     0
  9
$PUCSORGTOP
 10
0.0
 20
0.0
 30
0.0
  9
$PUCSORGBOTTOM
 10
0.0
 20
0.0
 30
0.0
  9
$PUCSORGLEFT
 10
0.0
 20
0.0
 30
0.0
  9
$PUCSORGRIGHT
 10
0.0
 20
0.0
 30
0.0
  9
$PUCSORGFRONT
 10
0.0
 20
0.0
 30
0.0
  9
$PUCSORGBACK
 10
0.0
 20
0.0
 30
0.0
  9
$USERI1
 70
     0
  9
$USERI2
 70
     0
  9
$USERI3
 70
     0
  9
$USERI4
 70
     0
  9
$USERI5
 70
     0
  9
$USERR1
 40
0.0
  9
$USERR2
 40
0.0
  9
$USERR3
 40
0.0
  9
$USERR4
 40
0.0
  9
$USERR5
 40
0.0
  9
$WORLDVIEW
 70
     1
  9
$SHADEDGE
 70
     3
  9
$SHADEDIF
 70
    70
  9
$TILEMODE
 70
     1
  9
$MAXACTVP
 70
    64
  9
$PINSBASE
 10
0.0
 20
0.0
 30
0.0
  9
$PLIMCHECK
 70
     0
  9
$PEXTMIN
 10
1.000000000000000E+20
 20
1.000000000000000E+20
 30
1.000000000000000E+20
  9
$PEXTMAX
 10
-1.000000000000000E+20
 20
-1.000000000000000E+20
 30
-1.000000000000000E+20
  9
$PLIMMIN
 10
0.0
 20
0.0
  9
$PLIMMAX
 10
12.0
 20
9.0
  9
$UNITMODE
 70
     0
  9
$VISRETAIN
 70
     1
  9
$PLINEGEN
 70
     0
  9
$PSLTSCALE
 70
     1
  9
$TREEDEPTH
 70
  3020
  9
$CMLSTYLE
  2
Standard
  9
$CMLJUST
 70
     0
  9
$CMLSCALE
 40
1.0
  9
$PROXYGRAPHICS
 70
     1
  9
$MEASUREMENT
 70
     0
  9
$CELWEIGHT
370
    -1
  9
$ENDCAPS
280
     0
  9
$JOINSTYLE
280
     0
  9
$LWDISPLAY
290
     1
  9
$INSUNITS
 70
     1
  9
$HYPERLINKBASE
  1

  9
$STYLESHEET
  1

  9
$XEDIT
290
     1
  9
$CEPSNTYPE
380
     0
  9
$PSTYLEMODE
290
     1
  9
$FINGERPRINTGUID
  2
{A8165F7D-9B43-460E-8579-12B9FBED7DD4}
  9
$VERSIONGUID
  2
{FAEB1C32-E019-11D5-929B-00C0DF256EC4}
  9
$EXTNAMES
290
     1
  9
$PSVPSCALE
 40
0.0
  9
$OLESTARTUP
290
     0
  9
$SORTENTS
280
   127
  9
$INDEXCTL
280
     0
  9
$HIDETEXT
280
     1
  9
$XCLIPFRAME
280
     2
  9
$HALOGAP
280
     0
  9
$OBSCOLOR
 70
   257
  9
$OBSLTYPE
280
     0
  9
$INTERSECTIONDISPLAY
280
     0
  9
$INTERSECTIONCOLOR
 70
   257
  9
$DIMASSOC
280
     2
  9
$PROJECTNAME
  1

  9
$CAMERADISPLAY
290
     0
  9
$LENSLENGTH
 40
50.0
  9
$CAMERAHEIGHT
 40
0.0
  9
$STEPSPERSEC
 40
2.0
  9
$STEPSIZE
 40
6.0
  9
$3DDWFPREC
 40
2.0
  9
$PSOLWIDTH
 40
0.25
  9
$PSOLHEIGHT
 40
4.0
  9
$LOFTANG1
 40
1.570796326794897
  9
$LOFTANG2
 40
1.570796326794897
  9
$LOFTMAG1
 40
0.0
  9
$LOFTMAG2
 40
0.0
  9
$LOFTPARAM
 70
     7
  9
$LOFTNORMALS
280
     1
  9
$LATITUDE
 40
37.795
  9
$LONGITUDE
 40
-122.394
  9
$NORTHDIRECTION
 40
0.0
  9
$TIMEZONE
 70
 -8000
  9
$LIGHTGLYPHDISPLAY
280
     1
  9
$TILEMODELIGHTSYNCH
280
     1
  9
$CMATERIAL
347
3C
  9
$SOLIDHIST
280
     1
  9
$SHOWHIST
280
     1
  9
$DWFFRAME
280
     2
  9
$DGNFRAME
280
     2
  9
$REALWORLDSCALE
290
     1
  9
$INTERFERECOLOR
 62
   256
  9
$CSHADOW
280
     0
  9
$SHADOWPLANELOCATION
 40
0.0
  0
ENDSEC
  0
SECTION
  2
CLASSES
  0
CLASS
  1
ACDBDICTIONARYWDFLT
  2
AcDbDictionaryWithDefault
  3
ObjectDBX Classes
 90
        0
 91
        4
280
     0
281
     0
  0
CLASS
  1
VISUALSTYLE
  2
AcDbVisualStyle
  3
ObjectDBX Classes
 90
     4095
 91
        4
280
     0
281
     0
  0
CLASS
  1
MATERIAL
  2
AcDbMaterial
  3
ObjectDBX Classes
 90
     1153
 91
        4
280
     0
281
     0
  0
CLASS
  1
SUN
  2
AcDbSun
  3
SCENEOE
 90
     1024
 91
        4
280
     0
281
     0
  0
ENDSEC
  0
SECTION
  2
TABLES
  0
TABLE
  2
VPORT
  5
8
330
0
100
AcDbSymbolTable
 70
     1
  0
VPORT
  5
29
330
8
100
AcDbSymbolTableRecord
100
AcDbViewportTableRecord
  2
*Active
 70
     0
 10
0.0
 20
0.0
 11
1.0
 21
1.0
 12
0.0
 22
0.0
 13
0.0
 23
0.0
 14
0.5
 24
0.5
 15
0.5
 25
0.5
 16
0.0
 26
0.0
 36
1.0
 17
4.25
 27
5.499999999999999
 37
0.0
 40
11.69291338582677
 41
0.7070707070707065
 42
50.0
 43
0.0
 44
0.0
 50
0.0
 51
0.0
 71
     0
 72
   100
 73
     1
 74
     3
 75
     0
 76
     0
 77
     0
 78
     0
281
     0
 65
     1
110
0.0
120
0.0
130
0.0
111
1.0
121
0.0
131
0.0
112
0.0
122
1.0
132
0.0
 79
     0
146
0.0
 60
     3
 61
     5
292
     1
282
     1
141
0.0
142
0.0
 63
   250
361
3F
  0
ENDTAB
  0
TABLE
  2
LTYPE
  5
5
330
0
100
AcDbSymbolTable
 70
     1
  0
LTYPE
  5
14
330
5
100
AcDbSymbolTableRecord
100
AcDbLinetypeTableRecord
  2
ByBlock
 70
     0
  3

 72
    65
 73
     0
 40
0.0
  0
LTYPE
  5
15
330
5
100
AcDbSymbolTableRecord
100
AcDbLinetypeTableRecord
  2
ByLayer
 70
     0
  3

 72
    65
 73
     0
 40
0.0
  0
LTYPE
  5
16
330
5
100
AcDbSymbolTableRecord
100
AcDbLinetypeTableRecord
  2
Continuous
 70
     0
  3
Solid line
 72
    65
 73
     0
 40
0.0
  0
ENDTAB
  0
TABLE
  2
LAYER
  5
2
330
0
100
AcDbSymbolTable
 70
     3
  0
LAYER
  5
10
330
2
100
AcDbSymbolTableRecord
100
AcDbLayerTableRecord
  2
0
 70
     0
 62
     7
  6
Continuous
370
    -3
390
F
347
3E
  0
LAYER
  5
40
330
2
100
AcDbSymbolTableRecord
100
AcDbLayerTableRecord
  2
CDTC6
 70
     0
 62
     7
  6
Continuous
370
    -3
390
F
347
3E
  0
LAYER
  5
181
330
2
100
AcDbSymbolTableRecord
100
AcDbLayerTableRecord
  2
callout
 70
     0
 62
     7
  6
Continuous
370
    -3
390
F
347
3E
  0
ENDTAB
  0
TABLE
  2
STYLE
  5
3
330
0
100
AcDbSymbolTable
 70
     1
  0
STYLE
  5
11
330
3
100
AcDbSymbolTableRecord
100
AcDbTextStyleTableRecord
  2
Standard
 70
     0
 40
0.0
 41
1.0
 50
0.0
 71
     0
 42
0.2
  3
txt
  4

  0
ENDTAB
  0
TABLE
  2
VIEW
  5
6
330
0
100
AcDbSymbolTable
 70
     0
  0
ENDTAB
  0
TABLE
  2
UCS
  5
7
330
0
100
AcDbSymbolTable
 70
     0
  0
ENDTAB
  0
TABLE
  2
APPID
  5
9
330
0
100
AcDbSymbolTable
 70
     1
  0
APPID
  5
12
330
9
100
AcDbSymbolTableRecord
100
AcDbRegAppTableRecord
  2
ACAD
 70
     0
  0
ENDTAB
  0
TABLE
  2
DIMSTYLE
  5
A
330
0
100
AcDbSymbolTable
 70
     1
100
AcDbDimStyleTable
  0
DIMSTYLE
105
27
330
A
100
AcDbSymbolTableRecord
100
AcDbDimStyleTableRecord
  2
Standard
 70
     0
178
     0
340
11
  0
ENDTAB
  0
TABLE
  2
BLOCK_RECORD
  5
1
330
0
100
AcDbSymbolTable
 70
    16
  0
BLOCK_RECORD
  5
1F
330
1
100
AcDbSymbolTableRecord
100
AcDbBlockTableRecord
  2
*Model_Space
340
22
 70
     0
280
     1
281
     0
  0
BLOCK_RECORD
  5
1B
330
1
100
AcDbSymbolTableRecord
100
AcDbBlockTableRecord
  2
*Paper_Space
340
1E
 70
     0
280
     1
281
     0
  0
BLOCK_RECORD
  5
23
330
1
100
AcDbSymbolTableRecord
100
AcDbBlockTableRecord
  2
*Paper_Space0
340
26
 70
     0
280
     1
281
     0
  0
BLOCK_RECORD
  5
41
330
1
100
AcDbSymbolTableRecord
100
AcDbBlockTableRecord
  2
block 2
340
0
102
{BLKREFS
331
42
102
}
 70
     0
280
     1
281
     0
  0
BLOCK_RECORD
  5
53
330
1
100
AcDbSymbolTableRecord
100
AcDbBlockTableRecord
  2
block 3
340
0
102
{BLKREFS
331
54
102
}
 70
     0
280
     1
281
     0
  0
BLOCK_RECORD
  5
5F
330
1
100
AcDbSymbolTableRecord
100
AcDbBlockTableRecord
  2
block 4
340
0
102
{BLKREFS
331
60
102
}
 70
     0
280
     1
281
     0
  0
BLOCK_RECORD
  5
65
330
1
100
AcDbSymbolTableRecord
100
AcDbBlockTableRecord
  2
block 5
340
0
102
{BLKREFS
331
66
102
}
 70
     0
280
     1
281
     0
  0
BLOCK_RECORD
  5
A6
330
1
100
AcDbSymbolTableRecord
100
AcDbBlockTableRecord
  2
block 6
340
0
102
{BLKREFS
331
A7
102
}
 70
     0
280
     1
281
     0
  0
BLOCK_RECORD
  5
AE
330
1
100
AcDbSymbolTableRecord
100
AcDbBlockTableRecord
  2
block 7
340
0
102
{BLKREFS
331
AF
102
}
 70
     0
280
     1
281
     0
  0
BLOCK_RECORD
  5
B6
330
1
100
AcDbSymbolTableRecord
100
AcDbBlockTableRecord
  2
block 8
340
0
102
{BLKREFS
331
B7
102
}
 70
     0
280
     1
281
     0
  0
BLOCK_RECORD
  5
DB
330
1
100
AcDbSymbolTableRecord
100
AcDbBlockTableRecord
  2
block 9
340
0
102
{BLKREFS
331
DC
102
}
 70
     0
280
     1
281
     0
  0
BLOCK_RECORD
  5
F5
330
1
100
AcDbSymbolTableRecord
100
AcDbBlockTableRecord
  2
block 10
340
0
102
{BLKREFS
331
F6
102
}
 70
     0
280
     1
281
     0
  0
BLOCK_RECORD
  5
113
330
1
100
AcDbSymbolTableRecord
100
AcDbBlockTableRecord
  2
block 11
340
0
102
{BLKREFS
331
114
102
}
 70
     0
280
     1
281
     0
  0
BLOCK_RECORD
  5
133
330
1
100
AcDbSymbolTableRecord
100
AcDbBlockTableRecord
  2
block 12
340
0
102
{BLKREFS
331
134
102
}
 70
     0
280
     1
281
     0
  0
BLOCK_RECORD
  5
158
330
1
100
AcDbSymbolTableRecord
100
AcDbBlockTableRecord
  2
block 13
340
0
102
{BLKREFS
331
159
102
}
 70
     0
280
     1
281
     0
  0
BLOCK_RECORD
  5
160
330
1
100
AcDbSymbolTableRecord
100
AcDbBlockTableRecord
  2
block 14
340
0
102
{BLKREFS
331
161
102
}
 70
     0
280
     1
281
     0
  0
BLOCK_RECORD
  5
168
330
1
100
AcDbSymbolTableRecord
100
AcDbBlockTableRecord
  2
block 15
340
0
102
{BLKREFS
331
169
102
}
 70
     0
280
     1
281
     0
  0
BLOCK_RECORD
  5
170
330
1
100
AcDbSymbolTableRecord
100
AcDbBlockTableRecord
  2
block 16
340
0
102
{BLKREFS
331
171
102
}
 70
     0
280
     1
281
     0
  0
ENDTAB
  0
ENDSEC
  0
SECTION
  2
BLOCKS
  0
BLOCK
  5
20
330
1F
100
AcDbEntity
  8
0
100
AcDbBlockBegin
  2
*Model_Space
 70
     0
 10
0.0
 20
0.0
 30
0.0
  3
*Model_Space
  1

  0
ENDBLK
  5
21
330
1F
100
AcDbEntity
  8
0
100
AcDbBlockEnd
  0
BLOCK
  5
1C
330
1B
100
AcDbEntity
 67
     1
  8
0
100
AcDbBlockBegin
  2
*Paper_Space
 70
     0
 10
0.0
 20
0.0
 30
0.0
  3
*Paper_Space
  1

  0
ENDBLK
  5
1D
330
1B
100
AcDbEntity
 67
     1
  8
0
100
AcDbBlockEnd
  0
BLOCK
  5
24
330
23
100
AcDbEntity
  8
0
100
AcDbBlockBegin
  2
*Paper_Space0
 70
     0
 10
0.0
 20
0.0
 30
0.0
  3
*Paper_Space0
  1

  0
ENDBLK
  5
25
330
23
100
AcDbEntity
  8
0
100
AcDbBlockEnd
  0
BLOCK
  5
43
330
41
100
AcDbEntity
  8
0
100
AcDbBlockBegin
  2
block 2
 70
     0
 10
0.0
 20
0.0
 30
0.0
  3
block 2
  1

  0
SPLINE
  5
45
330
41
100
AcDbEntity
  8
CDTC6
370
     0
100
AcDbSpline
210
0.0
220
0.0
230
1.0
 70
    11
 71
     3
 72
    53
 73
    49
 74
     0
 42
0.0000000001
 43
0.0000000001
 12
1.0
 22
0.0
 32
0.0
 13
1.0
 23
0.0
 33
0.0
 40
0.0
 40
0.0
 40
0.0
 40
0.0
 40
1.0
 40
1.0
 40
1.0
 40
2.0
 40
2.0
 40
2.0
 40
3.0
 40
3.0
 40
3.0
 40
4.0
 40
4.0
 40
4.0
 40
5.0
 40
5.0
 40
5.0
 40
6.0
 40
6.0
 40
6.0
 40
7.0
 40
7.0
 40
7.0
 40
8.0
 40
8.0
 40
8.0
 40
9.0
 40
9.0
 40
9.0
 40
10.0
 40
10.0
 40
10.0
 40
11.0
 40
11.0
 40
11.0
 40
12.0
 40
12.0
 40
12.0
 40
13.0
 40
13.0
 40
13.0
 40
14.0
 40
14.0
 40
14.0
 40
15.0
 40
15.0
 40
15.0
 40
16.0
 40
16.0
 40
16.0
 40
16.0
 10
4.027777777777778
 20
7.25
 30
0.0
 10
4.027777777777778
 20
7.25
 30
0.0
 10
3.340277777777778
 20
7.180555555555555
 30
0.0
 10
3.076388888888889
 20
6.347222222222221
 30
0.0
 10
3.076388888888889
 20
6.347222222222221
 30
0.0
 10
2.888888888888889
 20
5.604166666666666
 30
0.0
 10
3.416666666666667
 20
5.138888888888888
 30
0.0
 10
3.416666666666667
 20
5.138888888888888
 30
0.0
 10
3.868055555555555
 20
4.59375
 30
0.0
 10
4.708333333333333
 20
4.840277777777778
 30
0.0
 10
4.708333333333333
 20
4.840277777777778
 30
0.0
 10
5.347222222222222
 20
5.048611111111111
 30
0.0
 10
5.5
 20
5.715277777777778
 30
0.0
 10
5.5
 20
5.715277777777778
 30
0.0
 10
5.166666666666666
 20
5.534722222222222
 30
0.0
 10
5.166666666666666
 20
5.534722222222222
 30
0.0
 10
5.166666666666666
 20
5.534722222222222
 30
0.0
 10
4.888888888888888
 20
5.520833333333333
 30
0.0
 10
4.888888888888888
 20
5.520833333333333
 30
0.0
 10
4.888888888888888
 20
5.520833333333333
 30
0.0
 10
4.75
 20
5.569444444444444
 30
0.0
 10
4.75
 20
5.569444444444444
 30
0.0
 10
4.75
 20
5.569444444444444
 30
0.0
 10
4.760416666666666
 20
5.548611111111111
 30
0.0
 10
4.729166666666666
 20
5.53125
 30
0.0
 10
4.729166666666666
 20
5.53125
 30
0.0
 10
4.253472222222222
 20
5.284722222222222
 30
0.0
 10
4.253472222222222
 20
5.284722222222222
 30
0.0
 10
4.253472222222222
 20
5.284722222222222
 30
0.0
 10
4.038194444444445
 20
5.263888888888888
 30
0.0
 10
4.038194444444445
 20
5.263888888888888
 30
0.0
 10
4.038194444444445
 20
5.263888888888888
 30
0.0
 10
3.607638888888889
 20
5.427083333333333
 30
0.0
 10
3.607638888888889
 20
5.427083333333333
 30
0.0
 10
3.607638888888889
 20
5.427083333333333
 30
0.0
 10
3.548611111111111
 20
5.545138888888888
 30
0.0
 10
3.548611111111111
 20
5.545138888888888
 30
0.0
 10
3.548611111111111
 20
5.545138888888888
 30
0.0
 10
3.552083333333333
 20
5.569444444444444
 30
0.0
 10
3.552083333333333
 20
5.569444444444444
 30
0.0
 10
3.552083333333333
 20
5.569444444444444
 30
0.0
 10
4.052083333333333
 20
5.8125
 30
0.0
 10
4.052083333333333
 20
5.8125
 30
0.0
 10
4.052083333333333
 20
5.8125
 30
0.0
 10
4.027777777777778
 20
5.822916666666666
 30
0.0
 10
4.027777777777778
 20
5.868055555555555
 30
0.0
 10
4.027777777777778
 20
5.868055555555555
 30
0.0
 10
4.027777777777778
 20
7.25
 30
0.0
 10
4.027777777777778
 20
7.25
 30
0.0
  0
HATCH
  5
46
330
41
100
AcDbEntity
  8
CDTC6
 62
    43
420
 15510365
100
AcDbHatch
 10
0.0
 20
0.0
 30
0.0
210
0.0
220
0.0
230
1.0
  2
SOLID
 70
     1
 71
     0
 91
        1
 92
        1
 93
        1
 72
     4
 94
        3
 73
     0
 74
     1
 95
       53
 96
       49
 40
0.0
 40
0.0
 40
0.0
 40
0.0
 40
1.0
 40
1.0
 40
1.0
 40
2.0
 40
2.0
 40
2.0
 40
3.0
 40
3.0
 40
3.0
 40
4.0
 40
4.0
 40
4.0
 40
5.0
 40
5.0
 40
5.0
 40
6.0
 40
6.0
 40
6.0
 40
7.0
 40
7.0
 40
7.0
 40
8.0
 40
8.0
 40
8.0
 40
9.0
 40
9.0
 40
9.0
 40
10.0
 40
10.0
 40
10.0
 40
11.0
 40
11.0
 40
11.0
 40
12.0
 40
12.0
 40
12.0
 40
13.0
 40
13.0
 40
13.0
 40
14.0
 40
14.0
 40
14.0
 40
15.0
 40
15.0
 40
15.0
 40
16.0
 40
16.0
 40
16.0
 40
16.0
 10
4.027777777777778
 20
7.25
 10
4.027777777777778
 20
7.25
 10
3.340277777777778
 20
7.180555555555555
 10
3.076388888888889
 20
6.347222222222221
 10
3.076388888888889
 20
6.347222222222221
 10
2.888888888888889
 20
5.604166666666666
 10
3.416666666666667
 20
5.138888888888888
 10
3.416666666666667
 20
5.138888888888888
 10
3.868055555555555
 20
4.59375
 10
4.708333333333333
 20
4.840277777777778
 10
4.708333333333333
 20
4.840277777777778
 10
5.347222222222222
 20
5.048611111111111
 10
5.5
 20
5.715277777777778
 10
5.5
 20
5.715277777777778
 10
5.166666666666666
 20
5.534722222222222
 10
5.166666666666666
 20
5.534722222222222
 10
5.166666666666666
 20
5.534722222222222
 10
4.888888888888888
 20
5.520833333333333
 10
4.888888888888888
 20
5.520833333333333
 10
4.888888888888888
 20
5.520833333333333
 10
4.75
 20
5.569444444444444
 10
4.75
 20
5.569444444444444
 10
4.75
 20
5.569444444444444
 10
4.760416666666666
 20
5.548611111111111
 10
4.729166666666666
 20
5.53125
 10
4.729166666666666
 20
5.53125
 10
4.253472222222222
 20
5.284722222222222
 10
4.253472222222222
 20
5.284722222222222
 10
4.253472222222222
 20
5.284722222222222
 10
4.038194444444445
 20
5.263888888888888
 10
4.038194444444445
 20
5.263888888888888
 10
4.038194444444445
 20
5.263888888888888
 10
3.607638888888889
 20
5.427083333333333
 10
3.607638888888889
 20
5.427083333333333
 10
3.607638888888889
 20
5.427083333333333
 10
3.548611111111111
 20
5.545138888888888
 10
3.548611111111111
 20
5.545138888888888
 10
3.548611111111111
 20
5.545138888888888
 10
3.552083333333333
 20
5.569444444444444
 10
3.552083333333333
 20
5.569444444444444
 10
3.552083333333333
 20
5.569444444444444
 10
4.052083333333333
 20
5.8125
 10
4.052083333333333
 20
5.8125
 10
4.052083333333333
 20
5.8125
 10
4.027777777777778
 20
5.822916666666666
 10
4.027777777777778
 20
5.868055555555555
 10
4.027777777777778
 20
5.868055555555555
 10
4.027777777777778
 20
7.25
 10
4.027777777777778
 20
7.25
 97
        0
 97
        0
 75
     2
 76
     1
 98
        0
  0
SPLINE
  5
47
330
41
100
AcDbEntity
  8
CDTC6
370
     0
100
AcDbSpline
210
0.0
220
0.0
230
1.0
 70
    11
 71
     3
 72
    17
 73
    13
 74
     0
 42
0.0000000001
 43
0.0000000001
 12
1.0
 22
0.0
 32
0.0
 13
1.0
 23
0.0
 33
0.0
 40
0.0
 40
0.0
 40
0.0
 40
0.0
 40
1.0
 40
1.0
 40
1.0
 40
2.0
 40
2.0
 40
2.0
 40
3.0
 40
3.0
 40
3.0
 40
4.0
 40
4.0
 40
4.0
 40
4.0
 10
4.4375
 20
7.270833333333333
 30
0.0
 10
4.4375
 20
7.270833333333333
 30
0.0
 10
4.4375
 20
6.810187327960193
 30
0.0
 10
4.4375
 20
6.810187327960193
 30
0.0
 10
4.4375
 20
6.810187327960193
 30
0.0
 10
4.46065277777777
 20
6.847222222222221
 30
0.0
 10
4.479166666666666
 20
6.854166666666666
 30
0.0
 10
4.479166666666666
 20
6.854166666666666
 30
0.0
 10
4.479166666666666
 20
7.268520649715052
 30
0.0
 10
4.479166666666666
 20
7.268520649715052
 30
0.0
 10
4.479166666666666
 20
7.268520649715052
 30
0.0
 10
4.4375
 20
7.270833333333333
 30
0.0
 10
4.4375
 20
7.270833333333333
 30
0.0
  0
HATCH
  5
48
330
41
100
AcDbEntity
  8
CDTC6
 62
    43
420
 15510365
100
AcDbHatch
 10
0.0
 20
0.0
 30
0.0
210
0.0
220
0.0
230
1.0
  2
SOLID
 70
     1
 71
     0
 91
        1
 92
        1
 93
        1
 72
     4
 94
        3
 73
     0
 74
     1
 95
       17
 96
       13
 40
0.0
 40
0.0
 40
0.0
 40
0.0
 40
1.0
 40
1.0
 40
1.0
 40
2.0
 40
2.0
 40
2.0
 40
3.0
 40
3.0
 40
3.0
 40
4.0
 40
4.0
 40
4.0
 40
4.0
 10
4.4375
 20
7.270833333333333
 10
4.4375
 20
7.270833333333333
 10
4.4375
 20
6.810187327960193
 10
4.4375
 20
6.810187327960193
 10
4.4375
 20
6.810187327960193
 10
4.46065277777777
 20
6.847222222222221
 10
4.479166666666666
 20
6.854166666666666
 10
4.479166666666666
 20
6.854166666666666
 10
4.479166666666666
 20
7.268520649715052
 10
4.479166666666666
 20
7.268520649715052
 10
4.479166666666666
 20
7.268520649715052
 10
4.4375
 20
7.270833333333333
 10
4.4375
 20
7.270833333333333
 97
        0
 97
        0
 75
     2
 76
     1
 98
        0
  0
SPLINE
  5
49
330
41
100
AcDbEntity
  8
CDTC6
370
     0
100
AcDbSpline
210
0.0
220
0.0
230
1.0
 70
    11
 71
     3
 72
    17
 73
    13
 74
     0
 42
0.0000000001
 43
0.0000000001
 12
1.0
 22
0.0
 32
0.0
 13
1.0
 23
0.0
 33
0.0
 40
0.0
 40
0.0
 40
0.0
 40
0.0
 40
1.0
 40
1.0
 40
1.0
 40
2.0
 40
2.0
 40
2.0
 40
3.0
 40
3.0
 40
3.0
 40
4.0
 40
4.0
 40
4.0
 40
4.0
 10
4.4375
 20
6.731478996615199
 30
0.0
 10
4.4375
 20
6.731478996615199
 30
0.0
 10
4.4375
 20
6.564812334158887
 30
0.0
 10
4.4375
 20
6.564812334158887
 30
0.0
 10
4.4375
 20
6.564812334158887
 30
0.0
 10
4.479166666666666
 20
6.469909558778554
 30
0.0
 10
4.479166666666666
 20
6.469909558778554
 30
0.0
 10
4.479166666666666
 20
6.469909558778554
 30
0.0
 10
4.479166666666666
 20
6.708333333333333
 30
0.0
 10
4.479166666666666
 20
6.708333333333333
 30
0.0
 10
4.479166666666666
 20
6.708333333333333
 30
0.0
 10
4.446763888888881
 20
6.712958333333328
 30
0.0
 10
4.4375
 20
6.731478996615199
 30
0.0
  0
HATCH
  5
4A
330
41
100
AcDbEntity
  8
CDTC6
 62
    43
420
 15510365
100
AcDbHatch
 10
0.0
 20
0.0
 30
0.0
210
0.0
220
0.0
230
1.0
  2
SOLID
 70
     1
 71
     0
 91
        1
 92
        1
 93
        1
 72
     4
 94
        3
 73
     0
 74
     1
 95
       17
 96
       13
 40
0.0
 40
0.0
 40
0.0
 40
0.0
 40
1.0
 40
1.0
 40
1.0
 40
2.0
 40
2.0
 40
2.0
 40
3.0
 40
3.0
 40
3.0
 40
4.0
 40
4.0
 40
4.0
 40
4.0
 10
4.4375
 20
6.731478996615199
 10
4.4375
 20
6.731478996615199
 10
4.4375
 20
6.564812334158887
 10
4.4375
 20
6.564812334158887
 10
4.4375
 20
6.564812334158887
 10
4.479166666666666
 20
6.469909558778554
 10
4.479166666666666
 20
6.469909558778554
 10
4.479166666666666
 20
6.469909558778554
 10
4.479166666666666
 20
6.708333333333333
 10
4.479166666666666
 20
6.708333333333333
 10
4.479166666666666
 20
6.708333333333333
 10
4.446763888888881
 20
6.712958333333328
 10
4.4375
 20
6.731478996615199
 97
        0
 97
        0
 75
     2
 76
     1
 98
        0
  0
SPLINE
  5
4B
330
41
100
AcDbEntity
  8
CDTC6
370
     0
100
AcDbSpline
210
0.0
220
0.0
230
1.0
 70
    11
 71
     3
 72
    17
 73
    13
 74
     0
 42
0.0000000001
 43
0.0000000001
 12
1.0
 22
0.0
 32
0.0
 13
1.0
 23
0.0
 33
0.0
 40
0.0
 40
0.0
 40
0.0
 40
0.0
 40
1.0
 40
1.0
 40
1.0
 40
2.0
 40
2.0
 40
2.0
 40
3.0
 40
3.0
 40
3.0
 40
4.0
 40
4.0
 40
4.0
 40
4.0
 10
4.675930555555547
 20
7.222222222222221
 30
0.0
 10
4.675930555555547
 20
7.222222222222221
 30
0.0
 10
4.675930555555547
 20
6.888888888888888
 30
0.0
 10
4.675930555555547
 20
6.888888888888888
 30
0.0
 10
4.675930555555547
 20
6.888888888888888
 30
0.0
 10
4.699083333333343
 20
6.928242880533414
 30
0.0
 10
4.717597222222214
 20
6.935187324802428
 30
0.0
 10
4.717597222222214
 20
6.935187324802428
 30
0.0
 10
4.717597222222214
 20
7.210645651177098
 30
0.0
 10
4.717597222222214
 20
7.210645651177098
 30
0.0
 10
4.717597222222214
 20
7.210645651177098
 30
0.0
 10
4.675930555555547
 20
7.222222222222221
 30
0.0
 10
4.675930555555547
 20
7.222222222222221
 30
0.0
  0
HATCH
  5
4C
330
41
100
AcDbEntity
  8
CDTC6
 62
    43
420
 15510365
100
AcDbHatch
 10
0.0
 20
0.0
 30
0.0
210
0.0
220
0.0
230
1.0
  2
SOLID
 70
     1
 71
     0
 91
        1
 92
        1
 93
        1
 72
     4
 94
        3
 73
     0
 74
     1
 95
       17
 96
       13
 40
0.0
 40
0.0
 40
0.0
 40
0.0
 40
1.0
 40
1.0
 40
1.0
 40
2.0
 40
2.0
 40
2.0
 40
3.0
 40
3.0
 40
3.0
 40
4.0
 40
4.0
 40
4.0
 40
4.0
 10
4.675930555555547
 20
7.222222222222221
 10
4.675930555555547
 20
7.222222222222221
 10
4.675930555555547
 20
6.888888888888888
 10
4.675930555555547
 20
6.888888888888888
 10
4.675930555555547
 20
6.888888888888888
 10
4.699083333333343
 20
6.928242880533414
 10
4.717597222222214
 20
6.935187324802428
 10
4.717597222222214
 20
6.935187324802428
 10
4.717597222222214
 20
7.210645651177098
 10
4.717597222222214
 20
7.210645651177098
 10
4.717597222222214
 20
7.210645651177098
 10
4.675930555555547
 20
7.222222222222221
 10
4.675930555555547
 20
7.222222222222221
 97
        0
 97
        0
 75
     2
 76
     1
 98
        0
  0
SPLINE
  5
4D
330
41
100
AcDbEntity
  8
CDTC6
370
     0
100
AcDbSpline
210
0.0
220
0.0
230
1.0
 70
    11
 71
     3
 72
    20
 73
    16
 74
     0
 42
0.0000000001
 43
0.0000000001
 12
1.0
 22
0.0
 32
0.0
 13
1.0
 23
0.0
 33
0.0
 40
0.0
 40
0.0
 40
0.0
 40
0.0
 40
1.0
 40
1.0
 40
1.0
 40
2.0
 40
2.0
 40
2.0
 40
3.0
 40
3.0
 40
3.0
 40
4.0
 40
4.0
 40
4.0
 40
5.0
 40
5.0
 40
5.0
 40
5.0
 10
4.675930555555547
 20
6.819444444444444
 30
0.0
 10
4.675930555555547
 20
6.819444444444444
 30
0.0
 10
4.675930555555547
 20
6.305555555555555
 30
0.0
 10
4.675930555555547
 20
6.305555555555555
 30
0.0
 10
4.675930555555547
 20
6.305555555555555
 30
0.0
 10
4.689819444444437
 20
6.284722222222221
 30
0.0
 10
4.701388888888888
 20
6.291666666666666
 30
0.0
 10
4.701388888888888
 20
6.291666666666666
 30
0.0
 10
4.717597222222214
 20
6.307867896205405
 30
0.0
 10
4.717597222222214
 20
6.319444444444444
 30
0.0
 10
4.717597222222214
 20
6.319444444444444
 30
0.0
 10
4.717597222222214
 20
6.793978995036317
 30
0.0
 10
4.717597222222214
 20
6.793978995036317
 30
0.0
 10
4.717597222222214
 20
6.793978995036317
 30
0.0
 10
4.682874999999992
 20
6.796298439422166
 30
0.0
 10
4.675930555555547
 20
6.819444444444444
 30
0.0
  0
HATCH
  5
4E
330
41
100
AcDbEntity
  8
CDTC6
 62
    43
420
 15510365
100
AcDbHatch
 10
0.0
 20
0.0
 30
0.0
210
0.0
220
0.0
230
1.0
  2
SOLID
 70
     1
 71
     0
 91
        1
 92
        1
 93
        1
 72
     4
 94
        3
 73
     0
 74
     1
 95
       20
 96
       16
 40
0.0
 40
0.0
 40
0.0
 40
0.0
 40
1.0
 40
1.0
 40
1.0
 40
2.0
 40
2.0
 40
2.0
 40
3.0
 40
3.0
 40
3.0
 40
4.0
 40
4.0
 40
4.0
 40
5.0
 40
5.0
 40
5.0
 40
5.0
 10
4.675930555555547
 20
6.819444444444444
 10
4.675930555555547
 20
6.819444444444444
 10
4.675930555555547
 20
6.305555555555555
 10
4.675930555555547
 20
6.305555555555555
 10
4.675930555555547
 20
6.305555555555555
 10
4.689819444444437
 20
6.284722222222221
 10
4.701388888888888
 20
6.291666666666666
 10
4.701388888888888
 20
6.291666666666666
 10
4.717597222222214
 20
6.307867896205405
 10
4.717597222222214
 20
6.319444444444444
 10
4.717597222222214
 20
6.319444444444444
 10
4.717597222222214
 20
6.793978995036317
 10
4.717597222222214
 20
6.793978995036317
 10
4.717597222222214
 20
6.793978995036317
 10
4.682874999999992
 20
6.796298439422166
 10
4.675930555555547
 20
6.819444444444444
 97
        0
 97
        0
 75
     2
 76
     1
 98
        0
  0
SPLINE
  5
4F
330
41
100
AcDbEntity
  8
CDTC6
370
     0
100
AcDbSpline
210
0.0
220
0.0
230
1.0
 70
    11
 71
     3
 72
    17
 73
    13
 74
     0
 42
0.0000000001
 43
0.0000000001
 12
1.0
 22
0.0
 32
0.0
 13
1.0
 23
0.0
 33
0.0
 40
0.0
 40
0.0
 40
0.0
 40
0.0
 40
1.0
 40
1.0
 40
1.0
 40
2.0
 40
2.0
 40
2.0
 40
3.0
 40
3.0
 40
3.0
 40
4.0
 40
4.0
 40
4.0
 40
4.0
 10
4.921291666666674
 20
7.113423431410915
 30
0.0
 10
4.921291666666674
 20
7.113423431410915
 30
0.0
 10
4.921291666666674
 20
7.0
 30
0.0
 10
4.921291666666674
 20
7.0
 30
0.0
 10
4.921291666666674
 20
7.0
 30
0.0
 10
4.946749999999989
 20
7.034722222222221
 30
0.0
 10
4.962958333333341
 20
7.041666666666666
 30
0.0
 10
4.962958333333341
 20
7.041666666666666
 30
0.0
 10
4.962958333333341
 20
7.087965098720714
 30
0.0
 10
4.962958333333341
 20
7.087965098720714
 30
0.0
 10
4.962958333333341
 20
7.087965098720714
 30
0.0
 10
4.921291666666674
 20
7.113423431410915
 30
0.0
 10
4.921291666666674
 20
7.113423431410915
 30
0.0
  0
HATCH
  5
50
330
41
100
AcDbEntity
  8
CDTC6
 62
    43
420
 15510365
100
AcDbHatch
 10
0.0
 20
0.0
 30
0.0
210
0.0
220
0.0
230
1.0
  2
SOLID
 70
     1
 71
     0
 91
        1
 92
        1
 93
        1
 72
     4
 94
        3
 73
     0
 74
     1
 95
       17
 96
       13
 40
0.0
 40
0.0
 40
0.0
 40
0.0
 40
1.0
 40
1.0
 40
1.0
 40
2.0
 40
2.0
 40
2.0
 40
3.0
 40
3.0
 40
3.0
 40
4.0
 40
4.0
 40
4.0
 40
4.0
 10
4.921291666666674
 20
7.113423431410915
 10
4.921291666666674
 20
7.113423431410915
 10
4.921291666666674
 20
7.0
 10
4.921291666666674
 20
7.0
 10
4.921291666666674
 20
7.0
 10
4.946749999999989
 20
7.034722222222221
 10
4.962958333333341
 20
7.041666666666666
 10
4.962958333333341
 20
7.041666666666666
 10
4.962958333333341
 20
7.087965098720714
 10
4.962958333333341
 20
7.087965098720714
 10
4.962958333333341
 20
7.087965098720714
 10
4.921291666666674
 20
7.113423431410915
 10
4.921291666666674
 20
7.113423431410915
 97
        0
 97
        0
 75
     2
 76
     1
 98
        0
  0
SPLINE
  5
51
330
41
100
AcDbEntity
  8
CDTC6
370
     0
100
AcDbSpline
210
0.0
220
0.0
230
1.0
 70
    11
 71
     3
 72
    20
 73
    16
 74
     0
 42
0.0000000001
 43
0.0000000001
 12
1.0
 22
0.0
 32
0.0
 13
1.0
 23
0.0
 33
0.0
 40
0.0
 40
0.0
 40
0.0
 40
0.0
 40
1.0
 40
1.0
 40
1.0
 40
2.0
 40
2.0
 40
2.0
 40
3.0
 40
3.0
 40
3.0
 40
4.0
 40
4.0
 40
4.0
 40
5.0
 40
5.0
 40
5.0
 40
5.0
 10
4.923611111111111
 20
6.94213176907144
 30
0.0
 10
4.923611111111111
 20
6.94213176907144
 30
0.0
 10
4.923611111111111
 20
6.416666666666666
 30
0.0
 10
4.923611111111111
 20
6.416666666666666
 30
0.0
 10
4.923611111111111
 20
6.416666666666666
 30
0.0
 10
4.930569444444447
 20
6.388888888888888
 30
0.0
 10
4.946763888888881
 20
6.395833333333333
 30
0.0
 10
4.946763888888881
 20
6.395833333333333
 30
0.0
 10
4.960638888888878
 20
6.416659560123763
 30
0.0
 10
4.962958333333341
 20
6.432867893047639
 30
0.0
 10
4.962958333333341
 20
6.432867893047639
 30
0.0
 10
4.962958333333341
 20
6.909722222222221
 30
0.0
 10
4.962958333333341
 20
6.909722222222221
 30
0.0
 10
4.962958333333341
 20
6.909722222222221
 30
0.0
 10
4.932874999999992
 20
6.921298436264401
 30
0.0
 10
4.923611111111111
 20
6.94213176907144
 30
0.0
  0
HATCH
  5
52
330
41
100
AcDbEntity
  8
CDTC6
 62
    43
420
 15510365
100
AcDbHatch
 10
0.0
 20
0.0
 30
0.0
210
0.0
220
0.0
230
1.0
  2
SOLID
 70
     1
 71
     0
 91
        1
 92
        1
 93
        1
 72
     4
 94
        3
 73
     0
 74
     1
 95
       20
 96
       16
 40
0.0
 40
0.0
 40
0.0
 40
0.0
 40
1.0
 40
1.0
 40
1.0
 40
2.0
 40
2.0
 40
2.0
 40
3.0
 40
3.0
 40
3.0
 40
4.0
 40
4.0
 40
4.0
 40
5.0
 40
5.0
 40
5.0
 40
5.0
 10
4.923611111111111
 20
6.94213176907144
 10
4.923611111111111
 20
6.94213176907144
 10
4.923611111111111
 20
6.416666666666666
 10
4.923611111111111
 20
6.416666666666666
 10
4.923611111111111
 20
6.416666666666666
 10
4.930569444444447
 20
6.388888888888888
 10
4.946763888888881
 20
6.395833333333333
 10
4.946763888888881
 20
6.395833333333333
 10
4.960638888888878
 20
6.416659560123763
 10
4.962958333333341
 20
6.432867893047639
 10
4.962958333333341
 20
6.432867893047639
 10
4.962958333333341
 20
6.909722222222221
 10
4.962958333333341
 20
6.909722222222221
 10
4.962958333333341
 20
6.909722222222221
 10
4.932874999999992
 20
6.921298436264401
 10
4.923611111111111
 20
6.94213176907144
 97
        0
 97
        0
 75
     2
 76
     1
 98
        0
  0
ENDBLK
  5
44
330
41
100
AcDbEntity
  8
0
100
AcDbBlockEnd
  0
BLOCK
  5
55
330
53
100
AcDbEntity
  8
0
100
AcDbBlockBegin
  2
block 3
 70
     0
 10
0.0
 20
0.0
 30
0.0
  3
block 3
  1

  0
POLYLINE
  5
57
330
53
100
AcDbEntity
  8
CDTC6
 62
   250
420
  2301728
370
    35
100
AcDb2dPolyline
 66
     1
 10
0.0
 20
0.0
 30
0.0
  0
VERTEX
  5
58
330
57
100
AcDbEntity
  8
CDTC6
 62
   250
420
  2301728
370
    35
100
AcDbVertex
100
AcDb2dVertex
 10
3.103895754922329
 20
5.634419302107037
 30
0.0
  0
VERTEX
  5
59
330
57
100
AcDbEntity
  8
CDTC6
 62
   250
420
  2301728
370
    35
100
AcDbVertex
100
AcDb2dVertex
 10
5.201388888888888
 20
6.548611111111111
 30
0.0
  0
SEQEND
  5
5A
330
57
100
AcDbEntity
  8
CDTC6
 62
   250
420
  2301728
370
    35
  0
POLYLINE
  5
5B
330
53
100
AcDbEntity
  8
CDTC6
 62
   250
420
  2301728
370
    25
100
AcDb2dPolyline
 66
     1
 10
0.0
 20
0.0
 30
0.0
  0
VERTEX
  5
5C
330
5B
100
AcDbEntity
  8
CDTC6
 62
   250
420
  2301728
370
    25
100
AcDbVertex
100
AcDb2dVertex
 10
4.888888888888888
 20
4.930555555555555
 30
0.0
  0
VERTEX
  5
5D
330
5B
100
AcDbEntity
  8
CDTC6
 62
   250
420
  2301728
370
    25
100
AcDbVertex
100
AcDb2dVertex
 10
3.109626310333119
 20
5.614359580391565
 30
0.0
  0
SEQEND
  5
5E
330
5B
100
AcDbEntity
  8
CDTC6
 62
   250
420
  2301728
370
    25
  0
ENDBLK
  5
56
330
53
100
AcDbEntity
  8
0
100
AcDbBlockEnd
  0
BLOCK
  5
61
330
5F
100
AcDbEntity
  8
0
100
AcDbBlockBegin
  2
block 4
 70
     0
 10
0.0
 20
0.0
 30
0.0
  3
block 4
  1

  0
SPLINE
  5
63
330
5F
100
AcDbEntity
  8
CDTC6
370
     0
100
AcDbSpline
210
0.0
220
0.0
230
1.0
 70
    11
 71
     3
 72
   137
 73
   133
 74
     0
 42
0.0000000001
 43
0.0000000001
 12
1.0
 22
0.0
 32
0.0
 13
1.0
 23
0.0
 33
0.0
 40
0.0
 40
0.0
 40
0.0
 40
0.0
 40
1.0
 40
1.0
 40
1.0
 40
2.0
 40
2.0
 40
2.0
 40
3.0
 40
3.0
 40
3.0
 40
4.0
 40
4.0
 40
4.0
 40
5.0
 40
5.0
 40
5.0
 40
6.0
 40
6.0
 40
6.0
 40
7.0
 40
7.0
 40
7.0
 40
8.0
 40
8.0
 40
8.0
 40
9.0
 40
9.0
 40
9.0
 40
10.0
 40
10.0
 40
10.0
 40
11.0
 40
11.0
 40
11.0
 40
12.0
 40
12.0
 40
12.0
 40
13.0
 40
13.0
 40
13.0
 40
14.0
 40
14.0
 40
14.0
 40
15.0
 40
15.0
 40
15.0
 40
16.0
 40
16.0
 40
16.0
 40
17.0
 40
17.0
 40
17.0
 40
18.0
 40
18.0
 40
18.0
 40
19.0
 40
19.0
 40
19.0
 40
20.0
 40
20.0
 40
20.0
 40
21.0
 40
21.0
 40
21.0
 40
22.0
 40
22.0
 40
22.0
 40
23.0
 40
23.0
 40
23.0
 40
24.0
 40
24.0
 40
24.0
 40
25.0
 40
25.0
 40
25.0
 40
26.0
 40
26.0
 40
26.0
 40
27.0
 40
27.0
 40
27.0
 40
28.0
 40
28.0
 40
28.0
 40
29.0
 40
29.0
 40
29.0
 40
30.0
 40
30.0
 40
30.0
 40
31.0
 40
31.0
 40
31.0
 40
32.0
 40
32.0
 40
32.0
 40
33.0
 40
33.0
 40
33.0
 40
34.0
 40
34.0
 40
34.0
 40
35.0
 40
35.0
 40
35.0
 40
36.0
 40
36.0
 40
36.0
 40
37.0
 40
37.0
 40
37.0
 40
38.0
 40
38.0
 40
38.0
 40
39.0
 40
39.0
 40
39.0
 40
40.0
 40
40.0
 40
40.0
 40
41.0
 40
41.0
 40
41.0
 40
42.0
 40
42.0
 40
42.0
 40
43.0
 40
43.0
 40
43.0
 40
44.0
 40
44.0
 40
44.0
 40
44.0
 10
5.511569444444452
 20
5.726854021994161
 30
0.0
 10
5.511569444444452
 20
5.726854021994161
 30
0.0
 10
5.636583333333343
 20
6.166673455327833
 30
0.0
 10
5.418986111111104
 20
6.587965111351776
 30
0.0
 10
5.418986111111104
 20
6.587965111351776
 30
0.0
 10
5.277777777777778
 20
6.902777777777778
 30
0.0
 10
4.972222222222222
 20
7.090277777777778
 30
0.0
 10
4.972222222222222
 20
7.090277777777778
 30
0.0
 10
4.96875
 20
7.048611111111111
 30
0.0
 10
4.96875
 20
7.048611111111111
 30
0.0
 10
4.96875
 20
7.048611111111111
 30
0.0
 10
5.052083333333333
 20
7.065972222222221
 30
0.0
 10
5.059027777777778
 20
7.003472222222221
 30
0.0
 10
5.059027777777778
 20
7.003472222222221
 30
0.0
 10
5.079861111111111
 20
6.916666666666666
 30
0.0
 10
5.020833333333333
 20
6.902777777777778
 30
0.0
 10
5.020833333333333
 20
6.902777777777778
 30
0.0
 10
4.989583333333333
 20
6.892361111111111
 30
0.0
 10
4.96875
 20
6.90625
 30
0.0
 10
4.96875
 20
6.90625
 30
0.0
 10
4.96875
 20
6.409722222222221
 30
0.0
 10
4.96875
 20
6.409722222222221
 30
0.0
 10
4.96875
 20
6.409722222222221
 30
0.0
 10
4.961805555555555
 20
6.393520671819411
 30
0.0
 10
4.944444444444444
 20
6.393520671819411
 30
0.0
 10
4.944444444444444
 20
6.393520671819411
 30
0.0
 10
4.923611111111111
 20
6.386576227550399
 30
0.0
 10
4.927083333333333
 20
6.416666666666666
 30
0.0
 10
4.927083333333333
 20
6.416666666666666
 30
0.0
 10
4.927083333333333
 20
7.114583333333333
 30
0.0
 10
4.927083333333333
 20
7.114583333333333
 30
0.0
 10
4.927083333333333
 20
7.114583333333333
 30
0.0
 10
4.766208333333325
 20
7.199076207024922
 30
0.0
 10
4.724541666666659
 20
7.208333333333333
 30
0.0
 10
4.724541666666659
 20
7.208333333333333
 30
0.0
 10
4.724541666666659
 20
6.9375
 30
0.0
 10
4.724541666666659
 20
6.9375
 30
0.0
 10
4.724541666666659
 20
6.9375
 30
0.0
 10
4.793986111111104
 20
6.949076213340454
 30
0.0
 10
4.807874999999992
 20
6.875
 30
0.0
 10
4.807874999999992
 20
6.875
 30
0.0
 10
4.805555555555555
 20
6.831013888888883
 30
0.0
 10
4.784722222222222
 20
6.807867883574342
 30
0.0
 10
4.784722222222222
 20
6.807867883574342
 30
0.0
 10
4.759249999999989
 20
6.77777066211244
 30
0.0
 10
4.719902777777785
 20
6.793978995036317
 30
0.0
 10
4.719902777777785
 20
6.793978995036317
 30
0.0
 10
4.719902777777785
 20
6.314812340474418
 30
0.0
 10
4.719902777777785
 20
6.314812340474418
 30
0.0
 10
4.719902777777785
 20
6.314812340474418
 30
0.0
 10
4.715277777777778
 20
6.289347222222217
 30
0.0
 10
4.6875
 20
6.291666666666666
 30
0.0
 10
4.6875
 20
6.291666666666666
 30
0.0
 10
4.680569444444447
 20
6.307875000000005
 30
0.0
 10
4.675930555555547
 20
6.319444444444444
 30
0.0
 10
4.675930555555547
 20
6.319444444444444
 30
0.0
 10
4.682874999999992
 20
6.831020660767232
 30
0.0
 10
4.682874999999992
 20
6.831020660767232
 30
0.0
 10
4.682874999999992
 20
6.831020660767232
 30
0.0
 10
4.664347222222229
 20
6.84953454918842
 30
0.0
 10
4.680555555555555
 20
6.891201214802499
 30
0.0
 10
4.680555555555555
 20
6.891201214802499
 30
0.0
 10
4.680555555555555
 20
7.224534539715123
 30
0.0
 10
4.680555555555555
 20
7.224534539715123
 30
0.0
 10
4.680555555555555
 20
7.224534539715123
 30
0.0
 10
4.518513888888896
 20
7.270833333333333
 30
0.0
 10
4.483791666666674
 20
7.270833333333333
 30
0.0
 10
4.483791666666674
 20
7.270833333333333
 30
0.0
 10
4.483791666666674
 20
6.856478993457434
 30
0.0
 10
4.483791666666674
 20
6.856478993457434
 30
0.0
 10
4.483791666666674
 20
6.856478993457434
 30
0.0
 10
4.560180555555562
 20
6.858798437843297
 30
0.0
 10
4.569444444444444
 20
6.805555555555555
 30
0.0
 10
4.569444444444444
 20
6.805555555555555
 30
0.0
 10
4.576402777777781
 20
6.740742885270063
 30
0.0
 10
4.537041666666659
 20
6.715277777777778
 30
0.0
 10
4.537041666666659
 20
6.715277777777778
 30
0.0
 10
4.5
 20
6.696756775270134
 30
0.0
 10
4.486111111111111
 20
6.71064566380816
 30
0.0
 10
4.486111111111111
 20
6.71064566380816
 30
0.0
 10
4.486111111111111
 20
6.474534558661717
 30
0.0
 10
4.486111111111111
 20
6.474534558661717
 30
0.0
 10
4.486111111111111
 20
6.474534558661717
 30
0.0
 10
4.442125000000007
 20
6.569444444444444
 30
0.0
 10
4.442125000000007
 20
6.569444444444444
 30
0.0
 10
4.442125000000007
 20
6.569444444444444
 30
0.0
 10
4.442125000000007
 20
6.740742885270063
 30
0.0
 10
4.442125000000007
 20
6.740742885270063
 30
0.0
 10
4.442125000000007
 20
6.740742885270063
 30
0.0
 10
4.428236111111119
 20
6.789353995153154
 30
0.0
 10
4.444444444444445
 20
6.817131772229206
 30
0.0
 10
4.444444444444445
 20
6.817131772229206
 30
0.0
 10
4.444444444444445
 20
7.275465093984065
 30
0.0
 10
4.444444444444445
 20
7.275465093984065
 30
0.0
 10
4.444444444444445
 20
7.275465093984065
 30
0.0
 10
4.238423504039525
 20
7.303236111111105
 30
0.0
 10
4.030090175969134
 20
7.252312316791176
 30
0.0
 10
4.030090175969134
 20
7.252312316791176
 30
0.0
 10
4.030090175969134
 20
5.842590130181533
 30
0.0
 10
4.030090175969134
 20
5.842590130181533
 30
0.0
 10
4.030090175969134
 20
5.842590130181533
 30
0.0
 10
4.032402777777772
 20
5.828708333333338
 30
0.0
 10
4.064812397314199
 20
5.810187353222318
 30
0.0
 10
4.064812397314199
 20
5.810187353222318
 30
0.0
 10
3.548611111111111
 20
5.576388888888888
 30
0.0
 10
3.548611111111111
 20
5.576388888888888
 30
0.0
 10
3.548611111111111
 20
5.576388888888888
 30
0.0
 10
3.548611111111111
 20
5.550923470882986
 30
0.0
 10
3.548611111111111
 20
5.550923470882986
 30
0.0
 10
3.548611111111111
 20
5.550923470882986
 30
0.0
 10
3.60879851994519
 20
5.430555555555555
 30
0.0
 10
3.60879851994519
 20
5.430555555555555
 30
0.0
 10
3.60879851994519
 20
5.430555555555555
 30
0.0
 10
4.039354064623997
 20
5.263888888888888
 30
0.0
 10
4.039354064623997
 20
5.263888888888888
 30
0.0
 10
4.039354064623997
 20
5.263888888888888
 30
0.0
 10
4.259256836846563
 20
5.289347222222229
 30
0.0
 10
4.259256836846563
 20
5.289347222222229
 30
0.0
 10
4.259256836846563
 20
5.289347222222229
 30
0.0
 10
4.736111111111111
 20
5.534722222222222
 30
0.0
 10
4.736111111111111
 20
5.534722222222222
 30
0.0
 10
4.736111111111111
 20
5.534722222222222
 30
0.0
 10
4.754625000000007
 20
5.548617915385686
 30
0.0
 10
4.754625000000007
 20
5.574076248075875
 30
0.0
 10
4.754625000000007
 20
5.574076248075875
 30
0.0
 10
4.886569444444452
 20
5.525465138192784
 30
0.0
 10
4.886569444444452
 20
5.525465138192784
 30
0.0
 10
4.886569444444452
 20
5.525465138192784
 30
0.0
 10
5.166666666666666
 20
5.537034582344959
 30
0.0
 10
5.166666666666666
 20
5.537034582344959
 30
0.0
 10
5.166666666666666
 20
5.537034582344959
 30
0.0
 10
5.511569444444452
 20
5.726854021994161
 30
0.0
 10
5.511569444444452
 20
5.726854021994161
 30
0.0
  0
HATCH
  5
64
330
5F
100
AcDbEntity
  8
CDTC6
 62
   254
420
 13358815
100
AcDbHatch
 10
0.0
 20
0.0
 30
0.0
210
0.0
220
0.0
230
1.0
  2
SOLID
 70
     1
 71
     0
 91
        1
 92
        1
 93
        1
 72
     4
 94
        3
 73
     0
 74
     1
 95
      137
 96
      133
 40
0.0
 40
0.0
 40
0.0
 40
0.0
 40
1.0
 40
1.0
 40
1.0
 40
2.0
 40
2.0
 40
2.0
 40
3.0
 40
3.0
 40
3.0
 40
4.0
 40
4.0
 40
4.0
 40
5.0
 40
5.0
 40
5.0
 40
6.0
 40
6.0
 40
6.0
 40
7.0
 40
7.0
 40
7.0
 40
8.0
 40
8.0
 40
8.0
 40
9.0
 40
9.0
 40
9.0
 40
10.0
 40
10.0
 40
10.0
 40
11.0
 40
11.0
 40
11.0
 40
12.0
 40
12.0
 40
12.0
 40
13.0
 40
13.0
 40
13.0
 40
14.0
 40
14.0
 40
14.0
 40
15.0
 40
15.0
 40
15.0
 40
16.0
 40
16.0
 40
16.0
 40
17.0
 40
17.0
 40
17.0
 40
18.0
 40
18.0
 40
18.0
 40
19.0
 40
19.0
 40
19.0
 40
20.0
 40
20.0
 40
20.0
 40
21.0
 40
21.0
 40
21.0
 40
22.0
 40
22.0
 40
22.0
 40
23.0
 40
23.0
 40
23.0
 40
24.0
 40
24.0
 40
24.0
 40
25.0
 40
25.0
 40
25.0
 40
26.0
 40
26.0
 40
26.0
 40
27.0
 40
27.0
 40
27.0
 40
28.0
 40
28.0
 40
28.0
 40
29.0
 40
29.0
 40
29.0
 40
30.0
 40
30.0
 40
30.0
 40
31.0
 40
31.0
 40
31.0
 40
32.0
 40
32.0
 40
32.0
 40
33.0
 40
33.0
 40
33.0
 40
34.0
 40
34.0
 40
34.0
 40
35.0
 40
35.0
 40
35.0
 40
36.0
 40
36.0
 40
36.0
 40
37.0
 40
37.0
 40
37.0
 40
38.0
 40
38.0
 40
38.0
 40
39.0
 40
39.0
 40
39.0
 40
40.0
 40
40.0
 40
40.0
 40
41.0
 40
41.0
 40
41.0
 40
42.0
 40
42.0
 40
42.0
 40
43.0
 40
43.0
 40
43.0
 40
44.0
 40
44.0
 40
44.0
 40
44.0
 10
5.511569444444452
 20
5.726854021994161
 10
5.511569444444452
 20
5.726854021994161
 10
5.636583333333343
 20
6.166673455327833
 10
5.418986111111104
 20
6.587965111351776
 10
5.418986111111104
 20
6.587965111351776
 10
5.277777777777778
 20
6.902777777777778
 10
4.972222222222222
 20
7.090277777777778
 10
4.972222222222222
 20
7.090277777777778
 10
4.96875
 20
7.048611111111111
 10
4.96875
 20
7.048611111111111
 10
4.96875
 20
7.048611111111111
 10
5.052083333333333
 20
7.065972222222221
 10
5.059027777777778
 20
7.003472222222221
 10
5.059027777777778
 20
7.003472222222221
 10
5.079861111111111
 20
6.916666666666666
 10
5.020833333333333
 20
6.902777777777778
 10
5.020833333333333
 20
6.902777777777778
 10
4.989583333333333
 20
6.892361111111111
 10
4.96875
 20
6.90625
 10
4.96875
 20
6.90625
 10
4.96875
 20
6.409722222222221
 10
4.96875
 20
6.409722222222221
 10
4.96875
 20
6.409722222222221
 10
4.961805555555555
 20
6.393520671819411
 10
4.944444444444444
 20
6.393520671819411
 10
4.944444444444444
 20
6.393520671819411
 10
4.923611111111111
 20
6.386576227550399
 10
4.927083333333333
 20
6.416666666666666
 10
4.927083333333333
 20
6.416666666666666
 10
4.927083333333333
 20
7.114583333333333
 10
4.927083333333333
 20
7.114583333333333
 10
4.927083333333333
 20
7.114583333333333
 10
4.766208333333325
 20
7.199076207024922
 10
4.724541666666659
 20
7.208333333333333
 10
4.724541666666659
 20
7.208333333333333
 10
4.724541666666659
 20
6.9375
 10
4.724541666666659
 20
6.9375
 10
4.724541666666659
 20
6.9375
 10
4.793986111111104
 20
6.949076213340454
 10
4.807874999999992
 20
6.875
 10
4.807874999999992
 20
6.875
 10
4.805555555555555
 20
6.831013888888883
 10
4.784722222222222
 20
6.807867883574342
 10
4.784722222222222
 20
6.807867883574342
 10
4.759249999999989
 20
6.77777066211244
 10
4.719902777777785
 20
6.793978995036317
 10
4.719902777777785
 20
6.793978995036317
 10
4.719902777777785
 20
6.314812340474418
 10
4.719902777777785
 20
6.314812340474418
 10
4.719902777777785
 20
6.314812340474418
 10
4.715277777777778
 20
6.289347222222217
 10
4.6875
 20
6.291666666666666
 10
4.6875
 20
6.291666666666666
 10
4.680569444444447
 20
6.307875000000005
 10
4.675930555555547
 20
6.319444444444444
 10
4.675930555555547
 20
6.319444444444444
 10
4.682874999999992
 20
6.831020660767232
 10
4.682874999999992
 20
6.831020660767232
 10
4.682874999999992
 20
6.831020660767232
 10
4.664347222222229
 20
6.84953454918842
 10
4.680555555555555
 20
6.891201214802499
 10
4.680555555555555
 20
6.891201214802499
 10
4.680555555555555
 20
7.224534539715123
 10
4.680555555555555
 20
7.224534539715123
 10
4.680555555555555
 20
7.224534539715123
 10
4.518513888888896
 20
7.270833333333333
 10
4.483791666666674
 20
7.270833333333333
 10
4.483791666666674
 20
7.270833333333333
 10
4.483791666666674
 20
6.856478993457434
 10
4.483791666666674
 20
6.856478993457434
 10
4.483791666666674
 20
6.856478993457434
 10
4.560180555555562
 20
6.858798437843297
 10
4.569444444444444
 20
6.805555555555555
 10
4.569444444444444
 20
6.805555555555555
 10
4.576402777777781
 20
6.740742885270063
 10
4.537041666666659
 20
6.715277777777778
 10
4.537041666666659
 20
6.715277777777778
 10
4.5
 20
6.696756775270134
 10
4.486111111111111
 20
6.71064566380816
 10
4.486111111111111
 20
6.71064566380816
 10
4.486111111111111
 20
6.474534558661717
 10
4.486111111111111
 20
6.474534558661717
 10
4.486111111111111
 20
6.474534558661717
 10
4.442125000000007
 20
6.569444444444444
 10
4.442125000000007
 20
6.569444444444444
 10
4.442125000000007
 20
6.569444444444444
 10
4.442125000000007
 20
6.740742885270063
 10
4.442125000000007
 20
6.740742885270063
 10
4.442125000000007
 20
6.740742885270063
 10
4.428236111111119
 20
6.789353995153154
 10
4.444444444444445
 20
6.817131772229206
 10
4.444444444444445
 20
6.817131772229206
 10
4.444444444444445
 20
7.275465093984065
 10
4.444444444444445
 20
7.275465093984065
 10
4.444444444444445
 20
7.275465093984065
 10
4.238423504039525
 20
7.303236111111105
 10
4.030090175969134
 20
7.252312316791176
 10
4.030090175969134
 20
7.252312316791176
 10
4.030090175969134
 20
5.842590130181533
 10
4.030090175969134
 20
5.842590130181533
 10
4.030090175969134
 20
5.842590130181533
 10
4.032402777777772
 20
5.828708333333338
 10
4.064812397314199
 20
5.810187353222318
 10
4.064812397314199
 20
5.810187353222318
 10
3.548611111111111
 20
5.576388888888888
 10
3.548611111111111
 20
5.576388888888888
 10
3.548611111111111
 20
5.576388888888888
 10
3.548611111111111
 20
5.550923470882986
 10
3.548611111111111
 20
5.550923470882986
 10
3.548611111111111
 20
5.550923470882986
 10
3.60879851994519
 20
5.430555555555555
 10
3.60879851994519
 20
5.430555555555555
 10
3.60879851994519
 20
5.430555555555555
 10
4.039354064623997
 20
5.263888888888888
 10
4.039354064623997
 20
5.263888888888888
 10
4.039354064623997
 20
5.263888888888888
 10
4.259256836846563
 20
5.289347222222229
 10
4.259256836846563
 20
5.289347222222229
 10
4.259256836846563
 20
5.289347222222229
 10
4.736111111111111
 20
5.534722222222222
 10
4.736111111111111
 20
5.534722222222222
 10
4.736111111111111
 20
5.534722222222222
 10
4.754625000000007
 20
5.548617915385686
 10
4.754625000000007
 20
5.574076248075875
 10
4.754625000000007
 20
5.574076248075875
 10
4.886569444444452
 20
5.525465138192784
 10
4.886569444444452
 20
5.525465138192784
 10
4.886569444444452
 20
5.525465138192784
 10
5.166666666666666
 20
5.537034582344959
 10
5.166666666666666
 20
5.537034582344959
 10
5.166666666666666
 20
5.537034582344959
 10
5.511569444444452
 20
5.726854021994161
 10
5.511569444444452
 20
5.726854021994161
 97
        0
 97
        0
 75
     2
 76
     1
 98
        0
  0
ENDBLK
  5
62
330
5F
100
AcDbEntity
  8
0
100
AcDbBlockEnd
  0
BLOCK
  5
67
330
65
100
AcDbEntity
  8
0
100
AcDbBlockBegin
  2
block 5
 70
     0
 10
0.0
 20
0.0
 30
0.0
  3
block 5
  1

  0
SPLINE
  5
69
330
65
100
AcDbEntity
  8
CDTC6
 62
   250
420
  2301728
370
    35
100
AcDbSpline
210
0.0
220
0.0
230
1.0
 70
     8
 71
     3
 72
    14
 73
    10
 74
     0
 42
0.0000000001
 43
0.0000000001
 12
1.0
 22
0.0
 32
0.0
 13
1.0
 23
0.0
 33
0.0
 40
0.0
 40
0.0
 40
0.0
 40
0.0
 40
1.0
 40
1.0
 40
1.0
 40
2.0
 40
2.0
 40
2.0
 40
3.0
 40
3.0
 40
3.0
 40
3.0
 10
4.027777777777778
 20
5.875
 30
0.0
 10
4.027777777777778
 20
5.875
 30
0.0
 10
4.03125
 20
5.854166666666666
 30
0.0
 10
4.059027777777778
 20
5.847222222222222
 30
0.0
 10
4.059027777777778
 20
5.847222222222222
 30
0.0
 10
4.079861111111111
 20
5.840277777777778
 30
0.0
 10
4.079861111111111
 20
5.826388888888888
 30
0.0
 10
4.079861111111111
 20
5.826388888888888
 30
0.0
 10
4.065972222222222
 20
5.809027777777778
 30
0.0
 10
4.052083333333333
 20
5.805555555555555
 30
0.0
  0
SPLINE
  5
6A
330
65
100
AcDbEntity
  8
CDTC6
 62
   250
420
  2301728
370
    25
100
AcDbSpline
210
0.0
220
0.0
230
1.0
 70
     8
 71
     3
 72
    26
 73
    22
 74
     0
 42
0.0000000001
 43
0.0000000001
 12
1.0
 22
0.0
 32
0.0
 13
1.0
 23
0.0
 33
0.0
 40
0.0
 40
0.0
 40
0.0
 40
0.0
 40
1.0
 40
1.0
 40
1.0
 40
2.0
 40
2.0
 40
2.0
 40
3.0
 40
3.0
 40
3.0
 40
4.0
 40
4.0
 40
4.0
 40
5.0
 40
5.0
 40
5.0
 40
6.0
 40
6.0
 40
6.0
 40
7.0
 40
7.0
 40
7.0
 40
7.0
 10
3.554395743541742
 20
5.578701247959038
 30
0.0
 10
3.554395743541742
 20
5.578701247959038
 30
0.0
 10
3.625
 20
5.462958333333341
 30
0.0
 10
3.625
 20
5.462958333333341
 30
0.0
 10
3.625
 20
5.462958333333341
 30
0.0
 10
4.041666666666666
 20
5.302083333333333
 30
0.0
 10
4.041666666666666
 20
5.302083333333333
 30
0.0
 10
4.041666666666666
 20
5.302083333333333
 30
0.0
 10
4.260416666666666
 20
5.329861111111111
 30
0.0
 10
4.260416666666666
 20
5.329861111111111
 30
0.0
 10
4.260416666666666
 20
5.329861111111111
 30
0.0
 10
4.708333333333333
 20
5.561340137286505
 30
0.0
 10
4.708333333333333
 20
5.561340137286505
 30
0.0
 10
4.708333333333333
 20
5.561340137286505
 30
0.0
 10
4.719535991885601
 20
5.567863748232816
 30
0.0
 10
4.71875
 20
5.589117914362557
 30
0.0
 10
4.71875
 20
5.589117914362557
 30
0.0
 10
4.71875
 20
5.853006796585052
 30
0.0
 10
4.71875
 20
5.853006796585052
 30
0.0
 10
4.71875
 20
5.853006796585052
 30
0.0
 10
4.069444444444445
 20
7.260416666666666
 30
0.0
 10
4.069444444444445
 20
7.260416666666666
 30
0.0
  0
POLYLINE
  5
6B
330
65
100
AcDbEntity
  8
CDTC6
 62
   250
420
  2301728
370
    25
100
AcDb2dPolyline
 66
     1
 10
0.0
 20
0.0
 30
0.0
  0
VERTEX
  5
6C
330
6B
100
AcDbEntity
  8
CDTC6
 62
   250
420
  2301728
370
    25
100
AcDbVertex
100
AcDb2dVertex
 10
4.719902777777785
 20
5.849541666666672
 30
0.0
  0
VERTEX
  5
6D
330
6B
100
AcDbEntity
  8
CDTC6
 62
   250
420
  2301728
370
    25
100
AcDbVertex
100
AcDb2dVertex
 10
4.75
 20
5.862263888888884
 30
0.0
  0
SEQEND
  5
6E
330
6B
100
AcDbEntity
  8
CDTC6
 62
   250
420
  2301728
370
    25
  0
POLYLINE
  5
6F
330
65
100
AcDbEntity
  8
CDTC6
 62
   250
420
  2301728
370
    25
100
AcDb2dPolyline
 66
     1
 10
0.0
 20
0.0
 30
0.0
  0
VERTEX
  5
70
330
6F
100
AcDbEntity
  8
CDTC6
 62
   250
420
  2301728
370
    25
100
AcDbVertex
100
AcDb2dVertex
 10
4.892361111111111
 20
5.569444444444444
 30
0.0
  0
VERTEX
  5
71
330
6F
100
AcDbEntity
  8
CDTC6
 62
   250
420
  2301728
370
    25
100
AcDbVertex
100
AcDb2dVertex
 10
4.892361111111111
 20
5.530097222222227
 30
0.0
  0
SEQEND
  5
72
330
6F
100
AcDbEntity
  8
CDTC6
 62
   250
420
  2301728
370
    25
  0
POLYLINE
  5
73
330
65
100
AcDbEntity
  8
CDTC6
 62
   250
420
  2301728
370
    25
100
AcDb2dPolyline
 66
     1
 10
0.0
 20
0.0
 30
0.0
  0
VERTEX
  5
74
330
73
100
AcDbEntity
  8
CDTC6
 62
   250
420
  2301728
370
    25
100
AcDbVertex
100
AcDb2dVertex
 10
5.163194444444444
 20
5.583333333333333
 30
0.0
  0
VERTEX
  5
75
330
73
100
AcDbEntity
  8
CDTC6
 62
   250
420
  2301728
370
    25
100
AcDbVertex
100
AcDb2dVertex
 10
5.163194444444444
 20
5.543986111111116
 30
0.0
  0
SEQEND
  5
76
330
73
100
AcDbEntity
  8
CDTC6
 62
   250
420
  2301728
370
    25
  0
POLYLINE
  5
77
330
65
100
AcDbEntity
  8
CDTC6
 62
   250
420
  2301728
370
    25
100
AcDb2dPolyline
 66
     1
 10
0.0
 20
0.0
 30
0.0
  0
VERTEX
  5
78
330
77
100
AcDbEntity
  8
CDTC6
 62
   250
420
  2301728
370
    25
100
AcDbVertex
100
AcDb2dVertex
 10
4.041673509009848
 20
5.303236111111119
 30
0.0
  0
VERTEX
  5
79
330
77
100
AcDbEntity
  8
CDTC6
 62
   250
420
  2301728
370
    25
100
AcDbVertex
100
AcDb2dVertex
 10
4.041673509009848
 20
5.263888888888888
 30
0.0
  0
SEQEND
  5
7A
330
77
100
AcDbEntity
  8
CDTC6
 62
   250
420
  2301728
370
    25
  0
POLYLINE
  5
7B
330
65
100
AcDbEntity
  8
CDTC6
 62
   250
420
  2301728
370
    25
100
AcDb2dPolyline
 66
     1
 10
0.0
 20
0.0
 30
0.0
  0
VERTEX
  5
7C
330
7B
100
AcDbEntity
  8
CDTC6
 62
   250
420
  2301728
370
    25
100
AcDbVertex
100
AcDb2dVertex
 10
4.260423503483758
 20
5.334486111111119
 30
0.0
  0
VERTEX
  5
7D
330
7B
100
AcDbEntity
  8
CDTC6
 62
   250
420
  2301728
370
    25
100
AcDbVertex
100
AcDb2dVertex
 10
4.260423503483758
 20
5.295138888888888
 30
0.0
  0
SEQEND
  5
7E
330
7B
100
AcDbEntity
  8
CDTC6
 62
   250
420
  2301728
370
    25
  0
POLYLINE
  5
7F
330
65
100
AcDbEntity
  8
CDTC6
 62
   250
420
  2301728
370
    25
100
AcDb2dPolyline
 66
     1
 10
0.0
 20
0.0
 30
0.0
  0
VERTEX
  5
80
330
7F
100
AcDbEntity
  8
CDTC6
 62
   250
420
  2301728
370
    25
100
AcDbVertex
100
AcDb2dVertex
 10
3.618062408600053
 20
5.467583333333323
 30
0.0
  0
VERTEX
  5
81
330
7F
100
AcDbEntity
  8
CDTC6
 62
   250
420
  2301728
370
    25
100
AcDbVertex
100
AcDb2dVertex
 10
3.618062408600053
 20
5.428236111111119
 30
0.0
  0
SEQEND
  5
82
330
7F
100
AcDbEntity
  8
CDTC6
 62
   250
420
  2301728
370
    25
  0
POLYLINE
  5
83
330
65
100
AcDbEntity
  8
CDTC6
 62
   250
420
  2301728
370
    15
100
AcDb2dPolyline
 66
     1
 10
0.0
 20
0.0
 30
0.0
  0
VERTEX
  5
84
330
83
100
AcDbEntity
  8
CDTC6
 62
   250
420
  2301728
370
    15
100
AcDbVertex
100
AcDb2dVertex
 10
4.664970715486257
 20
5.598687358565257
 30
0.0
  0
VERTEX
  5
85
330
83
100
AcDbEntity
  8
CDTC6
 62
   250
420
  2301728
370
    15
100
AcDbVertex
100
AcDb2dVertex
 10
4.6875
 20
5.590277777777778
 30
0.0
  0
SEQEND
  5
86
330
83
100
AcDbEntity
  8
CDTC6
 62
   250
420
  2301728
370
    15
  0
POLYLINE
  5
87
330
65
100
AcDbEntity
  8
CDTC6
 62
   250
420
  2301728
370
    15
100
AcDb2dPolyline
 66
     1
 10
0.0
 20
0.0
 30
0.0
  0
VERTEX
  5
88
330
87
100
AcDbEntity
  8
CDTC6
 62
   250
420
  2301728
370
    15
100
AcDbVertex
100
AcDb2dVertex
 10
4.535210996542042
 20
5.647548468442033
 30
0.0
  0
VERTEX
  5
89
330
87
100
AcDbEntity
  8
CDTC6
 62
   250
420
  2301728
370
    15
100
AcDbVertex
100
AcDb2dVertex
 10
4.64815277777777
 20
5.605319444444439
 30
0.0
  0
SEQEND
  5
8A
330
87
100
AcDbEntity
  8
CDTC6
 62
   250
420
  2301728
370
    15
  0
POLYLINE
  5
8B
330
65
100
AcDbEntity
  8
CDTC6
 62
   250
420
  2301728
370
    15
100
AcDb2dPolyline
 66
     1
 10
0.0
 20
0.0
 30
0.0
  0
VERTEX
  5
8C
330
8B
100
AcDbEntity
  8
CDTC6
 62
   250
420
  2301728
370
    15
100
AcDbVertex
100
AcDb2dVertex
 10
4.134263888888894
 20
5.797451242432948
 30
0.0
  0
VERTEX
  5
8D
330
8B
100
AcDbEntity
  8
CDTC6
 62
   250
420
  2301728
370
    15
100
AcDbVertex
100
AcDb2dVertex
 10
4.191840171882985
 20
5.775926242976728
 30
0.0
  0
SEQEND
  5
8E
330
8B
100
AcDbEntity
  8
CDTC6
 62
   250
420
  2301728
370
    15
  0
POLYLINE
  5
8F
330
65
100
AcDbEntity
  8
CDTC6
 62
   250
420
  2301728
370
    15
100
AcDb2dPolyline
 66
     1
 10
0.0
 20
0.0
 30
0.0
  0
VERTEX
  5
90
330
8F
100
AcDbEntity
  8
CDTC6
 62
   250
420
  2301728
370
    15
100
AcDbVertex
100
AcDb2dVertex
 10
4.104166666666666
 20
5.807867908836467
 30
0.0
  0
VERTEX
  5
91
330
8F
100
AcDbEntity
  8
CDTC6
 62
   250
420
  2301728
370
    15
100
AcDbVertex
100
AcDb2dVertex
 10
4.113802673854378
 20
5.804273464482839
 30
0.0
  0
SEQEND
  5
92
330
8F
100
AcDbEntity
  8
CDTC6
 62
   250
420
  2301728
370
    15
  0
POLYLINE
  5
93
330
65
100
AcDbEntity
  8
CDTC6
 62
   250
420
  2301728
370
    25
100
AcDb2dPolyline
 66
     1
 10
0.0
 20
0.0
 30
0.0
  0
VERTEX
  5
94
330
93
100
AcDbEntity
  8
CDTC6
 62
   250
420
  2301728
370
    25
100
AcDbVertex
100
AcDb2dVertex
 10
4.756944444444444
 20
5.620367913573116
 30
0.0
  0
VERTEX
  5
95
330
93
100
AcDbEntity
  8
CDTC6
 62
   250
420
  2301728
370
    25
100
AcDbVertex
100
AcDb2dVertex
 10
4.888888888888888
 20
5.571756803690024
 30
0.0
  0
VERTEX
  5
96
330
93
100
AcDbEntity
  8
CDTC6
 62
   250
420
  2301728
370
    25
100
AcDbVertex
100
AcDb2dVertex
 10
5.166666666666666
 20
5.581020692344888
 30
0.0
  0
VERTEX
  5
97
330
93
100
AcDbEntity
  8
CDTC6
 62
   250
420
  2301728
370
    25
100
AcDbVertex
100
AcDb2dVertex
 10
5.517361111111111
 20
5.777777777777778
 30
0.0
  0
SEQEND
  5
98
330
93
100
AcDbEntity
  8
CDTC6
 62
   250
420
  2301728
370
    25
  0
POLYLINE
  5
99
330
65
100
AcDbEntity
  8
CDTC6
 62
   250
420
  2301728
370
    25
100
AcDb2dPolyline
 66
     1
 10
0.0
 20
0.0
 30
0.0
  0
VERTEX
  5
9A
330
99
100
AcDbEntity
  8
CDTC6
 62
   250
420
  2301728
370
    25
100
AcDbVertex
100
AcDb2dVertex
 10
4.260416666666666
 20
5.329861111111111
 30
0.0
  0
VERTEX
  5
9B
330
99
100
AcDbEntity
  8
CDTC6
 62
   250
420
  2301728
370
    25
100
AcDbVertex
100
AcDb2dVertex
 10
4.708333333333333
 20
5.561340137286505
 30
0.0
  0
SEQEND
  5
9C
330
99
100
AcDbEntity
  8
CDTC6
 62
   250
420
  2301728
370
    25
  0
POLYLINE
  5
9D
330
65
100
AcDbEntity
  8
CDTC6
 62
   250
420
  2301728
370
    25
100
AcDb2dPolyline
 66
     1
 10
0.0
 20
0.0
 30
0.0
  0
VERTEX
  5
9E
330
9D
100
AcDbEntity
  8
CDTC6
 62
   250
420
  2301728
370
    25
100
AcDbVertex
100
AcDb2dVertex
 10
5.288194444444444
 20
6.465277777777778
 30
0.0
  0
VERTEX
  5
9F
330
9D
100
AcDbEntity
  8
CDTC6
 62
   250
420
  2301728
370
    25
100
AcDbVertex
100
AcDb2dVertex
 10
5.288194444444444
 20
6.4375
 30
0.0
  0
SEQEND
  5
A0
330
9D
100
AcDbEntity
  8
CDTC6
 62
   250
420
  2301728
370
    25
  0
POLYLINE
  5
A1
330
65
100
AcDbEntity
  8
CDTC6
 62
   250
420
  2301728
370
    25
100
AcDb2dPolyline
 66
     1
 10
0.0
 20
0.0
 30
0.0
  0
VERTEX
  5
A2
330
A1
100
AcDbEntity
  8
CDTC6
 62
   250
420
  2301728
370
    25
100
AcDbVertex
100
AcDb2dVertex
 10
5.288194444444444
 20
6.788194444444444
 30
0.0
  0
VERTEX
  5
A3
330
A1
100
AcDbEntity
  8
CDTC6
 62
   250
420
  2301728
370
    25
100
AcDbVertex
100
AcDb2dVertex
 10
5.288194444444444
 20
6.513895668778483
 30
0.0
  0
SEQEND
  5
A4
330
A1
100
AcDbEntity
  8
CDTC6
 62
   250
420
  2301728
370
    25
  0
SPLINE
  5
A5
330
65
100
AcDbEntity
  8
CDTC6
 62
   250
420
  2301728
370
    35
100
AcDbSpline
210
0.0
220
0.0
230
1.0
 70
     8
 71
     3
 72
    17
 73
    13
 74
     0
 42
0.0000000001
 43
0.0000000001
 12
1.0
 22
0.0
 32
0.0
 13
1.0
 23
0.0
 33
0.0
 40
0.0
 40
0.0
 40
0.0
 40
0.0
 40
1.0
 40
1.0
 40
1.0
 40
2.0
 40
2.0
 40
2.0
 40
3.0
 40
3.0
 40
3.0
 40
4.0
 40
4.0
 40
4.0
 40
4.0
 10
5.513888888888888
 20
6.291666666666666
 30
0.0
 10
5.513888888888888
 20
6.291666666666666
 30
0.0
 10
5.284722222222222
 20
6.357638888888888
 30
0.0
 10
5.284722222222222
 20
6.357638888888888
 30
0.0
 10
5.284722222222222
 20
6.357638888888888
 30
0.0
 10
5.268297089133839
 20
6.355665117220168
 30
0.0
 10
5.267361111111111
 20
6.378472222222221
 30
0.0
 10
5.267361111111111
 20
6.378472222222221
 30
0.0
 10
5.265542922536749
 20
6.394184560691529
 30
0.0
 10
5.281969311010672
 20
6.389831783023712
 30
0.0
 10
5.281969311010672
 20
6.389831783023712
 30
0.0
 10
5.295640143998652
 20
6.38812206084468
 30
0.0
 10
5.293931810708474
 20
6.355665117220168
 30
0.0
  0
INSERT
  5
A7
330
65
100
AcDbEntity
  8
CDTC6
100
AcDbBlockReference
  2
block 6
 10
0.0
 20
0.0
 30
0.0
  0
INSERT
  5
AF
330
65
100
AcDbEntity
  8
CDTC6
100
AcDbBlockReference
  2
block 7
 10
0.0
 20
0.0
 30
0.0
  0
INSERT
  5
B7
330
65
100
AcDbEntity
  8
CDTC6
100
AcDbBlockReference
  2
block 8
 10
0.0
 20
0.0
 30
0.0
  0
SPLINE
  5
BE
330
65
100
AcDbEntity
  8
CDTC6
 62
   250
420
  2301728
370
    35
100
AcDbSpline
210
0.0
220
0.0
230
1.0
 70
     8
 71
     3
 72
    26
 73
    22
 74
     0
 42
0.0000000001
 43
0.0000000001
 12
1.0
 22
0.0
 32
0.0
 13
1.0
 23
0.0
 33
0.0
 40
0.0
 40
0.0
 40
0.0
 40
0.0
 40
1.0
 40
1.0
 40
1.0
 40
2.0
 40
2.0
 40
2.0
 40
3.0
 40
3.0
 40
3.0
 40
4.0
 40
4.0
 40
4.0
 40
5.0
 40
5.0
 40
5.0
 40
6.0
 40
6.0
 40
6.0
 40
7.0
 40
7.0
 40
7.0
 40
7.0
 10
4.921875
 20
7.109375
 30
0.0
 10
4.921875
 20
7.109375
 30
0.0
 10
4.921875
 20
6.416666666666666
 30
0.0
 10
4.921875
 20
6.416666666666666
 30
0.0
 10
4.921875
 20
6.416666666666666
 30
0.0
 10
4.921875
 20
6.402777777777778
 30
0.0
 10
4.935763888888888
 20
6.394097222222221
 30
0.0
 10
4.935763888888888
 20
6.394097222222221
 30
0.0
 10
4.965277777777778
 20
6.394097222222221
 30
0.0
 10
4.963541666666666
 20
6.420138888888888
 30
0.0
 10
4.963541666666666
 20
6.420138888888888
 30
0.0
 10
4.963541666666666
 20
6.908875000000004
 30
0.0
 10
4.963541666666666
 20
6.908875000000004
 30
0.0
 10
4.963541666666666
 20
6.908875000000004
 30
0.0
 10
4.927083333333333
 20
6.916666666666666
 30
0.0
 10
4.920138888888888
 20
6.973958333333333
 30
0.0
 10
4.916802653568892
 20
7.001533156459724
 30
0.0
 10
4.939236111111111
 20
7.032986111111111
 30
0.0
 10
4.963541666666666
 20
7.045138888888888
 30
0.0
 10
4.963541666666666
 20
7.045138888888888
 30
0.0
 10
4.963541666666666
 20
7.088541666666666
 30
0.0
 10
4.963541666666666
 20
7.088541666666666
 30
0.0
  0
SPLINE
  5
BF
330
65
100
AcDbEntity
  8
CDTC6
 62
   250
420
  2301728
370
    25
100
AcDbSpline
210
0.0
220
0.0
230
1.0
 70
     8
 71
     3
 72
    14
 73
    10
 74
     0
 42
0.0000000001
 43
0.0000000001
 12
1.0
 22
0.0
 32
0.0
 13
1.0
 23
0.0
 33
0.0
 40
0.0
 40
0.0
 40
0.0
 40
0.0
 40
1.0
 40
1.0
 40
1.0
 40
2.0
 40
2.0
 40
2.0
 40
3.0
 40
3.0
 40
3.0
 40
3.0
 10
4.996527777777778
 20
6.892361111111111
 30
0.0
 10
4.996527777777778
 20
6.892361111111111
 30
0.0
 10
4.996527777777778
 20
6.418402777777778
 30
0.0
 10
4.996527777777778
 20
6.418402777777778
 30
0.0
 10
4.996527777777778
 20
6.418402777777778
 30
0.0
 10
5.001736111111111
 20
6.383680555555555
 30
0.0
 10
4.963541666666666
 20
6.371527777777778
 30
0.0
 10
4.963541666666666
 20
6.371527777777778
 30
0.0
 10
4.923611111111111
 20
6.359375
 30
0.0
 10
4.921875
 20
6.407986111111111
 30
0.0
  0
SPLINE
  5
C0
330
65
100
AcDbEntity
  8
CDTC6
 62
   250
420
  2301728
370
    35
100
AcDbSpline
210
0.0
220
0.0
230
1.0
 70
     8
 71
     3
 72
    26
 73
    22
 74
     0
 42
0.0000000001
 43
0.0000000001
 12
1.0
 22
0.0
 32
0.0
 13
1.0
 23
0.0
 33
0.0
 40
0.0
 40
0.0
 40
0.0
 40
0.0
 40
1.0
 40
1.0
 40
1.0
 40
2.0
 40
2.0
 40
2.0
 40
3.0
 40
3.0
 40
3.0
 40
4.0
 40
4.0
 40
4.0
 40
5.0
 40
5.0
 40
5.0
 40
6.0
 40
6.0
 40
6.0
 40
7.0
 40
7.0
 40
7.0
 40
7.0
 10
4.675347222222222
 20
6.827588716409486
 30
0.0
 10
4.675347222222222
 20
6.827588716409486
 30
0.0
 10
4.675347222222222
 20
6.3125
 30
0.0
 10
4.675347222222222
 20
6.3125
 30
0.0
 10
4.675347222222222
 20
6.3125
 30
0.0
 10
4.675347222222222
 20
6.298611111111111
 30
0.0
 10
4.689236111111111
 20
6.289930555555555
 30
0.0
 10
4.689236111111111
 20
6.289930555555555
 30
0.0
 10
4.71875
 20
6.289930555555555
 30
0.0
 10
4.717013888888888
 20
6.315972222222221
 30
0.0
 10
4.717013888888888
 20
6.315972222222221
 30
0.0
 10
4.717013888888888
 20
6.790866495114945
 30
0.0
 10
4.717013888888888
 20
6.790866495114945
 30
0.0
 10
4.717013888888888
 20
6.790866495114945
 30
0.0
 10
4.672729048623599
 20
6.794487328356809
 30
0.0
 10
4.672729048623599
 20
6.863797048828119
 30
0.0
 10
4.672729048623599
 20
6.897420659089827
 30
0.0
 10
4.689791666666679
 20
6.922241491796133
 30
0.0
 10
4.717013888888888
 20
6.935173435913889
 30
0.0
 10
4.717013888888888
 20
6.935173435913889
 30
0.0
 10
4.717013888888888
 20
7.208333333333333
 30
0.0
 10
4.717013888888888
 20
7.208333333333333
 30
0.0
  0
POLYLINE
  5
C1
330
65
100
AcDbEntity
  8
CDTC6
 62
   250
420
  2301728
370
    35
100
AcDb2dPolyline
 66
     1
 10
0.0
 20
0.0
 30
0.0
  0
VERTEX
  5
C2
330
C1
100
AcDbEntity
  8
CDTC6
 62
   250
420
  2301728
370
    35
100
AcDbVertex
100
AcDb2dVertex
 10
4.675347222222222
 20
7.216437317697455
 30
0.0
  0
VERTEX
  5
C3
330
C1
100
AcDbEntity
  8
CDTC6
 62
   250
420
  2301728
370
    35
100
AcDbVertex
100
AcDb2dVertex
 10
4.675347222222222
 20
6.891208333333338
 30
0.0
  0
SEQEND
  5
C4
330
C1
100
AcDbEntity
  8
CDTC6
 62
   250
420
  2301728
370
    35
  0
SPLINE
  5
C5
330
65
100
AcDbEntity
  8
CDTC6
 62
   250
420
  2301728
370
    25
100
AcDbSpline
210
0.0
220
0.0
230
1.0
 70
     8
 71
     3
 72
    14
 73
    10
 74
     0
 42
0.0000000001
 43
0.0000000001
 12
1.0
 22
0.0
 32
0.0
 13
1.0
 23
0.0
 33
0.0
 40
0.0
 40
0.0
 40
0.0
 40
0.0
 40
1.0
 40
1.0
 40
1.0
 40
2.0
 40
2.0
 40
2.0
 40
3.0
 40
3.0
 40
3.0
 40
3.0
 10
4.75
 20
6.789353995153154
 30
0.0
 10
4.75
 20
6.789353995153154
 30
0.0
 10
4.75
 20
6.314236111111111
 30
0.0
 10
4.75
 20
6.314236111111111
 30
0.0
 10
4.75
 20
6.314236111111111
 30
0.0
 10
4.755208333333333
 20
6.279513888888888
 30
0.0
 10
4.717013888888888
 20
6.267361111111111
 30
0.0
 10
4.717013888888888
 20
6.267361111111111
 30
0.0
 10
4.677083333333333
 20
6.255208333333333
 30
0.0
 10
4.675347222222222
 20
6.303819444444444
 30
0.0
  0
POLYLINE
  5
C6
330
65
100
AcDbEntity
  8
CDTC6
 62
   250
420
  2301728
370
    25
100
AcDb2dPolyline
 66
     1
 10
0.0
 20
0.0
 30
0.0
  0
VERTEX
  5
C7
330
C6
100
AcDbEntity
  8
CDTC6
 62
   250
420
  2301728
370
    25
100
AcDbVertex
100
AcDb2dVertex
 10
4.75
 20
7.1941192627057
 30
0.0
  0
VERTEX
  5
C8
330
C6
100
AcDbEntity
  8
CDTC6
 62
   250
420
  2301728
370
    25
100
AcDbVertex
100
AcDb2dVertex
 10
4.75
 20
6.93518055555555
 30
0.0
  0
SEQEND
  5
C9
330
C6
100
AcDbEntity
  8
CDTC6
 62
   250
420
  2301728
370
    25
  0
SPLINE
  5
CA
330
65
100
AcDbEntity
  8
CDTC6
 62
   250
420
  2301728
370
    35
100
AcDbSpline
210
0.0
220
0.0
230
1.0
 70
     8
 71
     3
 72
    17
 73
    13
 74
     0
 42
0.0000000001
 43
0.0000000001
 12
1.0
 22
0.0
 32
0.0
 13
1.0
 23
0.0
 33
0.0
 40
0.0
 40
0.0
 40
0.0
 40
0.0
 40
1.0
 40
1.0
 40
1.0
 40
2.0
 40
2.0
 40
2.0
 40
3.0
 40
3.0
 40
3.0
 40
4.0
 40
4.0
 40
4.0
 40
4.0
 10
4.479736111111101
 20
6.469909558778554
 30
0.0
 10
4.479736111111101
 20
6.469909558778554
 30
0.0
 10
4.479736111111101
 20
6.707486111111115
 30
0.0
 10
4.479736111111101
 20
6.707486111111115
 30
0.0
 10
4.479736111111101
 20
6.707486111111115
 30
0.0
 10
4.434258221314545
 20
6.716606774768681
 30
0.0
 10
4.434285999091622
 20
6.774319444444447
 30
0.0
 10
4.434298499091306
 20
6.802442883711389
 30
0.0
 10
4.449273498713006
 20
6.836384549520631
 30
0.0
 10
4.479736111111101
 20
6.852938715769091
 30
0.0
 10
4.479736111111101
 20
6.852938715769091
 30
0.0
 10
4.479736111111101
 20
7.266201205329202
 30
0.0
 10
4.479736111111101
 20
7.266201205329202
 30
0.0
  0
POLYLINE
  5
CB
330
65
100
AcDbEntity
  8
CDTC6
 62
   250
420
  2301728
370
    35
100
AcDb2dPolyline
 66
     1
 10
0.0
 20
0.0
 30
0.0
  0
VERTEX
  5
CC
330
CB
100
AcDbEntity
  8
CDTC6
 62
   250
420
  2301728
370
    35
100
AcDbVertex
100
AcDb2dVertex
 10
4.438069444444434
 20
6.746906774003238
 30
0.0
  0
VERTEX
  5
CD
330
CB
100
AcDbEntity
  8
CDTC6
 62
   250
420
  2301728
370
    35
100
AcDbVertex
100
AcDb2dVertex
 10
4.438069444444434
 20
6.56018055555555
 30
0.0
  0
SEQEND
  5
CE
330
CB
100
AcDbEntity
  8
CDTC6
 62
   250
420
  2301728
370
    35
  0
POLYLINE
  5
CF
330
65
100
AcDbEntity
  8
CDTC6
 62
   250
420
  2301728
370
    35
100
AcDb2dPolyline
 66
     1
 10
0.0
 20
0.0
 30
0.0
  0
VERTEX
  5
D0
330
CF
100
AcDbEntity
  8
CDTC6
 62
   250
420
  2301728
370
    35
100
AcDbVertex
100
AcDb2dVertex
 10
4.438069444444434
 20
7.270833333333333
 30
0.0
  0
VERTEX
  5
D1
330
CF
100
AcDbEntity
  8
CDTC6
 62
   250
420
  2301728
370
    35
100
AcDbVertex
100
AcDb2dVertex
 10
4.438069444444434
 20
6.807413716919149
 30
0.0
  0
SEQEND
  5
D2
330
CF
100
AcDbEntity
  8
CDTC6
 62
   250
420
  2301728
370
    35
  0
POLYLINE
  5
D3
330
65
100
AcDbEntity
  8
CDTC6
 62
   250
420
  2301728
370
    25
100
AcDb2dPolyline
 66
     1
 10
0.0
 20
0.0
 30
0.0
  0
VERTEX
  5
D4
330
D3
100
AcDbEntity
  8
CDTC6
 62
   250
420
  2301728
370
    25
100
AcDbVertex
100
AcDb2dVertex
 10
4.512722222222211
 20
6.71064566380816
 30
0.0
  0
VERTEX
  5
D5
330
D3
100
AcDbEntity
  8
CDTC6
 62
   250
420
  2301728
370
    25
100
AcDbVertex
100
AcDb2dVertex
 10
4.512722222222211
 20
6.398138888888891
 30
0.0
  0
SEQEND
  5
D6
330
D3
100
AcDbEntity
  8
CDTC6
 62
   250
420
  2301728
370
    25
  0
POLYLINE
  5
D7
330
65
100
AcDbEntity
  8
CDTC6
 62
   250
420
  2301728
370
    25
100
AcDb2dPolyline
 66
     1
 10
0.0
 20
0.0
 30
0.0
  0
VERTEX
  5
D8
330
D7
100
AcDbEntity
  8
CDTC6
 62
   250
420
  2301728
370
    25
100
AcDbVertex
100
AcDb2dVertex
 10
4.512722222222211
 20
7.26157620544604
 30
0.0
  0
VERTEX
  5
D9
330
D7
100
AcDbEntity
  8
CDTC6
 62
   250
420
  2301728
370
    25
100
AcDbVertex
100
AcDb2dVertex
 10
4.512722222222211
 20
6.851853993574271
 30
0.0
  0
SEQEND
  5
DA
330
D7
100
AcDbEntity
  8
CDTC6
 62
   250
420
  2301728
370
    25
  0
INSERT
  5
DC
330
65
100
AcDbEntity
  8
CDTC6
100
AcDbBlockReference
  2
block 9
 10
0.0
 20
0.0
 30
0.0
  0
INSERT
  5
F6
330
65
100
AcDbEntity
  8
CDTC6
100
AcDbBlockReference
  2
block 10
 10
0.0
 20
0.0
 30
0.0
  0
INSERT
  5
114
330
65
100
AcDbEntity
  8
CDTC6
100
AcDbBlockReference
  2
block 11
 10
0.0
 20
0.0
 30
0.0
  0
INSERT
  5
134
330
65
100
AcDbEntity
  8
CDTC6
100
AcDbBlockReference
  2
block 12
 10
0.0
 20
0.0
 30
0.0
  0
POLYLINE
  5
143
330
65
100
AcDbEntity
  8
CDTC6
 62
   250
420
  2301728
370
    25
100
AcDb2dPolyline
 66
     1
 10
0.0
 20
0.0
 30
0.0
  0
VERTEX
  5
144
330
143
100
AcDbEntity
  8
CDTC6
 62
   250
420
  2301728
370
    25
100
AcDbVertex
100
AcDb2dVertex
 10
4.797430555555567
 20
5.934217905644598
 30
0.0
  0
VERTEX
  5
145
330
143
100
AcDbEntity
  8
CDTC6
 62
   250
420
  2301728
370
    25
100
AcDbVertex
100
AcDb2dVertex
 10
4.712958333333341
 20
5.960645682754754
 30
0.0
  0
SEQEND
  5
146
330
143
100
AcDbEntity
  8
CDTC6
 62
   250
420
  2301728
370
    25
  0
POLYLINE
  5
147
330
65
100
AcDbEntity
  8
CDTC6
 62
   250
420
  2301728
370
    25
100
AcDb2dPolyline
 66
     1
 10
0.0
 20
0.0
 30
0.0
  0
VERTEX
  5
148
330
147
100
AcDbEntity
  8
CDTC6
 62
   250
420
  2301728
370
    25
100
AcDbVertex
100
AcDb2dVertex
 10
5.095486111111111
 20
5.840948463556338
 30
0.0
  0
VERTEX
  5
149
330
147
100
AcDbEntity
  8
CDTC6
 62
   250
420
  2301728
370
    25
100
AcDbVertex
100
AcDb2dVertex
 10
4.866617932614442
 20
5.912563739524962
 30
0.0
  0
SEQEND
  5
14A
330
147
100
AcDbEntity
  8
CDTC6
 62
   250
420
  2301728
370
    25
  0
SPLINE
  5
14B
330
65
100
AcDbEntity
  8
CDTC6
 62
   250
420
  2301728
370
    25
100
AcDbSpline
210
0.0
220
0.0
230
1.0
 70
     8
 71
     3
 72
    14
 73
    10
 74
     0
 42
0.0000000001
 43
0.0000000001
 12
1.0
 22
0.0
 32
0.0
 13
1.0
 23
0.0
 33
0.0
 40
0.0
 40
0.0
 40
0.0
 40
0.0
 40
1.0
 40
1.0
 40
1.0
 40
2.0
 40
2.0
 40
2.0
 40
3.0
 40
3.0
 40
3.0
 40
3.0
 10
4.678236111111119
 20
6.046298458368761
 30
0.0
 10
4.678236111111119
 20
6.046298458368761
 30
0.0
 10
5.176513888888899
 20
5.887247073497847
 30
0.0
 10
5.176513888888899
 20
5.887247073497847
 30
0.0
 10
5.176513888888899
 20
5.887247073497847
 30
0.0
 10
5.22512500000001
 20
5.866413740690809
 30
0.0
 10
5.19502777777777
 20
5.850212352211214
 30
0.0
 10
5.19502777777777
 20
5.850212352211214
 30
0.0
 10
5.181287369109668
 20
5.837537352531399
 30
0.0
 10
5.150959592098034
 20
5.835022074817162
 30
0.0
  0
POLYLINE
  5
14C
330
65
100
AcDbEntity
  8
CDTC6
 62
   250
420
  2301728
370
    25
100
AcDb2dPolyline
 66
     1
 10
0.0
 20
0.0
 30
0.0
  0
VERTEX
  5
14D
330
14C
100
AcDbEntity
  8
CDTC6
 62
   250
420
  2301728
370
    25
100
AcDbVertex
100
AcDb2dVertex
 10
5.157497091932883
 20
6.310438729473794
 30
0.0
  0
VERTEX
  5
14E
330
14C
100
AcDbEntity
  8
CDTC6
 62
   250
420
  2301728
370
    25
100
AcDbVertex
100
AcDb2dVertex
 10
5.236111111111111
 20
6.347222222222221
 30
0.0
  0
SEQEND
  5
14F
330
14C
100
AcDbEntity
  8
CDTC6
 62
   250
420
  2301728
370
    25
  0
POLYLINE
  5
150
330
65
100
AcDbEntity
  8
CDTC6
 62
   250
420
  2301728
370
    25
100
AcDb2dPolyline
 66
     1
 10
0.0
 20
0.0
 30
0.0
  0
VERTEX
  5
151
330
150
100
AcDbEntity
  8
CDTC6
 62
   250
420
  2301728
370
    25
100
AcDbVertex
100
AcDb2dVertex
 10
4.90032209842967
 20
6.190083333333328
 30
0.0
  0
VERTEX
  5
152
330
150
100
AcDbEntity
  8
CDTC6
 62
   250
420
  2301728
370
    25
100
AcDbVertex
100
AcDb2dVertex
 10
5.024997095280114
 20
6.248426231040361
 30
0.0
  0
SEQEND
  5
153
330
150
100
AcDbEntity
  8
CDTC6
 62
   250
420
  2301728
370
    25
  0
POLYLINE
  5
154
330
65
100
AcDbEntity
  8
CDTC6
 62
   250
420
  2301728
370
    25
100
AcDb2dPolyline
 66
     1
 10
0.0
 20
0.0
 30
0.0
  0
VERTEX
  5
155
330
154
100
AcDbEntity
  8
CDTC6
 62
   250
420
  2301728
370
    25
100
AcDbVertex
100
AcDb2dVertex
 10
4.657402777777785
 20
6.076388888888888
 30
0.0
  0
VERTEX
  5
156
330
154
100
AcDbEntity
  8
CDTC6
 62
   250
420
  2301728
370
    25
100
AcDbVertex
100
AcDb2dVertex
 10
4.768988768414096
 20
6.128615122955933
 30
0.0
  0
SEQEND
  5
157
330
154
100
AcDbEntity
  8
CDTC6
 62
   250
420
  2301728
370
    25
  0
INSERT
  5
159
330
65
100
AcDbEntity
  8
CDTC6
100
AcDbBlockReference
  2
block 13
 10
0.0
 20
0.0
 30
0.0
  0
INSERT
  5
161
330
65
100
AcDbEntity
  8
CDTC6
100
AcDbBlockReference
  2
block 14
 10
0.0
 20
0.0
 30
0.0
  0
INSERT
  5
169
330
65
100
AcDbEntity
  8
CDTC6
100
AcDbBlockReference
  2
block 15
 10
0.0
 20
0.0
 30
0.0
  0
INSERT
  5
171
330
65
100
AcDbEntity
  8
CDTC6
100
AcDbBlockReference
  2
block 16
 10
0.0
 20
0.0
 30
0.0
  0
SPLINE
  5
178
330
65
100
AcDbEntity
  8
CDTC6
 62
   250
420
  2301728
370
    35
100
AcDbSpline
210
0.0
220
0.0
230
1.0
 70
     8
 71
     3
 72
    41
 73
    37
 74
     0
 42
0.0000000001
 43
0.0000000001
 12
1.0
 22
0.0
 32
0.0
 13
1.0
 23
0.0
 33
0.0
 40
0.0
 40
0.0
 40
0.0
 40
0.0
 40
1.0
 40
1.0
 40
1.0
 40
2.0
 40
2.0
 40
2.0
 40
3.0
 40
3.0
 40
3.0
 40
4.0
 40
4.0
 40
4.0
 40
5.0
 40
5.0
 40
5.0
 40
6.0
 40
6.0
 40
6.0
 40
7.0
 40
7.0
 40
7.0
 40
8.0
 40
8.0
 40
8.0
 40
9.0
 40
9.0
 40
9.0
 40
10.0
 40
10.0
 40
10.0
 40
11.0
 40
11.0
 40
11.0
 40
12.0
 40
12.0
 40
12.0
 40
12.0
 10
4.027777777777778
 20
7.25
 30
0.0
 10
4.027777777777778
 20
7.25
 30
0.0
 10
4.027777777777778
 20
5.83796513029837
 30
0.0
 10
4.027777777777778
 20
5.83796513029837
 30
0.0
 10
4.027777777777778
 20
5.83796513029837
 30
0.0
 10
4.041673509009848
 20
5.810187353222318
 30
0.0
 10
4.060187397431037
 20
5.810187353222318
 30
0.0
 10
4.060187397431037
 20
5.810187353222318
 30
0.0
 10
3.550923521407235
 20
5.574076248075875
 30
0.0
 10
3.550923521407235
 20
5.574076248075875
 30
0.0
 10
3.550923521407235
 20
5.574076248075875
 30
0.0
 10
3.550923521407235
 20
5.546298470999823
 30
0.0
 10
3.550923521407235
 20
5.546298470999823
 30
0.0
 10
3.550923521407235
 20
5.546298470999823
 30
0.0
 10
3.611111111111111
 20
5.425930555555547
 30
0.0
 10
3.611111111111111
 20
5.425930555555547
 30
0.0
 10
3.611111111111111
 20
5.425930555555547
 30
0.0
 10
4.037034620238147
 20
5.263888888888888
 30
0.0
 10
4.037034620238147
 20
5.263888888888888
 30
0.0
 10
4.037034620238147
 20
5.263888888888888
 30
0.0
 10
4.254631836963401
 20
5.287041666666659
 30
0.0
 10
4.254631836963401
 20
5.287041666666659
 30
0.0
 10
4.254631836963401
 20
5.287041666666659
 30
0.0
 10
4.731486111111104
 20
5.532409582461796
 30
0.0
 10
4.731486111111104
 20
5.532409582461796
 30
0.0
 10
4.731486111111104
 20
5.532409582461796
 30
0.0
 10
4.754476268780713
 20
5.546576248770584
 30
0.0
 10
4.754476268780713
 20
5.574205414739279
 30
0.0
 10
4.754476268780713
 20
5.574205414739279
 30
0.0
 10
4.886487376556943
 20
5.52661791594144
 30
0.0
 10
4.886487376556943
 20
5.52661791594144
 30
0.0
 10
4.886487376556943
 20
5.52661791594144
 30
0.0
 10
5.171983202678044
 20
5.537366526781018
 30
0.0
 10
5.171983202678044
 20
5.537366526781018
 30
0.0
 10
5.171983202678044
 20
5.537366526781018
 30
0.0
 10
5.506944444444444
 20
5.725694444444444
 30
0.0
 10
5.506944444444444
 20
5.725694444444444
 30
0.0
  0
POLYLINE
  5
179
330
65
100
AcDbEntity
  8
CDTC6
 62
   250
420
  2301728
370
    35
100
AcDb2dPolyline
 66
     1
 10
0.0
 20
0.0
 30
0.0
  0
VERTEX
  5
17A
330
179
100
AcDbEntity
  8
CDTC6
 62
   250
420
  2301728
370
    35
100
AcDbVertex
100
AcDb2dVertex
 10
4.111111111111111
 20
7.268520649715052
 30
0.0
  0
VERTEX
  5
17B
330
179
100
AcDbEntity
  8
CDTC6
 62
   250
420
  2301728
370
    35
100
AcDbVertex
100
AcDb2dVertex
 10
4.754638888888899
 20
5.865742907374422
 30
0.0
  0
VERTEX
  5
17C
330
179
100
AcDbEntity
  8
CDTC6
 62
   250
420
  2301728
370
    35
100
AcDbVertex
100
AcDb2dVertex
 10
4.754638888888899
 20
5.572408192562458
 30
0.0
  0
SEQEND
  5
17D
330
179
100
AcDbEntity
  8
CDTC6
 62
   250
420
  2301728
370
    35
  0
ENDBLK
  5
68
330
65
100
AcDbEntity
  8
0
100
AcDbBlockEnd
  0
BLOCK
  5
A8
330
A6
100
AcDbEntity
  8
0
100
AcDbBlockBegin
  2
block 6
 70
     0
 10
0.0
 20
0.0
 30
0.0
  3
block 6
  1

  0
SPLINE
  5
AA
330
A6
100
AcDbEntity
  8
CDTC6
 62
   250
420
  2301728
370
    35
100
AcDbSpline
210
0.0
220
0.0
230
1.0
 70
     8
 71
     3
 72
    17
 73
    13
 74
     0
 42
0.0000000001
 43
0.0000000001
 12
1.0
 22
0.0
 32
0.0
 13
1.0
 23
0.0
 33
0.0
 40
0.0
 40
0.0
 40
0.0
 40
0.0
 40
1.0
 40
1.0
 40
1.0
 40
2.0
 40
2.0
 40
2.0
 40
3.0
 40
3.0
 40
3.0
 40
4.0
 40
4.0
 40
4.0
 40
4.0
 10
4.482231831213741
 20
6.710306774927832
 30
0.0
 10
4.480048497935564
 20
6.710469274923727
 30
0.0
 10
4.469129053766967
 20
6.715487330352516
 30
0.0
 10
4.466999999999997
 20
6.716166666666671
 30
0.0
 10
4.439466554516305
 20
6.724955385668888
 30
0.0
 10
4.425319444444439
 20
6.760016495894281
 30
0.0
 10
4.434570721306651
 20
6.797912328270286
 30
0.0
 10
4.443834609961515
 20
6.835781771758067
 30
0.0
 10
4.474365164745803
 20
6.860847222222219
 30
0.0
 10
4.502740164028991
 20
6.853915104633314
 30
0.0
 10
4.508179052780481
 20
6.852585938000225
 30
0.0
 10
4.522663774636789
 20
6.847995660338407
 30
0.0
 10
4.528523496710982
 20
6.842726216027081
 30
0.0
  0
HATCH
  5
AB
330
A6
100
AcDbEntity
  8
CDTC6
 62
   254
420
 13358815
100
AcDbHatch
 10
0.0
 20
0.0
 30
0.0
210
0.0
220
0.0
230
1.0
  2
SOLID
 70
     1
 71
     0
 91
        1
 92
        1
 93
        2
 72
     4
 94
        3
 73
     0
 74
     0
 95
       17
 96
       13
 40
0.0
 40
0.0
 40
0.0
 40
0.0
 40
0.0138888888888889
 40
0.0138888888888889
 40
0.0138888888888889
 40
0.0277777777777778
 40
0.0277777777777778
 40
0.0277777777777778
 40
0.0416666666666667
 40
0.0416666666666667
 40
0.0416666666666667
 40
0.0555555555555556
 40
0.0555555555555556
 40
0.0555555555555556
 40
0.0555555555555556
 10
4.482231831213741
 20
6.710306774927832
 10
4.480048497935564
 20
6.710469274923727
 10
4.469129053766967
 20
6.715487330352516
 10
4.466999999999997
 20
6.716166666666671
 10
4.439466554516305
 20
6.724955385668888
 10
4.425319444444439
 20
6.760016495894281
 10
4.434570721306651
 20
6.797912328270286
 10
4.443834609961515
 20
6.835781771758067
 10
4.474365164745803
 20
6.860847222222219
 10
4.502740164028991
 20
6.853915104633314
 10
4.508179052780481
 20
6.852585938000225
 10
4.522663774636789
 20
6.847995660338407
 10
4.528523496710982
 20
6.842726216027081
 97
        0
 72
     1
 10
4.528523496710982
 20
6.842726216027081
 11
4.482231831213741
 21
6.710306774927832
 97
        0
 75
     2
 76
     1
 98
        0
  0
SPLINE
  5
AC
330
A6
100
AcDbEntity
  8
CDTC6
 62
   250
420
  2301728
370
    35
100
AcDbSpline
210
0.0
220
0.0
230
1.0
 70
    11
 71
     3
 72
    17
 73
    13
 74
     0
 42
0.0000000001
 43
0.0000000001
 12
1.0
 22
0.0
 32
0.0
 13
1.0
 23
0.0
 33
0.0
 40
0.0
 40
0.0
 40
0.0
 40
0.0
 40
1.0
 40
1.0
 40
1.0
 40
2.0
 40
2.0
 40
2.0
 40
3.0
 40
3.0
 40
3.0
 40
4.0
 40
4.0
 40
4.0
 40
4.0
 10
4.56053321812457
 20
6.763509551361595
 30
0.0
 10
4.551283218358245
 20
6.725626218985275
 30
0.0
 10
4.520751274685103
 20
6.700567886284968
 30
0.0
 10
4.492363775402231
 20
6.707486111111115
 30
0.0
 10
4.46401655389612
 20
6.714423441490503
 30
0.0
 10
4.448472222222234
 20
6.750752607239418
 30
0.0
 10
4.457723498499541
 20
6.788648439615422
 30
0.0
 10
4.466986111111106
 20
6.826517883103204
 30
0.0
 10
4.497517941938693
 20
6.851583333333338
 30
0.0
 10
4.52589294122188
 20
6.844651215978463
 30
0.0
 10
4.554266551616213
 20
6.837720660597975
 30
0.0
 10
4.569769329002358
 20
6.801377605960523
 30
0.0
 10
4.56053321812457
 20
6.763509551361595
 30
0.0
  0
HATCH
  5
AD
330
A6
100
AcDbEntity
  8
CDTC6
 62
   254
420
 13358815
100
AcDbHatch
 10
0.0
 20
0.0
 30
0.0
210
0.0
220
0.0
230
1.0
  2
SOLID
 70
     1
 71
     0
 91
        1
 92
        1
 93
        1
 72
     4
 94
        3
 73
     0
 74
     1
 95
       17
 96
       13
 40
0.0
 40
0.0
 40
0.0
 40
0.0
 40
1.0
 40
1.0
 40
1.0
 40
2.0
 40
2.0
 40
2.0
 40
3.0
 40
3.0
 40
3.0
 40
4.0
 40
4.0
 40
4.0
 40
4.0
 10
4.56053321812457
 20
6.763509551361595
 10
4.551283218358245
 20
6.725626218985275
 10
4.520751274685103
 20
6.700567886284968
 10
4.492363775402231
 20
6.707486111111115
 10
4.46401655389612
 20
6.714423441490503
 10
4.448472222222234
 20
6.750752607239418
 10
4.457723498499541
 20
6.788648439615422
 10
4.466986111111106
 20
6.826517883103204
 10
4.497517941938693
 20
6.851583333333338
 10
4.52589294122188
 20
6.844651215978463
 10
4.554266551616213
 20
6.837720660597975
 10
4.569769329002358
 20
6.801377605960523
 10
4.56053321812457
 20
6.763509551361595
 97
        0
 97
        0
 75
     2
 76
     1
 98
        0
  0
ENDBLK
  5
A9
330
A6
100
AcDbEntity
  8
0
100
AcDbBlockEnd
  0
BLOCK
  5
B0
330
AE
100
AcDbEntity
  8
0
100
AcDbBlockBegin
  2
block 7
 70
     0
 10
0.0
 20
0.0
 30
0.0
  3
block 7
  1

  0
SPLINE
  5
B2
330
AE
100
AcDbEntity
  8
CDTC6
 62
   250
420
  2301728
370
    35
100
AcDbSpline
210
0.0
220
0.0
230
1.0
 70
     8
 71
     3
 72
    17
 73
    13
 74
     0
 42
0.0000000001
 43
0.0000000001
 12
1.0
 22
0.0
 32
0.0
 13
1.0
 23
0.0
 33
0.0
 40
0.0
 40
0.0
 40
0.0
 40
0.0
 40
1.0
 40
1.0
 40
1.0
 40
2.0
 40
2.0
 40
2.0
 40
3.0
 40
3.0
 40
3.0
 40
4.0
 40
4.0
 40
4.0
 40
4.0
 10
4.720079047427437
 20
6.791903995088735
 30
0.0
 10
4.717895714149259
 20
6.79206649508463
 30
0.0
 10
4.706976269980664
 20
6.797084550513419
 30
0.0
 10
4.704847222222219
 20
6.797763888888893
 30
0.0
 10
4.677313770730001
 20
6.806552605829792
 30
0.0
 10
4.663166666666661
 20
6.841613716055185
 30
0.0
 10
4.672417937520347
 20
6.879509548431188
 30
0.0
 10
4.68168182617521
 20
6.91737899191897
 30
0.0
 10
4.7122123809595
 20
6.94244444444444
 30
0.0
 10
4.740587380242687
 20
6.935512324794217
 30
0.0
 10
4.746026268994178
 20
6.934183158161128
 30
0.0
 10
4.760510990850485
 20
6.92959288049931
 30
0.0
 10
4.766370712924678
 20
6.924323436187983
 30
0.0
  0
HATCH
  5
B3
330
AE
100
AcDbEntity
  8
CDTC6
 62
   254
420
 13358815
100
AcDbHatch
 10
0.0
 20
0.0
 30
0.0
210
0.0
220
0.0
230
1.0
  2
SOLID
 70
     1
 71
     0
 91
        1
 92
        1
 93
        2
 72
     4
 94
        3
 73
     0
 74
     0
 95
       17
 96
       13
 40
0.0
 40
0.0
 40
0.0
 40
0.0
 40
0.0138888888888889
 40
0.0138888888888889
 40
0.0138888888888889
 40
0.0277777777777778
 40
0.0277777777777778
 40
0.0277777777777778
 40
0.0416666666666667
 40
0.0416666666666667
 40
0.0416666666666667
 40
0.0555555555555556
 40
0.0555555555555556
 40
0.0555555555555556
 40
0.0555555555555556
 10
4.720079047427437
 20
6.791903995088735
 10
4.717895714149259
 20
6.79206649508463
 10
4.706976269980664
 20
6.797084550513419
 10
4.704847222222219
 20
6.797763888888893
 10
4.677313770730001
 20
6.806552605829792
 10
4.663166666666661
 20
6.841613716055185
 10
4.672417937520347
 20
6.879509548431188
 10
4.68168182617521
 20
6.91737899191897
 10
4.7122123809595
 20
6.94244444444444
 10
4.740587380242687
 20
6.935512324794217
 10
4.746026268994178
 20
6.934183158161128
 10
4.760510990850485
 20
6.92959288049931
 10
4.766370712924678
 20
6.924323436187983
 97
        0
 72
     1
 10
4.766370712924678
 20
6.924323436187983
 11
4.720079047427437
 21
6.791903995088735
 97
        0
 75
     2
 76
     1
 98
        0
  0
SPLINE
  5
B4
330
AE
100
AcDbEntity
  8
CDTC6
 62
   250
420
  2301728
370
    35
100
AcDbSpline
210
0.0
220
0.0
230
1.0
 70
    11
 71
     3
 72
    17
 73
    13
 74
     0
 42
0.0000000001
 43
0.0000000001
 12
1.0
 22
0.0
 32
0.0
 13
1.0
 23
0.0
 33
0.0
 40
0.0
 40
0.0
 40
0.0
 40
0.0
 40
1.0
 40
1.0
 40
1.0
 40
2.0
 40
2.0
 40
2.0
 40
3.0
 40
3.0
 40
3.0
 40
4.0
 40
4.0
 40
4.0
 40
4.0
 10
4.798380434338267
 20
6.845106771522498
 30
0.0
 10
4.789130434571941
 20
6.807223439146178
 30
0.0
 10
4.758598490898799
 20
6.782165106445872
 30
0.0
 10
4.730210991615928
 20
6.789083333333338
 30
0.0
 10
4.701863770109816
 20
6.796020661651406
 30
0.0
 10
4.686319444444456
 20
6.832349827400321
 30
0.0
 10
4.695570714713236
 20
6.870245659776325
 30
0.0
 10
4.704833333333327
 20
6.908115103264107
 30
0.0
 10
4.735365158152389
 20
6.933180555555559
 30
0.0
 10
4.763740157435576
 20
6.926248436139367
 30
0.0
 10
4.792113767829909
 20
6.919317880758879
 30
0.0
 10
4.807616545216054
 20
6.882974826121426
 30
0.0
 10
4.798380434338267
 20
6.845106771522498
 30
0.0
  0
HATCH
  5
B5
330
AE
100
AcDbEntity
  8
CDTC6
 62
   254
420
 13358815
100
AcDbHatch
 10
0.0
 20
0.0
 30
0.0
210
0.0
220
0.0
230
1.0
  2
SOLID
 70
     1
 71
     0
 91
        1
 92
        1
 93
        1
 72
     4
 94
        3
 73
     0
 74
     1
 95
       17
 96
       13
 40
0.0
 40
0.0
 40
0.0
 40
0.0
 40
1.0
 40
1.0
 40
1.0
 40
2.0
 40
2.0
 40
2.0
 40
3.0
 40
3.0
 40
3.0
 40
4.0
 40
4.0
 40
4.0
 40
4.0
 10
4.798380434338267
 20
6.845106771522498
 10
4.789130434571941
 20
6.807223439146178
 10
4.758598490898799
 20
6.782165106445872
 10
4.730210991615928
 20
6.789083333333338
 10
4.701863770109816
 20
6.796020661651406
 10
4.686319444444456
 20
6.832349827400321
 10
4.695570714713236
 20
6.870245659776325
 10
4.704833333333327
 20
6.908115103264107
 10
4.735365158152389
 20
6.933180555555559
 10
4.763740157435576
 20
6.926248436139367
 10
4.792113767829909
 20
6.919317880758879
 10
4.807616545216054
 20
6.882974826121426
 10
4.798380434338267
 20
6.845106771522498
 97
        0
 97
        0
 75
     2
 76
     1
 98
        0
  0
ENDBLK
  5
B1
330
AE
100
AcDbEntity
  8
0
100
AcDbBlockEnd
  0
BLOCK
  5
B8
330
B6
100
AcDbEntity
  8
0
100
AcDbBlockBegin
  2
block 8
 70
     0
 10
0.0
 20
0.0
 30
0.0
  3
block 8
  1

  0
SPLINE
  5
BA
330
B6
100
AcDbEntity
  8
CDTC6
 62
   250
420
  2301728
370
    35
100
AcDbSpline
210
0.0
220
0.0
230
1.0
 70
     8
 71
     3
 72
    17
 73
    13
 74
     0
 42
0.0000000001
 43
0.0000000001
 12
1.0
 22
0.0
 32
0.0
 13
1.0
 23
0.0
 33
0.0
 40
0.0
 40
0.0
 40
0.0
 40
0.0
 40
1.0
 40
1.0
 40
1.0
 40
2.0
 40
2.0
 40
2.0
 40
3.0
 40
3.0
 40
3.0
 40
4.0
 40
4.0
 40
4.0
 40
4.0
 10
4.975287374313666
 20
6.903015103392944
 30
0.0
 10
4.973104041035488
 20
6.903177603388839
 30
0.0
 10
4.962184596866892
 20
6.908195658817627
 30
0.0
 10
4.960055555555552
 20
6.908875000000004
 30
0.0
 10
4.932522097616229
 20
6.917663714134
 30
0.0
 10
4.918374999999994
 20
6.952724824359393
 30
0.0
 10
4.927626264406576
 20
6.990620656735397
 30
0.0
 10
4.936890153061439
 20
7.028490100223179
 30
0.0
 10
4.967420707845728
 20
7.053555555555552
 30
0.0
 10
4.995795707128915
 20
7.046623433098425
 30
0.0
 10
5.001234595880406
 20
7.045294266465336
 30
0.0
 10
5.015719317736713
 20
7.040703988803519
 30
0.0
 10
5.021579039810907
 20
7.035434544492191
 30
0.0
  0
HATCH
  5
BB
330
B6
100
AcDbEntity
  8
CDTC6
 62
   254
420
 13358815
100
AcDbHatch
 10
0.0
 20
0.0
 30
0.0
210
0.0
220
0.0
230
1.0
  2
SOLID
 70
     1
 71
     0
 91
        1
 92
        1
 93
        2
 72
     4
 94
        3
 73
     0
 74
     0
 95
       17
 96
       13
 40
0.0
 40
0.0
 40
0.0
 40
0.0
 40
0.0138888888888889
 40
0.0138888888888889
 40
0.0138888888888889
 40
0.0277777777777778
 40
0.0277777777777778
 40
0.0277777777777778
 40
0.0416666666666667
 40
0.0416666666666667
 40
0.0416666666666667
 40
0.0555555555555556
 40
0.0555555555555556
 40
0.0555555555555556
 40
0.0555555555555556
 10
4.975287374313666
 20
6.903015103392944
 10
4.973104041035488
 20
6.903177603388839
 10
4.962184596866892
 20
6.908195658817627
 10
4.960055555555552
 20
6.908875000000004
 10
4.932522097616229
 20
6.917663714134
 10
4.918374999999994
 20
6.952724824359393
 10
4.927626264406576
 20
6.990620656735397
 10
4.936890153061439
 20
7.028490100223179
 10
4.967420707845728
 20
7.053555555555552
 10
4.995795707128915
 20
7.046623433098425
 10
5.001234595880406
 20
7.045294266465336
 10
5.015719317736713
 20
7.040703988803519
 10
5.021579039810907
 20
7.035434544492191
 97
        0
 72
     1
 10
5.021579039810907
 20
7.035434544492191
 11
4.975287374313666
 21
6.903015103392944
 97
        0
 75
     2
 76
     1
 98
        0
  0
SPLINE
  5
BC
330
B6
100
AcDbEntity
  8
CDTC6
 62
   250
420
  2301728
370
    35
100
AcDbSpline
210
0.0
220
0.0
230
1.0
 70
    11
 71
     3
 72
    17
 73
    13
 74
     0
 42
0.0000000001
 43
0.0000000001
 12
1.0
 22
0.0
 32
0.0
 13
1.0
 23
0.0
 33
0.0
 40
0.0
 40
0.0
 40
0.0
 40
0.0
 40
1.0
 40
1.0
 40
1.0
 40
2.0
 40
2.0
 40
2.0
 40
3.0
 40
3.0
 40
3.0
 40
4.0
 40
4.0
 40
4.0
 40
4.0
 10
5.053588761224495
 20
6.956217879826706
 30
0.0
 10
5.04433876145817
 20
6.918334547450386
 30
0.0
 10
5.013806817785027
 20
6.89327621475008
 30
0.0
 10
4.985419318502156
 20
6.900194444444448
 30
0.0
 10
4.957072096996044
 20
6.907131769955615
 30
0.0
 10
4.94152777777779
 20
6.943460935704529
 30
0.0
 10
4.950779041599465
 20
6.981356768080533
 30
0.0
 10
4.960041666666661
 20
7.019226211568315
 30
0.0
 10
4.990573485038618
 20
7.044291666666671
 30
0.0
 10
5.018948484321805
 20
7.037359544443575
 30
0.0
 10
5.047322094716137
 20
7.030428989063087
 30
0.0
 10
5.062824872102283
 20
6.994085934425634
 30
0.0
 10
5.053588761224495
 20
6.956217879826706
 30
0.0
  0
HATCH
  5
BD
330
B6
100
AcDbEntity
  8
CDTC6
 62
   254
420
 13358815
100
AcDbHatch
 10
0.0
 20
0.0
 30
0.0
210
0.0
220
0.0
230
1.0
  2
SOLID
 70
     1
 71
     0
 91
        1
 92
        1
 93
        1
 72
     4
 94
        3
 73
     0
 74
     1
 95
       17
 96
       13
 40
0.0
 40
0.0
 40
0.0
 40
0.0
 40
1.0
 40
1.0
 40
1.0
 40
2.0
 40
2.0
 40
2.0
 40
3.0
 40
3.0
 40
3.0
 40
4.0
 40
4.0
 40
4.0
 40
4.0
 10
5.053588761224495
 20
6.956217879826706
 10
5.04433876145817
 20
6.918334547450386
 10
5.013806817785027
 20
6.89327621475008
 10
4.985419318502156
 20
6.900194444444448
 10
4.957072096996044
 20
6.907131769955615
 10
4.94152777777779
 20
6.943460935704529
 10
4.950779041599465
 20
6.981356768080533
 10
4.960041666666661
 20
7.019226211568315
 10
4.990573485038618
 20
7.044291666666671
 10
5.018948484321805
 20
7.037359544443575
 10
5.047322094716137
 20
7.030428989063087
 10
5.062824872102283
 20
6.994085934425634
 10
5.053588761224495
 20
6.956217879826706
 97
        0
 97
        0
 75
     2
 76
     1
 98
        0
  0
ENDBLK
  5
B9
330
B6
100
AcDbEntity
  8
0
100
AcDbBlockEnd
  0
BLOCK
  5
DD
330
DB
100
AcDbEntity
  8
0
100
AcDbBlockBegin
  2
block 9
 70
     0
 10
0.0
 20
0.0
 30
0.0
  3
block 9
  1

  0
SPLINE
  5
DF
330
DB
100
AcDbEntity
  8
CDTC6
 62
   250
420
  2301728
370
    25
100
AcDbSpline
210
0.0
220
0.0
230
1.0
 70
     8
 71
     3
 72
    14
 73
    10
 74
     0
 42
0.0000000001
 43
0.0000000001
 12
1.0
 22
0.0
 32
0.0
 13
1.0
 23
0.0
 33
0.0
 40
0.0
 40
0.0
 40
0.0
 40
0.0
 40
1.0
 40
1.0
 40
1.0
 40
2.0
 40
2.0
 40
2.0
 40
3.0
 40
3.0
 40
3.0
 40
3.0
 10
5.129625000000007
 20
6.965277777777778
 30
0.0
 10
5.129625000000007
 20
6.965277777777778
 30
0.0
 10
5.129625000000007
 20
6.321756784743431
 30
0.0
 10
5.129625000000007
 20
6.321756784743431
 30
0.0
 10
5.129625000000007
 20
6.321756784743431
 30
0.0
 10
5.125962370507295
 20
6.286322063416365
 30
0.0
 10
5.173611111111111
 20
6.27546511924619
 30
0.0
 10
5.173611111111111
 20
6.27546511924619
 30
0.0
 10
5.532402777777785
 20
6.173611111111111
 30
0.0
 10
5.532402777777785
 20
6.173611111111111
 30
0.0
  0
POLYLINE
  5
E0
330
DB
100
AcDbEntity
  8
CDTC6
 62
   250
420
  2301728
370
    25
100
AcDb2dPolyline
 66
     1
 10
0.0
 20
0.0
 30
0.0
  0
VERTEX
  5
E1
330
E0
100
AcDbEntity
  8
CDTC6
 62
   250
420
  2301728
370
    25
100
AcDbVertex
100
AcDb2dVertex
 10
5.401597222222234
 20
6.135972222222222
 30
0.0
  0
VERTEX
  5
E2
330
E0
100
AcDbEntity
  8
CDTC6
 62
   250
420
  2301728
370
    25
100
AcDbVertex
100
AcDb2dVertex
 10
5.541666666666666
 20
6.094909568251851
 30
0.0
  0
SEQEND
  5
E3
330
E0
100
AcDbEntity
  8
CDTC6
 62
   250
420
  2301728
370
    25
  0
POLYLINE
  5
E4
330
DB
100
AcDbEntity
  8
CDTC6
 62
   250
420
  2301728
370
    25
100
AcDb2dPolyline
 66
     1
 10
0.0
 20
0.0
 30
0.0
  0
VERTEX
  5
E5
330
E4
100
AcDbEntity
  8
CDTC6
 62
   250
420
  2301728
370
    25
100
AcDbVertex
100
AcDb2dVertex
 10
5.136663759125844
 20
6.213649843029998
 30
0.0
  0
VERTEX
  5
E6
330
E4
100
AcDbEntity
  8
CDTC6
 62
   250
420
  2301728
370
    25
100
AcDbVertex
100
AcDb2dVertex
 10
5.331460976427075
 20
6.156541666666663
 30
0.0
  0
SEQEND
  5
E7
330
E4
100
AcDbEntity
  8
CDTC6
 62
   250
420
  2301728
370
    25
  0
SPLINE
  5
E8
330
DB
100
AcDbEntity
  8
CDTC6
 62
   250
420
  2301728
370
    25
100
AcDbSpline
210
0.0
220
0.0
230
1.0
 70
     8
 71
     3
 72
     8
 73
     4
 74
     0
 42
0.0000000001
 43
0.0000000001
 12
1.0
 22
0.0
 32
0.0
 13
1.0
 23
0.0
 33
0.0
 40
0.0
 40
0.0
 40
0.0
 40
0.0
 40
1.0
 40
1.0
 40
1.0
 40
1.0
 10
5.046291666666674
 20
6.30093055555556
 30
0.0
 10
5.046291666666674
 20
6.30093055555556
 30
0.0
 10
5.043986111111104
 20
6.240736111111105
 30
0.0
 10
5.099541666666659
 20
6.224534564977248
 30
0.0
  0
POLYLINE
  5
E9
330
DB
100
AcDbEntity
  8
CDTC6
 62
   250
420
  2301728
370
    25
100
AcDb2dPolyline
 66
     1
 10
0.0
 20
0.0
 30
0.0
  0
VERTEX
  5
EA
330
E9
100
AcDbEntity
  8
CDTC6
 62
   250
420
  2301728
370
    25
100
AcDbVertex
100
AcDb2dVertex
 10
5.046291666666674
 20
6.523355390761733
 30
0.0
  0
VERTEX
  5
EB
330
E9
100
AcDbEntity
  8
CDTC6
 62
   250
420
  2301728
370
    25
100
AcDbVertex
100
AcDb2dVertex
 10
5.046291666666674
 20
6.349534561819483
 30
0.0
  0
SEQEND
  5
EC
330
E9
100
AcDbEntity
  8
CDTC6
 62
   250
420
  2301728
370
    25
  0
POLYLINE
  5
ED
330
DB
100
AcDbEntity
  8
CDTC6
 62
   250
420
  2301728
370
    25
100
AcDb2dPolyline
 66
     1
 10
0.0
 20
0.0
 30
0.0
  0
VERTEX
  5
EE
330
ED
100
AcDbEntity
  8
CDTC6
 62
   250
420
  2301728
370
    25
100
AcDbVertex
100
AcDb2dVertex
 10
5.046291666666674
 20
6.812506772346043
 30
0.0
  0
VERTEX
  5
EF
330
ED
100
AcDbEntity
  8
CDTC6
 62
   250
420
  2301728
370
    25
100
AcDbVertex
100
AcDb2dVertex
 10
5.046291666666674
 20
6.56734844520593
 30
0.0
  0
SEQEND
  5
F0
330
ED
100
AcDbEntity
  8
CDTC6
 62
   250
420
  2301728
370
    25
  0
POLYLINE
  5
F1
330
DB
100
AcDbEntity
  8
CDTC6
 62
   250
420
  2301728
370
    25
100
AcDb2dPolyline
 66
     1
 10
0.0
 20
0.0
 30
0.0
  0
VERTEX
  5
F2
330
F1
100
AcDbEntity
  8
CDTC6
 62
   250
420
  2301728
370
    25
100
AcDbVertex
100
AcDb2dVertex
 10
5.046291666666674
 20
6.935295658133024
 30
0.0
  0
VERTEX
  5
F3
330
F1
100
AcDbEntity
  8
CDTC6
 62
   250
420
  2301728
370
    25
100
AcDbVertex
100
AcDb2dVertex
 10
5.046291666666674
 20
6.858798437843297
 30
0.0
  0
SEQEND
  5
F4
330
F1
100
AcDbEntity
  8
CDTC6
 62
   250
420
  2301728
370
    25
  0
ENDBLK
  5
DE
330
DB
100
AcDbEntity
  8
0
100
AcDbBlockEnd
  0
BLOCK
  5
F7
330
F5
100
AcDbEntity
  8
0
100
AcDbBlockBegin
  2
block 10
 70
     0
 10
0.0
 20
0.0
 30
0.0
  3
block 10
  1

  0
POLYLINE
  5
F9
330
F5
100
AcDbEntity
  8
CDTC6
 62
   250
420
  2301728
370
    25
100
AcDb2dPolyline
 66
     1
 10
0.0
 20
0.0
 30
0.0
  0
VERTEX
  5
FA
330
F9
100
AcDbEntity
  8
CDTC6
 62
   250
420
  2301728
370
    25
100
AcDbVertex
100
AcDb2dVertex
 10
4.969902777777785
 20
6.071756791058962
 30
0.0
  0
VERTEX
  5
FB
330
F9
100
AcDbEntity
  8
CDTC6
 62
   250
420
  2301728
370
    25
100
AcDbVertex
100
AcDb2dVertex
 10
4.881944444444444
 20
6.097222222222222
 30
0.0
  0
SEQEND
  5
FC
330
F9
100
AcDbEntity
  8
CDTC6
 62
   250
420
  2301728
370
    25
  0
SPLINE
  5
FD
330
F5
100
AcDbEntity
  8
CDTC6
 62
   250
420
  2301728
370
    25
100
AcDbSpline
210
0.0
220
0.0
230
1.0
 70
     8
 71
     3
 72
    20
 73
    16
 74
     0
 42
0.0000000001
 43
0.0000000001
 12
1.0
 22
0.0
 32
0.0
 13
1.0
 23
0.0
 33
0.0
 40
0.0
 40
0.0
 40
0.0
 40
0.0
 40
1.0
 40
1.0
 40
1.0
 40
2.0
 40
2.0
 40
2.0
 40
3.0
 40
3.0
 40
3.0
 40
4.0
 40
4.0
 40
4.0
 40
5.0
 40
5.0
 40
5.0
 40
5.0
 10
4.876152777777785
 20
7.136576208603805
 30
0.0
 10
4.876152777777785
 20
7.136576208603805
 30
0.0
 10
4.876152777777785
 20
6.207173454304717
 30
0.0
 10
4.876152777777785
 20
6.207173454304717
 30
0.0
 10
4.876152777777785
 20
6.207173454304717
 30
0.0
 10
4.873833333333323
 20
6.174763888888884
 30
0.0
 10
4.914347222222229
 20
6.159722222222222
 30
0.0
 10
4.914347222222229
 20
6.159722222222222
 30
0.0
 10
5.050930555555547
 20
6.118055555555555
 30
0.0
 10
5.050930555555547
 20
6.118055555555555
 30
0.0
 10
5.050930555555547
 20
6.118055555555555
 30
0.0
 10
5.099541666666659
 20
6.097222222222222
 30
0.0
 10
5.069444444444444
 20
6.081020679713825
 30
0.0
 10
5.069444444444444
 20
6.081020679713825
 30
0.0
 10
5.055704038948837
 20
6.068345680034023
 30
0.0
 10
5.025376261937203
 20
6.065829013430933
 30
0.0
  0
SPLINE
  5
FE
330
F5
100
AcDbEntity
  8
CDTC6
 62
   250
420
  2301728
370
    25
100
AcDbSpline
210
0.0
220
0.0
230
1.0
 70
     8
 71
     3
 72
     8
 73
     4
 74
     0
 42
0.0000000001
 43
0.0000000001
 12
1.0
 22
0.0
 32
0.0
 13
1.0
 23
0.0
 33
0.0
 40
0.0
 40
0.0
 40
0.0
 40
0.0
 40
1.0
 40
1.0
 40
1.0
 40
1.0
 10
4.792819444444452
 20
6.186347222222227
 30
0.0
 10
4.792819444444452
 20
6.186347222222227
 30
0.0
 10
4.790513888888881
 20
6.126152777777772
 30
0.0
 10
4.846069444444437
 20
6.109951234538534
 30
0.0
  0
POLYLINE
  5
FF
330
F5
100
AcDbEntity
  8
CDTC6
 62
   250
420
  2301728
370
    25
100
AcDb2dPolyline
 66
     1
 10
0.0
 20
0.0
 30
0.0
  0
VERTEX
  5
100
330
FF
100
AcDbEntity
  8
CDTC6
 62
   250
420
  2301728
370
    25
100
AcDbVertex
100
AcDb2dVertex
 10
4.792819444444452
 20
6.412251226901794
 30
0.0
  0
VERTEX
  5
101
330
FF
100
AcDbEntity
  8
CDTC6
 62
   250
420
  2301728
370
    25
100
AcDbVertex
100
AcDb2dVertex
 10
4.792819444444452
 20
6.243055555555555
 30
0.0
  0
SEQEND
  5
102
330
FF
100
AcDbEntity
  8
CDTC6
 62
   250
420
  2301728
370
    25
  0
POLYLINE
  5
103
330
F5
100
AcDbEntity
  8
CDTC6
 62
   250
420
  2301728
370
    25
100
AcDb2dPolyline
 66
     1
 10
0.0
 20
0.0
 30
0.0
  0
VERTEX
  5
104
330
103
100
AcDbEntity
  8
CDTC6
 62
   250
420
  2301728
370
    25
100
AcDbVertex
100
AcDb2dVertex
 10
4.792819444444452
 20
6.699069444444439
 30
0.0
  0
VERTEX
  5
105
330
103
100
AcDbEntity
  8
CDTC6
 62
   250
420
  2301728
370
    25
100
AcDbVertex
100
AcDb2dVertex
 10
4.792819444444452
 20
6.484008169533505
 30
0.0
  0
SEQEND
  5
106
330
103
100
AcDbEntity
  8
CDTC6
 62
   250
420
  2301728
370
    25
  0
POLYLINE
  5
107
330
F5
100
AcDbEntity
  8
CDTC6
 62
   250
420
  2301728
370
    25
100
AcDb2dPolyline
 66
     1
 10
0.0
 20
0.0
 30
0.0
  0
VERTEX
  5
108
330
107
100
AcDbEntity
  8
CDTC6
 62
   250
420
  2301728
370
    25
100
AcDbVertex
100
AcDb2dVertex
 10
4.792819444444452
 20
6.822916666666666
 30
0.0
  0
VERTEX
  5
109
330
107
100
AcDbEntity
  8
CDTC6
 62
   250
420
  2301728
370
    25
100
AcDbVertex
100
AcDb2dVertex
 10
4.792819444444452
 20
6.75
 30
0.0
  0
SEQEND
  5
10A
330
107
100
AcDbEntity
  8
CDTC6
 62
   250
420
  2301728
370
    25
  0
POLYLINE
  5
10B
330
F5
100
AcDbEntity
  8
CDTC6
 62
   250
420
  2301728
370
    25
100
AcDb2dPolyline
 66
     1
 10
0.0
 20
0.0
 30
0.0
  0
VERTEX
  5
10C
330
10B
100
AcDbEntity
  8
CDTC6
 62
   250
420
  2301728
370
    25
100
AcDbVertex
100
AcDb2dVertex
 10
4.792819444444452
 20
6.972222222222221
 30
0.0
  0
VERTEX
  5
10D
330
10B
100
AcDbEntity
  8
CDTC6
 62
   250
420
  2301728
370
    25
100
AcDbVertex
100
AcDb2dVertex
 10
4.792819444444452
 20
6.906256769977719
 30
0.0
  0
SEQEND
  5
10E
330
10B
100
AcDbEntity
  8
CDTC6
 62
   250
420
  2301728
370
    25
  0
POLYLINE
  5
10F
330
F5
100
AcDbEntity
  8
CDTC6
 62
   250
420
  2301728
370
    25
100
AcDb2dPolyline
 66
     1
 10
0.0
 20
0.0
 30
0.0
  0
VERTEX
  5
110
330
10F
100
AcDbEntity
  8
CDTC6
 62
   250
420
  2301728
370
    25
100
AcDbVertex
100
AcDb2dVertex
 10
4.792819444444452
 20
7.150465097141831
 30
0.0
  0
VERTEX
  5
111
330
10F
100
AcDbEntity
  8
CDTC6
 62
   250
420
  2301728
370
    25
100
AcDbVertex
100
AcDb2dVertex
 10
4.792819444444452
 20
7.025458333333328
 30
0.0
  0
SEQEND
  5
112
330
10F
100
AcDbEntity
  8
CDTC6
 62
   250
420
  2301728
370
    25
  0
ENDBLK
  5
F8
330
F5
100
AcDbEntity
  8
0
100
AcDbBlockEnd
  0
BLOCK
  5
115
330
113
100
AcDbEntity
  8
0
100
AcDbBlockBegin
  2
block 11
 70
     0
 10
0.0
 20
0.0
 30
0.0
  3
block 11
  1

  0
POLYLINE
  5
117
330
113
100
AcDbEntity
  8
CDTC6
 62
   250
420
  2301728
370
    25
100
AcDb2dPolyline
 66
     1
 10
0.0
 20
0.0
 30
0.0
  0
VERTEX
  5
118
330
117
100
AcDbEntity
  8
CDTC6
 62
   250
420
  2301728
370
    25
100
AcDbVertex
100
AcDb2dVertex
 10
4.637138888888885
 20
7.230427595121808
 30
0.0
  0
VERTEX
  5
119
330
117
100
AcDbEntity
  8
CDTC6
 62
   250
420
  2301728
370
    25
100
AcDbVertex
100
AcDb2dVertex
 10
4.637138888888885
 20
6.124992900825216
 30
0.0
  0
SEQEND
  5
11A
330
117
100
AcDbEntity
  8
CDTC6
 62
   250
420
  2301728
370
    25
  0
POLYLINE
  5
11B
330
113
100
AcDbEntity
  8
CDTC6
 62
   250
420
  2301728
370
    25
100
AcDb2dPolyline
 66
     1
 10
0.0
 20
0.0
 30
0.0
  0
VERTEX
  5
11C
330
11B
100
AcDbEntity
  8
CDTC6
 62
   250
420
  2301728
370
    25
100
AcDbVertex
100
AcDb2dVertex
 10
4.553805555555552
 20
6.344902777777772
 30
0.0
  0
VERTEX
  5
11D
330
11B
100
AcDbEntity
  8
CDTC6
 62
   250
420
  2301728
370
    25
100
AcDbVertex
100
AcDb2dVertex
 10
4.553805555555552
 20
6.3125
 30
0.0
  0
SEQEND
  5
11E
330
11B
100
AcDbEntity
  8
CDTC6
 62
   250
420
  2301728
370
    25
  0
POLYLINE
  5
11F
330
113
100
AcDbEntity
  8
CDTC6
 62
   250
420
  2301728
370
    25
100
AcDb2dPolyline
 66
     1
 10
0.0
 20
0.0
 30
0.0
  0
VERTEX
  5
120
330
11F
100
AcDbEntity
  8
CDTC6
 62
   250
420
  2301728
370
    25
100
AcDbVertex
100
AcDb2dVertex
 10
4.553805555555552
 20
6.606472222222224
 30
0.0
  0
VERTEX
  5
121
330
11F
100
AcDbEntity
  8
CDTC6
 62
   250
420
  2301728
370
    25
100
AcDbVertex
100
AcDb2dVertex
 10
4.553805555555552
 20
6.405083333333335
 30
0.0
  0
SEQEND
  5
122
330
11F
100
AcDbEntity
  8
CDTC6
 62
   250
420
  2301728
370
    25
  0
POLYLINE
  5
123
330
113
100
AcDbEntity
  8
CDTC6
 62
   250
420
  2301728
370
    25
100
AcDb2dPolyline
 66
     1
 10
0.0
 20
0.0
 30
0.0
  0
VERTEX
  5
124
330
123
100
AcDbEntity
  8
CDTC6
 62
   250
420
  2301728
370
    25
100
AcDbVertex
100
AcDb2dVertex
 10
4.553805555555552
 20
6.7361178853869
 30
0.0
  0
VERTEX
  5
125
330
123
100
AcDbEntity
  8
CDTC6
 62
   250
420
  2301728
370
    25
100
AcDbVertex
100
AcDb2dVertex
 10
4.553805555555552
 20
6.664347222222217
 30
0.0
  0
SEQEND
  5
126
330
123
100
AcDbEntity
  8
CDTC6
 62
   250
420
  2301728
370
    25
  0
POLYLINE
  5
127
330
113
100
AcDbEntity
  8
CDTC6
 62
   250
420
  2301728
370
    25
100
AcDb2dPolyline
 66
     1
 10
0.0
 20
0.0
 30
0.0
  0
VERTEX
  5
128
330
127
100
AcDbEntity
  8
CDTC6
 62
   250
420
  2301728
370
    25
100
AcDbVertex
100
AcDb2dVertex
 10
4.553805555555552
 20
6.912034547609538
 30
0.0
  0
VERTEX
  5
129
330
127
100
AcDbEntity
  8
CDTC6
 62
   250
420
  2301728
370
    25
100
AcDbVertex
100
AcDb2dVertex
 10
4.553805555555552
 20
6.822923438749562
 30
0.0
  0
SEQEND
  5
12A
330
127
100
AcDbEntity
  8
CDTC6
 62
   250
420
  2301728
370
    25
  0
POLYLINE
  5
12B
330
113
100
AcDbEntity
  8
CDTC6
 62
   250
420
  2301728
370
    25
100
AcDb2dPolyline
 66
     1
 10
0.0
 20
0.0
 30
0.0
  0
VERTEX
  5
12C
330
12B
100
AcDbEntity
  8
CDTC6
 62
   250
420
  2301728
370
    25
100
AcDbVertex
100
AcDb2dVertex
 10
4.553805555555552
 20
7.145840097258668
 30
0.0
  0
VERTEX
  5
12D
330
12B
100
AcDbEntity
  8
CDTC6
 62
   250
420
  2301728
370
    25
100
AcDbVertex
100
AcDb2dVertex
 10
4.553805555555552
 20
6.956020657609466
 30
0.0
  0
SEQEND
  5
12E
330
12B
100
AcDbEntity
  8
CDTC6
 62
   250
420
  2301728
370
    25
  0
POLYLINE
  5
12F
330
113
100
AcDbEntity
  8
CDTC6
 62
   250
420
  2301728
370
    25
100
AcDb2dPolyline
 66
     1
 10
0.0
 20
0.0
 30
0.0
  0
VERTEX
  5
130
330
12F
100
AcDbEntity
  8
CDTC6
 62
   250
420
  2301728
370
    25
100
AcDbVertex
100
AcDb2dVertex
 10
4.553805555555552
 20
7.256435927798115
 30
0.0
  0
VERTEX
  5
131
330
12F
100
AcDbEntity
  8
CDTC6
 62
   250
420
  2301728
370
    25
100
AcDbVertex
100
AcDb2dVertex
 10
4.553805555555552
 20
7.187506762872746
 30
0.0
  0
SEQEND
  5
132
330
12F
100
AcDbEntity
  8
CDTC6
 62
   250
420
  2301728
370
    25
  0
ENDBLK
  5
116
330
113
100
AcDbEntity
  8
0
100
AcDbBlockEnd
  0
BLOCK
  5
135
330
133
100
AcDbEntity
  8
0
100
AcDbBlockBegin
  2
block 12
 70
     0
 10
0.0
 20
0.0
 30
0.0
  3
block 12
  1

  0
POLYLINE
  5
137
330
133
100
AcDbEntity
  8
CDTC6
 62
   250
420
  2301728
370
    25
100
AcDb2dPolyline
 66
     1
 10
0.0
 20
0.0
 30
0.0
  0
VERTEX
  5
138
330
137
100
AcDbEntity
  8
CDTC6
 62
   250
420
  2301728
370
    25
100
AcDbVertex
100
AcDb2dVertex
 10
4.341999999999997
 20
7.275566482870393
 30
0.0
  0
VERTEX
  5
139
330
137
100
AcDbEntity
  8
CDTC6
 62
   250
420
  2301728
370
    25
100
AcDbVertex
100
AcDb2dVertex
 10
4.341999999999997
 20
6.756835940419073
 30
0.0
  0
SEQEND
  5
13A
330
137
100
AcDbEntity
  8
CDTC6
 62
   250
420
  2301728
370
    25
  0
POLYLINE
  5
13B
330
133
100
AcDbEntity
  8
CDTC6
 62
   250
420
  2301728
370
    25
100
AcDb2dPolyline
 66
     1
 10
0.0
 20
0.0
 30
0.0
  0
VERTEX
  5
13C
330
13B
100
AcDbEntity
  8
CDTC6
 62
   250
420
  2301728
370
    25
100
AcDbVertex
100
AcDb2dVertex
 10
4.258666666666664
 20
7.106472222222224
 30
0.0
  0
VERTEX
  5
13D
330
13B
100
AcDbEntity
  8
CDTC6
 62
   250
420
  2301728
370
    25
100
AcDbVertex
100
AcDb2dVertex
 10
4.258666666666664
 20
6.951395657726303
 30
0.0
  0
SEQEND
  5
13E
330
13B
100
AcDbEntity
  8
CDTC6
 62
   250
420
  2301728
370
    25
  0
POLYLINE
  5
13F
330
133
100
AcDbEntity
  8
CDTC6
 62
   250
420
  2301728
370
    25
100
AcDb2dPolyline
 66
     1
 10
0.0
 20
0.0
 30
0.0
  0
VERTEX
  5
140
330
13F
100
AcDbEntity
  8
CDTC6
 62
   250
420
  2301728
370
    25
100
AcDbVertex
100
AcDb2dVertex
 10
4.258666666666664
 20
7.287577593678078
 30
0.0
  0
VERTEX
  5
141
330
13F
100
AcDbEntity
  8
CDTC6
 62
   250
420
  2301728
370
    25
100
AcDbVertex
100
AcDb2dVertex
 10
4.258666666666664
 20
7.152784541527681
 30
0.0
  0
SEQEND
  5
142
330
13F
100
AcDbEntity
  8
CDTC6
 62
   250
420
  2301728
370
    25
  0
ENDBLK
  5
136
330
133
100
AcDbEntity
  8
0
100
AcDbBlockEnd
  0
BLOCK
  5
15A
330
158
100
AcDbEntity
  8
0
100
AcDbBlockBegin
  2
block 13
 70
     0
 10
0.0
 20
0.0
 30
0.0
  3
block 13
  1

  0
SPLINE
  5
15C
330
158
100
AcDbEntity
  8
CDTC6
 62
   250
420
  2301728
370
    35
100
AcDbSpline
210
0.0
220
0.0
230
1.0
 70
     8
 71
     3
 72
    17
 73
    13
 74
     0
 42
0.0000000001
 43
0.0000000001
 12
1.0
 22
0.0
 32
0.0
 13
1.0
 23
0.0
 33
0.0
 40
0.0
 40
0.0
 40
0.0
 40
0.0
 40
1.0
 40
1.0
 40
1.0
 40
2.0
 40
2.0
 40
2.0
 40
3.0
 40
3.0
 40
3.0
 40
4.0
 40
4.0
 40
4.0
 40
4.0
 10
5.150566536552408
 20
6.094556790482986
 30
0.0
 10
5.150566536552408
 20
6.094556790482986
 30
0.0
 10
5.150566536552408
 20
6.063252624607129
 30
0.0
 10
5.150566536552408
 20
6.063252624607129
 30
0.0
 10
5.15055264766387
 20
6.045335958393076
 30
0.0
 10
5.185912368992831
 20
6.030741514317318
 30
0.0
 10
5.229559590112431
 20
6.030659569874943
 30
0.0
 10
5.273234589009108
 20
6.030605403209645
 30
0.0
 10
5.308648477003367
 20
6.045098458399075
 30
0.0
 10
5.308702643668665
 20
6.062988735724907
 30
0.0
 10
5.308702643668665
 20
6.062988735724907
 30
0.0
 10
5.308702643668665
 20
6.093533179397733
 30
0.0
 10
5.308702643668665
 20
6.093533179397733
 30
0.0
  0
HATCH
  5
15D
330
158
100
AcDbEntity
  8
CDTC6
 62
   254
420
 13358815
100
AcDbHatch
 10
0.0
 20
0.0
 30
0.0
210
0.0
220
0.0
230
1.0
  2
SOLID
 70
     1
 71
     0
 91
        1
 92
        1
 93
        2
 72
     4
 94
        3
 73
     0
 74
     0
 95
       17
 96
       13
 40
0.0
 40
0.0
 40
0.0
 40
0.0
 40
0.0138888888888889
 40
0.0138888888888889
 40
0.0138888888888889
 40
0.0277777777777778
 40
0.0277777777777778
 40
0.0277777777777778
 40
0.0416666666666667
 40
0.0416666666666667
 40
0.0416666666666667
 40
0.0555555555555556
 40
0.0555555555555556
 40
0.0555555555555556
 40
0.0555555555555556
 10
5.150566536552408
 20
6.094556790482986
 10
5.150566536552408
 20
6.094556790482986
 10
5.150566536552408
 20
6.063252624607129
 10
5.150566536552408
 20
6.063252624607129
 10
5.15055264766387
 20
6.045335958393076
 10
5.185912368992831
 20
6.030741514317318
 10
5.229559590112431
 20
6.030659569874943
 10
5.273234589009108
 20
6.030605403209645
 10
5.308648477003367
 20
6.045098458399075
 10
5.308702643668665
 20
6.062988735724907
 10
5.308702643668665
 20
6.062988735724907
 10
5.308702643668665
 20
6.093533179397733
 10
5.308702643668665
 20
6.093533179397733
 97
        0
 72
     1
 10
5.308702643668665
 20
6.093533179397733
 11
5.150566536552408
 21
6.094556790482986
 97
        0
 75
     2
 76
     1
 98
        0
  0
SPLINE
  5
15E
330
158
100
AcDbEntity
  8
CDTC6
 62
   250
420
  2301728
370
    35
100
AcDbSpline
210
0.0
220
0.0
230
1.0
 70
    11
 71
     3
 72
    17
 73
    13
 74
     0
 42
0.0000000001
 43
0.0000000001
 12
1.0
 22
0.0
 32
0.0
 13
1.0
 23
0.0
 33
0.0
 40
0.0
 40
0.0
 40
0.0
 40
0.0
 40
1.0
 40
1.0
 40
1.0
 40
2.0
 40
2.0
 40
2.0
 40
3.0
 40
3.0
 40
3.0
 40
4.0
 40
4.0
 40
4.0
 40
4.0
 10
5.229681812331566
 20
6.125670678585871
 30
0.0
 10
5.273342922339705
 20
6.125609567476304
 30
0.0
 10
5.308702643668665
 20
6.111002623400863
 30
0.0
 10
5.308702643668665
 20
6.093084568297955
 30
0.0
 10
5.308648477003367
 20
6.075195679860977
 30
0.0
 10
5.273234589009108
 20
6.060702624671547
 30
0.0
 10
5.229559590112431
 20
6.060756791336845
 30
0.0
 10
5.185912368992831
 20
6.06083873577922
 30
0.0
 10
5.15055264766387
 20
6.075433179854977
 30
0.0
 10
5.150566536552408
 20
6.093349846069032
 30
0.0
 10
5.150594314329484
 20
6.111254012283401
 30
0.0
 10
5.186034591211965
 20
6.12572484525117
 30
0.0
 10
5.229681812331566
 20
6.125670678585871
 30
0.0
  0
HATCH
  5
15F
330
158
100
AcDbEntity
  8
CDTC6
 62
   254
420
 13358815
100
AcDbHatch
 10
0.0
 20
0.0
 30
0.0
210
0.0
220
0.0
230
1.0
  2
SOLID
 70
     1
 71
     0
 91
        1
 92
        1
 93
        1
 72
     4
 94
        3
 73
     0
 74
     1
 95
       17
 96
       13
 40
0.0
 40
0.0
 40
0.0
 40
0.0
 40
1.0
 40
1.0
 40
1.0
 40
2.0
 40
2.0
 40
2.0
 40
3.0
 40
3.0
 40
3.0
 40
4.0
 40
4.0
 40
4.0
 40
4.0
 10
5.229681812331566
 20
6.125670678585871
 10
5.273342922339705
 20
6.125609567476304
 10
5.308702643668665
 20
6.111002623400863
 10
5.308702643668665
 20
6.093084568297955
 10
5.308648477003367
 20
6.075195679860977
 10
5.273234589009108
 20
6.060702624671547
 10
5.229559590112431
 20
6.060756791336845
 10
5.185912368992831
 20
6.06083873577922
 10
5.15055264766387
 20
6.075433179854977
 10
5.150566536552408
 20
6.093349846069032
 10
5.150594314329484
 20
6.111254012283401
 10
5.186034591211965
 20
6.12572484525117
 10
5.229681812331566
 20
6.125670678585871
 97
        0
 97
        0
 75
     2
 76
     1
 98
        0
  0
ENDBLK
  5
15B
330
158
100
AcDbEntity
  8
0
100
AcDbBlockEnd
  0
BLOCK
  5
162
330
160
100
AcDbEntity
  8
0
100
AcDbBlockBegin
  2
block 14
 70
     0
 10
0.0
 20
0.0
 30
0.0
  3
block 14
  1

  0
SPLINE
  5
164
330
160
100
AcDbEntity
  8
CDTC6
 62
   250
420
  2301728
370
    35
100
AcDbSpline
210
0.0
220
0.0
230
1.0
 70
     8
 71
     3
 72
    17
 73
    13
 74
     0
 42
0.0000000001
 43
0.0000000001
 12
1.0
 22
0.0
 32
0.0
 13
1.0
 23
0.0
 33
0.0
 40
0.0
 40
0.0
 40
0.0
 40
0.0
 40
1.0
 40
1.0
 40
1.0
 40
2.0
 40
2.0
 40
2.0
 40
3.0
 40
3.0
 40
3.0
 40
4.0
 40
4.0
 40
4.0
 40
4.0
 10
5.291774866318519
 20
5.846869296740098
 30
0.0
 10
5.291774866318519
 20
5.846869296740098
 30
0.0
 10
5.291774866318519
 20
5.815565130864242
 30
0.0
 10
5.291774866318519
 20
5.815565130864242
 30
0.0
 10
5.291760977429981
 20
5.797648464650188
 30
0.0
 10
5.327120698758941
 20
5.78305402057443
 30
0.0
 10
5.370767919878542
 20
5.782972222222219
 30
0.0
 10
5.414441529886365
 20
5.782917909466757
 30
0.0
 10
5.449855417880624
 20
5.797410964656188
 30
0.0
 10
5.449910973434776
 20
5.815301241982019
 30
0.0
 10
5.449910973434776
 20
5.815301241982019
 30
0.0
 10
5.449910973434776
 20
5.845845685654846
 30
0.0
 10
5.449910973434776
 20
5.845845685654846
 30
0.0
  0
HATCH
  5
165
330
160
100
AcDbEntity
  8
CDTC6
 62
   254
420
 13358815
100
AcDbHatch
 10
0.0
 20
0.0
 30
0.0
210
0.0
220
0.0
230
1.0
  2
SOLID
 70
     1
 71
     0
 91
        1
 92
        1
 93
        2
 72
     4
 94
        3
 73
     0
 74
     0
 95
       17
 96
       13
 40
0.0
 40
0.0
 40
0.0
 40
0.0
 40
0.0138888888888889
 40
0.0138888888888889
 40
0.0138888888888889
 40
0.0277777777777778
 40
0.0277777777777778
 40
0.0277777777777778
 40
0.0416666666666667
 40
0.0416666666666667
 40
0.0416666666666667
 40
0.0555555555555556
 40
0.0555555555555556
 40
0.0555555555555556
 40
0.0555555555555556
 10
5.291774866318519
 20
5.846869296740098
 10
5.291774866318519
 20
5.846869296740098
 10
5.291774866318519
 20
5.815565130864242
 10
5.291774866318519
 20
5.815565130864242
 10
5.291760977429981
 20
5.797648464650188
 10
5.327120698758941
 20
5.78305402057443
 10
5.370767919878542
 20
5.782972222222219
 10
5.414441529886365
 20
5.782917909466757
 10
5.449855417880624
 20
5.797410964656188
 10
5.449910973434776
 20
5.815301241982019
 10
5.449910973434776
 20
5.815301241982019
 10
5.449910973434776
 20
5.845845685654846
 10
5.449910973434776
 20
5.845845685654846
 97
        0
 72
     1
 10
5.449910973434776
 20
5.845845685654846
 11
5.291774866318519
 21
5.846869296740098
 97
        0
 75
     2
 76
     1
 98
        0
  0
SPLINE
  5
166
330
160
100
AcDbEntity
  8
CDTC6
 62
   250
420
  2301728
370
    35
100
AcDbSpline
210
0.0
220
0.0
230
1.0
 70
    11
 71
     3
 72
    17
 73
    13
 74
     0
 42
0.0000000001
 43
0.0000000001
 12
1.0
 22
0.0
 32
0.0
 13
1.0
 23
0.0
 33
0.0
 40
0.0
 40
0.0
 40
0.0
 40
0.0
 40
1.0
 40
1.0
 40
1.0
 40
2.0
 40
2.0
 40
2.0
 40
3.0
 40
3.0
 40
3.0
 40
4.0
 40
4.0
 40
4.0
 40
4.0
 10
5.370890142097677
 20
5.877983184842984
 30
0.0
 10
5.414551252105816
 20
5.877922073733417
 30
0.0
 10
5.449910973434776
 20
5.863315129657975
 30
0.0
 10
5.449910973434776
 20
5.845398463443922
 30
0.0
 10
5.449855417880624
 20
5.827508186118103
 30
0.0
 10
5.414441529886365
 20
5.81301513092866
 30
0.0
 10
5.370767919878542
 20
5.813069444444446
 30
0.0
 10
5.327120698758941
 20
5.813151242036333
 30
0.0
 10
5.291760977429981
 20
5.82774568611209
 30
0.0
 10
5.291774866318519
 20
5.845662352326144
 30
0.0
 10
5.291802644095595
 20
5.863566518540513
 30
0.0
 10
5.327242920978076
 20
5.878038740397137
 30
0.0
 10
5.370890142097677
 20
5.877983184842984
 30
0.0
  0
HATCH
  5
167
330
160
100
AcDbEntity
  8
CDTC6
 62
   254
420
 13358815
100
AcDbHatch
 10
0.0
 20
0.0
 30
0.0
210
0.0
220
0.0
230
1.0
  2
SOLID
 70
     1
 71
     0
 91
        1
 92
        1
 93
        1
 72
     4
 94
        3
 73
     0
 74
     1
 95
       17
 96
       13
 40
0.0
 40
0.0
 40
0.0
 40
0.0
 40
1.0
 40
1.0
 40
1.0
 40
2.0
 40
2.0
 40
2.0
 40
3.0
 40
3.0
 40
3.0
 40
4.0
 40
4.0
 40
4.0
 40
4.0
 10
5.370890142097677
 20
5.877983184842984
 10
5.414551252105816
 20
5.877922073733417
 10
5.449910973434776
 20
5.863315129657975
 10
5.449910973434776
 20
5.845398463443922
 10
5.449855417880624
 20
5.827508186118103
 10
5.414441529886365
 20
5.81301513092866
 10
5.370767919878542
 20
5.813069444444446
 10
5.327120698758941
 20
5.813151242036333
 10
5.291760977429981
 20
5.82774568611209
 10
5.291774866318519
 20
5.845662352326144
 10
5.291802644095595
 20
5.863566518540513
 10
5.327242920978076
 20
5.878038740397137
 10
5.370890142097677
 20
5.877983184842984
 97
        0
 97
        0
 75
     2
 76
     1
 98
        0
  0
ENDBLK
  5
163
330
160
100
AcDbEntity
  8
0
100
AcDbBlockEnd
  0
BLOCK
  5
16A
330
168
100
AcDbEntity
  8
0
100
AcDbBlockBegin
  2
block 15
 70
     0
 10
0.0
 20
0.0
 30
0.0
  3
block 15
  1

  0
SPLINE
  5
16C
330
168
100
AcDbEntity
  8
CDTC6
 62
   250
420
  2301728
370
    35
100
AcDbSpline
210
0.0
220
0.0
230
1.0
 70
     8
 71
     3
 72
    14
 73
    10
 74
     0
 42
0.0000000001
 43
0.0000000001
 12
1.0
 22
0.0
 32
0.0
 13
1.0
 23
0.0
 33
0.0
 40
0.0
 40
0.0
 40
0.0
 40
0.0
 40
1.0
 40
1.0
 40
1.0
 40
2.0
 40
2.0
 40
2.0
 40
3.0
 40
3.0
 40
3.0
 40
3.0
 10
4.752034602175727
 20
5.802490131194544
 30
0.0
 10
4.75817904646495
 20
5.801852631210648
 30
0.0
 10
4.764608212969202
 20
5.801506797886051
 30
0.0
 10
4.771226268357572
 20
5.801492908997513
 30
0.0
 10
4.814901267254249
 20
5.801438742332228
 30
0.0
 10
4.850315155248508
 20
5.815931797521658
 30
0.0
 10
4.850369321913806
 20
5.833822074847476
 30
0.0
 10
4.850369321913806
 20
5.833822074847476
 30
0.0
 10
4.850369321913806
 20
5.864366518520304
 30
0.0
 10
4.850369321913806
 20
5.864366518520304
 30
0.0
  0
HATCH
  5
16D
330
168
100
AcDbEntity
  8
CDTC6
 62
   254
420
 13358815
100
AcDbHatch
 10
0.0
 20
0.0
 30
0.0
210
0.0
220
0.0
230
1.0
  2
SOLID
 70
     1
 71
     0
 91
        1
 92
        1
 93
        2
 72
     4
 94
        3
 73
     0
 74
     0
 95
       14
 96
       10
 40
0.0
 40
0.0
 40
0.0
 40
0.0
 40
0.0138888888888889
 40
0.0138888888888889
 40
0.0138888888888889
 40
0.0277777777777778
 40
0.0277777777777778
 40
0.0277777777777778
 40
0.0416666666666667
 40
0.0416666666666667
 40
0.0416666666666667
 40
0.0416666666666667
 10
4.752034602175727
 20
5.802490131194544
 10
4.75817904646495
 20
5.801852631210648
 10
4.764608212969202
 20
5.801506797886051
 10
4.771226268357572
 20
5.801492908997513
 10
4.814901267254249
 20
5.801438742332228
 10
4.850315155248508
 20
5.815931797521658
 10
4.850369321913806
 20
5.833822074847476
 10
4.850369321913806
 20
5.833822074847476
 10
4.850369321913806
 20
5.864366518520304
 10
4.850369321913806
 20
5.864366518520304
 97
        0
 72
     1
 10
4.850369321913806
 20
5.864366518520304
 11
4.752034602175727
 21
5.802490131194544
 97
        0
 75
     2
 76
     1
 98
        0
  0
SPLINE
  5
16E
330
168
100
AcDbEntity
  8
CDTC6
 62
   250
420
  2301728
370
    35
100
AcDbSpline
210
0.0
220
0.0
230
1.0
 70
     8
 71
     3
 72
    17
 73
    13
 74
     0
 42
0.0000000001
 43
0.0000000001
 12
1.0
 22
0.0
 32
0.0
 13
1.0
 23
0.0
 33
0.0
 40
0.0
 40
0.0
 40
0.0
 40
0.0
 40
1.0
 40
1.0
 40
1.0
 40
2.0
 40
2.0
 40
2.0
 40
3.0
 40
3.0
 40
3.0
 40
4.0
 40
4.0
 40
4.0
 40
4.0
 10
4.740573491354149
 20
5.893995684438474
 30
0.0
 10
4.750027777777783
 20
5.895623462175132
 30
0.0
 10
4.760430555555558
 20
5.89651790659698
 30
0.0
 10
4.771348490576707
 20
5.896504017708442
 30
0.0
 10
4.815009600584845
 20
5.896442906598875
 30
0.0
 10
4.850369321913806
 20
5.881835962523433
 30
0.0
 10
4.850369321913806
 20
5.863917907420525
 30
0.0
 10
4.850315155248508
 20
5.846029018983548
 30
0.0
 10
4.814901267254249
 20
5.83153596379413
 30
0.0
 10
4.771226268357572
 20
5.831590130459416
 30
0.0
 10
4.765408212948993
 20
5.831604019347954
 30
0.0
 10
4.759738768647771
 20
5.831875000000005
 30
0.0
 10
4.754285991007742
 20
5.832370685995253
 30
0.0
  0
HATCH
  5
16F
330
168
100
AcDbEntity
  8
CDTC6
 62
   254
420
 13358815
100
AcDbHatch
 10
0.0
 20
0.0
 30
0.0
210
0.0
220
0.0
230
1.0
  2
SOLID
 70
     1
 71
     0
 91
        1
 92
        1
 93
        2
 72
     4
 94
        3
 73
     0
 74
     0
 95
       17
 96
       13
 40
0.0
 40
0.0
 40
0.0
 40
0.0
 40
0.0138888888888889
 40
0.0138888888888889
 40
0.0138888888888889
 40
0.0277777777777778
 40
0.0277777777777778
 40
0.0277777777777778
 40
0.0416666666666667
 40
0.0416666666666667
 40
0.0416666666666667
 40
0.0555555555555556
 40
0.0555555555555556
 40
0.0555555555555556
 40
0.0555555555555556
 10
4.740573491354149
 20
5.893995684438474
 10
4.750027777777783
 20
5.895623462175132
 10
4.760430555555558
 20
5.89651790659698
 10
4.771348490576707
 20
5.896504017708442
 10
4.815009600584845
 20
5.896442906598875
 10
4.850369321913806
 20
5.881835962523433
 10
4.850369321913806
 20
5.863917907420525
 10
4.850315155248508
 20
5.846029018983548
 10
4.814901267254249
 20
5.83153596379413
 10
4.771226268357572
 20
5.831590130459416
 10
4.765408212948993
 20
5.831604019347954
 10
4.759738768647771
 20
5.831875000000005
 10
4.754285991007742
 20
5.832370685995253
 97
        0
 72
     1
 10
4.754285991007742
 20
5.832370685995253
 11
4.740573491354149
 21
5.893995684438474
 97
        0
 75
     2
 76
     1
 98
        0
  0
ENDBLK
  5
16B
330
168
100
AcDbEntity
  8
0
100
AcDbBlockEnd
  0
BLOCK
  5
172
330
170
100
AcDbEntity
  8
0
100
AcDbBlockBegin
  2
block 16
 70
     0
 10
0.0
 20
0.0
 30
0.0
  3
block 16
  1

  0
SPLINE
  5
174
330
170
100
AcDbEntity
  8
CDTC6
 62
   250
420
  2301728
370
    35
100
AcDbSpline
210
0.0
220
0.0
230
1.0
 70
     8
 71
     3
 72
    17
 73
    13
 74
     0
 42
0.0000000001
 43
0.0000000001
 12
1.0
 22
0.0
 32
0.0
 13
1.0
 23
0.0
 33
0.0
 40
0.0
 40
0.0
 40
0.0
 40
0.0
 40
1.0
 40
1.0
 40
1.0
 40
2.0
 40
2.0
 40
2.0
 40
3.0
 40
3.0
 40
3.0
 40
4.0
 40
4.0
 40
4.0
 40
4.0
 10
4.059129064124439
 20
5.485798472528182
 30
0.0
 10
4.059129064124439
 20
5.485798472528182
 30
0.0
 10
4.059129064124439
 20
5.451266528956087
 30
0.0
 10
4.059129064124439
 20
5.451266528956087
 30
0.0
 10
4.059115175235901
 20
5.431517918343868
 30
0.0
 10
4.098097222222224
 20
5.415431807639126
 30
0.0
 10
4.146219339702131
 20
5.415337363197068
 30
0.0
 10
4.194369338485759
 20
5.415283196531769
 30
0.0
 10
4.233419337499273
 20
5.431260973905915
 30
0.0
 10
4.233473504164572
 20
5.45096791785252
 30
0.0
 10
4.233473504164572
 20
5.45096791785252
 30
0.0
 10
4.233473504164572
 20
5.484659583668063
 30
0.0
 10
4.233473504164572
 20
5.484659583668063
 30
0.0
  0
HATCH
  5
175
330
170
100
AcDbEntity
  8
CDTC6
 62
   254
420
 13358815
100
AcDbHatch
 10
0.0
 20
0.0
 30
0.0
210
0.0
220
0.0
230
1.0
  2
SOLID
 70
     1
 71
     0
 91
        1
 92
        1
 93
        2
 72
     4
 94
        3
 73
     0
 74
     0
 95
       17
 96
       13
 40
0.0
 40
0.0
 40
0.0
 40
0.0
 40
0.0138888888888889
 40
0.0138888888888889
 40
0.0138888888888889
 40
0.0277777777777778
 40
0.0277777777777778
 40
0.0277777777777778
 40
0.0416666666666667
 40
0.0416666666666667
 40
0.0416666666666667
 40
0.0555555555555556
 40
0.0555555555555556
 40
0.0555555555555556
 40
0.0555555555555556
 10
4.059129064124439
 20
5.485798472528182
 10
4.059129064124439
 20
5.485798472528182
 10
4.059129064124439
 20
5.451266528956087
 10
4.059129064124439
 20
5.451266528956087
 10
4.059115175235901
 20
5.431517918343868
 10
4.098097222222224
 20
5.415431807639126
 10
4.146219339702131
 20
5.415337363197068
 10
4.194369338485759
 20
5.415283196531769
 10
4.233419337499273
 20
5.431260973905915
 10
4.233473504164572
 20
5.45096791785252
 10
4.233473504164572
 20
5.45096791785252
 10
4.233473504164572
 20
5.484659583668063
 10
4.233473504164572
 20
5.484659583668063
 97
        0
 72
     1
 10
4.233473504164572
 20
5.484659583668063
 11
4.059129064124439
 21
5.485798472528182
 97
        0
 75
     2
 76
     1
 98
        0
  0
SPLINE
  5
176
330
170
100
AcDbEntity
  8
CDTC6
 62
   250
420
  2301728
370
    35
100
AcDbSpline
210
0.0
220
0.0
230
1.0
 70
    11
 71
     3
 72
    17
 73
    13
 74
     0
 42
0.0000000001
 43
0.0000000001
 12
1.0
 22
0.0
 32
0.0
 13
1.0
 23
0.0
 33
0.0
 40
0.0
 40
0.0
 40
0.0
 40
0.0
 40
1.0
 40
1.0
 40
1.0
 40
2.0
 40
2.0
 40
2.0
 40
3.0
 40
3.0
 40
3.0
 40
4.0
 40
4.0
 40
4.0
 40
4.0
 10
4.146355450809804
 20
5.52008736055086
 30
0.0
 10
4.194491560704894
 20
5.520033193885575
 30
0.0
 10
4.233473504164572
 20
5.503919305403744
 30
0.0
 10
4.233473504164572
 20
5.484172083680378
 30
0.0
 10
4.233419337499273
 20
5.464437361956698
 30
0.0
 10
4.194369338485759
 20
5.448472222222234
 30
0.0
 10
4.146219339702131
 20
5.448526251247535
 30
0.0
 10
4.098097222222224
 20
5.448608195689909
 30
0.0
 10
4.059115175235901
 20
5.464708333333343
 30
0.0
 10
4.059129064124439
 20
5.484456805895408
 30
0.0
 10
4.059156841901514
 20
5.504191527619089
 30
0.0
 10
4.098233229803251
 20
5.520141527216158
 30
0.0
 10
4.146355450809804
 20
5.52008736055086
 30
0.0
  0
HATCH
  5
177
330
170
100
AcDbEntity
  8
CDTC6
 62
   254
420
 13358815
100
AcDbHatch
 10
0.0
 20
0.0
 30
0.0
210
0.0
220
0.0
230
1.0
  2
SOLID
 70
     1
 71
     0
 91
        1
 92
        1
 93
        1
 72
     4
 94
        3
 73
     0
 74
     1
 95
       17
 96
       13
 40
0.0
 40
0.0
 40
0.0
 40
0.0
 40
1.0
 40
1.0
 40
1.0
 40
2.0
 40
2.0
 40
2.0
 40
3.0
 40
3.0
 40
3.0
 40
4.0
 40
4.0
 40
4.0
 40
4.0
 10
4.146355450809804
 20
5.52008736055086
 10
4.194491560704894
 20
5.520033193885575
 10
4.233473504164572
 20
5.503919305403744
 10
4.233473504164572
 20
5.484172083680378
 10
4.233419337499273
 20
5.464437361956698
 10
4.194369338485759
 20
5.448472222222234
 10
4.146219339702131
 20
5.448526251247535
 10
4.098097222222224
 20
5.448608195689909
 10
4.059115175235901
 20
5.464708333333343
 10
4.059129064124439
 20
5.484456805895408
 10
4.059156841901514
 20
5.504191527619089
 10
4.098233229803251
 20
5.520141527216158
 10
4.146355450809804
 20
5.52008736055086
 97
        0
 97
        0
 75
     2
 76
     1
 98
        0
  0
ENDBLK
  5
173
330
170
100
AcDbEntity
  8
0
100
AcDbBlockEnd
  0
ENDSEC
  0
SECTION
  2
ENTITIES
  0
INSERT
  5
42
330
1F
100
AcDbEntity
  8
CDTC6
100
AcDbBlockReference
  2
block 2
 10
0.0
 20
0.0
 30
0.0
  0
INSERT
  5
54
330
1F
100
AcDbEntity
  8
CDTC6
100
AcDbBlockReference
  2
block 3
 10
0.0
 20
0.0
 30
0.0
  0
INSERT
  5
60
330
1F
100
AcDbEntity
  8
CDTC6
100
AcDbBlockReference
  2
block 4
 10
0.0
 20
0.0
 30
0.0
  0
INSERT
  5
66
330
1F
100
AcDbEntity
  8
CDTC6
100
AcDbBlockReference
  2
block 5
 10
0.0
 20
0.0
 30
0.0
  0
SPLINE
  5
17E
330
1F
100
AcDbEntity
  8
CDTC6
 62
   250
420
  2301728
370
    25
100
AcDbSpline
210
0.0
220
0.0
230
1.0
 70
    11
 71
     3
 72
    23
 73
    19
 74
     0
 42
0.0000000001
 43
0.0000000001
 12
1.0
 22
0.0
 32
0.0
 13
1.0
 23
0.0
 33
0.0
 40
0.0
 40
0.0
 40
0.0
 40
0.0
 40
1.0
 40
1.0
 40
1.0
 40
2.0
 40
2.0
 40
2.0
 40
3.0
 40
3.0
 40
3.0
 40
4.0
 40
4.0
 40
4.0
 40
5.0
 40
5.0
 40
5.0
 40
6.0
 40
6.0
 40
6.0
 40
6.0
 10
4.535197107653503
 20
5.647548468442033
 30
0.0
 10
4.535197107653503
 20
5.641445690818424
 30
0.0
 10
4.530435996662669
 20
5.638190135345111
 30
0.0
 10
4.524617941254089
 20
5.640333333333337
 30
0.0
 10
4.524617941254089
 20
5.640333333333337
 30
0.0
 10
4.220770726707693
 20
5.752048465802141
 30
0.0
 10
4.220770726707693
 20
5.752048465802141
 30
0.0
 10
4.214952671299114
 20
5.754170687970751
 30
0.0
 10
4.210191560308279
 20
5.760931798911074
 30
0.0
 10
4.210191560308279
 20
5.767035965423525
 30
0.0
 10
4.210191560308279
 20
5.773138888888891
 30
0.0
 10
4.214952671299114
 20
5.776401242964716
 30
0.0
 10
4.220770726707693
 20
5.774265131907567
 30
0.0
 10
4.220770726707693
 20
5.774265131907567
 30
0.0
 10
4.524617941254089
 20
5.662549856951955
 30
0.0
 10
4.524617941254089
 20
5.662549856951955
 30
0.0
 10
4.530435996662669
 20
5.660420690339075
 30
0.0
 10
4.535197107653503
 20
5.653666666666671
 30
0.0
 10
4.535197107653503
 20
5.647548468442033
 30
0.0
  0
HATCH
  5
17F
330
1F
100
AcDbEntity
  8
CDTC6
 62
   254
420
 13358815
100
AcDbHatch
 10
0.0
 20
0.0
 30
0.0
210
0.0
220
0.0
230
1.0
  2
SOLID
 70
     1
 71
     0
 91
        1
 92
        1
 93
        1
 72
     4
 94
        3
 73
     0
 74
     1
 95
       23
 96
       19
 40
0.0
 40
0.0
 40
0.0
 40
0.0
 40
1.0
 40
1.0
 40
1.0
 40
2.0
 40
2.0
 40
2.0
 40
3.0
 40
3.0
 40
3.0
 40
4.0
 40
4.0
 40
4.0
 40
5.0
 40
5.0
 40
5.0
 40
6.0
 40
6.0
 40
6.0
 40
6.0
 10
4.535197107653503
 20
5.647548468442033
 10
4.535197107653503
 20
5.641445690818424
 10
4.530435996662669
 20
5.638190135345111
 10
4.524617941254089
 20
5.640333333333337
 10
4.524617941254089
 20
5.640333333333337
 10
4.220770726707693
 20
5.752048465802141
 10
4.220770726707693
 20
5.752048465802141
 10
4.214952671299114
 20
5.754170687970751
 10
4.210191560308279
 20
5.760931798911074
 10
4.210191560308279
 20
5.767035965423525
 10
4.210191560308279
 20
5.773138888888891
 10
4.214952671299114
 20
5.776401242964716
 10
4.220770726707693
 20
5.774265131907567
 10
4.220770726707693
 20
5.774265131907567
 10
4.524617941254089
 20
5.662549856951955
 10
4.524617941254089
 20
5.662549856951955
 10
4.530435996662669
 20
5.660420690339075
 10
4.535197107653503
 20
5.653666666666671
 10
4.535197107653503
 20
5.647548468442033
 97
        0
 97
        0
 75
     2
 76
     1
 98
        0
  0
SPLINE
  5
180
330
1F
100
AcDbEntity
  8
CDTC6
 62
   250
420
  2301728
370
    35
100
AcDbSpline
210
0.0
220
0.0
230
1.0
 70
    11
 71
     3
 72
    17
 73
    13
 74
     0
 42
0.0000000001
 43
0.0000000001
 12
1.0
 22
0.0
 32
0.0
 13
1.0
 23
0.0
 33
0.0
 40
0.0
 40
0.0
 40
0.0
 40
0.0
 40
1.0
 40
1.0
 40
1.0
 40
2.0
 40
2.0
 40
2.0
 40
3.0
 40
3.0
 40
3.0
 40
4.0
 40
4.0
 40
4.0
 40
4.0
 10
3.046732244559785
 20
6.027026152058625
 30
0.0
 10
3.046732244559785
 20
6.719074257837569
 30
0.0
 10
3.607748080940306
 20
7.280090094218091
 30
0.0
 10
4.299796186719251
 20
7.280090094218091
 30
0.0
 10
4.991844292498197
 20
7.280090094218091
 30
0.0
 10
5.552860128878718
 20
6.719074257837569
 30
0.0
 10
5.552860128878718
 20
6.027026152058625
 30
0.0
 10
5.552860128878718
 20
5.334978046279679
 30
0.0
 10
4.991844292498197
 20
4.773962209899158
 30
0.0
 10
4.299796186719251
 20
4.773962209899158
 30
0.0
 10
3.607748080940306
 20
4.773962209899158
 30
0.0
 10
3.046732244559785
 20
5.334978046279679
 30
0.0
 10
3.046732244559785
 20
6.027026152058625
 30
0.0
  0
MTEXT
  5
182
330
1F
100
AcDbEntity
  8
callout
 62
   250
420
  2301728
100
AcDbMText
 10
3.4839416080051
 20
4.354562428262499
 30
0.0
 40
0.118
 41
0.0
 46
0.0
 71
     7
 72
     1
  1
\fHelvetica Neue LT Std 55 Roman|b0|i0|c0|p34;\W1;SIMPSON Strong-Tie\H0.068794;®\H0.118; ^C
 73
     1
 44
1.0
  0
MTEXT
  5
183
330
1F
100
AcDbEntity
  8
callout
 62
   250
420
  2301728
100
AcDbMText
 10
3.053311453925239
 20
4.154570566283332
 30
0.0
 40
0.118
 41
0.0
 46
0.0
 71
     7
 72
     1
  1
\fHelvetica Neue LT Std 55 Roman|b0|i0|c0|p34;\W1;HTC Installation on a 140 x 45mm 
 73
     1
 44
1.0
  0
MTEXT
  5
184
330
1F
100
AcDbEntity
  8
callout
 62
   250
420
  2301728
100
AcDbMText
 10
3.770637300279405
 20
3.95456514093611
 30
0.0
 40
0.118
 41
0.0
 46
0.0
 71
     7
 72
     1
  1
\fHelvetica Neue LT Std 55 Roman|b0|i0|c0|p34;\W1;or Larger Plate 
 73
     1
 44
1.0
  0
ENDSEC
  0
SECTION
  2
OBJECTS
  0
DICTIONARY
  5
C
330
0
100
AcDbDictionary
281
     1
  3
ACAD_GROUP
350
D
  3
ACAD_LAYOUT
350
1A
  3
ACAD_MATERIAL
350
3B
  3
ACAD_MLEADERSTYLE
350
186
  3
ACAD_MLINESTYLE
350
17
  3
ACAD_PLOTSETTINGS
350
19
  3
ACAD_PLOTSTYLENAME
350
E
  3
ACAD_TABLESTYLE
350
185
  3
ACAD_VISUALSTYLE
350
2A
  0
SUN
  5
3F
330
29
100
AcDbSun
 90
        1
290
     0
 63
     7
421
 16777215
 40
1.0
291
     1
 91
  2455826
 92
 54000000
292
     0
 70
     2
 71
   256
280
     1
  0
DICTIONARY
  5
D
102
{ACAD_REACTORS
330
C
102
}
330
C
100
AcDbDictionary
281
     1
  0
DICTIONARY
  5
1A
102
{ACAD_REACTORS
330
C
102
}
330
C
100
AcDbDictionary
281
     1
  3
Layout1
350
1E
  3
Layout2
350
26
  3
Model
350
22
  0
DICTIONARY
  5
3B
102
{ACAD_REACTORS
330
C
102
}
330
C
100
AcDbDictionary
281
     1
  3
ByBlock
350
3D
  3
ByLayer
350
3C
  3
Global
350
3E
  0
DICTIONARY
  5
186
102
{ACAD_REACTORS
330
C
102
}
330
C
100
AcDbDictionary
281
     1
  0
DICTIONARY
  5
17
102
{ACAD_REACTORS
330
C
102
}
330
C
100
AcDbDictionary
281
     1
  3
Standard
350
18
  0
DICTIONARY
  5
19
102
{ACAD_REACTORS
330
C
102
}
330
C
100
AcDbDictionary
281
     1
  0
ACDBDICTIONARYWDFLT
  5
E
102
{ACAD_REACTORS
330
C
102
}
330
C
100
AcDbDictionary
281
     1
  3
Normal
350
F
100
AcDbDictionaryWithDefault
340
F
  0
DICTIONARY
  5
185
102
{ACAD_REACTORS
330
C
102
}
330
C
100
AcDbDictionary
281
     1
  0
DICTIONARY
  5
2A
102
{ACAD_REACTORS
330
C
102
}
330
C
100
AcDbDictionary
281
     1
  3
2dWireframe
350
2F
  3
3D Hidden
350
31
  3
3dWireframe
350
30
  3
Basic
350
32
  3
Brighten
350
36
  3
ColorChange
350
3A
  3
Conceptual
350
34
  3
Dim
350
35
  3
Facepattern
350
39
  3
Flat
350
2B
  3
FlatWithEdges
350
2C
  3
Gouraud
350
2D
  3
GouraudWithEdges
350
2E
  3
Linepattern
350
38
  3
Realistic
350
33
  3
Thicken
350
37
  0
LAYOUT
  5
1E
102
{ACAD_REACTORS
330
1A
102
}
330
1A
100
AcDbPlotSettings
  1

  2
none_device
  4

  6

 40
0.0
 41
0.0
 42
0.0
 43
0.0
 44
0.0
 45
0.0
 46
0.0
 47
0.0
 48
0.0
 49
0.0
140
0.0
141
0.0
142
1.0
143
1.0
 70
   688
 72
     0
 73
     0
 74
     5
  7

 75
    16
 76
     0
 77
     2
 78
   300
147
1.0
148
0.0
149
0.0
100
AcDbLayout
  1
Layout1
 70
     1
 71
     1
 10
0.0
 20
0.0
 11
12.0
 21
9.0
 12
0.0
 22
0.0
 32
0.0
 14
1.000000000000000E+20
 24
1.000000000000000E+20
 34
1.000000000000000E+20
 15
-1.000000000000000E+20
 25
-1.000000000000000E+20
 35
-1.000000000000000E+20
146
0.0
 13
0.0
 23
0.0
 33
0.0
 16
1.0
 26
0.0
 36
0.0
 17
0.0
 27
1.0
 37
0.0
 76
     0
330
1B
  0
LAYOUT
  5
26
102
{ACAD_REACTORS
330
1A
102
}
330
1A
100
AcDbPlotSettings
  1

  2
none_device
  4

  6

 40
0.0
 41
0.0
 42
0.0
 43
0.0
 44
0.0
 45
0.0
 46
0.0
 47
0.0
 48
0.0
 49
0.0
140
0.0
141
0.0
142
1.0
143
1.0
 70
   688
 72
     0
 73
     0
 74
     5
  7

 75
    16
 76
     0
 77
     2
 78
   300
147
1.0
148
0.0
149
0.0
100
AcDbLayout
  1
Layout2
 70
     1
 71
     2
 10
0.0
 20
0.0
 11
0.0
 21
0.0
 12
0.0
 22
0.0
 32
0.0
 14
0.0
 24
0.0
 34
0.0
 15
0.0
 25
0.0
 35
0.0
146
0.0
 13
0.0
 23
0.0
 33
0.0
 16
1.0
 26
0.0
 36
0.0
 17
0.0
 27
1.0
 37
0.0
 76
     0
330
23
  0
LAYOUT
  5
22
102
{ACAD_REACTORS
330
1A
102
}
330
1A
100
AcDbPlotSettings
  1

  2
none_device
  4

  6

 40
0.0
 41
0.0
 42
0.0
 43
0.0
 44
0.0
 45
0.0
 46
0.0
 47
0.0
 48
0.0
 49
0.0
140
0.0
141
0.0
142
1.0
143
1.0
 70
  1712
 72
     0
 73
     0
 74
     0
  7

 75
     0
 76
     0
 77
     2
 78
   300
147
1.0
148
0.0
149
0.0
100
AcDbLayout
  1
Model
 70
     1
 71
     0
 10
0.0
 20
0.0
 11
12.0
 21
9.0
 12
0.0
 22
0.0
 32
0.0
 14
1.000000000000000E+20
 24
1.000000000000000E+20
 34
1.000000000000000E+20
 15
-1.000000000000000E+20
 25
-1.000000000000000E+20
 35
-1.000000000000000E+20
146
0.0
 13
0.0
 23
0.0
 33
0.0
 16
1.0
 26
0.0
 36
0.0
 17
0.0
 27
1.0
 37
0.0
 76
     0
330
1F
331
29
  0
MATERIAL
  5
3D
102
{ACAD_REACTORS
330
3B
102
}
330
3B
100
AcDbMaterial
  1
ByBlock
 72
     1
 94
      127
  0
MATERIAL
  5
3C
102
{ACAD_REACTORS
330
3B
102
}
330
3B
100
AcDbMaterial
  1
ByLayer
 72
     1
 94
      127
  0
MATERIAL
  5
3E
102
{ACAD_REACTORS
330
3B
102
}
330
3B
100
AcDbMaterial
  1
Global
 72
     1
 94
      127
  0
MLINESTYLE
  5
18
102
{ACAD_REACTORS
330
17
102
}
330
17
100
AcDbMlineStyle
  2
Standard
 70
     0
  3

 62
   256
 51
90.0
 52
90.0
 71
     2
 49
0.5
 62
   256
  6
BYLAYER
 49
-0.5
 62
   256
  6
BYLAYER
  0
ACDBPLACEHOLDER
  5
F
102
{ACAD_REACTORS
330
E
102
}
330
E
  0
VISUALSTYLE
  5
2F
102
{ACAD_REACTORS
330
2A
102
}
330
2A
100
AcDbVisualStyle
  2
2dWireframe
 70
     4
177
     2
291
     0
 71
     0
176
     1
 72
     2
176
     1
 73
     0
176
     1
 90
        0
176
     1
 40
-0.6
176
     1
 41
-30.0
176
     1
 62
     5
 63
     7
421
 16777215
176
     1
 74
     1
176
     1
 91
        4
176
     1
 64
     7
176
     1
 65
   257
176
     1
 75
     1
176
     1
175
     1
176
     1
 42
1.0
176
     1
 92
        0
176
     1
 66
   257
176
     1
 43
1.0
176
     1
 76
     1
176
     1
 77
     6
176
     1
 78
     2
176
     1
 67
     7
176
     1
 79
     5
176
     1
170
     0
176
     1
171
     0
176
     1
290
     0
176
     1
 93
        1
176
     1
 44
0.0
176
     1
173
     0
176
     1
  0
VISUALSTYLE
  5
31
102
{ACAD_REACTORS
330
2A
102
}
330
2A
100
AcDbVisualStyle
  2
3D Hidden
 70
     6
177
     2
291
     0
 71
     1
176
     1
 72
     2
176
     1
 73
     2
176
     1
 90
        0
176
     1
 40
-0.6
176
     1
 41
-30.0
176
     1
 62
     5
 63
     7
421
 16777215
176
     1
 74
     2
176
     1
 91
        2
176
     1
 64
     7
176
     1
 65
   257
176
     1
 75
     2
176
     1
175
     1
176
     1
 42
40.0
176
     1
 92
        0
176
     1
 66
   257
176
     1
 43
1.0
176
     1
 76
     1
176
     1
 77
     6
176
     1
 78
     2
176
     1
 67
     7
176
     1
 79
     3
176
     1
170
     0
176
     1
171
     0
176
     1
290
     0
176
     1
 93
        1
176
     1
 44
0.0
176
     1
173
     0
176
     1
  0
VISUALSTYLE
  5
30
102
{ACAD_REACTORS
330
2A
102
}
330
2A
100
AcDbVisualStyle
  2
3dWireframe
 70
     5
177
     2
291
     0
 71
     0
176
     1
 72
     2
176
     1
 73
     0
176
     1
 90
        0
176
     1
 40
-0.6
176
     1
 41
-30.0
176
     1
 62
     5
 63
     7
421
 16777215
176
     1
 74
     1
176
     1
 91
        4
176
     1
 64
     7
176
     1
 65
   257
176
     1
 75
     1
176
     1
175
     1
176
     1
 42
1.0
176
     1
 92
        0
176
     1
 66
   257
176
     1
 43
1.0
176
     1
 76
     1
176
     1
 77
     6
176
     1
 78
     2
176
     1
 67
     7
176
     1
 79
     5
176
     1
170
     0
176
     1
171
     0
176
     1
290
     0
176
     1
 93
        1
176
     1
 44
0.0
176
     1
173
     0
176
     1
  0
VISUALSTYLE
  5
32
102
{ACAD_REACTORS
330
2A
102
}
330
2A
100
AcDbVisualStyle
  2
Basic
 70
     7
177
     2
291
     1
 71
     1
176
     1
 72
     0
176
     1
 73
     1
176
     1
 90
        0
176
     1
 40
-0.6
176
     1
 41
-30.0
176
     1
 62
     5
 63
     7
421
 16777215
176
     1
 74
     0
176
     1
 91
        4
176
     1
 64
     7
176
     1
 65
   257
176
     1
 75
     1
176
     1
175
     1
176
     1
 42
1.0
176
     1
 92
        8
176
     1
 66
     7
176
     1
 43
1.0
176
     1
 76
     1
176
     1
 77
     6
176
     1
 78
     2
176
     1
 67
     7
176
     1
 79
     5
176
     1
170
     0
176
     1
171
     0
176
     1
290
     0
176
     1
 93
        1
176
     1
 44
0.0
176
     1
173
     0
176
     1
  0
VISUALSTYLE
  5
36
102
{ACAD_REACTORS
330
2A
102
}
330
2A
100
AcDbVisualStyle
  2
Brighten
 70
    12
177
     2
291
     1
 71
     2
176
     1
 72
     2
176
     1
 73
     0
176
     1
 90
        0
176
     1
 40
-0.6
176
     1
 41
-30.0
176
     1
 62
     5
 63
     7
421
 16777215
176
     1
 74
     1
176
     1
 91
        4
176
     1
 64
     7
176
     1
 65
   257
176
     1
 75
     1
176
     1
175
     1
176
     1
 42
1.0
176
     1
 92
        8
176
     1
 66
     7
176
     1
 43
1.0
176
     1
 76
     1
176
     1
 77
     6
176
     1
 78
     2
176
     1
 67
     7
176
     1
 79
     5
176
     1
170
     0
176
     1
171
     0
176
     1
290
     0
176
     1
 93
        1
176
     1
 44
50.0
176
     1
173
     0
176
     1
  0
VISUALSTYLE
  5
3A
102
{ACAD_REACTORS
330
2A
102
}
330
2A
100
AcDbVisualStyle
  2
ColorChange
 70
    16
177
     2
291
     1
 71
     2
176
     1
 72
     2
176
     1
 73
     3
176
     1
 90
        0
176
     1
 40
-0.6
176
     1
 41
-30.0
176
     1
 62
     5
 63
     8
421
  8421504
176
     1
 74
     1
176
     1
 91
        4
176
     1
 64
     7
176
     1
 65
   257
176
     1
 75
     1
176
     1
175
     1
176
     1
 42
1.0
176
     1
 92
        8
176
     1
 66
     8
424
  8421504
176
     1
 43
1.0
176
     1
 76
     1
176
     1
 77
     6
176
     1
 78
     2
176
     1
 67
     7
176
     1
 79
     5
176
     1
170
     0
176
     1
171
     0
176
     1
290
     0
176
     1
 93
        1
176
     1
 44
0.0
176
     1
173
     0
176
     1
  0
VISUALSTYLE
  5
34
102
{ACAD_REACTORS
330
2A
102
}
330
2A
100
AcDbVisualStyle
  2
Conceptual
 70
     9
177
     2
291
     0
 71
     3
176
     1
 72
     2
176
     1
 73
     0
176
     1
 90
        0
176
     1
 40
-0.6
176
     1
 41
-30.0
176
     1
 62
     5
 63
     7
421
 16777215
176
     1
 74
     2
176
     1
 91
        2
176
     1
 64
     7
176
     1
 65
   257
176
     1
 75
     1
176
     1
175
     1
176
     1
 42
40.0
176
     1
 92
        8
176
     1
 66
     7
176
     1
 43
1.0
176
     1
 76
     1
176
     1
 77
     6
176
     1
 78
     2
176
     1
 67
     7
176
     1
 79
     3
176
     1
170
     0
176
     1
171
     0
176
     1
290
     0
176
     1
 93
        1
176
     1
 44
0.0
176
     1
173
     0
176
     1
  0
VISUALSTYLE
  5
35
102
{ACAD_REACTORS
330
2A
102
}
330
2A
100
AcDbVisualStyle
  2
Dim
 70
    11
177
     2
291
     1
 71
     2
176
     1
 72
     2
176
     1
 73
     0
176
     1
 90
        0
176
     1
 40
-0.6
176
     1
 41
-30.0
176
     1
 62
     5
 63
     7
421
 16777215
176
     1
 74
     1
176
     1
 91
        4
176
     1
 64
     7
176
     1
 65
   257
176
     1
 75
     1
176
     1
175
     1
176
     1
 42
1.0
176
     1
 92
        8
176
     1
 66
     7
176
     1
 43
1.0
176
     1
 76
     1
176
     1
 77
     6
176
     1
 78
     2
176
     1
 67
     7
176
     1
 79
     5
176
     1
170
     0
176
     1
171
     0
176
     1
290
     0
176
     1
 93
        1
176
     1
 44
-50.0
176
     1
173
     0
176
     1
  0
VISUALSTYLE
  5
39
102
{ACAD_REACTORS
330
2A
102
}
330
2A
100
AcDbVisualStyle
  2
Facepattern
 70
    15
177
     2
291
     1
 71
     2
176
     1
 72
     2
176
     1
 73
     0
176
     1
 90
        0
176
     1
 40
-0.6
176
     1
 41
-30.0
176
     1
 62
     5
 63
     7
421
 16777215
176
     1
 74
     1
176
     1
 91
        4
176
     1
 64
     7
176
     1
 65
   257
176
     1
 75
     1
176
     1
175
     1
176
     1
 42
1.0
176
     1
 92
        8
176
     1
 66
     7
176
     1
 43
1.0
176
     1
 76
     1
176
     1
 77
     6
176
     1
 78
     2
176
     1
 67
     7
176
     1
 79
     5
176
     1
170
     0
176
     1
171
     0
176
     1
290
     0
176
     1
 93
        1
176
     1
 44
0.0
176
     1
173
     0
176
     1
  0
VISUALSTYLE
  5
2B
102
{ACAD_REACTORS
330
2A
102
}
330
2A
100
AcDbVisualStyle
  2
Flat
 70
     0
177
     2
291
     1
 71
     2
176
     1
 72
     1
176
     1
 73
     1
176
     1
 90
        2
176
     1
 40
-0.6
176
     1
 41
30.0
176
     1
 62
     5
 63
     7
421
 16777215
176
     1
 74
     0
176
     1
 91
        4
176
     1
 64
     7
176
     1
 65
   257
176
     1
 75
     1
176
     1
175
     1
176
     1
 42
1.0
176
     1
 92
        8
176
     1
 66
     7
176
     1
 43
1.0
176
     1
 76
     1
176
     1
 77
     6
176
     1
 78
     2
176
     1
 67
     7
176
     1
 79
     5
176
     1
170
     0
176
     1
171
     0
176
     1
290
     0
176
     1
 93
       13
176
     1
 44
0.0
176
     1
173
     0
176
     1
  0
VISUALSTYLE
  5
2C
102
{ACAD_REACTORS
330
2A
102
}
330
2A
100
AcDbVisualStyle
  2
FlatWithEdges
 70
     1
177
     2
291
     1
 71
     2
176
     1
 72
     1
176
     1
 73
     1
176
     1
 90
        2
176
     1
 40
-0.6
176
     1
 41
30.0
176
     1
 62
     5
 63
     7
421
 16777215
176
     1
 74
     1
176
     1
 91
        4
176
     1
 64
     7
176
     1
 65
   257
176
     1
 75
     1
176
     1
175
     1
176
     1
 42
1.0
176
     1
 92
        0
176
     1
 66
   257
176
     1
 43
1.0
176
     1
 76
     1
176
     1
 77
     6
176
     1
 78
     2
176
     1
 67
     7
176
     1
 79
     5
176
     1
170
     0
176
     1
171
     0
176
     1
290
     0
176
     1
 93
       13
176
     1
 44
0.0
176
     1
173
     0
176
     1
  0
VISUALSTYLE
  5
2D
102
{ACAD_REACTORS
330
2A
102
}
330
2A
100
AcDbVisualStyle
  2
Gouraud
 70
     2
177
     2
291
     1
 71
     2
176
     1
 72
     2
176
     1
 73
     1
176
     1
 90
        2
176
     1
 40
-0.6
176
     1
 41
30.0
176
     1
 62
     5
 63
     7
421
 16777215
176
     1
 74
     0
176
     1
 91
        4
176
     1
 64
     7
176
     1
 65
   257
176
     1
 75
     1
176
     1
175
     1
176
     1
 42
1.0
176
     1
 92
        0
176
     1
 66
     7
176
     1
 43
1.0
176
     1
 76
     1
176
     1
 77
     6
176
     1
 78
     2
176
     1
 67
     7
176
     1
 79
     5
176
     1
170
     0
176
     1
171
     0
176
     1
290
     0
176
     1
 93
       13
176
     1
 44
0.0
176
     1
173
     0
176
     1
  0
VISUALSTYLE
  5
2E
102
{ACAD_REACTORS
330
2A
102
}
330
2A
100
AcDbVisualStyle
  2
GouraudWithEdges
 70
     3
177
     2
291
     1
 71
     2
176
     1
 72
     2
176
     1
 73
     1
176
     1
 90
        2
176
     1
 40
-0.6
176
     1
 41
30.0
176
     1
 62
     5
 63
     7
421
 16777215
176
     1
 74
     1
176
     1
 91
        4
176
     1
 64
     7
176
     1
 65
   257
176
     1
 75
     1
176
     1
175
     1
176
     1
 42
1.0
176
     1
 92
        0
176
     1
 66
   257
176
     1
 43
1.0
176
     1
 76
     1
176
     1
 77
     6
176
     1
 78
     2
176
     1
 67
     7
176
     1
 79
     5
176
     1
170
     0
176
     1
171
     0
176
     1
290
     0
176
     1
 93
       13
176
     1
 44
0.0
176
     1
173
     0
176
     1
  0
VISUALSTYLE
  5
38
102
{ACAD_REACTORS
330
2A
102
}
330
2A
100
AcDbVisualStyle
  2
Linepattern
 70
    14
177
     2
291
     1
 71
     2
176
     1
 72
     2
176
     1
 73
     0
176
     1
 90
        0
176
     1
 40
-0.6
176
     1
 41
-30.0
176
     1
 62
     5
 63
     7
421
 16777215
176
     1
 74
     1
176
     1
 91
        4
176
     1
 64
     7
176
     1
 65
   257
176
     1
 75
     7
176
     1
175
     7
176
     1
 42
1.0
176
     1
 92
        8
176
     1
 66
     7
176
     1
 43
1.0
176
     1
 76
     1
176
     1
 77
     6
176
     1
 78
     2
176
     1
 67
     7
176
     1
 79
     5
176
     1
170
     0
176
     1
171
     0
176
     1
290
     0
176
     1
 93
        1
176
     1
 44
0.0
176
     1
173
     0
176
     1
  0
VISUALSTYLE
  5
33
102
{ACAD_REACTORS
330
2A
102
}
330
2A
100
AcDbVisualStyle
  2
Realistic
 70
     8
177
     2
291
     0
 71
     2
176
     1
 72
     2
176
     1
 73
     0
176
     1
 90
        0
176
     1
 40
-0.6
176
     1
 41
-30.0
176
     1
 62
     5
 63
     7
421
 16777215
176
     1
 74
     1
176
     1
 91
        0
176
     1
 64
     7
176
     1
 65
   257
176
     1
 75
     1
176
     1
175
     1
176
     1
 42
1.0
176
     1
 92
        8
176
     1
 66
     8
424
  7895160
176
     1
 43
1.0
176
     1
 76
     1
176
     1
 77
     6
176
     1
 78
     2
176
     1
 67
     7
176
     1
 79
     5
176
     1
170
     0
176
     1
171
     0
176
     1
290
     0
176
     1
 93
       13
176
     1
 44
0.0
176
     1
173
     0
176
     1
  0
VISUALSTYLE
  5
37
102
{ACAD_REACTORS
330
2A
102
}
330
2A
100
AcDbVisualStyle
  2
Thicken
 70
    13
177
     2
291
     1
 71
     2
176
     1
 72
     2
176
     1
 73
     0
176
     1
 90
        0
176
     1
 40
-0.6
176
     1
 41
-30.0
176
     1
 62
     5
 63
     7
421
 16777215
176
     1
 74
     1
176
     1
 91
        4
176
     1
 64
     7
176
     1
 65
   257
176
     1
 75
     1
176
     1
175
     1
176
     1
 42
1.0
176
     1
 92
       12
176
     1
 66
     7
176
     1
 43
1.0
176
     1
 76
     1
176
     1
 77
     6
176
     1
 78
     2
176
     1
 67
     7
176
     1
 79
     5
176
     1
170
     0
176
     1
171
     0
176
     1
290
     0
176
     1
 93
        1
176
     1
 44
0.0
176
     1
173
     0
176
     1
  0
ENDSEC
  0
EOF
