  0
SECTION
  2
HEADER
  9
$ACADVER
  1
AC1024
  9
$ACADMAINTVER
 70
     6
  9
$DWGCODEPAGE
  3
ANSI_1252
  9
$INSBASE
 10
0.0
 20
0.0
 30
0.0
  9
$EXTMIN
 10
1.000000000000000E+20
 20
1.000000000000000E+20
 30
1.000000000000000E+20
  9
$EXTMAX
 10
-1.000000000000000E+20
 20
-1.000000000000000E+20
 30
-1.000000000000000E+20
  9
$LIMMIN
 10
0.0
 20
0.0
  9
$LIMMAX
 10
12.0
 20
9.0
  9
$ORTHOMODE
 70
     0
  9
$REGENMODE
 70
     1
  9
$FILLMODE
 70
     1
  9
$QTEXTMODE
 70
     0
  9
$MIRRTEXT
 70
     1
  9
$LTSCALE
 40
1.0
  9
$ATTMODE
 70
     1
  9
$TEXTSIZE
 40
0.2
  9
$TRACEWID
 40
0.05
  9
$TEXTSTYLE
  7
Standard
  9
$CLAYER
  8
0
  9
$CELTYPE
  6
ByLayer
  9
$CECOLOR
 62
   256
  9
$CELTSCALE
 40
1.0
  9
$DISPSILH
 70
     0
  9
$DIMSCALE
 40
1.0
  9
$DIMASZ
 40
0.18
  9
$DIMEXO
 40
0.0625
  9
$DIMDLI
 40
0.38
  9
$DIMRND
 40
0.0
  9
$DIMDLE
 40
0.0
  9
$DIMEXE
 40
0.18
  9
$DIMTP
 40
0.0
  9
$DIMTM
 40
0.0
  9
$DIMTXT
 40
0.18
  9
$DIMCEN
 40
0.09
  9
$DIMTSZ
 40
0.0
  9
$DIMTOL
 70
     0
  9
$DIMLIM
 70
     0
  9
$DIMTIH
 70
     1
  9
$DIMTOH
 70
     1
  9
$DIMSE1
 70
     0
  9
$DIMSE2
 70
     0
  9
$DIMTAD
 70
     0
  9
$DIMZIN
 70
     0
  9
$DIMBLK
  1

  9
$DIMASO
 70
     1
  9
$DIMSHO
 70
     1
  9
$DIMPOST
  1

  9
$DIMAPOST
  1

  9
$DIMALT
 70
     0
  9
$DIMALTD
 70
     2
  9
$DIMALTF
 40
25.4
  9
$DIMLFAC
 40
1.0
  9
$DIMTOFL
 70
     0
  9
$DIMTVP
 40
0.0
  9
$DIMTIX
 70
     0
  9
$DIMSOXD
 70
     0
  9
$DIMSAH
 70
     0
  9
$DIMBLK1
  1

  9
$DIMBLK2
  1

  9
$DIMSTYLE
  2
Standard
  9
$DIMCLRD
 70
     0
  9
$DIMCLRE
 70
     0
  9
$DIMCLRT
 70
     0
  9
$DIMTFAC
 40
1.0
  9
$DIMGAP
 40
0.09
  9
$DIMJUST
 70
     0
  9
$DIMSD1
 70
     0
  9
$DIMSD2
 70
     0
  9
$DIMTOLJ
 70
     1
  9
$DIMTZIN
 70
     0
  9
$DIMALTZ
 70
     0
  9
$DIMALTTZ
 70
     0
  9
$DIMUPT
 70
     0
  9
$DIMDEC
 70
     4
  9
$DIMTDEC
 70
     4
  9
$DIMALTU
 70
     2
  9
$DIMALTTD
 70
     2
  9
$DIMTXSTY
  7
Standard
  9
$DIMAUNIT
 70
     0
  9
$DIMADEC
 70
     0
  9
$DIMALTRND
 40
0.0
  9
$DIMAZIN
 70
     0
  9
$DIMDSEP
 70
    46
  9
$DIMATFIT
 70
     3
  9
$DIMFRAC
 70
     0
  9
$DIMLDRBLK
  1

  9
$DIMLUNIT
 70
     2
  9
$DIMLWD
 70
    -2
  9
$DIMLWE
 70
    -2
  9
$DIMTMOVE
 70
     0
  9
$DIMFXL
 40
1.0
  9
$DIMFXLON
 70
     0
  9
$DIMJOGANG
 40
0.7853981633974483
  9
$DIMTFILL
 70
     0
  9
$DIMTFILLCLR
 70
     0
  9
$DIMARCSYM
 70
     0
  9
$DIMLTYPE
  6

  9
$DIMLTEX1
  6

  9
$DIMLTEX2
  6

  9
$DIMTXTDIRECTION
 70
     0
  9
$LUNITS
 70
     2
  9
$LUPREC
 70
     4
  9
$SKETCHINC
 40
0.1
  9
$FILLETRAD
 40
0.5
  9
$AUNITS
 70
     0
  9
$AUPREC
 70
     0
  9
$MENU
  1
.
  9
$ELEVATION
 40
0.0
  9
$PELEVATION
 40
0.0
  9
$THICKNESS
 40
0.0
  9
$LIMCHECK
 70
     0
  9
$CHAMFERA
 40
0.5
  9
$CHAMFERB
 40
0.5
  9
$CHAMFERC
 40
1.0
  9
$CHAMFERD
 40
0.0
  9
$SKPOLY
 70
     0
  9
$TDCREATE
 40
2458853.974989607
  9
$TDUCREATE
 40
2458853.43332294
  9
$TDUPDATE
 40
2458853.974989873
  9
$TDUUPDATE
 40
2458853.433323206
  9
$TDINDWG
 40
0.0000000116
  9
$TDUSRTIMER
 40
0.0000000116
  9
$USRTIMER
 70
     1
  9
$ANGBASE
 50
0.0
  9
$ANGDIR
 70
     0
  9
$PDMODE
 70
     0
  9
$PDSIZE
 40
0.0
  9
$PLINEWID
 40
0.0
  9
$SPLFRAME
 70
     0
  9
$SPLINETYPE
 70
     6
  9
$SPLINESEGS
 70
     8
  9
$HANDSEED
  5
526
  9
$SURFTAB1
 70
     6
  9
$SURFTAB2
 70
     6
  9
$SURFTYPE
 70
     6
  9
$SURFU
 70
     6
  9
$SURFV
 70
     6
  9
$UCSBASE
  2

  9
$UCSNAME
  2

  9
$UCSORG
 10
0.0
 20
0.0
 30
0.0
  9
$UCSXDIR
 10
1.0
 20
0.0
 30
0.0
  9
$UCSYDIR
 10
0.0
 20
1.0
 30
0.0
  9
$UCSORTHOREF
  2

  9
$UCSORTHOVIEW
 70
     0
  9
$UCSORGTOP
 10
0.0
 20
0.0
 30
0.0
  9
$UCSORGBOTTOM
 10
0.0
 20
0.0
 30
0.0
  9
$UCSORGLEFT
 10
0.0
 20
0.0
 30
0.0
  9
$UCSORGRIGHT
 10
0.0
 20
0.0
 30
0.0
  9
$UCSORGFRONT
 10
0.0
 20
0.0
 30
0.0
  9
$UCSORGBACK
 10
0.0
 20
0.0
 30
0.0
  9
$PUCSBASE
  2

  9
$PUCSNAME
  2

  9
$PUCSORG
 10
0.0
 20
0.0
 30
0.0
  9
$PUCSXDIR
 10
1.0
 20
0.0
 30
0.0
  9
$PUCSYDIR
 10
0.0
 20
1.0
 30
0.0
  9
$PUCSORTHOREF
  2

  9
$PUCSORTHOVIEW
 70
     0
  9
$PUCSORGTOP
 10
0.0
 20
0.0
 30
0.0
  9
$PUCSORGBOTTOM
 10
0.0
 20
0.0
 30
0.0
  9
$PUCSORGLEFT
 10
0.0
 20
0.0
 30
0.0
  9
$PUCSORGRIGHT
 10
0.0
 20
0.0
 30
0.0
  9
$PUCSORGFRONT
 10
0.0
 20
0.0
 30
0.0
  9
$PUCSORGBACK
 10
0.0
 20
0.0
 30
0.0
  9
$USERI1
 70
     0
  9
$USERI2
 70
     0
  9
$USERI3
 70
     0
  9
$USERI4
 70
     0
  9
$USERI5
 70
     0
  9
$USERR1
 40
0.0
  9
$USERR2
 40
0.0
  9
$USERR3
 40
0.0
  9
$USERR4
 40
0.0
  9
$USERR5
 40
0.0
  9
$WORLDVIEW
 70
     1
  9
$SHADEDGE
 70
     3
  9
$SHADEDIF
 70
    70
  9
$TILEMODE
 70
     1
  9
$MAXACTVP
 70
    64
  9
$PINSBASE
 10
0.0
 20
0.0
 30
0.0
  9
$PLIMCHECK
 70
     0
  9
$PEXTMIN
 10
1.000000000000000E+20
 20
1.000000000000000E+20
 30
1.000000000000000E+20
  9
$PEXTMAX
 10
-1.000000000000000E+20
 20
-1.000000000000000E+20
 30
-1.000000000000000E+20
  9
$PLIMMIN
 10
0.0
 20
0.0
  9
$PLIMMAX
 10
12.0
 20
9.0
  9
$UNITMODE
 70
     0
  9
$VISRETAIN
 70
     1
  9
$PLINEGEN
 70
     0
  9
$PSLTSCALE
 70
     1
  9
$TREEDEPTH
 70
  3020
  9
$CMLSTYLE
  2
Standard
  9
$CMLJUST
 70
     0
  9
$CMLSCALE
 40
1.0
  9
$PROXYGRAPHICS
 70
     1
  9
$MEASUREMENT
 70
     0
  9
$CELWEIGHT
370
    -1
  9
$ENDCAPS
280
     0
  9
$JOINSTYLE
280
     0
  9
$LWDISPLAY
290
     1
  9
$INSUNITS
 70
     1
  9
$HYPERLINKBASE
  1

  9
$STYLESHEET
  1

  9
$XEDIT
290
     1
  9
$CEPSNTYPE
380
     0
  9
$PSTYLEMODE
290
     1
  9
$FINGERPRINTGUID
  2
{9E2C348E-9D3E-46B7-A0C0-5B5284D3CA79}
  9
$VERSIONGUID
  2
{FAEB1C32-E019-11D5-929B-00C0DF256EC4}
  9
$EXTNAMES
290
     1
  9
$PSVPSCALE
 40
0.0
  9
$OLESTARTUP
290
     0
  9
$SORTENTS
280
   127
  9
$INDEXCTL
280
     0
  9
$HIDETEXT
280
     1
  9
$XCLIPFRAME
280
     2
  9
$HALOGAP
280
     0
  9
$OBSCOLOR
 70
   257
  9
$OBSLTYPE
280
     0
  9
$INTERSECTIONDISPLAY
280
     0
  9
$INTERSECTIONCOLOR
 70
   257
  9
$DIMASSOC
280
     2
  9
$PROJECTNAME
  1

  9
$CAMERADISPLAY
290
     0
  9
$LENSLENGTH
 40
50.0
  9
$CAMERAHEIGHT
 40
0.0
  9
$STEPSPERSEC
 40
2.0
  9
$STEPSIZE
 40
6.0
  9
$3DDWFPREC
 40
2.0
  9
$PSOLWIDTH
 40
0.25
  9
$PSOLHEIGHT
 40
4.0
  9
$LOFTANG1
 40
1.570796326794897
  9
$LOFTANG2
 40
1.570796326794897
  9
$LOFTMAG1
 40
0.0
  9
$LOFTMAG2
 40
0.0
  9
$LOFTPARAM
 70
     7
  9
$LOFTNORMALS
280
     1
  9
$LATITUDE
 40
37.795
  9
$LONGITUDE
 40
-122.394
  9
$NORTHDIRECTION
 40
0.0
  9
$TIMEZONE
 70
 -8000
  9
$LIGHTGLYPHDISPLAY
280
     1
  9
$TILEMODELIGHTSYNCH
280
     1
  9
$CMATERIAL
347
3C
  9
$SOLIDHIST
280
     1
  9
$SHOWHIST
280
     1
  9
$DWFFRAME
280
     2
  9
$DGNFRAME
280
     2
  9
$REALWORLDSCALE
290
     1
  9
$INTERFERECOLOR
 62
   256
  9
$CSHADOW
280
     0
  9
$SHADOWPLANELOCATION
 40
0.0
  0
ENDSEC
  0
SECTION
  2
CLASSES
  0
CLASS
  1
ACDBDICTIONARYWDFLT
  2
AcDbDictionaryWithDefault
  3
ObjectDBX Classes
 90
        0
 91
        4
280
     0
281
     0
  0
CLASS
  1
VISUALSTYLE
  2
AcDbVisualStyle
  3
ObjectDBX Classes
 90
     4095
 91
        4
280
     0
281
     0
  0
CLASS
  1
MATERIAL
  2
AcDbMaterial
  3
ObjectDBX Classes
 90
     1153
 91
        4
280
     0
281
     0
  0
CLASS
  1
SUN
  2
AcDbSun
  3
SCENEOE
 90
     1024
 91
        4
280
     0
281
     0
  0
ENDSEC
  0
SECTION
  2
TABLES
  0
TABLE
  2
VPORT
  5
8
330
0
100
AcDbSymbolTable
 70
     1
  0
VPORT
  5
29
330
8
100
AcDbSymbolTableRecord
100
AcDbViewportTableRecord
  2
*Active
 70
     0
 10
0.0
 20
0.0
 11
1.0
 21
1.0
 12
0.0
 22
0.0
 13
0.0
 23
0.0
 14
0.5
 24
0.5
 15
0.5
 25
0.5
 16
0.0
 26
0.0
 36
1.0
 17
4.25
 27
5.499999999999999
 37
0.0
 40
11.69291338582677
 41
0.7070707070707065
 42
50.0
 43
0.0
 44
0.0
 50
0.0
 51
0.0
 71
     0
 72
   100
 73
     1
 74
     3
 75
     0
 76
     0
 77
     0
 78
     0
281
     0
 65
     1
110
0.0
120
0.0
130
0.0
111
1.0
121
0.0
131
0.0
112
0.0
122
1.0
132
0.0
 79
     0
146
0.0
 60
     3
 61
     5
292
     1
282
     1
141
0.0
142
0.0
 63
   250
361
3F
  0
ENDTAB
  0
TABLE
  2
LTYPE
  5
5
330
0
100
AcDbSymbolTable
 70
     1
  0
LTYPE
  5
14
330
5
100
AcDbSymbolTableRecord
100
AcDbLinetypeTableRecord
  2
ByBlock
 70
     0
  3

 72
    65
 73
     0
 40
0.0
  0
LTYPE
  5
15
330
5
100
AcDbSymbolTableRecord
100
AcDbLinetypeTableRecord
  2
ByLayer
 70
     0
  3

 72
    65
 73
     0
 40
0.0
  0
LTYPE
  5
16
330
5
100
AcDbSymbolTableRecord
100
AcDbLinetypeTableRecord
  2
Continuous
 70
     0
  3
Solid line
 72
    65
 73
     0
 40
0.0
  0
ENDTAB
  0
TABLE
  2
LAYER
  5
2
330
0
100
AcDbSymbolTable
 70
     3
  0
LAYER
  5
10
330
2
100
AcDbSymbolTableRecord
100
AcDbLayerTableRecord
  2
0
 70
     0
 62
     7
  6
Continuous
370
    -3
390
F
347
3E
  0
LAYER
  5
40
330
2
100
AcDbSymbolTableRecord
100
AcDbLayerTableRecord
  2
CDTC4
 70
     0
 62
     7
  6
Continuous
370
    -3
390
F
347
3E
  0
LAYER
  5
4B3
330
2
100
AcDbSymbolTableRecord
100
AcDbLayerTableRecord
  2
callout
 70
     0
 62
     7
  6
Continuous
370
    -3
390
F
347
3E
  0
ENDTAB
  0
TABLE
  2
STYLE
  5
3
330
0
100
AcDbSymbolTable
 70
     1
  0
STYLE
  5
11
330
3
100
AcDbSymbolTableRecord
100
AcDbTextStyleTableRecord
  2
Standard
 70
     0
 40
0.0
 41
1.0
 50
0.0
 71
     0
 42
0.2
  3
txt
  4

  0
ENDTAB
  0
TABLE
  2
VIEW
  5
6
330
0
100
AcDbSymbolTable
 70
     0
  0
ENDTAB
  0
TABLE
  2
UCS
  5
7
330
0
100
AcDbSymbolTable
 70
     0
  0
ENDTAB
  0
TABLE
  2
APPID
  5
9
330
0
100
AcDbSymbolTable
 70
     1
  0
APPID
  5
12
330
9
100
AcDbSymbolTableRecord
100
AcDbRegAppTableRecord
  2
ACAD
 70
     0
  0
ENDTAB
  0
TABLE
  2
DIMSTYLE
  5
A
330
0
100
AcDbSymbolTable
 70
     1
100
AcDbDimStyleTable
  0
DIMSTYLE
105
27
330
A
100
AcDbSymbolTableRecord
100
AcDbDimStyleTableRecord
  2
Standard
 70
     0
178
     0
340
11
  0
ENDTAB
  0
TABLE
  2
BLOCK_RECORD
  5
1
330
0
100
AcDbSymbolTable
 70
     7
  0
BLOCK_RECORD
  5
1F
330
1
100
AcDbSymbolTableRecord
100
AcDbBlockTableRecord
  2
*Model_Space
340
22
 70
     0
280
     1
281
     0
  0
BLOCK_RECORD
  5
1B
330
1
100
AcDbSymbolTableRecord
100
AcDbBlockTableRecord
  2
*Paper_Space
340
1E
 70
     0
280
     1
281
     0
  0
BLOCK_RECORD
  5
23
330
1
100
AcDbSymbolTableRecord
100
AcDbBlockTableRecord
  2
*Paper_Space0
340
26
 70
     0
280
     1
281
     0
  0
BLOCK_RECORD
  5
41
330
1
100
AcDbSymbolTableRecord
100
AcDbBlockTableRecord
  2
block 2
340
0
102
{BLKREFS
331
42
102
}
 70
     0
280
     1
281
     0
  0
BLOCK_RECORD
  5
431
330
1
100
AcDbSymbolTableRecord
100
AcDbBlockTableRecord
  2
block 3
340
0
102
{BLKREFS
331
432
102
}
 70
     0
280
     1
281
     0
  0
BLOCK_RECORD
  5
4B4
330
1
100
AcDbSymbolTableRecord
100
AcDbBlockTableRecord
  2
block 4
340
0
102
{BLKREFS
331
4B5
102
}
 70
     0
280
     1
281
     0
  0
BLOCK_RECORD
  5
4D6
330
1
100
AcDbSymbolTableRecord
100
AcDbBlockTableRecord
  2
block 5
340
0
102
{BLKREFS
331
4D7
102
}
 70
     0
280
     1
281
     0
  0
BLOCK_RECORD
  5
4F9
330
1
100
AcDbSymbolTableRecord
100
AcDbBlockTableRecord
  2
block 6
340
0
102
{BLKREFS
331
4FA
102
}
 70
     0
280
     1
281
     0
  0
BLOCK_RECORD
  5
50D
330
1
100
AcDbSymbolTableRecord
100
AcDbBlockTableRecord
  2
block 7
340
0
102
{BLKREFS
331
50E
102
}
 70
     0
280
     1
281
     0
  0
ENDTAB
  0
ENDSEC
  0
SECTION
  2
BLOCKS
  0
BLOCK
  5
20
330
1F
100
AcDbEntity
  8
0
100
AcDbBlockBegin
  2
*Model_Space
 70
     0
 10
0.0
 20
0.0
 30
0.0
  3
*Model_Space
  1

  0
ENDBLK
  5
21
330
1F
100
AcDbEntity
  8
0
100
AcDbBlockEnd
  0
BLOCK
  5
1C
330
1B
100
AcDbEntity
 67
     1
  8
0
100
AcDbBlockBegin
  2
*Paper_Space
 70
     0
 10
0.0
 20
0.0
 30
0.0
  3
*Paper_Space
  1

  0
ENDBLK
  5
1D
330
1B
100
AcDbEntity
 67
     1
  8
0
100
AcDbBlockEnd
  0
BLOCK
  5
24
330
23
100
AcDbEntity
  8
0
100
AcDbBlockBegin
  2
*Paper_Space0
 70
     0
 10
0.0
 20
0.0
 30
0.0
  3
*Paper_Space0
  1

  0
ENDBLK
  5
25
330
23
100
AcDbEntity
  8
0
100
AcDbBlockEnd
  0
BLOCK
  5
43
330
41
100
AcDbEntity
  8
0
100
AcDbBlockBegin
  2
block 2
 70
     0
 10
0.0
 20
0.0
 30
0.0
  3
block 2
  1

  0
SPLINE
  5
45
330
41
100
AcDbEntity
  8
CDTC4
370
     0
100
AcDbSpline
210
0.0
220
0.0
230
1.0
 70
    11
 71
     3
 72
    23
 73
    19
 74
     0
 42
0.0000000001
 43
0.0000000001
 12
1.0
 22
0.0
 32
0.0
 13
1.0
 23
0.0
 33
0.0
 40
0.0
 40
0.0
 40
0.0
 40
0.0
 40
1.0
 40
1.0
 40
1.0
 40
2.0
 40
2.0
 40
2.0
 40
3.0
 40
3.0
 40
3.0
 40
4.0
 40
4.0
 40
4.0
 40
5.0
 40
5.0
 40
5.0
 40
6.0
 40
6.0
 40
6.0
 40
6.0
 10
3.414593534404174
 20
5.403365770633829
 30
0.0
 10
3.414593534404174
 20
5.403365770633829
 30
0.0
 10
3.509911552641054
 20
5.574938203460192
 30
0.0
 10
3.509911552641054
 20
5.574938203460192
 30
0.0
 10
3.509911552641054
 20
5.574938203460192
 30
0.0
 10
4.328250016148028
 20
5.883549351105658
 30
0.0
 10
4.615600564188652
 20
5.960976177319467
 30
0.0
 10
4.615600564188652
 20
5.960976177319467
 30
0.0
 10
4.767095114204545
 20
5.920251456812783
 30
0.0
 10
4.772875294279452
 20
5.91808306911288
 30
0.0
 10
4.791938897926861
 20
5.910934217745131
 30
0.0
 10
4.851512659324877
 20
5.901402415921425
 30
0.0
 10
4.973043132576877
 20
5.858509307714838
 30
0.0
 10
5.206515933076717
 20
5.776111553276274
 30
0.0
 10
4.152395902384935
 20
5.143270463503919
 30
0.0
 10
4.148542274828047
 20
5.131709418658779
 30
0.0
 10
4.143776373916189
 20
5.117411715923254
 30
0.0
 10
3.414593534404174
 20
5.403365770633829
 30
0.0
 10
3.414593534404174
 20
5.403365770633829
 30
0.0
  0
HATCH
  5
46
330
41
100
AcDbEntity
  8
CDTC4
 62
    43
420
 15510365
100
AcDbHatch
 10
0.0
 20
0.0
 30
0.0
210
0.0
220
0.0
230
1.0
  2
SOLID
 70
     1
 71
     0
 91
        1
 92
        1
 93
        1
 72
     4
 94
        3
 73
     0
 74
     1
 95
       23
 96
       19
 40
0.0
 40
0.0
 40
0.0
 40
0.0
 40
1.0
 40
1.0
 40
1.0
 40
2.0
 40
2.0
 40
2.0
 40
3.0
 40
3.0
 40
3.0
 40
4.0
 40
4.0
 40
4.0
 40
5.0
 40
5.0
 40
5.0
 40
6.0
 40
6.0
 40
6.0
 40
6.0
 10
3.414593534404174
 20
5.403365770633829
 10
3.414593534404174
 20
5.403365770633829
 10
3.509911552641054
 20
5.574938203460192
 10
3.509911552641054
 20
5.574938203460192
 10
3.509911552641054
 20
5.574938203460192
 10
4.328250016148028
 20
5.883549351105658
 10
4.615600564188652
 20
5.960976177319467
 10
4.615600564188652
 20
5.960976177319467
 10
4.767095114204545
 20
5.920251456812783
 10
4.772875294279452
 20
5.91808306911288
 10
4.791938897926861
 20
5.910934217745131
 10
4.851512659324877
 20
5.901402415921425
 10
4.973043132576877
 20
5.858509307714838
 10
5.206515933076717
 20
5.776111553276274
 10
4.152395902384935
 20
5.143270463503919
 10
4.148542274828047
 20
5.131709418658779
 10
4.143776373916189
 20
5.117411715923254
 10
3.414593534404174
 20
5.403365770633829
 10
3.414593534404174
 20
5.403365770633829
 97
        0
 97
        0
 75
     2
 76
     1
 98
        0
  0
POLYLINE
  5
47
330
41
100
AcDbEntity
  8
CDTC4
 62
   250
420
  2301728
370
    25
100
AcDb2dPolyline
 66
     1
 10
0.0
 20
0.0
 30
0.0
  0
VERTEX
  5
48
330
47
100
AcDbEntity
  8
CDTC4
 62
   250
420
  2301728
370
    25
100
AcDbVertex
100
AcDb2dVertex
 10
3.44001002204301
 20
5.390650347001029
 30
0.0
  0
VERTEX
  5
49
330
47
100
AcDbEntity
  8
CDTC4
 62
   250
420
  2301728
370
    25
100
AcDbVertex
100
AcDb2dVertex
 10
4.139829175178041
 20
5.122066017702612
 30
0.0
  0
VERTEX
  5
4A
330
47
100
AcDbEntity
  8
CDTC4
 62
   250
420
  2301728
370
    25
100
AcDbVertex
100
AcDb2dVertex
 10
4.139829175178041
 20
4.551023410312786
 30
0.0
  0
VERTEX
  5
4B
330
47
100
AcDbEntity
  8
CDTC4
 62
   250
420
  2301728
370
    25
100
AcDbVertex
100
AcDb2dVertex
 10
4.408637417977515
 20
4.432741378110348
 30
0.0
  0
VERTEX
  5
4C
330
47
100
AcDbEntity
  8
CDTC4
 62
   250
420
  2301728
370
    25
100
AcDbVertex
100
AcDb2dVertex
 10
4.564999950683765
 20
4.531764405214568
 30
0.0
  0
VERTEX
  5
4D
330
47
100
AcDbEntity
  8
CDTC4
 62
   250
420
  2301728
370
    25
100
AcDbVertex
100
AcDb2dVertex
 10
4.664851384211614
 20
4.485138705552647
 30
0.0
  0
VERTEX
  5
4E
330
47
100
AcDbEntity
  8
CDTC4
 62
   250
420
  2301728
370
    25
100
AcDbVertex
100
AcDb2dVertex
 10
4.70615268151366
 20
4.656711138378998
 30
0.0
  0
VERTEX
  5
4F
330
47
100
AcDbEntity
  8
CDTC4
 62
   250
420
  2301728
370
    25
100
AcDbVertex
100
AcDb2dVertex
 10
4.74376793619073
 20
4.644982191235991
 30
0.0
  0
VERTEX
  5
50
330
47
100
AcDbEntity
  8
CDTC4
 62
   250
420
  2301728
370
    25
100
AcDbVertex
100
AcDb2dVertex
 10
4.892497402189393
 20
4.739183079919409
 30
0.0
  0
VERTEX
  5
51
330
47
100
AcDbEntity
  8
CDTC4
 62
   250
420
  2301728
370
    25
100
AcDbVertex
100
AcDb2dVertex
 10
4.892497402189393
 20
4.831392775252147
 30
0.0
  0
VERTEX
  5
52
330
47
100
AcDbEntity
  8
CDTC4
 62
   250
420
  2301728
370
    25
100
AcDbVertex
100
AcDb2dVertex
 10
5.145174023990017
 20
4.733812862907598
 30
0.0
  0
VERTEX
  5
53
330
47
100
AcDbEntity
  8
CDTC4
 62
   250
420
  2301728
370
    25
100
AcDbVertex
100
AcDb2dVertex
 10
5.322862056377643
 20
4.853639046966464
 30
0.0
  0
VERTEX
  5
54
330
47
100
AcDbEntity
  8
CDTC4
 62
   250
420
  2301728
370
    25
100
AcDbVertex
100
AcDb2dVertex
 10
5.325719800053295
 20
4.895797323522528
 30
0.0
  0
VERTEX
  5
55
330
47
100
AcDbEntity
  8
CDTC4
 62
   250
420
  2301728
370
    25
100
AcDbVertex
100
AcDb2dVertex
 10
5.487760431055928
 20
4.891031422610695
 30
0.0
  0
VERTEX
  5
56
330
47
100
AcDbEntity
  8
CDTC4
 62
   250
420
  2301728
370
    25
100
AcDbVertex
100
AcDb2dVertex
 10
5.49049689763582
 20
4.96669955826178
 30
0.0
  0
VERTEX
  5
57
330
47
100
AcDbEntity
  8
CDTC4
 62
   250
420
  2301728
370
    25
100
AcDbVertex
100
AcDb2dVertex
 10
5.602142052940179
 20
5.043540251789687
 30
0.0
  0
VERTEX
  5
58
330
47
100
AcDbEntity
  8
CDTC4
 62
   250
420
  2301728
370
    25
100
AcDbVertex
100
AcDb2dVertex
 10
5.600373787202443
 20
5.352067436717662
 30
0.0
  0
VERTEX
  5
59
330
47
100
AcDbEntity
  8
CDTC4
 62
   250
420
  2301728
370
    25
100
AcDbVertex
100
AcDb2dVertex
 10
5.189268138112488
 20
5.4707307409834
 30
0.0
  0
SEQEND
  5
5B
330
47
100
AcDbEntity
  8
CDTC4
 62
   250
420
  2301728
370
    25
  0
HATCH
  5
5A
330
41
100
AcDbEntity
  8
CDTC4
 62
    43
420
 15510365
100
AcDbHatch
 10
0.0
 20
0.0
 30
0.0
210
0.0
220
0.0
230
1.0
  2
SOLID
 70
     1
 71
     0
 91
        1
 92
        1
 93
       18
 72
     1
 10
3.44001002204301
 20
5.390650347001029
 11
4.139829175178041
 21
5.122066017702612
 72
     1
 10
4.139829175178041
 20
5.122066017702612
 11
4.139829175178041
 21
4.551023410312786
 72
     1
 10
4.139829175178041
 20
4.551023410312786
 11
4.408637417977515
 21
4.432741378110348
 72
     1
 10
4.408637417977515
 20
4.432741378110348
 11
4.564999950683765
 21
4.531764405214568
 72
     1
 10
4.564999950683765
 20
4.531764405214568
 11
4.664851384211614
 21
4.485138705552647
 72
     1
 10
4.664851384211614
 20
4.485138705552647
 11
4.70615268151366
 21
4.656711138378998
 72
     1
 10
4.70615268151366
 20
4.656711138378998
 11
4.74376793619073
 21
4.644982191235991
 72
     1
 10
4.74376793619073
 20
4.644982191235991
 11
4.892497402189393
 21
4.739183079919409
 72
     1
 10
4.892497402189393
 20
4.739183079919409
 11
4.892497402189393
 21
4.831392775252146
 72
     1
 10
4.892497402189393
 20
4.831392775252147
 11
5.145174023990016
 21
4.733812862907598
 72
     1
 10
5.145174023990017
 20
4.733812862907598
 11
5.322862056377643
 21
4.853639046966464
 72
     1
 10
5.322862056377643
 20
4.853639046966464
 11
5.325719800053295
 21
4.895797323522528
 72
     1
 10
5.325719800053295
 20
4.895797323522528
 11
5.487760431055928
 21
4.891031422610695
 72
     1
 10
5.487760431055928
 20
4.891031422610695
 11
5.49049689763582
 21
4.96669955826178
 72
     1
 10
5.49049689763582
 20
4.96669955826178
 11
5.602142052940179
 21
5.043540251789687
 72
     1
 10
5.602142052940179
 20
5.043540251789687
 11
5.600373787202443
 21
5.352067436717663
 72
     1
 10
5.600373787202443
 20
5.352067436717662
 11
5.189268138112488
 21
5.4707307409834
 72
     1
 10
5.189268138112488
 20
5.4707307409834
 11
3.44001002204301
 21
5.390650347001029
 97
        0
 75
     2
 76
     1
 98
        0
  0
POLYLINE
  5
5C
330
41
100
AcDbEntity
  8
CDTC4
 62
   250
420
  2301728
370
    25
100
AcDb2dPolyline
 66
     1
 10
0.0
 20
0.0
 30
0.0
  0
VERTEX
  5
5D
330
5C
100
AcDbEntity
  8
CDTC4
 62
   250
420
  2301728
370
    25
100
AcDbVertex
100
AcDb2dVertex
 10
4.55316907855907
 20
4.524830019562993
 30
0.0
  0
VERTEX
  5
5E
330
5C
100
AcDbEntity
  8
CDTC4
 62
   250
420
  2301728
370
    25
100
AcDbVertex
100
AcDb2dVertex
 10
4.617564976872927
 20
4.565264875057791
 30
0.0
  0
SEQEND
  5
5F
330
5C
100
AcDbEntity
  8
CDTC4
 62
   250
420
  2301728
370
    25
  0
POLYLINE
  5
60
330
41
100
AcDbEntity
  8
CDTC4
 62
   250
420
  2301728
370
    25
100
AcDb2dPolyline
 66
     1
 10
0.0
 20
0.0
 30
0.0
  0
VERTEX
  5
61
330
60
100
AcDbEntity
  8
CDTC4
 62
   250
420
  2301728
370
    25
100
AcDbVertex
100
AcDb2dVertex
 10
4.703527529448238
 20
4.643995714746223
 30
0.0
  0
VERTEX
  5
62
330
60
100
AcDbEntity
  8
CDTC4
 62
   250
420
  2301728
370
    25
100
AcDbVertex
100
AcDb2dVertex
 10
4.713068862832743
 20
4.682132453842794
 30
0.0
  0
SEQEND
  5
63
330
60
100
AcDbEntity
  8
CDTC4
 62
   250
420
  2301728
370
    25
  0
POLYLINE
  5
64
330
41
100
AcDbEntity
  8
CDTC4
 62
   250
420
  2301728
370
    25
100
AcDb2dPolyline
 66
     1
 10
0.0
 20
0.0
 30
0.0
  0
VERTEX
  5
65
330
64
100
AcDbEntity
  8
CDTC4
 62
   250
420
  2301728
370
    25
100
AcDbVertex
100
AcDb2dVertex
 10
4.407930158300082
 20
5.017030330159943
 30
0.0
  0
VERTEX
  5
66
330
64
100
AcDbEntity
  8
CDTC4
 62
   250
420
  2301728
370
    25
100
AcDbVertex
100
AcDb2dVertex
 10
4.892497402189393
 20
4.831392775252147
 30
0.0
  0
SEQEND
  5
67
330
64
100
AcDbEntity
  8
CDTC4
 62
   250
420
  2301728
370
    25
  0
POLYLINE
  5
68
330
41
100
AcDbEntity
  8
CDTC4
 62
   250
420
  2301728
370
    18
100
AcDb2dPolyline
 66
     1
 10
0.0
 20
0.0
 30
0.0
  0
VERTEX
  5
69
330
68
100
AcDbEntity
  8
CDTC4
 62
   250
420
  2301728
370
    18
100
AcDbVertex
100
AcDb2dVertex
 10
4.135817319393419
 20
5.121274878171233
 30
0.0
  0
VERTEX
  5
6A
330
68
100
AcDbEntity
  8
CDTC4
 62
   250
420
  2301728
370
    18
100
AcDbVertex
100
AcDb2dVertex
 10
4.407930158300082
 20
5.017030330159943
 30
0.0
  0
SEQEND
  5
6B
330
68
100
AcDbEntity
  8
CDTC4
 62
   250
420
  2301728
370
    18
  0
POLYLINE
  5
6C
330
41
100
AcDbEntity
  8
CDTC4
 62
   250
420
  2301728
370
    18
100
AcDb2dPolyline
 66
     1
 10
0.0
 20
0.0
 30
0.0
  0
VERTEX
  5
6D
330
6C
100
AcDbEntity
  8
CDTC4
 62
   250
420
  2301728
370
    18
100
AcDbVertex
100
AcDb2dVertex
 10
4.407492734972114
 20
4.431270621126133
 30
0.0
  0
VERTEX
  5
6E
330
6C
100
AcDbEntity
  8
CDTC4
 62
   250
420
  2301728
370
    18
100
AcDbVertex
100
AcDb2dVertex
 10
4.407492734972114
 20
5.018546839791775
 30
0.0
  0
SEQEND
  5
6F
330
6C
100
AcDbEntity
  8
CDTC4
 62
   250
420
  2301728
370
    18
  0
POLYLINE
  5
70
330
41
100
AcDbEntity
  8
CDTC4
 62
   250
420
  2301728
370
    18
100
AcDb2dPolyline
 66
     1
 10
0.0
 20
0.0
 30
0.0
  0
VERTEX
  5
71
330
70
100
AcDbEntity
  8
CDTC4
 62
   250
420
  2301728
370
    18
100
AcDbVertex
100
AcDb2dVertex
 10
4.61492085511385
 20
4.567536303374987
 30
0.0
  0
VERTEX
  5
72
330
70
100
AcDbEntity
  8
CDTC4
 62
   250
420
  2301728
370
    18
100
AcDbVertex
100
AcDb2dVertex
 10
4.664851384211614
 20
4.487381477504136
 30
0.0
  0
SEQEND
  5
73
330
70
100
AcDbEntity
  8
CDTC4
 62
   250
420
  2301728
370
    18
  0
POLYLINE
  5
74
330
41
100
AcDbEntity
  8
CDTC4
 62
   250
420
  2301728
370
    18
100
AcDb2dPolyline
 66
     1
 10
0.0
 20
0.0
 30
0.0
  0
VERTEX
  5
75
330
74
100
AcDbEntity
  8
CDTC4
 62
   250
420
  2301728
370
    18
100
AcDbVertex
100
AcDb2dVertex
 10
4.71084414034327
 20
4.683156103395327
 30
0.0
  0
VERTEX
  5
76
330
74
100
AcDbEntity
  8
CDTC4
 62
   250
420
  2301728
370
    18
100
AcDbVertex
100
AcDb2dVertex
 10
4.741058998180884
 20
4.645056539288336
 30
0.0
  0
SEQEND
  5
77
330
74
100
AcDbEntity
  8
CDTC4
 62
   250
420
  2301728
370
    18
  0
POLYLINE
  5
78
330
41
100
AcDbEntity
  8
CDTC4
 62
   250
420
  2301728
370
    18
100
AcDb2dPolyline
 66
     1
 10
0.0
 20
0.0
 30
0.0
  0
VERTEX
  5
79
330
78
100
AcDbEntity
  8
CDTC4
 62
   250
420
  2301728
370
    18
100
AcDbVertex
100
AcDb2dVertex
 10
5.602142052940179
 20
5.362855612883146
 30
0.0
  0
VERTEX
  5
7A
330
78
100
AcDbEntity
  8
CDTC4
 62
   250
420
  2301728
370
    18
100
AcDbVertex
100
AcDb2dVertex
 10
5.451457497892761
 20
5.256562597577713
 30
0.0
  0
VERTEX
  5
7B
330
78
100
AcDbEntity
  8
CDTC4
 62
   250
420
  2301728
370
    18
100
AcDbVertex
100
AcDb2dVertex
 10
5.490143381511871
 20
5.207963833248262
 30
0.0
  0
VERTEX
  5
7C
330
78
100
AcDbEntity
  8
CDTC4
 62
   250
420
  2301728
370
    18
100
AcDbVertex
100
AcDb2dVertex
 10
5.29712439458222
 20
5.21987858552787
 30
0.0
  0
VERTEX
  5
7D
330
78
100
AcDbEntity
  8
CDTC4
 62
   250
420
  2301728
370
    18
100
AcDbVertex
100
AcDb2dVertex
 10
5.325356528851898
 20
5.1775811364817
 30
0.0
  0
VERTEX
  5
7E
330
78
100
AcDbEntity
  8
CDTC4
 62
   250
420
  2301728
370
    18
100
AcDbVertex
100
AcDb2dVertex
 10
5.149381466315086
 20
5.067369756348878
 30
0.0
  0
VERTEX
  5
7F
330
78
100
AcDbEntity
  8
CDTC4
 62
   250
420
  2301728
370
    18
100
AcDbVertex
100
AcDb2dVertex
 10
5.149381466315086
 20
4.733812862907598
 30
0.0
  0
SEQEND
  5
80
330
78
100
AcDbEntity
  8
CDTC4
 62
   250
420
  2301728
370
    18
  0
POLYLINE
  5
81
330
41
100
AcDbEntity
  8
CDTC4
 62
   250
420
  2301728
370
    25
100
AcDb2dPolyline
 66
     1
 10
0.0
 20
0.0
 30
0.0
  0
VERTEX
  5
82
330
81
100
AcDbEntity
  8
CDTC4
 62
   250
420
  2301728
370
    25
100
AcDbVertex
100
AcDb2dVertex
 10
5.323336849597354
 20
5.178698263627211
 30
0.0
  0
VERTEX
  5
83
330
81
100
AcDbEntity
  8
CDTC4
 62
   250
420
  2301728
370
    25
100
AcDbVertex
100
AcDb2dVertex
 10
5.323336849597354
 20
4.849404067523184
 30
0.0
  0
SEQEND
  5
84
330
81
100
AcDbEntity
  8
CDTC4
 62
   250
420
  2301728
370
    25
  0
POLYLINE
  5
85
330
41
100
AcDbEntity
  8
CDTC4
 62
   250
420
  2301728
370
    25
100
AcDb2dPolyline
 66
     1
 10
0.0
 20
0.0
 30
0.0
  0
VERTEX
  5
86
330
85
100
AcDbEntity
  8
CDTC4
 62
   250
420
  2301728
370
    25
100
AcDbVertex
100
AcDb2dVertex
 10
5.487760431055928
 20
5.214144174173523
 30
0.0
  0
VERTEX
  5
87
330
85
100
AcDbEntity
  8
CDTC4
 62
   250
420
  2301728
370
    25
100
AcDbVertex
100
AcDb2dVertex
 10
5.487760431055928
 20
4.884850931249654
 30
0.0
  0
SEQEND
  5
88
330
85
100
AcDbEntity
  8
CDTC4
 62
   250
420
  2301728
370
    25
  0
POLYLINE
  5
89
330
41
100
AcDbEntity
  8
CDTC4
 62
   250
420
  2301728
370
    13
100
AcDb2dPolyline
 66
     1
 10
0.0
 20
0.0
 30
0.0
  0
VERTEX
  5
8A
330
89
100
AcDbEntity
  8
CDTC4
 62
   250
420
  2301728
370
    13
100
AcDbVertex
100
AcDb2dVertex
 10
5.149381466315086
 20
5.024476648142278
 30
0.0
  0
VERTEX
  5
8B
330
89
100
AcDbEntity
  8
CDTC4
 62
   250
420
  2301728
370
    13
100
AcDbVertex
100
AcDb2dVertex
 10
5.18274277269797
 20
5.057837954525212
 30
0.0
  0
VERTEX
  5
8C
330
89
100
AcDbEntity
  8
CDTC4
 62
   250
420
  2301728
370
    13
100
AcDbVertex
100
AcDb2dVertex
 10
5.21848702953682
 20
5.086433359996262
 30
0.0
  0
VERTEX
  5
8D
330
89
100
AcDbEntity
  8
CDTC4
 62
   250
420
  2301728
370
    13
100
AcDbVertex
100
AcDb2dVertex
 10
5.24708243500787
 20
5.095965161819928
 30
0.0
  0
VERTEX
  5
8E
330
89
100
AcDbEntity
  8
CDTC4
 62
   250
420
  2301728
370
    13
100
AcDbVertex
100
AcDb2dVertex
 10
5.320953899141462
 20
5.141241220482445
 30
0.0
  0
SEQEND
  5
8F
330
89
100
AcDbEntity
  8
CDTC4
 62
   250
420
  2301728
370
    13
  0
POLYLINE
  5
90
330
41
100
AcDbEntity
  8
CDTC4
 62
   250
420
  2301728
370
    13
100
AcDb2dPolyline
 66
     1
 10
0.0
 20
0.0
 30
0.0
  0
VERTEX
  5
91
330
90
100
AcDbEntity
  8
CDTC4
 62
   250
420
  2301728
370
    13
100
AcDbVertex
100
AcDb2dVertex
 10
5.15414736722692
 20
4.979200589479786
 30
0.0
  0
VERTEX
  5
92
330
90
100
AcDbEntity
  8
CDTC4
 62
   250
420
  2301728
370
    13
100
AcDbVertex
100
AcDb2dVertex
 10
5.163679169050586
 20
4.983966490391645
 30
0.0
  0
VERTEX
  5
93
330
90
100
AcDbEntity
  8
CDTC4
 62
   250
420
  2301728
370
    13
100
AcDbVertex
100
AcDb2dVertex
 10
5.23278473227232
 20
5.036391400421912
 30
0.0
  0
VERTEX
  5
94
330
90
100
AcDbEntity
  8
CDTC4
 62
   250
420
  2301728
370
    13
100
AcDbVertex
100
AcDb2dVertex
 10
5.251848335919728
 20
5.038774350877828
 30
0.0
  0
VERTEX
  5
95
330
90
100
AcDbEntity
  8
CDTC4
 62
   250
420
  2301728
370
    13
100
AcDbVertex
100
AcDb2dVertex
 10
5.320953899141462
 20
5.072135657260737
 30
0.0
  0
SEQEND
  5
96
330
90
100
AcDbEntity
  8
CDTC4
 62
   250
420
  2301728
370
    13
  0
POLYLINE
  5
97
330
41
100
AcDbEntity
  8
CDTC4
 62
   250
420
  2301728
370
    13
100
AcDb2dPolyline
 66
     1
 10
0.0
 20
0.0
 30
0.0
  0
VERTEX
  5
98
330
97
100
AcDbEntity
  8
CDTC4
 62
   250
420
  2301728
370
    13
100
AcDbVertex
100
AcDb2dVertex
 10
5.151764416770978
 20
4.92677567944952
 30
0.0
  0
VERTEX
  5
99
330
97
100
AcDbEntity
  8
CDTC4
 62
   250
420
  2301728
370
    13
100
AcDbVertex
100
AcDb2dVertex
 10
5.201806376345378
 20
4.960136985832403
 30
0.0
  0
VERTEX
  5
9A
330
97
100
AcDbEntity
  8
CDTC4
 62
   250
420
  2301728
370
    13
100
AcDbVertex
100
AcDb2dVertex
 10
5.323336849597354
 20
5.00541304449492
 30
0.0
  0
SEQEND
  5
9B
330
97
100
AcDbEntity
  8
CDTC4
 62
   250
420
  2301728
370
    13
  0
POLYLINE
  5
9C
330
41
100
AcDbEntity
  8
CDTC4
 62
   250
420
  2301728
370
    13
100
AcDb2dPolyline
 66
     1
 10
0.0
 20
0.0
 30
0.0
  0
VERTEX
  5
9D
330
9C
100
AcDbEntity
  8
CDTC4
 62
   250
420
  2301728
370
    13
100
AcDbVertex
100
AcDb2dVertex
 10
5.151764416770978
 20
4.874350769419228
 30
0.0
  0
VERTEX
  5
9E
330
9C
100
AcDbEntity
  8
CDTC4
 62
   250
420
  2301728
370
    13
100
AcDbVertex
100
AcDb2dVertex
 10
5.170828020418361
 20
4.886265521698836
 30
0.0
  0
VERTEX
  5
9F
330
9C
100
AcDbEntity
  8
CDTC4
 62
   250
420
  2301728
370
    13
100
AcDbVertex
100
AcDb2dVertex
 10
5.320953899141462
 20
4.936307481273212
 30
0.0
  0
SEQEND
  5
A0
330
9C
100
AcDbEntity
  8
CDTC4
 62
   250
420
  2301728
370
    13
  0
POLYLINE
  5
A1
330
41
100
AcDbEntity
  8
CDTC4
 62
   250
420
  2301728
370
    13
100
AcDb2dPolyline
 66
     1
 10
0.0
 20
0.0
 30
0.0
  0
VERTEX
  5
A2
330
A1
100
AcDbEntity
  8
CDTC4
 62
   250
420
  2301728
370
    13
100
AcDbVertex
100
AcDb2dVertex
 10
5.15414736722692
 20
4.824308809844878
 30
0.0
  0
VERTEX
  5
A3
330
A1
100
AcDbEntity
  8
CDTC4
 62
   250
420
  2301728
370
    13
100
AcDbVertex
100
AcDb2dVertex
 10
5.285209642302612
 20
4.864818967595562
 30
0.0
  0
VERTEX
  5
A4
330
A1
100
AcDbEntity
  8
CDTC4
 62
   250
420
  2301728
370
    13
100
AcDbVertex
100
AcDb2dVertex
 10
5.320953899141462
 20
4.871967818963311
 30
0.0
  0
SEQEND
  5
A5
330
A1
100
AcDbEntity
  8
CDTC4
 62
   250
420
  2301728
370
    13
  0
POLYLINE
  5
A6
330
41
100
AcDbEntity
  8
CDTC4
 62
   250
420
  2301728
370
    13
100
AcDb2dPolyline
 66
     1
 10
0.0
 20
0.0
 30
0.0
  0
VERTEX
  5
A7
330
A6
100
AcDbEntity
  8
CDTC4
 62
   250
420
  2301728
370
    13
100
AcDbVertex
100
AcDb2dVertex
 10
5.151764416770978
 20
4.781415701638303
 30
0.0
  0
VERTEX
  5
A8
330
A6
100
AcDbEntity
  8
CDTC4
 62
   250
420
  2301728
370
    13
100
AcDbVertex
100
AcDb2dVertex
 10
5.25423128637562
 20
4.810011107109353
 30
0.0
  0
SEQEND
  5
A9
330
A6
100
AcDbEntity
  8
CDTC4
 62
   250
420
  2301728
370
    13
  0
POLYLINE
  5
AA
330
41
100
AcDbEntity
  8
CDTC4
 62
   250
420
  2301728
370
    13
100
AcDb2dPolyline
 66
     1
 10
0.0
 20
0.0
 30
0.0
  0
VERTEX
  5
AB
330
AA
100
AcDbEntity
  8
CDTC4
 62
   250
420
  2301728
370
    13
100
AcDbVertex
100
AcDb2dVertex
 10
5.325719800053295
 20
5.169836625953494
 30
0.0
  0
VERTEX
  5
AC
330
AA
100
AcDbEntity
  8
CDTC4
 62
   250
420
  2301728
370
    13
100
AcDbVertex
100
AcDb2dVertex
 10
5.487760431055928
 20
5.162687774585745
 30
0.0
  0
SEQEND
  5
AD
330
AA
100
AcDbEntity
  8
CDTC4
 62
   250
420
  2301728
370
    13
  0
POLYLINE
  5
AE
330
41
100
AcDbEntity
  8
CDTC4
 62
   250
420
  2301728
370
    13
100
AcDb2dPolyline
 66
     1
 10
0.0
 20
0.0
 30
0.0
  0
VERTEX
  5
AF
330
AE
100
AcDbEntity
  8
CDTC4
 62
   250
420
  2301728
370
    13
100
AcDbVertex
100
AcDb2dVertex
 10
5.325719800053295
 20
5.107879914099562
 30
0.0
  0
VERTEX
  5
B0
330
AE
100
AcDbEntity
  8
CDTC4
 62
   250
420
  2301728
370
    13
100
AcDbVertex
100
AcDb2dVertex
 10
5.452016174217129
 20
5.091199260908095
 30
0.0
  0
VERTEX
  5
B1
330
AE
100
AcDbEntity
  8
CDTC4
 62
   250
420
  2301728
370
    13
100
AcDbVertex
100
AcDb2dVertex
 10
5.482994530144095
 20
5.095965161819928
 30
0.0
  0
SEQEND
  5
B2
330
AE
100
AcDbEntity
  8
CDTC4
 62
   250
420
  2301728
370
    13
  0
POLYLINE
  5
B3
330
41
100
AcDbEntity
  8
CDTC4
 62
   250
420
  2301728
370
    13
100
AcDb2dPolyline
 66
     1
 10
0.0
 20
0.0
 30
0.0
  0
VERTEX
  5
B4
330
B3
100
AcDbEntity
  8
CDTC4
 62
   250
420
  2301728
370
    13
100
AcDbVertex
100
AcDb2dVertex
 10
5.325719800053295
 20
5.031625499510053
 30
0.0
  0
VERTEX
  5
B5
330
B3
100
AcDbEntity
  8
CDTC4
 62
   250
420
  2301728
370
    13
100
AcDbVertex
100
AcDb2dVertex
 10
5.482994530144095
 20
5.003030094039003
 30
0.0
  0
SEQEND
  5
B6
330
B3
100
AcDbEntity
  8
CDTC4
 62
   250
420
  2301728
370
    13
  0
POLYLINE
  5
B7
330
41
100
AcDbEntity
  8
CDTC4
 62
   250
420
  2301728
370
    13
100
AcDb2dPolyline
 66
     1
 10
0.0
 20
0.0
 30
0.0
  0
VERTEX
  5
B8
330
B7
100
AcDbEntity
  8
CDTC4
 62
   250
420
  2301728
370
    13
100
AcDbVertex
100
AcDb2dVertex
 10
5.325719800053295
 20
4.957754035376486
 30
0.0
  0
VERTEX
  5
B9
330
B7
100
AcDbEntity
  8
CDTC4
 62
   250
420
  2301728
370
    13
100
AcDbVertex
100
AcDb2dVertex
 10
5.487760431055928
 20
4.948222233552794
 30
0.0
  0
SEQEND
  5
BA
330
B7
100
AcDbEntity
  8
CDTC4
 62
   250
420
  2301728
370
    13
  0
POLYLINE
  5
BB
330
41
100
AcDbEntity
  8
CDTC4
 62
   250
420
  2301728
370
    13
100
AcDb2dPolyline
 66
     1
 10
0.0
 20
0.0
 30
0.0
  0
VERTEX
  5
BC
330
BB
100
AcDbEntity
  8
CDTC4
 62
   250
420
  2301728
370
    13
100
AcDbVertex
100
AcDb2dVertex
 10
5.328102750509187
 20
4.914860927169912
 30
0.0
  0
VERTEX
  5
BD
330
BB
100
AcDbEntity
  8
CDTC4
 62
   250
420
  2301728
370
    13
100
AcDbVertex
100
AcDb2dVertex
 10
5.487760431055928
 20
4.917243877625828
 30
0.0
  0
SEQEND
  5
BE
330
BB
100
AcDbEntity
  8
CDTC4
 62
   250
420
  2301728
370
    13
  0
POLYLINE
  5
BF
330
41
100
AcDbEntity
  8
CDTC4
 62
   250
420
  2301728
370
    13
100
AcDb2dPolyline
 66
     1
 10
0.0
 20
0.0
 30
0.0
  0
VERTEX
  5
C0
330
BF
100
AcDbEntity
  8
CDTC4
 62
   250
420
  2301728
370
    13
100
AcDbVertex
100
AcDb2dVertex
 10
5.471079777864487
 20
5.236559238719312
 30
0.0
  0
VERTEX
  5
C1
330
BF
100
AcDbEntity
  8
CDTC4
 62
   250
420
  2301728
370
    13
100
AcDbVertex
100
AcDb2dVertex
 10
5.602142052940179
 20
5.303281851485129
 30
0.0
  0
SEQEND
  5
C2
330
BF
100
AcDbEntity
  8
CDTC4
 62
   250
420
  2301728
370
    13
  0
POLYLINE
  5
C3
330
41
100
AcDbEntity
  8
CDTC4
 62
   250
420
  2301728
370
    13
100
AcDb2dPolyline
 66
     1
 10
0.0
 20
0.0
 30
0.0
  0
VERTEX
  5
C4
330
C3
100
AcDbEntity
  8
CDTC4
 62
   250
420
  2301728
370
    13
100
AcDbVertex
100
AcDb2dVertex
 10
5.540185341086221
 20
5.315196603764737
 30
0.0
  0
VERTEX
  5
C5
330
C3
100
AcDbEntity
  8
CDTC4
 62
   250
420
  2301728
370
    13
100
AcDbVertex
100
AcDb2dVertex
 10
5.60452500339612
 20
5.34140905877987
 30
0.0
  0
SEQEND
  5
C6
330
C3
100
AcDbEntity
  8
CDTC4
 62
   250
420
  2301728
370
    13
  0
POLYLINE
  5
C7
330
41
100
AcDbEntity
  8
CDTC4
 62
   250
420
  2301728
370
    13
100
AcDb2dPolyline
 66
     1
 10
0.0
 20
0.0
 30
0.0
  0
VERTEX
  5
C8
330
C7
100
AcDbEntity
  8
CDTC4
 62
   250
420
  2301728
370
    13
100
AcDbVertex
100
AcDb2dVertex
 10
5.485377480600037
 20
5.176985477321296
 30
0.0
  0
VERTEX
  5
C9
330
C7
100
AcDbEntity
  8
CDTC4
 62
   250
420
  2301728
370
    13
100
AcDbVertex
100
AcDb2dVertex
 10
5.60452500339612
 20
5.229410387351536
 30
0.0
  0
SEQEND
  5
CA
330
C7
100
AcDbEntity
  8
CDTC4
 62
   250
420
  2301728
370
    13
  0
POLYLINE
  5
CB
330
41
100
AcDbEntity
  8
CDTC4
 62
   250
420
  2301728
370
    13
100
AcDb2dPolyline
 66
     1
 10
0.0
 20
0.0
 30
0.0
  0
VERTEX
  5
CC
330
CB
100
AcDbEntity
  8
CDTC4
 62
   250
420
  2301728
370
    13
100
AcDbVertex
100
AcDb2dVertex
 10
5.487760431055928
 20
5.112645815011395
 30
0.0
  0
VERTEX
  5
CD
330
CB
100
AcDbEntity
  8
CDTC4
 62
   250
420
  2301728
370
    13
100
AcDbVertex
100
AcDb2dVertex
 10
5.602142052940179
 20
5.160304824129828
 30
0.0
  0
SEQEND
  5
CE
330
CB
100
AcDbEntity
  8
CDTC4
 62
   250
420
  2301728
370
    13
  0
POLYLINE
  5
CF
330
41
100
AcDbEntity
  8
CDTC4
 62
   250
420
  2301728
370
    13
100
AcDb2dPolyline
 66
     1
 10
0.0
 20
0.0
 30
0.0
  0
VERTEX
  5
D0
330
CF
100
AcDbEntity
  8
CDTC4
 62
   250
420
  2301728
370
    13
100
AcDbVertex
100
AcDb2dVertex
 10
5.490143381511871
 20
5.04115730133377
 30
0.0
  0
VERTEX
  5
D1
330
CF
100
AcDbEntity
  8
CDTC4
 62
   250
420
  2301728
370
    13
100
AcDbVertex
100
AcDb2dVertex
 10
5.606907953852012
 20
5.098348112275844
 30
0.0
  0
SEQEND
  5
D2
330
CF
100
AcDbEntity
  8
CDTC4
 62
   250
420
  2301728
370
    13
  0
POLYLINE
  5
D3
330
41
100
AcDbEntity
  8
CDTC4
 62
   250
420
  2301728
370
    13
100
AcDb2dPolyline
 66
     1
 10
0.0
 20
0.0
 30
0.0
  0
VERTEX
  5
D4
330
D3
100
AcDbEntity
  8
CDTC4
 62
   250
420
  2301728
370
    13
100
AcDbVertex
100
AcDb2dVertex
 10
5.490143381511871
 20
4.993498292215311
 30
0.0
  0
VERTEX
  5
D5
330
D3
100
AcDbEntity
  8
CDTC4
 62
   250
420
  2301728
370
    13
100
AcDbVertex
100
AcDb2dVertex
 10
5.594993201572404
 20
5.04115730133377
 30
0.0
  0
SEQEND
  5
D6
330
D3
100
AcDbEntity
  8
CDTC4
 62
   250
420
  2301728
370
    13
  0
POLYLINE
  5
D7
330
41
100
AcDbEntity
  8
CDTC4
 62
   250
420
  2301728
370
    25
100
AcDb2dPolyline
 66
     1
 10
0.0
 20
0.0
 30
0.0
  0
VERTEX
  5
D8
330
D7
100
AcDbEntity
  8
CDTC4
 62
   250
420
  2301728
370
    25
100
AcDbVertex
100
AcDb2dVertex
 10
3.824461012822705
 20
5.562222779827354
 30
0.0
  0
VERTEX
  5
D9
330
D7
100
AcDbEntity
  8
CDTC4
 62
   250
420
  2301728
370
    25
100
AcDbVertex
100
AcDb2dVertex
 10
5.145174023990017
 20
5.053128215934495
 30
0.0
  0
VERTEX
  5
DA
330
D7
100
AcDbEntity
  8
CDTC4
 62
   250
420
  2301728
370
    25
100
AcDbVertex
100
AcDb2dVertex
 10
5.322862056377643
 20
5.172954399993361
 30
0.0
  0
VERTEX
  5
DB
330
D7
100
AcDbEntity
  8
CDTC4
 62
   250
420
  2301728
370
    25
100
AcDbVertex
100
AcDb2dVertex
 10
5.325719800053295
 20
5.215112684616011
 30
0.0
  0
VERTEX
  5
DC
330
D7
100
AcDbEntity
  8
CDTC4
 62
   250
420
  2301728
370
    25
100
AcDbVertex
100
AcDb2dVertex
 10
5.487760431055928
 20
5.210346783704178
 30
0.0
  0
VERTEX
  5
DD
330
D7
100
AcDbEntity
  8
CDTC4
 62
   250
420
  2301728
370
    25
100
AcDbVertex
100
AcDb2dVertex
 10
5.49049689763582
 20
5.286014911288677
 30
0.0
  0
VERTEX
  5
DE
330
D7
100
AcDbEntity
  8
CDTC4
 62
   250
420
  2301728
370
    25
100
AcDbVertex
100
AcDb2dVertex
 10
5.602142052940179
 20
5.362855612883146
 30
0.0
  0
VERTEX
  5
DF
330
D7
100
AcDbEntity
  8
CDTC4
 62
   250
420
  2301728
370
    25
100
AcDbVertex
100
AcDb2dVertex
 10
5.600373787202443
 20
5.67138278974456
 30
0.0
  0
VERTEX
  5
E0
330
D7
100
AcDbEntity
  8
CDTC4
 62
   250
420
  2301728
370
    25
100
AcDbVertex
100
AcDb2dVertex
 10
4.634664167836036
 20
5.953827325951693
 30
0.0
  0
SEQEND
  5
E2
330
D7
100
AcDbEntity
  8
CDTC4
 62
   250
420
  2301728
370
    25
  0
HATCH
  5
E1
330
41
100
AcDbEntity
  8
CDTC4
 62
    43
420
 15510365
100
AcDbHatch
 10
0.0
 20
0.0
 30
0.0
210
0.0
220
0.0
230
1.0
  2
SOLID
 70
     1
 71
     0
 91
        1
 92
        1
 93
        9
 72
     1
 10
3.824461012822705
 20
5.562222779827354
 11
5.145174023990017
 21
5.053128215934495
 72
     1
 10
5.145174023990017
 20
5.053128215934495
 11
5.322862056377643
 21
5.172954399993361
 72
     1
 10
5.322862056377643
 20
5.172954399993361
 11
5.325719800053295
 21
5.215112684616011
 72
     1
 10
5.325719800053295
 20
5.215112684616011
 11
5.487760431055928
 21
5.210346783704178
 72
     1
 10
5.487760431055928
 20
5.210346783704178
 11
5.49049689763582
 21
5.286014911288677
 72
     1
 10
5.49049689763582
 20
5.286014911288677
 11
5.602142052940179
 21
5.362855612883145
 72
     1
 10
5.602142052940179
 20
5.362855612883146
 11
5.600373787202443
 21
5.67138278974456
 72
     1
 10
5.600373787202443
 20
5.67138278974456
 11
4.634664167836036
 21
5.953827325951693
 72
     1
 10
4.634664167836036
 20
5.953827325951693
 11
3.824461012822705
 21
5.562222779827355
 97
        0
 75
     2
 76
     1
 98
        0
  0
POLYLINE
  5
E3
330
41
100
AcDbEntity
  8
CDTC4
 62
   250
420
  2301728
370
    18
100
AcDb2dPolyline
 66
     1
 10
0.0
 20
0.0
 30
0.0
  0
VERTEX
  5
E4
330
E3
100
AcDbEntity
  8
CDTC4
 62
   250
420
  2301728
370
    18
100
AcDbVertex
100
AcDb2dVertex
 10
5.602142052940179
 20
5.670256221697021
 30
0.0
  0
VERTEX
  5
E5
330
E3
100
AcDbEntity
  8
CDTC4
 62
   250
420
  2301728
370
    18
100
AcDbVertex
100
AcDb2dVertex
 10
5.451457497892761
 20
5.575877950604624
 30
0.0
  0
VERTEX
  5
E6
330
E3
100
AcDbEntity
  8
CDTC4
 62
   250
420
  2301728
370
    18
100
AcDbVertex
100
AcDb2dVertex
 10
5.490143381511871
 20
5.527279194341745
 30
0.0
  0
VERTEX
  5
E7
330
E3
100
AcDbEntity
  8
CDTC4
 62
   250
420
  2301728
370
    18
100
AcDbVertex
100
AcDb2dVertex
 10
5.29712439458222
 20
5.539193946621354
 30
0.0
  0
VERTEX
  5
E8
330
E3
100
AcDbEntity
  8
CDTC4
 62
   250
420
  2301728
370
    18
100
AcDbVertex
100
AcDb2dVertex
 10
5.325356528851898
 20
5.496896489508597
 30
0.0
  0
VERTEX
  5
E9
330
E3
100
AcDbEntity
  8
CDTC4
 62
   250
420
  2301728
370
    18
100
AcDbVertex
100
AcDb2dVertex
 10
5.149381466315086
 20
5.386685117442387
 30
0.0
  0
VERTEX
  5
EA
330
E3
100
AcDbEntity
  8
CDTC4
 62
   250
420
  2301728
370
    18
100
AcDbVertex
100
AcDb2dVertex
 10
5.149381466315086
 20
5.053128215934495
 30
0.0
  0
SEQEND
  5
EB
330
E3
100
AcDbEntity
  8
CDTC4
 62
   250
420
  2301728
370
    18
  0
POLYLINE
  5
EC
330
41
100
AcDbEntity
  8
CDTC4
 62
   250
420
  2301728
370
    25
100
AcDb2dPolyline
 66
     1
 10
0.0
 20
0.0
 30
0.0
  0
VERTEX
  5
ED
330
EC
100
AcDbEntity
  8
CDTC4
 62
   250
420
  2301728
370
    25
100
AcDbVertex
100
AcDb2dVertex
 10
5.323336849597354
 20
5.498013616654134
 30
0.0
  0
VERTEX
  5
EE
330
EC
100
AcDbEntity
  8
CDTC4
 62
   250
420
  2301728
370
    25
100
AcDbVertex
100
AcDb2dVertex
 10
5.323336849597354
 20
5.168719420550082
 30
0.0
  0
SEQEND
  5
EF
330
EC
100
AcDbEntity
  8
CDTC4
 62
   250
420
  2301728
370
    25
  0
POLYLINE
  5
F0
330
41
100
AcDbEntity
  8
CDTC4
 62
   250
420
  2301728
370
    25
100
AcDb2dPolyline
 66
     1
 10
0.0
 20
0.0
 30
0.0
  0
VERTEX
  5
F1
330
F0
100
AcDbEntity
  8
CDTC4
 62
   250
420
  2301728
370
    25
100
AcDbVertex
100
AcDb2dVertex
 10
5.487760431055928
 20
5.533459527200433
 30
0.0
  0
VERTEX
  5
F2
330
F0
100
AcDbEntity
  8
CDTC4
 62
   250
420
  2301728
370
    25
100
AcDbVertex
100
AcDb2dVertex
 10
5.487760431055928
 20
5.204166284276551
 30
0.0
  0
SEQEND
  5
F3
330
F0
100
AcDbEntity
  8
CDTC4
 62
   250
420
  2301728
370
    25
  0
POLYLINE
  5
F4
330
41
100
AcDbEntity
  8
CDTC4
 62
   250
420
  2301728
370
    13
100
AcDb2dPolyline
 66
     1
 10
0.0
 20
0.0
 30
0.0
  0
VERTEX
  5
F5
330
F4
100
AcDbEntity
  8
CDTC4
 62
   250
420
  2301728
370
    13
100
AcDbVertex
100
AcDb2dVertex
 10
5.149381466315086
 20
5.343792009235787
 30
0.0
  0
VERTEX
  5
F6
330
F4
100
AcDbEntity
  8
CDTC4
 62
   250
420
  2301728
370
    13
100
AcDbVertex
100
AcDb2dVertex
 10
5.18274277269797
 20
5.377153315618695
 30
0.0
  0
VERTEX
  5
F7
330
F4
100
AcDbEntity
  8
CDTC4
 62
   250
420
  2301728
370
    13
100
AcDbVertex
100
AcDb2dVertex
 10
5.21848702953682
 20
5.405748721089745
 30
0.0
  0
VERTEX
  5
F8
330
F4
100
AcDbEntity
  8
CDTC4
 62
   250
420
  2301728
370
    13
100
AcDbVertex
100
AcDb2dVertex
 10
5.24708243500787
 20
5.415280522913437
 30
0.0
  0
VERTEX
  5
F9
330
F4
100
AcDbEntity
  8
CDTC4
 62
   250
420
  2301728
370
    13
100
AcDbVertex
100
AcDb2dVertex
 10
5.320953899141462
 20
5.460556581575954
 30
0.0
  0
SEQEND
  5
FA
330
F4
100
AcDbEntity
  8
CDTC4
 62
   250
420
  2301728
370
    13
  0
POLYLINE
  5
FB
330
41
100
AcDbEntity
  8
CDTC4
 62
   250
420
  2301728
370
    13
100
AcDb2dPolyline
 66
     1
 10
0.0
 20
0.0
 30
0.0
  0
VERTEX
  5
FC
330
FB
100
AcDbEntity
  8
CDTC4
 62
   250
420
  2301728
370
    13
100
AcDbVertex
100
AcDb2dVertex
 10
5.15414736722692
 20
5.29851595057327
 30
0.0
  0
VERTEX
  5
FD
330
FB
100
AcDbEntity
  8
CDTC4
 62
   250
420
  2301728
370
    13
100
AcDbVertex
100
AcDb2dVertex
 10
5.163679169050586
 20
5.303281851485129
 30
0.0
  0
VERTEX
  5
FE
330
FB
100
AcDbEntity
  8
CDTC4
 62
   250
420
  2301728
370
    13
100
AcDbVertex
100
AcDb2dVertex
 10
5.23278473227232
 20
5.35570676151537
 30
0.0
  0
VERTEX
  5
FF
330
FB
100
AcDbEntity
  8
CDTC4
 62
   250
420
  2301728
370
    13
100
AcDbVertex
100
AcDb2dVertex
 10
5.251848335919728
 20
5.358089711971312
 30
0.0
  0
VERTEX
  5
100
330
FB
100
AcDbEntity
  8
CDTC4
 62
   250
420
  2301728
370
    13
100
AcDbVertex
100
AcDb2dVertex
 10
5.320953899141462
 20
5.39145101835422
 30
0.0
  0
SEQEND
  5
101
330
FB
100
AcDbEntity
  8
CDTC4
 62
   250
420
  2301728
370
    13
  0
POLYLINE
  5
102
330
41
100
AcDbEntity
  8
CDTC4
 62
   250
420
  2301728
370
    13
100
AcDb2dPolyline
 66
     1
 10
0.0
 20
0.0
 30
0.0
  0
VERTEX
  5
103
330
102
100
AcDbEntity
  8
CDTC4
 62
   250
420
  2301728
370
    13
100
AcDbVertex
100
AcDb2dVertex
 10
5.151764416770978
 20
5.246091040543003
 30
0.0
  0
VERTEX
  5
104
330
102
100
AcDbEntity
  8
CDTC4
 62
   250
420
  2301728
370
    13
100
AcDbVertex
100
AcDb2dVertex
 10
5.201806376345378
 20
5.279452346925912
 30
0.0
  0
VERTEX
  5
105
330
102
100
AcDbEntity
  8
CDTC4
 62
   250
420
  2301728
370
    13
100
AcDbVertex
100
AcDb2dVertex
 10
5.323336849597354
 20
5.324728405588429
 30
0.0
  0
SEQEND
  5
106
330
102
100
AcDbEntity
  8
CDTC4
 62
   250
420
  2301728
370
    13
  0
POLYLINE
  5
107
330
41
100
AcDbEntity
  8
CDTC4
 62
   250
420
  2301728
370
    13
100
AcDb2dPolyline
 66
     1
 10
0.0
 20
0.0
 30
0.0
  0
VERTEX
  5
108
330
107
100
AcDbEntity
  8
CDTC4
 62
   250
420
  2301728
370
    13
100
AcDbVertex
100
AcDb2dVertex
 10
5.151764416770978
 20
5.193666130512737
 30
0.0
  0
VERTEX
  5
109
330
107
100
AcDbEntity
  8
CDTC4
 62
   250
420
  2301728
370
    13
100
AcDbVertex
100
AcDb2dVertex
 10
5.170828020418361
 20
5.205580882792345
 30
0.0
  0
VERTEX
  5
10A
330
107
100
AcDbEntity
  8
CDTC4
 62
   250
420
  2301728
370
    13
100
AcDbVertex
100
AcDb2dVertex
 10
5.320953899141462
 20
5.255622842366695
 30
0.0
  0
SEQEND
  5
10B
330
107
100
AcDbEntity
  8
CDTC4
 62
   250
420
  2301728
370
    13
  0
POLYLINE
  5
10C
330
41
100
AcDbEntity
  8
CDTC4
 62
   250
420
  2301728
370
    13
100
AcDb2dPolyline
 66
     1
 10
0.0
 20
0.0
 30
0.0
  0
VERTEX
  5
10D
330
10C
100
AcDbEntity
  8
CDTC4
 62
   250
420
  2301728
370
    13
100
AcDbVertex
100
AcDb2dVertex
 10
5.15414736722692
 20
5.143624170938361
 30
0.0
  0
VERTEX
  5
10E
330
10C
100
AcDbEntity
  8
CDTC4
 62
   250
420
  2301728
370
    13
100
AcDbVertex
100
AcDb2dVertex
 10
5.285209642302612
 20
5.184134328689045
 30
0.0
  0
VERTEX
  5
10F
330
10C
100
AcDbEntity
  8
CDTC4
 62
   250
420
  2301728
370
    13
100
AcDbVertex
100
AcDb2dVertex
 10
5.320953899141462
 20
5.19128318005682
 30
0.0
  0
SEQEND
  5
110
330
10C
100
AcDbEntity
  8
CDTC4
 62
   250
420
  2301728
370
    13
  0
POLYLINE
  5
111
330
41
100
AcDbEntity
  8
CDTC4
 62
   250
420
  2301728
370
    13
100
AcDb2dPolyline
 66
     1
 10
0.0
 20
0.0
 30
0.0
  0
VERTEX
  5
112
330
111
100
AcDbEntity
  8
CDTC4
 62
   250
420
  2301728
370
    13
100
AcDbVertex
100
AcDb2dVertex
 10
5.151764416770978
 20
5.100731062731787
 30
0.0
  0
VERTEX
  5
113
330
111
100
AcDbEntity
  8
CDTC4
 62
   250
420
  2301728
370
    13
100
AcDbVertex
100
AcDb2dVertex
 10
5.25423128637562
 20
5.129326468202836
 30
0.0
  0
SEQEND
  5
114
330
111
100
AcDbEntity
  8
CDTC4
 62
   250
420
  2301728
370
    13
  0
POLYLINE
  5
115
330
41
100
AcDbEntity
  8
CDTC4
 62
   250
420
  2301728
370
    13
100
AcDb2dPolyline
 66
     1
 10
0.0
 20
0.0
 30
0.0
  0
VERTEX
  5
116
330
115
100
AcDbEntity
  8
CDTC4
 62
   250
420
  2301728
370
    13
100
AcDbVertex
100
AcDb2dVertex
 10
5.325719800053295
 20
5.489151987047004
 30
0.0
  0
VERTEX
  5
117
330
115
100
AcDbEntity
  8
CDTC4
 62
   250
420
  2301728
370
    13
100
AcDbVertex
100
AcDb2dVertex
 10
5.487760431055928
 20
5.482003135679229
 30
0.0
  0
SEQEND
  5
118
330
115
100
AcDbEntity
  8
CDTC4
 62
   250
420
  2301728
370
    13
  0
POLYLINE
  5
119
330
41
100
AcDbEntity
  8
CDTC4
 62
   250
420
  2301728
370
    13
100
AcDb2dPolyline
 66
     1
 10
0.0
 20
0.0
 30
0.0
  0
VERTEX
  5
11A
330
119
100
AcDbEntity
  8
CDTC4
 62
   250
420
  2301728
370
    13
100
AcDbVertex
100
AcDb2dVertex
 10
5.325719800053295
 20
5.427195275193045
 30
0.0
  0
VERTEX
  5
11B
330
119
100
AcDbEntity
  8
CDTC4
 62
   250
420
  2301728
370
    13
100
AcDbVertex
100
AcDb2dVertex
 10
5.452016174217129
 20
5.410514622001604
 30
0.0
  0
VERTEX
  5
11C
330
119
100
AcDbEntity
  8
CDTC4
 62
   250
420
  2301728
370
    13
100
AcDbVertex
100
AcDb2dVertex
 10
5.482994530144095
 20
5.415280522913437
 30
0.0
  0
SEQEND
  5
11D
330
119
100
AcDbEntity
  8
CDTC4
 62
   250
420
  2301728
370
    13
  0
POLYLINE
  5
11E
330
41
100
AcDbEntity
  8
CDTC4
 62
   250
420
  2301728
370
    13
100
AcDb2dPolyline
 66
     1
 10
0.0
 20
0.0
 30
0.0
  0
VERTEX
  5
11F
330
11E
100
AcDbEntity
  8
CDTC4
 62
   250
420
  2301728
370
    13
100
AcDbVertex
100
AcDb2dVertex
 10
5.325719800053295
 20
5.350940860603537
 30
0.0
  0
VERTEX
  5
120
330
11E
100
AcDbEntity
  8
CDTC4
 62
   250
420
  2301728
370
    13
100
AcDbVertex
100
AcDb2dVertex
 10
5.482994530144095
 20
5.322345455132487
 30
0.0
  0
SEQEND
  5
121
330
11E
100
AcDbEntity
  8
CDTC4
 62
   250
420
  2301728
370
    13
  0
POLYLINE
  5
122
330
41
100
AcDbEntity
  8
CDTC4
 62
   250
420
  2301728
370
    13
100
AcDb2dPolyline
 66
     1
 10
0.0
 20
0.0
 30
0.0
  0
VERTEX
  5
123
330
122
100
AcDbEntity
  8
CDTC4
 62
   250
420
  2301728
370
    13
100
AcDbVertex
100
AcDb2dVertex
 10
5.325719800053295
 20
5.27706939646997
 30
0.0
  0
VERTEX
  5
124
330
122
100
AcDbEntity
  8
CDTC4
 62
   250
420
  2301728
370
    13
100
AcDbVertex
100
AcDb2dVertex
 10
5.487760431055928
 20
5.267537594646304
 30
0.0
  0
SEQEND
  5
125
330
122
100
AcDbEntity
  8
CDTC4
 62
   250
420
  2301728
370
    13
  0
POLYLINE
  5
126
330
41
100
AcDbEntity
  8
CDTC4
 62
   250
420
  2301728
370
    13
100
AcDb2dPolyline
 66
     1
 10
0.0
 20
0.0
 30
0.0
  0
VERTEX
  5
127
330
126
100
AcDbEntity
  8
CDTC4
 62
   250
420
  2301728
370
    13
100
AcDbVertex
100
AcDb2dVertex
 10
5.328102750509187
 20
5.234176288263395
 30
0.0
  0
VERTEX
  5
128
330
126
100
AcDbEntity
  8
CDTC4
 62
   250
420
  2301728
370
    13
100
AcDbVertex
100
AcDb2dVertex
 10
5.487760431055928
 20
5.236559238719312
 30
0.0
  0
SEQEND
  5
129
330
126
100
AcDbEntity
  8
CDTC4
 62
   250
420
  2301728
370
    13
  0
POLYLINE
  5
12A
330
41
100
AcDbEntity
  8
CDTC4
 62
   250
420
  2301728
370
    13
100
AcDb2dPolyline
 66
     1
 10
0.0
 20
0.0
 30
0.0
  0
VERTEX
  5
12B
330
12A
100
AcDbEntity
  8
CDTC4
 62
   250
420
  2301728
370
    13
100
AcDbVertex
100
AcDb2dVertex
 10
5.471079777864487
 20
5.555874599812796
 30
0.0
  0
VERTEX
  5
12C
330
12A
100
AcDbEntity
  8
CDTC4
 62
   250
420
  2301728
370
    13
100
AcDbVertex
100
AcDb2dVertex
 10
5.602142052940179
 20
5.622597212578612
 30
0.0
  0
SEQEND
  5
12D
330
12A
100
AcDbEntity
  8
CDTC4
 62
   250
420
  2301728
370
    13
  0
POLYLINE
  5
12E
330
41
100
AcDbEntity
  8
CDTC4
 62
   250
420
  2301728
370
    13
100
AcDb2dPolyline
 66
     1
 10
0.0
 20
0.0
 30
0.0
  0
VERTEX
  5
12F
330
12E
100
AcDbEntity
  8
CDTC4
 62
   250
420
  2301728
370
    13
100
AcDbVertex
100
AcDb2dVertex
 10
5.540185341086221
 20
5.634511964858221
 30
0.0
  0
VERTEX
  5
130
330
12E
100
AcDbEntity
  8
CDTC4
 62
   250
420
  2301728
370
    13
100
AcDbVertex
100
AcDb2dVertex
 10
5.60452500339612
 20
5.660724419873355
 30
0.0
  0
SEQEND
  5
131
330
12E
100
AcDbEntity
  8
CDTC4
 62
   250
420
  2301728
370
    13
  0
POLYLINE
  5
132
330
41
100
AcDbEntity
  8
CDTC4
 62
   250
420
  2301728
370
    13
100
AcDb2dPolyline
 66
     1
 10
0.0
 20
0.0
 30
0.0
  0
VERTEX
  5
133
330
132
100
AcDbEntity
  8
CDTC4
 62
   250
420
  2301728
370
    13
100
AcDbVertex
100
AcDb2dVertex
 10
5.485377480600037
 20
5.496300838414767
 30
0.0
  0
VERTEX
  5
134
330
132
100
AcDbEntity
  8
CDTC4
 62
   250
420
  2301728
370
    13
100
AcDbVertex
100
AcDb2dVertex
 10
5.60452500339612
 20
5.548725748445033
 30
0.0
  0
SEQEND
  5
135
330
132
100
AcDbEntity
  8
CDTC4
 62
   250
420
  2301728
370
    13
  0
POLYLINE
  5
136
330
41
100
AcDbEntity
  8
CDTC4
 62
   250
420
  2301728
370
    13
100
AcDb2dPolyline
 66
     1
 10
0.0
 20
0.0
 30
0.0
  0
VERTEX
  5
137
330
136
100
AcDbEntity
  8
CDTC4
 62
   250
420
  2301728
370
    13
100
AcDbVertex
100
AcDb2dVertex
 10
5.487760431055928
 20
5.431961176104878
 30
0.0
  0
VERTEX
  5
138
330
136
100
AcDbEntity
  8
CDTC4
 62
   250
420
  2301728
370
    13
100
AcDbVertex
100
AcDb2dVertex
 10
5.602142052940179
 20
5.479620185223312
 30
0.0
  0
SEQEND
  5
139
330
136
100
AcDbEntity
  8
CDTC4
 62
   250
420
  2301728
370
    13
  0
POLYLINE
  5
13A
330
41
100
AcDbEntity
  8
CDTC4
 62
   250
420
  2301728
370
    13
100
AcDb2dPolyline
 66
     1
 10
0.0
 20
0.0
 30
0.0
  0
VERTEX
  5
13B
330
13A
100
AcDbEntity
  8
CDTC4
 62
   250
420
  2301728
370
    13
100
AcDbVertex
100
AcDb2dVertex
 10
5.490143381511871
 20
5.360472662427228
 30
0.0
  0
VERTEX
  5
13C
330
13A
100
AcDbEntity
  8
CDTC4
 62
   250
420
  2301728
370
    13
100
AcDbVertex
100
AcDb2dVertex
 10
5.606907953852012
 20
5.417663473369354
 30
0.0
  0
SEQEND
  5
13D
330
13A
100
AcDbEntity
  8
CDTC4
 62
   250
420
  2301728
370
    13
  0
POLYLINE
  5
13E
330
41
100
AcDbEntity
  8
CDTC4
 62
   250
420
  2301728
370
    13
100
AcDb2dPolyline
 66
     1
 10
0.0
 20
0.0
 30
0.0
  0
VERTEX
  5
13F
330
13E
100
AcDbEntity
  8
CDTC4
 62
   250
420
  2301728
370
    13
100
AcDbVertex
100
AcDb2dVertex
 10
5.490143381511871
 20
5.312813653308821
 30
0.0
  0
VERTEX
  5
140
330
13E
100
AcDbEntity
  8
CDTC4
 62
   250
420
  2301728
370
    13
100
AcDbVertex
100
AcDb2dVertex
 10
5.594993201572404
 20
5.360472662427228
 30
0.0
  0
SEQEND
  5
141
330
13E
100
AcDbEntity
  8
CDTC4
 62
   250
420
  2301728
370
    13
  0
POLYLINE
  5
142
330
41
100
AcDbEntity
  8
CDTC4
 62
   250
420
  2301728
370
    18
100
AcDb2dPolyline
 66
     1
 10
0.0
 20
0.0
 30
0.0
  0
VERTEX
  5
143
330
142
100
AcDbEntity
  8
CDTC4
 62
   250
420
  2301728
370
    18
100
AcDbVertex
100
AcDb2dVertex
 10
5.149381466315086
 20
5.386685117442387
 30
0.0
  0
VERTEX
  5
144
330
142
100
AcDbEntity
  8
CDTC4
 62
   250
420
  2301728
370
    18
100
AcDbVertex
100
AcDb2dVertex
 10
4.173954058489963
 20
5.721098852624587
 30
0.0
  0
SEQEND
  5
145
330
142
100
AcDbEntity
  8
CDTC4
 62
   250
420
  2301728
370
    18
  0
ENDBLK
  5
44
330
41
100
AcDbEntity
  8
0
100
AcDbBlockEnd
  0
BLOCK
  5
433
330
431
100
AcDbEntity
  8
0
100
AcDbBlockBegin
  2
block 3
 70
     0
 10
0.0
 20
0.0
 30
0.0
  3
block 3
  1

  0
POLYLINE
  5
435
330
431
100
AcDbEntity
  8
CDTC4
 62
   250
420
  2301728
370
    25
100
AcDb2dPolyline
 66
     1
 10
0.0
 20
0.0
 30
0.0
  0
VERTEX
  5
436
330
435
100
AcDbEntity
  8
CDTC4
 62
   250
420
  2301728
370
    25
100
AcDbVertex
100
AcDb2dVertex
 10
4.772875294279452
 20
5.90383674130688
 30
0.0
  0
VERTEX
  5
437
330
435
100
AcDbEntity
  8
CDTC4
 62
   250
420
  2301728
370
    25
100
AcDbVertex
100
AcDb2dVertex
 10
4.80171271119333
 20
5.916589338644636
 30
0.0
  0
SEQEND
  5
438
330
435
100
AcDbEntity
  8
CDTC4
 62
   250
420
  2301728
370
    25
  0
POLYLINE
  5
439
330
431
100
AcDbEntity
  8
CDTC4
 62
   250
420
  2301728
370
    25
100
AcDb2dPolyline
 66
     1
 10
0.0
 20
0.0
 30
0.0
  0
VERTEX
  5
43A
330
439
100
AcDbEntity
  8
CDTC4
 62
   250
420
  2301728
370
    25
100
AcDbVertex
100
AcDb2dVertex
 10
4.671599899902831
 20
5.863275208626684
 30
0.0
  0
VERTEX
  5
43B
330
439
100
AcDbEntity
  8
CDTC4
 62
   250
420
  2301728
370
    25
100
AcDbVertex
100
AcDb2dVertex
 10
4.703769731057719
 20
5.879955861818138
 30
0.0
  0
SEQEND
  5
43C
330
439
100
AcDbEntity
  8
CDTC4
 62
   250
420
  2301728
370
    25
  0
SPLINE
  5
43D
330
431
100
AcDbEntity
  8
CDTC4
 62
   250
420
  2301728
370
    25
100
AcDbSpline
210
0.0
220
0.0
230
1.0
 70
    11
 71
     3
 72
    68
 73
    64
 74
     0
 42
0.0000000001
 43
0.0000000001
 12
1.0
 22
0.0
 32
0.0
 13
1.0
 23
0.0
 33
0.0
 40
0.0
 40
0.0
 40
0.0
 40
0.0
 40
1.0
 40
1.0
 40
1.0
 40
2.0
 40
2.0
 40
2.0
 40
3.0
 40
3.0
 40
3.0
 40
4.0
 40
4.0
 40
4.0
 40
5.0
 40
5.0
 40
5.0
 40
6.0
 40
6.0
 40
6.0
 40
7.0
 40
7.0
 40
7.0
 40
8.0
 40
8.0
 40
8.0
 40
9.0
 40
9.0
 40
9.0
 40
10.0
 40
10.0
 40
10.0
 40
11.0
 40
11.0
 40
11.0
 40
12.0
 40
12.0
 40
12.0
 40
13.0
 40
13.0
 40
13.0
 40
14.0
 40
14.0
 40
14.0
 40
15.0
 40
15.0
 40
15.0
 40
16.0
 40
16.0
 40
16.0
 40
17.0
 40
17.0
 40
17.0
 40
18.0
 40
18.0
 40
18.0
 40
19.0
 40
19.0
 40
19.0
 40
20.0
 40
20.0
 40
20.0
 40
21.0
 40
21.0
 40
21.0
 40
21.0
 10
4.943051218244591
 20
6.422477426216877
 30
0.0
 10
4.943051218244591
 20
6.422477426216877
 30
0.0
 10
5.192423164436402
 20
5.91520627423496
 30
0.0
 10
5.192423164436402
 20
5.91520627423496
 30
0.0
 10
5.192423164436402
 20
5.91520627423496
 30
0.0
 10
5.192423164436402
 20
5.800117489742939
 30
0.0
 10
5.192423164436402
 20
5.800117489742939
 30
0.0
 10
5.192423164436402
 20
5.800117489742939
 30
0.0
 10
5.230783053889379
 20
5.789459888212958
 30
0.0
 10
5.230783053889379
 20
5.789459888212958
 30
0.0
 10
5.230783053889379
 20
5.789459888212958
 30
0.0
 10
5.237177832408557
 20
5.748958310107102
 30
0.0
 10
5.237177832408557
 20
5.748958310107102
 30
0.0
 10
5.237177832408557
 20
5.748958310107102
 30
0.0
 10
5.237177832408557
 20
5.73190591707531
 30
0.0
 10
5.237177832408557
 20
5.73190591707531
 30
0.0
 10
5.237177832408557
 20
5.73190591707531
 30
0.0
 10
4.881243204060511
 20
5.537955678007089
 30
0.0
 10
4.881243204060511
 20
5.537955678007089
 30
0.0
 10
4.881243204060511
 20
5.537955678007089
 30
0.0
 10
4.761891703720468
 20
5.527298257945416
 30
0.0
 10
4.761891703720468
 20
5.527298257945416
 30
0.0
 10
4.761891703720468
 20
5.527298257945416
 30
0.0
 10
4.697942846900863
 20
5.550745449371005
 30
0.0
 10
4.697942846900863
 20
5.550745449371005
 30
0.0
 10
4.697942846900863
 20
5.550745449371005
 30
0.0
 10
4.697942846900863
 20
5.352523139706262
 30
0.0
 10
4.697942846900863
 20
5.352523139706262
 30
0.0
 10
4.697942846900863
 20
5.352523139706262
 30
0.0
 10
4.625476372186768
 20
5.301373503179193
 30
0.0
 10
4.625476372186768
 20
5.301373503179193
 30
0.0
 10
4.625476372186768
 20
5.301373503179193
 30
0.0
 10
4.463492070686268
 20
5.361049253349216
 30
0.0
 10
4.463492070686268
 20
5.361049253349216
 30
0.0
 10
4.463492070686268
 20
5.361049253349216
 30
0.0
 10
4.42939482228457
 20
5.424989531547427
 30
0.0
 10
4.42939482228457
 20
5.424989531547427
 30
0.0
 10
4.42939482228457
 20
5.424989531547427
 30
0.0
 10
4.427263511450645
 20
5.64665920279885
 30
0.0
 10
4.427263511450645
 20
5.64665920279885
 30
0.0
 10
4.408088386206347
 20
5.653054088480821
 30
0.0
 10
4.405947543570821
 20
5.672229304674539
 30
0.0
 10
4.405947543570821
 20
5.672229304674539
 30
0.0
 10
4.405947543570821
 20
5.672229304674539
 30
0.0
 10
4.405947543570821
 20
6.260492927034774
 30
0.0
 10
4.405947543570821
 20
6.260492927034774
 30
0.0
 10
4.405947543570821
 20
6.271145668483806
 30
0.0
 10
4.412342429252779
 20
6.290335091430507
 30
0.0
 10
4.412342429252779
 20
6.290335091430507
 30
0.0
 10
4.412342429252779
 20
6.290335091430507
 30
0.0
 10
4.46988686858885
 20
6.388376342971658
 30
0.0
 10
4.46988686858885
 20
6.388376342971658
 30
0.0
 10
4.46988686858885
 20
6.388376342971658
 30
0.0
 10
4.853532350498704
 20
6.51625975890853
 30
0.0
 10
4.853532350498704
 20
6.51625975890853
 30
0.0
 10
4.853532350498704
 20
6.51625975890853
 30
0.0
 10
4.876980582392636
 20
6.509864985336435
 30
0.0
 10
4.876980582392636
 20
6.509864985336435
 30
0.0
 10
4.876980582392636
 20
6.509864985336435
 30
0.0
 10
4.923876093000318
 20
6.439530662526559
 30
0.0
 10
4.923876093000318
 20
6.439530662526559
 30
0.0
 10
4.936675396165811
 20
6.433135776844589
 30
0.0
 10
4.943051218244591
 20
6.422477426216877
 30
0.0
 10
4.943051218244591
 20
6.422477426216877
 30
0.0
  0
SPLINE
  5
43E
330
431
100
AcDbEntity
  8
CDTC4
 62
   250
420
  2301728
370
    25
100
AcDbSpline
210
0.0
220
0.0
230
1.0
 70
    11
 71
     3
 72
    20
 73
    16
 74
     0
 42
0.0000000001
 43
0.0000000001
 12
1.0
 22
0.0
 32
0.0
 13
1.0
 23
0.0
 33
0.0
 40
0.0
 40
0.0
 40
0.0
 40
0.0
 40
1.0
 40
1.0
 40
1.0
 40
2.0
 40
2.0
 40
2.0
 40
3.0
 40
3.0
 40
3.0
 40
4.0
 40
4.0
 40
4.0
 40
5.0
 40
5.0
 40
5.0
 40
5.0
 10
4.588196633945548
 20
6.087272551483301
 30
0.0
 10
4.588196633945548
 20
6.087272551483301
 30
0.0
 10
4.589388109173544
 20
6.314979564423058
 30
0.0
 10
4.589388109173544
 20
6.314979564423058
 30
0.0
 10
4.589388109173544
 20
6.314979564423058
 30
0.0
 10
4.58499481086417
 20
6.325273910132586
 30
0.0
 10
4.575928161198564
 20
6.317133751580791
 30
0.0
 10
4.575928161198564
 20
6.317133751580791
 30
0.0
 10
4.570324505526135
 20
6.305754686851135
 30
0.0
 10
4.570324505526135
 20
6.291456984476794
 30
0.0
 10
4.570324505526135
 20
6.277159282102452
 30
0.0
 10
4.570324505526135
 20
6.057090000336782
 30
0.0
 10
4.570324505526135
 20
6.057090000336782
 30
0.0
 10
4.570324505526135
 20
6.057090000336782
 30
0.0
 10
4.573517659137097
 20
6.08566252876167
 30
0.0
 10
4.588196633945548
 20
6.087272551483301
 30
0.0
  0
SPLINE
  5
43F
330
431
100
AcDbEntity
  8
CDTC4
 62
   250
420
  2301728
370
    25
100
AcDbSpline
210
0.0
220
0.0
230
1.0
 70
    11
 71
     3
 72
    17
 73
    13
 74
     0
 42
0.0000000001
 43
0.0000000001
 12
1.0
 22
0.0
 32
0.0
 13
1.0
 23
0.0
 33
0.0
 40
0.0
 40
0.0
 40
0.0
 40
0.0
 40
1.0
 40
1.0
 40
1.0
 40
2.0
 40
2.0
 40
2.0
 40
3.0
 40
3.0
 40
3.0
 40
4.0
 40
4.0
 40
4.0
 40
4.0
 10
4.570324505526135
 20
6.058281475534651
 30
0.0
 10
4.570324505526135
 20
6.058281475534651
 30
0.0
 10
4.570324505526135
 20
5.965346410101447
 30
0.0
 10
4.570324505526135
 20
5.965346410101447
 30
0.0
 10
4.570324505526135
 20
5.965346410101447
 30
0.0
 10
4.588196633945548
 20
5.923644778176291
 30
0.0
 10
4.588196633945548
 20
5.923644778176291
 30
0.0
 10
4.588196633945548
 20
5.923644778176291
 30
0.0
 10
4.588196633945548
 20
6.038026397171001
 30
0.0
 10
4.588196633945548
 20
6.038026397171001
 30
0.0
 10
4.588196633945548
 20
6.038026397171001
 30
0.0
 10
4.571115645077523
 20
6.049941149149618
 30
0.0
 10
4.570324505526135
 20
6.058281475534651
 30
0.0
  0
SPLINE
  5
440
330
431
100
AcDbEntity
  8
CDTC4
 62
   250
420
  2301728
370
    25
100
AcDbSpline
210
0.0
220
0.0
230
1.0
 70
    11
 71
     3
 72
    20
 73
    16
 74
     0
 42
0.0000000001
 43
0.0000000001
 12
1.0
 22
0.0
 32
0.0
 13
1.0
 23
0.0
 33
0.0
 40
0.0
 40
0.0
 40
0.0
 40
0.0
 40
1.0
 40
1.0
 40
1.0
 40
2.0
 40
2.0
 40
2.0
 40
3.0
 40
3.0
 40
3.0
 40
4.0
 40
4.0
 40
4.0
 40
5.0
 40
5.0
 40
5.0
 40
5.0
 10
4.690663503550164
 20
6.121825333094168
 30
0.0
 10
4.690663503550164
 20
6.121825333094168
 30
0.0
 10
4.691854978778161
 20
6.351090794719842
 30
0.0
 10
4.691854978778161
 20
6.351090794719842
 30
0.0
 10
4.691854978778161
 20
6.351090794719842
 30
0.0
 10
4.691464174903381
 20
6.36240980909953
 30
0.0
 10
4.680414816970066
 20
6.354590872261079
 30
0.0
 10
4.680414816970066
 20
6.354590872261079
 30
0.0
 10
4.673209728153552
 20
6.34868496800032
 30
0.0
 10
4.673135380101207
 20
6.328723469125432
 30
0.0
 10
4.673080095652014
 20
6.314425766751103
 30
0.0
 10
4.672791375130777
 20
6.091642781074774
 30
0.0
 10
4.672791375130777
 20
6.091642781074774
 30
0.0
 10
4.672791375130777
 20
6.091642781074774
 30
0.0
 10
4.675984528741688
 20
6.120215309499662
 30
0.0
 10
4.690663503550164
 20
6.121825333094168
 30
0.0
  0
SPLINE
  5
441
330
431
100
AcDbEntity
  8
CDTC4
 62
   250
420
  2301728
370
    25
100
AcDbSpline
210
0.0
220
0.0
230
1.0
 70
    11
 71
     3
 72
    17
 73
    13
 74
     0
 42
0.0000000001
 43
0.0000000001
 12
1.0
 22
0.0
 32
0.0
 13
1.0
 23
0.0
 33
0.0
 40
0.0
 40
0.0
 40
0.0
 40
0.0
 40
1.0
 40
1.0
 40
1.0
 40
2.0
 40
2.0
 40
2.0
 40
3.0
 40
3.0
 40
3.0
 40
4.0
 40
4.0
 40
4.0
 40
4.0
 10
4.672791375130777
 20
6.092834256272631
 30
0.0
 10
4.672791375130777
 20
6.092834256272631
 30
0.0
 10
4.672791375130777
 20
5.855805039950547
 30
0.0
 10
4.672791375130777
 20
5.855805039950547
 30
0.0
 10
4.672791375130777
 20
5.855805039950547
 30
0.0
 10
4.685897602638331
 20
5.845403080207297
 30
0.0
 10
4.690663503550164
 20
5.862135109381736
 30
0.0
 10
4.690663503550164
 20
5.862135109381736
 30
0.0
 10
4.690663503550164
 20
6.072579177909006
 30
0.0
 10
4.690663503550164
 20
6.072579177909006
 30
0.0
 10
4.690663503550164
 20
6.072579177909006
 30
0.0
 10
4.673582514682165
 20
6.084493929887609
 30
0.0
 10
4.672791375130777
 20
6.092834256272631
 30
0.0
  0
SPLINE
  5
442
330
431
100
AcDbEntity
  8
CDTC4
 62
   250
420
  2301728
370
    25
100
AcDbSpline
210
0.0
220
0.0
230
1.0
 70
    11
 71
     3
 72
    20
 73
    16
 74
     0
 42
0.0000000001
 43
0.0000000001
 12
1.0
 22
0.0
 32
0.0
 13
1.0
 23
0.0
 33
0.0
 40
0.0
 40
0.0
 40
0.0
 40
0.0
 40
1.0
 40
1.0
 40
1.0
 40
2.0
 40
2.0
 40
2.0
 40
3.0
 40
3.0
 40
3.0
 40
4.0
 40
4.0
 40
4.0
 40
5.0
 40
5.0
 40
5.0
 40
5.0
 10
4.791938897926861
 20
6.165909916528727
 30
0.0
 10
4.791938897926861
 20
6.165909916528727
 30
0.0
 10
4.793130373154806
 20
6.395175377040724
 30
0.0
 10
4.793130373154806
 20
6.395175377040724
 30
0.0
 10
4.793130373154806
 20
6.395175377040724
 30
0.0
 10
4.792739569280027
 20
6.406494391420412
 30
0.0
 10
4.781690208788303
 20
6.398675454581962
 30
0.0
 10
4.781690208788303
 20
6.398675454581962
 30
0.0
 10
4.774485119971788
 20
6.392769550321203
 30
0.0
 10
4.774410771919444
 20
6.372808051446301
 30
0.0
 10
4.774355487470252
 20
6.35851034907196
 30
0.0
 10
4.774066769507448
 20
6.135727363395656
 30
0.0
 10
4.774066769507448
 20
6.135727363395656
 30
0.0
 10
4.774066769507448
 20
6.135727363395656
 30
0.0
 10
4.777259923118359
 20
6.164299891820532
 30
0.0
 10
4.791938897926861
 20
6.165909916528727
 30
0.0
  0
SPLINE
  5
443
330
431
100
AcDbEntity
  8
CDTC4
 62
   250
420
  2301728
370
    25
100
AcDbSpline
210
0.0
220
0.0
230
1.0
 70
    11
 71
     3
 72
    17
 73
    13
 74
     0
 42
0.0000000001
 43
0.0000000001
 12
1.0
 22
0.0
 32
0.0
 13
1.0
 23
0.0
 33
0.0
 40
0.0
 40
0.0
 40
0.0
 40
0.0
 40
1.0
 40
1.0
 40
1.0
 40
2.0
 40
2.0
 40
2.0
 40
3.0
 40
3.0
 40
3.0
 40
4.0
 40
4.0
 40
4.0
 40
4.0
 10
4.774066769507448
 20
6.136918838593513
 30
0.0
 10
4.774066769507448
 20
6.136918838593513
 30
0.0
 10
4.774066769507448
 20
5.899889622271403
 30
0.0
 10
4.774066769507448
 20
5.899889622271403
 30
0.0
 10
4.774066769507448
 20
5.899889622271403
 30
0.0
 10
4.787172997015028
 20
5.889487663641817
 30
0.0
 10
4.791938897926861
 20
5.906219691702606
 30
0.0
 10
4.791938897926861
 20
5.906219691702606
 30
0.0
 10
4.791938897926861
 20
6.116663760229863
 30
0.0
 10
4.791938897926861
 20
6.116663760229863
 30
0.0
 10
4.791938897926861
 20
6.116663760229863
 30
0.0
 10
4.774857909058785
 20
6.128578512208492
 30
0.0
 10
4.774066769507448
 20
6.136918838593513
 30
0.0
  0
HATCH
  5
444
330
431
100
AcDbEntity
  8
CDTC4
 62
   254
420
 13358815
100
AcDbHatch
 10
0.0
 20
0.0
 30
0.0
210
0.0
220
0.0
230
1.0
  2
SOLID
 70
     1
 71
     0
 91
        7
 92
        1
 93
        1
 72
     4
 94
        3
 73
     0
 74
     1
 95
       68
 96
       64
 40
0.0
 40
0.0
 40
0.0
 40
0.0
 40
1.0
 40
1.0
 40
1.0
 40
2.0
 40
2.0
 40
2.0
 40
3.0
 40
3.0
 40
3.0
 40
4.0
 40
4.0
 40
4.0
 40
5.0
 40
5.0
 40
5.0
 40
6.0
 40
6.0
 40
6.0
 40
7.0
 40
7.0
 40
7.0
 40
8.0
 40
8.0
 40
8.0
 40
9.0
 40
9.0
 40
9.0
 40
10.0
 40
10.0
 40
10.0
 40
11.0
 40
11.0
 40
11.0
 40
12.0
 40
12.0
 40
12.0
 40
13.0
 40
13.0
 40
13.0
 40
14.0
 40
14.0
 40
14.0
 40
15.0
 40
15.0
 40
15.0
 40
16.0
 40
16.0
 40
16.0
 40
17.0
 40
17.0
 40
17.0
 40
18.0
 40
18.0
 40
18.0
 40
19.0
 40
19.0
 40
19.0
 40
20.0
 40
20.0
 40
20.0
 40
21.0
 40
21.0
 40
21.0
 40
21.0
 10
4.943051218244591
 20
6.422477426216877
 10
4.943051218244591
 20
6.422477426216877
 10
5.192423164436402
 20
5.91520627423496
 10
5.192423164436402
 20
5.91520627423496
 10
5.192423164436402
 20
5.91520627423496
 10
5.192423164436402
 20
5.800117489742939
 10
5.192423164436402
 20
5.800117489742939
 10
5.192423164436402
 20
5.800117489742939
 10
5.230783053889379
 20
5.789459888212958
 10
5.230783053889379
 20
5.789459888212958
 10
5.230783053889379
 20
5.789459888212958
 10
5.237177832408557
 20
5.748958310107102
 10
5.237177832408557
 20
5.748958310107102
 10
5.237177832408557
 20
5.748958310107102
 10
5.237177832408557
 20
5.73190591707531
 10
5.237177832408557
 20
5.73190591707531
 10
5.237177832408557
 20
5.73190591707531
 10
4.881243204060511
 20
5.537955678007089
 10
4.881243204060511
 20
5.537955678007089
 10
4.881243204060511
 20
5.537955678007089
 10
4.761891703720468
 20
5.527298257945416
 10
4.761891703720468
 20
5.527298257945416
 10
4.761891703720468
 20
5.527298257945416
 10
4.697942846900863
 20
5.550745449371005
 10
4.697942846900863
 20
5.550745449371005
 10
4.697942846900863
 20
5.550745449371005
 10
4.697942846900863
 20
5.352523139706262
 10
4.697942846900863
 20
5.352523139706262
 10
4.697942846900863
 20
5.352523139706262
 10
4.625476372186768
 20
5.301373503179193
 10
4.625476372186768
 20
5.301373503179193
 10
4.625476372186768
 20
5.301373503179193
 10
4.463492070686268
 20
5.361049253349216
 10
4.463492070686268
 20
5.361049253349216
 10
4.463492070686268
 20
5.361049253349216
 10
4.42939482228457
 20
5.424989531547427
 10
4.42939482228457
 20
5.424989531547427
 10
4.42939482228457
 20
5.424989531547427
 10
4.427263511450645
 20
5.64665920279885
 10
4.427263511450645
 20
5.64665920279885
 10
4.408088386206347
 20
5.653054088480821
 10
4.405947543570821
 20
5.672229304674539
 10
4.405947543570821
 20
5.672229304674539
 10
4.405947543570821
 20
5.672229304674539
 10
4.405947543570821
 20
6.260492927034774
 10
4.405947543570821
 20
6.260492927034774
 10
4.405947543570821
 20
6.271145668483806
 10
4.412342429252779
 20
6.290335091430507
 10
4.412342429252779
 20
6.290335091430507
 10
4.412342429252779
 20
6.290335091430507
 10
4.46988686858885
 20
6.388376342971658
 10
4.46988686858885
 20
6.388376342971658
 10
4.46988686858885
 20
6.388376342971658
 10
4.853532350498704
 20
6.51625975890853
 10
4.853532350498704
 20
6.51625975890853
 10
4.853532350498704
 20
6.51625975890853
 10
4.876980582392636
 20
6.509864985336435
 10
4.876980582392636
 20
6.509864985336435
 10
4.876980582392636
 20
6.509864985336435
 10
4.923876093000318
 20
6.439530662526559
 10
4.923876093000318
 20
6.439530662526559
 10
4.936675396165811
 20
6.433135776844589
 10
4.943051218244591
 20
6.422477426216877
 10
4.943051218244591
 20
6.422477426216877
 97
        0
 97
        0
 92
        1
 93
        1
 72
     4
 94
        3
 73
     0
 74
     1
 95
       20
 96
       16
 40
0.0
 40
0.0
 40
0.0
 40
0.0
 40
1.0
 40
1.0
 40
1.0
 40
2.0
 40
2.0
 40
2.0
 40
3.0
 40
3.0
 40
3.0
 40
4.0
 40
4.0
 40
4.0
 40
5.0
 40
5.0
 40
5.0
 40
5.0
 10
4.588196633945548
 20
6.087272551483301
 10
4.588196633945548
 20
6.087272551483301
 10
4.589388109173544
 20
6.314979564423058
 10
4.589388109173544
 20
6.314979564423058
 10
4.589388109173544
 20
6.314979564423058
 10
4.58499481086417
 20
6.325273910132586
 10
4.575928161198564
 20
6.317133751580791
 10
4.575928161198564
 20
6.317133751580791
 10
4.570324505526135
 20
6.305754686851135
 10
4.570324505526135
 20
6.291456984476794
 10
4.570324505526135
 20
6.277159282102452
 10
4.570324505526135
 20
6.057090000336782
 10
4.570324505526135
 20
6.057090000336782
 10
4.570324505526135
 20
6.057090000336782
 10
4.573517659137097
 20
6.08566252876167
 10
4.588196633945548
 20
6.087272551483301
 97
        0
 97
        0
 92
        1
 93
        1
 72
     4
 94
        3
 73
     0
 74
     1
 95
       17
 96
       13
 40
0.0
 40
0.0
 40
0.0
 40
0.0
 40
1.0
 40
1.0
 40
1.0
 40
2.0
 40
2.0
 40
2.0
 40
3.0
 40
3.0
 40
3.0
 40
4.0
 40
4.0
 40
4.0
 40
4.0
 10
4.570324505526135
 20
6.058281475534651
 10
4.570324505526135
 20
6.058281475534651
 10
4.570324505526135
 20
5.965346410101447
 10
4.570324505526135
 20
5.965346410101447
 10
4.570324505526135
 20
5.965346410101447
 10
4.588196633945548
 20
5.923644778176291
 10
4.588196633945548
 20
5.923644778176291
 10
4.588196633945548
 20
5.923644778176291
 10
4.588196633945548
 20
6.038026397171001
 10
4.588196633945548
 20
6.038026397171001
 10
4.588196633945548
 20
6.038026397171001
 10
4.571115645077523
 20
6.049941149149618
 10
4.570324505526135
 20
6.058281475534651
 97
        0
 97
        0
 92
        1
 93
        1
 72
     4
 94
        3
 73
     0
 74
     1
 95
       20
 96
       16
 40
0.0
 40
0.0
 40
0.0
 40
0.0
 40
1.0
 40
1.0
 40
1.0
 40
2.0
 40
2.0
 40
2.0
 40
3.0
 40
3.0
 40
3.0
 40
4.0
 40
4.0
 40
4.0
 40
5.0
 40
5.0
 40
5.0
 40
5.0
 10
4.690663503550164
 20
6.121825333094168
 10
4.690663503550164
 20
6.121825333094168
 10
4.691854978778161
 20
6.351090794719842
 10
4.691854978778161
 20
6.351090794719842
 10
4.691854978778161
 20
6.351090794719842
 10
4.691464174903381
 20
6.36240980909953
 10
4.680414816970066
 20
6.354590872261079
 10
4.680414816970066
 20
6.354590872261079
 10
4.673209728153552
 20
6.34868496800032
 10
4.673135380101207
 20
6.328723469125432
 10
4.673080095652014
 20
6.314425766751103
 10
4.672791375130777
 20
6.091642781074774
 10
4.672791375130777
 20
6.091642781074774
 10
4.672791375130777
 20
6.091642781074774
 10
4.675984528741688
 20
6.120215309499662
 10
4.690663503550164
 20
6.121825333094168
 97
        0
 97
        0
 92
        1
 93
        1
 72
     4
 94
        3
 73
     0
 74
     1
 95
       17
 96
       13
 40
0.0
 40
0.0
 40
0.0
 40
0.0
 40
1.0
 40
1.0
 40
1.0
 40
2.0
 40
2.0
 40
2.0
 40
3.0
 40
3.0
 40
3.0
 40
4.0
 40
4.0
 40
4.0
 40
4.0
 10
4.672791375130777
 20
6.092834256272631
 10
4.672791375130777
 20
6.092834256272631
 10
4.672791375130777
 20
5.855805039950547
 10
4.672791375130777
 20
5.855805039950547
 10
4.672791375130777
 20
5.855805039950547
 10
4.685897602638331
 20
5.845403080207297
 10
4.690663503550164
 20
5.862135109381736
 10
4.690663503550164
 20
5.862135109381736
 10
4.690663503550164
 20
6.072579177909006
 10
4.690663503550164
 20
6.072579177909006
 10
4.690663503550164
 20
6.072579177909006
 10
4.673582514682165
 20
6.084493929887609
 10
4.672791375130777
 20
6.092834256272631
 97
        0
 97
        0
 92
        1
 93
        1
 72
     4
 94
        3
 73
     0
 74
     1
 95
       20
 96
       16
 40
0.0
 40
0.0
 40
0.0
 40
0.0
 40
1.0
 40
1.0
 40
1.0
 40
2.0
 40
2.0
 40
2.0
 40
3.0
 40
3.0
 40
3.0
 40
4.0
 40
4.0
 40
4.0
 40
5.0
 40
5.0
 40
5.0
 40
5.0
 10
4.791938897926861
 20
6.165909916528727
 10
4.791938897926861
 20
6.165909916528727
 10
4.793130373154806
 20
6.395175377040724
 10
4.793130373154806
 20
6.395175377040724
 10
4.793130373154806
 20
6.395175377040724
 10
4.792739569280027
 20
6.406494391420412
 10
4.781690208788303
 20
6.398675454581962
 10
4.781690208788303
 20
6.398675454581962
 10
4.774485119971788
 20
6.392769550321203
 10
4.774410771919444
 20
6.372808051446301
 10
4.774355487470252
 20
6.35851034907196
 10
4.774066769507448
 20
6.135727363395656
 10
4.774066769507448
 20
6.135727363395656
 10
4.774066769507448
 20
6.135727363395656
 10
4.777259923118359
 20
6.164299891820532
 10
4.791938897926861
 20
6.165909916528727
 97
        0
 97
        0
 92
        1
 93
        1
 72
     4
 94
        3
 73
     0
 74
     1
 95
       17
 96
       13
 40
0.0
 40
0.0
 40
0.0
 40
0.0
 40
1.0
 40
1.0
 40
1.0
 40
2.0
 40
2.0
 40
2.0
 40
3.0
 40
3.0
 40
3.0
 40
4.0
 40
4.0
 40
4.0
 40
4.0
 10
4.774066769507448
 20
6.136918838593513
 10
4.774066769507448
 20
6.136918838593513
 10
4.774066769507448
 20
5.899889622271403
 10
4.774066769507448
 20
5.899889622271403
 10
4.774066769507448
 20
5.899889622271403
 10
4.787172997015028
 20
5.889487663641817
 10
4.791938897926861
 20
5.906219691702606
 10
4.791938897926861
 20
5.906219691702606
 10
4.791938897926861
 20
6.116663760229863
 10
4.791938897926861
 20
6.116663760229863
 10
4.791938897926861
 20
6.116663760229863
 10
4.774857909058785
 20
6.128578512208492
 10
4.774066769507448
 20
6.136918838593513
 97
        0
 97
        0
 75
     2
 76
     1
 98
        0
  0
SPLINE
  5
445
330
431
100
AcDbEntity
  8
CDTC4
 62
   250
420
  2301728
370
    25
100
AcDbSpline
210
0.0
220
0.0
230
1.0
 70
     8
 71
     3
 72
    17
 73
    13
 74
     0
 42
0.0000000001
 43
0.0000000001
 12
1.0
 22
0.0
 32
0.0
 13
1.0
 23
0.0
 33
0.0
 40
0.0
 40
0.0
 40
0.0
 40
0.0
 40
1.0
 40
1.0
 40
1.0
 40
2.0
 40
2.0
 40
2.0
 40
3.0
 40
3.0
 40
3.0
 40
4.0
 40
4.0
 40
4.0
 40
4.0
 10
5.230783053889379
 20
5.789459888212958
 30
0.0
 10
5.230783053889379
 20
5.789459888212958
 30
0.0
 10
4.921809697774607
 20
5.873998485678334
 30
0.0
 10
4.921809697774607
 20
5.873998485678334
 30
0.0
 10
4.921809697774607
 20
5.873998485678334
 30
0.0
 10
4.909289577037978
 20
5.874957288871037
 30
0.0
 10
4.90953168479819
 20
5.883115557845839
 30
0.0
 10
4.90953168479819
 20
5.883115557845839
 30
0.0
 10
4.908572785558944
 20
5.891037438141375
 30
0.0
 10
4.914818975136263
 20
5.890320646662366
 30
0.0
 10
4.914818975136263
 20
5.890320646662366
 30
0.0
 10
4.922256639911388
 20
5.891037438141375
 30
0.0
 10
4.921772424390938
 20
5.876395637729893
 30
0.0
  0
POLYLINE
  5
446
330
431
100
AcDbEntity
  8
CDTC4
 62
   250
420
  2301728
370
    25
100
AcDb2dPolyline
 66
     1
 10
0.0
 20
0.0
 30
0.0
  0
VERTEX
  5
447
330
446
100
AcDbEntity
  8
CDTC4
 62
   250
420
  2301728
370
    25
100
AcDbVertex
100
AcDb2dVertex
 10
4.697942846900863
 20
5.533693056339214
 30
0.0
  0
VERTEX
  5
448
330
446
100
AcDbEntity
  8
CDTC4
 62
   250
420
  2301728
370
    25
100
AcDbVertex
100
AcDb2dVertex
 10
4.697942846900863
 20
5.674370056360658
 30
0.0
  0
SEQEND
  5
449
330
446
100
AcDbEntity
  8
CDTC4
 62
   250
420
  2301728
370
    25
  0
SPLINE
  5
44A
330
431
100
AcDbEntity
  8
CDTC4
 62
   250
420
  2301728
370
    25
100
AcDbSpline
210
0.0
220
0.0
230
1.0
 70
     8
 71
     3
 72
    11
 73
     7
 74
     0
 42
0.0000000001
 43
0.0000000001
 12
1.0
 22
0.0
 32
0.0
 13
1.0
 23
0.0
 33
0.0
 40
0.0
 40
0.0
 40
0.0
 40
0.0
 40
1.0
 40
1.0
 40
1.0
 40
2.0
 40
2.0
 40
2.0
 40
2.0
 10
4.427263511450645
 20
6.279676630900503
 30
0.0
 10
4.427263511450645
 20
6.279676630900503
 30
0.0
 10
4.437912440179035
 20
6.271155200285395
 30
0.0
 10
4.444307325861018
 20
6.254101854073446
 30
0.0
 10
4.444307325861018
 20
6.254101854073446
 30
0.0
 10
4.697942846900863
 20
5.672229304674539
 30
0.0
 10
4.697942846900863
 20
5.672229304674539
 30
0.0
  0
POLYLINE
  5
44B
330
431
100
AcDbEntity
  8
CDTC4
 62
   250
420
  2301728
370
    18
100
AcDb2dPolyline
 66
     1
 10
0.0
 20
0.0
 30
0.0
  0
VERTEX
  5
44C
330
44B
100
AcDbEntity
  8
CDTC4
 62
   250
420
  2301728
370
    18
100
AcDbVertex
100
AcDb2dVertex
 10
4.870576262972261
 20
6.506671831725498
 30
0.0
  0
VERTEX
  5
44D
330
44B
100
AcDbEntity
  8
CDTC4
 62
   250
420
  2301728
370
    18
100
AcDbVertex
100
AcDb2dVertex
 10
4.482676639952792
 20
6.377717882441654
 30
0.0
  0
VERTEX
  5
44E
330
44B
100
AcDbEntity
  8
CDTC4
 62
   250
420
  2301728
370
    18
100
AcDbVertex
100
AcDb2dVertex
 10
4.427263511450645
 20
6.279676630900503
 30
0.0
  0
SEQEND
  5
44F
330
44B
100
AcDbEntity
  8
CDTC4
 62
   250
420
  2301728
370
    18
  0
SPLINE
  5
450
330
431
100
AcDbEntity
  8
CDTC4
 62
   250
420
  2301728
370
    18
100
AcDbSpline
210
0.0
220
0.0
230
1.0
 70
     8
 71
     3
 72
    17
 73
    13
 74
     0
 42
0.0000000001
 43
0.0000000001
 12
1.0
 22
0.0
 32
0.0
 13
1.0
 23
0.0
 33
0.0
 40
0.0
 40
0.0
 40
0.0
 40
0.0
 40
1.0
 40
1.0
 40
1.0
 40
2.0
 40
2.0
 40
2.0
 40
3.0
 40
3.0
 40
3.0
 40
4.0
 40
4.0
 40
4.0
 40
4.0
 10
4.412342429252779
 20
6.290335091430507
 30
0.0
 10
4.412342429252779
 20
6.290335091430507
 30
0.0
 10
4.410666824979393
 20
6.269568261361314
 30
0.0
 10
4.420198626803085
 20
6.26361088522151
 30
0.0
 10
4.420198626803085
 20
6.26361088522151
 30
0.0
 10
4.426156002942889
 20
6.260036459537609
 30
0.0
 10
4.427347478170835
 20
6.255270558625776
 30
0.0
 10
4.427347478170835
 20
6.255270558625776
 30
0.0
 10
4.682323176954443
 20
5.669064746469076
 30
0.0
 10
4.682323176954443
 20
5.669064746469076
 30
0.0
 10
4.682323176954443
 20
5.669064746469076
 30
0.0
 10
4.682323176954443
 20
5.340366197094479
 30
0.0
 10
4.682323176954443
 20
5.340366197094479
 30
0.0
  0
POLYLINE
  5
451
330
431
100
AcDbEntity
  8
CDTC4
 62
   250
420
  2301728
370
    18
100
AcDb2dPolyline
 66
     1
 10
0.0
 20
0.0
 30
0.0
  0
VERTEX
  5
452
330
451
100
AcDbEntity
  8
CDTC4
 62
   250
420
  2301728
370
    18
100
AcDbVertex
100
AcDb2dVertex
 10
4.682323176954443
 20
5.669064746469076
 30
0.0
  0
VERTEX
  5
453
330
451
100
AcDbEntity
  8
CDTC4
 62
   250
420
  2301728
370
    18
100
AcDbVertex
100
AcDb2dVertex
 10
4.695429404461998
 20
5.673830647380921
 30
0.0
  0
SEQEND
  5
454
330
451
100
AcDbEntity
  8
CDTC4
 62
   250
420
  2301728
370
    18
  0
SPLINE
  5
455
330
431
100
AcDbEntity
  8
CDTC4
 62
   250
420
  2301728
370
    18
100
AcDbSpline
210
0.0
220
0.0
230
1.0
 70
     8
 71
     3
 72
    11
 73
     7
 74
     0
 42
0.0000000001
 43
0.0000000001
 12
1.0
 22
0.0
 32
0.0
 13
1.0
 23
0.0
 33
0.0
 40
0.0
 40
0.0
 40
0.0
 40
0.0
 40
1.0
 40
1.0
 40
1.0
 40
2.0
 40
2.0
 40
2.0
 40
2.0
 10
4.40590092406756
 20
5.684553924432558
 30
0.0
 10
4.40590092406756
 20
5.684553924432558
 30
0.0
 10
4.40590092406756
 20
5.673830647380921
 30
0.0
 10
4.417815676347169
 20
5.667873271241104
 30
0.0
 10
4.417815676347169
 20
5.667873271241104
 30
0.0
 10
4.428538953398806
 20
5.666681796013159
 30
0.0
 10
4.428538953398806
 20
5.642852291453942
 30
0.0
  0
POLYLINE
  5
456
330
431
100
AcDbEntity
  8
CDTC4
 62
   250
420
  2301728
370
    18
100
AcDb2dPolyline
 66
     1
 10
0.0
 20
0.0
 30
0.0
  0
VERTEX
  5
457
330
456
100
AcDbEntity
  8
CDTC4
 62
   250
420
  2301728
370
    18
100
AcDbVertex
100
AcDb2dVertex
 10
4.697812354917939
 20
5.570172302548333
 30
0.0
  0
VERTEX
  5
458
330
456
100
AcDbEntity
  8
CDTC4
 62
   250
420
  2301728
370
    18
100
AcDbVertex
100
AcDb2dVertex
 10
4.765726442911728
 20
5.547534273217075
 30
0.0
  0
VERTEX
  5
459
330
456
100
AcDbEntity
  8
CDTC4
 62
   250
420
  2301728
370
    18
100
AcDbVertex
100
AcDb2dVertex
 10
4.881299540023924
 20
5.557066075040754
 30
0.0
  0
VERTEX
  5
45A
330
456
100
AcDbEntity
  8
CDTC4
 62
   250
420
  2301728
370
    18
100
AcDbVertex
100
AcDb2dVertex
 10
5.237177832408557
 20
5.748958310107102
 30
0.0
  0
SEQEND
  5
45B
330
456
100
AcDbEntity
  8
CDTC4
 62
   250
420
  2301728
370
    18
  0
POLYLINE
  5
45C
330
431
100
AcDbEntity
  8
CDTC4
 62
   250
420
  2301728
370
    18
100
AcDb2dPolyline
 66
     1
 10
0.0
 20
0.0
 30
0.0
  0
VERTEX
  5
45D
330
45C
100
AcDbEntity
  8
CDTC4
 62
   250
420
  2301728
370
    18
100
AcDbVertex
100
AcDb2dVertex
 10
4.763343492455785
 20
5.547534273217075
 30
0.0
  0
VERTEX
  5
45E
330
45C
100
AcDbEntity
  8
CDTC4
 62
   250
420
  2301728
370
    18
100
AcDbVertex
100
AcDb2dVertex
 10
4.763343492455785
 20
5.527726148548317
 30
0.0
  0
SEQEND
  5
45F
330
45C
100
AcDbEntity
  8
CDTC4
 62
   250
420
  2301728
370
    18
  0
POLYLINE
  5
460
330
431
100
AcDbEntity
  8
CDTC4
 62
   250
420
  2301728
370
    18
100
AcDb2dPolyline
 66
     1
 10
0.0
 20
0.0
 30
0.0
  0
VERTEX
  5
461
330
460
100
AcDbEntity
  8
CDTC4
 62
   250
420
  2301728
370
    18
100
AcDbVertex
100
AcDb2dVertex
 10
4.880108064795928
 20
5.555651467645703
 30
0.0
  0
VERTEX
  5
462
330
460
100
AcDbEntity
  8
CDTC4
 62
   250
420
  2301728
370
    18
100
AcDbVertex
100
AcDb2dVertex
 10
4.880108064795928
 20
5.539416903189741
 30
0.0
  0
SEQEND
  5
463
330
460
100
AcDbEntity
  8
CDTC4
 62
   250
420
  2301728
370
    18
  0
SPLINE
  5
464
330
431
100
AcDbEntity
  8
CDTC4
 62
   250
420
  2301728
370
    18
100
AcDbSpline
210
0.0
220
0.0
230
1.0
 70
     8
 71
     3
 72
    14
 73
    10
 74
     0
 42
0.0000000001
 43
0.0000000001
 12
1.0
 22
0.0
 32
0.0
 13
1.0
 23
0.0
 33
0.0
 40
0.0
 40
0.0
 40
0.0
 40
0.0
 40
1.0
 40
1.0
 40
1.0
 40
2.0
 40
2.0
 40
2.0
 40
3.0
 40
3.0
 40
3.0
 40
3.0
 10
4.923876093000318
 20
6.439530662526559
 30
0.0
 10
4.923876093000318
 20
6.439530662526559
 30
0.0
 10
4.925384123458444
 20
6.420885615312322
 30
0.0
 10
4.930150024370328
 20
6.411353813488644
 30
0.0
 10
4.930150024370328
 20
6.411353813488644
 30
0.0
 10
5.175593921330194
 20
5.910934217745131
 30
0.0
 10
5.175593921330194
 20
5.910934217745131
 30
0.0
 10
5.175593921330194
 20
5.910934217745131
 30
0.0
 10
5.175593921330194
 20
5.802509972000684
 30
0.0
 10
5.175593921330194
 20
5.802509972000684
 30
0.0
  0
POLYLINE
  5
465
330
431
100
AcDbEntity
  8
CDTC4
 62
   250
420
  2301728
370
    18
100
AcDb2dPolyline
 66
     1
 10
0.0
 20
0.0
 30
0.0
  0
VERTEX
  5
466
330
465
100
AcDbEntity
  8
CDTC4
 62
   250
420
  2301728
370
    18
100
AcDbVertex
100
AcDb2dVertex
 10
5.175593921330194
 20
5.910934217745131
 30
0.0
  0
VERTEX
  5
467
330
465
100
AcDbEntity
  8
CDTC4
 62
   250
420
  2301728
370
    18
100
AcDbVertex
100
AcDb2dVertex
 10
5.192423164436402
 20
5.91520627423496
 30
0.0
  0
SEQEND
  5
468
330
465
100
AcDbEntity
  8
CDTC4
 62
   250
420
  2301728
370
    18
  0
POLYLINE
  5
469
330
431
100
AcDbEntity
  8
CDTC4
 62
   250
420
  2301728
370
    18
100
AcDb2dPolyline
 66
     1
 10
0.0
 20
0.0
 30
0.0
  0
VERTEX
  5
46A
330
469
100
AcDbEntity
  8
CDTC4
 62
   250
420
  2301728
370
    18
100
AcDbVertex
100
AcDb2dVertex
 10
4.921809697774607
 20
5.916891593884921
 30
0.0
  0
VERTEX
  5
46B
330
469
100
AcDbEntity
  8
CDTC4
 62
   250
420
  2301728
370
    18
100
AcDbVertex
100
AcDb2dVertex
 10
4.921809697774607
 20
5.90735979206123
 30
0.0
  0
SEQEND
  5
46C
330
469
100
AcDbEntity
  8
CDTC4
 62
   250
420
  2301728
370
    18
  0
POLYLINE
  5
46D
330
431
100
AcDbEntity
  8
CDTC4
 62
   250
420
  2301728
370
    18
100
AcDb2dPolyline
 66
     1
 10
0.0
 20
0.0
 30
0.0
  0
VERTEX
  5
46E
330
46D
100
AcDbEntity
  8
CDTC4
 62
   250
420
  2301728
370
    18
100
AcDbVertex
100
AcDb2dVertex
 10
4.921809697774607
 20
6.367269230054098
 30
0.0
  0
VERTEX
  5
46F
330
46D
100
AcDbEntity
  8
CDTC4
 62
   250
420
  2301728
370
    18
100
AcDbVertex
100
AcDb2dVertex
 10
4.921809697774607
 20
5.931193965029946
 30
0.0
  0
SEQEND
  5
470
330
46D
100
AcDbEntity
  8
CDTC4
 62
   250
420
  2301728
370
    18
  0
POLYLINE
  5
471
330
431
100
AcDbEntity
  8
CDTC4
 62
   250
420
  2301728
370
    18
100
AcDb2dPolyline
 66
     1
 10
0.0
 20
0.0
 30
0.0
  0
VERTEX
  5
472
330
471
100
AcDbEntity
  8
CDTC4
 62
   250
420
  2301728
370
    18
100
AcDbVertex
100
AcDb2dVertex
 10
4.921809697774607
 20
6.394673160297189
 30
0.0
  0
VERTEX
  5
473
330
471
100
AcDbEntity
  8
CDTC4
 62
   250
420
  2301728
370
    18
100
AcDbVertex
100
AcDb2dVertex
 10
4.921809697774607
 20
6.385146015415203
 30
0.0
  0
SEQEND
  5
474
330
471
100
AcDbEntity
  8
CDTC4
 62
   250
420
  2301728
370
    18
  0
SPLINE
  5
475
330
431
100
AcDbEntity
  8
CDTC4
 62
   250
420
  2301728
370
    18
100
AcDbSpline
210
0.0
220
0.0
230
1.0
 70
    11
 71
     3
 72
    17
 73
    13
 74
     0
 42
0.0000000001
 43
0.0000000001
 12
1.0
 22
0.0
 32
0.0
 13
1.0
 23
0.0
 33
0.0
 40
0.0
 40
0.0
 40
0.0
 40
0.0
 40
1.0
 40
1.0
 40
1.0
 40
2.0
 40
2.0
 40
2.0
 40
3.0
 40
3.0
 40
3.0
 40
4.0
 40
4.0
 40
4.0
 40
4.0
 10
4.579213773204174
 20
6.067082187936143
 30
0.0
 10
4.576049215078632
 20
6.05372060906393
 30
0.0
 10
4.581708245678404
 20
6.040958379337894
 30
0.0
 10
4.59187295888642
 20
6.038543020816797
 30
0.0
 10
4.602019561671416
 20
6.036132428196475
 30
0.0
 10
4.612817278056152
 20
6.044984612326516
 30
0.0
 10
4.616018918656184
 20
6.058346291785407
 30
0.0
 10
4.619194053476172
 20
6.071676516299084
 30
0.0
 10
4.613524446181928
 20
6.084456755861437
 30
0.0
 10
4.603369264775538
 20
6.086872215806705
 30
0.0
 10
4.593222661990517
 20
6.089287472903644
 30
0.0
 10
4.582406926734444
 20
6.080440054674404
 30
0.0
 10
4.579213773204174
 20
6.067082187936143
 30
0.0
  0
SPLINE
  5
476
330
431
100
AcDbEntity
  8
CDTC4
 62
   250
420
  2301728
370
    18
100
AcDbSpline
210
0.0
220
0.0
230
1.0
 70
     8
 71
     3
 72
    26
 73
    22
 74
     0
 42
0.0000000001
 43
0.0000000001
 12
1.0
 22
0.0
 32
0.0
 13
1.0
 23
0.0
 33
0.0
 40
0.0
 40
0.0
 40
0.0
 40
0.0
 40
1.0
 40
1.0
 40
1.0
 40
2.0
 40
2.0
 40
2.0
 40
3.0
 40
3.0
 40
3.0
 40
4.0
 40
4.0
 40
4.0
 40
5.0
 40
5.0
 40
5.0
 40
6.0
 40
6.0
 40
6.0
 40
7.0
 40
7.0
 40
7.0
 40
7.0
 10
4.569961253407655
 20
6.301119371741366
 30
0.0
 10
4.569961253407655
 20
6.301119371741366
 30
0.0
 10
4.570231003392437
 20
6.322323817542686
 30
0.0
 10
4.58499481086417
 20
6.325273910132586
 30
0.0
 10
4.58499481086417
 20
6.325273910132586
 30
0.0
 10
4.603508429078677
 20
6.330910064408549
 30
0.0
 10
4.603685811909044
 20
6.308886943884014
 30
0.0
 10
4.603685811909044
 20
6.308886943884014
 30
0.0
 10
4.607865415582157
 20
6.080817514017085
 30
0.0
 10
4.602131083749908
 20
6.086053332626571
 30
0.0
 10
4.600222817073018
 20
6.087798605496396
 30
0.0
 10
4.597970452358974
 20
6.089050131044233
 30
0.0
 10
4.595429274056995
 20
6.08965550193923
 30
0.0
 10
4.585282671271998
 20
6.092070758965847
 30
0.0
 10
4.57127378248563
 20
6.069865473998334
 30
0.0
 10
4.57127378248563
 20
6.069865473998334
 30
0.0
 10
4.568109224360114
 20
6.056503895196442
 30
0.0
 10
4.573768254959885
 20
6.04374166540011
 30
0.0
 10
4.583932968167876
 20
6.041326306879
 30
0.0
 10
4.584957636838023
 20
6.0410841991188
 30
0.0
 10
4.585981352328013
 20
6.040953613437106
 30
0.0
 10
4.587005158717602
 20
6.040935503014098
 30
0.0
  0
SPLINE
  5
477
330
431
100
AcDbEntity
  8
CDTC4
 62
   250
420
  2301728
370
    18
100
AcDbSpline
210
0.0
220
0.0
230
1.0
 70
    11
 71
     3
 72
    17
 73
    13
 74
     0
 42
0.0000000001
 43
0.0000000001
 12
1.0
 22
0.0
 32
0.0
 13
1.0
 23
0.0
 33
0.0
 40
0.0
 40
0.0
 40
0.0
 40
0.0
 40
1.0
 40
1.0
 40
1.0
 40
2.0
 40
2.0
 40
2.0
 40
3.0
 40
3.0
 40
3.0
 40
4.0
 40
4.0
 40
4.0
 40
4.0
 10
4.906525354578965
 20
5.753678551257949
 30
0.0
 10
4.92345764691082
 20
5.753854796580223
 30
0.0
 10
4.937093842255308
 20
5.759253608996775
 30
0.0
 10
4.937029026004514
 20
5.765741906334256
 30
0.0
 10
4.936963256573638
 20
5.772220671870147
 30
0.0
 10
4.923206007349032
 20
5.777330670698726
 30
0.0
 10
4.90624607279258
 20
5.777172442792461
 30
0.0
 10
4.889323312262326
 20
5.776995151283018
 30
0.0
 10
4.875677585116237
 20
5.771578228443458
 30
0.0
 10
4.875742499560702
 20
5.765089931105977
 30
0.0
 10
4.875807217617774
 20
5.758611165570098
 30
0.0
 10
4.889565420022513
 20
5.753501166741519
 30
0.0
 10
4.906525354578965
 20
5.753678551257949
 30
0.0
  0
SPLINE
  5
478
330
431
100
AcDbEntity
  8
CDTC4
 62
   250
420
  2301728
370
    18
100
AcDbSpline
210
0.0
220
0.0
230
1.0
 70
     8
 71
     3
 72
    17
 73
    13
 74
     0
 42
0.0000000001
 43
0.0000000001
 12
1.0
 22
0.0
 32
0.0
 13
1.0
 23
0.0
 33
0.0
 40
0.0
 40
0.0
 40
0.0
 40
0.0
 40
1.0
 40
1.0
 40
1.0
 40
2.0
 40
2.0
 40
2.0
 40
3.0
 40
3.0
 40
3.0
 40
4.0
 40
4.0
 40
4.0
 40
4.0
 10
4.874941828207536
 20
5.763982429029359
 30
0.0
 10
4.874941828207536
 20
5.763982429029359
 30
0.0
 10
4.875742499560702
 20
5.75548378147073
 30
0.0
 10
4.875742499560702
 20
5.75548378147073
 30
0.0
 10
4.875807217617774
 20
5.74900501593485
 30
0.0
 10
4.889565420022513
 20
5.743895017106259
 30
0.0
 10
4.906525354578965
 20
5.744071355435545
 30
0.0
 10
4.92345764691082
 20
5.744248646944988
 30
0.0
 10
4.937093842255308
 20
5.74964745936154
 30
0.0
 10
4.937029026004514
 20
5.756135756699008
 30
0.0
 10
4.937029026004514
 20
5.756135756699008
 30
0.0
 10
4.937029026004514
 20
5.765741906334256
 30
0.0
 10
4.937029026004514
 20
5.765741906334256
 30
0.0
  0
SPLINE
  5
479
330
431
100
AcDbEntity
  8
CDTC4
 62
   250
420
  2301728
370
    18
100
AcDbSpline
210
0.0
220
0.0
230
1.0
 70
    11
 71
     3
 72
    17
 73
    13
 74
     0
 42
0.0000000001
 43
0.0000000001
 12
1.0
 22
0.0
 32
0.0
 13
1.0
 23
0.0
 33
0.0
 40
0.0
 40
0.0
 40
0.0
 40
0.0
 40
1.0
 40
1.0
 40
1.0
 40
2.0
 40
2.0
 40
2.0
 40
3.0
 40
3.0
 40
3.0
 40
4.0
 40
4.0
 40
4.0
 40
4.0
 10
4.956567312889168
 20
5.644062830285545
 30
0.0
 10
4.973499605221023
 20
5.644239078376978
 30
0.0
 10
4.98713580056546
 20
5.649637890793517
 30
0.0
 10
4.987070984314717
 20
5.656126188130984
 30
0.0
 10
4.987005214883791
 20
5.662604953666876
 30
0.0
 10
4.973247965659184
 20
5.667714952495468
 30
0.0
 10
4.956288031102783
 20
5.66755672458919
 30
0.0
 10
4.939365270572479
 20
5.667379433079746
 30
0.0
 10
4.92571954342644
 20
5.661962510240199
 30
0.0
 10
4.925784459135053
 20
5.655474212902718
 30
0.0
 10
4.925849175927977
 20
5.648995447366827
 30
0.0
 10
4.939607378332716
 20
5.643885448538236
 30
0.0
 10
4.956567312889168
 20
5.644062830285545
 30
0.0
  0
SPLINE
  5
47A
330
431
100
AcDbEntity
  8
CDTC4
 62
   250
420
  2301728
370
    18
100
AcDbSpline
210
0.0
220
0.0
230
1.0
 70
     8
 71
     3
 72
    17
 73
    13
 74
     0
 42
0.0000000001
 43
0.0000000001
 12
1.0
 22
0.0
 32
0.0
 13
1.0
 23
0.0
 33
0.0
 40
0.0
 40
0.0
 40
0.0
 40
0.0
 40
1.0
 40
1.0
 40
1.0
 40
2.0
 40
2.0
 40
2.0
 40
3.0
 40
3.0
 40
3.0
 40
4.0
 40
4.0
 40
4.0
 40
4.0
 10
4.924983787781886
 20
5.654366708056955
 30
0.0
 10
4.924983787781886
 20
5.654366708056955
 30
0.0
 10
4.925784459135053
 20
5.645868063267471
 30
0.0
 10
4.925784459135053
 20
5.645868063267471
 30
0.0
 10
4.925849175927977
 20
5.639389297731579
 30
0.0
 10
4.939607378332716
 20
5.634279298902988
 30
0.0
 10
4.956567312889168
 20
5.634455637232273
 30
0.0
 10
4.973499605221023
 20
5.634632928741717
 30
0.0
 10
4.98713580056546
 20
5.640031741158269
 30
0.0
 10
4.987070984314717
 20
5.646520038495737
 30
0.0
 10
4.987070984314717
 20
5.646520038495737
 30
0.0
 10
4.987070984314717
 20
5.656126188130984
 30
0.0
 10
4.987070984314717
 20
5.656126188130984
 30
0.0
  0
SPLINE
  5
47B
330
431
100
AcDbEntity
  8
CDTC4
 62
   250
420
  2301728
370
    18
100
AcDbSpline
210
0.0
220
0.0
230
1.0
 70
    11
 71
     3
 72
    17
 73
    13
 74
     0
 42
0.0000000001
 43
0.0000000001
 12
1.0
 22
0.0
 32
0.0
 13
1.0
 23
0.0
 33
0.0
 40
0.0
 40
0.0
 40
0.0
 40
0.0
 40
1.0
 40
1.0
 40
1.0
 40
2.0
 40
2.0
 40
2.0
 40
3.0
 40
3.0
 40
3.0
 40
4.0
 40
4.0
 40
4.0
 40
4.0
 10
5.164675136848473
 20
5.747329325216583
 30
0.0
 10
5.181607429180278
 20
5.747506616726026
 30
0.0
 10
5.195243624524765
 20
5.752905429142566
 30
0.0
 10
5.195178808274022
 20
5.759393726480046
 30
0.0
 10
5.195113992023228
 20
5.765872492015938
 30
0.0
 10
5.18135578961849
 20
5.770982490844517
 30
0.0
 10
5.164395855062038
 20
5.770824262938251
 30
0.0
 10
5.147473094531784
 20
5.770646971428808
 30
0.0
 10
5.13382736738572
 20
5.765230048589248
 30
0.0
 10
5.13389228835159
 20
5.75874175125178
 30
0.0
 10
5.133956999887283
 20
5.752262985715888
 30
0.0
 10
5.147715202291995
 20
5.747152986887297
 30
0.0
 10
5.164675136848473
 20
5.747329325216583
 30
0.0
  0
SPLINE
  5
47C
330
431
100
AcDbEntity
  8
CDTC4
 62
   250
420
  2301728
370
    18
100
AcDbSpline
210
0.0
220
0.0
230
1.0
 70
     8
 71
     3
 72
    17
 73
    13
 74
     0
 42
0.0000000001
 43
0.0000000001
 12
1.0
 22
0.0
 32
0.0
 13
1.0
 23
0.0
 33
0.0
 40
0.0
 40
0.0
 40
0.0
 40
0.0
 40
1.0
 40
1.0
 40
1.0
 40
2.0
 40
2.0
 40
2.0
 40
3.0
 40
3.0
 40
3.0
 40
4.0
 40
4.0
 40
4.0
 40
4.0
 10
5.133091616998424
 20
5.757634249014763
 30
0.0
 10
5.133091616998424
 20
5.757634249014763
 30
0.0
 10
5.13389228835159
 20
5.749135601616532
 30
0.0
 10
5.13389228835159
 20
5.749135601616532
 30
0.0
 10
5.133956999887283
 20
5.742656836080641
 30
0.0
 10
5.147715202291995
 20
5.737546837252075
 30
0.0
 10
5.164675136848473
 20
5.737723175581348
 30
0.0
 10
5.181607429180278
 20
5.737900467090778
 30
0.0
 10
5.195243624524765
 20
5.743299279507331
 30
0.0
 10
5.195178808274022
 20
5.749787576844811
 30
0.0
 10
5.195178808274022
 20
5.749787576844811
 30
0.0
 10
5.195178808274022
 20
5.759393726480046
 30
0.0
 10
5.195178808274022
 20
5.759393726480046
 30
0.0
  0
SPLINE
  5
47D
330
431
100
AcDbEntity
  8
CDTC4
 62
   250
420
  2301728
370
    18
100
AcDbSpline
210
0.0
220
0.0
230
1.0
 70
     8
 71
     3
 72
    17
 73
    13
 74
     0
 42
0.0000000001
 43
0.0000000001
 12
1.0
 22
0.0
 32
0.0
 13
1.0
 23
0.0
 33
0.0
 40
0.0
 40
0.0
 40
0.0
 40
0.0
 40
1.0
 40
1.0
 40
1.0
 40
2.0
 40
2.0
 40
2.0
 40
3.0
 40
3.0
 40
3.0
 40
4.0
 40
4.0
 40
4.0
 40
4.0
 10
4.698687280604468
 20
5.650373745875704
 30
0.0
 10
4.703351191118953
 20
5.649330966782549
 30
0.0
 10
4.708833883389439
 20
5.648762871408204
 30
0.0
 10
4.714697847723224
 20
5.648828731197391
 30
0.0
 10
4.73163014005508
 20
5.649004979168404
 30
0.0
 10
4.745266335399593
 20
5.654403791584955
 30
0.0
 10
4.745201519148799
 20
5.660892088922436
 30
0.0
 10
4.745135749717898
 20
5.667370854458327
 30
0.0
 10
4.731378500493317
 20
5.672480853286907
 30
0.0
 10
4.714418565936866
 20
5.672322625380641
 30
0.0
 10
4.708656591879995
 20
5.672266387751304
 30
0.0
 10
4.70327588988645
 20
5.671596302100018
 30
0.0
 10
4.698687280604468
 20
5.670488706756095
 30
0.0
  0
SPLINE
  5
47E
330
431
100
AcDbEntity
  8
CDTC4
 62
   250
420
  2301728
370
    18
100
AcDbSpline
210
0.0
220
0.0
230
1.0
 70
     8
 71
     3
 72
    14
 73
    10
 74
     0
 42
0.0000000001
 43
0.0000000001
 12
1.0
 22
0.0
 32
0.0
 13
1.0
 23
0.0
 33
0.0
 40
0.0
 40
0.0
 40
0.0
 40
0.0
 40
1.0
 40
1.0
 40
1.0
 40
2.0
 40
2.0
 40
2.0
 40
3.0
 40
3.0
 40
3.0
 40
3.0
 10
4.697523447631207
 20
5.641045924846694
 30
0.0
 10
4.702429465905904
 20
5.639836339225818
 30
0.0
 10
4.708340136067439
 20
5.639156721772969
 30
0.0
 10
4.714697847723224
 20
5.639221538023725
 30
0.0
 10
4.73163014005508
 20
5.639398829533168
 30
0.0
 10
4.745266335399593
 20
5.644797641949721
 30
0.0
 10
4.745201519148799
 20
5.651285939287188
 30
0.0
 10
4.745201519148799
 20
5.651285939287188
 30
0.0
 10
4.745201519148799
 20
5.660892088922436
 30
0.0
 10
4.745201519148799
 20
5.660892088922436
 30
0.0
  0
SPLINE
  5
47F
330
431
100
AcDbEntity
  8
CDTC4
 62
   250
420
  2301728
370
    18
100
AcDbSpline
210
0.0
220
0.0
230
1.0
 70
    11
 71
     3
 72
    17
 73
    13
 74
     0
 42
0.0000000001
 43
0.0000000001
 12
1.0
 22
0.0
 32
0.0
 13
1.0
 23
0.0
 33
0.0
 40
0.0
 40
0.0
 40
0.0
 40
0.0
 40
1.0
 40
1.0
 40
1.0
 40
2.0
 40
2.0
 40
2.0
 40
3.0
 40
3.0
 40
3.0
 40
4.0
 40
4.0
 40
4.0
 40
4.0
 10
4.578432165474396
 20
5.415438666361372
 30
0.0
 10
4.581280267787355
 20
5.400367934878659
 30
0.0
 10
4.592450586062341
 20
5.389915361262839
 30
0.0
 10
4.603434081026282
 20
5.391962792242869
 30
0.0
 10
4.614381355144259
 20
5.394011176403031
 30
0.0
 10
4.62097164275868
 20
5.407871369084685
 30
0.0
 10
4.618160714471868
 20
5.422923036964246
 30
0.0
 10
4.615348833004898
 20
5.437937615848341
 30
0.0
 10
4.604160404306892
 20
5.448418699838182
 30
0.0
 10
4.593195019765972
 20
5.446352205255001
 30
0.0
 10
4.582239257805768
 20
5.444313352896415
 30
0.0
 10
4.575629815808977
 20
5.430462692016312
 30
0.0
 10
4.578432165474396
 20
5.415438666361372
 30
0.0
  0
SPLINE
  5
480
330
431
100
AcDbEntity
  8
CDTC4
 62
   250
420
  2301728
370
    18
100
AcDbSpline
210
0.0
220
0.0
230
1.0
 70
     8
 71
     3
 72
    17
 73
    13
 74
     0
 42
0.0000000001
 43
0.0000000001
 12
1.0
 22
0.0
 32
0.0
 13
1.0
 23
0.0
 33
0.0
 40
0.0
 40
0.0
 40
0.0
 40
0.0
 40
1.0
 40
1.0
 40
1.0
 40
2.0
 40
2.0
 40
2.0
 40
3.0
 40
3.0
 40
3.0
 40
4.0
 40
4.0
 40
4.0
 40
4.0
 10
4.610518115962703
 20
5.39482995815898
 30
0.0
 10
4.61132831909726
 20
5.394848068582001
 30
0.0
 10
4.613496803957332
 20
5.3958261153913
 30
0.0
 10
4.614287943488762
 20
5.396086249607606
 30
0.0
 10
4.626546793504505
 20
5.400172617022892
 30
0.0
 10
4.630503444341532
 20
5.412637269876162
 30
0.0
 10
4.627692516054771
 20
5.427688937755698
 30
0.0
 10
4.624880634587826
 20
5.442703516760174
 30
0.0
 10
4.61240741057774
 20
5.454850759546312
 30
0.0
 10
4.600464924833229
 20
5.45108093202028
 30
0.0
 10
4.597337631894485
 20
5.45009343737628
 30
0.0
 10
4.593055855462833
 20
5.448735155650714
 30
0.0
 10
4.590718657714736
 20
5.446370315678021
 30
0.0
  0
POLYLINE
  5
481
330
431
100
AcDbEntity
  8
CDTC4
 62
   250
420
  2301728
370
    18
100
AcDb2dPolyline
 66
     1
 10
0.0
 20
0.0
 30
0.0
  0
VERTEX
  5
482
330
481
100
AcDbEntity
  8
CDTC4
 62
   250
420
  2301728
370
    18
100
AcDbVertex
100
AcDb2dVertex
 10
4.602494336681098
 20
6.038422067136922
 30
0.0
  0
VERTEX
  5
483
330
481
100
AcDbEntity
  8
CDTC4
 62
   250
420
  2301728
370
    18
100
AcDbVertex
100
AcDb2dVertex
 10
4.602494336681098
 20
5.891944865652072
 30
0.0
  0
SEQEND
  5
484
330
481
100
AcDbEntity
  8
CDTC4
 62
   250
420
  2301728
370
    18
  0
SPLINE
  5
485
330
431
100
AcDbEntity
  8
CDTC4
 62
   250
420
  2301728
370
    18
100
AcDbSpline
210
0.0
220
0.0
230
1.0
 70
    11
 71
     3
 72
    17
 73
    13
 74
     0
 42
0.0000000001
 43
0.0000000001
 12
1.0
 22
0.0
 32
0.0
 13
1.0
 23
0.0
 33
0.0
 40
0.0
 40
0.0
 40
0.0
 40
0.0
 40
1.0
 40
1.0
 40
1.0
 40
2.0
 40
2.0
 40
2.0
 40
3.0
 40
3.0
 40
3.0
 40
4.0
 40
4.0
 40
4.0
 40
4.0
 10
4.681680640220267
 20
6.101634968674122
 30
0.0
 10
4.678516082094752
 20
6.088273390674797
 30
0.0
 10
4.684175112694523
 20
6.075511160075886
 30
0.0
 10
4.69433982590254
 20
6.073095801554776
 30
0.0
 10
4.704486428687485
 20
6.070685208934466
 30
0.0
 10
4.715284147660769
 20
6.079537393064507
 30
0.0
 10
4.718485785672303
 20
6.092899072523399
 30
0.0
 10
4.721660923080789
 20
6.106229297037089
 30
0.0
 10
4.715991313198047
 20
6.119009536599416
 30
0.0
 10
4.705836131791632
 20
6.121424997417572
 30
0.0
 10
4.695689529006636
 20
6.123840253641624
 30
0.0
 10
4.684873793750537
 20
6.114992835412383
 30
0.0
 10
4.681680640220267
 20
6.101634968674122
 30
0.0
  0
SPLINE
  5
486
330
431
100
AcDbEntity
  8
CDTC4
 62
   250
420
  2301728
370
    18
100
AcDbSpline
210
0.0
220
0.0
230
1.0
 70
     8
 71
     3
 72
    26
 73
    22
 74
     0
 42
0.0000000001
 43
0.0000000001
 12
1.0
 22
0.0
 32
0.0
 13
1.0
 23
0.0
 33
0.0
 40
0.0
 40
0.0
 40
0.0
 40
0.0
 40
1.0
 40
1.0
 40
1.0
 40
2.0
 40
2.0
 40
2.0
 40
3.0
 40
3.0
 40
3.0
 40
4.0
 40
4.0
 40
4.0
 40
5.0
 40
5.0
 40
5.0
 40
6.0
 40
6.0
 40
6.0
 40
7.0
 40
7.0
 40
7.0
 40
7.0
 10
4.672428120423723
 20
6.335672152479358
 30
0.0
 10
4.672428120423723
 20
6.335672152479358
 30
0.0
 10
4.672697870408556
 20
6.356876598280652
 30
0.0
 10
4.68746167788029
 20
6.359826690870565
 30
0.0
 10
4.68746167788029
 20
6.359826690870565
 30
0.0
 10
4.705975296094746
 20
6.365462845146529
 30
0.0
 10
4.70615268151366
 20
6.343439725494868
 30
0.0
 10
4.70615268151366
 20
6.343439725494868
 30
0.0
 10
4.710332282598276
 20
6.115370294755065
 30
0.0
 10
4.704597950766027
 20
6.120606113364551
 30
0.0
 10
4.702689684089111
 20
6.122351386234375
 30
0.0
 10
4.700437319375093
 20
6.123602911782212
 30
0.0
 10
4.697896141073064
 20
6.124208283550084
 30
0.0
 10
4.687749538288092
 20
6.126623539703839
 30
0.0
 10
4.673740649501698
 20
6.104418254736325
 30
0.0
 10
4.673740649501698
 20
6.104418254736325
 30
0.0
 10
4.670576091376208
 20
6.091056676807309
 30
0.0
 10
4.676235121975929
 20
6.078294446138089
 30
0.0
 10
4.686399835183945
 20
6.075879087616991
 30
0.0
 10
4.687424503854142
 20
6.07563697985678
 30
0.0
 10
4.688448219344132
 20
6.075506394175098
 30
0.0
 10
4.689472028322219
 20
6.07548828375209
 30
0.0
  0
SPLINE
  5
487
330
431
100
AcDbEntity
  8
CDTC4
 62
   250
420
  2301728
370
    18
100
AcDbSpline
210
0.0
220
0.0
230
1.0
 70
     8
 71
     3
 72
    14
 73
    10
 74
     0
 42
0.0000000001
 43
0.0000000001
 12
1.0
 22
0.0
 32
0.0
 13
1.0
 23
0.0
 33
0.0
 40
0.0
 40
0.0
 40
0.0
 40
0.0
 40
1.0
 40
1.0
 40
1.0
 40
2.0
 40
2.0
 40
2.0
 40
3.0
 40
3.0
 40
3.0
 40
3.0
 10
4.704961206285715
 20
6.072974848747776
 30
0.0
 10
4.704961206285715
 20
6.072974848747776
 30
0.0
 10
4.704961206285715
 20
5.864466683854642
 30
0.0
 10
4.704961206285715
 20
5.864466683854642
 30
0.0
 10
4.704961206285715
 20
5.864466683854642
 30
0.0
 10
4.704961206285715
 20
5.847786030663213
 30
0.0
 10
4.689472028322219
 20
5.839445704067467
 30
0.0
 10
4.684706127410386
 20
5.839445704067467
 30
0.0
 10
4.671599899902831
 20
5.83706275361155
 30
0.0
 10
4.671599899902831
 20
5.863275208626684
 30
0.0
  0
SPLINE
  5
488
330
431
100
AcDbEntity
  8
CDTC4
 62
   250
420
  2301728
370
    18
100
AcDbSpline
210
0.0
220
0.0
230
1.0
 70
    11
 71
     3
 72
    17
 73
    13
 74
     0
 42
0.0000000001
 43
0.0000000001
 12
1.0
 22
0.0
 32
0.0
 13
1.0
 23
0.0
 33
0.0
 40
0.0
 40
0.0
 40
0.0
 40
0.0
 40
1.0
 40
1.0
 40
1.0
 40
2.0
 40
2.0
 40
2.0
 40
3.0
 40
3.0
 40
3.0
 40
4.0
 40
4.0
 40
4.0
 40
4.0
 10
4.782956032038505
 20
6.145719550995005
 30
0.0
 10
4.779791473912988
 20
6.132357974109342
 30
0.0
 10
4.78545050451276
 20
6.119595742396755
 30
0.0
 10
4.795615217720726
 20
6.117180383875658
 30
0.0
 10
4.805761820505722
 20
6.114769791255336
 30
0.0
 10
4.816559542037415
 20
6.123621975385377
 30
0.0
 10
4.81976117749054
 20
6.136983654844268
 30
0.0
 10
4.822936317457485
 20
6.150313879357946
 30
0.0
 10
4.817266705016285
 20
6.163094118920311
 30
0.0
 10
4.80711152360987
 20
6.165509580852131
 30
0.0
 10
4.796964920824873
 20
6.167924835962493
 30
0.0
 10
4.786149185568775
 20
6.159077417733266
 30
0.0
 10
4.782956032038505
 20
6.145719550995005
 30
0.0
  0
SPLINE
  5
489
330
431
100
AcDbEntity
  8
CDTC4
 62
   250
420
  2301728
370
    18
100
AcDbSpline
210
0.0
220
0.0
230
1.0
 70
     8
 71
     3
 72
    26
 73
    22
 74
     0
 42
0.0000000001
 43
0.0000000001
 12
1.0
 22
0.0
 32
0.0
 13
1.0
 23
0.0
 33
0.0
 40
0.0
 40
0.0
 40
0.0
 40
0.0
 40
1.0
 40
1.0
 40
1.0
 40
2.0
 40
2.0
 40
2.0
 40
3.0
 40
3.0
 40
3.0
 40
4.0
 40
4.0
 40
4.0
 40
5.0
 40
5.0
 40
5.0
 40
6.0
 40
6.0
 40
6.0
 40
7.0
 40
7.0
 40
7.0
 40
7.0
 10
4.77370351224196
 20
6.379756734800227
 30
0.0
 10
4.77370351224196
 20
6.379756734800227
 30
0.0
 10
4.773973262226794
 20
6.400961180601548
 30
0.0
 10
4.788737069698527
 20
6.403911273191447
 30
0.0
 10
4.788737069698527
 20
6.403911273191447
 30
0.0
 10
4.807250687912958
 20
6.409547427467411
 30
0.0
 10
4.807428075890357
 20
6.387524308929414
 30
0.0
 10
4.807428075890357
 20
6.387524308929414
 30
0.0
 10
4.811607674416513
 20
6.159454877075947
 30
0.0
 10
4.805873342584264
 20
6.164690695685433
 30
0.0
 10
4.803965075907349
 20
6.166435968555257
 30
0.0
 10
4.80171271119333
 20
6.167687494103094
 30
0.0
 10
4.799171532891301
 20
6.168292866984643
 30
0.0
 10
4.78902493010633
 20
6.170708122024709
 30
0.0
 10
4.775016041319936
 20
6.148502837057195
 30
0.0
 10
4.775016041319936
 20
6.148502837057195
 30
0.0
 10
4.771851483194395
 20
6.135141260241855
 30
0.0
 10
4.777510513794166
 20
6.122379028458972
 30
0.0
 10
4.787675227002183
 20
6.119963669937874
 30
0.0
 10
4.78869989567238
 20
6.119721562177662
 30
0.0
 10
4.789723611162369
 20
6.11959097649598
 30
0.0
 10
4.790747422698915
 20
6.11957286607296
 30
0.0
  0
SPLINE
  5
48A
330
431
100
AcDbEntity
  8
CDTC4
 62
   250
420
  2301728
370
    18
100
AcDbSpline
210
0.0
220
0.0
230
1.0
 70
     8
 71
     3
 72
    14
 73
    10
 74
     0
 42
0.0000000001
 43
0.0000000001
 12
1.0
 22
0.0
 32
0.0
 13
1.0
 23
0.0
 33
0.0
 40
0.0
 40
0.0
 40
0.0
 40
0.0
 40
1.0
 40
1.0
 40
1.0
 40
2.0
 40
2.0
 40
2.0
 40
3.0
 40
3.0
 40
3.0
 40
3.0
 10
4.80623660066236
 20
6.117059432182322
 30
0.0
 10
4.80623660066236
 20
6.117059432182322
 30
0.0
 10
4.80623660066236
 20
5.908551267289188
 30
0.0
 10
4.80623660066236
 20
5.908551267289188
 30
0.0
 10
4.80623660066236
 20
5.908551267289188
 30
0.0
 10
4.80623660066236
 20
5.891870614097747
 30
0.0
 10
4.790747422698915
 20
5.883530287502013
 30
0.0
 10
4.785981521787031
 20
5.883530287502013
 30
0.0
 10
4.772875294279452
 20
5.881147337046096
 30
0.0
 10
4.772875294279452
 20
5.90735979206123
 30
0.0
  0
SPLINE
  5
48B
330
431
100
AcDbEntity
  8
CDTC4
 62
   250
420
  2301728
370
    18
100
AcDbSpline
210
0.0
220
0.0
230
1.0
 70
     8
 71
     3
 72
    26
 73
    22
 74
     0
 42
0.0000000001
 43
0.0000000001
 12
1.0
 22
0.0
 32
0.0
 13
1.0
 23
0.0
 33
0.0
 40
0.0
 40
0.0
 40
0.0
 40
0.0
 40
1.0
 40
1.0
 40
1.0
 40
2.0
 40
2.0
 40
2.0
 40
3.0
 40
3.0
 40
3.0
 40
4.0
 40
4.0
 40
4.0
 40
5.0
 40
5.0
 40
5.0
 40
6.0
 40
6.0
 40
6.0
 40
7.0
 40
7.0
 40
7.0
 40
7.0
 10
5.064786725129857
 20
5.761999814250026
 30
0.0
 10
5.064786725129857
 20
5.761999814250026
 30
0.0
 10
5.093382130600907
 20
5.761999814250026
 30
0.0
 10
5.102913932424624
 20
5.767957190389817
 30
0.0
 10
5.102913932424624
 20
5.767957190389817
 30
0.0
 10
5.108871308564403
 20
5.781063417897384
 30
0.0
 10
5.081467378321299
 20
5.788212269265159
 30
0.0
 10
5.081467378321299
 20
5.788212269265159
 30
0.0
 10
4.874150688656148
 20
5.85016898111913
 30
0.0
 10
4.874150688656148
 20
5.85016898111913
 30
0.0
 10
4.874150688656148
 20
5.85016898111913
 30
0.0
 10
4.86223593637654
 20
5.852551931575034
 30
0.0
 10
4.86223593637654
 20
5.870424059994447
 30
0.0
 10
4.86223593637654
 20
5.870424059994447
 30
0.0
 10
4.86223593637654
 20
6.441140694187665
 30
0.0
 10
4.86223593637654
 20
6.441140694187665
 30
0.0
 10
4.86223593637654
 20
6.441140694187665
 30
0.0
 10
4.865810362060428
 20
6.461395773062981
 30
0.0
 10
4.844363807957127
 20
6.455438396923189
 30
0.0
 10
4.844363807957127
 20
6.455438396923189
 30
0.0
 10
4.827683154765686
 20
6.451863971239302
 30
0.0
 10
4.827683154765686
 20
6.43518331804786
 30
0.0
  0
SPLINE
  5
48C
330
431
100
AcDbEntity
  8
CDTC4
 62
   250
420
  2301728
370
    18
100
AcDbSpline
210
0.0
220
0.0
230
1.0
 70
     8
 71
     3
 72
     8
 73
     4
 74
     0
 42
0.0000000001
 43
0.0000000001
 12
1.0
 22
0.0
 32
0.0
 13
1.0
 23
0.0
 33
0.0
 40
0.0
 40
0.0
 40
0.0
 40
0.0
 40
1.0
 40
1.0
 40
1.0
 40
1.0
 10
4.863538835800429
 20
5.819655682447407
 30
0.0
 10
4.902923286760774
 20
5.808858152015255
 30
0.0
 10
4.986419009086451
 20
5.78473974006911
 30
0.0
 10
5.032523380162754
 20
5.771363762907842
 30
0.0
  0
SPLINE
  5
48D
330
431
100
AcDbEntity
  8
CDTC4
 62
   250
420
  2301728
370
    18
100
AcDbSpline
210
0.0
220
0.0
230
1.0
 70
     8
 71
     3
 72
     8
 73
     4
 74
     0
 42
0.0000000001
 43
0.0000000001
 12
1.0
 22
0.0
 32
0.0
 13
1.0
 23
0.0
 33
0.0
 40
0.0
 40
0.0
 40
0.0
 40
0.0
 40
1.0
 40
1.0
 40
1.0
 40
1.0
 10
4.827683154765686
 20
5.84659455543523
 30
0.0
 10
4.827683154765686
 20
5.84659455543523
 30
0.0
 10
4.825774791109173
 20
5.825148001331942
 30
0.0
 10
4.841980857501185
 20
5.825148001331942
 30
0.0
  0
SPLINE
  5
48E
330
431
100
AcDbEntity
  8
CDTC4
 62
   250
420
  2301728
370
    18
100
AcDbSpline
210
0.0
220
0.0
230
1.0
 70
    24
 71
     3
 72
     8
 73
     4
 74
     0
 42
0.0000000001
 43
0.0000000001
 12
1.0
 22
0.0
 32
0.0
 13
1.0
 23
0.0
 33
0.0
 40
0.0
 40
0.0
 40
0.0
 40
0.0
 40
1.0
 40
1.0
 40
1.0
 40
1.0
 10
4.827683154765686
 20
6.040809683233217
 30
0.0
 10
4.827683154765686
 20
5.968278392268354
 30
0.0
 10
4.827683154765686
 20
5.904962447073823
 30
0.0
 10
4.827683154765686
 20
5.871615535222404
 30
0.0
  0
SPLINE
  5
48F
330
431
100
AcDbEntity
  8
CDTC4
 62
   250
420
  2301728
370
    18
100
AcDbSpline
210
0.0
220
0.0
230
1.0
 70
    24
 71
     3
 72
     8
 73
     4
 74
     0
 42
0.0000000001
 43
0.0000000001
 12
1.0
 22
0.0
 32
0.0
 13
1.0
 23
0.0
 33
0.0
 40
0.0
 40
0.0
 40
0.0
 40
0.0
 40
1.0
 40
1.0
 40
1.0
 40
1.0
 10
4.827683154765686
 20
6.18973942108793
 30
0.0
 10
4.827683154765686
 20
6.149029095498968
 30
0.0
 10
4.827683154765686
 20
6.107048078793051
 30
0.0
 10
4.827683154765686
 20
6.067017472607985
 30
0.0
  0
SPLINE
  5
490
330
431
100
AcDbEntity
  8
CDTC4
 62
   250
420
  2301728
370
    18
100
AcDbSpline
210
0.0
220
0.0
230
1.0
 70
    24
 71
     3
 72
     8
 73
     4
 74
     0
 42
0.0000000001
 43
0.0000000001
 12
1.0
 22
0.0
 32
0.0
 13
1.0
 23
0.0
 33
0.0
 40
0.0
 40
0.0
 40
0.0
 40
0.0
 40
1.0
 40
1.0
 40
1.0
 40
1.0
 10
4.827683154765686
 20
6.414928239172518
 30
0.0
 10
4.827683154765686
 20
6.379607085515393
 30
0.0
 10
4.827683154765686
 20
6.303003808914316
 30
0.0
 10
4.827683154765686
 20
6.217143351331035
 30
0.0
  0
SPLINE
  5
491
330
431
100
AcDbEntity
  8
CDTC4
 62
   250
420
  2301728
370
    18
100
AcDbSpline
210
0.0
220
0.0
230
1.0
 70
     8
 71
     3
 72
    26
 73
    22
 74
     0
 42
0.0000000001
 43
0.0000000001
 12
1.0
 22
0.0
 32
0.0
 13
1.0
 23
0.0
 33
0.0
 40
0.0
 40
0.0
 40
0.0
 40
0.0
 40
1.0
 40
1.0
 40
1.0
 40
2.0
 40
2.0
 40
2.0
 40
3.0
 40
3.0
 40
3.0
 40
4.0
 40
4.0
 40
4.0
 40
5.0
 40
5.0
 40
5.0
 40
6.0
 40
6.0
 40
6.0
 40
7.0
 40
7.0
 40
7.0
 40
7.0
 10
4.799878888845973
 20
5.754850962882251
 30
0.0
 10
4.799878888845973
 20
5.754850962882251
 30
0.0
 10
4.828474294317023
 20
5.754850962882251
 30
0.0
 10
4.83800609614074
 20
5.760808339022067
 30
0.0
 10
4.83800609614074
 20
5.760808339022067
 30
0.0
 10
4.843963472280519
 20
5.773914566529621
 30
0.0
 10
4.816559542037415
 20
5.781063417897384
 30
0.0
 10
4.816559542037415
 20
5.781063417897384
 30
0.0
 10
4.769300868595565
 20
5.796077818051963
 30
0.0
 10
4.769300868595565
 20
5.796077818051963
 30
0.0
 10
4.769300868595565
 20
5.796077818051963
 30
0.0
 10
4.757386116316007
 20
5.798460768447689
 30
0.0
 10
4.757386116316007
 20
5.816332896415613
 30
0.0
 10
4.757386116316007
 20
5.816332896415613
 30
0.0
 10
4.757386116316007
 20
6.396655775076511
 30
0.0
 10
4.757386116316007
 20
6.396655775076511
 30
0.0
 10
4.757386116316007
 20
6.396655775076511
 30
0.0
 10
4.760960541999844
 20
6.416910853951826
 30
0.0
 10
4.739513987896569
 20
6.410953477812048
 30
0.0
 10
4.739513987896569
 20
6.410953477812048
 30
0.0
 10
4.722833334705127
 20
6.40737905212816
 30
0.0
 10
4.722833334705127
 20
6.390698398936706
 30
0.0
  0
SPLINE
  5
492
330
431
100
AcDbEntity
  8
CDTC4
 62
   250
420
  2301728
370
    18
100
AcDbSpline
210
0.0
220
0.0
230
1.0
 70
     8
 71
     3
 72
     8
 73
     4
 74
     0
 42
0.0000000001
 43
0.0000000001
 12
1.0
 22
0.0
 32
0.0
 13
1.0
 23
0.0
 33
0.0
 40
0.0
 40
0.0
 40
0.0
 40
0.0
 40
1.0
 40
1.0
 40
1.0
 40
1.0
 10
4.722833334705127
 20
5.798861104114167
 30
0.0
 10
4.722833334705127
 20
5.798861104114167
 30
0.0
 10
4.720450384249236
 20
5.778289663566713
 30
0.0
 10
4.729982186072903
 20
5.778289663566713
 30
0.0
  0
SPLINE
  5
493
330
431
100
AcDbEntity
  8
CDTC4
 62
   250
420
  2301728
370
    18
100
AcDbSpline
210
0.0
220
0.0
230
1.0
 70
    24
 71
     3
 72
     8
 73
     4
 74
     0
 42
0.0000000001
 43
0.0000000001
 12
1.0
 22
0.0
 32
0.0
 13
1.0
 23
0.0
 33
0.0
 40
0.0
 40
0.0
 40
0.0
 40
0.0
 40
1.0
 40
1.0
 40
1.0
 40
1.0
 10
4.722833334705127
 20
5.996324765245845
 30
0.0
 10
4.722833334705127
 20
5.923793474280981
 30
0.0
 10
4.722833334705127
 20
5.860477529086463
 30
0.0
 10
4.722833334705127
 20
5.827130616111263
 30
0.0
  0
SPLINE
  5
494
330
431
100
AcDbEntity
  8
CDTC4
 62
   250
420
  2301728
370
    18
100
AcDbSpline
210
0.0
220
0.0
230
1.0
 70
    24
 71
     3
 72
     8
 73
     4
 74
     0
 42
0.0000000001
 43
0.0000000001
 12
1.0
 22
0.0
 32
0.0
 13
1.0
 23
0.0
 33
0.0
 40
0.0
 40
0.0
 40
0.0
 40
0.0
 40
1.0
 40
1.0
 40
1.0
 40
1.0
 10
4.722833334705127
 20
6.145254501976789
 30
0.0
 10
4.722833334705127
 20
6.104544176387839
 30
0.0
 10
4.722833334705127
 20
6.062563160805691
 30
0.0
 10
4.722833334705127
 20
6.022532553496831
 30
0.0
  0
SPLINE
  5
495
330
431
100
AcDbEntity
  8
CDTC4
 62
   250
420
  2301728
370
    18
100
AcDbSpline
210
0.0
220
0.0
230
1.0
 70
    24
 71
     3
 72
     8
 73
     4
 74
     0
 42
0.0000000001
 43
0.0000000001
 12
1.0
 22
0.0
 32
0.0
 13
1.0
 23
0.0
 33
0.0
 40
0.0
 40
0.0
 40
0.0
 40
0.0
 40
1.0
 40
1.0
 40
1.0
 40
1.0
 10
4.722833334705127
 20
6.370443320061376
 30
0.0
 10
4.722833334705127
 20
6.335122167528033
 30
0.0
 10
4.722833334705127
 20
6.258518890926957
 30
0.0
 10
4.722833334705127
 20
6.172658432219893
 30
0.0
  0
SPLINE
  5
496
330
431
100
AcDbEntity
  8
CDTC4
 62
   250
420
  2301728
370
    18
100
AcDbSpline
210
0.0
220
0.0
230
1.0
 70
     8
 71
     3
 72
    14
 73
    10
 74
     0
 42
0.0000000001
 43
0.0000000001
 12
1.0
 22
0.0
 32
0.0
 13
1.0
 23
0.0
 33
0.0
 40
0.0
 40
0.0
 40
0.0
 40
0.0
 40
1.0
 40
1.0
 40
1.0
 40
2.0
 40
2.0
 40
2.0
 40
3.0
 40
3.0
 40
3.0
 40
3.0
 10
4.652536296255448
 20
5.787747023468518
 30
0.0
 10
4.652536296255448
 20
5.787747023468518
 30
0.0
 10
4.652536296255448
 20
6.368065026978658
 30
0.0
 10
4.652536296255448
 20
6.368065026978658
 30
0.0
 10
4.652536296255448
 20
6.368065026978658
 30
0.0
 10
4.656110721939336
 20
6.388320105342295
 30
0.0
 10
4.634664167836036
 20
6.382362729353
 30
0.0
 10
4.634664167836036
 20
6.382362729353
 30
0.0
 10
4.617983514644593
 20
6.378788303759418
 30
0.0
 10
4.617983514644593
 20
6.36210765098935
 30
0.0
  0
SPLINE
  5
497
330
431
100
AcDbEntity
  8
CDTC4
 62
   250
420
  2301728
370
    18
100
AcDbSpline
210
0.0
220
0.0
230
1.0
 70
     8
 71
     3
 72
    14
 73
    10
 74
     0
 42
0.0000000001
 43
0.0000000001
 12
1.0
 22
0.0
 32
0.0
 13
1.0
 23
0.0
 33
0.0
 40
0.0
 40
0.0
 40
0.0
 40
0.0
 40
1.0
 40
1.0
 40
1.0
 40
2.0
 40
2.0
 40
2.0
 40
3.0
 40
3.0
 40
3.0
 40
3.0
 10
4.849129708868986
 20
5.657941133740843
 30
0.0
 10
4.849129708868986
 20
5.657941133740843
 30
0.0
 10
4.877725114340036
 20
5.657941133740843
 30
0.0
 10
4.887256916163702
 20
5.663898509880633
 30
0.0
 10
4.887256916163702
 20
5.663898509880633
 30
0.0
 10
4.893214292303532
 20
5.677004737388213
 30
0.0
 10
4.865810362060428
 20
5.684153588755976
 30
0.0
 10
4.865810362060428
 20
5.684153588755976
 30
0.0
 10
4.664451048535057
 20
5.748278692654227
 30
0.0
 10
4.664451048535057
 20
5.748278692654227
 30
0.0
  0
SPLINE
  5
498
330
431
100
AcDbEntity
  8
CDTC4
 62
   250
420
  2301728
370
    18
100
AcDbSpline
210
0.0
220
0.0
230
1.0
 70
     8
 71
     3
 72
     8
 73
     4
 74
     0
 42
0.0000000001
 43
0.0000000001
 12
1.0
 22
0.0
 32
0.0
 13
1.0
 23
0.0
 33
0.0
 40
0.0
 40
0.0
 40
0.0
 40
0.0
 40
1.0
 40
1.0
 40
1.0
 40
1.0
 10
4.682323176954443
 20
5.708383428991775
 30
0.0
 10
4.721706581427169
 20
5.697585712295929
 30
0.0
 10
4.770761998273529
 20
5.680672483567251
 30
0.0
 10
4.816866369349782
 20
5.667305085027402
 30
0.0
  0
SPLINE
  5
499
330
431
100
AcDbEntity
  8
CDTC4
 62
   250
420
  2301728
370
    18
100
AcDbSpline
210
0.0
220
0.0
230
1.0
 70
    24
 71
     3
 72
     8
 73
     4
 74
     0
 42
0.0000000001
 43
0.0000000001
 12
1.0
 22
0.0
 32
0.0
 13
1.0
 23
0.0
 33
0.0
 40
0.0
 40
0.0
 40
0.0
 40
0.0
 40
1.0
 40
1.0
 40
1.0
 40
1.0
 10
4.617983514644593
 20
5.967734224812451
 30
0.0
 10
4.617983514644593
 20
5.895202835433097
 30
0.0
 10
4.617983514644593
 20
5.889524741230186
 30
0.0
 10
4.617983514644593
 20
5.856182499293204
 30
0.0
  0
SPLINE
  5
49A
330
431
100
AcDbEntity
  8
CDTC4
 62
   250
420
  2301728
370
    18
100
AcDbSpline
210
0.0
220
0.0
230
1.0
 70
    24
 71
     3
 72
     8
 73
     4
 74
     0
 42
0.0000000001
 43
0.0000000001
 12
1.0
 22
0.0
 32
0.0
 13
1.0
 23
0.0
 33
0.0
 40
0.0
 40
0.0
 40
0.0
 40
0.0
 40
1.0
 40
1.0
 40
1.0
 40
1.0
 10
4.617983514644593
 20
6.116663760229863
 30
0.0
 10
4.617983514644593
 20
6.075953435669336
 30
0.0
 10
4.617983514644593
 20
6.033972521957796
 30
0.0
 10
4.617983514644593
 20
5.993941814850144
 30
0.0
  0
SPLINE
  5
49B
330
431
100
AcDbEntity
  8
CDTC4
 62
   250
420
  2301728
370
    18
100
AcDbSpline
210
0.0
220
0.0
230
1.0
 70
    24
 71
     3
 72
     8
 73
     4
 74
     0
 42
0.0000000001
 43
0.0000000001
 12
1.0
 22
0.0
 32
0.0
 13
1.0
 23
0.0
 33
0.0
 40
0.0
 40
0.0
 40
0.0
 40
0.0
 40
1.0
 40
1.0
 40
1.0
 40
1.0
 10
4.617983514644593
 20
6.341852572625688
 30
0.0
 10
4.617983514644593
 20
6.306531528680138
 30
0.0
 10
4.617983514644593
 20
6.229928252079061
 30
0.0
 10
4.617983514644593
 20
6.144067689780678
 30
0.0
  0
SPLINE
  5
49C
330
431
100
AcDbEntity
  8
CDTC4
 62
   250
420
  2301728
370
    18
100
AcDbSpline
210
0.0
220
0.0
230
1.0
 70
     8
 71
     3
 72
    14
 73
    10
 74
     0
 42
0.0000000001
 43
0.0000000001
 12
1.0
 22
0.0
 32
0.0
 13
1.0
 23
0.0
 33
0.0
 40
0.0
 40
0.0
 40
0.0
 40
0.0
 40
1.0
 40
1.0
 40
1.0
 40
2.0
 40
2.0
 40
2.0
 40
3.0
 40
3.0
 40
3.0
 40
3.0
 10
4.542920575283031
 20
6.032966916890801
 30
0.0
 10
4.542920575283031
 20
6.032966916890801
 30
0.0
 10
4.542920575283031
 20
6.334703721438536
 30
0.0
 10
4.542920575283031
 20
6.334703721438536
 30
0.0
 10
4.542920575283031
 20
6.334703721438536
 30
0.0
 10
4.546495000966918
 20
6.354958799802185
 30
0.0
 10
4.525048446863644
 20
6.349001423812865
 30
0.0
 10
4.525048446863644
 20
6.349001423812865
 30
0.0
 10
4.508367793672177
 20
6.345426998219282
 30
0.0
 10
4.508367793672177
 20
6.328746345449227
 30
0.0
  0
SPLINE
  5
49D
330
431
100
AcDbEntity
  8
CDTC4
 62
   250
420
  2301728
370
    18
100
AcDbSpline
210
0.0
220
0.0
230
1.0
 70
    24
 71
     3
 72
     8
 73
     4
 74
     0
 42
0.0000000001
 43
0.0000000001
 12
1.0
 22
0.0
 32
0.0
 13
1.0
 23
0.0
 33
0.0
 40
0.0
 40
0.0
 40
0.0
 40
0.0
 40
1.0
 40
1.0
 40
1.0
 40
1.0
 10
4.508367793672177
 20
6.308491267085603
 30
0.0
 10
4.508367793672177
 20
6.273170223140014
 30
0.0
 10
4.508367793672177
 20
6.196566946538963
 30
0.0
 10
4.508367793672177
 20
6.110706384240567
 30
0.0
  0
POLYLINE
  5
49E
330
431
100
AcDbEntity
  8
CDTC4
 62
   250
420
  2301728
370
    18
100
AcDb2dPolyline
 66
     1
 10
0.0
 20
0.0
 30
0.0
  0
VERTEX
  5
49F
330
49E
100
AcDbEntity
  8
CDTC4
 62
   250
420
  2301728
370
    18
100
AcDbVertex
100
AcDb2dVertex
 10
4.744279888808402
 20
5.773514230853038
 30
0.0
  0
VERTEX
  5
4A0
330
49E
100
AcDbEntity
  8
CDTC4
 62
   250
420
  2301728
370
    18
100
AcDbVertex
100
AcDb2dVertex
 10
4.783998907007698
 20
5.7592165281175
 30
0.0
  0
SEQEND
  5
4A1
330
49E
100
AcDbEntity
  8
CDTC4
 62
   250
420
  2301728
370
    18
  0
POLYLINE
  5
4A2
330
431
100
AcDbEntity
  8
CDTC4
 62
   250
420
  2301728
370
    18
100
AcDb2dPolyline
 66
     1
 10
0.0
 20
0.0
 30
0.0
  0
VERTEX
  5
4A3
330
4A2
100
AcDbEntity
  8
CDTC4
 62
   250
420
  2301728
370
    18
100
AcDbVertex
100
AcDb2dVertex
 10
4.878785905612403
 20
5.858611202336533
 30
0.0
  0
VERTEX
  5
4A4
330
4A2
100
AcDbEntity
  8
CDTC4
 62
   250
420
  2301728
370
    18
100
AcDbVertex
100
AcDb2dVertex
 10
4.896788717987369
 20
5.867245108210315
 30
0.0
  0
SEQEND
  5
4A5
330
4A2
100
AcDbEntity
  8
CDTC4
 62
   250
420
  2301728
370
    18
  0
POLYLINE
  5
4A6
330
431
100
AcDbEntity
  8
CDTC4
 62
   250
420
  2301728
370
    18
100
AcDb2dPolyline
 66
     1
 10
0.0
 20
0.0
 30
0.0
  0
VERTEX
  5
4A7
330
4A6
100
AcDbEntity
  8
CDTC4
 62
   250
420
  2301728
370
    18
100
AcDbVertex
100
AcDb2dVertex
 10
4.771218571569332
 20
5.807006028566749
 30
0.0
  0
VERTEX
  5
4A8
330
4A6
100
AcDbEntity
  8
CDTC4
 62
   250
420
  2301728
370
    18
100
AcDbVertex
100
AcDb2dVertex
 10
4.81281726003739
 20
5.82696276154085
 30
0.0
  0
SEQEND
  5
4A9
330
4A6
100
AcDbEntity
  8
CDTC4
 62
   250
420
  2301728
370
    18
  0
POLYLINE
  5
4AA
330
431
100
AcDbEntity
  8
CDTC4
 62
   250
420
  2301728
370
    18
100
AcDb2dPolyline
 66
     1
 10
0.0
 20
0.0
 30
0.0
  0
VERTEX
  5
4AB
330
4AA
100
AcDbEntity
  8
CDTC4
 62
   250
420
  2301728
370
    18
100
AcDbVertex
100
AcDb2dVertex
 10
4.661667762402557
 20
5.754450627205655
 30
0.0
  0
VERTEX
  5
4AC
330
4AA
100
AcDbEntity
  8
CDTC4
 62
   250
420
  2301728
370
    18
100
AcDbVertex
100
AcDb2dVertex
 10
4.707800636097848
 20
5.776586236995109
 30
0.0
  0
SEQEND
  5
4AD
330
4AA
100
AcDbEntity
  8
CDTC4
 62
   250
420
  2301728
370
    18
  0
ENDBLK
  5
434
330
431
100
AcDbEntity
  8
0
100
AcDbBlockEnd
  0
BLOCK
  5
4B6
330
4B4
100
AcDbEntity
  8
0
100
AcDbBlockBegin
  2
block 4
 70
     0
 10
0.0
 20
0.0
 30
0.0
  3
block 4
  1

  0
POLYLINE
  5
4B8
330
4B4
100
AcDbEntity
  8
callout
370
     0
100
AcDb2dPolyline
 66
     1
 10
0.0
 20
0.0
 30
0.0
  0
VERTEX
  5
4B9
330
4B8
100
AcDbEntity
  8
callout
370
     0
100
AcDbVertex
100
AcDb2dVertex
 10
5.314027982670596
 20
5.911208636651091
 30
0.0
  0
VERTEX
  5
4BA
330
4B8
100
AcDbEntity
  8
callout
370
     0
100
AcDbVertex
100
AcDb2dVertex
 10
5.466257526210559
 20
6.033935347931636
 30
0.0
  0
VERTEX
  5
4BB
330
4B8
100
AcDbEntity
  8
callout
370
     0
100
AcDbVertex
100
AcDb2dVertex
 10
5.469720429725586
 20
5.986778764856189
 30
0.0
  0
VERTEX
  5
4BC
330
4B8
100
AcDbEntity
  8
callout
370
     0
100
AcDbVertex
100
AcDb2dVertex
 10
6.050658000338595
 20
6.216566572620157
 30
0.0
  0
VERTEX
  5
4BD
330
4B8
100
AcDbEntity
  8
callout
370
     0
100
AcDbVertex
100
AcDb2dVertex
 10
6.047185565021967
 20
6.263727067311846
 30
0.0
  0
VERTEX
  5
4BE
330
4B8
100
AcDbEntity
  8
callout
370
     0
100
AcDbVertex
100
AcDb2dVertex
 10
6.191810637259045
 20
6.249466538963676
 30
0.0
  0
VERTEX
  5
4BF
330
4B8
100
AcDbEntity
  8
callout
370
     0
100
AcDbVertex
100
AcDb2dVertex
 10
6.055870942624324
 20
6.144244981290121
 30
0.0
  0
VERTEX
  5
4C0
330
4B8
100
AcDbEntity
  8
callout
370
     0
100
AcDbVertex
100
AcDb2dVertex
 10
6.052426149532266
 20
6.191377833757214
 30
0.0
  0
VERTEX
  5
4C1
330
4B8
100
AcDbEntity
  8
callout
370
     0
100
AcDbVertex
100
AcDb2dVertex
 10
5.47303463713595
 20
5.958765654288627
 30
0.0
  0
VERTEX
  5
4C2
330
4B8
100
AcDbEntity
  8
callout
370
     0
100
AcDbVertex
100
AcDb2dVertex
 10
5.476189663459889
 20
5.915648549828423
 30
0.0
  0
VERTEX
  5
4C3
330
4B8
100
AcDbEntity
  8
callout
370
     0
100
AcDbVertex
100
AcDb2dVertex
 10
5.314027982670596
 20
5.911208636651091
 30
0.0
  0
SEQEND
  5
4C5
330
4B8
100
AcDbEntity
  8
callout
370
     0
  0
HATCH
  5
4C4
330
4B4
100
AcDbEntity
  8
callout
 62
     7
420
 16777215
100
AcDbHatch
 10
0.0
 20
0.0
 30
0.0
210
0.0
220
0.0
230
1.0
  2
SOLID
 70
     1
 71
     0
 91
        1
 92
        1
 93
       10
 72
     1
 10
5.314027982670596
 20
5.911208636651091
 11
5.466257526210559
 21
6.033935347931636
 72
     1
 10
5.466257526210559
 20
6.033935347931636
 11
5.469720429725586
 21
5.986778764856189
 72
     1
 10
5.469720429725586
 20
5.986778764856189
 11
6.050658000338595
 21
6.216566572620157
 72
     1
 10
6.050658000338595
 20
6.216566572620157
 11
6.047185565021967
 21
6.263727067311846
 72
     1
 10
6.047185565021967
 20
6.263727067311846
 11
6.191810637259045
 21
6.249466538963676
 72
     1
 10
6.191810637259045
 20
6.249466538963676
 11
6.055870942624324
 21
6.144244981290121
 72
     1
 10
6.055870942624324
 20
6.144244981290121
 11
6.052426149532266
 21
6.191377833757214
 72
     1
 10
6.052426149532266
 20
6.191377833757214
 11
5.47303463713595
 21
5.958765654288627
 72
     1
 10
5.47303463713595
 20
5.958765654288627
 11
5.476189663459889
 21
5.915648549828423
 72
     1
 10
5.476189663459889
 20
5.915648549828423
 11
5.314027982670596
 21
5.911208636651091
 97
        0
 75
     2
 76
     1
 98
        0
  0
POLYLINE
  5
4C6
330
4B4
100
AcDbEntity
  8
callout
370
     0
100
AcDb2dPolyline
 66
     1
 10
0.0
 20
0.0
 30
0.0
  0
VERTEX
  5
4C7
330
4C6
100
AcDbEntity
  8
callout
370
     0
100
AcDbVertex
100
AcDb2dVertex
 10
5.643247830722303
 20
6.185364324050864
 30
0.0
  0
VERTEX
  5
4C8
330
4C6
100
AcDbEntity
  8
callout
370
     0
100
AcDbVertex
100
AcDb2dVertex
 10
5.643257362523905
 20
6.363517404443478
 30
0.0
  0
VERTEX
  5
4C9
330
4C6
100
AcDbEntity
  8
callout
370
     0
100
AcDbVertex
100
AcDb2dVertex
 10
5.723840166285805
 20
6.394030607670616
 30
0.0
  0
VERTEX
  5
4CA
330
4C6
100
AcDbEntity
  8
callout
370
     0
100
AcDbVertex
100
AcDb2dVertex
 10
5.723840166285805
 20
6.376214717332029
 30
0.0
  0
VERTEX
  5
4CB
330
4C6
100
AcDbEntity
  8
callout
370
     0
100
AcDbVertex
100
AcDb2dVertex
 10
5.662255196258735
 20
6.352897071119805
 30
0.0
  0
VERTEX
  5
4CC
330
4C6
100
AcDbEntity
  8
callout
370
     0
100
AcDbVertex
100
AcDb2dVertex
 10
5.662255196258735
 20
6.294463314696044
 30
0.0
  0
VERTEX
  5
4CD
330
4C6
100
AcDbEntity
  8
callout
370
     0
100
AcDbVertex
100
AcDb2dVertex
 10
5.7194831797823
 20
6.316129099693954
 30
0.0
  0
VERTEX
  5
4CE
330
4C6
100
AcDbEntity
  8
callout
370
     0
100
AcDbVertex
100
AcDb2dVertex
 10
5.7194831797823
 20
6.29831702207601
 30
0.0
  0
VERTEX
  5
4CF
330
4C6
100
AcDbEntity
  8
callout
370
     0
100
AcDbVertex
100
AcDb2dVertex
 10
5.662255196258735
 20
6.276647424357456
 30
0.0
  0
VERTEX
  5
4D0
330
4C6
100
AcDbEntity
  8
callout
370
     0
100
AcDbVertex
100
AcDb2dVertex
 10
5.66223708583574
 20
6.192559777153494
 30
0.0
  0
VERTEX
  5
4D1
330
4C6
100
AcDbEntity
  8
callout
370
     0
100
AcDbVertex
100
AcDb2dVertex
 10
5.643247830722303
 20
6.185364324050864
 30
0.0
  0
SEQEND
  5
4D2
330
4C6
100
AcDbEntity
  8
callout
370
     0
  0
HATCH
  5
4D3
330
4B4
100
AcDbEntity
  8
callout
 62
     7
420
 16777215
100
AcDbHatch
 10
0.0
 20
0.0
 30
0.0
210
0.0
220
0.0
230
1.0
  2
SOLID
 70
     1
 71
     0
 91
        1
 92
        1
 93
       10
 72
     1
 10
5.643247830722303
 20
6.185364324050864
 11
5.643257362523905
 21
6.363517404443478
 72
     1
 10
5.643257362523905
 20
6.363517404443478
 11
5.723840166285805
 21
6.394030607670616
 72
     1
 10
5.723840166285805
 20
6.394030607670616
 11
5.723840166285805
 21
6.376214717332029
 72
     1
 10
5.723840166285805
 20
6.376214717332029
 11
5.662255196258735
 21
6.352897071119805
 72
     1
 10
5.662255196258735
 20
6.352897071119805
 11
5.662255196258735
 21
6.294463314696044
 72
     1
 10
5.662255196258735
 20
6.294463314696044
 11
5.7194831797823
 21
6.316129099693954
 72
     1
 10
5.7194831797823
 20
6.316129099693954
 11
5.7194831797823
 21
6.29831702207601
 72
     1
 10
5.7194831797823
 20
6.29831702207601
 11
5.662255196258735
 21
6.276647424357456
 72
     1
 10
5.662255196258735
 20
6.276647424357456
 11
5.66223708583574
 21
6.192559777153494
 72
     1
 10
5.66223708583574
 20
6.192559777153494
 11
5.643247830722303
 21
6.185364324050864
 97
        0
 75
     2
 76
     1
 98
        0
  0
SPLINE
  5
4D4
330
4B4
100
AcDbEntity
  8
callout
370
     0
100
AcDbSpline
210
0.0
220
0.0
230
1.0
 70
    11
 71
     3
 72
    56
 73
    52
 74
     0
 42
0.0000000001
 43
0.0000000001
 12
1.0
 22
0.0
 32
0.0
 13
1.0
 23
0.0
 33
0.0
 40
0.0
 40
0.0
 40
0.0
 40
0.0
 40
1.0
 40
1.0
 40
1.0
 40
2.0
 40
2.0
 40
2.0
 40
3.0
 40
3.0
 40
3.0
 40
4.0
 40
4.0
 40
4.0
 40
5.0
 40
5.0
 40
5.0
 40
6.0
 40
6.0
 40
6.0
 40
7.0
 40
7.0
 40
7.0
 40
8.0
 40
8.0
 40
8.0
 40
9.0
 40
9.0
 40
9.0
 40
10.0
 40
10.0
 40
10.0
 40
11.0
 40
11.0
 40
11.0
 40
12.0
 40
12.0
 40
12.0
 40
13.0
 40
13.0
 40
13.0
 40
14.0
 40
14.0
 40
14.0
 40
15.0
 40
15.0
 40
15.0
 40
16.0
 40
16.0
 40
16.0
 40
17.0
 40
17.0
 40
17.0
 40
17.0
 10
5.771424826147975
 20
6.210194667801564
 30
0.0
 10
5.764005271795845
 20
6.200541707799011
 30
0.0
 10
5.760710127988633
 20
6.192880998866839
 30
0.0
 10
5.760291681899111
 20
6.182679111632662
 30
0.0
 10
5.760291681899111
 20
6.182679111632662
 30
0.0
 10
5.82559977362449
 20
6.207406511299003
 30
0.0
 10
5.82559977362449
 20
6.207406511299003
 30
0.0
 10
5.82559977362449
 20
6.207406511299003
 30
0.0
 10
5.82559977362449
 20
6.191368301955625
 30
0.0
 10
5.82559977362449
 20
6.191368301955625
 30
0.0
 10
5.82559977362449
 20
6.191368301955625
 30
0.0
 10
5.742568250035876
 20
6.159938139416213
 30
0.0
 10
5.742568250035876
 20
6.159938139416213
 30
0.0
 10
5.742773183769915
 20
6.171560265086214
 30
0.0
 10
5.744225830331161
 20
6.183865820929744
 30
0.0
 10
5.748749623362401
 20
6.196911044576116
 30
0.0
 10
5.751020098499465
 20
6.203329759762002
 30
0.0
 10
5.756381736889807
 20
6.211344098532903
 30
0.0
 10
5.760906483101254
 20
6.21754368700763
 30
0.0
 10
5.760906483101254
 20
6.21754368700763
 30
0.0
 10
5.790376075354313
 20
6.258202435114399
 30
0.0
 10
5.790376075354313
 20
6.258202435114399
 30
0.0
 10
5.802328954841212
 20
6.274697217753593
 30
0.0
 10
5.806442758803162
 20
6.282674488868881
 30
0.0
 10
5.806452290604764
 20
6.300202412429093
 30
0.0
 10
5.806452290604764
 20
6.316450321407299
 30
0.0
 10
5.801099352405976
 20
6.326395803178886
 30
0.0
 10
5.783590264508171
 20
6.319763575637516
 30
0.0
 10
5.762367708283894
 20
6.311730173263463
 30
0.0
 10
5.760506147434726
 20
6.289437195721385
 30
0.0
 10
5.760915061722648
 20
6.272705071222768
 30
0.0
 10
5.760915061722648
 20
6.272705071222768
 30
0.0
 10
5.743825494664709
 20
6.266226305686877
 30
0.0
 10
5.743825494664709
 20
6.266226305686877
 30
0.0
 10
5.743825494664709
 20
6.266226305686877
 30
0.0
 10
5.743825494664709
 20
6.27606121856013
 30
0.0
 10
5.743825494664709
 20
6.27606121856013
 30
0.0
 10
5.743825494664709
 20
6.287821661853664
 30
0.0
 10
5.746701359398204
 20
6.300029886820438
 30
0.0
 10
5.753719504707735
 20
6.311875056647509
 30
0.0
 10
5.758448231473014
 20
6.318800017780644
 30
0.0
 10
5.767105013670567
 20
6.329556548583796
 30
0.0
 10
5.784418699214535
 20
6.33610976989246
 30
0.0
 10
5.810789260324984
 20
6.346097083870568
 30
0.0
 10
5.824174769287841
 20
6.332990856694096
 30
0.0
 10
5.824174769287841
 20
6.30648492982444
 30
0.0
 10
5.824174769287841
 20
6.282972727887858
 30
0.0
 10
5.815099541000765
 20
6.267990642159879
 30
0.0
 10
5.799229091365254
 20
6.247018772317195
 30
0.0
 10
5.799229091365254
 20
6.247018772317195
 30
0.0
 10
5.771424826147975
 20
6.210194667801564
 30
0.0
 10
5.771424826147975
 20
6.210194667801564
 30
0.0
  0
HATCH
  5
4D5
330
4B4
100
AcDbEntity
  8
callout
 62
     7
420
 16777215
100
AcDbHatch
 10
0.0
 20
0.0
 30
0.0
210
0.0
220
0.0
230
1.0
  2
SOLID
 70
     1
 71
     0
 91
        1
 92
        1
 93
        1
 72
     4
 94
        3
 73
     0
 74
     1
 95
       56
 96
       52
 40
0.0
 40
0.0
 40
0.0
 40
0.0
 40
1.0
 40
1.0
 40
1.0
 40
2.0
 40
2.0
 40
2.0
 40
3.0
 40
3.0
 40
3.0
 40
4.0
 40
4.0
 40
4.0
 40
5.0
 40
5.0
 40
5.0
 40
6.0
 40
6.0
 40
6.0
 40
7.0
 40
7.0
 40
7.0
 40
8.0
 40
8.0
 40
8.0
 40
9.0
 40
9.0
 40
9.0
 40
10.0
 40
10.0
 40
10.0
 40
11.0
 40
11.0
 40
11.0
 40
12.0
 40
12.0
 40
12.0
 40
13.0
 40
13.0
 40
13.0
 40
14.0
 40
14.0
 40
14.0
 40
15.0
 40
15.0
 40
15.0
 40
16.0
 40
16.0
 40
16.0
 40
17.0
 40
17.0
 40
17.0
 40
17.0
 10
5.771424826147975
 20
6.210194667801564
 10
5.764005271795845
 20
6.200541707799011
 10
5.760710127988633
 20
6.192880998866839
 10
5.760291681899111
 20
6.182679111632662
 10
5.760291681899111
 20
6.182679111632662
 10
5.82559977362449
 20
6.207406511299003
 10
5.82559977362449
 20
6.207406511299003
 10
5.82559977362449
 20
6.207406511299003
 10
5.82559977362449
 20
6.191368301955625
 10
5.82559977362449
 20
6.191368301955625
 10
5.82559977362449
 20
6.191368301955625
 10
5.742568250035876
 20
6.159938139416213
 10
5.742568250035876
 20
6.159938139416213
 10
5.742773183769915
 20
6.171560265086214
 10
5.744225830331161
 20
6.183865820929744
 10
5.748749623362401
 20
6.196911044576116
 10
5.751020098499465
 20
6.203329759762002
 10
5.756381736889807
 20
6.211344098532903
 10
5.760906483101254
 20
6.21754368700763
 10
5.760906483101254
 20
6.21754368700763
 10
5.790376075354313
 20
6.258202435114399
 10
5.790376075354313
 20
6.258202435114399
 10
5.802328954841212
 20
6.274697217753593
 10
5.806442758803162
 20
6.282674488868881
 10
5.806452290604764
 20
6.300202412429093
 10
5.806452290604764
 20
6.316450321407299
 10
5.801099352405976
 20
6.326395803178886
 10
5.783590264508171
 20
6.319763575637516
 10
5.762367708283894
 20
6.311730173263463
 10
5.760506147434726
 20
6.289437195721385
 10
5.760915061722648
 20
6.272705071222768
 10
5.760915061722648
 20
6.272705071222768
 10
5.743825494664709
 20
6.266226305686877
 10
5.743825494664709
 20
6.266226305686877
 10
5.743825494664709
 20
6.266226305686877
 10
5.743825494664709
 20
6.27606121856013
 10
5.743825494664709
 20
6.27606121856013
 10
5.743825494664709
 20
6.287821661853664
 10
5.746701359398204
 20
6.300029886820438
 10
5.753719504707735
 20
6.311875056647509
 10
5.758448231473014
 20
6.318800017780644
 10
5.767105013670567
 20
6.329556548583796
 10
5.784418699214535
 20
6.33610976989246
 10
5.810789260324984
 20
6.346097083870568
 10
5.824174769287841
 20
6.332990856694096
 10
5.824174769287841
 20
6.30648492982444
 10
5.824174769287841
 20
6.282972727887858
 10
5.815099541000765
 20
6.267990642159879
 10
5.799229091365254
 20
6.247018772317195
 10
5.799229091365254
 20
6.247018772317195
 10
5.771424826147975
 20
6.210194667801564
 10
5.771424826147975
 20
6.210194667801564
 97
        0
 97
        0
 75
     2
 76
     1
 98
        0
  0
ENDBLK
  5
4B7
330
4B4
100
AcDbEntity
  8
0
100
AcDbBlockEnd
  0
BLOCK
  5
4D8
330
4D6
100
AcDbEntity
  8
0
100
AcDbBlockBegin
  2
block 5
 70
     0
 10
0.0
 20
0.0
 30
0.0
  3
block 5
  1

  0
POLYLINE
  5
4DA
330
4D6
100
AcDbEntity
  8
callout
370
     0
100
AcDb2dPolyline
 66
     1
 10
0.0
 20
0.0
 30
0.0
  0
VERTEX
  5
4DB
330
4DA
100
AcDbEntity
  8
callout
370
     0
100
AcDbVertex
100
AcDb2dVertex
 10
5.398018516885915
 20
7.133639313333257
 30
0.0
  0
VERTEX
  5
4DC
330
4DA
100
AcDbEntity
  8
callout
370
     0
100
AcDbVertex
100
AcDb2dVertex
 10
5.399060231411466
 20
7.313821818195164
 30
0.0
  0
VERTEX
  5
4DD
330
4DA
100
AcDbEntity
  8
callout
370
     0
100
AcDbVertex
100
AcDb2dVertex
 10
5.484930325511439
 20
7.302824025528821
 30
0.0
  0
VERTEX
  5
4DE
330
4DA
100
AcDbEntity
  8
callout
370
     0
100
AcDbVertex
100
AcDb2dVertex
 10
5.484828335234497
 20
7.284807014176837
 30
0.0
  0
VERTEX
  5
4DF
330
4DA
100
AcDbEntity
  8
callout
370
     0
100
AcDbVertex
100
AcDb2dVertex
 10
5.419203787696587
 20
7.293213109992798
 30
0.0
  0
VERTEX
  5
4E0
330
4DA
100
AcDbEntity
  8
callout
370
     0
100
AcDbVertex
100
AcDb2dVertex
 10
5.418869221461009
 20
7.234104502016938
 30
0.0
  0
VERTEX
  5
4E1
330
4DA
100
AcDbEntity
  8
callout
370
     0
100
AcDbVertex
100
AcDb2dVertex
 10
5.479857500709007
 20
7.226299862880889
 30
0.0
  0
VERTEX
  5
4E2
330
4DA
100
AcDbEntity
  8
callout
370
     0
100
AcDbVertex
100
AcDb2dVertex
 10
5.479755510432065
 20
7.208278085628105
 30
0.0
  0
VERTEX
  5
4E3
330
4DA
100
AcDbEntity
  8
callout
370
     0
100
AcDbVertex
100
AcDb2dVertex
 10
5.418756746202335
 20
7.216088443845138
 30
0.0
  0
VERTEX
  5
4E4
330
4DA
100
AcDbEntity
  8
callout
370
     0
100
AcDbVertex
100
AcDb2dVertex
 10
5.41827359576127
 20
7.131041897401929
 30
0.0
  0
VERTEX
  5
4E5
330
4DA
100
AcDbEntity
  8
callout
370
     0
100
AcDbVertex
100
AcDb2dVertex
 10
5.398018516885915
 20
7.133639313333257
 30
0.0
  0
SEQEND
  5
4E6
330
4DA
100
AcDbEntity
  8
callout
370
     0
  0
HATCH
  5
4E7
330
4D6
100
AcDbEntity
  8
callout
 62
     7
420
 16777215
100
AcDbHatch
 10
0.0
 20
0.0
 30
0.0
210
0.0
220
0.0
230
1.0
  2
SOLID
 70
     1
 71
     0
 91
        1
 92
        1
 93
       10
 72
     1
 10
5.398018516885915
 20
7.133639313333257
 11
5.399060231411466
 21
7.313821818195164
 72
     1
 10
5.399060231411466
 20
7.313821818195164
 11
5.484930325511439
 21
7.302824025528821
 72
     1
 10
5.484930325511439
 20
7.302824025528821
 11
5.484828335234497
 21
7.284807014176837
 72
     1
 10
5.484828335234497
 20
7.284807014176837
 11
5.419203787696587
 21
7.293213109992798
 72
     1
 10
5.419203787696587
 20
7.293213109992798
 11
5.418869221461009
 21
7.234104502016938
 72
     1
 10
5.418869221461009
 20
7.234104502016938
 11
5.479857500709007
 21
7.226299862880889
 72
     1
 10
5.479857500709007
 20
7.226299862880889
 11
5.479755510432065
 21
7.208278085628105
 72
     1
 10
5.479755510432065
 20
7.208278085628105
 11
5.418756746202335
 21
7.216088443845138
 72
     1
 10
5.418756746202335
 20
7.216088443845138
 11
5.41827359576127
 21
7.131041897401929
 72
     1
 10
5.41827359576127
 20
7.131041897401929
 11
5.398018516885915
 21
7.133639313333257
 97
        0
 75
     2
 76
     1
 98
        0
  0
SPLINE
  5
4E8
330
4D6
100
AcDbEntity
  8
callout
370
     0
100
AcDbSpline
210
0.0
220
0.0
230
1.0
 70
    11
 71
     3
 72
    26
 73
    22
 74
     0
 42
0.0000000001
 43
0.0000000001
 12
1.0
 22
0.0
 32
0.0
 13
1.0
 23
0.0
 33
0.0
 40
0.0
 40
0.0
 40
0.0
 40
0.0
 40
1.0
 40
1.0
 40
1.0
 40
2.0
 40
2.0
 40
2.0
 40
3.0
 40
3.0
 40
3.0
 40
4.0
 40
4.0
 40
4.0
 40
5.0
 40
5.0
 40
5.0
 40
6.0
 40
6.0
 40
6.0
 40
7.0
 40
7.0
 40
7.0
 40
7.0
 10
5.532059365257888
 20
7.174493568097709
 30
0.0
 10
5.532059365257888
 20
7.174493568097709
 30
0.0
 10
5.498129964343408
 20
7.178841022799664
 30
0.0
 10
5.498129964343408
 20
7.178841022799664
 30
0.0
 10
5.498129964343408
 20
7.178841022799664
 30
0.0
 10
5.498194780594177
 20
7.192421933694972
 30
0.0
 10
5.498194780594177
 20
7.192421933694972
 30
0.0
 10
5.520898578784479
 20
7.189931273941359
 30
0.0
 10
5.533446357196882
 20
7.192504860368747
 30
0.0
 10
5.536126584993326
 20
7.21662317791394
 30
0.0
 10
5.536126584993326
 20
7.21662317791394
 30
0.0
 10
5.549921961424186
 20
7.214859794621108
 30
0.0
 10
5.549921961424186
 20
7.214859794621108
 30
0.0
 10
5.549921961424186
 20
7.214859794621108
 30
0.0
 10
5.549019299814341
 20
7.058176040201513
 30
0.0
 10
5.549019299814341
 20
7.058176040201513
 30
0.0
 10
5.549019299814341
 20
7.058176040201513
 30
0.0
 10
5.531397858227996
 20
7.060428404915556
 30
0.0
 10
5.531397858227996
 20
7.060428404915556
 30
0.0
 10
5.531397858227996
 20
7.060428404915556
 30
0.0
 10
5.532059365257888
 20
7.174493568097709
 30
0.0
 10
5.532059365257888
 20
7.174493568097709
 30
0.0
  0
HATCH
  5
4E9
330
4D6
100
AcDbEntity
  8
callout
 62
     7
420
 16777215
100
AcDbHatch
 10
0.0
 20
0.0
 30
0.0
210
0.0
220
0.0
230
1.0
  2
SOLID
 70
     1
 71
     0
 91
        1
 92
        1
 93
        1
 72
     4
 94
        3
 73
     0
 74
     1
 95
       26
 96
       22
 40
0.0
 40
0.0
 40
0.0
 40
0.0
 40
1.0
 40
1.0
 40
1.0
 40
2.0
 40
2.0
 40
2.0
 40
3.0
 40
3.0
 40
3.0
 40
4.0
 40
4.0
 40
4.0
 40
5.0
 40
5.0
 40
5.0
 40
6.0
 40
6.0
 40
6.0
 40
7.0
 40
7.0
 40
7.0
 40
7.0
 10
5.532059365257888
 20
7.174493568097709
 10
5.532059365257888
 20
7.174493568097709
 10
5.498129964343408
 20
7.178841022799664
 10
5.498129964343408
 20
7.178841022799664
 10
5.498129964343408
 20
7.178841022799664
 10
5.498194780594177
 20
7.192421933694972
 10
5.498194780594177
 20
7.192421933694972
 10
5.520898578784479
 20
7.189931273941359
 10
5.533446357196882
 20
7.192504860368747
 10
5.536126584993326
 20
7.21662317791394
 10
5.536126584993326
 20
7.21662317791394
 10
5.549921961424186
 20
7.214859794621108
 10
5.549921961424186
 20
7.214859794621108
 10
5.549921961424186
 20
7.214859794621108
 10
5.549019299814341
 20
7.058176040201513
 10
5.549019299814341
 20
7.058176040201513
 10
5.549019299814341
 20
7.058176040201513
 10
5.531397858227996
 20
7.060428404915556
 10
5.531397858227996
 20
7.060428404915556
 10
5.531397858227996
 20
7.060428404915556
 10
5.532059365257888
 20
7.174493568097709
 10
5.532059365257888
 20
7.174493568097709
 97
        0
 97
        0
 75
     2
 76
     1
 98
        0
  0
POLYLINE
  5
4EA
330
4D6
100
AcDbEntity
  8
callout
370
     0
100
AcDb2dPolyline
 66
     1
 10
0.0
 20
0.0
 30
0.0
  0
VERTEX
  5
4EB
330
4EA
100
AcDbEntity
  8
callout
370
     0
100
AcDbVertex
100
AcDb2dVertex
 10
5.080732373028543
 20
7.095879081362644
 30
0.0
  0
VERTEX
  5
4EC
330
4EA
100
AcDbEntity
  8
callout
370
     0
100
AcDbVertex
100
AcDb2dVertex
 10
5.084762418737783
 20
7.127457940006757
 30
0.0
  0
VERTEX
  5
4ED
330
4EA
100
AcDbEntity
  8
callout
370
     0
100
AcDbVertex
100
AcDb2dVertex
 10
5.764182683942813
 20
6.966581269718366
 30
0.0
  0
VERTEX
  5
4EE
330
4EA
100
AcDbEntity
  8
callout
370
     0
100
AcDbVertex
100
AcDb2dVertex
 10
5.767300415603055
 20
7.03209798425088
 30
0.0
  0
VERTEX
  5
4EF
330
4EA
100
AcDbEntity
  8
callout
370
     0
100
AcDbVertex
100
AcDb2dVertex
 10
5.947669869048796
 20
6.907007508320324
 30
0.0
  0
VERTEX
  5
4F0
330
4EA
100
AcDbEntity
  8
callout
370
     0
100
AcDbVertex
100
AcDb2dVertex
 10
5.756233161221871
 20
6.877616075996936
 30
0.0
  0
VERTEX
  5
4F1
330
4EA
100
AcDbEntity
  8
callout
370
     0
100
AcDbVertex
100
AcDb2dVertex
 10
5.759416783030979
 20
6.941159954254594
 30
0.0
  0
VERTEX
  5
4F2
330
4EA
100
AcDbEntity
  8
callout
370
     0
100
AcDbVertex
100
AcDb2dVertex
 10
5.080732373028543
 20
7.095879081362644
 30
0.0
  0
SEQEND
  5
4F4
330
4EA
100
AcDbEntity
  8
callout
370
     0
  0
HATCH
  5
4F3
330
4D6
100
AcDbEntity
  8
callout
 62
     7
420
 16777215
100
AcDbHatch
 10
0.0
 20
0.0
 30
0.0
210
0.0
220
0.0
230
1.0
  2
SOLID
 70
     1
 71
     0
 91
        1
 92
        1
 93
        7
 72
     1
 10
5.080732373028543
 20
7.095879081362644
 11
5.084762418737783
 21
7.127457940006757
 72
     1
 10
5.084762418737783
 20
7.127457940006757
 11
5.764182683942813
 21
6.966581269718366
 72
     1
 10
5.764182683942813
 20
6.966581269718366
 11
5.767300415603055
 21
7.03209798425088
 72
     1
 10
5.767300415603055
 20
7.03209798425088
 11
5.947669869048796
 21
6.907007508320324
 72
     1
 10
5.947669869048796
 20
6.907007508320324
 11
5.756233161221871
 21
6.877616075996936
 72
     1
 10
5.756233161221871
 20
6.877616075996936
 11
5.759416783030979
 21
6.941159954254594
 72
     1
 10
5.759416783030979
 20
6.941159954254594
 11
5.080732373028543
 21
7.095879081362644
 97
        0
 75
     2
 76
     1
 98
        0
  0
ENDBLK
  5
4D9
330
4D6
100
AcDbEntity
  8
0
100
AcDbBlockEnd
  0
BLOCK
  5
4FB
330
4F9
100
AcDbEntity
  8
0
100
AcDbBlockBegin
  2
block 6
 70
     0
 10
0.0
 20
0.0
 30
0.0
  3
block 6
  1

  0
POLYLINE
  5
4FD
330
4F9
100
AcDbEntity
  8
callout
 62
   250
420
  2301728
370
    18
100
AcDb2dPolyline
 66
     1
 10
0.0
 20
0.0
 30
0.0
  0
VERTEX
  5
4FE
330
4FD
100
AcDbEntity
  8
callout
 62
   250
420
  2301728
370
    18
100
AcDbVertex
100
AcDb2dVertex
 10
3.300211912519962
 20
5.066410781440254
 30
0.0
  0
VERTEX
  5
4FF
330
4FD
100
AcDbEntity
  8
callout
 62
   250
420
  2301728
370
    18
100
AcDbVertex
100
AcDb2dVertex
 10
3.300211912519962
 20
4.823349841076505
 30
0.0
  0
SEQEND
  5
500
330
4FD
100
AcDbEntity
  8
callout
 62
   250
420
  2301728
370
    18
  0
POLYLINE
  5
501
330
4F9
100
AcDbEntity
  8
callout
370
     0
100
AcDb2dPolyline
 66
     1
 10
0.0
 20
0.0
 30
0.0
  0
VERTEX
  5
502
330
501
100
AcDbEntity
  8
callout
370
     0
100
AcDbVertex
100
AcDb2dVertex
 10
3.257328336115203
 20
4.947263261654117
 30
0.0
  0
VERTEX
  5
503
330
501
100
AcDbEntity
  8
callout
370
     0
100
AcDbVertex
100
AcDb2dVertex
 10
3.298303587450619
 20
5.114069789354744
 30
0.0
  0
VERTEX
  5
504
330
501
100
AcDbEntity
  8
callout
370
     0
100
AcDbVertex
100
AcDb2dVertex
 10
3.339772643417152
 20
4.991096278155737
 30
0.0
  0
VERTEX
  5
505
330
501
100
AcDbEntity
  8
callout
370
     0
100
AcDbVertex
100
AcDb2dVertex
 10
3.257328336115203
 20
4.947263261654117
 30
0.0
  0
SEQEND
  5
507
330
501
100
AcDbEntity
  8
callout
370
     0
  0
HATCH
  5
506
330
4F9
100
AcDbEntity
  8
callout
 62
   250
420
  2301728
100
AcDbHatch
 10
0.0
 20
0.0
 30
0.0
210
0.0
220
0.0
230
1.0
  2
SOLID
 70
     1
 71
     0
 91
        1
 92
        1
 93
        3
 72
     1
 10
3.257328336115203
 20
4.947263261654117
 11
3.298303587450619
 21
5.114069789354744
 72
     1
 10
3.298303587450619
 20
5.114069789354744
 11
3.339772643417152
 21
4.991096278155737
 72
     1
 10
3.339772643417152
 20
4.991096278155737
 11
3.257328336115203
 21
4.947263261654117
 97
        0
 75
     2
 76
     1
 98
        0
  0
ENDBLK
  5
4FC
330
4F9
100
AcDbEntity
  8
0
100
AcDbBlockEnd
  0
BLOCK
  5
50F
330
50D
100
AcDbEntity
  8
0
100
AcDbBlockBegin
  2
block 7
 70
     0
 10
0.0
 20
0.0
 30
0.0
  3
block 7
  1

  0
POLYLINE
  5
511
330
50D
100
AcDbEntity
  8
callout
 62
   250
420
  2301728
370
    18
100
AcDb2dPolyline
 66
     1
 10
0.0
 20
0.0
 30
0.0
  0
VERTEX
  5
512
330
511
100
AcDbEntity
  8
callout
 62
   250
420
  2301728
370
    18
100
AcDbVertex
100
AcDb2dVertex
 10
3.296889068095727
 20
5.383343184071438
 30
0.0
  0
VERTEX
  5
513
330
511
100
AcDbEntity
  8
callout
 62
   250
420
  2301728
370
    18
100
AcDbVertex
100
AcDb2dVertex
 10
3.296889068095727
 20
5.626404124435212
 30
0.0
  0
SEQEND
  5
514
330
511
100
AcDbEntity
  8
callout
 62
   250
420
  2301728
370
    18
  0
POLYLINE
  5
515
330
50D
100
AcDbEntity
  8
callout
370
     0
100
AcDb2dPolyline
 66
     1
 10
0.0
 20
0.0
 30
0.0
  0
VERTEX
  5
516
330
515
100
AcDbEntity
  8
callout
370
     0
100
AcDbVertex
100
AcDb2dVertex
 10
3.339772643417152
 20
5.502490703857612
 30
0.0
  0
VERTEX
  5
517
330
515
100
AcDbEntity
  8
callout
370
     0
100
AcDbVertex
100
AcDb2dVertex
 10
3.298797334772618
 20
5.335684176156974
 30
0.0
  0
VERTEX
  5
518
330
515
100
AcDbEntity
  8
callout
370
     0
100
AcDbVertex
100
AcDb2dVertex
 10
3.257328336115203
 20
5.458657761098518
 30
0.0
  0
VERTEX
  5
519
330
515
100
AcDbEntity
  8
callout
370
     0
100
AcDbVertex
100
AcDb2dVertex
 10
3.339772643417152
 20
5.502490703857612
 30
0.0
  0
SEQEND
  5
51B
330
515
100
AcDbEntity
  8
callout
370
     0
  0
HATCH
  5
51A
330
50D
100
AcDbEntity
  8
callout
 62
   250
420
  2301728
100
AcDbHatch
 10
0.0
 20
0.0
 30
0.0
210
0.0
220
0.0
230
1.0
  2
SOLID
 70
     1
 71
     0
 91
        1
 92
        1
 93
        3
 72
     1
 10
3.339772643417152
 20
5.502490703857612
 11
3.298797334772618
 21
5.335684176156974
 72
     1
 10
3.298797334772618
 20
5.335684176156974
 11
3.257328336115203
 21
5.458657761098518
 72
     1
 10
3.257328336115203
 20
5.458657761098518
 11
3.339772643417152
 21
5.502490703857612
 97
        0
 75
     2
 76
     1
 98
        0
  0
ENDBLK
  5
510
330
50D
100
AcDbEntity
  8
0
100
AcDbBlockEnd
  0
ENDSEC
  0
SECTION
  2
ENTITIES
  0
INSERT
  5
42
330
1F
100
AcDbEntity
  8
CDTC4
100
AcDbBlockReference
  2
block 2
 10
0.0
 20
0.0
 30
0.0
  0
POLYLINE
  5
146
330
1F
100
AcDbEntity
  8
CDTC4
 62
   250
420
  2301728
370
    13
100
AcDb2dPolyline
 66
     1
 10
0.0
 20
0.0
 30
0.0
  0
VERTEX
  5
147
330
146
100
AcDbEntity
  8
CDTC4
 62
   250
420
  2301728
370
    13
100
AcDbVertex
100
AcDb2dVertex
 10
4.594554345761935
 20
4.546509149083122
 30
0.0
  0
VERTEX
  5
148
330
146
100
AcDbEntity
  8
CDTC4
 62
   250
420
  2301728
370
    13
100
AcDbVertex
100
AcDb2dVertex
 10
4.622805561383226
 20
4.503811505325277
 30
0.0
  0
SEQEND
  5
149
330
146
100
AcDbEntity
  8
CDTC4
 62
   250
420
  2301728
370
    13
  0
POLYLINE
  5
14A
330
1F
100
AcDbEntity
  8
CDTC4
 62
   250
420
  2301728
370
    25
100
AcDb2dPolyline
 66
     1
 10
0.0
 20
0.0
 30
0.0
  0
VERTEX
  5
14B
330
14A
100
AcDbEntity
  8
CDTC4
 62
   250
420
  2301728
370
    25
100
AcDbVertex
100
AcDb2dVertex
 10
4.40590092406756
 20
5.832296852699705
 30
0.0
  0
VERTEX
  5
14C
330
14A
100
AcDbEntity
  8
CDTC4
 62
   250
420
  2301728
370
    25
100
AcDbVertex
100
AcDb2dVertex
 10
5.505380805807514
 20
6.321667076413619
 30
0.0
  0
VERTEX
  5
14D
330
14A
100
AcDbEntity
  8
CDTC4
 62
   250
420
  2301728
370
    25
100
AcDbVertex
100
AcDb2dVertex
 10
5.505380805807514
 20
6.542416088564323
 30
0.0
  0
VERTEX
  5
14E
330
14A
100
AcDbEntity
  8
CDTC4
 62
   250
420
  2301728
370
    25
100
AcDbVertex
100
AcDb2dVertex
 10
5.473462728320428
 20
6.554330840843932
 30
0.0
  0
VERTEX
  5
14F
330
14A
100
AcDbEntity
  8
CDTC4
 62
   250
420
  2301728
370
    25
100
AcDbVertex
100
AcDb2dVertex
 10
5.542568291542162
 20
6.621053453609735
 30
0.0
  0
VERTEX
  5
150
330
14A
100
AcDbEntity
  8
CDTC4
 62
   250
420
  2301728
370
    25
100
AcDbVertex
100
AcDb2dVertex
 10
5.505380805807514
 20
6.642504658153307
 30
0.0
  0
VERTEX
  5
151
330
14A
100
AcDbEntity
  8
CDTC4
 62
   250
420
  2301728
370
    25
100
AcDbVertex
100
AcDb2dVertex
 10
5.505380805807514
 20
6.859288327913342
 30
0.0
  0
VERTEX
  5
152
330
14A
100
AcDbEntity
  8
CDTC4
 62
   250
420
  2301728
370
    25
100
AcDbVertex
100
AcDb2dVertex
 10
5.245490624103316
 20
6.900523854741108
 30
0.0
  0
VERTEX
  5
153
330
14A
100
AcDbEntity
  8
CDTC4
 62
   250
420
  2301728
370
    25
100
AcDbVertex
100
AcDb2dVertex
 10
4.248626193976747
 20
6.613904602241973
 30
0.0
  0
VERTEX
  5
154
330
14A
100
AcDbEntity
  8
CDTC4
 62
   250
420
  2301728
370
    25
100
AcDbVertex
100
AcDb2dVertex
 10
4.494656208182151
 20
7.074330537524196
 30
0.0
  0
VERTEX
  5
155
330
14A
100
AcDbEntity
  8
CDTC4
 62
   250
420
  2301728
370
    25
100
AcDbVertex
100
AcDb2dVertex
 10
4.370631265526072
 20
7.165036114567151
 30
0.0
  0
VERTEX
  5
156
330
14A
100
AcDbEntity
  8
CDTC4
 62
   250
420
  2301728
370
    25
100
AcDbVertex
100
AcDb2dVertex
 10
4.377305518596485
 20
7.247769423517108
 30
0.0
  0
VERTEX
  5
157
330
14A
100
AcDbEntity
  8
CDTC4
 62
   250
420
  2301728
370
    25
100
AcDbVertex
100
AcDb2dVertex
 10
4.227970779424797
 20
7.2693645424324
 30
0.0
  0
VERTEX
  5
158
330
14A
100
AcDbEntity
  8
CDTC4
 62
   250
420
  2301728
370
    25
100
AcDbVertex
100
AcDb2dVertex
 10
4.134449426364666
 20
7.337762844230913
 30
0.0
  0
VERTEX
  5
159
330
14A
100
AcDbEntity
  8
CDTC4
 62
   250
420
  2301728
370
    25
100
AcDbVertex
100
AcDb2dVertex
 10
3.887148740656825
 20
7.370021320327901
 30
0.0
  0
VERTEX
  5
15A
330
14A
100
AcDbEntity
  8
CDTC4
 62
   250
420
  2301728
370
    25
100
AcDbVertex
100
AcDb2dVertex
 10
3.477034398931437
 20
6.653623620441269
 30
0.0
  0
VERTEX
  5
15B
330
14A
100
AcDbEntity
  8
CDTC4
 62
   250
420
  2301728
370
    25
100
AcDbVertex
100
AcDb2dVertex
 10
2.892554810850204
 20
7.219490343830064
 30
0.0
  0
VERTEX
  5
15C
330
14A
100
AcDbEntity
  8
CDTC4
 62
   250
420
  2301728
370
    25
100
AcDbVertex
100
AcDb2dVertex
 10
2.623747521230901
 20
7.262499738932408
 30
0.0
  0
VERTEX
  5
15D
330
14A
100
AcDbEntity
  8
CDTC4
 62
   250
420
  2301728
370
    25
100
AcDbVertex
100
AcDb2dVertex
 10
2.493019815701675
 20
7.085281624362779
 30
0.0
  0
VERTEX
  5
15E
330
14A
100
AcDbEntity
  8
CDTC4
 62
   250
420
  2301728
370
    25
100
AcDbVertex
100
AcDb2dVertex
 10
2.420903194284922
 20
7.100026495249974
 30
0.0
  0
VERTEX
  5
15F
330
14A
100
AcDbEntity
  8
CDTC4
 62
   250
420
  2301728
370
    25
100
AcDbVertex
100
AcDb2dVertex
 10
2.444732698844127
 20
6.945134715615065
 30
0.0
  0
VERTEX
  5
160
330
14A
100
AcDbEntity
  8
CDTC4
 62
   250
420
  2301728
370
    25
100
AcDbVertex
100
AcDb2dVertex
 10
2.399075368108672
 20
6.957914832071689
 30
0.0
  0
VERTEX
  5
161
330
14A
100
AcDbEntity
  8
CDTC4
 62
   250
420
  2301728
370
    25
100
AcDbVertex
100
AcDb2dVertex
 10
2.267696604903525
 20
6.779803587693764
 30
0.0
  0
VERTEX
  5
162
330
14A
100
AcDbEntity
  8
CDTC4
 62
   250
420
  2301728
370
    25
100
AcDbVertex
100
AcDb2dVertex
 10
2.54481661799284
 20
6.523352484916977
 30
0.0
  0
VERTEX
  5
163
330
14A
100
AcDbEntity
  8
CDTC4
 62
   250
420
  2301728
370
    25
100
AcDbVertex
100
AcDb2dVertex
 10
2.48790028507152
 20
6.510404373196151
 30
0.0
  0
VERTEX
  5
164
330
14A
100
AcDbEntity
  8
CDTC4
 62
   250
420
  2301728
370
    25
100
AcDbVertex
100
AcDb2dVertex
 10
2.487625807050714
 20
6.49475707944589
 30
0.0
  0
VERTEX
  5
165
330
14A
100
AcDbEntity
  8
CDTC4
 62
   250
420
  2301728
370
    25
100
AcDbVertex
100
AcDb2dVertex
 10
2.327968126503972
 20
6.516203633549189
 30
0.0
  0
VERTEX
  5
166
330
14A
100
AcDbEntity
  8
CDTC4
 62
   250
420
  2301728
370
    25
100
AcDbVertex
100
AcDb2dVertex
 10
2.329787713594656
 20
6.475898298285919
 30
0.0
  0
VERTEX
  5
167
330
14A
100
AcDbEntity
  8
CDTC4
 62
   250
420
  2301728
370
    25
100
AcDbVertex
100
AcDb2dVertex
 10
2.263544552134009
 20
6.4614471339061
 30
0.0
  0
VERTEX
  5
168
330
14A
100
AcDbEntity
  8
CDTC4
 62
   250
420
  2301728
370
    25
100
AcDbVertex
100
AcDb2dVertex
 10
2.263544552134009
 20
6.251779907207846
 30
0.0
  0
VERTEX
  5
169
330
14A
100
AcDbEntity
  8
CDTC4
 62
   250
420
  2301728
370
    25
100
AcDbVertex
100
AcDb2dVertex
 10
2.559542258948694
 20
6.137467870364692
 30
0.0
  0
VERTEX
  5
16A
330
14A
100
AcDbEntity
  8
CDTC4
 62
   250
420
  2301728
370
    25
100
AcDbVertex
100
AcDb2dVertex
 10
2.247412931135134
 20
6.047483850701547
 30
0.0
  0
VERTEX
  5
16B
330
14A
100
AcDbEntity
  8
CDTC4
 62
   250
420
  2301728
370
    25
100
AcDbVertex
100
AcDb2dVertex
 10
2.247412931135134
 20
5.678139883886666
 30
0.0
  0
VERTEX
  5
16C
330
14A
100
AcDbEntity
  8
CDTC4
 62
   250
420
  2301728
370
    25
100
AcDbVertex
100
AcDb2dVertex
 10
2.31743068602259
 20
5.641875191584404
 30
0.0
  0
VERTEX
  5
16D
330
14A
100
AcDbEntity
  8
CDTC4
 62
   250
420
  2301728
370
    25
100
AcDbVertex
100
AcDb2dVertex
 10
2.195537054200397
 20
5.534316436162738
 30
0.0
  0
VERTEX
  5
16E
330
14A
100
AcDbEntity
  8
CDTC4
 62
   250
420
  2301728
370
    25
100
AcDbVertex
100
AcDb2dVertex
 10
2.247412931135134
 20
5.50922110895528
 30
0.0
  0
VERTEX
  5
16F
330
14A
100
AcDbEntity
  8
CDTC4
 62
   250
420
  2301728
370
    25
100
AcDbVertex
100
AcDb2dVertex
 10
2.247412931135134
 20
5.160416268191208
 30
0.0
  0
VERTEX
  5
170
330
14A
100
AcDbEntity
  8
CDTC4
 62
   250
420
  2301728
370
    25
100
AcDbVertex
100
AcDb2dVertex
 10
2.537727777846082
 20
4.993749857973878
 30
0.0
  0
VERTEX
  5
171
330
14A
100
AcDbEntity
  8
CDTC4
 62
   250
420
  2301728
370
    25
100
AcDbVertex
100
AcDb2dVertex
 10
3.919759967455914
 20
5.612162659690208
 30
0.0
  0
SEQEND
  5
173
330
14A
100
AcDbEntity
  8
CDTC4
 62
   250
420
  2301728
370
    25
  0
HATCH
  5
172
330
1F
100
AcDbEntity
  8
CDTC4
 62
    43
420
 15510365
100
AcDbHatch
 10
0.0
 20
0.0
 30
0.0
210
0.0
220
0.0
230
1.0
  2
SOLID
 70
     1
 71
     0
 91
        1
 92
        1
 93
       39
 72
     1
 10
4.40590092406756
 20
5.832296852699705
 11
5.505380805807515
 21
6.32166707641362
 72
     1
 10
5.505380805807514
 20
6.321667076413619
 11
5.505380805807514
 21
6.542416088564322
 72
     1
 10
5.505380805807514
 20
6.542416088564323
 11
5.473462728320428
 21
6.554330840843932
 72
     1
 10
5.473462728320428
 20
6.554330840843932
 11
5.542568291542162
 21
6.621053453609736
 72
     1
 10
5.542568291542162
 20
6.621053453609735
 11
5.505380805807514
 21
6.642504658153307
 72
     1
 10
5.505380805807514
 20
6.642504658153307
 11
5.505380805807514
 21
6.859288327913342
 72
     1
 10
5.505380805807514
 20
6.859288327913342
 11
5.245490624103316
 21
6.900523854741108
 72
     1
 10
5.245490624103316
 20
6.900523854741108
 11
4.248626193976747
 21
6.613904602241973
 72
     1
 10
4.248626193976747
 20
6.613904602241973
 11
4.494656208182152
 21
7.074330537524196
 72
     1
 10
4.494656208182151
 20
7.074330537524196
 11
4.370631265526071
 21
7.165036114567152
 72
     1
 10
4.370631265526072
 20
7.165036114567151
 11
4.377305518596485
 21
7.247769423517108
 72
     1
 10
4.377305518596485
 20
7.247769423517108
 11
4.227970779424797
 21
7.2693645424324
 72
     1
 10
4.227970779424797
 20
7.2693645424324
 11
4.134449426364666
 21
7.337762844230913
 72
     1
 10
4.134449426364666
 20
7.337762844230913
 11
3.887148740656825
 21
7.370021320327901
 72
     1
 10
3.887148740656825
 20
7.370021320327901
 11
3.477034398931437
 21
6.653623620441269
 72
     1
 10
3.477034398931437
 20
6.653623620441269
 11
2.892554810850205
 21
7.219490343830064
 72
     1
 10
2.892554810850204
 20
7.219490343830064
 11
2.623747521230901
 21
7.262499738932408
 72
     1
 10
2.623747521230901
 20
7.262499738932408
 11
2.493019815701675
 21
7.085281624362778
 72
     1
 10
2.493019815701675
 20
7.085281624362779
 11
2.420903194284923
 21
7.100026495249974
 72
     1
 10
2.420903194284922
 20
7.100026495249974
 11
2.444732698844127
 21
6.945134715615065
 72
     1
 10
2.444732698844127
 20
6.945134715615065
 11
2.399075368108672
 21
6.957914832071689
 72
     1
 10
2.399075368108672
 20
6.957914832071689
 11
2.267696604903525
 21
6.779803587693764
 72
     1
 10
2.267696604903525
 20
6.779803587693764
 11
2.544816617992839
 21
6.523352484916977
 72
     1
 10
2.54481661799284
 20
6.523352484916977
 11
2.48790028507152
 21
6.51040437319615
 72
     1
 10
2.48790028507152
 20
6.510404373196151
 11
2.487625807050714
 21
6.49475707944589
 72
     1
 10
2.487625807050714
 20
6.49475707944589
 11
2.327968126503972
 21
6.51620363354919
 72
     1
 10
2.327968126503972
 20
6.516203633549189
 11
2.329787713594657
 21
6.475898298285919
 72
     1
 10
2.329787713594656
 20
6.475898298285919
 11
2.263544552134009
 21
6.4614471339061
 72
     1
 10
2.263544552134009
 20
6.4614471339061
 11
2.263544552134009
 21
6.251779907207846
 72
     1
 10
2.263544552134009
 20
6.251779907207846
 11
2.559542258948694
 21
6.137467870364692
 72
     1
 10
2.559542258948694
 20
6.137467870364692
 11
2.247412931135134
 21
6.047483850701547
 72
     1
 10
2.247412931135134
 20
6.047483850701547
 11
2.247412931135134
 21
5.678139883886666
 72
     1
 10
2.247412931135134
 20
5.678139883886666
 11
2.31743068602259
 21
5.641875191584404
 72
     1
 10
2.31743068602259
 20
5.641875191584404
 11
2.195537054200397
 21
5.534316436162738
 72
     1
 10
2.195537054200397
 20
5.534316436162738
 11
2.247412931135134
 21
5.50922110895528
 72
     1
 10
2.247412931135134
 20
5.50922110895528
 11
2.247412931135134
 21
5.160416268191208
 72
     1
 10
2.247412931135134
 20
5.160416268191208
 11
2.537727777846082
 21
4.993749857973878
 72
     1
 10
2.537727777846082
 20
4.993749857973878
 11
3.919759967455914
 21
5.612162659690208
 72
     1
 10
3.919759967455914
 20
5.612162659690208
 11
4.405900924067559
 21
5.832296852699704
 97
        0
 75
     2
 76
     1
 98
        0
  0
POLYLINE
  5
174
330
1F
100
AcDbEntity
  8
CDTC4
 62
   250
420
  2301728
370
    25
100
AcDb2dPolyline
 66
     1
 10
0.0
 20
0.0
 30
0.0
  0
VERTEX
  5
175
330
174
100
AcDbEntity
  8
CDTC4
 62
   250
420
  2301728
370
    25
100
AcDbVertex
100
AcDb2dVertex
 10
3.921929331452639
 20
5.61305587895313
 30
0.0
  0
VERTEX
  5
176
330
174
100
AcDbEntity
  8
CDTC4
 62
   250
420
  2301728
370
    25
100
AcDbVertex
100
AcDb2dVertex
 10
4.434477265934977
 20
5.843308848075367
 30
0.0
  0
SEQEND
  5
177
330
174
100
AcDbEntity
  8
CDTC4
 62
   250
420
  2301728
370
    25
  0
POLYLINE
  5
178
330
1F
100
AcDbEntity
  8
CDTC4
 62
   250
420
  2301728
370
    25
100
AcDb2dPolyline
 66
     1
 10
0.0
 20
0.0
 30
0.0
  0
VERTEX
  5
179
330
178
100
AcDbEntity
  8
CDTC4
 62
   250
420
  2301728
370
    25
100
AcDbVertex
100
AcDb2dVertex
 10
4.215264887593851
 20
7.276364828988157
 30
0.0
  0
VERTEX
  5
17A
330
178
100
AcDbEntity
  8
CDTC4
 62
   250
420
  2301728
370
    25
100
AcDbVertex
100
AcDb2dVertex
 10
4.279604549903701
 20
7.228705819869724
 30
0.0
  0
VERTEX
  5
17B
330
178
100
AcDbEntity
  8
CDTC4
 62
   250
420
  2301728
370
    25
100
AcDbVertex
100
AcDb2dVertex
 10
4.27722159944781
 20
7.181046810751304
 30
0.0
  0
SEQEND
  5
17C
330
178
100
AcDbEntity
  8
CDTC4
 62
   250
420
  2301728
370
    25
  0
POLYLINE
  5
17D
330
1F
100
AcDbEntity
  8
CDTC4
 62
   250
420
  2301728
370
    25
100
AcDb2dPolyline
 66
     1
 10
0.0
 20
0.0
 30
0.0
  0
VERTEX
  5
17E
330
17D
100
AcDbEntity
  8
CDTC4
 62
   250
420
  2301728
370
    25
100
AcDbVertex
100
AcDb2dVertex
 10
4.139010473004342
 20
6.425651516224169
 30
0.0
  0
VERTEX
  5
17F
330
17D
100
AcDbEntity
  8
CDTC4
 62
   250
420
  2301728
370
    25
100
AcDbVertex
100
AcDb2dVertex
 10
4.25339209488858
 20
6.621053453609735
 30
0.0
  0
SEQEND
  5
180
330
17D
100
AcDbEntity
  8
CDTC4
 62
   250
420
  2301728
370
    25
  0
POLYLINE
  5
181
330
1F
100
AcDbEntity
  8
CDTC4
 62
   250
420
  2301728
370
    25
100
AcDb2dPolyline
 66
     1
 10
0.0
 20
0.0
 30
0.0
  0
VERTEX
  5
182
330
181
100
AcDbEntity
  8
CDTC4
 62
   250
420
  2301728
370
    25
100
AcDbVertex
100
AcDb2dVertex
 10
2.54481661799284
 20
6.523352484916977
 30
0.0
  0
VERTEX
  5
183
330
181
100
AcDbEntity
  8
CDTC4
 62
   250
420
  2301728
370
    25
100
AcDbVertex
100
AcDb2dVertex
 10
2.883195582733681
 20
6.232632529294531
 30
0.0
  0
SEQEND
  5
184
330
181
100
AcDbEntity
  8
CDTC4
 62
   250
420
  2301728
370
    25
  0
POLYLINE
  5
185
330
1F
100
AcDbEntity
  8
CDTC4
 62
   250
420
  2301728
370
    25
100
AcDb2dPolyline
 66
     1
 10
0.0
 20
0.0
 30
0.0
  0
VERTEX
  5
186
330
185
100
AcDbEntity
  8
CDTC4
 62
   250
420
  2301728
370
    25
100
AcDbVertex
100
AcDb2dVertex
 10
2.504306460242156
 20
6.492374128989972
 30
0.0
  0
VERTEX
  5
187
330
185
100
AcDbEntity
  8
CDTC4
 62
   250
420
  2301728
370
    25
100
AcDbVertex
100
AcDb2dVertex
 10
2.461413352035581
 20
6.497140029901819
 30
0.0
  0
SEQEND
  5
188
330
185
100
AcDbEntity
  8
CDTC4
 62
   250
420
  2301728
370
    25
  0
POLYLINE
  5
189
330
1F
100
AcDbEntity
  8
CDTC4
 62
   250
420
  2301728
370
    25
100
AcDb2dPolyline
 66
     1
 10
0.0
 20
0.0
 30
0.0
  0
VERTEX
  5
18A
330
189
100
AcDbEntity
  8
CDTC4
 62
   250
420
  2301728
370
    25
100
AcDbVertex
100
AcDb2dVertex
 10
2.358946482430964
 20
6.482842327166281
 30
0.0
  0
VERTEX
  5
18B
330
189
100
AcDbEntity
  8
CDTC4
 62
   250
420
  2301728
370
    25
100
AcDbVertex
100
AcDb2dVertex
 10
2.30882060965276
 20
6.470978935489003
 30
0.0
  0
SEQEND
  5
18C
330
189
100
AcDbEntity
  8
CDTC4
 62
   250
420
  2301728
370
    25
  0
POLYLINE
  5
18D
330
1F
100
AcDbEntity
  8
CDTC4
 62
   250
420
  2301728
370
    25
100
AcDb2dPolyline
 66
     1
 10
0.0
 20
0.0
 30
0.0
  0
VERTEX
  5
18E
330
18D
100
AcDbEntity
  8
CDTC4
 62
   250
420
  2301728
370
    25
100
AcDbVertex
100
AcDb2dVertex
 10
3.603642459816531
 20
6.529705318221355
 30
0.0
  0
VERTEX
  5
18F
330
18D
100
AcDbEntity
  8
CDTC4
 62
   250
420
  2301728
370
    25
100
AcDbVertex
100
AcDb2dVertex
 10
3.470197237656028
 20
6.659976450454741
 30
0.0
  0
SEQEND
  5
190
330
18D
100
AcDbEntity
  8
CDTC4
 62
   250
420
  2301728
370
    25
  0
POLYLINE
  5
191
330
1F
100
AcDbEntity
  8
CDTC4
 62
   250
420
  2301728
370
    25
100
AcDb2dPolyline
 66
     1
 10
0.0
 20
0.0
 30
0.0
  0
VERTEX
  5
192
330
191
100
AcDbEntity
  8
CDTC4
 62
   250
420
  2301728
370
    25
100
AcDbVertex
100
AcDb2dVertex
 10
2.883195582733681
 20
6.232632529294531
 30
0.0
  0
VERTEX
  5
193
330
191
100
AcDbEntity
  8
CDTC4
 62
   250
420
  2301728
370
    25
100
AcDbVertex
100
AcDb2dVertex
 10
2.549582518904673
 20
6.134931560601747
 30
0.0
  0
SEQEND
  5
194
330
191
100
AcDbEntity
  8
CDTC4
 62
   250
420
  2301728
370
    25
  0
POLYLINE
  5
195
330
1F
100
AcDbEntity
  8
CDTC4
 62
   250
420
  2301728
370
    18
100
AcDb2dPolyline
 66
     1
 10
0.0
 20
0.0
 30
0.0
  0
VERTEX
  5
196
330
195
100
AcDbEntity
  8
CDTC4
 62
   250
420
  2301728
370
    18
100
AcDbVertex
100
AcDb2dVertex
 10
2.84461175524858
 20
6.262312547956943
 30
0.0
  0
VERTEX
  5
197
330
195
100
AcDbEntity
  8
CDTC4
 62
   250
420
  2301728
370
    18
100
AcDbVertex
100
AcDb2dVertex
 10
2.263544552134009
 20
6.4614471339061
 30
0.0
  0
SEQEND
  5
198
330
195
100
AcDbEntity
  8
CDTC4
 62
   250
420
  2301728
370
    18
  0
POLYLINE
  5
199
330
1F
100
AcDbEntity
  8
CDTC4
 62
   250
420
  2301728
370
    18
100
AcDb2dPolyline
 66
     1
 10
0.0
 20
0.0
 30
0.0
  0
VERTEX
  5
19A
330
199
100
AcDbEntity
  8
CDTC4
 62
   250
420
  2301728
370
    18
100
AcDbVertex
100
AcDb2dVertex
 10
2.335116977871735
 20
6.516203633549189
 30
0.0
  0
VERTEX
  5
19B
330
199
100
AcDbEntity
  8
CDTC4
 62
   250
420
  2301728
370
    18
100
AcDbVertex
100
AcDb2dVertex
 10
2.358946482430964
 20
6.482842327166281
 30
0.0
  0
SEQEND
  5
19C
330
199
100
AcDbEntity
  8
CDTC4
 62
   250
420
  2301728
370
    18
  0
POLYLINE
  5
19D
330
1F
100
AcDbEntity
  8
CDTC4
 62
   250
420
  2301728
370
    18
100
AcDb2dPolyline
 66
     1
 10
0.0
 20
0.0
 30
0.0
  0
VERTEX
  5
19E
330
19D
100
AcDbEntity
  8
CDTC4
 62
   250
420
  2301728
370
    18
100
AcDbVertex
100
AcDb2dVertex
 10
2.48790028507152
 20
6.510404373196151
 30
0.0
  0
VERTEX
  5
19F
330
19D
100
AcDbEntity
  8
CDTC4
 62
   250
420
  2301728
370
    18
100
AcDbVertex
100
AcDb2dVertex
 10
2.504306460242156
 20
6.492374128989972
 30
0.0
  0
SEQEND
  5
1A0
330
19D
100
AcDbEntity
  8
CDTC4
 62
   250
420
  2301728
370
    18
  0
POLYLINE
  5
1A1
330
1F
100
AcDbEntity
  8
CDTC4
 62
   250
420
  2301728
370
    18
100
AcDb2dPolyline
 66
     1
 10
0.0
 20
0.0
 30
0.0
  0
VERTEX
  5
1A2
330
1A1
100
AcDbEntity
  8
CDTC4
 62
   250
420
  2301728
370
    18
100
AcDbVertex
100
AcDb2dVertex
 10
2.267696604903525
 20
6.779803587693764
 30
0.0
  0
VERTEX
  5
1A3
330
1A1
100
AcDbEntity
  8
CDTC4
 62
   250
420
  2301728
370
    18
100
AcDbVertex
100
AcDb2dVertex
 10
2.516221212521777
 20
6.704456719566994
 30
0.0
  0
VERTEX
  5
1A4
330
1A1
100
AcDbEntity
  8
CDTC4
 62
   250
420
  2301728
370
    18
100
AcDbVertex
100
AcDb2dVertex
 10
2.655158620167172
 20
6.894598886877171
 30
0.0
  0
VERTEX
  5
1A5
330
1A1
100
AcDbEntity
  8
CDTC4
 62
   250
420
  2301728
370
    18
100
AcDbVertex
100
AcDb2dVertex
 10
2.702091348083652
 20
6.883178003761107
 30
0.0
  0
VERTEX
  5
1A6
330
1A1
100
AcDbEntity
  8
CDTC4
 62
   250
420
  2301728
370
    18
100
AcDbVertex
100
AcDb2dVertex
 10
2.685410694892211
 20
7.038069783396003
 30
0.0
  0
VERTEX
  5
1A7
330
1A1
100
AcDbEntity
  8
CDTC4
 62
   250
420
  2301728
370
    18
100
AcDbVertex
100
AcDb2dVertex
 10
2.750471870095288
 20
7.025037778818424
 30
0.0
  0
VERTEX
  5
1A8
330
1A1
100
AcDbEntity
  8
CDTC4
 62
   250
420
  2301728
370
    18
100
AcDbVertex
100
AcDb2dVertex
 10
2.892554810850204
 20
7.219490343830064
 30
0.0
  0
SEQEND
  5
1A9
330
1A1
100
AcDbEntity
  8
CDTC4
 62
   250
420
  2301728
370
    18
  0
POLYLINE
  5
1AA
330
1F
100
AcDbEntity
  8
CDTC4
 62
   250
420
  2301728
370
    25
100
AcDb2dPolyline
 66
     1
 10
0.0
 20
0.0
 30
0.0
  0
VERTEX
  5
1AB
330
1AA
100
AcDbEntity
  8
CDTC4
 62
   250
420
  2301728
370
    25
100
AcDbVertex
100
AcDb2dVertex
 10
2.401141827064028
 20
6.958524867373019
 30
0.0
  0
VERTEX
  5
1AC
330
1AA
100
AcDbEntity
  8
CDTC4
 62
   250
420
  2301728
370
    25
100
AcDbVertex
100
AcDb2dVertex
 10
2.702091348083652
 20
6.883178003761107
 30
0.0
  0
SEQEND
  5
1AD
330
1AA
100
AcDbEntity
  8
CDTC4
 62
   250
420
  2301728
370
    25
  0
POLYLINE
  5
1AE
330
1F
100
AcDbEntity
  8
CDTC4
 62
   250
420
  2301728
370
    25
100
AcDb2dPolyline
 66
     1
 10
0.0
 20
0.0
 30
0.0
  0
VERTEX
  5
1AF
330
1AE
100
AcDbEntity
  8
CDTC4
 62
   250
420
  2301728
370
    25
100
AcDbVertex
100
AcDb2dVertex
 10
2.420903194284922
 20
7.100026495249974
 30
0.0
  0
VERTEX
  5
1B0
330
1AE
100
AcDbEntity
  8
CDTC4
 62
   250
420
  2301728
370
    25
100
AcDbVertex
100
AcDb2dVertex
 10
2.747367406746156
 20
7.023772080660465
 30
0.0
  0
SEQEND
  5
1B1
330
1AE
100
AcDbEntity
  8
CDTC4
 62
   250
420
  2301728
370
    25
  0
POLYLINE
  5
1B2
330
1F
100
AcDbEntity
  8
CDTC4
 62
   250
420
  2301728
370
    13
100
AcDb2dPolyline
 66
     1
 10
0.0
 20
0.0
 30
0.0
  0
VERTEX
  5
1B3
330
1B2
100
AcDbEntity
  8
CDTC4
 62
   250
420
  2301728
370
    13
100
AcDbVertex
100
AcDb2dVertex
 10
2.516221212521777
 20
6.704456719566994
 30
0.0
  0
VERTEX
  5
1B4
330
1B2
100
AcDbEntity
  8
CDTC4
 62
   250
420
  2301728
370
    13
100
AcDbVertex
100
AcDb2dVertex
 10
2.621071032582323
 20
6.899858656952548
 30
0.0
  0
SEQEND
  5
1B5
330
1B2
100
AcDbEntity
  8
CDTC4
 62
   250
420
  2301728
370
    13
  0
POLYLINE
  5
1B6
330
1F
100
AcDbEntity
  8
CDTC4
 62
   250
420
  2301728
370
    18
100
AcDb2dPolyline
 66
     1
 10
0.0
 20
0.0
 30
0.0
  0
VERTEX
  5
1B7
330
1B6
100
AcDbEntity
  8
CDTC4
 62
   250
420
  2301728
370
    18
100
AcDbVertex
100
AcDb2dVertex
 10
3.192979142003499
 20
6.127782709233984
 30
0.0
  0
VERTEX
  5
1B8
330
1B6
100
AcDbEntity
  8
CDTC4
 62
   250
420
  2301728
370
    18
100
AcDbVertex
100
AcDb2dVertex
 10
2.516221212521777
 20
6.704456719566994
 30
0.0
  0
SEQEND
  5
1B9
330
1B6
100
AcDbEntity
  8
CDTC4
 62
   250
420
  2301728
370
    18
  0
POLYLINE
  5
1BA
330
1F
100
AcDbEntity
  8
CDTC4
 62
   250
420
  2301728
370
    18
100
AcDb2dPolyline
 66
     1
 10
0.0
 20
0.0
 30
0.0
  0
VERTEX
  5
1BB
330
1BA
100
AcDbEntity
  8
CDTC4
 62
   250
420
  2301728
370
    18
100
AcDbVertex
100
AcDb2dVertex
 10
3.195762428136011
 20
6.121159911036519
 30
0.0
  0
VERTEX
  5
1BC
330
1BA
100
AcDbEntity
  8
CDTC4
 62
   250
420
  2301728
370
    18
100
AcDbVertex
100
AcDb2dVertex
 10
2.540050717080981
 20
5.913317168201047
 30
0.0
  0
VERTEX
  5
1BD
330
1BA
100
AcDbEntity
  8
CDTC4
 62
   250
420
  2301728
370
    18
100
AcDbVertex
100
AcDb2dVertex
 10
2.247412931135134
 20
6.047483850701547
 30
0.0
  0
SEQEND
  5
1BE
330
1BA
100
AcDbEntity
  8
CDTC4
 62
   250
420
  2301728
370
    18
  0
POLYLINE
  5
1BF
330
1F
100
AcDbEntity
  8
CDTC4
 62
   250
420
  2301728
370
    18
100
AcDb2dPolyline
 66
     1
 10
0.0
 20
0.0
 30
0.0
  0
VERTEX
  5
1C0
330
1BF
100
AcDbEntity
  8
CDTC4
 62
   250
420
  2301728
370
    18
100
AcDbVertex
100
AcDb2dVertex
 10
5.502058133791479
 20
6.852199647834127
 30
0.0
  0
VERTEX
  5
1C1
330
1BF
100
AcDbEntity
  8
CDTC4
 62
   250
420
  2301728
370
    18
100
AcDbVertex
100
AcDb2dVertex
 10
4.126239685661314
 20
6.416096728335017
 30
0.0
  0
SEQEND
  5
1C2
330
1BF
100
AcDbEntity
  8
CDTC4
 62
   250
420
  2301728
370
    18
  0
POLYLINE
  5
1C3
330
1F
100
AcDbEntity
  8
CDTC4
 62
   250
420
  2301728
370
    25
100
AcDb2dPolyline
 66
     1
 10
0.0
 20
0.0
 30
0.0
  0
VERTEX
  5
1C4
330
1C3
100
AcDbEntity
  8
CDTC4
 62
   250
420
  2301728
370
    25
100
AcDbVertex
100
AcDb2dVertex
 10
2.607816068065252
 20
5.484125781747858
 30
0.0
  0
VERTEX
  5
1C5
330
1C3
100
AcDbEntity
  8
CDTC4
 62
   250
420
  2301728
370
    25
100
AcDbVertex
100
AcDb2dVertex
 10
2.53611785655874
 20
5.527148521372383
 30
0.0
  0
VERTEX
  5
1C6
330
1C3
100
AcDbEntity
  8
CDTC4
 62
   250
420
  2301728
370
    25
100
AcDbVertex
100
AcDb2dVertex
 10
2.246384449744343
 20
5.678139883886666
 30
0.0
  0
SEQEND
  5
1C7
330
1C3
100
AcDbEntity
  8
CDTC4
 62
   250
420
  2301728
370
    25
  0
POLYLINE
  5
1C8
330
1F
100
AcDbEntity
  8
CDTC4
 62
   250
420
  2301728
370
    25
100
AcDb2dPolyline
 66
     1
 10
0.0
 20
0.0
 30
0.0
  0
VERTEX
  5
1C9
330
1C8
100
AcDbEntity
  8
CDTC4
 62
   250
420
  2301728
370
    25
100
AcDbVertex
100
AcDb2dVertex
 10
2.53611785655874
 20
5.355064235135337
 30
0.0
  0
VERTEX
  5
1CA
330
1C8
100
AcDbEntity
  8
CDTC4
 62
   250
420
  2301728
370
    25
100
AcDbVertex
100
AcDb2dVertex
 10
2.198739739532256
 20
5.536680322955274
 30
0.0
  0
SEQEND
  5
1CB
330
1C8
100
AcDbEntity
  8
CDTC4
 62
   250
420
  2301728
370
    25
  0
POLYLINE
  5
1CC
330
1F
100
AcDbEntity
  8
CDTC4
 62
   250
420
  2301728
370
    18
100
AcDb2dPolyline
 66
     1
 10
0.0
 20
0.0
 30
0.0
  0
VERTEX
  5
1CD
330
1CC
100
AcDbEntity
  8
CDTC4
 62
   250
420
  2301728
370
    18
100
AcDbVertex
100
AcDb2dVertex
 10
2.876046731365919
 20
6.232632529294531
 30
0.0
  0
VERTEX
  5
1CE
330
1CC
100
AcDbEntity
  8
CDTC4
 62
   250
420
  2301728
370
    18
100
AcDbVertex
100
AcDb2dVertex
 10
3.192979142003499
 20
6.127782709233984
 30
0.0
  0
SEQEND
  5
1CF
330
1CC
100
AcDbEntity
  8
CDTC4
 62
   250
420
  2301728
370
    18
  0
POLYLINE
  5
1D0
330
1F
100
AcDbEntity
  8
CDTC4
 62
   250
420
  2301728
370
    18
100
AcDb2dPolyline
 66
     1
 10
0.0
 20
0.0
 30
0.0
  0
VERTEX
  5
1D1
330
1D0
100
AcDbEntity
  8
CDTC4
 62
   250
420
  2301728
370
    18
100
AcDbVertex
100
AcDb2dVertex
 10
4.377305518596485
 20
7.247769423517108
 30
0.0
  0
VERTEX
  5
1D2
330
1D0
100
AcDbEntity
  8
CDTC4
 62
   250
420
  2301728
370
    18
100
AcDbVertex
100
AcDb2dVertex
 10
4.27722159944781
 20
7.181046810751304
 30
0.0
  0
SEQEND
  5
1D3
330
1D0
100
AcDbEntity
  8
CDTC4
 62
   250
420
  2301728
370
    18
  0
POLYLINE
  5
1D4
330
1F
100
AcDbEntity
  8
CDTC4
 62
   250
420
  2301728
370
    13
100
AcDb2dPolyline
 66
     1
 10
0.0
 20
0.0
 30
0.0
  0
VERTEX
  5
1D5
330
1D4
100
AcDbEntity
  8
CDTC4
 62
   250
420
  2301728
370
    13
100
AcDbVertex
100
AcDb2dVertex
 10
4.251009144432638
 20
7.250152373973024
 30
0.0
  0
VERTEX
  5
1D6
330
1D4
100
AcDbEntity
  8
CDTC4
 62
   250
420
  2301728
370
    13
100
AcDbVertex
100
AcDb2dVertex
 10
4.270072748080034
 20
7.26206712625262
 30
0.0
  0
SEQEND
  5
1D7
330
1D4
100
AcDbEntity
  8
CDTC4
 62
   250
420
  2301728
370
    13
  0
POLYLINE
  5
1D8
330
1F
100
AcDbEntity
  8
CDTC4
 62
   250
420
  2301728
370
    13
100
AcDb2dPolyline
 66
     1
 10
0.0
 20
0.0
 30
0.0
  0
VERTEX
  5
1D9
330
1D8
100
AcDbEntity
  8
CDTC4
 62
   250
420
  2301728
370
    13
100
AcDbVertex
100
AcDb2dVertex
 10
4.274838648991868
 20
7.235854671237499
 30
0.0
  0
VERTEX
  5
1DA
330
1D8
100
AcDbEntity
  8
CDTC4
 62
   250
420
  2301728
370
    13
100
AcDbVertex
100
AcDb2dVertex
 10
4.296285203095143
 20
7.257301225340787
 30
0.0
  0
SEQEND
  5
1DB
330
1D8
100
AcDbEntity
  8
CDTC4
 62
   250
420
  2301728
370
    13
  0
POLYLINE
  5
1DC
330
1F
100
AcDbEntity
  8
CDTC4
 62
   250
420
  2301728
370
    13
100
AcDb2dPolyline
 66
     1
 10
0.0
 20
0.0
 30
0.0
  0
VERTEX
  5
1DD
330
1DC
100
AcDbEntity
  8
CDTC4
 62
   250
420
  2301728
370
    13
100
AcDbVertex
100
AcDb2dVertex
 10
4.281987500359643
 20
7.207259265766449
 30
0.0
  0
VERTEX
  5
1DE
330
1DC
100
AcDbEntity
  8
CDTC4
 62
   250
420
  2301728
370
    13
100
AcDbVertex
100
AcDb2dVertex
 10
4.329646509478076
 20
7.250152373973024
 30
0.0
  0
SEQEND
  5
1DF
330
1DC
100
AcDbEntity
  8
CDTC4
 62
   250
420
  2301728
370
    13
  0
POLYLINE
  5
1E0
330
1F
100
AcDbEntity
  8
CDTC4
 62
   250
420
  2301728
370
    18
100
AcDb2dPolyline
 66
     1
 10
0.0
 20
0.0
 30
0.0
  0
VERTEX
  5
1E1
330
1E0
100
AcDbEntity
  8
CDTC4
 62
   250
420
  2301728
370
    18
100
AcDbVertex
100
AcDb2dVertex
 10
4.134449426364666
 20
7.337762844230913
 30
0.0
  0
VERTEX
  5
1E2
330
1E0
100
AcDbEntity
  8
CDTC4
 62
   250
420
  2301728
370
    18
100
AcDbVertex
100
AcDb2dVertex
 10
3.714845291850325
 20
6.556713791299848
 30
0.0
  0
SEQEND
  5
1E3
330
1E0
100
AcDbEntity
  8
CDTC4
 62
   250
420
  2301728
370
    18
  0
POLYLINE
  5
1E4
330
1F
100
AcDbEntity
  8
CDTC4
 62
   250
420
  2301728
370
    13
100
AcDb2dPolyline
 66
     1
 10
0.0
 20
0.0
 30
0.0
  0
VERTEX
  5
1E5
330
1E4
100
AcDbEntity
  8
CDTC4
 62
   250
420
  2301728
370
    13
100
AcDbVertex
100
AcDb2dVertex
 10
2.273160266017776
 20
6.792625886436086
 30
0.0
  0
VERTEX
  5
1E6
330
1E4
100
AcDbEntity
  8
CDTC4
 62
   250
420
  2301728
370
    13
100
AcDbVertex
100
AcDb2dVertex
 10
2.428052045652672
 20
6.947517666070982
 30
0.0
  0
SEQEND
  5
1E7
330
1E4
100
AcDbEntity
  8
CDTC4
 62
   250
420
  2301728
370
    13
  0
POLYLINE
  5
1E8
330
1F
100
AcDbEntity
  8
CDTC4
 62
   250
420
  2301728
370
    13
100
AcDb2dPolyline
 66
     1
 10
0.0
 20
0.0
 30
0.0
  0
VERTEX
  5
1E9
330
1E8
100
AcDbEntity
  8
CDTC4
 62
   250
420
  2301728
370
    13
100
AcDbVertex
100
AcDb2dVertex
 10
2.323202225592127
 20
6.766413431420952
 30
0.0
  0
VERTEX
  5
1EA
330
1E8
100
AcDbEntity
  8
CDTC4
 62
   250
420
  2301728
370
    13
100
AcDbVertex
100
AcDb2dVertex
 10
2.444732698844127
 20
6.895092756040703
 30
0.0
  0
VERTEX
  5
1EB
330
1E8
100
AcDbEntity
  8
CDTC4
 62
   250
420
  2301728
370
    13
100
AcDbVertex
100
AcDb2dVertex
 10
2.47094515385926
 20
6.935602913791386
 30
0.0
  0
SEQEND
  5
1EC
330
1E8
100
AcDbEntity
  8
CDTC4
 62
   250
420
  2301728
370
    13
  0
POLYLINE
  5
1ED
330
1F
100
AcDbEntity
  8
CDTC4
 62
   250
420
  2301728
370
    13
100
AcDb2dPolyline
 66
     1
 10
0.0
 20
0.0
 30
0.0
  0
VERTEX
  5
1EE
330
1ED
100
AcDbEntity
  8
CDTC4
 62
   250
420
  2301728
370
    13
100
AcDbVertex
100
AcDb2dVertex
 10
2.380393036534239
 20
6.749732778229498
 30
0.0
  0
VERTEX
  5
1EF
330
1ED
100
AcDbEntity
  8
CDTC4
 62
   250
420
  2301728
370
    13
100
AcDbVertex
100
AcDb2dVertex
 10
2.501923509786239
 20
6.885560954217024
 30
0.0
  0
VERTEX
  5
1F0
330
1ED
100
AcDbEntity
  8
CDTC4
 62
   250
420
  2301728
370
    13
100
AcDbVertex
100
AcDb2dVertex
 10
2.520987113433623
 20
6.923688161511765
 30
0.0
  0
SEQEND
  5
1F1
330
1ED
100
AcDbEntity
  8
CDTC4
 62
   250
420
  2301728
370
    13
  0
POLYLINE
  5
1F2
330
1F
100
AcDbEntity
  8
CDTC4
 62
   250
420
  2301728
370
    13
100
AcDb2dPolyline
 66
     1
 10
0.0
 20
0.0
 30
0.0
  0
VERTEX
  5
1F3
330
1F2
100
AcDbEntity
  8
CDTC4
 62
   250
420
  2301728
370
    13
100
AcDbVertex
100
AcDb2dVertex
 10
2.425669095196756
 20
6.730669174582127
 30
0.0
  0
VERTEX
  5
1F4
330
1F2
100
AcDbEntity
  8
CDTC4
 62
   250
420
  2301728
370
    13
100
AcDbVertex
100
AcDb2dVertex
 10
2.487625807050714
 20
6.795008836892002
 30
0.0
  0
VERTEX
  5
1F5
330
1F2
100
AcDbEntity
  8
CDTC4
 62
   250
420
  2301728
370
    13
100
AcDbVertex
100
AcDb2dVertex
 10
2.551965469360602
 20
6.921305211055849
 30
0.0
  0
SEQEND
  5
1F6
330
1F2
100
AcDbEntity
  8
CDTC4
 62
   250
420
  2301728
370
    13
  0
POLYLINE
  5
1F7
330
1F
100
AcDbEntity
  8
CDTC4
 62
   250
420
  2301728
370
    13
100
AcDb2dPolyline
 66
     1
 10
0.0
 20
0.0
 30
0.0
  0
VERTEX
  5
1F8
330
1F7
100
AcDbEntity
  8
CDTC4
 62
   250
420
  2301728
370
    13
100
AcDbVertex
100
AcDb2dVertex
 10
2.463796302491498
 20
6.721137372758435
 30
0.0
  0
VERTEX
  5
1F9
330
1F7
100
AcDbEntity
  8
CDTC4
 62
   250
420
  2301728
370
    13
100
AcDbVertex
100
AcDb2dVertex
 10
2.506689410698085
 20
6.759264580053177
 30
0.0
  0
VERTEX
  5
1FA
330
1F7
100
AcDbEntity
  8
CDTC4
 62
   250
420
  2301728
370
    13
100
AcDbVertex
100
AcDb2dVertex
 10
2.580560874831652
 20
6.90939045877624
 30
0.0
  0
SEQEND
  5
1FB
330
1F7
100
AcDbEntity
  8
CDTC4
 62
   250
420
  2301728
370
    13
  0
POLYLINE
  5
1FC
330
1F
100
AcDbEntity
  8
CDTC4
 62
   250
420
  2301728
370
    13
100
AcDb2dPolyline
 66
     1
 10
0.0
 20
0.0
 30
0.0
  0
VERTEX
  5
1FD
330
1FC
100
AcDbEntity
  8
CDTC4
 62
   250
420
  2301728
370
    13
100
AcDbVertex
100
AcDb2dVertex
 10
2.528135964801385
 20
7.078579941146674
 30
0.0
  0
VERTEX
  5
1FE
330
1FC
100
AcDbEntity
  8
CDTC4
 62
   250
420
  2301728
370
    13
100
AcDbVertex
100
AcDb2dVertex
 10
2.561497271184281
 20
7.123855999809178
 30
0.0
  0
VERTEX
  5
1FF
330
1FC
100
AcDbEntity
  8
CDTC4
 62
   250
420
  2301728
370
    13
100
AcDbVertex
100
AcDb2dVertex
 10
2.642517586685611
 20
7.257301225340787
 30
0.0
  0
SEQEND
  5
200
330
1FC
100
AcDbEntity
  8
CDTC4
 62
   250
420
  2301728
370
    13
  0
POLYLINE
  5
201
330
1F
100
AcDbEntity
  8
CDTC4
 62
   250
420
  2301728
370
    13
100
AcDb2dPolyline
 66
     1
 10
0.0
 20
0.0
 30
0.0
  0
VERTEX
  5
202
330
201
100
AcDbEntity
  8
CDTC4
 62
   250
420
  2301728
370
    13
100
AcDbVertex
100
AcDb2dVertex
 10
2.57102907300796
 20
7.064282238411149
 30
0.0
  0
VERTEX
  5
203
330
201
100
AcDbEntity
  8
CDTC4
 62
   250
420
  2301728
370
    13
100
AcDbVertex
100
AcDb2dVertex
 10
2.59485857756719
 20
7.100026495249974
 30
0.0
  0
VERTEX
  5
204
330
201
100
AcDbEntity
  8
CDTC4
 62
   250
420
  2301728
370
    13
100
AcDbVertex
100
AcDb2dVertex
 10
2.668730041700756
 20
7.250152373973024
 30
0.0
  0
SEQEND
  5
205
330
201
100
AcDbEntity
  8
CDTC4
 62
   250
420
  2301728
370
    13
  0
POLYLINE
  5
206
330
1F
100
AcDbEntity
  8
CDTC4
 62
   250
420
  2301728
370
    13
100
AcDb2dPolyline
 66
     1
 10
0.0
 20
0.0
 30
0.0
  0
VERTEX
  5
207
330
206
100
AcDbEntity
  8
CDTC4
 62
   250
420
  2301728
370
    13
100
AcDbVertex
100
AcDb2dVertex
 10
2.606773329846798
 20
7.06189928795522
 30
0.0
  0
VERTEX
  5
208
330
206
100
AcDbEntity
  8
CDTC4
 62
   250
420
  2301728
370
    13
100
AcDbVertex
100
AcDb2dVertex
 10
2.692559546259973
 20
7.247769423517108
 30
0.0
  0
SEQEND
  5
209
330
206
100
AcDbEntity
  8
CDTC4
 62
   250
420
  2301728
370
    13
  0
POLYLINE
  5
20A
330
1F
100
AcDbEntity
  8
CDTC4
 62
   250
420
  2301728
370
    13
100
AcDb2dPolyline
 66
     1
 10
0.0
 20
0.0
 30
0.0
  0
VERTEX
  5
20B
330
20A
100
AcDbEntity
  8
CDTC4
 62
   250
420
  2301728
370
    13
100
AcDbVertex
100
AcDb2dVertex
 10
2.628219883950085
 20
7.057133387043374
 30
0.0
  0
VERTEX
  5
20C
330
20A
100
AcDbEntity
  8
CDTC4
 62
   250
420
  2301728
370
    13
100
AcDbVertex
100
AcDb2dVertex
 10
2.735452654466548
 20
7.240620572149346
 30
0.0
  0
SEQEND
  5
20D
330
20A
100
AcDbEntity
  8
CDTC4
 62
   250
420
  2301728
370
    13
  0
POLYLINE
  5
20E
330
1F
100
AcDbEntity
  8
CDTC4
 62
   250
420
  2301728
370
    13
100
AcDb2dPolyline
 66
     1
 10
0.0
 20
0.0
 30
0.0
  0
VERTEX
  5
20F
330
20E
100
AcDbEntity
  8
CDTC4
 62
   250
420
  2301728
370
    13
100
AcDbVertex
100
AcDb2dVertex
 10
2.661581190332994
 20
7.042835684307849
 30
0.0
  0
VERTEX
  5
210
330
20E
100
AcDbEntity
  8
CDTC4
 62
   250
420
  2301728
370
    13
100
AcDbVertex
100
AcDb2dVertex
 10
2.764048059937611
 20
7.235854671237499
 30
0.0
  0
SEQEND
  5
211
330
20E
100
AcDbEntity
  8
CDTC4
 62
   250
420
  2301728
370
    13
  0
POLYLINE
  5
212
330
1F
100
AcDbEntity
  8
CDTC4
 62
   250
420
  2301728
370
    13
100
AcDb2dPolyline
 66
     1
 10
0.0
 20
0.0
 30
0.0
  0
VERTEX
  5
213
330
212
100
AcDbEntity
  8
CDTC4
 62
   250
420
  2301728
370
    13
100
AcDbVertex
100
AcDb2dVertex
 10
2.694942496715889
 20
7.040452733851932
 30
0.0
  0
VERTEX
  5
214
330
212
100
AcDbEntity
  8
CDTC4
 62
   250
420
  2301728
370
    13
100
AcDbVertex
100
AcDb2dVertex
 10
2.775962812217219
 20
7.188195662119066
 30
0.0
  0
VERTEX
  5
215
330
212
100
AcDbEntity
  8
CDTC4
 62
   250
420
  2301728
370
    13
100
AcDbVertex
100
AcDb2dVertex
 10
2.802175267232352
 20
7.228705819869724
 30
0.0
  0
SEQEND
  5
216
330
212
100
AcDbEntity
  8
CDTC4
 62
   250
420
  2301728
370
    13
  0
POLYLINE
  5
217
330
1F
100
AcDbEntity
  8
CDTC4
 62
   250
420
  2301728
370
    13
100
AcDb2dPolyline
 66
     1
 10
0.0
 20
0.0
 30
0.0
  0
VERTEX
  5
218
330
217
100
AcDbEntity
  8
CDTC4
 62
   250
420
  2301728
370
    13
100
AcDbVertex
100
AcDb2dVertex
 10
2.723537902186952
 20
7.03092093202824
 30
0.0
  0
VERTEX
  5
219
330
217
100
AcDbEntity
  8
CDTC4
 62
   250
420
  2301728
370
    13
100
AcDbVertex
100
AcDb2dVertex
 10
2.778345762673136
 20
7.10479239616182
 30
0.0
  0
VERTEX
  5
21A
330
217
100
AcDbEntity
  8
CDTC4
 62
   250
420
  2301728
370
    13
100
AcDbVertex
100
AcDb2dVertex
 10
2.837919524071177
 20
7.223939918957891
 30
0.0
  0
SEQEND
  5
21B
330
217
100
AcDbEntity
  8
CDTC4
 62
   250
420
  2301728
370
    13
  0
POLYLINE
  5
21C
330
1F
100
AcDbEntity
  8
CDTC4
 62
   250
420
  2301728
370
    13
100
AcDb2dPolyline
 66
     1
 10
0.0
 20
0.0
 30
0.0
  0
VERTEX
  5
21D
330
21C
100
AcDbEntity
  8
CDTC4
 62
   250
420
  2301728
370
    13
100
AcDbVertex
100
AcDb2dVertex
 10
2.81647296996789
 20
7.114324197985499
 30
0.0
  0
VERTEX
  5
21E
330
21C
100
AcDbEntity
  8
CDTC4
 62
   250
420
  2301728
370
    13
100
AcDbVertex
100
AcDb2dVertex
 10
2.871280830454086
 20
7.221556968501962
 30
0.0
  0
SEQEND
  5
21F
330
21C
100
AcDbEntity
  8
CDTC4
 62
   250
420
  2301728
370
    13
  0
POLYLINE
  5
220
330
1F
100
AcDbEntity
  8
CDTC4
 62
   250
420
  2301728
370
    13
100
AcDb2dPolyline
 66
     1
 10
0.0
 20
0.0
 30
0.0
  0
VERTEX
  5
221
330
220
100
AcDbEntity
  8
CDTC4
 62
   250
420
  2301728
370
    13
100
AcDbVertex
100
AcDb2dVertex
 10
2.456647451123735
 20
7.090494693426282
 30
0.0
  0
VERTEX
  5
222
330
220
100
AcDbEntity
  8
CDTC4
 62
   250
420
  2301728
370
    13
100
AcDbVertex
100
AcDb2dVertex
 10
2.482859906138881
 20
6.937985864247302
 30
0.0
  0
SEQEND
  5
223
330
220
100
AcDbEntity
  8
CDTC4
 62
   250
420
  2301728
370
    13
  0
POLYLINE
  5
224
330
1F
100
AcDbEntity
  8
CDTC4
 62
   250
420
  2301728
370
    13
100
AcDb2dPolyline
 66
     1
 10
0.0
 20
0.0
 30
0.0
  0
VERTEX
  5
225
330
224
100
AcDbEntity
  8
CDTC4
 62
   250
420
  2301728
370
    13
100
AcDbVertex
100
AcDb2dVertex
 10
2.504306460242156
 20
7.076196990690757
 30
0.0
  0
VERTEX
  5
226
330
224
100
AcDbEntity
  8
CDTC4
 62
   250
420
  2301728
370
    13
100
AcDbVertex
100
AcDb2dVertex
 10
2.511455311609919
 20
6.93083701287954
 30
0.0
  0
SEQEND
  5
227
330
224
100
AcDbEntity
  8
CDTC4
 62
   250
420
  2301728
370
    13
  0
POLYLINE
  5
228
330
1F
100
AcDbEntity
  8
CDTC4
 62
   250
420
  2301728
370
    13
100
AcDb2dPolyline
 66
     1
 10
0.0
 20
0.0
 30
0.0
  0
VERTEX
  5
229
330
228
100
AcDbEntity
  8
CDTC4
 62
   250
420
  2301728
370
    13
100
AcDbVertex
100
AcDb2dVertex
 10
2.551965469360602
 20
7.064282238411149
 30
0.0
  0
VERTEX
  5
22A
330
228
100
AcDbEntity
  8
CDTC4
 62
   250
420
  2301728
370
    13
100
AcDbVertex
100
AcDb2dVertex
 10
2.566263172096127
 20
6.918922260599932
 30
0.0
  0
SEQEND
  5
22B
330
228
100
AcDbEntity
  8
CDTC4
 62
   250
420
  2301728
370
    13
  0
POLYLINE
  5
22C
330
1F
100
AcDbEntity
  8
CDTC4
 62
   250
420
  2301728
370
    13
100
AcDb2dPolyline
 66
     1
 10
0.0
 20
0.0
 30
0.0
  0
VERTEX
  5
22D
330
22C
100
AcDbEntity
  8
CDTC4
 62
   250
420
  2301728
370
    13
100
AcDbVertex
100
AcDb2dVertex
 10
2.590092676655344
 20
7.054750436587457
 30
0.0
  0
VERTEX
  5
22E
330
22C
100
AcDbEntity
  8
CDTC4
 62
   250
420
  2301728
370
    13
100
AcDbVertex
100
AcDb2dVertex
 10
2.604390379390881
 20
6.90939045877624
 30
0.0
  0
SEQEND
  5
22F
330
22C
100
AcDbEntity
  8
CDTC4
 62
   250
420
  2301728
370
    13
  0
POLYLINE
  5
230
330
1F
100
AcDbEntity
  8
CDTC4
 62
   250
420
  2301728
370
    13
100
AcDb2dPolyline
 66
     1
 10
0.0
 20
0.0
 30
0.0
  0
VERTEX
  5
231
330
230
100
AcDbEntity
  8
CDTC4
 62
   250
420
  2301728
370
    13
100
AcDbVertex
100
AcDb2dVertex
 10
2.644900537141527
 20
7.045218634763778
 30
0.0
  0
VERTEX
  5
232
330
230
100
AcDbEntity
  8
CDTC4
 62
   250
420
  2301728
370
    13
100
AcDbVertex
100
AcDb2dVertex
 10
2.668730041700756
 20
6.897475706496632
 30
0.0
  0
SEQEND
  5
233
330
230
100
AcDbEntity
  8
CDTC4
 62
   250
420
  2301728
370
    13
  0
POLYLINE
  5
234
330
1F
100
AcDbEntity
  8
CDTC4
 62
   250
420
  2301728
370
    18
100
AcDb2dPolyline
 66
     1
 10
0.0
 20
0.0
 30
0.0
  0
VERTEX
  5
235
330
234
100
AcDbEntity
  8
CDTC4
 62
   250
420
  2301728
370
    18
100
AcDbVertex
100
AcDb2dVertex
 10
2.53611785655874
 20
5.913047321176438
 30
0.0
  0
VERTEX
  5
236
330
234
100
AcDbEntity
  8
CDTC4
 62
   250
420
  2301728
370
    18
100
AcDbVertex
100
AcDb2dVertex
 10
2.53611785655874
 20
5.527148521372383
 30
0.0
  0
VERTEX
  5
237
330
234
100
AcDbEntity
  8
CDTC4
 62
   250
420
  2301728
370
    18
100
AcDbVertex
100
AcDb2dVertex
 10
2.607816068065252
 20
5.484125781747858
 30
0.0
  0
VERTEX
  5
238
330
234
100
AcDbEntity
  8
CDTC4
 62
   250
420
  2301728
370
    18
100
AcDbVertex
100
AcDb2dVertex
 10
2.493094163754032
 20
5.376576558127756
 30
0.0
  0
VERTEX
  5
239
330
234
100
AcDbEntity
  8
CDTC4
 62
   250
420
  2301728
370
    18
100
AcDbVertex
100
AcDb2dVertex
 10
2.53611785655874
 20
5.355064235135337
 30
0.0
  0
VERTEX
  5
23A
330
234
100
AcDbEntity
  8
CDTC4
 62
   250
420
  2301728
370
    18
100
AcDbVertex
100
AcDb2dVertex
 10
2.53611785655874
 20
4.996699950563778
 30
0.0
  0
SEQEND
  5
23B
330
234
100
AcDbEntity
  8
CDTC4
 62
   250
420
  2301728
370
    18
  0
POLYLINE
  5
23C
330
1F
100
AcDbEntity
  8
CDTC4
 62
   250
420
  2301728
370
    13
100
AcDb2dPolyline
 66
     1
 10
0.0
 20
0.0
 30
0.0
  0
VERTEX
  5
23D
330
23C
100
AcDbEntity
  8
CDTC4
 62
   250
420
  2301728
370
    13
100
AcDbVertex
100
AcDb2dVertex
 10
2.246947811002643
 20
5.772723091301663
 30
0.0
  0
VERTEX
  5
23E
330
23C
100
AcDbEntity
  8
CDTC4
 62
   250
420
  2301728
370
    13
100
AcDbVertex
100
AcDb2dVertex
 10
2.270777315561847
 20
5.665490320785188
 30
0.0
  0
SEQEND
  5
23F
330
23C
100
AcDbEntity
  8
CDTC4
 62
   250
420
  2301728
370
    13
  0
POLYLINE
  5
240
330
1F
100
AcDbEntity
  8
CDTC4
 62
   250
420
  2301728
370
    13
100
AcDb2dPolyline
 66
     1
 10
0.0
 20
0.0
 30
0.0
  0
VERTEX
  5
241
330
240
100
AcDbEntity
  8
CDTC4
 62
   250
420
  2301728
370
    13
100
AcDbVertex
100
AcDb2dVertex
 10
2.287457968753314
 20
6.025315839629355
 30
0.0
  0
VERTEX
  5
242
330
240
100
AcDbEntity
  8
CDTC4
 62
   250
420
  2301728
370
    13
100
AcDbVertex
100
AcDb2dVertex
 10
2.282692067841468
 20
5.851360456347063
 30
0.0
  0
VERTEX
  5
243
330
240
100
AcDbEntity
  8
CDTC4
 62
   250
420
  2301728
370
    13
100
AcDbVertex
100
AcDb2dVertex
 10
2.285075018297384
 20
5.834679803155622
 30
0.0
  0
VERTEX
  5
244
330
240
100
AcDbEntity
  8
CDTC4
 62
   250
420
  2301728
370
    13
100
AcDbVertex
100
AcDb2dVertex
 10
2.282692067841468
 20
5.782254893125342
 30
0.0
  0
VERTEX
  5
245
330
240
100
AcDbEntity
  8
CDTC4
 62
   250
420
  2301728
370
    13
100
AcDbVertex
100
AcDb2dVertex
 10
2.304138621944756
 20
5.679788023520725
 30
0.0
  0
VERTEX
  5
246
330
240
100
AcDbEntity
  8
CDTC4
 62
   250
420
  2301728
370
    13
100
AcDbVertex
100
AcDb2dVertex
 10
2.31743068602259
 20
5.641875191584404
 30
0.0
  0
SEQEND
  5
247
330
240
100
AcDbEntity
  8
CDTC4
 62
   250
420
  2301728
370
    13
  0
POLYLINE
  5
248
330
1F
100
AcDbEntity
  8
CDTC4
 62
   250
420
  2301728
370
    13
100
AcDb2dPolyline
 66
     1
 10
0.0
 20
0.0
 30
0.0
  0
VERTEX
  5
249
330
248
100
AcDbEntity
  8
CDTC4
 62
   250
420
  2301728
370
    13
100
AcDbVertex
100
AcDb2dVertex
 10
2.32081927513621
 20
6.008635186437901
 30
0.0
  0
VERTEX
  5
24A
330
248
100
AcDbEntity
  8
CDTC4
 62
   250
420
  2301728
370
    13
100
AcDbVertex
100
AcDb2dVertex
 10
2.313670423768447
 20
5.844211604979313
 30
0.0
  0
VERTEX
  5
24B
330
248
100
AcDbEntity
  8
CDTC4
 62
   250
420
  2301728
370
    13
100
AcDbVertex
100
AcDb2dVertex
 10
2.361329432886881
 20
5.622597212578612
 30
0.0
  0
SEQEND
  5
24C
330
248
100
AcDbEntity
  8
CDTC4
 62
   250
420
  2301728
370
    13
  0
POLYLINE
  5
24D
330
1F
100
AcDbEntity
  8
CDTC4
 62
   250
420
  2301728
370
    13
100
AcDb2dPolyline
 66
     1
 10
0.0
 20
0.0
 30
0.0
  0
VERTEX
  5
24E
330
24D
100
AcDbEntity
  8
CDTC4
 62
   250
420
  2301728
370
    13
100
AcDbVertex
100
AcDb2dVertex
 10
2.361329432886881
 20
5.991954533246447
 30
0.0
  0
VERTEX
  5
24F
330
24D
100
AcDbEntity
  8
CDTC4
 62
   250
420
  2301728
370
    13
100
AcDbVertex
100
AcDb2dVertex
 10
2.349414680607272
 20
5.891870614097747
 30
0.0
  0
VERTEX
  5
250
330
24D
100
AcDbEntity
  8
CDTC4
 62
   250
420
  2301728
370
    13
100
AcDbVertex
100
AcDb2dVertex
 10
2.39230778881386
 20
5.60353360893123
 30
0.0
  0
SEQEND
  5
251
330
24D
100
AcDbEntity
  8
CDTC4
 62
   250
420
  2301728
370
    13
  0
POLYLINE
  5
252
330
1F
100
AcDbEntity
  8
CDTC4
 62
   250
420
  2301728
370
    13
100
AcDb2dPolyline
 66
     1
 10
0.0
 20
0.0
 30
0.0
  0
VERTEX
  5
253
330
252
100
AcDbEntity
  8
CDTC4
 62
   250
420
  2301728
370
    13
100
AcDbVertex
100
AcDb2dVertex
 10
2.404222541093456
 20
5.970507979143172
 30
0.0
  0
VERTEX
  5
254
330
252
100
AcDbEntity
  8
CDTC4
 62
   250
420
  2301728
370
    13
100
AcDbVertex
100
AcDb2dVertex
 10
2.389924838357931
 20
5.910934217745131
 30
0.0
  0
VERTEX
  5
255
330
252
100
AcDbEntity
  8
CDTC4
 62
   250
420
  2301728
370
    13
100
AcDbVertex
100
AcDb2dVertex
 10
2.437583847476364
 20
5.582087054827942
 30
0.0
  0
SEQEND
  5
256
330
252
100
AcDbEntity
  8
CDTC4
 62
   250
420
  2301728
370
    13
  0
POLYLINE
  5
257
330
1F
100
AcDbEntity
  8
CDTC4
 62
   250
420
  2301728
370
    13
100
AcDb2dPolyline
 66
     1
 10
0.0
 20
0.0
 30
0.0
  0
VERTEX
  5
258
330
257
100
AcDbEntity
  8
CDTC4
 62
   250
420
  2301728
370
    13
100
AcDbVertex
100
AcDb2dVertex
 10
2.442349748388197
 20
5.953827325951693
 30
0.0
  0
VERTEX
  5
259
330
257
100
AcDbEntity
  8
CDTC4
 62
   250
420
  2301728
370
    13
100
AcDbVertex
100
AcDb2dVertex
 10
2.435200897020435
 20
5.932380771848405
 30
0.0
  0
VERTEX
  5
25A
330
257
100
AcDbEntity
  8
CDTC4
 62
   250
420
  2301728
370
    13
100
AcDbVertex
100
AcDb2dVertex
 10
2.473328104315176
 20
5.567789352092417
 30
0.0
  0
SEQEND
  5
25B
330
257
100
AcDbEntity
  8
CDTC4
 62
   250
420
  2301728
370
    13
  0
POLYLINE
  5
25C
330
1F
100
AcDbEntity
  8
CDTC4
 62
   250
420
  2301728
370
    13
100
AcDb2dPolyline
 66
     1
 10
0.0
 20
0.0
 30
0.0
  0
VERTEX
  5
25D
330
25C
100
AcDbEntity
  8
CDTC4
 62
   250
420
  2301728
370
    13
100
AcDbVertex
100
AcDb2dVertex
 10
2.494774658418477
 20
5.929997821392488
 30
0.0
  0
VERTEX
  5
25E
330
25C
100
AcDbEntity
  8
CDTC4
 62
   250
420
  2301728
370
    13
100
AcDbVertex
100
AcDb2dVertex
 10
2.494774658418477
 20
5.605916559387146
 30
0.0
  0
VERTEX
  5
25F
330
25C
100
AcDbEntity
  8
CDTC4
 62
   250
420
  2301728
370
    13
100
AcDbVertex
100
AcDb2dVertex
 10
2.506689410698085
 20
5.546342797989129
 30
0.0
  0
SEQEND
  5
260
330
25C
100
AcDbEntity
  8
CDTC4
 62
   250
420
  2301728
370
    13
  0
POLYLINE
  5
261
330
1F
100
AcDbEntity
  8
CDTC4
 62
   250
420
  2301728
370
    13
100
AcDb2dPolyline
 66
     1
 10
0.0
 20
0.0
 30
0.0
  0
VERTEX
  5
262
330
261
100
AcDbEntity
  8
CDTC4
 62
   250
420
  2301728
370
    13
100
AcDbVertex
100
AcDb2dVertex
 10
2.339882878783568
 20
5.627363113490459
 30
0.0
  0
VERTEX
  5
263
330
261
100
AcDbEntity
  8
CDTC4
 62
   250
420
  2301728
370
    13
100
AcDbVertex
100
AcDb2dVertex
 10
2.22073535598751
 20
5.529662144797688
 30
0.0
  0
SEQEND
  5
264
330
261
100
AcDbEntity
  8
CDTC4
 62
   250
420
  2301728
370
    13
  0
POLYLINE
  5
265
330
1F
100
AcDbEntity
  8
CDTC4
 62
   250
420
  2301728
370
    13
100
AcDb2dPolyline
 66
     1
 10
0.0
 20
0.0
 30
0.0
  0
VERTEX
  5
266
330
265
100
AcDbEntity
  8
CDTC4
 62
   250
420
  2301728
370
    13
100
AcDbVertex
100
AcDb2dVertex
 10
2.37086123471056
 20
5.610682460298992
 30
0.0
  0
VERTEX
  5
267
330
265
100
AcDbEntity
  8
CDTC4
 62
   250
420
  2301728
370
    13
100
AcDbVertex
100
AcDb2dVertex
 10
2.237416009178964
 20
5.512981491606208
 30
0.0
  0
SEQEND
  5
268
330
265
100
AcDbEntity
  8
CDTC4
 62
   250
420
  2301728
370
    13
  0
POLYLINE
  5
269
330
1F
100
AcDbEntity
  8
CDTC4
 62
   250
420
  2301728
370
    13
100
AcDb2dPolyline
 66
     1
 10
0.0
 20
0.0
 30
0.0
  0
VERTEX
  5
26A
330
269
100
AcDbEntity
  8
CDTC4
 62
   250
420
  2301728
370
    13
100
AcDbVertex
100
AcDb2dVertex
 10
2.411371392461218
 20
5.591618856651646
 30
0.0
  0
VERTEX
  5
26B
330
269
100
AcDbEntity
  8
CDTC4
 62
   250
420
  2301728
370
    13
100
AcDbVertex
100
AcDb2dVertex
 10
2.27792616692961
 20
5.496300838414767
 30
0.0
  0
SEQEND
  5
26C
330
269
100
AcDbEntity
  8
CDTC4
 62
   250
420
  2301728
370
    13
  0
POLYLINE
  5
26D
330
1F
100
AcDbEntity
  8
CDTC4
 62
   250
420
  2301728
370
    13
100
AcDb2dPolyline
 66
     1
 10
0.0
 20
0.0
 30
0.0
  0
VERTEX
  5
26E
330
26D
100
AcDbEntity
  8
CDTC4
 62
   250
420
  2301728
370
    13
100
AcDbVertex
100
AcDb2dVertex
 10
2.456647451123735
 20
5.567789352092417
 30
0.0
  0
VERTEX
  5
26F
330
26D
100
AcDbEntity
  8
CDTC4
 62
   250
420
  2301728
370
    13
100
AcDbVertex
100
AcDb2dVertex
 10
2.32081927513621
 20
5.477237234767395
 30
0.0
  0
SEQEND
  5
270
330
26D
100
AcDbEntity
  8
CDTC4
 62
   250
420
  2301728
370
    13
  0
POLYLINE
  5
271
330
1F
100
AcDbEntity
  8
CDTC4
 62
   250
420
  2301728
370
    13
100
AcDb2dPolyline
 66
     1
 10
0.0
 20
0.0
 30
0.0
  0
VERTEX
  5
272
330
271
100
AcDbEntity
  8
CDTC4
 62
   250
420
  2301728
370
    13
100
AcDbVertex
100
AcDb2dVertex
 10
2.487625807050714
 20
5.548725748445033
 30
0.0
  0
VERTEX
  5
273
330
271
100
AcDbEntity
  8
CDTC4
 62
   250
420
  2301728
370
    13
100
AcDbVertex
100
AcDb2dVertex
 10
2.356563531975048
 20
5.453407730208179
 30
0.0
  0
SEQEND
  5
274
330
271
100
AcDbEntity
  8
CDTC4
 62
   250
420
  2301728
370
    13
  0
POLYLINE
  5
275
330
1F
100
AcDbEntity
  8
CDTC4
 62
   250
420
  2301728
370
    13
100
AcDb2dPolyline
 66
     1
 10
0.0
 20
0.0
 30
0.0
  0
VERTEX
  5
276
330
275
100
AcDbEntity
  8
CDTC4
 62
   250
420
  2301728
370
    13
100
AcDbVertex
100
AcDb2dVertex
 10
2.520987113433623
 20
5.536810996165437
 30
0.0
  0
VERTEX
  5
277
330
275
100
AcDbEntity
  8
CDTC4
 62
   250
420
  2301728
370
    13
100
AcDbVertex
100
AcDb2dVertex
 10
2.389924838357931
 20
5.436727077016712
 30
0.0
  0
SEQEND
  5
278
330
275
100
AcDbEntity
  8
CDTC4
 62
   250
420
  2301728
370
    13
  0
POLYLINE
  5
279
330
1F
100
AcDbEntity
  8
CDTC4
 62
   250
420
  2301728
370
    13
100
AcDb2dPolyline
 66
     1
 10
0.0
 20
0.0
 30
0.0
  0
VERTEX
  5
27A
330
279
100
AcDbEntity
  8
CDTC4
 62
   250
420
  2301728
370
    13
100
AcDbVertex
100
AcDb2dVertex
 10
2.561497271184281
 20
5.508215590694375
 30
0.0
  0
VERTEX
  5
27B
330
279
100
AcDbEntity
  8
CDTC4
 62
   250
420
  2301728
370
    13
100
AcDbVertex
100
AcDb2dVertex
 10
2.490008757506644
 20
5.455790680664121
 30
0.0
  0
VERTEX
  5
27C
330
279
100
AcDbEntity
  8
CDTC4
 62
   250
420
  2301728
370
    13
100
AcDbVertex
100
AcDb2dVertex
 10
2.425669095196756
 20
5.412897572457496
 30
0.0
  0
SEQEND
  5
27D
330
279
100
AcDbEntity
  8
CDTC4
 62
   250
420
  2301728
370
    13
  0
POLYLINE
  5
27E
330
1F
100
AcDbEntity
  8
CDTC4
 62
   250
420
  2301728
370
    13
100
AcDb2dPolyline
 66
     1
 10
0.0
 20
0.0
 30
0.0
  0
VERTEX
  5
27F
330
27E
100
AcDbEntity
  8
CDTC4
 62
   250
420
  2301728
370
    13
100
AcDbVertex
100
AcDb2dVertex
 10
2.590092676655344
 20
5.489151987047004
 30
0.0
  0
VERTEX
  5
280
330
27E
100
AcDbEntity
  8
CDTC4
 62
   250
420
  2301728
370
    13
100
AcDbVertex
100
AcDb2dVertex
 10
2.563880221640197
 20
5.467705432943704
 30
0.0
  0
VERTEX
  5
281
330
27E
100
AcDbEntity
  8
CDTC4
 62
   250
420
  2301728
370
    13
100
AcDbVertex
100
AcDb2dVertex
 10
2.463796302491498
 20
5.396216919266053
 30
0.0
  0
SEQEND
  5
282
330
27E
100
AcDbEntity
  8
CDTC4
 62
   250
420
  2301728
370
    13
  0
POLYLINE
  5
283
330
1F
100
AcDbEntity
  8
CDTC4
 62
   250
420
  2301728
370
    13
100
AcDb2dPolyline
 66
     1
 10
0.0
 20
0.0
 30
0.0
  0
VERTEX
  5
284
330
283
100
AcDbEntity
  8
CDTC4
 62
   250
420
  2301728
370
    13
100
AcDbVertex
100
AcDb2dVertex
 10
2.246947811002643
 20
5.496300838414767
 30
0.0
  0
VERTEX
  5
285
330
283
100
AcDbEntity
  8
CDTC4
 62
   250
420
  2301728
370
    13
100
AcDbVertex
100
AcDb2dVertex
 10
2.268394365105931
 20
5.31996250467657
 30
0.0
  0
VERTEX
  5
286
330
283
100
AcDbEntity
  8
CDTC4
 62
   250
420
  2301728
370
    13
100
AcDbVertex
100
AcDb2dVertex
 10
2.249330761458559
 20
5.224644486439703
 30
0.0
  0
SEQEND
  5
287
330
283
100
AcDbEntity
  8
CDTC4
 62
   250
420
  2301728
370
    13
  0
POLYLINE
  5
288
330
1F
100
AcDbEntity
  8
CDTC4
 62
   250
420
  2301728
370
    13
100
AcDb2dPolyline
 66
     1
 10
0.0
 20
0.0
 30
0.0
  0
VERTEX
  5
289
330
288
100
AcDbEntity
  8
CDTC4
 62
   250
420
  2301728
370
    13
100
AcDbVertex
100
AcDb2dVertex
 10
2.28984091920923
 20
5.489151987047004
 30
0.0
  0
VERTEX
  5
28A
330
288
100
AcDbEntity
  8
CDTC4
 62
   250
420
  2301728
370
    13
100
AcDbVertex
100
AcDb2dVertex
 10
2.313670423768447
 20
5.329494306500262
 30
0.0
  0
VERTEX
  5
28B
330
288
100
AcDbEntity
  8
CDTC4
 62
   250
420
  2301728
370
    13
100
AcDbVertex
100
AcDb2dVertex
 10
2.287457968753314
 20
5.188900229600904
 30
0.0
  0
VERTEX
  5
28C
330
288
100
AcDbEntity
  8
CDTC4
 62
   250
420
  2301728
370
    13
100
AcDbVertex
100
AcDb2dVertex
 10
2.287457968753314
 20
5.141241220482445
 30
0.0
  0
SEQEND
  5
28D
330
288
100
AcDbEntity
  8
CDTC4
 62
   250
420
  2301728
370
    13
  0
POLYLINE
  5
28E
330
1F
100
AcDbEntity
  8
CDTC4
 62
   250
420
  2301728
370
    13
100
AcDb2dPolyline
 66
     1
 10
0.0
 20
0.0
 30
0.0
  0
VERTEX
  5
28F
330
28E
100
AcDbEntity
  8
CDTC4
 62
   250
420
  2301728
370
    13
100
AcDbVertex
100
AcDb2dVertex
 10
2.327968126503972
 20
5.460556581575954
 30
0.0
  0
VERTEX
  5
290
330
28E
100
AcDbEntity
  8
CDTC4
 62
   250
420
  2301728
370
    13
100
AcDbVertex
100
AcDb2dVertex
 10
2.347031730151343
 20
5.353323811059479
 30
0.0
  0
VERTEX
  5
291
330
28E
100
AcDbEntity
  8
CDTC4
 62
   250
420
  2301728
370
    13
100
AcDbVertex
100
AcDb2dVertex
 10
2.330351076959889
 20
5.181751378233129
 30
0.0
  0
VERTEX
  5
292
330
28E
100
AcDbEntity
  8
CDTC4
 62
   250
420
  2301728
370
    13
100
AcDbVertex
100
AcDb2dVertex
 10
2.347031730151343
 20
5.103114013187729
 30
0.0
  0
SEQEND
  5
293
330
28E
100
AcDbEntity
  8
CDTC4
 62
   250
420
  2301728
370
    13
  0
POLYLINE
  5
294
330
1F
100
AcDbEntity
  8
CDTC4
 62
   250
420
  2301728
370
    13
100
AcDb2dPolyline
 66
     1
 10
0.0
 20
0.0
 30
0.0
  0
VERTEX
  5
295
330
294
100
AcDbEntity
  8
CDTC4
 62
   250
420
  2301728
370
    13
100
AcDbVertex
100
AcDb2dVertex
 10
2.368478284254631
 20
5.446258878840404
 30
0.0
  0
VERTEX
  5
296
330
294
100
AcDbEntity
  8
CDTC4
 62
   250
420
  2301728
370
    13
100
AcDbVertex
100
AcDb2dVertex
 10
2.39230778881386
 20
5.274686446014053
 30
0.0
  0
VERTEX
  5
297
330
294
100
AcDbEntity
  8
CDTC4
 62
   250
420
  2301728
370
    13
100
AcDbVertex
100
AcDb2dVertex
 10
2.375627135622393
 20
5.203197932336403
 30
0.0
  0
VERTEX
  5
298
330
294
100
AcDbEntity
  8
CDTC4
 62
   250
420
  2301728
370
    13
100
AcDbVertex
100
AcDb2dVertex
 10
2.387541887902014
 20
5.176985477321296
 30
0.0
  0
VERTEX
  5
299
330
294
100
AcDbEntity
  8
CDTC4
 62
   250
420
  2301728
370
    13
100
AcDbVertex
100
AcDb2dVertex
 10
2.406605491549372
 20
5.072135657260737
 30
0.0
  0
SEQEND
  5
29A
330
294
100
AcDbEntity
  8
CDTC4
 62
   250
420
  2301728
370
    13
  0
POLYLINE
  5
29B
330
1F
100
AcDbEntity
  8
CDTC4
 62
   250
420
  2301728
370
    13
100
AcDb2dPolyline
 66
     1
 10
0.0
 20
0.0
 30
0.0
  0
VERTEX
  5
29C
330
29B
100
AcDbEntity
  8
CDTC4
 62
   250
420
  2301728
370
    13
100
AcDbVertex
100
AcDb2dVertex
 10
2.406605491549372
 20
5.422429374281188
 30
0.0
  0
VERTEX
  5
29D
330
29B
100
AcDbEntity
  8
CDTC4
 62
   250
420
  2301728
370
    13
100
AcDbVertex
100
AcDb2dVertex
 10
2.437583847476364
 20
5.246091040543003
 30
0.0
  0
VERTEX
  5
29E
330
29B
100
AcDbEntity
  8
CDTC4
 62
   250
420
  2301728
370
    13
100
AcDbVertex
100
AcDb2dVertex
 10
2.425669095196756
 20
5.200814981880487
 30
0.0
  0
VERTEX
  5
29F
330
29B
100
AcDbEntity
  8
CDTC4
 62
   250
420
  2301728
370
    13
100
AcDbVertex
100
AcDb2dVertex
 10
2.456647451123735
 20
5.04115730133377
 30
0.0
  0
SEQEND
  5
2A0
330
29B
100
AcDbEntity
  8
CDTC4
 62
   250
420
  2301728
370
    13
  0
POLYLINE
  5
2A1
330
1F
100
AcDbEntity
  8
CDTC4
 62
   250
420
  2301728
370
    13
100
AcDb2dPolyline
 66
     1
 10
0.0
 20
0.0
 30
0.0
  0
VERTEX
  5
2A2
330
2A1
100
AcDbEntity
  8
CDTC4
 62
   250
420
  2301728
370
    13
100
AcDbVertex
100
AcDb2dVertex
 10
2.451881550211902
 20
5.398599869721996
 30
0.0
  0
VERTEX
  5
2A3
330
2A1
100
AcDbEntity
  8
CDTC4
 62
   250
420
  2301728
370
    13
100
AcDbVertex
100
AcDb2dVertex
 10
2.47094515385926
 20
5.281835297381804
 30
0.0
  0
VERTEX
  5
2A4
330
2A1
100
AcDbEntity
  8
CDTC4
 62
   250
420
  2301728
370
    13
100
AcDbVertex
100
AcDb2dVertex
 10
2.461413352035581
 20
5.172219576409437
 30
0.0
  0
VERTEX
  5
2A5
330
2A1
100
AcDbEntity
  8
CDTC4
 62
   250
420
  2301728
370
    13
100
AcDbVertex
100
AcDb2dVertex
 10
2.475711054771106
 20
5.136475319570612
 30
0.0
  0
VERTEX
  5
2A6
330
2A1
100
AcDbEntity
  8
CDTC4
 62
   250
420
  2301728
370
    13
100
AcDbVertex
100
AcDb2dVertex
 10
2.497157608874406
 20
5.019710747230445
 30
0.0
  0
SEQEND
  5
2A7
330
2A1
100
AcDbEntity
  8
CDTC4
 62
   250
420
  2301728
370
    13
  0
POLYLINE
  5
2A8
330
1F
100
AcDbEntity
  8
CDTC4
 62
   250
420
  2301728
370
    13
100
AcDb2dPolyline
 66
     1
 10
0.0
 20
0.0
 30
0.0
  0
VERTEX
  5
2A9
330
2A8
100
AcDbEntity
  8
CDTC4
 62
   250
420
  2301728
370
    13
100
AcDbVertex
100
AcDb2dVertex
 10
2.485242856594798
 20
5.379536266074612
 30
0.0
  0
VERTEX
  5
2AA
330
2A8
100
AcDbEntity
  8
CDTC4
 62
   250
420
  2301728
370
    13
100
AcDbVertex
100
AcDb2dVertex
 10
2.516221212521777
 20
5.258005792822612
 30
0.0
  0
VERTEX
  5
2AB
330
2A8
100
AcDbEntity
  8
CDTC4
 62
   250
420
  2301728
370
    13
100
AcDbVertex
100
AcDb2dVertex
 10
2.501923509786239
 20
5.193666130512737
 30
0.0
  0
VERTEX
  5
2AC
330
2A8
100
AcDbEntity
  8
CDTC4
 62
   250
420
  2301728
370
    13
100
AcDbVertex
100
AcDb2dVertex
 10
2.537667766625064
 20
5.029242549054136
 30
0.0
  0
SEQEND
  5
2AD
330
2A8
100
AcDbEntity
  8
CDTC4
 62
   250
420
  2301728
370
    13
  0
POLYLINE
  5
2AE
330
1F
100
AcDbEntity
  8
CDTC4
 62
   250
420
  2301728
370
    18
100
AcDb2dPolyline
 66
     1
 10
0.0
 20
0.0
 30
0.0
  0
VERTEX
  5
2AF
330
2AE
100
AcDbEntity
  8
CDTC4
 62
   250
420
  2301728
370
    18
100
AcDbVertex
100
AcDb2dVertex
 10
3.17187663079561
 20
6.457113976906511
 30
0.0
  0
VERTEX
  5
2B0
330
2AE
100
AcDbEntity
  8
CDTC4
 62
   250
420
  2301728
370
    18
100
AcDbVertex
100
AcDb2dVertex
 10
3.17187663079561
 20
5.71965564568096
 30
0.0
  0
VERTEX
  5
2B1
330
2AE
100
AcDbEntity
  8
CDTC4
 62
   250
420
  2301728
370
    18
100
AcDbVertex
100
AcDb2dVertex
 10
3.184661636258751
 20
5.708998138331126
 30
0.0
  0
VERTEX
  5
2B2
330
2AE
100
AcDbEntity
  8
CDTC4
 62
   250
420
  2301728
370
    18
100
AcDbVertex
100
AcDb2dVertex
 10
4.137390940333136
 20
6.077726350763769
 30
0.0
  0
VERTEX
  5
2B3
330
2AE
100
AcDbEntity
  8
CDTC4
 62
   250
420
  2301728
370
    18
100
AcDbVertex
100
AcDb2dVertex
 10
4.137390940333136
 20
6.697959726582426
 30
0.0
  0
VERTEX
  5
2B4
330
2AE
100
AcDbEntity
  8
CDTC4
 62
   250
420
  2301728
370
    18
100
AcDbVertex
100
AcDb2dVertex
 10
4.116074972453311
 20
6.704354612264372
 30
0.0
  0
VERTEX
  5
2B5
330
2AE
100
AcDbEntity
  8
CDTC4
 62
   250
420
  2301728
370
    18
100
AcDbVertex
100
AcDb2dVertex
 10
3.17187663079561
 20
6.457113976906511
 30
0.0
  0
SEQEND
  5
2B7
330
2AE
100
AcDbEntity
  8
CDTC4
 62
   250
420
  2301728
370
    18
  0
HATCH
  5
2B6
330
1F
100
AcDbEntity
  8
CDTC4
 62
   254
420
 13358815
100
AcDbHatch
 10
0.0
 20
0.0
 30
0.0
210
0.0
220
0.0
230
1.0
  2
SOLID
 70
     1
 71
     0
 91
        1
 92
        1
 93
        6
 72
     1
 10
3.17187663079561
 20
6.457113976906511
 11
3.17187663079561
 21
5.71965564568096
 72
     1
 10
3.17187663079561
 20
5.71965564568096
 11
3.184661636258751
 21
5.708998138331126
 72
     1
 10
3.184661636258751
 20
5.708998138331126
 11
4.137390940333136
 21
6.077726350763769
 72
     1
 10
4.137390940333136
 20
6.077726350763769
 11
4.137390940333136
 21
6.697959726582426
 72
     1
 10
4.137390940333136
 20
6.697959726582426
 11
4.116074972453311
 21
6.704354612264372
 72
     1
 10
4.116074972453311
 20
6.704354612264372
 11
3.17187663079561
 21
6.457113976906511
 97
        0
 75
     2
 76
     1
 98
        0
  0
POLYLINE
  5
2B8
330
1F
100
AcDbEntity
  8
CDTC4
 62
   250
420
  2301728
370
    13
100
AcDb2dPolyline
 66
     1
 10
0.0
 20
0.0
 30
0.0
  0
VERTEX
  5
2B9
330
2B8
100
AcDbEntity
  8
CDTC4
 62
   250
420
  2301728
370
    13
100
AcDbVertex
100
AcDb2dVertex
 10
4.137390940333136
 20
6.697959726582426
 30
0.0
  0
VERTEX
  5
2BA
330
2B8
100
AcDbEntity
  8
CDTC4
 62
   250
420
  2301728
370
    13
100
AcDbVertex
100
AcDb2dVertex
 10
3.188925211106784
 20
6.44645551637652
 30
0.0
  0
VERTEX
  5
2BB
330
2B8
100
AcDbEntity
  8
CDTC4
 62
   250
420
  2301728
370
    13
100
AcDbVertex
100
AcDb2dVertex
 10
3.188925211106784
 20
5.713288402223598
 30
0.0
  0
SEQEND
  5
2BC
330
2B8
100
AcDbEntity
  8
CDTC4
 62
   250
420
  2301728
370
    13
  0
POLYLINE
  5
2BD
330
1F
100
AcDbEntity
  8
CDTC4
 62
   250
420
  2301728
370
    13
100
AcDb2dPolyline
 66
     1
 10
0.0
 20
0.0
 30
0.0
  0
VERTEX
  5
2BE
330
2BD
100
AcDbEntity
  8
CDTC4
 62
   250
420
  2301728
370
    13
100
AcDbVertex
100
AcDb2dVertex
 10
3.291829587815528
 20
6.4364309206518
 30
0.0
  0
VERTEX
  5
2BF
330
2BD
100
AcDbEntity
  8
CDTC4
 62
   250
420
  2301728
370
    13
100
AcDbVertex
100
AcDb2dVertex
 10
3.313625005314975
 20
6.419117356256644
 30
0.0
  0
VERTEX
  5
2C0
330
2BD
100
AcDbEntity
  8
CDTC4
 62
   250
420
  2301728
370
    13
100
AcDbVertex
100
AcDb2dVertex
 10
3.218763562781861
 20
6.393174651888481
 30
0.0
  0
VERTEX
  5
2C1
330
2BD
100
AcDbEntity
  8
CDTC4
 62
   250
420
  2301728
370
    13
100
AcDbVertex
100
AcDb2dVertex
 10
3.218763562781861
 20
6.416617164701442
 30
0.0
  0
VERTEX
  5
2C2
330
2BD
100
AcDbEntity
  8
CDTC4
 62
   250
420
  2301728
370
    13
100
AcDbVertex
100
AcDb2dVertex
 10
3.314541964627235
 20
6.442583698573558
 30
0.0
  0
SEQEND
  5
2C3
330
2BD
100
AcDbEntity
  8
CDTC4
 62
   250
420
  2301728
370
    13
  0
POLYLINE
  5
2C4
330
1F
100
AcDbEntity
  8
CDTC4
 62
   250
420
  2301728
370
    13
100
AcDb2dPolyline
 66
     1
 10
0.0
 20
0.0
 30
0.0
  0
VERTEX
  5
2C5
330
2C4
100
AcDbEntity
  8
CDTC4
 62
   250
420
  2301728
370
    13
100
AcDbVertex
100
AcDb2dVertex
 10
3.445311610083422
 20
6.478043906822235
 30
0.0
  0
VERTEX
  5
2C6
330
2C4
100
AcDbEntity
  8
CDTC4
 62
   250
420
  2301728
370
    13
100
AcDbVertex
100
AcDb2dVertex
 10
3.468140274874461
 20
6.461372785853755
 30
0.0
  0
VERTEX
  5
2C7
330
2C4
100
AcDbEntity
  8
CDTC4
 62
   250
420
  2301728
370
    13
100
AcDbVertex
100
AcDb2dVertex
 10
3.368465272541989
 20
6.43411755240763
 30
0.0
  0
VERTEX
  5
2C8
330
2C4
100
AcDbEntity
  8
CDTC4
 62
   250
420
  2301728
370
    13
100
AcDbVertex
100
AcDb2dVertex
 10
3.367982010201735
 20
6.45707203697955
 30
0.0
  0
VERTEX
  5
2C9
330
2C4
100
AcDbEntity
  8
CDTC4
 62
   250
420
  2301728
370
    13
100
AcDbVertex
100
AcDb2dVertex
 10
3.468824658228097
 20
6.484411150279609
 30
0.0
  0
SEQEND
  5
2CA
330
2C4
100
AcDbEntity
  8
CDTC4
 62
   250
420
  2301728
370
    13
  0
POLYLINE
  5
2CB
330
1F
100
AcDbEntity
  8
CDTC4
 62
   250
420
  2301728
370
    13
100
AcDb2dPolyline
 66
     1
 10
0.0
 20
0.0
 30
0.0
  0
VERTEX
  5
2CC
330
2CB
100
AcDbEntity
  8
CDTC4
 62
   250
420
  2301728
370
    13
100
AcDbVertex
100
AcDb2dVertex
 10
3.594506293826283
 20
6.518502591820972
 30
0.0
  0
VERTEX
  5
2CD
330
2CB
100
AcDbEntity
  8
CDTC4
 62
   250
420
  2301728
370
    13
100
AcDbVertex
100
AcDb2dVertex
 10
3.62321792072732
 20
6.503776911555569
 30
0.0
  0
VERTEX
  5
2CE
330
2CB
100
AcDbEntity
  8
CDTC4
 62
   250
420
  2301728
370
    13
100
AcDbVertex
100
AcDb2dVertex
 10
3.531377170347999
 20
6.478662520744958
 30
0.0
  0
VERTEX
  5
2CF
330
2CB
100
AcDbEntity
  8
CDTC4
 62
   250
420
  2301728
370
    13
100
AcDbVertex
100
AcDb2dVertex
 10
3.530194209539407
 20
6.501049863122703
 30
0.0
  0
VERTEX
  5
2D0
330
2CB
100
AcDbEntity
  8
CDTC4
 62
   250
420
  2301728
370
    13
100
AcDbVertex
100
AcDb2dVertex
 10
3.624525683904494
 20
6.526637984471992
 30
0.0
  0
SEQEND
  5
2D1
330
2CB
100
AcDbEntity
  8
CDTC4
 62
   250
420
  2301728
370
    13
  0
POLYLINE
  5
2D2
330
1F
100
AcDbEntity
  8
CDTC4
 62
   250
420
  2301728
370
    13
100
AcDb2dPolyline
 66
     1
 10
0.0
 20
0.0
 30
0.0
  0
VERTEX
  5
2D3
330
2D2
100
AcDbEntity
  8
CDTC4
 62
   250
420
  2301728
370
    13
100
AcDbVertex
100
AcDb2dVertex
 10
3.740066439475779
 20
6.557969969455105
 30
0.0
  0
VERTEX
  5
2D4
330
2D2
100
AcDbEntity
  8
CDTC4
 62
   250
420
  2301728
370
    13
100
AcDbVertex
100
AcDb2dVertex
 10
3.766353172376991
 20
6.542918301575557
 30
0.0
  0
VERTEX
  5
2D5
330
2D2
100
AcDbEntity
  8
CDTC4
 62
   250
420
  2301728
370
    13
100
AcDbVertex
100
AcDb2dVertex
 10
3.674623879844022
 20
6.517832506169712
 30
0.0
  0
VERTEX
  5
2D6
330
2D2
100
AcDbEntity
  8
CDTC4
 62
   250
420
  2301728
370
    13
100
AcDbVertex
100
AcDb2dVertex
 10
3.672347685626025
 20
6.539600281444564
 30
0.0
  0
VERTEX
  5
2D7
330
2D2
100
AcDbEntity
  8
CDTC4
 62
   250
420
  2301728
370
    13
100
AcDbVertex
100
AcDb2dVertex
 10
3.766706802215708
 20
6.565184590073196
 30
0.0
  0
SEQEND
  5
2D8
330
2D2
100
AcDbEntity
  8
CDTC4
 62
   250
420
  2301728
370
    13
  0
POLYLINE
  5
2D9
330
1F
100
AcDbEntity
  8
CDTC4
 62
   250
420
  2301728
370
    13
100
AcDb2dPolyline
 66
     1
 10
0.0
 20
0.0
 30
0.0
  0
VERTEX
  5
2DA
330
2D9
100
AcDbEntity
  8
CDTC4
 62
   250
420
  2301728
370
    13
100
AcDbVertex
100
AcDb2dVertex
 10
3.877965803011862
 20
6.595352742083049
 30
0.0
  0
VERTEX
  5
2DB
330
2D9
100
AcDbEntity
  8
CDTC4
 62
   250
420
  2301728
370
    13
100
AcDbVertex
100
AcDb2dVertex
 10
3.898537337188069
 20
6.579067659078671
 30
0.0
  0
VERTEX
  5
2DC
330
2D9
100
AcDbEntity
  8
CDTC4
 62
   250
420
  2301728
370
    13
100
AcDbVertex
100
AcDb2dVertex
 10
3.815743155458904
 20
6.556429630319321
 30
0.0
  0
VERTEX
  5
2DD
330
2D9
100
AcDbEntity
  8
CDTC4
 62
   250
420
  2301728
370
    13
100
AcDbVertex
100
AcDb2dVertex
 10
3.815608757056604
 20
6.578439513354359
 30
0.0
  0
VERTEX
  5
2DE
330
2D9
100
AcDbEntity
  8
CDTC4
 62
   250
420
  2301728
370
    13
100
AcDbVertex
100
AcDb2dVertex
 10
3.898970080979931
 20
6.601054665789938
 30
0.0
  0
SEQEND
  5
2DF
330
2D9
100
AcDbEntity
  8
CDTC4
 62
   250
420
  2301728
370
    13
  0
POLYLINE
  5
2E0
330
1F
100
AcDbEntity
  8
CDTC4
 62
   250
420
  2301728
370
    13
100
AcDb2dPolyline
 66
     1
 10
0.0
 20
0.0
 30
0.0
  0
VERTEX
  5
2E1
330
2E0
100
AcDbEntity
  8
CDTC4
 62
   250
420
  2301728
370
    13
100
AcDbVertex
100
AcDb2dVertex
 10
4.0130028360367
 20
6.63197201740421
 30
0.0
  0
VERTEX
  5
2E2
330
2E0
100
AcDbEntity
  8
CDTC4
 62
   250
420
  2301728
370
    13
100
AcDbVertex
100
AcDb2dVertex
 10
4.039344922891195
 20
6.61757232475294
 30
0.0
  0
VERTEX
  5
2E3
330
2E0
100
AcDbEntity
  8
CDTC4
 62
   250
420
  2301728
370
    13
100
AcDbVertex
100
AcDb2dVertex
 10
3.957003501737214
 20
6.59505534987367
 30
0.0
  0
VERTEX
  5
2E4
330
2E0
100
AcDbEntity
  8
CDTC4
 62
   250
420
  2301728
370
    13
100
AcDbVertex
100
AcDb2dVertex
 10
3.956351526508936
 20
6.616608659612906
 30
0.0
  0
VERTEX
  5
2E5
330
2E0
100
AcDbEntity
  8
CDTC4
 62
   250
420
  2301728
370
    13
100
AcDbVertex
100
AcDb2dVertex
 10
4.039344922891195
 20
6.639111336789786
 30
0.0
  0
SEQEND
  5
2E6
330
2E0
100
AcDbEntity
  8
CDTC4
 62
   250
420
  2301728
370
    13
  0
POLYLINE
  5
2E7
330
1F
100
AcDbEntity
  8
CDTC4
 62
   250
420
  2301728
370
    13
100
AcDb2dPolyline
 66
     1
 10
0.0
 20
0.0
 30
0.0
  0
VERTEX
  5
2E8
330
2E7
100
AcDbEntity
  8
CDTC4
 62
   250
420
  2301728
370
    13
100
AcDbVertex
100
AcDb2dVertex
 10
3.367990588823154
 20
6.385704578987959
 30
0.0
  0
VERTEX
  5
2E9
330
2E7
100
AcDbEntity
  8
CDTC4
 62
   250
420
  2301728
370
    13
100
AcDbVertex
100
AcDb2dVertex
 10
3.389940421508236
 20
6.368586416525229
 30
0.0
  0
VERTEX
  5
2EA
330
2E7
100
AcDbEntity
  8
CDTC4
 62
   250
420
  2301728
370
    13
100
AcDbVertex
100
AcDb2dVertex
 10
3.295320133555176
 20
6.341782990474144
 30
0.0
  0
VERTEX
  5
2EB
330
2E7
100
AcDbEntity
  8
CDTC4
 62
   250
420
  2301728
370
    13
100
AcDbVertex
100
AcDb2dVertex
 10
3.295106621199718
 20
6.36522550328713
 30
0.0
  0
VERTEX
  5
2EC
330
2E7
100
AcDbEntity
  8
CDTC4
 62
   250
420
  2301728
370
    13
100
AcDbVertex
100
AcDb2dVertex
 10
3.390647681185682
 20
6.392062290643757
 30
0.0
  0
SEQEND
  5
2ED
330
2E7
100
AcDbEntity
  8
CDTC4
 62
   250
420
  2301728
370
    13
  0
POLYLINE
  5
2EE
330
1F
100
AcDbEntity
  8
CDTC4
 62
   250
420
  2301728
370
    13
100
AcDb2dPolyline
 66
     1
 10
0.0
 20
0.0
 30
0.0
  0
VERTEX
  5
2EF
330
2EE
100
AcDbEntity
  8
CDTC4
 62
   250
420
  2301728
370
    13
100
AcDbVertex
100
AcDb2dVertex
 10
3.521086573126947
 20
6.428709208189503
 30
0.0
  0
VERTEX
  5
2F0
330
2EE
100
AcDbEntity
  8
CDTC4
 62
   250
420
  2301728
370
    13
100
AcDbVertex
100
AcDb2dVertex
 10
3.544068699923463
 20
6.412247786855838
 30
0.0
  0
VERTEX
  5
2F1
330
2EE
100
AcDbEntity
  8
CDTC4
 62
   250
420
  2301728
370
    13
100
AcDbVertex
100
AcDb2dVertex
 10
3.444645337152779
 20
6.384085125899016
 30
0.0
  0
VERTEX
  5
2F2
330
2EE
100
AcDbEntity
  8
CDTC4
 62
   250
420
  2301728
370
    13
100
AcDbVertex
100
AcDb2dVertex
 10
3.443947609276923
 20
6.407034844570161
 30
0.0
  0
VERTEX
  5
2F3
330
2EE
100
AcDbEntity
  8
CDTC4
 62
   250
420
  2301728
370
    13
100
AcDbVertex
100
AcDb2dVertex
 10
3.544543383642285
 20
6.435285198101546
 30
0.0
  0
SEQEND
  5
2F4
330
2EE
100
AcDbEntity
  8
CDTC4
 62
   250
420
  2301728
370
    13
  0
POLYLINE
  5
2F5
330
1F
100
AcDbEntity
  8
CDTC4
 62
   250
420
  2301728
370
    13
100
AcDb2dPolyline
 66
     1
 10
0.0
 20
0.0
 30
0.0
  0
VERTEX
  5
2F6
330
2F5
100
AcDbEntity
  8
CDTC4
 62
   250
420
  2301728
370
    13
100
AcDbVertex
100
AcDb2dVertex
 10
3.669908497600962
 20
6.470522362193176
 30
0.0
  0
VERTEX
  5
2F7
330
2F5
100
AcDbEntity
  8
CDTC4
 62
   250
420
  2301728
370
    13
100
AcDbVertex
100
AcDb2dVertex
 10
3.698755610371917
 20
6.45605690011098
 30
0.0
  0
VERTEX
  5
2F8
330
2F5
100
AcDbEntity
  8
CDTC4
 62
   250
420
  2301728
370
    13
100
AcDbVertex
100
AcDb2dVertex
 10
3.607142537357769
 20
6.430110383022186
 30
0.0
  0
VERTEX
  5
2F9
330
2F5
100
AcDbEntity
  8
CDTC4
 62
   250
420
  2301728
370
    13
100
AcDbVertex
100
AcDb2dVertex
 10
3.605755660227462
 20
6.452482474517397
 30
0.0
  0
VERTEX
  5
2FA
330
2F5
100
AcDbEntity
  8
CDTC4
 62
   250
420
  2301728
370
    13
100
AcDbVertex
100
AcDb2dVertex
 10
3.699853605453781
 20
6.478928458009136
 30
0.0
  0
SEQEND
  5
2FB
330
2F5
100
AcDbEntity
  8
CDTC4
 62
   250
420
  2301728
370
    13
  0
POLYLINE
  5
2FC
330
1F
100
AcDbEntity
  8
CDTC4
 62
   250
420
  2301728
370
    13
100
AcDb2dPolyline
 66
     1
 10
0.0
 20
0.0
 30
0.0
  0
VERTEX
  5
2FD
330
2FC
100
AcDbEntity
  8
CDTC4
 62
   250
420
  2301728
370
    13
100
AcDbVertex
100
AcDb2dVertex
 10
3.815101665212372
 20
6.511311800706848
 30
0.0
  0
VERTEX
  5
2FE
330
2FC
100
AcDbEntity
  8
CDTC4
 62
   250
420
  2301728
370
    13
100
AcDbVertex
100
AcDb2dVertex
 10
3.841527631920788
 20
6.49649747468671
 30
0.0
  0
VERTEX
  5
2FF
330
2FC
100
AcDbEntity
  8
CDTC4
 62
   250
420
  2301728
370
    13
100
AcDbVertex
100
AcDb2dVertex
 10
3.75002614944564
 20
6.470578599822513
 30
0.0
  0
VERTEX
  5
300
330
2FC
100
AcDbEntity
  8
CDTC4
 62
   250
420
  2301728
370
    13
100
AcDbVertex
100
AcDb2dVertex
 10
3.747550740574575
 20
6.4923273114942
 30
0.0
  0
VERTEX
  5
301
330
2FC
100
AcDbEntity
  8
CDTC4
 62
   250
420
  2301728
370
    13
100
AcDbVertex
100
AcDb2dVertex
 10
3.841677281205648
 20
6.518767688239753
 30
0.0
  0
SEQEND
  5
302
330
2FC
100
AcDbEntity
  8
CDTC4
 62
   250
420
  2301728
370
    13
  0
POLYLINE
  5
303
330
1F
100
AcDbEntity
  8
CDTC4
 62
   250
420
  2301728
370
    13
100
AcDb2dPolyline
 66
     1
 10
0.0
 20
0.0
 30
0.0
  0
VERTEX
  5
304
330
303
100
AcDbEntity
  8
CDTC4
 62
   250
420
  2301728
370
    13
100
AcDbVertex
100
AcDb2dVertex
 10
3.95265604703526
 20
6.549942286161998
 30
0.0
  0
VERTEX
  5
305
330
303
100
AcDbEntity
  8
CDTC4
 62
   250
420
  2301728
370
    13
100
AcDbVertex
100
AcDb2dVertex
 10
3.973376352714151
 20
6.53384783918927
 30
0.0
  0
VERTEX
  5
306
330
303
100
AcDbEntity
  8
CDTC4
 62
   250
420
  2301728
370
    13
100
AcDbVertex
100
AcDb2dVertex
 10
3.890787982501176
 20
6.510455957049493
 30
0.0
  0
VERTEX
  5
307
330
303
100
AcDbEntity
  8
CDTC4
 62
   250
420
  2301728
370
    13
100
AcDbVertex
100
AcDb2dVertex
 10
3.890452463085454
 20
6.532465727959763
 30
0.0
  0
VERTEX
  5
308
330
303
100
AcDbEntity
  8
CDTC4
 62
   250
420
  2301728
370
    13
100
AcDbVertex
100
AcDb2dVertex
 10
3.973600274653336
 20
6.555833892720379
 30
0.0
  0
SEQEND
  5
309
330
303
100
AcDbEntity
  8
CDTC4
 62
   250
420
  2301728
370
    13
  0
POLYLINE
  5
30A
330
1F
100
AcDbEntity
  8
CDTC4
 62
   250
420
  2301728
370
    13
100
AcDb2dPolyline
 66
     1
 10
0.0
 20
0.0
 30
0.0
  0
VERTEX
  5
30B
330
30A
100
AcDbEntity
  8
CDTC4
 62
   250
420
  2301728
370
    13
100
AcDbVertex
100
AcDb2dVertex
 10
4.087348982022958
 20
6.5877902107072
 30
0.0
  0
VERTEX
  5
30C
330
30A
100
AcDbEntity
  8
CDTC4
 62
   250
420
  2301728
370
    13
100
AcDbVertex
100
AcDb2dVertex
 10
4.113821654559122
 20
6.573626906735146
 30
0.0
  0
VERTEX
  5
30D
330
30A
100
AcDbEntity
  8
CDTC4
 62
   250
420
  2301728
370
    13
100
AcDbVertex
100
AcDb2dVertex
 10
4.031684213959023
 20
6.55036073225147
 30
0.0
  0
VERTEX
  5
30E
330
30A
100
AcDbEntity
  8
CDTC4
 62
   250
420
  2301728
370
    13
100
AcDbVertex
100
AcDb2dVertex
 10
4.030846368599883
 20
6.57190927608993
 30
0.0
  0
VERTEX
  5
30F
330
30A
100
AcDbEntity
  8
CDTC4
 62
   250
420
  2301728
370
    13
100
AcDbVertex
100
AcDb2dVertex
 10
4.113635784428248
 20
6.595166871952174
 30
0.0
  0
SEQEND
  5
310
330
30A
100
AcDbEntity
  8
CDTC4
 62
   250
420
  2301728
370
    13
  0
POLYLINE
  5
311
330
1F
100
AcDbEntity
  8
CDTC4
 62
   250
420
  2301728
370
    13
100
AcDb2dPolyline
 66
     1
 10
0.0
 20
0.0
 30
0.0
  0
VERTEX
  5
312
330
311
100
AcDbEntity
  8
CDTC4
 62
   250
420
  2301728
370
    13
100
AcDbVertex
100
AcDb2dVertex
 10
3.289995669190982
 20
6.286332687945825
 30
0.0
  0
VERTEX
  5
313
330
311
100
AcDbEntity
  8
CDTC4
 62
   250
420
  2301728
370
    13
100
AcDbVertex
100
AcDb2dVertex
 10
3.312489767746443
 20
6.271871991764429
 30
0.0
  0
VERTEX
  5
314
330
311
100
AcDbEntity
  8
CDTC4
 62
   250
420
  2301728
370
    13
100
AcDbVertex
100
AcDb2dVertex
 10
3.218763562781861
 20
6.243979080792402
 30
0.0
  0
VERTEX
  5
315
330
311
100
AcDbEntity
  8
CDTC4
 62
   250
420
  2301728
370
    13
100
AcDbVertex
100
AcDb2dVertex
 10
3.218763562781861
 20
6.265286470050809
 30
0.0
  0
VERTEX
  5
316
330
311
100
AcDbEntity
  8
CDTC4
 62
   250
420
  2301728
370
    13
100
AcDbVertex
100
AcDb2dVertex
 10
3.314519147057315
 20
6.293574950788511
 30
0.0
  0
SEQEND
  5
317
330
311
100
AcDbEntity
  8
CDTC4
 62
   250
420
  2301728
370
    13
  0
POLYLINE
  5
318
330
1F
100
AcDbEntity
  8
CDTC4
 62
   250
420
  2301728
370
    13
100
AcDb2dPolyline
 66
     1
 10
0.0
 20
0.0
 30
0.0
  0
VERTEX
  5
319
330
318
100
AcDbEntity
  8
CDTC4
 62
   250
420
  2301728
370
    13
100
AcDbVertex
100
AcDb2dVertex
 10
3.441960228646874
 20
6.331231286121894
 30
0.0
  0
VERTEX
  5
31A
330
318
100
AcDbEntity
  8
CDTC4
 62
   250
420
  2301728
370
    13
100
AcDbVertex
100
AcDb2dVertex
 10
3.47082538338034
 20
6.319000185618935
 30
0.0
  0
VERTEX
  5
31B
330
318
100
AcDbEntity
  8
CDTC4
 62
   250
420
  2301728
370
    13
100
AcDbVertex
100
AcDb2dVertex
 10
3.368051592353292
 20
6.288408714330583
 30
0.0
  0
VERTEX
  5
31C
330
318
100
AcDbEntity
  8
CDTC4
 62
   250
420
  2301728
370
    13
100
AcDbVertex
100
AcDb2dVertex
 10
3.367535028800653
 20
6.309235700789208
 30
0.0
  0
VERTEX
  5
31D
330
318
100
AcDbEntity
  8
CDTC4
 62
   250
420
  2301728
370
    13
100
AcDbVertex
100
AcDb2dVertex
 10
3.468382382634672
 20
6.339036878438113
 30
0.0
  0
SEQEND
  5
31E
330
318
100
AcDbEntity
  8
CDTC4
 62
   250
420
  2301728
370
    13
  0
POLYLINE
  5
31F
330
1F
100
AcDbEntity
  8
CDTC4
 62
   250
420
  2301728
370
    13
100
AcDb2dPolyline
 66
     1
 10
0.0
 20
0.0
 30
0.0
  0
VERTEX
  5
320
330
31F
100
AcDbEntity
  8
CDTC4
 62
   250
420
  2301728
370
    13
100
AcDbVertex
100
AcDb2dVertex
 10
3.592211923358339
 20
6.375632324255321
 30
0.0
  0
VERTEX
  5
321
330
31F
100
AcDbEntity
  8
CDTC4
 62
   250
420
  2301728
370
    13
100
AcDbVertex
100
AcDb2dVertex
 10
3.623348506409002
 20
6.364388611108135
 30
0.0
  0
VERTEX
  5
322
330
31F
100
AcDbEntity
  8
CDTC4
 62
   250
420
  2301728
370
    13
100
AcDbVertex
100
AcDb2dVertex
 10
3.532242593699569
 20
6.337277307865911
 30
0.0
  0
VERTEX
  5
323
330
31F
100
AcDbEntity
  8
CDTC4
 62
   250
420
  2301728
370
    13
100
AcDbVertex
100
AcDb2dVertex
 10
3.529864409204619
 20
6.357201632714641
 30
0.0
  0
VERTEX
  5
324
330
31F
100
AcDbEntity
  8
CDTC4
 62
   250
420
  2301728
370
    13
100
AcDbVertex
100
AcDb2dVertex
 10
3.624982257200309
 20
6.385304243321482
 30
0.0
  0
SEQEND
  5
325
330
31F
100
AcDbEntity
  8
CDTC4
 62
   250
420
  2301728
370
    13
  0
POLYLINE
  5
326
330
1F
100
AcDbEntity
  8
CDTC4
 62
   250
420
  2301728
370
    13
100
AcDb2dPolyline
 66
     1
 10
0.0
 20
0.0
 30
0.0
  0
VERTEX
  5
327
330
326
100
AcDbEntity
  8
CDTC4
 62
   250
420
  2301728
370
    13
100
AcDbVertex
100
AcDb2dVertex
 10
3.74203468699856
 20
6.419889432184846
 30
0.0
  0
VERTEX
  5
328
330
326
100
AcDbEntity
  8
CDTC4
 62
   250
420
  2301728
370
    13
100
AcDbVertex
100
AcDb2dVertex
 10
3.766725865818873
 20
6.407067252695533
 30
0.0
  0
VERTEX
  5
329
330
326
100
AcDbEntity
  8
CDTC4
 62
   250
420
  2301728
370
    13
100
AcDbVertex
100
AcDb2dVertex
 10
3.675037560032719
 20
6.379770079322459
 30
0.0
  0
VERTEX
  5
32A
330
326
100
AcDbEntity
  8
CDTC4
 62
   250
420
  2301728
370
    13
100
AcDbVertex
100
AcDb2dVertex
 10
3.675373079448427
 20
6.400192917393964
 30
0.0
  0
VERTEX
  5
32B
330
326
100
AcDbEntity
  8
CDTC4
 62
   250
420
  2301728
370
    13
100
AcDbVertex
100
AcDb2dVertex
 10
3.767213894059914
 20
6.427331862860783
 30
0.0
  0
SEQEND
  5
32C
330
326
100
AcDbEntity
  8
CDTC4
 62
   250
420
  2301728
370
    13
  0
POLYLINE
  5
32D
330
1F
100
AcDbEntity
  8
CDTC4
 62
   250
420
  2301728
370
    13
100
AcDb2dPolyline
 66
     1
 10
0.0
 20
0.0
 30
0.0
  0
VERTEX
  5
32E
330
32D
100
AcDbEntity
  8
CDTC4
 62
   250
420
  2301728
370
    13
100
AcDbVertex
100
AcDb2dVertex
 10
3.872031303346362
 20
6.458300686203592
 30
0.0
  0
VERTEX
  5
32F
330
32D
100
AcDbEntity
  8
CDTC4
 62
   250
420
  2301728
370
    13
100
AcDbVertex
100
AcDb2dVertex
 10
3.898705096895936
 20
6.446348760198791
 30
0.0
  0
VERTEX
  5
330
330
32D
100
AcDbEntity
  8
CDTC4
 62
   250
420
  2301728
370
    13
100
AcDbVertex
100
AcDb2dVertex
 10
3.816585766718832
 20
6.421904455039478
 30
0.0
  0
VERTEX
  5
331
330
32D
100
AcDbEntity
  8
CDTC4
 62
   250
420
  2301728
370
    13
100
AcDbVertex
100
AcDb2dVertex
 10
3.815082601609207
 20
6.441471337328835
 30
0.0
  0
VERTEX
  5
332
330
32D
100
AcDbEntity
  8
CDTC4
 62
   250
420
  2301728
370
    13
100
AcDbVertex
100
AcDb2dVertex
 10
3.901068983688484
 20
6.466878354448037
 30
0.0
  0
SEQEND
  5
333
330
32D
100
AcDbEntity
  8
CDTC4
 62
   250
420
  2301728
370
    13
  0
POLYLINE
  5
334
330
1F
100
AcDbEntity
  8
CDTC4
 62
   250
420
  2301728
370
    13
100
AcDb2dPolyline
 66
     1
 10
0.0
 20
0.0
 30
0.0
  0
VERTEX
  5
335
330
334
100
AcDbEntity
  8
CDTC4
 62
   250
420
  2301728
370
    13
100
AcDbVertex
100
AcDb2dVertex
 10
4.013161063942991
 20
6.49999755222796
 30
0.0
  0
VERTEX
  5
336
330
334
100
AcDbEntity
  8
CDTC4
 62
   250
420
  2301728
370
    13
100
AcDbVertex
100
AcDb2dVertex
 10
4.039344922891195
 20
6.48820385412945
 30
0.0
  0
VERTEX
  5
337
330
334
100
AcDbEntity
  8
CDTC4
 62
   250
420
  2301728
370
    13
100
AcDbVertex
100
AcDb2dVertex
 10
3.958222619159667
 20
6.464057894359648
 30
0.0
  0
VERTEX
  5
338
330
334
100
AcDbEntity
  8
CDTC4
 62
   250
420
  2301728
370
    13
100
AcDbVertex
100
AcDb2dVertex
 10
3.956705231324526
 20
6.48332166535868
 30
0.0
  0
VERTEX
  5
339
330
334
100
AcDbEntity
  8
CDTC4
 62
   250
420
  2301728
370
    13
100
AcDbVertex
100
AcDb2dVertex
 10
4.039344922891195
 20
6.507732609212477
 30
0.0
  0
SEQEND
  5
33A
330
334
100
AcDbEntity
  8
CDTC4
 62
   250
420
  2301728
370
    13
  0
POLYLINE
  5
33B
330
1F
100
AcDbEntity
  8
CDTC4
 62
   250
420
  2301728
370
    13
100
AcDb2dPolyline
 66
     1
 10
0.0
 20
0.0
 30
0.0
  0
VERTEX
  5
33C
330
33B
100
AcDbEntity
  8
CDTC4
 62
   250
420
  2301728
370
    13
100
AcDbVertex
100
AcDb2dVertex
 10
3.364276998926458
 20
6.235657818010521
 30
0.0
  0
VERTEX
  5
33D
330
33B
100
AcDbEntity
  8
CDTC4
 62
   250
420
  2301728
370
    13
100
AcDbVertex
100
AcDb2dVertex
 10
3.386942669910417
 20
6.221457340012345
 30
0.0
  0
VERTEX
  5
33E
330
33B
100
AcDbEntity
  8
CDTC4
 62
   250
420
  2301728
370
    13
100
AcDbVertex
100
AcDb2dVertex
 10
3.293542452559968
 20
6.192485429101136
 30
0.0
  0
VERTEX
  5
33F
330
33B
100
AcDbEntity
  8
CDTC4
 62
   250
420
  2301728
370
    13
100
AcDbVertex
100
AcDb2dVertex
 10
3.293290812998192
 20
6.213791865179385
 30
0.0
  0
VERTEX
  5
340
330
33B
100
AcDbEntity
  8
CDTC4
 62
   250
420
  2301728
370
    13
100
AcDbVertex
100
AcDb2dVertex
 10
3.388720350905626
 20
6.243178409459447
 30
0.0
  0
SEQEND
  5
341
330
33B
100
AcDbEntity
  8
CDTC4
 62
   250
420
  2301728
370
    13
  0
POLYLINE
  5
342
330
1F
100
AcDbEntity
  8
CDTC4
 62
   250
420
  2301728
370
    13
100
AcDb2dPolyline
 66
     1
 10
0.0
 20
0.0
 30
0.0
  0
VERTEX
  5
343
330
342
100
AcDbEntity
  8
CDTC4
 62
   250
420
  2301728
370
    13
100
AcDbVertex
100
AcDb2dVertex
 10
3.515715402934991
 20
6.282306454957229
 30
0.0
  0
VERTEX
  5
344
330
342
100
AcDbEntity
  8
CDTC4
 62
   250
420
  2301728
370
    13
100
AcDbVertex
100
AcDb2dVertex
 10
3.544720675151741
 20
6.270410766581764
 30
0.0
  0
VERTEX
  5
345
330
342
100
AcDbEntity
  8
CDTC4
 62
   250
420
  2301728
370
    13
100
AcDbVertex
100
AcDb2dVertex
 10
3.442309092584815
 20
6.2386365060052
 30
0.0
  0
VERTEX
  5
346
330
342
100
AcDbEntity
  8
CDTC4
 62
   250
420
  2301728
370
    13
100
AcDbVertex
100
AcDb2dVertex
 10
3.441545595278019
 20
6.259450147941607
 30
0.0
  0
VERTEX
  5
347
330
342
100
AcDbEntity
  8
CDTC4
 62
   250
420
  2301728
370
    13
100
AcDbVertex
100
AcDb2dVertex
 10
3.542048911168043
 20
6.290418971284415
 30
0.0
  0
SEQEND
  5
348
330
342
100
AcDbEntity
  8
CDTC4
 62
   250
420
  2301728
370
    13
  0
POLYLINE
  5
349
330
1F
100
AcDbEntity
  8
CDTC4
 62
   250
420
  2301728
370
    13
100
AcDb2dPolyline
 66
     1
 10
0.0
 20
0.0
 30
0.0
  0
VERTEX
  5
34A
330
349
100
AcDbEntity
  8
CDTC4
 62
   250
420
  2301728
370
    13
100
AcDbVertex
100
AcDb2dVertex
 10
3.665440942199059
 20
6.32843942143826
 30
0.0
  0
VERTEX
  5
34B
330
349
100
AcDbEntity
  8
CDTC4
 62
   250
420
  2301728
370
    13
100
AcDbVertex
100
AcDb2dVertex
 10
3.696708110931429
 20
6.317553150850446
 30
0.0
  0
VERTEX
  5
34C
330
349
100
AcDbEntity
  8
CDTC4
 62
   250
420
  2301728
370
    13
100
AcDbVertex
100
AcDb2dVertex
 10
3.605923419935329
 20
6.289395255794412
 30
0.0
  0
VERTEX
  5
34D
330
349
100
AcDbEntity
  8
CDTC4
 62
   250
420
  2301728
370
    13
100
AcDbVertex
100
AcDb2dVertex
 10
3.603316472202398
 20
6.309291938418546
 30
0.0
  0
VERTEX
  5
34E
330
349
100
AcDbEntity
  8
CDTC4
 62
   250
420
  2301728
370
    13
100
AcDbVertex
100
AcDb2dVertex
 10
3.698104519863313
 20
6.338487846666945
 30
0.0
  0
SEQEND
  5
34F
330
349
100
AcDbEntity
  8
CDTC4
 62
   250
420
  2301728
370
    13
  0
POLYLINE
  5
350
330
1F
100
AcDbEntity
  8
CDTC4
 62
   250
420
  2301728
370
    13
100
AcDb2dPolyline
 66
     1
 10
0.0
 20
0.0
 30
0.0
  0
VERTEX
  5
351
330
350
100
AcDbEntity
  8
CDTC4
 62
   250
420
  2301728
370
    13
100
AcDbVertex
100
AcDb2dVertex
 10
3.814748106764354
 20
6.374422738634457
 30
0.0
  0
VERTEX
  5
352
330
350
100
AcDbEntity
  8
CDTC4
 62
   250
420
  2301728
370
    13
100
AcDbVertex
100
AcDb2dVertex
 10
3.839582191217712
 20
6.361884606832316
 30
0.0
  0
VERTEX
  5
353
330
350
100
AcDbEntity
  8
CDTC4
 62
   250
420
  2301728
370
    13
100
AcDbVertex
100
AcDb2dVertex
 10
3.748220826225848
 20
6.333530356663687
 30
0.0
  0
VERTEX
  5
354
330
350
100
AcDbEntity
  8
CDTC4
 62
   250
420
  2301728
370
    13
100
AcDbVertex
100
AcDb2dVertex
 10
3.7483132847012
 20
6.353957960635991
 30
0.0
  0
VERTEX
  5
355
330
350
100
AcDbEntity
  8
CDTC4
 62
   250
420
  2301728
370
    13
100
AcDbVertex
100
AcDb2dVertex
 10
3.839843362581089
 20
6.382157904502693
 30
0.0
  0
SEQEND
  5
356
330
350
100
AcDbEntity
  8
CDTC4
 62
   250
420
  2301728
370
    13
  0
POLYLINE
  5
357
330
1F
100
AcDbEntity
  8
CDTC4
 62
   250
420
  2301728
370
    13
100
AcDb2dPolyline
 66
     1
 10
0.0
 20
0.0
 30
0.0
  0
VERTEX
  5
358
330
357
100
AcDbEntity
  8
CDTC4
 62
   250
420
  2301728
370
    13
100
AcDbVertex
100
AcDb2dVertex
 10
3.944297610227219
 20
6.414332391862027
 30
0.0
  0
VERTEX
  5
359
330
357
100
AcDbEntity
  8
CDTC4
 62
   250
420
  2301728
370
    13
100
AcDbVertex
100
AcDb2dVertex
 10
3.971105802179105
 20
6.402687389868206
 30
0.0
  0
VERTEX
  5
35A
330
357
100
AcDbEntity
  8
CDTC4
 62
   250
420
  2301728
370
    13
100
AcDbVertex
100
AcDb2dVertex
 10
3.889270519689186
 20
6.377298483172012
 30
0.0
  0
VERTEX
  5
35B
330
357
100
AcDbEntity
  8
CDTC4
 62
   250
420
  2301728
370
    13
100
AcDbVertex
100
AcDb2dVertex
 10
3.887539544521726
 20
6.396841535957416
 30
0.0
  0
VERTEX
  5
35C
330
357
100
AcDbEntity
  8
CDTC4
 62
   250
420
  2301728
370
    13
100
AcDbVertex
100
AcDb2dVertex
 10
3.973227581211454
 20
6.423245579522181
 30
0.0
  0
SEQEND
  5
35D
330
357
100
AcDbEntity
  8
CDTC4
 62
   250
420
  2301728
370
    13
  0
POLYLINE
  5
35E
330
1F
100
AcDbEntity
  8
CDTC4
 62
   250
420
  2301728
370
    13
100
AcDb2dPolyline
 66
     1
 10
0.0
 20
0.0
 30
0.0
  0
VERTEX
  5
35F
330
35E
100
AcDbEntity
  8
CDTC4
 62
   250
420
  2301728
370
    13
100
AcDbVertex
100
AcDb2dVertex
 10
4.084928857601059
 20
6.457648710975339
 30
0.0
  0
VERTEX
  5
360
330
35E
100
AcDbEntity
  8
CDTC4
 62
   250
420
  2301728
370
    13
100
AcDbVertex
100
AcDb2dVertex
 10
4.111252834032547
 20
6.446162890067929
 30
0.0
  0
VERTEX
  5
361
330
35E
100
AcDbEntity
  8
CDTC4
 62
   250
420
  2301728
370
    13
100
AcDbVertex
100
AcDb2dVertex
 10
4.030400280285802
 20
6.421080907382702
 30
0.0
  0
VERTEX
  5
362
330
35E
100
AcDbEntity
  8
CDTC4
 62
   250
420
  2301728
370
    13
100
AcDbVertex
100
AcDb2dVertex
 10
4.028668351938197
 20
6.440330491032644
 30
0.0
  0
VERTEX
  5
363
330
35E
100
AcDbEntity
  8
CDTC4
 62
   250
420
  2301728
370
    13
100
AcDbVertex
100
AcDb2dVertex
 10
4.1110297898755
 20
6.465686879250168
 30
0.0
  0
SEQEND
  5
364
330
35E
100
AcDbEntity
  8
CDTC4
 62
   250
420
  2301728
370
    13
  0
POLYLINE
  5
365
330
1F
100
AcDbEntity
  8
CDTC4
 62
   250
420
  2301728
370
    13
100
AcDb2dPolyline
 66
     1
 10
0.0
 20
0.0
 30
0.0
  0
VERTEX
  5
366
330
365
100
AcDbEntity
  8
CDTC4
 62
   250
420
  2301728
370
    13
100
AcDbVertex
100
AcDb2dVertex
 10
3.292746547127801
 20
6.001155482288052
 30
0.0
  0
VERTEX
  5
367
330
365
100
AcDbEntity
  8
CDTC4
 62
   250
420
  2301728
370
    13
100
AcDbVertex
100
AcDb2dVertex
 10
3.315151999928553
 20
5.986713849709809
 30
0.0
  0
VERTEX
  5
368
330
365
100
AcDbEntity
  8
CDTC4
 62
   250
420
  2301728
370
    13
100
AcDbVertex
100
AcDb2dVertex
 10
3.218763562781861
 20
5.95305419878015
 30
0.0
  0
VERTEX
  5
369
330
365
100
AcDbEntity
  8
CDTC4
 62
   250
420
  2301728
370
    13
100
AcDbVertex
100
AcDb2dVertex
 10
3.218763562781861
 20
5.97542247755473
 30
0.0
  0
VERTEX
  5
36A
330
365
100
AcDbEntity
  8
CDTC4
 62
   250
420
  2301728
370
    13
100
AcDbVertex
100
AcDb2dVertex
 10
3.314905126267553
 20
6.008862897047985
 30
0.0
  0
SEQEND
  5
36B
330
365
100
AcDbEntity
  8
CDTC4
 62
   250
420
  2301728
370
    13
  0
POLYLINE
  5
36C
330
1F
100
AcDbEntity
  8
CDTC4
 62
   250
420
  2301728
370
    13
100
AcDb2dPolyline
 66
     1
 10
0.0
 20
0.0
 30
0.0
  0
VERTEX
  5
36D
330
36C
100
AcDbEntity
  8
CDTC4
 62
   250
420
  2301728
370
    13
100
AcDbVertex
100
AcDb2dVertex
 10
3.438911958500676
 20
6.051980001508203
 30
0.0
  0
VERTEX
  5
36E
330
36C
100
AcDbEntity
  8
CDTC4
 62
   250
420
  2301728
370
    13
100
AcDbVertex
100
AcDb2dVertex
 10
3.468531078739349
 20
6.040265417362813
 30
0.0
  0
VERTEX
  5
36F
330
36C
100
AcDbEntity
  8
CDTC4
 62
   250
420
  2301728
370
    13
100
AcDbVertex
100
AcDb2dVertex
 10
3.369885510977838
 20
6.005819392802575
 30
0.0
  0
VERTEX
  5
370
330
36C
100
AcDbEntity
  8
CDTC4
 62
   250
420
  2301728
370
    13
100
AcDbVertex
100
AcDb2dVertex
 10
3.36835851636426
 20
6.027451816494931
 30
0.0
  0
VERTEX
  5
371
330
36C
100
AcDbEntity
  8
CDTC4
 62
   250
420
  2301728
370
    13
100
AcDbVertex
100
AcDb2dVertex
 10
3.467716109704017
 20
6.062004597232936
 30
0.0
  0
SEQEND
  5
372
330
36C
100
AcDbEntity
  8
CDTC4
 62
   250
420
  2301728
370
    13
  0
POLYLINE
  5
373
330
1F
100
AcDbEntity
  8
CDTC4
 62
   250
420
  2301728
370
    13
100
AcDb2dPolyline
 66
     1
 10
0.0
 20
0.0
 30
0.0
  0
VERTEX
  5
374
330
373
100
AcDbEntity
  8
CDTC4
 62
   250
420
  2301728
370
    13
100
AcDbVertex
100
AcDb2dVertex
 10
3.596791000838758
 20
6.10690891448995
 30
0.0
  0
VERTEX
  5
375
330
373
100
AcDbEntity
  8
CDTC4
 62
   250
420
  2301728
370
    13
100
AcDbVertex
100
AcDb2dVertex
 10
3.626406308356788
 20
6.095398310898442
 30
0.0
  0
VERTEX
  5
376
330
373
100
AcDbEntity
  8
CDTC4
 62
   250
420
  2301728
370
    13
100
AcDbVertex
100
AcDb2dVertex
 10
3.532205419673396
 20
6.062503110455711
 30
0.0
  0
VERTEX
  5
377
330
373
100
AcDbEntity
  8
CDTC4
 62
   250
420
  2301728
370
    13
100
AcDbVertex
100
AcDb2dVertex
 10
3.532005251840145
 20
6.084363344205927
 30
0.0
  0
VERTEX
  5
378
330
373
100
AcDbEntity
  8
CDTC4
 62
   250
420
  2301728
370
    13
100
AcDbVertex
100
AcDb2dVertex
 10
3.624353158295839
 20
6.116486468720432
 30
0.0
  0
SEQEND
  5
379
330
373
100
AcDbEntity
  8
CDTC4
 62
   250
420
  2301728
370
    13
  0
POLYLINE
  5
37A
330
1F
100
AcDbEntity
  8
CDTC4
 62
   250
420
  2301728
370
    13
100
AcDb2dPolyline
 66
     1
 10
0.0
 20
0.0
 30
0.0
  0
VERTEX
  5
37B
330
37A
100
AcDbEntity
  8
CDTC4
 62
   250
420
  2301728
370
    13
100
AcDbVertex
100
AcDb2dVertex
 10
3.742049054255113
 20
6.157425556518951
 30
0.0
  0
VERTEX
  5
37C
330
37A
100
AcDbEntity
  8
CDTC4
 62
   250
420
  2301728
370
    13
100
AcDbVertex
100
AcDb2dVertex
 10
3.76699084990288
 20
6.144490901770963
 30
0.0
  0
VERTEX
  5
37D
330
37A
100
AcDbEntity
  8
CDTC4
 62
   250
420
  2301728
370
    13
100
AcDbVertex
100
AcDb2dVertex
 10
3.673487689095345
 20
6.111841621809086
 30
0.0
  0
VERTEX
  5
37E
330
37A
100
AcDbEntity
  8
CDTC4
 62
   250
420
  2301728
370
    13
100
AcDbVertex
100
AcDb2dVertex
 10
3.675266323270711
 20
6.134196556061448
 30
0.0
  0
VERTEX
  5
37F
330
37A
100
AcDbEntity
  8
CDTC4
 62
   250
420
  2301728
370
    13
100
AcDbVertex
100
AcDb2dVertex
 10
3.766921267751336
 20
6.166072806914952
 30
0.0
  0
SEQEND
  5
380
330
37A
100
AcDbEntity
  8
CDTC4
 62
   250
420
  2301728
370
    13
  0
POLYLINE
  5
381
330
1F
100
AcDbEntity
  8
CDTC4
 62
   250
420
  2301728
370
    13
100
AcDb2dPolyline
 66
     1
 10
0.0
 20
0.0
 30
0.0
  0
VERTEX
  5
382
330
381
100
AcDbEntity
  8
CDTC4
 62
   250
420
  2301728
370
    13
100
AcDbVertex
100
AcDb2dVertex
 10
3.877513995616836
 20
6.204539345382878
 30
0.0
  0
VERTEX
  5
383
330
381
100
AcDbEntity
  8
CDTC4
 62
   250
420
  2301728
370
    13
100
AcDbVertex
100
AcDb2dVertex
 10
3.901288215124888
 20
6.191382599658001
 30
0.0
  0
VERTEX
  5
384
330
381
100
AcDbEntity
  8
CDTC4
 62
   250
420
  2301728
370
    13
100
AcDbVertex
100
AcDb2dVertex
 10
3.817945001624543
 20
6.162283915785742
 30
0.0
  0
VERTEX
  5
385
330
381
100
AcDbEntity
  8
CDTC4
 62
   250
420
  2301728
370
    13
100
AcDbVertex
100
AcDb2dVertex
 10
3.817856355869834
 20
6.183786706976599
 30
0.0
  0
VERTEX
  5
386
330
381
100
AcDbEntity
  8
CDTC4
 62
   250
420
  2301728
370
    13
100
AcDbVertex
100
AcDb2dVertex
 10
3.900621942194245
 20
6.212572747756932
 30
0.0
  0
SEQEND
  5
387
330
381
100
AcDbEntity
  8
CDTC4
 62
   250
420
  2301728
370
    13
  0
POLYLINE
  5
388
330
1F
100
AcDbEntity
  8
CDTC4
 62
   250
420
  2301728
370
    13
100
AcDb2dPolyline
 66
     1
 10
0.0
 20
0.0
 30
0.0
  0
VERTEX
  5
389
330
388
100
AcDbEntity
  8
CDTC4
 62
   250
420
  2301728
370
    13
100
AcDbVertex
100
AcDb2dVertex
 10
4.012574858145626
 20
6.251515028707255
 30
0.0
  0
VERTEX
  5
38A
330
388
100
AcDbEntity
  8
CDTC4
 62
   250
420
  2301728
370
    13
100
AcDbVertex
100
AcDb2dVertex
 10
4.039344922891195
 20
6.239576341641269
 30
0.0
  0
VERTEX
  5
38B
330
388
100
AcDbEntity
  8
CDTC4
 62
   250
420
  2301728
370
    13
100
AcDbVertex
100
AcDb2dVertex
 10
3.959935483904107
 20
6.211860722178699
 30
0.0
  0
VERTEX
  5
38C
330
388
100
AcDbEntity
  8
CDTC4
 62
   250
420
  2301728
370
    13
100
AcDbVertex
100
AcDb2dVertex
 10
3.959246334649669
 20
6.232967943603853
 30
0.0
  0
VERTEX
  5
38D
330
388
100
AcDbEntity
  8
CDTC4
 62
   250
420
  2301728
370
    13
100
AcDbVertex
100
AcDb2dVertex
 10
4.039344922891195
 20
6.260822727369536
 30
0.0
  0
SEQEND
  5
38E
330
388
100
AcDbEntity
  8
CDTC4
 62
   250
420
  2301728
370
    13
  0
POLYLINE
  5
38F
330
1F
100
AcDbEntity
  8
CDTC4
 62
   250
420
  2301728
370
    13
100
AcDb2dPolyline
 66
     1
 10
0.0
 20
0.0
 30
0.0
  0
VERTEX
  5
390
330
38F
100
AcDbEntity
  8
CDTC4
 62
   250
420
  2301728
370
    13
100
AcDbVertex
100
AcDb2dVertex
 10
3.365686752380573
 20
5.951155463904835
 30
0.0
  0
VERTEX
  5
391
330
38F
100
AcDbEntity
  8
CDTC4
 62
   250
420
  2301728
370
    13
100
AcDbVertex
100
AcDb2dVertex
 10
3.388203727259843
 20
5.936881591034458
 30
0.0
  0
VERTEX
  5
392
330
38F
100
AcDbEntity
  8
CDTC4
 62
   250
420
  2301728
370
    13
100
AcDbVertex
100
AcDb2dVertex
 10
3.292066929674939
 20
5.902500382724964
 30
0.0
  0
VERTEX
  5
393
330
38F
100
AcDbEntity
  8
CDTC4
 62
   250
420
  2301728
370
    13
100
AcDbVertex
100
AcDb2dVertex
 10
3.291899169967084
 20
5.924868661499532
 30
0.0
  0
VERTEX
  5
394
330
38F
100
AcDbEntity
  8
CDTC4
 62
   250
420
  2301728
370
    13
100
AcDbVertex
100
AcDb2dVertex
 10
3.387794812971934
 20
5.959025872471835
 30
0.0
  0
SEQEND
  5
395
330
38F
100
AcDbEntity
  8
CDTC4
 62
   250
420
  2301728
370
    13
  0
POLYLINE
  5
396
330
1F
100
AcDbEntity
  8
CDTC4
 62
   250
420
  2301728
370
    13
100
AcDb2dPolyline
 66
     1
 10
0.0
 20
0.0
 30
0.0
  0
VERTEX
  5
397
330
396
100
AcDbEntity
  8
CDTC4
 62
   250
420
  2301728
370
    13
100
AcDbVertex
100
AcDb2dVertex
 10
3.511475657590911
 20
6.003063748964956
 30
0.0
  0
VERTEX
  5
398
330
396
100
AcDbEntity
  8
CDTC4
 62
   250
420
  2301728
370
    13
100
AcDbVertex
100
AcDb2dVertex
 10
3.541178657683518
 20
5.991573261173496
 30
0.0
  0
VERTEX
  5
399
330
396
100
AcDbEntity
  8
CDTC4
 62
   250
420
  2301728
370
    13
100
AcDbVertex
100
AcDb2dVertex
 10
3.442788604198654
 20
5.956391380642268
 30
0.0
  0
VERTEX
  5
39A
330
396
100
AcDbEntity
  8
CDTC4
 62
   250
420
  2301728
370
    13
100
AcDbVertex
100
AcDb2dVertex
 10
3.441104272864739
 20
5.978015127585283
 30
0.0
  0
VERTEX
  5
39B
330
396
100
AcDbEntity
  8
CDTC4
 62
   250
420
  2301728
370
    13
100
AcDbVertex
100
AcDb2dVertex
 10
3.54020069484112
 20
6.013298997504661
 30
0.0
  0
SEQEND
  5
39C
330
396
100
AcDbEntity
  8
CDTC4
 62
   250
420
  2301728
370
    13
  0
POLYLINE
  5
39D
330
1F
100
AcDbEntity
  8
CDTC4
 62
   250
420
  2301728
370
    13
100
AcDb2dPolyline
 66
     1
 10
0.0
 20
0.0
 30
0.0
  0
VERTEX
  5
39E
330
39D
100
AcDbEntity
  8
CDTC4
 62
   250
420
  2301728
370
    13
100
AcDbVertex
100
AcDb2dVertex
 10
3.668936253839509
 20
6.059166026721552
 30
0.0
  0
VERTEX
  5
39F
330
39D
100
AcDbEntity
  8
CDTC4
 62
   250
420
  2301728
370
    13
100
AcDbVertex
100
AcDb2dVertex
 10
3.698639253932116
 20
6.047874654566448
 30
0.0
  0
VERTEX
  5
3A0
330
39D
100
AcDbEntity
  8
CDTC4
 62
   250
420
  2301728
370
    13
100
AcDbVertex
100
AcDb2dVertex
 10
3.604690004810486
 20
6.014276007166914
 30
0.0
  0
VERTEX
  5
3A1
330
39D
100
AcDbEntity
  8
CDTC4
 62
   250
420
  2301728
370
    13
100
AcDbVertex
100
AcDb2dVertex
 10
3.604326843170181
 20
6.036137194097275
 30
0.0
  0
VERTEX
  5
3A2
330
39D
100
AcDbEntity
  8
CDTC4
 62
   250
420
  2301728
370
    13
100
AcDbVertex
100
AcDb2dVertex
 10
3.696433595045846
 20
6.068948514686073
 30
0.0
  0
SEQEND
  5
3A3
330
39D
100
AcDbEntity
  8
CDTC4
 62
   250
420
  2301728
370
    13
  0
POLYLINE
  5
3A4
330
1F
100
AcDbEntity
  8
CDTC4
 62
   250
420
  2301728
370
    13
100
AcDb2dPolyline
 66
     1
 10
0.0
 20
0.0
 30
0.0
  0
VERTEX
  5
3A5
330
3A4
100
AcDbEntity
  8
CDTC4
 62
   250
420
  2301728
370
    13
100
AcDbVertex
100
AcDb2dVertex
 10
3.813821544259794
 20
6.110762621869904
 30
0.0
  0
VERTEX
  5
3A6
330
3A4
100
AcDbEntity
  8
CDTC4
 62
   250
420
  2301728
370
    13
100
AcDbVertex
100
AcDb2dVertex
 10
3.838852055216471
 20
6.098014892138608
 30
0.0
  0
VERTEX
  5
3A7
330
3A4
100
AcDbEntity
  8
CDTC4
 62
   250
420
  2301728
370
    13
100
AcDbVertex
100
AcDb2dVertex
 10
3.745600533970711
 20
6.064666829415033
 30
0.0
  0
VERTEX
  5
3A8
330
3A4
100
AcDbEntity
  8
CDTC4
 62
   250
420
  2301728
370
    13
100
AcDbVertex
100
AcDb2dVertex
 10
3.747210455258053
 20
6.087035108189613
 30
0.0
  0
VERTEX
  5
3A9
330
3A4
100
AcDbEntity
  8
CDTC4
 62
   250
420
  2301728
370
    13
100
AcDbVertex
100
AcDb2dVertex
 10
3.838628057879267
 20
6.119595742396755
 30
0.0
  0
SEQEND
  5
3AA
330
3A4
100
AcDbEntity
  8
CDTC4
 62
   250
420
  2301728
370
    13
  0
POLYLINE
  5
3AB
330
1F
100
AcDbEntity
  8
CDTC4
 62
   250
420
  2301728
370
    13
100
AcDb2dPolyline
 66
     1
 10
0.0
 20
0.0
 30
0.0
  0
VERTEX
  5
3AC
330
3AB
100
AcDbEntity
  8
CDTC4
 62
   250
420
  2301728
370
    13
100
AcDbVertex
100
AcDb2dVertex
 10
3.948923393535387
 20
6.158882015800814
 30
0.0
  0
VERTEX
  5
3AD
330
3AB
100
AcDbEntity
  8
CDTC4
 62
   250
420
  2301728
370
    13
100
AcDbVertex
100
AcDb2dVertex
 10
3.972799603320381
 20
6.145901608405223
 30
0.0
  0
VERTEX
  5
3AE
330
3AB
100
AcDbEntity
  8
CDTC4
 62
   250
420
  2301728
370
    13
100
AcDbVertex
100
AcDb2dVertex
 10
3.889675621256452
 20
6.116184310610252
 30
0.0
  0
VERTEX
  5
3AF
330
3AB
100
AcDbEntity
  8
CDTC4
 62
   250
420
  2301728
370
    13
100
AcDbVertex
100
AcDb2dVertex
 10
3.889423981694664
 20
6.137687101801096
 30
0.0
  0
VERTEX
  5
3B0
330
3AB
100
AcDbEntity
  8
CDTC4
 62
   250
420
  2301728
370
    13
100
AcDbVertex
100
AcDb2dVertex
 10
3.971971289762829
 20
6.167086990603366
 30
0.0
  0
SEQEND
  5
3B1
330
3AB
100
AcDbEntity
  8
CDTC4
 62
   250
420
  2301728
370
    13
  0
POLYLINE
  5
3B2
330
1F
100
AcDbEntity
  8
CDTC4
 62
   250
420
  2301728
370
    13
100
AcDb2dPolyline
 66
     1
 10
0.0
 20
0.0
 30
0.0
  0
VERTEX
  5
3B3
330
3B2
100
AcDbEntity
  8
CDTC4
 62
   250
420
  2301728
370
    13
100
AcDbVertex
100
AcDb2dVertex
 10
4.083643970747693
 20
6.206857479527836
 30
0.0
  0
VERTEX
  5
3B4
330
3B2
100
AcDbEntity
  8
CDTC4
 62
   250
420
  2301728
370
    13
100
AcDbVertex
100
AcDb2dVertex
 10
4.110498868527328
 20
6.19512001905865
 30
0.0
  0
VERTEX
  5
3B5
330
3B2
100
AcDbEntity
  8
CDTC4
 62
   250
420
  2301728
370
    13
100
AcDbVertex
100
AcDb2dVertex
 10
4.031283878292533
 20
6.166817240618583
 30
0.0
  0
VERTEX
  5
3B6
330
3B2
100
AcDbEntity
  8
CDTC4
 62
   250
420
  2301728
370
    13
100
AcDbVertex
100
AcDb2dVertex
 10
4.03044698611355
 20
6.187914930242148
 30
0.0
  0
VERTEX
  5
3B7
330
3B2
100
AcDbEntity
  8
CDTC4
 62
   250
420
  2301728
370
    13
100
AcDbVertex
100
AcDb2dVertex
 10
4.110340640621037
 20
6.216366404786918
 30
0.0
  0
SEQEND
  5
3B8
330
3B2
100
AcDbEntity
  8
CDTC4
 62
   250
420
  2301728
370
    13
  0
POLYLINE
  5
3B9
330
1F
100
AcDbEntity
  8
CDTC4
 62
   250
420
  2301728
370
    13
100
AcDb2dPolyline
 66
     1
 10
0.0
 20
0.0
 30
0.0
  0
VERTEX
  5
3BA
330
3B9
100
AcDbEntity
  8
CDTC4
 62
   250
420
  2301728
370
    13
100
AcDbVertex
100
AcDb2dVertex
 10
3.289115883904881
 20
6.145277275401541
 30
0.0
  0
VERTEX
  5
3BB
330
3B9
100
AcDbEntity
  8
CDTC4
 62
   250
420
  2301728
370
    13
100
AcDbVertex
100
AcDb2dVertex
 10
3.315198705756302
 20
6.133717106441824
 30
0.0
  0
VERTEX
  5
3BC
330
3B9
100
AcDbEntity
  8
CDTC4
 62
   250
420
  2301728
370
    13
100
AcDbVertex
100
AcDb2dVertex
 10
3.218763562781861
 20
6.102254535777003
 30
0.0
  0
VERTEX
  5
3BD
330
3B9
100
AcDbEntity
  8
CDTC4
 62
   250
420
  2301728
370
    13
100
AcDbVertex
100
AcDb2dVertex
 10
3.218763562781861
 20
6.122485784636688
 30
0.0
  0
VERTEX
  5
3BE
330
3B9
100
AcDbEntity
  8
CDTC4
 62
   250
420
  2301728
370
    13
100
AcDbVertex
100
AcDb2dVertex
 10
3.314905126267553
 20
6.153641431290541
 30
0.0
  0
SEQEND
  5
3BF
330
3B9
100
AcDbEntity
  8
CDTC4
 62
   250
420
  2301728
370
    13
  0
POLYLINE
  5
3C0
330
1F
100
AcDbEntity
  8
CDTC4
 62
   250
420
  2301728
370
    13
100
AcDb2dPolyline
 66
     1
 10
0.0
 20
0.0
 30
0.0
  0
VERTEX
  5
3C1
330
3C0
100
AcDbEntity
  8
CDTC4
 62
   250
420
  2301728
370
    13
100
AcDbVertex
100
AcDb2dVertex
 10
3.441024205731436
 20
6.194514853801605
 30
0.0
  0
VERTEX
  5
3C2
330
3C0
100
AcDbEntity
  8
CDTC4
 62
   250
420
  2301728
370
    13
100
AcDbVertex
100
AcDb2dVertex
 10
3.469680614010245
 20
6.18412127321215
 30
0.0
  0
VERTEX
  5
3C3
330
3C0
100
AcDbEntity
  8
CDTC4
 62
   250
420
  2301728
370
    13
100
AcDbVertex
100
AcDb2dVertex
 10
3.368377579967424
 20
6.151072610763953
 30
0.0
  0
VERTEX
  5
3C4
330
3C0
100
AcDbEntity
  8
CDTC4
 62
   250
420
  2301728
370
    13
100
AcDbVertex
100
AcDb2dVertex
 10
3.367590253156676
 20
6.17071288792551
 30
0.0
  0
VERTEX
  5
3C5
330
3C0
100
AcDbEntity
  8
CDTC4
 62
   250
420
  2301728
370
    13
100
AcDbVertex
100
AcDb2dVertex
 10
3.470080949676735
 20
6.203925497360943
 30
0.0
  0
SEQEND
  5
3C6
330
3C0
100
AcDbEntity
  8
CDTC4
 62
   250
420
  2301728
370
    13
  0
POLYLINE
  5
3C7
330
1F
100
AcDbEntity
  8
CDTC4
 62
   250
420
  2301728
370
    13
100
AcDb2dPolyline
 66
     1
 10
0.0
 20
0.0
 30
0.0
  0
VERTEX
  5
3C8
330
3C7
100
AcDbEntity
  8
CDTC4
 62
   250
420
  2301728
370
    13
100
AcDbVertex
100
AcDb2dVertex
 10
3.59573964312416
 20
6.244653932344477
 30
0.0
  0
VERTEX
  5
3C9
330
3C7
100
AcDbEntity
  8
CDTC4
 62
   250
420
  2301728
370
    13
100
AcDbVertex
100
AcDb2dVertex
 10
3.624046234284871
 20
6.234489219136472
 30
0.0
  0
VERTEX
  5
3CA
330
3C7
100
AcDbEntity
  8
CDTC4
 62
   250
420
  2301728
370
    13
100
AcDbVertex
100
AcDb2dVertex
 10
3.531763144079933
 20
6.204372538855169
 30
0.0
  0
VERTEX
  5
3CB
330
3C7
100
AcDbEntity
  8
CDTC4
 62
   250
420
  2301728
370
    13
100
AcDbVertex
100
AcDb2dVertex
 10
3.531684030126826
 20
6.223886996235819
 30
0.0
  0
VERTEX
  5
3CC
330
3C7
100
AcDbEntity
  8
CDTC4
 62
   250
420
  2301728
370
    13
100
AcDbVertex
100
AcDb2dVertex
 10
3.623967120331738
 20
6.253794930062465
 30
0.0
  0
SEQEND
  5
3CD
330
3C7
100
AcDbEntity
  8
CDTC4
 62
   250
420
  2301728
370
    13
  0
POLYLINE
  5
3CE
330
1F
100
AcDbEntity
  8
CDTC4
 62
   250
420
  2301728
370
    13
100
AcDb2dPolyline
 66
     1
 10
0.0
 20
0.0
 30
0.0
  0
VERTEX
  5
3CF
330
3CE
100
AcDbEntity
  8
CDTC4
 62
   250
420
  2301728
370
    13
100
AcDbVertex
100
AcDb2dVertex
 10
3.747643199049927
 20
6.293886640700268
 30
0.0
  0
VERTEX
  5
3D0
330
3CE
100
AcDbEntity
  8
CDTC4
 62
   250
420
  2301728
370
    13
100
AcDbVertex
100
AcDb2dVertex
 10
3.766944144075144
 20
6.281114979759346
 30
0.0
  0
VERTEX
  5
3D1
330
3CE
100
AcDbEntity
  8
CDTC4
 62
   250
420
  2301728
370
    13
100
AcDbVertex
100
AcDb2dVertex
 10
3.674661053870194
 20
6.251002112198686
 30
0.0
  0
VERTEX
  5
3D2
330
3CE
100
AcDbEntity
  8
CDTC4
 62
   250
420
  2301728
370
    13
100
AcDbVertex
100
AcDb2dVertex
 10
3.676601728672469
 20
6.270853042175228
 30
0.0
  0
VERTEX
  5
3D3
330
3CE
100
AcDbEntity
  8
CDTC4
 62
   250
420
  2301728
370
    13
100
AcDbVertex
100
AcDb2dVertex
 10
3.765701197148713
 20
6.299732494611058
 30
0.0
  0
SEQEND
  5
3D4
330
3CE
100
AcDbEntity
  8
CDTC4
 62
   250
420
  2301728
370
    13
  0
POLYLINE
  5
3D5
330
1F
100
AcDbEntity
  8
CDTC4
 62
   250
420
  2301728
370
    13
100
AcDb2dPolyline
 66
     1
 10
0.0
 20
0.0
 30
0.0
  0
VERTEX
  5
3D6
330
3D5
100
AcDbEntity
  8
CDTC4
 62
   250
420
  2301728
370
    13
100
AcDbVertex
100
AcDb2dVertex
 10
3.878002977038047
 20
6.336137304396616
 30
0.0
  0
VERTEX
  5
3D7
330
3D5
100
AcDbEntity
  8
CDTC4
 62
   250
420
  2301728
370
    13
100
AcDbVertex
100
AcDb2dVertex
 10
3.90153413560573
 20
6.325031802372374
 30
0.0
  0
VERTEX
  5
3D8
330
3D5
100
AcDbEntity
  8
CDTC4
 62
   250
420
  2301728
370
    13
100
AcDbVertex
100
AcDb2dVertex
 10
3.814314338401623
 20
6.296571855927797
 30
0.0
  0
VERTEX
  5
3D9
330
3D5
100
AcDbEntity
  8
CDTC4
 62
   250
420
  2301728
370
    13
100
AcDbVertex
100
AcDb2dVertex
 10
3.815720350550375
 20
6.315947042283723
 30
0.0
  0
VERTEX
  5
3DA
330
3D5
100
AcDbEntity
  8
CDTC4
 62
   250
420
  2301728
370
    13
100
AcDbVertex
100
AcDb2dVertex
 10
3.898992957303726
 20
6.34293729164584
 30
0.0
  0
SEQEND
  5
3DB
330
3D5
100
AcDbEntity
  8
CDTC4
 62
   250
420
  2301728
370
    13
  0
POLYLINE
  5
3DC
330
1F
100
AcDbEntity
  8
CDTC4
 62
   250
420
  2301728
370
    13
100
AcDb2dPolyline
 66
     1
 10
0.0
 20
0.0
 30
0.0
  0
VERTEX
  5
3DD
330
3DC
100
AcDbEntity
  8
CDTC4
 62
   250
420
  2301728
370
    13
100
AcDbVertex
100
AcDb2dVertex
 10
4.021073489039887
 20
6.382501893656113
 30
0.0
  0
VERTEX
  5
3DE
330
3DC
100
AcDbEntity
  8
CDTC4
 62
   250
420
  2301728
370
    13
100
AcDbVertex
100
AcDb2dVertex
 10
4.039344922891195
 20
6.369991404078569
 30
0.0
  0
VERTEX
  5
3DF
330
3DC
100
AcDbEntity
  8
CDTC4
 62
   250
420
  2301728
370
    13
100
AcDbVertex
100
AcDb2dVertex
 10
3.958511432747628
 20
6.343625487720121
 30
0.0
  0
VERTEX
  5
3E0
330
3DC
100
AcDbEntity
  8
CDTC4
 62
   250
420
  2301728
370
    13
100
AcDbVertex
100
AcDb2dVertex
 10
3.95868784610386
 20
6.362288755219424
 30
0.0
  0
VERTEX
  5
3E1
330
3DC
100
AcDbEntity
  8
CDTC4
 62
   250
420
  2301728
370
    13
100
AcDbVertex
100
AcDb2dVertex
 10
4.039344922891195
 20
6.388422095619249
 30
0.0
  0
SEQEND
  5
3E2
330
3DC
100
AcDbEntity
  8
CDTC4
 62
   250
420
  2301728
370
    13
  0
POLYLINE
  5
3E3
330
1F
100
AcDbEntity
  8
CDTC4
 62
   250
420
  2301728
370
    13
100
AcDb2dPolyline
 66
     1
 10
0.0
 20
0.0
 30
0.0
  0
VERTEX
  5
3E4
330
3E3
100
AcDbEntity
  8
CDTC4
 62
   250
420
  2301728
370
    13
100
AcDbVertex
100
AcDb2dVertex
 10
3.360553877228186
 20
6.089715450794706
 30
0.0
  0
VERTEX
  5
3E5
330
3E3
100
AcDbEntity
  8
CDTC4
 62
   250
420
  2301728
370
    13
100
AcDbVertex
100
AcDb2dVertex
 10
3.386729157554959
 20
6.078364028289646
 30
0.0
  0
VERTEX
  5
3E6
330
3E3
100
AcDbEntity
  8
CDTC4
 62
   250
420
  2301728
370
    13
100
AcDbVertex
100
AcDb2dVertex
 10
3.290549466862949
 20
6.046129381696611
 30
0.0
  0
VERTEX
  5
3E7
330
3E3
100
AcDbEntity
  8
CDTC4
 62
   250
420
  2301728
370
    13
100
AcDbVertex
100
AcDb2dVertex
 10
3.29038647305587
 20
6.066361583736478
 30
0.0
  0
VERTEX
  5
3E8
330
3E3
100
AcDbEntity
  8
CDTC4
 62
   250
420
  2301728
370
    13
100
AcDbVertex
100
AcDb2dVertex
 10
3.38628211606072
 20
6.098284540417731
 30
0.0
  0
SEQEND
  5
3E9
330
3E3
100
AcDbEntity
  8
CDTC4
 62
   250
420
  2301728
370
    13
  0
POLYLINE
  5
3EA
330
1F
100
AcDbEntity
  8
CDTC4
 62
   250
420
  2301728
370
    13
100
AcDb2dPolyline
 66
     1
 10
0.0
 20
0.0
 30
0.0
  0
VERTEX
  5
3EB
330
3EA
100
AcDbEntity
  8
CDTC4
 62
   250
420
  2301728
370
    13
100
AcDbVertex
100
AcDb2dVertex
 10
3.512066629289052
 20
6.140162510672174
 30
0.0
  0
VERTEX
  5
3EC
330
3EA
100
AcDbEntity
  8
CDTC4
 62
   250
420
  2301728
370
    13
100
AcDbVertex
100
AcDb2dVertex
 10
3.540801198340836
 20
6.129997797464183
 30
0.0
  0
VERTEX
  5
3ED
330
3EA
100
AcDbEntity
  8
CDTC4
 62
   250
420
  2301728
370
    13
100
AcDbVertex
100
AcDb2dVertex
 10
3.439767914282811
 20
6.096143697782218
 30
0.0
  0
VERTEX
  5
3EE
330
3EA
100
AcDbEntity
  8
CDTC4
 62
   250
420
  2301728
370
    13
100
AcDbVertex
100
AcDb2dVertex
 10
3.438828078646742
 20
6.115774443142186
 30
0.0
  0
VERTEX
  5
3EF
330
3EA
100
AcDbEntity
  8
CDTC4
 62
   250
420
  2301728
370
    13
100
AcDbVertex
100
AcDb2dVertex
 10
3.541043306101035
 20
6.149802021612964
 30
0.0
  0
SEQEND
  5
3F0
330
3EA
100
AcDbEntity
  8
CDTC4
 62
   250
420
  2301728
370
    13
  0
POLYLINE
  5
3F1
330
1F
100
AcDbEntity
  8
CDTC4
 62
   250
420
  2301728
370
    13
100
AcDb2dPolyline
 66
     1
 10
0.0
 20
0.0
 30
0.0
  0
VERTEX
  5
3F2
330
3F1
100
AcDbEntity
  8
CDTC4
 62
   250
420
  2301728
370
    13
100
AcDbVertex
100
AcDb2dVertex
 10
3.666380777835128
 20
6.191531399830788
 30
0.0
  0
VERTEX
  5
3F3
330
3F1
100
AcDbEntity
  8
CDTC4
 62
   250
420
  2301728
370
    13
100
AcDbVertex
100
AcDb2dVertex
 10
3.694762670228366
 20
6.181594392612547
 30
0.0
  0
VERTEX
  5
3F4
330
3F1
100
AcDbEntity
  8
CDTC4
 62
   250
420
  2301728
370
    13
100
AcDbVertex
100
AcDb2dVertex
 10
3.60272073460347
 20
6.150741857249032
 30
0.0
  0
VERTEX
  5
3F5
330
3F1
100
AcDbEntity
  8
CDTC4
 62
   250
420
  2301728
370
    13
100
AcDbVertex
100
AcDb2dVertex
 10
3.602488158644847
 20
6.170257267809853
 30
0.0
  0
VERTEX
  5
3F6
330
3F1
100
AcDbEntity
  8
CDTC4
 62
   250
420
  2301728
370
    13
100
AcDbVertex
100
AcDb2dVertex
 10
3.694530094269731
 20
6.200900103538528
 30
0.0
  0
SEQEND
  5
3F7
330
3F1
100
AcDbEntity
  8
CDTC4
 62
   250
420
  2301728
370
    13
  0
POLYLINE
  5
3F8
330
1F
100
AcDbEntity
  8
CDTC4
 62
   250
420
  2301728
370
    13
100
AcDb2dPolyline
 66
     1
 10
0.0
 20
0.0
 30
0.0
  0
VERTEX
  5
3F9
330
3F8
100
AcDbEntity
  8
CDTC4
 62
   250
420
  2301728
370
    13
100
AcDbVertex
100
AcDb2dVertex
 10
3.817884951274575
 20
6.24197835564016
 30
0.0
  0
VERTEX
  5
3FA
330
3F8
100
AcDbEntity
  8
CDTC4
 62
   250
420
  2301728
370
    13
100
AcDbVertex
100
AcDb2dVertex
 10
3.83728312067592
 20
6.229360156704741
 30
0.0
  0
VERTEX
  5
3FB
330
3F8
100
AcDbEntity
  8
CDTC4
 62
   250
420
  2301728
370
    13
100
AcDbVertex
100
AcDb2dVertex
 10
3.745242207866049
 20
6.198512387242014
 30
0.0
  0
VERTEX
  5
3FC
330
3F8
100
AcDbEntity
  8
CDTC4
 62
   250
420
  2301728
370
    13
100
AcDbVertex
100
AcDb2dVertex
 10
3.747029351027992
 20
6.218376661740749
 30
0.0
  0
VERTEX
  5
3FD
330
3F8
100
AcDbEntity
  8
CDTC4
 62
   250
420
  2301728
370
    13
100
AcDbVertex
100
AcDb2dVertex
 10
3.835896243545613
 20
6.247968139754852
 30
0.0
  0
SEQEND
  5
3FE
330
3F8
100
AcDbEntity
  8
CDTC4
 62
   250
420
  2301728
370
    13
  0
POLYLINE
  5
3FF
330
1F
100
AcDbEntity
  8
CDTC4
 62
   250
420
  2301728
370
    13
100
AcDb2dPolyline
 66
     1
 10
0.0
 20
0.0
 30
0.0
  0
VERTEX
  5
400
330
3FF
100
AcDbEntity
  8
CDTC4
 62
   250
420
  2301728
370
    13
100
AcDbVertex
100
AcDb2dVertex
 10
3.947909209846974
 20
6.285267138964918
 30
0.0
  0
VERTEX
  5
401
330
3FF
100
AcDbEntity
  8
CDTC4
 62
   250
420
  2301728
370
    13
100
AcDbVertex
100
AcDb2dVertex
 10
3.971514716467002
 20
6.274348353815652
 30
0.0
  0
VERTEX
  5
402
330
3FF
100
AcDbEntity
  8
CDTC4
 62
   250
420
  2301728
370
    13
100
AcDbVertex
100
AcDb2dVertex
 10
3.884532261122331
 20
6.245194385494225
 30
0.0
  0
VERTEX
  5
403
330
3FF
100
AcDbEntity
  8
CDTC4
 62
   250
420
  2301728
370
    13
100
AcDbVertex
100
AcDb2dVertex
 10
3.885779973949525
 20
6.26457921037335
 30
0.0
  0
VERTEX
  5
404
330
3FF
100
AcDbEntity
  8
CDTC4
 62
   250
420
  2301728
370
    13
100
AcDbVertex
100
AcDb2dVertex
 10
3.968834373861897
 20
6.292233826305796
 30
0.0
  0
SEQEND
  5
405
330
3FF
100
AcDbEntity
  8
CDTC4
 62
   250
420
  2301728
370
    13
  0
POLYLINE
  5
406
330
1F
100
AcDbEntity
  8
CDTC4
 62
   250
420
  2301728
370
    13
100
AcDb2dPolyline
 66
     1
 10
0.0
 20
0.0
 30
0.0
  0
VERTEX
  5
407
330
406
100
AcDbEntity
  8
CDTC4
 62
   250
420
  2301728
370
    13
100
AcDbVertex
100
AcDb2dVertex
 10
4.090606951803983
 20
6.332767812537061
 30
0.0
  0
VERTEX
  5
408
330
406
100
AcDbEntity
  8
CDTC4
 62
   250
420
  2301728
370
    13
100
AcDbVertex
100
AcDb2dVertex
 10
4.108963295292319
 20
6.320406019064194
 30
0.0
  0
VERTEX
  5
409
330
406
100
AcDbEntity
  8
CDTC4
 62
   250
420
  2301728
370
    13
100
AcDbVertex
100
AcDb2dVertex
 10
4.02835189612564
 20
6.293397765920518
 30
0.0
  0
VERTEX
  5
40A
330
406
100
AcDbEntity
  8
CDTC4
 62
   250
420
  2301728
370
    13
100
AcDbVertex
100
AcDb2dVertex
 10
4.028370959728806
 20
6.312056160877583
 30
0.0
  0
VERTEX
  5
40B
330
406
100
AcDbEntity
  8
CDTC4
 62
   250
420
  2301728
370
    13
100
AcDbVertex
100
AcDb2dVertex
 10
4.10881372482691
 20
6.338836710604873
 30
0.0
  0
SEQEND
  5
40C
330
406
100
AcDbEntity
  8
CDTC4
 62
   250
420
  2301728
370
    13
  0
POLYLINE
  5
40D
330
1F
100
AcDbEntity
  8
CDTC4
 62
   250
420
  2301728
370
    13
100
AcDb2dPolyline
 66
     1
 10
0.0
 20
0.0
 30
0.0
  0
VERTEX
  5
40E
330
40D
100
AcDbEntity
  8
CDTC4
 62
   250
420
  2301728
370
    13
100
AcDbVertex
100
AcDb2dVertex
 10
3.290149131196459
 20
5.850745559670334
 30
0.0
  0
VERTEX
  5
40F
330
40D
100
AcDbEntity
  8
CDTC4
 62
   250
420
  2301728
370
    13
100
AcDbVertex
100
AcDb2dVertex
 10
3.314798370089824
 20
5.838514351879161
 30
0.0
  0
VERTEX
  5
410
330
40D
100
AcDbEntity
  8
CDTC4
 62
   250
420
  2301728
370
    13
100
AcDbVertex
100
AcDb2dVertex
 10
3.218763562781861
 20
5.802779627744902
 30
0.0
  0
VERTEX
  5
411
330
40D
100
AcDbEntity
  8
CDTC4
 62
   250
420
  2301728
370
    13
100
AcDbVertex
100
AcDb2dVertex
 10
3.218763562781861
 20
5.824095595624726
 30
0.0
  0
VERTEX
  5
412
330
40D
100
AcDbEntity
  8
CDTC4
 62
   250
420
  2301728
370
    13
100
AcDbVertex
100
AcDb2dVertex
 10
3.314141628960758
 20
5.859691251140981
 30
0.0
  0
SEQEND
  5
413
330
40D
100
AcDbEntity
  8
CDTC4
 62
   250
420
  2301728
370
    13
  0
POLYLINE
  5
414
330
1F
100
AcDbEntity
  8
CDTC4
 62
   250
420
  2301728
370
    13
100
AcDb2dPolyline
 66
     1
 10
0.0
 20
0.0
 30
0.0
  0
VERTEX
  5
415
330
414
100
AcDbEntity
  8
CDTC4
 62
   250
420
  2301728
370
    13
100
AcDbVertex
100
AcDb2dVertex
 10
3.439233242118437
 20
5.906382685509672
 30
0.0
  0
VERTEX
  5
416
330
414
100
AcDbEntity
  8
CDTC4
 62
   250
420
  2301728
370
    13
100
AcDbVertex
100
AcDb2dVertex
 10
3.470285883410762
 20
5.896366668406371
 30
0.0
  0
VERTEX
  5
417
330
414
100
AcDbEntity
  8
CDTC4
 62
   250
420
  2301728
370
    13
100
AcDbVertex
100
AcDb2dVertex
 10
3.368595858223671
 20
5.858528371318496
 30
0.0
  0
VERTEX
  5
418
330
414
100
AcDbEntity
  8
CDTC4
 62
   250
420
  2301728
370
    13
100
AcDbVertex
100
AcDb2dVertex
 10
3.369028602015533
 20
5.880170231156701
 30
0.0
  0
VERTEX
  5
419
330
414
100
AcDbEntity
  8
CDTC4
 62
   250
420
  2301728
370
    13
100
AcDbVertex
100
AcDb2dVertex
 10
3.469573857832516
 20
5.917692265238113
 30
0.0
  0
SEQEND
  5
41A
330
414
100
AcDbEntity
  8
CDTC4
 62
   250
420
  2301728
370
    13
  0
POLYLINE
  5
41B
330
1F
100
AcDbEntity
  8
CDTC4
 62
   250
420
  2301728
370
    13
100
AcDb2dPolyline
 66
     1
 10
0.0
 20
0.0
 30
0.0
  0
VERTEX
  5
41C
330
41B
100
AcDbEntity
  8
CDTC4
 62
   250
420
  2301728
370
    13
100
AcDbVertex
100
AcDb2dVertex
 10
3.599215891161445
 20
5.966095609705866
 30
0.0
  0
VERTEX
  5
41D
330
41B
100
AcDbEntity
  8
CDTC4
 62
   250
420
  2301728
370
    13
100
AcDbVertex
100
AcDb2dVertex
 10
3.625093845878483
 20
5.953962579471004
 30
0.0
  0
VERTEX
  5
41E
330
41B
100
AcDbEntity
  8
CDTC4
 62
   250
420
  2301728
370
    13
100
AcDbVertex
100
AcDb2dVertex
 10
3.532297878148736
 20
5.919442206858396
 30
0.0
  0
VERTEX
  5
41F
330
41B
100
AcDbEntity
  8
CDTC4
 62
   250
420
  2301728
370
    13
100
AcDbVertex
100
AcDb2dVertex
 10
3.535384275501277
 20
5.942261339847833
 30
0.0
  0
VERTEX
  5
420
330
41B
100
AcDbEntity
  8
CDTC4
 62
   250
420
  2301728
370
    13
100
AcDbVertex
100
AcDb2dVertex
 10
3.625661874653171
 20
5.975958164803678
 30
0.0
  0
SEQEND
  5
421
330
41B
100
AcDbEntity
  8
CDTC4
 62
   250
420
  2301728
370
    13
  0
SPLINE
  5
422
330
1F
100
AcDbEntity
  8
CDTC4
 62
   250
420
  2301728
370
    13
100
AcDbSpline
210
0.0
220
0.0
230
1.0
 70
     8
 71
     3
 72
    17
 73
    13
 74
     0
 42
0.0000000001
 43
0.0000000001
 12
1.0
 22
0.0
 32
0.0
 13
1.0
 23
0.0
 33
0.0
 40
0.0
 40
0.0
 40
0.0
 40
0.0
 40
1.0
 40
1.0
 40
1.0
 40
2.0
 40
2.0
 40
2.0
 40
3.0
 40
3.0
 40
3.0
 40
4.0
 40
4.0
 40
4.0
 40
4.0
 10
3.749974677717091
 20
6.022364693990148
 30
0.0
 10
3.749974677717091
 20
6.022364693990148
 30
0.0
 10
3.767433125496331
 20
6.006917456344922
 30
0.0
 10
3.767433125496331
 20
6.006917456344922
 30
0.0
 10
3.767433125496331
 20
6.006917456344922
 30
0.0
 10
3.675111908085076
 20
5.97256960934097
 30
0.0
 10
3.675111908085076
 20
5.97256960934097
 30
0.0
 10
3.67748151395857
 20
5.973463692329434
 30
0.0
 10
3.674995620105745
 20
5.994374558641994
 30
0.0
 10
3.674995620105745
 20
5.994374558641994
 30
0.0
 10
3.674995620105745
 20
5.994374558641994
 30
0.0
 10
3.767289265484237
 20
6.028820583202256
 30
0.0
 10
3.767289265484237
 20
6.028820583202256
 30
0.0
  0
POLYLINE
  5
423
330
1F
100
AcDbEntity
  8
CDTC4
 62
   250
420
  2301728
370
    13
100
AcDb2dPolyline
 66
     1
 10
0.0
 20
0.0
 30
0.0
  0
VERTEX
  5
424
330
423
100
AcDbEntity
  8
CDTC4
 62
   250
420
  2301728
370
    13
100
AcDbVertex
100
AcDb2dVertex
 10
3.882052159441413
 20
6.07166221859672
 30
0.0
  0
VERTEX
  5
425
330
423
100
AcDbEntity
  8
CDTC4
 62
   250
420
  2301728
370
    13
100
AcDbVertex
100
AcDb2dVertex
 10
3.900077676323867
 20
6.056261686779231
 30
0.0
  0
VERTEX
  5
426
330
423
100
AcDbEntity
  8
CDTC4
 62
   250
420
  2301728
370
    13
100
AcDbVertex
100
AcDb2dVertex
 10
3.817935469822967
 20
6.025711309525907
 30
0.0
  0
VERTEX
  5
427
330
423
100
AcDbEntity
  8
CDTC4
 62
   250
420
  2301728
370
    13
100
AcDbVertex
100
AcDb2dVertex
 10
3.817763897394482
 20
6.047660189030832
 30
0.0
  0
VERTEX
  5
428
330
423
100
AcDbEntity
  8
CDTC4
 62
   250
420
  2301728
370
    13
100
AcDbVertex
100
AcDb2dVertex
 10
3.900510420115729
 20
6.078546085699878
 30
0.0
  0
SEQEND
  5
429
330
423
100
AcDbEntity
  8
CDTC4
 62
   250
420
  2301728
370
    13
  0
POLYLINE
  5
42A
330
1F
100
AcDbEntity
  8
CDTC4
 62
   250
420
  2301728
370
    13
100
AcDb2dPolyline
 66
     1
 10
0.0
 20
0.0
 30
0.0
  0
VERTEX
  5
42B
330
42A
100
AcDbEntity
  8
CDTC4
 62
   250
420
  2301728
370
    13
100
AcDbVertex
100
AcDb2dVertex
 10
4.01482722285967
 20
6.121219961386499
 30
0.0
  0
VERTEX
  5
42C
330
42A
100
AcDbEntity
  8
CDTC4
 62
   250
420
  2301728
370
    13
100
AcDbVertex
100
AcDb2dVertex
 10
4.039344922891195
 20
6.108067028382266
 30
0.0
  0
VERTEX
  5
42D
330
42A
100
AcDbEntity
  8
CDTC4
 62
   250
420
  2301728
370
    13
100
AcDbVertex
100
AcDb2dVertex
 10
3.958278856789004
 20
6.077913174074764
 30
0.0
  0
VERTEX
  5
42E
330
42A
100
AcDbEntity
  8
CDTC4
 62
   250
420
  2301728
370
    13
100
AcDbVertex
100
AcDb2dVertex
 10
3.958036749028805
 20
6.100020281485968
 30
0.0
  0
VERTEX
  5
42F
330
42A
100
AcDbEntity
  8
CDTC4
 62
   250
420
  2301728
370
    13
100
AcDbVertex
100
AcDb2dVertex
 10
4.039344922891195
 20
6.130370490906064
 30
0.0
  0
SEQEND
  5
430
330
42A
100
AcDbEntity
  8
CDTC4
 62
   250
420
  2301728
370
    13
  0
INSERT
  5
432
330
1F
100
AcDbEntity
  8
CDTC4
100
AcDbBlockReference
  2
block 3
 10
0.0
 20
0.0
 30
0.0
  0
SPLINE
  5
4AE
330
1F
100
AcDbEntity
  8
CDTC4
 62
   250
420
  2301728
370
    15
100
AcDbSpline
210
0.0
220
0.0
230
1.0
 70
    11
 71
     3
 72
    23
 73
    19
 74
     0
 42
0.0000000001
 43
0.0000000001
 12
1.0
 22
0.0
 32
0.0
 13
1.0
 23
0.0
 33
0.0
 40
0.0
 40
0.0
 40
0.0
 40
0.0
 40
1.0
 40
1.0
 40
1.0
 40
2.0
 40
2.0
 40
2.0
 40
3.0
 40
3.0
 40
3.0
 40
4.0
 40
4.0
 40
4.0
 40
5.0
 40
5.0
 40
5.0
 40
6.0
 40
6.0
 40
6.0
 40
6.0
 10
4.626026357138041
 20
5.57480752928686
 30
0.0
 10
4.626034935759511
 20
5.5722015347341
 30
0.0
 10
4.623884561322383
 20
5.57082418940537
 30
0.0
 10
4.621250924545039
 20
5.571754581651058
 30
0.0
 10
4.621250924545039
 20
5.571754581651058
 30
0.0
 10
4.483532595734939
 20
5.620102650408764
 30
0.0
 10
4.483532595734939
 20
5.620102650408764
 30
0.0
 10
4.48089895895757
 20
5.621014933475887
 30
0.0
 10
4.47872952091729
 20
5.623919183762559
 30
0.0
 10
4.478719989115739
 20
5.62651564651373
 30
0.0
 10
4.478701878692719
 20
5.629122594246647
 30
0.0
 10
4.480852253129822
 20
5.630499939575379
 30
0.0
 10
4.483485889907166
 20
5.629578214362318
 30
0.0
 10
4.483485889907166
 20
5.629578214362318
 30
0.0
 10
4.62120421871729
 20
5.581221478571971
 30
0.0
 10
4.62120421871729
 20
5.581221478571971
 30
0.0
 10
4.623838808674766
 20
5.580309285160511
 30
0.0
 10
4.626007293534914
 20
5.577414477019766
 30
0.0
 10
4.626026357138041
 20
5.57480752928686
 30
0.0
  0
HATCH
  5
4AF
330
1F
100
AcDbEntity
  8
CDTC4
 62
   254
420
 13358815
100
AcDbHatch
 10
0.0
 20
0.0
 30
0.0
210
0.0
220
0.0
230
1.0
  2
SOLID
 70
     1
 71
     0
 91
        1
 92
        1
 93
        1
 72
     4
 94
        3
 73
     0
 74
     1
 95
       23
 96
       19
 40
0.0
 40
0.0
 40
0.0
 40
0.0
 40
1.0
 40
1.0
 40
1.0
 40
2.0
 40
2.0
 40
2.0
 40
3.0
 40
3.0
 40
3.0
 40
4.0
 40
4.0
 40
4.0
 40
5.0
 40
5.0
 40
5.0
 40
6.0
 40
6.0
 40
6.0
 40
6.0
 10
4.626026357138041
 20
5.57480752928686
 10
4.626034935759511
 20
5.5722015347341
 10
4.623884561322383
 20
5.57082418940537
 10
4.621250924545039
 20
5.571754581651058
 10
4.621250924545039
 20
5.571754581651058
 10
4.483532595734939
 20
5.620102650408764
 10
4.483532595734939
 20
5.620102650408764
 10
4.48089895895757
 20
5.621014933475887
 10
4.47872952091729
 20
5.623919183762559
 10
4.478719989115739
 20
5.62651564651373
 10
4.478701878692719
 20
5.629122594246647
 10
4.480852253129822
 20
5.630499939575379
 10
4.483485889907166
 20
5.629578214362318
 10
4.483485889907166
 20
5.629578214362318
 10
4.62120421871729
 20
5.581221478571971
 10
4.62120421871729
 20
5.581221478571971
 10
4.623838808674766
 20
5.580309285160511
 10
4.626007293534914
 20
5.577414477019766
 10
4.626026357138041
 20
5.57480752928686
 97
        0
 97
        0
 75
     2
 76
     1
 98
        0
  0
POLYLINE
  5
4B0
330
1F
100
AcDbEntity
  8
CDTC4
 62
   250
420
  2301728
370
    25
100
AcDb2dPolyline
 66
     1
 10
0.0
 20
0.0
 30
0.0
  0
VERTEX
  5
4B1
330
4B0
100
AcDbEntity
  8
CDTC4
 62
   250
420
  2301728
370
    25
100
AcDbVertex
100
AcDb2dVertex
 10
6.150220657802113
 20
4.331038065469127
 30
0.0
  0
VERTEX
  5
523
330
4B0
100
AcDbEntity
  8
0
100
AcDbVertex
100
AcDb2dVertex
 10
6.150220657802113
 20
4.331038065469127
 30
0.0
  0
SEQEND
  5
4B2
330
4B0
100
AcDbEntity
  8
CDTC4
 62
   250
420
  2301728
370
    25
  0
INSERT
  5
4B5
330
1F
100
AcDbEntity
  8
callout
100
AcDbBlockReference
  2
block 4
 10
0.0
 20
0.0
 30
0.0
  0
INSERT
  5
4D7
330
1F
100
AcDbEntity
  8
callout
100
AcDbBlockReference
  2
block 5
 10
0.0
 20
0.0
 30
0.0
  0
POLYLINE
  5
4F5
330
1F
100
AcDbEntity
  8
callout
 62
   250
420
  2301728
370
    18
100
AcDb2dPolyline
 66
     1
 10
0.0
 20
0.0
 30
0.0
  0
VERTEX
  5
4F6
330
4F5
100
AcDbEntity
  8
callout
 62
   250
420
  2301728
370
    18
100
AcDbVertex
100
AcDb2dVertex
 10
4.374438267078252
 20
5.631179557028241
 30
0.0
  0
VERTEX
  5
4F7
330
4F5
100
AcDbEntity
  8
callout
 62
   250
420
  2301728
370
    18
100
AcDbVertex
100
AcDb2dVertex
 10
3.220718535286513
 20
5.081220341559603
 30
0.0
  0
SEQEND
  5
4F8
330
4F5
100
AcDbEntity
  8
callout
 62
   250
420
  2301728
370
    18
  0
INSERT
  5
4FA
330
1F
100
AcDbEntity
  8
callout
100
AcDbBlockReference
  2
block 6
 10
0.0
 20
0.0
 30
0.0
  0
SPLINE
  5
508
330
1F
100
AcDbEntity
  8
callout
 62
   250
420
  2301728
370
    18
100
AcDbSpline
210
0.0
220
0.0
230
1.0
 70
     8
 71
     3
 72
     8
 73
     4
 74
     0
 42
0.0000000001
 43
0.0000000001
 12
1.0
 22
0.0
 32
0.0
 13
1.0
 23
0.0
 33
0.0
 40
0.0
 40
0.0
 40
0.0
 40
0.0
 40
1.0
 40
1.0
 40
1.0
 40
1.0
 10
3.297828962064045
 20
5.222261535983787
 30
0.0
 10
3.092895222854786
 20
5.134092369114695
 30
0.0
 10
2.954684096411345
 20
5.062603855437045
 30
0.0
 10
2.935620492763961
 20
4.850521264860036
 30
0.0
  0
SPLINE
  5
509
330
1F
100
AcDbEntity
  8
callout
370
     0
100
AcDbSpline
210
0.0
220
0.0
230
1.0
 70
    11
 71
     3
 72
    17
 73
    13
 74
     0
 42
0.0000000001
 43
0.0000000001
 12
1.0
 22
0.0
 32
0.0
 13
1.0
 23
0.0
 33
0.0
 40
0.0
 40
0.0
 40
0.0
 40
0.0
 40
1.0
 40
1.0
 40
1.0
 40
2.0
 40
2.0
 40
2.0
 40
3.0
 40
3.0
 40
3.0
 40
4.0
 40
4.0
 40
4.0
 40
4.0
 10
3.33357321890287
 20
5.222261535983787
 30
0.0
 10
3.33357321890287
 20
5.202518235782867
 30
0.0
 10
3.317572124350439
 20
5.186517279144962
 30
0.0
 10
3.297828962064045
 20
5.186517279144962
 30
0.0
 10
3.278085683113154
 20
5.186517279144962
 30
0.0
 10
3.26208470522522
 20
5.202518235782867
 30
0.0
 10
3.26208470522522
 20
5.222261535983787
 30
0.0
 10
3.26208470522522
 20
5.242004677020152
 30
0.0
 10
3.278085683113154
 20
5.258005792822612
 30
0.0
 10
3.297828962064045
 20
5.258005792822612
 30
0.0
 10
3.317572124350439
 20
5.258005792822612
 30
0.0
 10
3.33357321890287
 20
5.242004677020152
 30
0.0
 10
3.33357321890287
 20
5.222261535983787
 30
0.0
  0
HATCH
  5
50A
330
1F
100
AcDbEntity
  8
callout
 62
   250
420
  2301728
100
AcDbHatch
 10
0.0
 20
0.0
 30
0.0
210
0.0
220
0.0
230
1.0
  2
SOLID
 70
     1
 71
     0
 91
        1
 92
        1
 93
        1
 72
     4
 94
        3
 73
     0
 74
     1
 95
       17
 96
       13
 40
0.0
 40
0.0
 40
0.0
 40
0.0
 40
1.0
 40
1.0
 40
1.0
 40
2.0
 40
2.0
 40
2.0
 40
3.0
 40
3.0
 40
3.0
 40
4.0
 40
4.0
 40
4.0
 40
4.0
 10
3.33357321890287
 20
5.222261535983787
 10
3.33357321890287
 20
5.202518235782867
 10
3.317572124350439
 20
5.186517279144962
 10
3.297828962064045
 20
5.186517279144962
 10
3.278085683113154
 20
5.186517279144962
 10
3.26208470522522
 20
5.202518235782867
 10
3.26208470522522
 20
5.222261535983787
 10
3.26208470522522
 20
5.242004677020152
 10
3.278085683113154
 20
5.258005792822612
 10
3.297828962064045
 20
5.258005792822612
 10
3.317572124350439
 20
5.258005792822612
 10
3.33357321890287
 20
5.242004677020152
 10
3.33357321890287
 20
5.222261535983787
 97
        0
 97
        0
 75
     2
 76
     1
 98
        0
  0
MTEXT
  5
50B
330
1F
100
AcDbEntity
  8
callout
 62
   250
420
  2301728
100
AcDbMText
 10
2.790581597222222
 20
4.706122504340278
 30
0.0
 40
0.118
 41
0.0
 46
0.0
 71
     7
 72
     1
  1
\fHelvetica LT Std Condensed|b0|i0|c0|p34;\W1;Gap, 
 73
     1
 44
1.0
  0
MTEXT
  5
50C
330
1F
100
AcDbEntity
  8
callout
 62
   250
420
  2301728
100
AcDbMText
 10
2.496839735243055
 20
4.5250244140625
 30
0.0
 40
0.118
 41
0.0
 46
0.0
 71
     7
 72
     1
  1
\fHelvetica LT Std Condensed|b0|i0|c0|p34;\W1;Where Occurs
 73
     1
 44
1.0
  0
INSERT
  5
50E
330
1F
100
AcDbEntity
  8
callout
100
AcDbBlockReference
  2
block 7
 10
0.0
 20
0.0
 30
0.0
  0
MTEXT
  5
51C
330
1F
100
AcDbEntity
  8
callout
 62
   250
420
  2301728
100
AcDbMText
 10
6.016602834065755
 20
5.737719085481431
 30
0.0
 40
0.118
 41
0.0
 46
0.0
 71
     7
 72
     1
  1
\fHelvetica LT Std Condensed|b0|i0|c0|p34;\W1;HTC
 73
     1
 44
1.0
  0
SPLINE
  5
51D
330
1F
100
AcDbEntity
  8
callout
 62
   250
420
  2301728
370
    30
100
AcDbSpline
210
0.0
220
0.0
230
1.0
 70
     8
 71
     3
 72
     8
 73
     4
 74
     0
 42
0.0000000001
 43
0.0000000001
 12
1.0
 22
0.0
 32
0.0
 13
1.0
 23
0.0
 33
0.0
 40
0.0
 40
0.0
 40
0.0
 40
0.0
 40
1.0
 40
1.0
 40
1.0
 40
1.0
 10
5.194228740681309
 20
5.834681555278583
 30
0.0
 10
5.194228740681309
 20
5.834681555278583
 30
0.0
 10
5.622269298245656
 20
5.817410133823525
 30
0.0
 10
5.947669869048796
 20
5.807517264363683
 30
0.0
  0
MTEXT
  5
51E
330
1F
100
AcDbEntity
  8
callout
 62
   250
420
  2301728
100
AcDbMText
 10
3.413065168592665
 20
3.929621590508355
 30
0.0
 40
0.118
 41
0.0
 46
0.0
 71
     7
 72
     1
  1
\fHelvetica Neue LT Std 55 Roman|b0|i0|c0|p34;\W1;SIMPSON Strong-Tie\H0.068794;®\H0.118; ^C
 73
     1
 44
1.0
  0
MTEXT
  5
51F
330
1F
100
AcDbEntity
  8
callout
 62
   250
420
  2301728
100
AcDbMText
 10
2.817362043592665
 20
3.729629728529188
 30
0.0
 40
0.118
 41
0.0
 46
0.0
 71
     7
 72
     1
  1
\fHelvetica Neue LT Std 55 Roman|b0|i0|c0|p34;\W1;HTC Installation on a 90 x 45mm Plate
 73
     1
 44
1.0
  0
MTEXT
  5
520
330
1F
100
AcDbEntity
  8
callout
 62
   250
420
  2301728
100
AcDbMText
 10
5.79214741786321
 20
5.320246696472168
 30
0.0
 40
0.118
 41
0.0
 46
0.0
 71
     7
 72
     1
  1
\fHelvetica Neue LT Std 57 Condensed|b0|i0|c0|p34;\W1;Top Plate on a 
 73
     1
 44
1.0
  0
MTEXT
  5
521
330
1F
100
AcDbEntity
  8
callout
 62
   250
420
  2301728
100
AcDbMText
 10
5.79214741786321
 20
5.153580029805501
 30
0.0
 40
0.118
 41
0.0
 46
0.0
 71
     7
 72
     1
  1
\fHelvetica Neue LT Std 57 Condensed|b0|i0|c0|p34;\W1;non-bearing wall
 73
     1
 44
1.0
  0
SPLINE
  5
522
330
1F
100
AcDbEntity
  8
callout
 62
   250
420
  2301728
370
    25
100
AcDbSpline
210
0.0
220
0.0
230
1.0
 70
     8
 71
     3
 72
     8
 73
     4
 74
     0
 42
0.0000000001
 43
0.0000000001
 12
1.0
 22
0.0
 32
0.0
 13
1.0
 23
0.0
 33
0.0
 40
0.0
 40
0.0
 40
0.0
 40
0.0
 40
1.0
 40
1.0
 40
1.0
 40
1.0
 10
5.606907953852012
 20
5.587286388065422
 30
0.0
 10
5.606907953852012
 20
5.587286388065422
 30
0.0
 10
5.904069115758122
 20
5.53987013338753
 30
0.0
 10
6.042440871513109
 20
5.505904889370324
 30
0.0
  0
ENDSEC
  0
SECTION
  2
OBJECTS
  0
DICTIONARY
  5
C
330
0
100
AcDbDictionary
281
     1
  3
ACAD_GROUP
350
D
  3
ACAD_LAYOUT
350
1A
  3
ACAD_MATERIAL
350
3B
  3
ACAD_MLEADERSTYLE
350
525
  3
ACAD_MLINESTYLE
350
17
  3
ACAD_PLOTSETTINGS
350
19
  3
ACAD_PLOTSTYLENAME
350
E
  3
ACAD_TABLESTYLE
350
524
  3
ACAD_VISUALSTYLE
350
2A
  0
SUN
  5
3F
330
29
100
AcDbSun
 90
        1
290
     0
 63
     7
421
 16777215
 40
1.0
291
     1
 91
  2455826
 92
 54000000
292
     0
 70
     2
 71
   256
280
     1
  0
DICTIONARY
  5
D
102
{ACAD_REACTORS
330
C
102
}
330
C
100
AcDbDictionary
281
     1
  0
DICTIONARY
  5
1A
102
{ACAD_REACTORS
330
C
102
}
330
C
100
AcDbDictionary
281
     1
  3
Layout1
350
1E
  3
Layout2
350
26
  3
Model
350
22
  0
DICTIONARY
  5
3B
102
{ACAD_REACTORS
330
C
102
}
330
C
100
AcDbDictionary
281
     1
  3
ByBlock
350
3D
  3
ByLayer
350
3C
  3
Global
350
3E
  0
DICTIONARY
  5
525
102
{ACAD_REACTORS
330
C
102
}
330
C
100
AcDbDictionary
281
     1
  0
DICTIONARY
  5
17
102
{ACAD_REACTORS
330
C
102
}
330
C
100
AcDbDictionary
281
     1
  3
Standard
350
18
  0
DICTIONARY
  5
19
102
{ACAD_REACTORS
330
C
102
}
330
C
100
AcDbDictionary
281
     1
  0
ACDBDICTIONARYWDFLT
  5
E
102
{ACAD_REACTORS
330
C
102
}
330
C
100
AcDbDictionary
281
     1
  3
Normal
350
F
100
AcDbDictionaryWithDefault
340
F
  0
DICTIONARY
  5
524
102
{ACAD_REACTORS
330
C
102
}
330
C
100
AcDbDictionary
281
     1
  0
DICTIONARY
  5
2A
102
{ACAD_REACTORS
330
C
102
}
330
C
100
AcDbDictionary
281
     1
  3
2dWireframe
350
2F
  3
3D Hidden
350
31
  3
3dWireframe
350
30
  3
Basic
350
32
  3
Brighten
350
36
  3
ColorChange
350
3A
  3
Conceptual
350
34
  3
Dim
350
35
  3
Facepattern
350
39
  3
Flat
350
2B
  3
FlatWithEdges
350
2C
  3
Gouraud
350
2D
  3
GouraudWithEdges
350
2E
  3
Linepattern
350
38
  3
Realistic
350
33
  3
Thicken
350
37
  0
LAYOUT
  5
1E
102
{ACAD_REACTORS
330
1A
102
}
330
1A
100
AcDbPlotSettings
  1

  2
none_device
  4

  6

 40
0.0
 41
0.0
 42
0.0
 43
0.0
 44
0.0
 45
0.0
 46
0.0
 47
0.0
 48
0.0
 49
0.0
140
0.0
141
0.0
142
1.0
143
1.0
 70
   688
 72
     0
 73
     0
 74
     5
  7

 75
    16
 76
     0
 77
     2
 78
   300
147
1.0
148
0.0
149
0.0
100
AcDbLayout
  1
Layout1
 70
     1
 71
     1
 10
0.0
 20
0.0
 11
12.0
 21
9.0
 12
0.0
 22
0.0
 32
0.0
 14
1.000000000000000E+20
 24
1.000000000000000E+20
 34
1.000000000000000E+20
 15
-1.000000000000000E+20
 25
-1.000000000000000E+20
 35
-1.000000000000000E+20
146
0.0
 13
0.0
 23
0.0
 33
0.0
 16
1.0
 26
0.0
 36
0.0
 17
0.0
 27
1.0
 37
0.0
 76
     0
330
1B
  0
LAYOUT
  5
26
102
{ACAD_REACTORS
330
1A
102
}
330
1A
100
AcDbPlotSettings
  1

  2
none_device
  4

  6

 40
0.0
 41
0.0
 42
0.0
 43
0.0
 44
0.0
 45
0.0
 46
0.0
 47
0.0
 48
0.0
 49
0.0
140
0.0
141
0.0
142
1.0
143
1.0
 70
   688
 72
     0
 73
     0
 74
     5
  7

 75
    16
 76
     0
 77
     2
 78
   300
147
1.0
148
0.0
149
0.0
100
AcDbLayout
  1
Layout2
 70
     1
 71
     2
 10
0.0
 20
0.0
 11
0.0
 21
0.0
 12
0.0
 22
0.0
 32
0.0
 14
0.0
 24
0.0
 34
0.0
 15
0.0
 25
0.0
 35
0.0
146
0.0
 13
0.0
 23
0.0
 33
0.0
 16
1.0
 26
0.0
 36
0.0
 17
0.0
 27
1.0
 37
0.0
 76
     0
330
23
  0
LAYOUT
  5
22
102
{ACAD_REACTORS
330
1A
102
}
330
1A
100
AcDbPlotSettings
  1

  2
none_device
  4

  6

 40
0.0
 41
0.0
 42
0.0
 43
0.0
 44
0.0
 45
0.0
 46
0.0
 47
0.0
 48
0.0
 49
0.0
140
0.0
141
0.0
142
1.0
143
1.0
 70
  1712
 72
     0
 73
     0
 74
     0
  7

 75
     0
 76
     0
 77
     2
 78
   300
147
1.0
148
0.0
149
0.0
100
AcDbLayout
  1
Model
 70
     1
 71
     0
 10
0.0
 20
0.0
 11
12.0
 21
9.0
 12
0.0
 22
0.0
 32
0.0
 14
1.000000000000000E+20
 24
1.000000000000000E+20
 34
1.000000000000000E+20
 15
-1.000000000000000E+20
 25
-1.000000000000000E+20
 35
-1.000000000000000E+20
146
0.0
 13
0.0
 23
0.0
 33
0.0
 16
1.0
 26
0.0
 36
0.0
 17
0.0
 27
1.0
 37
0.0
 76
     0
330
1F
331
29
  0
MATERIAL
  5
3D
102
{ACAD_REACTORS
330
3B
102
}
330
3B
100
AcDbMaterial
  1
ByBlock
 72
     1
 94
      127
  0
MATERIAL
  5
3C
102
{ACAD_REACTORS
330
3B
102
}
330
3B
100
AcDbMaterial
  1
ByLayer
 72
     1
 94
      127
  0
MATERIAL
  5
3E
102
{ACAD_REACTORS
330
3B
102
}
330
3B
100
AcDbMaterial
  1
Global
 72
     1
 94
      127
  0
MLINESTYLE
  5
18
102
{ACAD_REACTORS
330
17
102
}
330
17
100
AcDbMlineStyle
  2
Standard
 70
     0
  3

 62
   256
 51
90.0
 52
90.0
 71
     2
 49
0.5
 62
   256
  6
BYLAYER
 49
-0.5
 62
   256
  6
BYLAYER
  0
ACDBPLACEHOLDER
  5
F
102
{ACAD_REACTORS
330
E
102
}
330
E
  0
VISUALSTYLE
  5
2F
102
{ACAD_REACTORS
330
2A
102
}
330
2A
100
AcDbVisualStyle
  2
2dWireframe
 70
     4
177
     2
291
     0
 71
     0
176
     1
 72
     2
176
     1
 73
     0
176
     1
 90
        0
176
     1
 40
-0.6
176
     1
 41
-30.0
176
     1
 62
     5
 63
     7
421
 16777215
176
     1
 74
     1
176
     1
 91
        4
176
     1
 64
     7
176
     1
 65
   257
176
     1
 75
     1
176
     1
175
     1
176
     1
 42
1.0
176
     1
 92
        0
176
     1
 66
   257
176
     1
 43
1.0
176
     1
 76
     1
176
     1
 77
     6
176
     1
 78
     2
176
     1
 67
     7
176
     1
 79
     5
176
     1
170
     0
176
     1
171
     0
176
     1
290
     0
176
     1
 93
        1
176
     1
 44
0.0
176
     1
173
     0
176
     1
  0
VISUALSTYLE
  5
31
102
{ACAD_REACTORS
330
2A
102
}
330
2A
100
AcDbVisualStyle
  2
3D Hidden
 70
     6
177
     2
291
     0
 71
     1
176
     1
 72
     2
176
     1
 73
     2
176
     1
 90
        0
176
     1
 40
-0.6
176
     1
 41
-30.0
176
     1
 62
     5
 63
     7
421
 16777215
176
     1
 74
     2
176
     1
 91
        2
176
     1
 64
     7
176
     1
 65
   257
176
     1
 75
     2
176
     1
175
     1
176
     1
 42
40.0
176
     1
 92
        0
176
     1
 66
   257
176
     1
 43
1.0
176
     1
 76
     1
176
     1
 77
     6
176
     1
 78
     2
176
     1
 67
     7
176
     1
 79
     3
176
     1
170
     0
176
     1
171
     0
176
     1
290
     0
176
     1
 93
        1
176
     1
 44
0.0
176
     1
173
     0
176
     1
  0
VISUALSTYLE
  5
30
102
{ACAD_REACTORS
330
2A
102
}
330
2A
100
AcDbVisualStyle
  2
3dWireframe
 70
     5
177
     2
291
     0
 71
     0
176
     1
 72
     2
176
     1
 73
     0
176
     1
 90
        0
176
     1
 40
-0.6
176
     1
 41
-30.0
176
     1
 62
     5
 63
     7
421
 16777215
176
     1
 74
     1
176
     1
 91
        4
176
     1
 64
     7
176
     1
 65
   257
176
     1
 75
     1
176
     1
175
     1
176
     1
 42
1.0
176
     1
 92
        0
176
     1
 66
   257
176
     1
 43
1.0
176
     1
 76
     1
176
     1
 77
     6
176
     1
 78
     2
176
     1
 67
     7
176
     1
 79
     5
176
     1
170
     0
176
     1
171
     0
176
     1
290
     0
176
     1
 93
        1
176
     1
 44
0.0
176
     1
173
     0
176
     1
  0
VISUALSTYLE
  5
32
102
{ACAD_REACTORS
330
2A
102
}
330
2A
100
AcDbVisualStyle
  2
Basic
 70
     7
177
     2
291
     1
 71
     1
176
     1
 72
     0
176
     1
 73
     1
176
     1
 90
        0
176
     1
 40
-0.6
176
     1
 41
-30.0
176
     1
 62
     5
 63
     7
421
 16777215
176
     1
 74
     0
176
     1
 91
        4
176
     1
 64
     7
176
     1
 65
   257
176
     1
 75
     1
176
     1
175
     1
176
     1
 42
1.0
176
     1
 92
        8
176
     1
 66
     7
176
     1
 43
1.0
176
     1
 76
     1
176
     1
 77
     6
176
     1
 78
     2
176
     1
 67
     7
176
     1
 79
     5
176
     1
170
     0
176
     1
171
     0
176
     1
290
     0
176
     1
 93
        1
176
     1
 44
0.0
176
     1
173
     0
176
     1
  0
VISUALSTYLE
  5
36
102
{ACAD_REACTORS
330
2A
102
}
330
2A
100
AcDbVisualStyle
  2
Brighten
 70
    12
177
     2
291
     1
 71
     2
176
     1
 72
     2
176
     1
 73
     0
176
     1
 90
        0
176
     1
 40
-0.6
176
     1
 41
-30.0
176
     1
 62
     5
 63
     7
421
 16777215
176
     1
 74
     1
176
     1
 91
        4
176
     1
 64
     7
176
     1
 65
   257
176
     1
 75
     1
176
     1
175
     1
176
     1
 42
1.0
176
     1
 92
        8
176
     1
 66
     7
176
     1
 43
1.0
176
     1
 76
     1
176
     1
 77
     6
176
     1
 78
     2
176
     1
 67
     7
176
     1
 79
     5
176
     1
170
     0
176
     1
171
     0
176
     1
290
     0
176
     1
 93
        1
176
     1
 44
50.0
176
     1
173
     0
176
     1
  0
VISUALSTYLE
  5
3A
102
{ACAD_REACTORS
330
2A
102
}
330
2A
100
AcDbVisualStyle
  2
ColorChange
 70
    16
177
     2
291
     1
 71
     2
176
     1
 72
     2
176
     1
 73
     3
176
     1
 90
        0
176
     1
 40
-0.6
176
     1
 41
-30.0
176
     1
 62
     5
 63
     8
421
  8421504
176
     1
 74
     1
176
     1
 91
        4
176
     1
 64
     7
176
     1
 65
   257
176
     1
 75
     1
176
     1
175
     1
176
     1
 42
1.0
176
     1
 92
        8
176
     1
 66
     8
424
  8421504
176
     1
 43
1.0
176
     1
 76
     1
176
     1
 77
     6
176
     1
 78
     2
176
     1
 67
     7
176
     1
 79
     5
176
     1
170
     0
176
     1
171
     0
176
     1
290
     0
176
     1
 93
        1
176
     1
 44
0.0
176
     1
173
     0
176
     1
  0
VISUALSTYLE
  5
34
102
{ACAD_REACTORS
330
2A
102
}
330
2A
100
AcDbVisualStyle
  2
Conceptual
 70
     9
177
     2
291
     0
 71
     3
176
     1
 72
     2
176
     1
 73
     0
176
     1
 90
        0
176
     1
 40
-0.6
176
     1
 41
-30.0
176
     1
 62
     5
 63
     7
421
 16777215
176
     1
 74
     2
176
     1
 91
        2
176
     1
 64
     7
176
     1
 65
   257
176
     1
 75
     1
176
     1
175
     1
176
     1
 42
40.0
176
     1
 92
        8
176
     1
 66
     7
176
     1
 43
1.0
176
     1
 76
     1
176
     1
 77
     6
176
     1
 78
     2
176
     1
 67
     7
176
     1
 79
     3
176
     1
170
     0
176
     1
171
     0
176
     1
290
     0
176
     1
 93
        1
176
     1
 44
0.0
176
     1
173
     0
176
     1
  0
VISUALSTYLE
  5
35
102
{ACAD_REACTORS
330
2A
102
}
330
2A
100
AcDbVisualStyle
  2
Dim
 70
    11
177
     2
291
     1
 71
     2
176
     1
 72
     2
176
     1
 73
     0
176
     1
 90
        0
176
     1
 40
-0.6
176
     1
 41
-30.0
176
     1
 62
     5
 63
     7
421
 16777215
176
     1
 74
     1
176
     1
 91
        4
176
     1
 64
     7
176
     1
 65
   257
176
     1
 75
     1
176
     1
175
     1
176
     1
 42
1.0
176
     1
 92
        8
176
     1
 66
     7
176
     1
 43
1.0
176
     1
 76
     1
176
     1
 77
     6
176
     1
 78
     2
176
     1
 67
     7
176
     1
 79
     5
176
     1
170
     0
176
     1
171
     0
176
     1
290
     0
176
     1
 93
        1
176
     1
 44
-50.0
176
     1
173
     0
176
     1
  0
VISUALSTYLE
  5
39
102
{ACAD_REACTORS
330
2A
102
}
330
2A
100
AcDbVisualStyle
  2
Facepattern
 70
    15
177
     2
291
     1
 71
     2
176
     1
 72
     2
176
     1
 73
     0
176
     1
 90
        0
176
     1
 40
-0.6
176
     1
 41
-30.0
176
     1
 62
     5
 63
     7
421
 16777215
176
     1
 74
     1
176
     1
 91
        4
176
     1
 64
     7
176
     1
 65
   257
176
     1
 75
     1
176
     1
175
     1
176
     1
 42
1.0
176
     1
 92
        8
176
     1
 66
     7
176
     1
 43
1.0
176
     1
 76
     1
176
     1
 77
     6
176
     1
 78
     2
176
     1
 67
     7
176
     1
 79
     5
176
     1
170
     0
176
     1
171
     0
176
     1
290
     0
176
     1
 93
        1
176
     1
 44
0.0
176
     1
173
     0
176
     1
  0
VISUALSTYLE
  5
2B
102
{ACAD_REACTORS
330
2A
102
}
330
2A
100
AcDbVisualStyle
  2
Flat
 70
     0
177
     2
291
     1
 71
     2
176
     1
 72
     1
176
     1
 73
     1
176
     1
 90
        2
176
     1
 40
-0.6
176
     1
 41
30.0
176
     1
 62
     5
 63
     7
421
 16777215
176
     1
 74
     0
176
     1
 91
        4
176
     1
 64
     7
176
     1
 65
   257
176
     1
 75
     1
176
     1
175
     1
176
     1
 42
1.0
176
     1
 92
        8
176
     1
 66
     7
176
     1
 43
1.0
176
     1
 76
     1
176
     1
 77
     6
176
     1
 78
     2
176
     1
 67
     7
176
     1
 79
     5
176
     1
170
     0
176
     1
171
     0
176
     1
290
     0
176
     1
 93
       13
176
     1
 44
0.0
176
     1
173
     0
176
     1
  0
VISUALSTYLE
  5
2C
102
{ACAD_REACTORS
330
2A
102
}
330
2A
100
AcDbVisualStyle
  2
FlatWithEdges
 70
     1
177
     2
291
     1
 71
     2
176
     1
 72
     1
176
     1
 73
     1
176
     1
 90
        2
176
     1
 40
-0.6
176
     1
 41
30.0
176
     1
 62
     5
 63
     7
421
 16777215
176
     1
 74
     1
176
     1
 91
        4
176
     1
 64
     7
176
     1
 65
   257
176
     1
 75
     1
176
     1
175
     1
176
     1
 42
1.0
176
     1
 92
        0
176
     1
 66
   257
176
     1
 43
1.0
176
     1
 76
     1
176
     1
 77
     6
176
     1
 78
     2
176
     1
 67
     7
176
     1
 79
     5
176
     1
170
     0
176
     1
171
     0
176
     1
290
     0
176
     1
 93
       13
176
     1
 44
0.0
176
     1
173
     0
176
     1
  0
VISUALSTYLE
  5
2D
102
{ACAD_REACTORS
330
2A
102
}
330
2A
100
AcDbVisualStyle
  2
Gouraud
 70
     2
177
     2
291
     1
 71
     2
176
     1
 72
     2
176
     1
 73
     1
176
     1
 90
        2
176
     1
 40
-0.6
176
     1
 41
30.0
176
     1
 62
     5
 63
     7
421
 16777215
176
     1
 74
     0
176
     1
 91
        4
176
     1
 64
     7
176
     1
 65
   257
176
     1
 75
     1
176
     1
175
     1
176
     1
 42
1.0
176
     1
 92
        0
176
     1
 66
     7
176
     1
 43
1.0
176
     1
 76
     1
176
     1
 77
     6
176
     1
 78
     2
176
     1
 67
     7
176
     1
 79
     5
176
     1
170
     0
176
     1
171
     0
176
     1
290
     0
176
     1
 93
       13
176
     1
 44
0.0
176
     1
173
     0
176
     1
  0
VISUALSTYLE
  5
2E
102
{ACAD_REACTORS
330
2A
102
}
330
2A
100
AcDbVisualStyle
  2
GouraudWithEdges
 70
     3
177
     2
291
     1
 71
     2
176
     1
 72
     2
176
     1
 73
     1
176
     1
 90
        2
176
     1
 40
-0.6
176
     1
 41
30.0
176
     1
 62
     5
 63
     7
421
 16777215
176
     1
 74
     1
176
     1
 91
        4
176
     1
 64
     7
176
     1
 65
   257
176
     1
 75
     1
176
     1
175
     1
176
     1
 42
1.0
176
     1
 92
        0
176
     1
 66
   257
176
     1
 43
1.0
176
     1
 76
     1
176
     1
 77
     6
176
     1
 78
     2
176
     1
 67
     7
176
     1
 79
     5
176
     1
170
     0
176
     1
171
     0
176
     1
290
     0
176
     1
 93
       13
176
     1
 44
0.0
176
     1
173
     0
176
     1
  0
VISUALSTYLE
  5
38
102
{ACAD_REACTORS
330
2A
102
}
330
2A
100
AcDbVisualStyle
  2
Linepattern
 70
    14
177
     2
291
     1
 71
     2
176
     1
 72
     2
176
     1
 73
     0
176
     1
 90
        0
176
     1
 40
-0.6
176
     1
 41
-30.0
176
     1
 62
     5
 63
     7
421
 16777215
176
     1
 74
     1
176
     1
 91
        4
176
     1
 64
     7
176
     1
 65
   257
176
     1
 75
     7
176
     1
175
     7
176
     1
 42
1.0
176
     1
 92
        8
176
     1
 66
     7
176
     1
 43
1.0
176
     1
 76
     1
176
     1
 77
     6
176
     1
 78
     2
176
     1
 67
     7
176
     1
 79
     5
176
     1
170
     0
176
     1
171
     0
176
     1
290
     0
176
     1
 93
        1
176
     1
 44
0.0
176
     1
173
     0
176
     1
  0
VISUALSTYLE
  5
33
102
{ACAD_REACTORS
330
2A
102
}
330
2A
100
AcDbVisualStyle
  2
Realistic
 70
     8
177
     2
291
     0
 71
     2
176
     1
 72
     2
176
     1
 73
     0
176
     1
 90
        0
176
     1
 40
-0.6
176
     1
 41
-30.0
176
     1
 62
     5
 63
     7
421
 16777215
176
     1
 74
     1
176
     1
 91
        0
176
     1
 64
     7
176
     1
 65
   257
176
     1
 75
     1
176
     1
175
     1
176
     1
 42
1.0
176
     1
 92
        8
176
     1
 66
     8
424
  7895160
176
     1
 43
1.0
176
     1
 76
     1
176
     1
 77
     6
176
     1
 78
     2
176
     1
 67
     7
176
     1
 79
     5
176
     1
170
     0
176
     1
171
     0
176
     1
290
     0
176
     1
 93
       13
176
     1
 44
0.0
176
     1
173
     0
176
     1
  0
VISUALSTYLE
  5
37
102
{ACAD_REACTORS
330
2A
102
}
330
2A
100
AcDbVisualStyle
  2
Thicken
 70
    13
177
     2
291
     1
 71
     2
176
     1
 72
     2
176
     1
 73
     0
176
     1
 90
        0
176
     1
 40
-0.6
176
     1
 41
-30.0
176
     1
 62
     5
 63
     7
421
 16777215
176
     1
 74
     1
176
     1
 91
        4
176
     1
 64
     7
176
     1
 65
   257
176
     1
 75
     1
176
     1
175
     1
176
     1
 42
1.0
176
     1
 92
       12
176
     1
 66
     7
176
     1
 43
1.0
176
     1
 76
     1
176
     1
 77
     6
176
     1
 78
     2
176
     1
 67
     7
176
     1
 79
     5
176
     1
170
     0
176
     1
171
     0
176
     1
290
     0
176
     1
 93
        1
176
     1
 44
0.0
176
     1
173
     0
176
     1
  0
ENDSEC
  0
EOF
