  0
SECTION
  2
HEADER
  9
$ACADVER
  1
AC1024
  9
$ACADMAINTVER
 70
     6
  9
$DWGCODEPAGE
  3
ANSI_1252
  9
$INSBASE
 10
0.0
 20
0.0
 30
0.0
  9
$EXTMIN
 10
1.000000000000000E+20
 20
1.000000000000000E+20
 30
1.000000000000000E+20
  9
$EXTMAX
 10
-1.000000000000000E+20
 20
-1.000000000000000E+20
 30
-1.000000000000000E+20
  9
$LIMMIN
 10
0.0
 20
0.0
  9
$LIMMAX
 10
12.0
 20
9.0
  9
$ORTHOMODE
 70
     0
  9
$REGENMODE
 70
     1
  9
$FILLMODE
 70
     1
  9
$QTEXTMODE
 70
     0
  9
$MIRRTEXT
 70
     1
  9
$LTSCALE
 40
1.0
  9
$ATTMODE
 70
     1
  9
$TEXTSIZE
 40
0.2
  9
$TRACEWID
 40
0.05
  9
$TEXTSTYLE
  7
Standard
  9
$CLAYER
  8
0
  9
$CELTYPE
  6
ByLayer
  9
$CECOLOR
 62
   256
  9
$CELTSCALE
 40
1.0
  9
$DISPSILH
 70
     0
  9
$DIMSCALE
 40
1.0
  9
$DIMASZ
 40
0.18
  9
$DIMEXO
 40
0.0625
  9
$DIMDLI
 40
0.38
  9
$DIMRND
 40
0.0
  9
$DIMDLE
 40
0.0
  9
$DIMEXE
 40
0.18
  9
$DIMTP
 40
0.0
  9
$DIMTM
 40
0.0
  9
$DIMTXT
 40
0.18
  9
$DIMCEN
 40
0.09
  9
$DIMTSZ
 40
0.0
  9
$DIMTOL
 70
     0
  9
$DIMLIM
 70
     0
  9
$DIMTIH
 70
     1
  9
$DIMTOH
 70
     1
  9
$DIMSE1
 70
     0
  9
$DIMSE2
 70
     0
  9
$DIMTAD
 70
     0
  9
$DIMZIN
 70
     0
  9
$DIMBLK
  1

  9
$DIMASO
 70
     1
  9
$DIMSHO
 70
     1
  9
$DIMPOST
  1

  9
$DIMAPOST
  1

  9
$DIMALT
 70
     0
  9
$DIMALTD
 70
     2
  9
$DIMALTF
 40
25.4
  9
$DIMLFAC
 40
1.0
  9
$DIMTOFL
 70
     0
  9
$DIMTVP
 40
0.0
  9
$DIMTIX
 70
     0
  9
$DIMSOXD
 70
     0
  9
$DIMSAH
 70
     0
  9
$DIMBLK1
  1

  9
$DIMBLK2
  1

  9
$DIMSTYLE
  2
Standard
  9
$DIMCLRD
 70
     0
  9
$DIMCLRE
 70
     0
  9
$DIMCLRT
 70
     0
  9
$DIMTFAC
 40
1.0
  9
$DIMGAP
 40
0.09
  9
$DIMJUST
 70
     0
  9
$DIMSD1
 70
     0
  9
$DIMSD2
 70
     0
  9
$DIMTOLJ
 70
     1
  9
$DIMTZIN
 70
     0
  9
$DIMALTZ
 70
     0
  9
$DIMALTTZ
 70
     0
  9
$DIMUPT
 70
     0
  9
$DIMDEC
 70
     4
  9
$DIMTDEC
 70
     4
  9
$DIMALTU
 70
     2
  9
$DIMALTTD
 70
     2
  9
$DIMTXSTY
  7
Standard
  9
$DIMAUNIT
 70
     0
  9
$DIMADEC
 70
     0
  9
$DIMALTRND
 40
0.0
  9
$DIMAZIN
 70
     0
  9
$DIMDSEP
 70
    46
  9
$DIMATFIT
 70
     3
  9
$DIMFRAC
 70
     0
  9
$DIMLDRBLK
  1

  9
$DIMLUNIT
 70
     2
  9
$DIMLWD
 70
    -2
  9
$DIMLWE
 70
    -2
  9
$DIMTMOVE
 70
     0
  9
$DIMFXL
 40
1.0
  9
$DIMFXLON
 70
     0
  9
$DIMJOGANG
 40
0.7853981633974483
  9
$DIMTFILL
 70
     0
  9
$DIMTFILLCLR
 70
     0
  9
$DIMARCSYM
 70
     0
  9
$DIMLTYPE
  6

  9
$DIMLTEX1
  6

  9
$DIMLTEX2
  6

  9
$DIMTXTDIRECTION
 70
     0
  9
$LUNITS
 70
     2
  9
$LUPREC
 70
     4
  9
$SKETCHINC
 40
0.1
  9
$FILLETRAD
 40
0.5
  9
$AUNITS
 70
     0
  9
$AUPREC
 70
     0
  9
$MENU
  1
.
  9
$ELEVATION
 40
0.0
  9
$PELEVATION
 40
0.0
  9
$THICKNESS
 40
0.0
  9
$LIMCHECK
 70
     0
  9
$CHAMFERA
 40
0.5
  9
$CHAMFERB
 40
0.5
  9
$CHAMFERC
 40
1.0
  9
$CHAMFERD
 40
0.0
  9
$SKPOLY
 70
     0
  9
$TDCREATE
 40
2458854.970574329
  9
$TDUCREATE
 40
2458854.428907662
  9
$TDUPDATE
 40
2458854.970574537
  9
$TDUUPDATE
 40
2458854.42890787
  9
$TDINDWG
 40
0.0000000116
  9
$TDUSRTIMER
 40
0.0000000116
  9
$USRTIMER
 70
     1
  9
$ANGBASE
 50
0.0
  9
$ANGDIR
 70
     0
  9
$PDMODE
 70
     0
  9
$PDSIZE
 40
0.0
  9
$PLINEWID
 40
0.0
  9
$SPLFRAME
 70
     0
  9
$SPLINETYPE
 70
     6
  9
$SPLINESEGS
 70
     8
  9
$HANDSEED
  5
2B3
  9
$SURFTAB1
 70
     6
  9
$SURFTAB2
 70
     6
  9
$SURFTYPE
 70
     6
  9
$SURFU
 70
     6
  9
$SURFV
 70
     6
  9
$UCSBASE
  2

  9
$UCSNAME
  2

  9
$UCSORG
 10
0.0
 20
0.0
 30
0.0
  9
$UCSXDIR
 10
1.0
 20
0.0
 30
0.0
  9
$UCSYDIR
 10
0.0
 20
1.0
 30
0.0
  9
$UCSORTHOREF
  2

  9
$UCSORTHOVIEW
 70
     0
  9
$UCSORGTOP
 10
0.0
 20
0.0
 30
0.0
  9
$UCSORGBOTTOM
 10
0.0
 20
0.0
 30
0.0
  9
$UCSORGLEFT
 10
0.0
 20
0.0
 30
0.0
  9
$UCSORGRIGHT
 10
0.0
 20
0.0
 30
0.0
  9
$UCSORGFRONT
 10
0.0
 20
0.0
 30
0.0
  9
$UCSORGBACK
 10
0.0
 20
0.0
 30
0.0
  9
$PUCSBASE
  2

  9
$PUCSNAME
  2

  9
$PUCSORG
 10
0.0
 20
0.0
 30
0.0
  9
$PUCSXDIR
 10
1.0
 20
0.0
 30
0.0
  9
$PUCSYDIR
 10
0.0
 20
1.0
 30
0.0
  9
$PUCSORTHOREF
  2

  9
$PUCSORTHOVIEW
 70
     0
  9
$PUCSORGTOP
 10
0.0
 20
0.0
 30
0.0
  9
$PUCSORGBOTTOM
 10
0.0
 20
0.0
 30
0.0
  9
$PUCSORGLEFT
 10
0.0
 20
0.0
 30
0.0
  9
$PUCSORGRIGHT
 10
0.0
 20
0.0
 30
0.0
  9
$PUCSORGFRONT
 10
0.0
 20
0.0
 30
0.0
  9
$PUCSORGBACK
 10
0.0
 20
0.0
 30
0.0
  9
$USERI1
 70
     0
  9
$USERI2
 70
     0
  9
$USERI3
 70
     0
  9
$USERI4
 70
     0
  9
$USERI5
 70
     0
  9
$USERR1
 40
0.0
  9
$USERR2
 40
0.0
  9
$USERR3
 40
0.0
  9
$USERR4
 40
0.0
  9
$USERR5
 40
0.0
  9
$WORLDVIEW
 70
     1
  9
$SHADEDGE
 70
     3
  9
$SHADEDIF
 70
    70
  9
$TILEMODE
 70
     1
  9
$MAXACTVP
 70
    64
  9
$PINSBASE
 10
0.0
 20
0.0
 30
0.0
  9
$PLIMCHECK
 70
     0
  9
$PEXTMIN
 10
1.000000000000000E+20
 20
1.000000000000000E+20
 30
1.000000000000000E+20
  9
$PEXTMAX
 10
-1.000000000000000E+20
 20
-1.000000000000000E+20
 30
-1.000000000000000E+20
  9
$PLIMMIN
 10
0.0
 20
0.0
  9
$PLIMMAX
 10
12.0
 20
9.0
  9
$UNITMODE
 70
     0
  9
$VISRETAIN
 70
     1
  9
$PLINEGEN
 70
     0
  9
$PSLTSCALE
 70
     1
  9
$TREEDEPTH
 70
  3020
  9
$CMLSTYLE
  2
Standard
  9
$CMLJUST
 70
     0
  9
$CMLSCALE
 40
1.0
  9
$PROXYGRAPHICS
 70
     1
  9
$MEASUREMENT
 70
     0
  9
$CELWEIGHT
370
    -1
  9
$ENDCAPS
280
     0
  9
$JOINSTYLE
280
     0
  9
$LWDISPLAY
290
     1
  9
$INSUNITS
 70
     1
  9
$HYPERLINKBASE
  1

  9
$STYLESHEET
  1

  9
$XEDIT
290
     1
  9
$CEPSNTYPE
380
     0
  9
$PSTYLEMODE
290
     1
  9
$FINGERPRINTGUID
  2
{AF60C0D4-9A95-49A9-85FF-071D4257BE3C}
  9
$VERSIONGUID
  2
{FAEB1C32-E019-11D5-929B-00C0DF256EC4}
  9
$EXTNAMES
290
     1
  9
$PSVPSCALE
 40
0.0
  9
$OLESTARTUP
290
     0
  9
$SORTENTS
280
   127
  9
$INDEXCTL
280
     0
  9
$HIDETEXT
280
     1
  9
$XCLIPFRAME
280
     2
  9
$HALOGAP
280
     0
  9
$OBSCOLOR
 70
   257
  9
$OBSLTYPE
280
     0
  9
$INTERSECTIONDISPLAY
280
     0
  9
$INTERSECTIONCOLOR
 70
   257
  9
$DIMASSOC
280
     2
  9
$PROJECTNAME
  1

  9
$CAMERADISPLAY
290
     0
  9
$LENSLENGTH
 40
50.0
  9
$CAMERAHEIGHT
 40
0.0
  9
$STEPSPERSEC
 40
2.0
  9
$STEPSIZE
 40
6.0
  9
$3DDWFPREC
 40
2.0
  9
$PSOLWIDTH
 40
0.25
  9
$PSOLHEIGHT
 40
4.0
  9
$LOFTANG1
 40
1.570796326794897
  9
$LOFTANG2
 40
1.570796326794897
  9
$LOFTMAG1
 40
0.0
  9
$LOFTMAG2
 40
0.0
  9
$LOFTPARAM
 70
     7
  9
$LOFTNORMALS
280
     1
  9
$LATITUDE
 40
37.795
  9
$LONGITUDE
 40
-122.394
  9
$NORTHDIRECTION
 40
0.0
  9
$TIMEZONE
 70
 -8000
  9
$LIGHTGLYPHDISPLAY
280
     1
  9
$TILEMODELIGHTSYNCH
280
     1
  9
$CMATERIAL
347
3C
  9
$SOLIDHIST
280
     1
  9
$SHOWHIST
280
     1
  9
$DWFFRAME
280
     2
  9
$DGNFRAME
280
     2
  9
$REALWORLDSCALE
290
     1
  9
$INTERFERECOLOR
 62
   256
  9
$CSHADOW
280
     0
  9
$SHADOWPLANELOCATION
 40
0.0
  0
ENDSEC
  0
SECTION
  2
CLASSES
  0
CLASS
  1
ACDBDICTIONARYWDFLT
  2
AcDbDictionaryWithDefault
  3
ObjectDBX Classes
 90
        0
 91
        4
280
     0
281
     0
  0
CLASS
  1
VISUALSTYLE
  2
AcDbVisualStyle
  3
ObjectDBX Classes
 90
     4095
 91
        4
280
     0
281
     0
  0
CLASS
  1
MATERIAL
  2
AcDbMaterial
  3
ObjectDBX Classes
 90
     1153
 91
        4
280
     0
281
     0
  0
CLASS
  1
SUN
  2
AcDbSun
  3
SCENEOE
 90
     1024
 91
        4
280
     0
281
     0
  0
ENDSEC
  0
SECTION
  2
TABLES
  0
TABLE
  2
VPORT
  5
8
330
0
100
AcDbSymbolTable
 70
     1
  0
VPORT
  5
29
330
8
100
AcDbSymbolTableRecord
100
AcDbViewportTableRecord
  2
*Active
 70
     0
 10
0.0
 20
0.0
 11
1.0
 21
1.0
 12
0.0
 22
0.0
 13
0.0
 23
0.0
 14
0.5
 24
0.5
 15
0.5
 25
0.5
 16
0.0
 26
0.0
 36
1.0
 17
4.25
 27
5.499999999999999
 37
0.0
 40
11.69291338582677
 41
0.7070707070707065
 42
50.0
 43
0.0
 44
0.0
 50
0.0
 51
0.0
 71
     0
 72
   100
 73
     1
 74
     3
 75
     0
 76
     0
 77
     0
 78
     0
281
     0
 65
     1
110
0.0
120
0.0
130
0.0
111
1.0
121
0.0
131
0.0
112
0.0
122
1.0
132
0.0
 79
     0
146
0.0
 60
     3
 61
     5
292
     1
282
     1
141
0.0
142
0.0
 63
   250
361
3F
  0
ENDTAB
  0
TABLE
  2
LTYPE
  5
5
330
0
100
AcDbSymbolTable
 70
     1
  0
LTYPE
  5
14
330
5
100
AcDbSymbolTableRecord
100
AcDbLinetypeTableRecord
  2
ByBlock
 70
     0
  3

 72
    65
 73
     0
 40
0.0
  0
LTYPE
  5
15
330
5
100
AcDbSymbolTableRecord
100
AcDbLinetypeTableRecord
  2
ByLayer
 70
     0
  3

 72
    65
 73
     0
 40
0.0
  0
LTYPE
  5
16
330
5
100
AcDbSymbolTableRecord
100
AcDbLinetypeTableRecord
  2
Continuous
 70
     0
  3
Solid line
 72
    65
 73
     0
 40
0.0
  0
ENDTAB
  0
TABLE
  2
LAYER
  5
2
330
0
100
AcDbSymbolTable
 70
     4
  0
LAYER
  5
10
330
2
100
AcDbSymbolTableRecord
100
AcDbLayerTableRecord
  2
0
 70
     0
 62
     7
  6
Continuous
370
    -3
390
F
347
3E
  0
LAYER
  5
40
330
2
100
AcDbSymbolTableRecord
100
AcDbLayerTableRecord
  2
Wood
 70
     0
 62
     7
  6
Continuous
370
    -3
390
F
347
3E
  0
LAYER
  5
180
330
2
100
AcDbSymbolTableRecord
100
AcDbLayerTableRecord
  2
ITS
 70
     0
 62
     7
  6
Continuous
370
    -3
390
F
347
3E
  0
LAYER
  5
298
330
2
100
AcDbSymbolTableRecord
100
AcDbLayerTableRecord
  2
callout
 70
     0
 62
     7
  6
Continuous
370
    -3
390
F
347
3E
  0
ENDTAB
  0
TABLE
  2
STYLE
  5
3
330
0
100
AcDbSymbolTable
 70
     1
  0
STYLE
  5
11
330
3
100
AcDbSymbolTableRecord
100
AcDbTextStyleTableRecord
  2
Standard
 70
     0
 40
0.0
 41
1.0
 50
0.0
 71
     0
 42
0.2
  3
txt
  4

  0
ENDTAB
  0
TABLE
  2
VIEW
  5
6
330
0
100
AcDbSymbolTable
 70
     0
  0
ENDTAB
  0
TABLE
  2
UCS
  5
7
330
0
100
AcDbSymbolTable
 70
     0
  0
ENDTAB
  0
TABLE
  2
APPID
  5
9
330
0
100
AcDbSymbolTable
 70
     1
  0
APPID
  5
12
330
9
100
AcDbSymbolTableRecord
100
AcDbRegAppTableRecord
  2
ACAD
 70
     0
  0
ENDTAB
  0
TABLE
  2
DIMSTYLE
  5
A
330
0
100
AcDbSymbolTable
 70
     1
100
AcDbDimStyleTable
  0
DIMSTYLE
105
27
330
A
100
AcDbSymbolTableRecord
100
AcDbDimStyleTableRecord
  2
Standard
 70
     0
178
     0
340
11
  0
ENDTAB
  0
TABLE
  2
BLOCK_RECORD
  5
1
330
0
100
AcDbSymbolTable
 70
    15
  0
BLOCK_RECORD
  5
1F
330
1
100
AcDbSymbolTableRecord
100
AcDbBlockTableRecord
  2
*Model_Space
340
22
 70
     0
280
     1
281
     0
  0
BLOCK_RECORD
  5
1B
330
1
100
AcDbSymbolTableRecord
100
AcDbBlockTableRecord
  2
*Paper_Space
340
1E
 70
     0
280
     1
281
     0
  0
BLOCK_RECORD
  5
23
330
1
100
AcDbSymbolTableRecord
100
AcDbBlockTableRecord
  2
*Paper_Space0
340
26
 70
     0
280
     1
281
     0
  0
BLOCK_RECORD
  5
1EB
330
1
100
AcDbSymbolTableRecord
100
AcDbBlockTableRecord
  2
block 2
340
0
102
{BLKREFS
331
1EC
102
}
 70
     0
280
     1
281
     0
  0
BLOCK_RECORD
  5
1F5
330
1
100
AcDbSymbolTableRecord
100
AcDbBlockTableRecord
  2
block 3
340
0
102
{BLKREFS
331
1F6
102
}
 70
     0
280
     1
281
     0
  0
BLOCK_RECORD
  5
218
330
1
100
AcDbSymbolTableRecord
100
AcDbBlockTableRecord
  2
block 4
340
0
102
{BLKREFS
331
219
102
}
 70
     0
280
     1
281
     0
  0
BLOCK_RECORD
  5
225
330
1
100
AcDbSymbolTableRecord
100
AcDbBlockTableRecord
  2
block 5
340
0
102
{BLKREFS
331
226
102
}
 70
     0
280
     1
281
     0
  0
BLOCK_RECORD
  5
232
330
1
100
AcDbSymbolTableRecord
100
AcDbBlockTableRecord
  2
block 6
340
0
102
{BLKREFS
331
233
102
}
 70
     0
280
     1
281
     0
  0
BLOCK_RECORD
  5
241
330
1
100
AcDbSymbolTableRecord
100
AcDbBlockTableRecord
  2
block 7
340
0
102
{BLKREFS
331
242
102
}
 70
     0
280
     1
281
     0
  0
BLOCK_RECORD
  5
245
330
1
100
AcDbSymbolTableRecord
100
AcDbBlockTableRecord
  2
block 8
340
0
102
{BLKREFS
331
246
102
}
 70
     0
280
     1
281
     0
  0
BLOCK_RECORD
  5
266
330
1
100
AcDbSymbolTableRecord
100
AcDbBlockTableRecord
  2
block 9
340
0
102
{BLKREFS
331
267
102
}
 70
     0
280
     1
281
     0
  0
BLOCK_RECORD
  5
26A
330
1
100
AcDbSymbolTableRecord
100
AcDbBlockTableRecord
  2
block 10
340
0
102
{BLKREFS
331
26B
102
}
 70
     0
280
     1
281
     0
  0
BLOCK_RECORD
  5
26F
330
1
100
AcDbSymbolTableRecord
100
AcDbBlockTableRecord
  2
block 11
340
0
102
{BLKREFS
331
270
102
}
 70
     0
280
     1
281
     0
  0
BLOCK_RECORD
  5
277
330
1
100
AcDbSymbolTableRecord
100
AcDbBlockTableRecord
  2
block 12
340
0
102
{BLKREFS
331
278
102
}
 70
     0
280
     1
281
     0
  0
BLOCK_RECORD
  5
27F
330
1
100
AcDbSymbolTableRecord
100
AcDbBlockTableRecord
  2
block 13
340
0
102
{BLKREFS
331
280
102
}
 70
     0
280
     1
281
     0
  0
BLOCK_RECORD
  5
287
330
1
100
AcDbSymbolTableRecord
100
AcDbBlockTableRecord
  2
block 14
340
0
102
{BLKREFS
331
288
102
}
 70
     0
280
     1
281
     0
  0
BLOCK_RECORD
  5
28F
330
1
100
AcDbSymbolTableRecord
100
AcDbBlockTableRecord
  2
block 15
340
0
102
{BLKREFS
331
290
102
}
 70
     0
280
     1
281
     0
  0
ENDTAB
  0
ENDSEC
  0
SECTION
  2
BLOCKS
  0
BLOCK
  5
20
330
1F
100
AcDbEntity
  8
0
100
AcDbBlockBegin
  2
*Model_Space
 70
     0
 10
0.0
 20
0.0
 30
0.0
  3
*Model_Space
  1

  0
ENDBLK
  5
21
330
1F
100
AcDbEntity
  8
0
100
AcDbBlockEnd
  0
BLOCK
  5
1C
330
1B
100
AcDbEntity
 67
     1
  8
0
100
AcDbBlockBegin
  2
*Paper_Space
 70
     0
 10
0.0
 20
0.0
 30
0.0
  3
*Paper_Space
  1

  0
ENDBLK
  5
1D
330
1B
100
AcDbEntity
 67
     1
  8
0
100
AcDbBlockEnd
  0
BLOCK
  5
24
330
23
100
AcDbEntity
  8
0
100
AcDbBlockBegin
  2
*Paper_Space0
 70
     0
 10
0.0
 20
0.0
 30
0.0
  3
*Paper_Space0
  1

  0
ENDBLK
  5
25
330
23
100
AcDbEntity
  8
0
100
AcDbBlockEnd
  0
BLOCK
  5
1ED
330
1EB
100
AcDbEntity
  8
0
100
AcDbBlockBegin
  2
block 2
 70
     0
 10
0.0
 20
0.0
 30
0.0
  3
block 2
  1

  0
SPLINE
  5
1EF
330
1EB
100
AcDbEntity
  8
ITS
 62
   250
420
  2301728
370
    18
100
AcDbSpline
210
0.0
220
0.0
230
1.0
 70
     8
 71
     3
 72
    11
 73
     7
 74
     0
 42
0.0000000001
 43
0.0000000001
 12
1.0
 22
0.0
 32
0.0
 13
1.0
 23
0.0
 33
0.0
 40
0.0
 40
0.0
 40
0.0
 40
0.0
 40
1.0
 40
1.0
 40
1.0
 40
2.0
 40
2.0
 40
2.0
 40
2.0
 10
4.326158224045381
 20
6.598626222193565
 30
0.0
 10
4.326158224045381
 20
6.598626222193565
 30
0.0
 10
4.337713779309019
 20
6.603298444297756
 30
0.0
 10
4.341959612535094
 20
6.604634555375115
 30
0.0
 10
4.357624999999997
 20
6.609598444138605
 30
0.0
 10
4.368462389643355
 20
6.60939566636595
 30
0.0
 10
4.373236111111106
 20
6.601785944335965
 30
0.0
  0
SPLINE
  5
1F0
330
1EB
100
AcDbEntity
  8
ITS
 62
   250
420
  2301728
370
     9
100
AcDbSpline
210
0.0
220
0.0
230
1.0
 70
     8
 71
     3
 72
     8
 73
     4
 74
     0
 42
0.0000000001
 43
0.0000000001
 12
1.0
 22
0.0
 32
0.0
 13
1.0
 23
0.0
 33
0.0
 40
0.0
 40
0.0
 40
0.0
 40
0.0
 40
1.0
 40
1.0
 40
1.0
 40
1.0
 10
4.34807627904724
 20
6.587856778021179
 30
0.0
 10
4.349379056792107
 20
6.588310944676373
 30
0.0
 10
4.365736111111119
 20
6.59333594454943
 30
0.0
 10
4.366942945237295
 20
6.593837333425654
 30
0.0
  0
SPLINE
  5
1F1
330
1EB
100
AcDbEntity
  8
ITS
 62
   250
420
  2301728
370
    18
100
AcDbSpline
210
0.0
220
0.0
230
1.0
 70
     8
 71
     3
 72
    11
 73
     7
 74
     0
 42
0.0000000001
 43
0.0000000001
 12
1.0
 22
0.0
 32
0.0
 13
1.0
 23
0.0
 33
0.0
 40
0.0
 40
0.0
 40
0.0
 40
0.0
 40
1.0
 40
1.0
 40
1.0
 40
2.0
 40
2.0
 40
2.0
 40
2.0
 10
4.307386002297386
 20
6.558634556537172
 30
0.0
 10
4.307386002297386
 20
6.558634556537172
 30
0.0
 10
4.307386002297386
 20
6.534606779366388
 30
0.0
 10
4.307386002297386
 20
6.528415112856136
 30
0.0
 10
4.307386002297386
 20
6.514613724315899
 30
0.0
 10
4.320136001975293
 20
6.50671372451547
 30
0.0
 10
4.327108224021382
 20
6.511630391057931
 30
0.0
  0
SPLINE
  5
1F2
330
1EB
100
AcDbEntity
  8
ITS
 62
   250
420
  2301728
370
     9
100
AcDbSpline
210
0.0
220
0.0
230
1.0
 70
    24
 71
     3
 72
     8
 73
     4
 74
     0
 42
0.0000000001
 43
0.0000000001
 12
1.0
 22
0.0
 32
0.0
 13
1.0
 23
0.0
 33
0.0
 40
0.0
 40
0.0
 40
0.0
 40
0.0
 40
1.0
 40
1.0
 40
1.0
 40
1.0
 10
4.332140168338709
 20
6.532992890518269
 30
0.0
 10
4.332140168338709
 20
6.547119279050295
 30
0.0
 10
4.332140168338709
 20
6.553263888888889
 30
0.0
 10
4.332140168338709
 20
6.553263888888889
 30
0.0
  0
SPLINE
  5
1F3
330
1EB
100
AcDbEntity
  8
ITS
 62
   250
420
  2301728
370
     9
100
AcDbSpline
210
0.0
220
0.0
230
1.0
 70
     8
 71
     3
 72
     8
 73
     4
 74
     0
 42
0.0000000001
 43
0.0000000001
 12
1.0
 22
0.0
 32
0.0
 13
1.0
 23
0.0
 33
0.0
 40
0.0
 40
0.0
 40
0.0
 40
0.0
 40
1.0
 40
1.0
 40
1.0
 40
1.0
 10
4.341470723658555
 20
6.582085944833629
 30
0.0
 10
4.341470723658555
 20
6.582085944833629
 30
0.0
 10
4.332505446107259
 20
6.57952205600951
 30
0.0
 10
4.332912390541424
 20
6.567158167432959
 30
0.0
  0
SPLINE
  5
1F4
330
1EB
100
AcDbEntity
  8
ITS
 62
   250
420
  2301728
370
    18
100
AcDbSpline
210
0.0
220
0.0
230
1.0
 70
     8
 71
     3
 72
     8
 73
     4
 74
     0
 42
0.0000000001
 43
0.0000000001
 12
1.0
 22
0.0
 32
0.0
 13
1.0
 23
0.0
 33
0.0
 40
0.0
 40
0.0
 40
0.0
 40
0.0
 40
1.0
 40
1.0
 40
1.0
 40
1.0
 10
4.308552668934579
 20
6.573398445053094
 30
0.0
 10
4.308552668934579
 20
6.58477066698803
 30
0.0
 10
4.311726279965518
 20
6.589945666857298
 30
0.0
 10
4.316501279844892
 20
6.591458333333334
 30
0.0
  0
ENDBLK
  5
1EE
330
1EB
100
AcDbEntity
  8
0
100
AcDbBlockEnd
  0
BLOCK
  5
1F7
330
1F5
100
AcDbEntity
  8
0
100
AcDbBlockBegin
  2
block 3
 70
     0
 10
0.0
 20
0.0
 30
0.0
  3
block 3
  1

  0
SPLINE
  5
1F9
330
1F5
100
AcDbEntity
  8
ITS
 62
   250
420
  2301728
370
    18
100
AcDbSpline
210
0.0
220
0.0
230
1.0
 70
     8
 71
     3
 72
    11
 73
     7
 74
     0
 42
0.0000000001
 43
0.0000000001
 12
1.0
 22
0.0
 32
0.0
 13
1.0
 23
0.0
 33
0.0
 40
0.0
 40
0.0
 40
0.0
 40
0.0
 40
1.0
 40
1.0
 40
1.0
 40
2.0
 40
2.0
 40
2.0
 40
2.0
 10
4.272786003171455
 20
6.611510944090291
 30
0.0
 10
4.272786003171455
 20
6.611510944090291
 30
0.0
 10
4.284342947323946
 20
6.616183166194483
 30
0.0
 10
4.288587391661167
 20
6.617519277271842
 30
0.0
 10
4.30425405793206
 20
6.622483166035332
 30
0.0
 10
4.315090168769428
 20
6.622280388262677
 30
0.0
 10
4.319865168648802
 20
6.614670666232692
 30
0.0
  0
SPLINE
  5
1FA
330
1F5
100
AcDbEntity
  8
ITS
 62
   250
420
  2301728
370
     9
100
AcDbSpline
210
0.0
220
0.0
230
1.0
 70
     8
 71
     3
 72
     8
 73
     4
 74
     0
 42
0.0000000001
 43
0.0000000001
 12
1.0
 22
0.0
 32
0.0
 13
1.0
 23
0.0
 33
0.0
 40
0.0
 40
0.0
 40
0.0
 40
0.0
 40
1.0
 40
1.0
 40
1.0
 40
1.0
 10
4.294705447062167
 20
6.600741499917906
 30
0.0
 10
4.29600683591818
 20
6.6011956665731
 30
0.0
 10
4.312363779949414
 20
6.606220666446157
 30
0.0
 10
4.313570724363368
 20
6.606723444211234
 30
0.0
  0
SPLINE
  5
1FB
330
1F5
100
AcDbEntity
  8
ITS
 62
   250
420
  2301728
370
    18
100
AcDbSpline
210
0.0
220
0.0
230
1.0
 70
     8
 71
     3
 72
    11
 73
     7
 74
     0
 42
0.0000000001
 43
0.0000000001
 12
1.0
 22
0.0
 32
0.0
 13
1.0
 23
0.0
 33
0.0
 40
0.0
 40
0.0
 40
0.0
 40
0.0
 40
1.0
 40
1.0
 40
1.0
 40
2.0
 40
2.0
 40
2.0
 40
2.0
 10
4.254015170312313
 20
6.571519278433899
 30
0.0
 10
4.254015170312313
 20
6.571519278433899
 30
0.0
 10
4.254015170312313
 20
6.547491501263115
 30
0.0
 10
4.254015170312313
 20
6.541299834752863
 30
0.0
 10
4.254015170312313
 20
6.527499999999994
 30
0.0
 10
4.266763888888893
 20
6.519598446412196
 30
0.0
 10
4.273736111111122
 20
6.524515112954658
 30
0.0
  0
SPLINE
  5
1FC
330
1F5
100
AcDbEntity
  8
ITS
 62
   250
420
  2301728
370
     9
100
AcDbSpline
210
0.0
220
0.0
230
1.0
 70
    24
 71
     3
 72
     8
 73
     4
 74
     0
 42
0.0000000001
 43
0.0000000001
 12
1.0
 22
0.0
 32
0.0
 13
1.0
 23
0.0
 33
0.0
 40
0.0
 40
0.0
 40
0.0
 40
0.0
 40
1.0
 40
1.0
 40
1.0
 40
1.0
 10
4.278767947464782
 20
6.545877612414996
 30
0.0
 10
4.278767947464782
 20
6.560004000947022
 30
0.0
 10
4.278767947464782
 20
6.566148445236244
 30
0.0
 10
4.278767947464782
 20
6.566148445236244
 30
0.0
  0
SPLINE
  5
1FD
330
1F5
100
AcDbEntity
  8
ITS
 62
   250
420
  2301728
370
     9
100
AcDbSpline
210
0.0
220
0.0
230
1.0
 70
     8
 71
     3
 72
     8
 73
     4
 74
     0
 42
0.0000000001
 43
0.0000000001
 12
1.0
 22
0.0
 32
0.0
 13
1.0
 23
0.0
 33
0.0
 40
0.0
 40
0.0
 40
0.0
 40
0.0
 40
1.0
 40
1.0
 40
1.0
 40
1.0
 10
4.288099891673482
 20
6.594970666730356
 30
0.0
 10
4.288099891673482
 20
6.594970666730356
 30
0.0
 10
4.279134614122187
 20
6.592406777906237
 30
0.0
 10
4.279541666666672
 20
6.58004427821854
 30
0.0
  0
SPLINE
  5
1FE
330
1F5
100
AcDbEntity
  8
ITS
 62
   250
420
  2301728
370
    18
100
AcDbSpline
210
0.0
220
0.0
230
1.0
 70
     8
 71
     3
 72
     8
 73
     4
 74
     0
 42
0.0000000001
 43
0.0000000001
 12
1.0
 22
0.0
 32
0.0
 13
1.0
 23
0.0
 33
0.0
 40
0.0
 40
0.0
 40
0.0
 40
0.0
 40
1.0
 40
1.0
 40
1.0
 40
1.0
 10
4.255180555555549
 20
6.586283166949821
 30
0.0
 10
4.255180555555549
 20
6.597656777773611
 30
0.0
 10
4.258355447980446
 20
6.602830388754025
 30
0.0
 10
4.263129058970978
 20
6.604342888715816
 30
0.0
  0
ENDBLK
  5
1F8
330
1F5
100
AcDbEntity
  8
0
100
AcDbBlockEnd
  0
BLOCK
  5
21A
330
218
100
AcDbEntity
  8
0
100
AcDbBlockBegin
  2
block 4
 70
     0
 10
0.0
 20
0.0
 30
0.0
  3
block 4
  1

  0
POLYLINE
  5
21C
330
218
100
AcDbEntity
  8
ITS
370
     0
100
AcDb2dPolyline
 66
     1
 10
0.0
 20
0.0
 30
0.0
  0
VERTEX
  5
21D
330
21C
100
AcDbEntity
  8
ITS
370
     0
100
AcDbVertex
100
AcDb2dVertex
 10
4.601997105965993
 20
5.03884570604138
 30
0.0
  0
VERTEX
  5
21E
330
21C
100
AcDbEntity
  8
ITS
370
     0
100
AcDbVertex
100
AcDb2dVertex
 10
4.60872349468496
 20
5.048611111111111
 30
0.0
  0
VERTEX
  5
21F
330
21C
100
AcDbEntity
  8
ITS
370
     0
100
AcDbVertex
100
AcDb2dVertex
 10
4.608941550235007
 20
5.0492623724449
 30
0.0
  0
VERTEX
  5
220
330
21C
100
AcDbEntity
  8
ITS
370
     0
100
AcDbVertex
100
AcDb2dVertex
 10
4.600694444444444
 20
5.047526261377647
 30
0.0
  0
VERTEX
  5
221
330
21C
100
AcDbEntity
  8
ITS
370
     0
100
AcDbVertex
100
AcDb2dVertex
 10
4.592448495096101
 20
5.036458333333333
 30
0.0
  0
VERTEX
  5
222
330
21C
100
AcDbEntity
  8
ITS
370
     0
100
AcDbVertex
100
AcDb2dVertex
 10
4.601997105965993
 20
5.03884570604138
 30
0.0
  0
SEQEND
  5
224
330
21C
100
AcDbEntity
  8
ITS
370
     0
  0
HATCH
  5
223
330
218
100
AcDbEntity
  8
ITS
 62
    43
420
 15510365
100
AcDbHatch
 10
0.0
 20
0.0
 30
0.0
210
0.0
220
0.0
230
1.0
  2
SOLID
 70
     1
 71
     0
 91
        1
 92
        1
 93
        5
 72
     1
 10
4.601997105965993
 20
5.03884570604138
 11
4.60872349468496
 21
5.048611111111111
 72
     1
 10
4.60872349468496
 20
5.048611111111111
 11
4.608941550235007
 21
5.0492623724449
 72
     1
 10
4.608941550235007
 20
5.0492623724449
 11
4.600694444444444
 21
5.047526261377647
 72
     1
 10
4.600694444444444
 20
5.047526261377647
 11
4.592448495096101
 21
5.036458333333333
 72
     1
 10
4.592448495096101
 20
5.036458333333333
 11
4.601997105965993
 21
5.03884570604138
 97
        0
 75
     2
 76
     1
 98
        0
  0
ENDBLK
  5
21B
330
218
100
AcDbEntity
  8
0
100
AcDbBlockEnd
  0
BLOCK
  5
227
330
225
100
AcDbEntity
  8
0
100
AcDbBlockBegin
  2
block 5
 70
     0
 10
0.0
 20
0.0
 30
0.0
  3
block 5
  1

  0
SPLINE
  5
229
330
225
100
AcDbEntity
  8
ITS
 62
   250
420
  2301728
370
    18
100
AcDbSpline
210
0.0
220
0.0
230
1.0
 70
     8
 71
     3
 72
    11
 73
     7
 74
     0
 42
0.0000000001
 43
0.0000000001
 12
1.0
 22
0.0
 32
0.0
 13
1.0
 23
0.0
 33
0.0
 40
0.0
 40
0.0
 40
0.0
 40
0.0
 40
1.0
 40
1.0
 40
1.0
 40
2.0
 40
2.0
 40
2.0
 40
2.0
 10
4.853990155155669
 20
6.469366503236718
 30
0.0
 10
4.853990155155669
 20
6.469366503236718
 30
0.0
 10
4.852688766299656
 20
6.470330392101257
 30
0.0
 10
4.86884154366938
 20
6.474866503097776
 30
0.0
 10
4.876695710137634
 20
6.477051225264808
 30
0.0
 10
4.888888888888888
 20
6.481858169587818
 30
0.0
 10
4.898491542920358
 20
6.474520669773179
 30
0.0
  0
SPLINE
  5
22A
330
225
100
AcDbEntity
  8
ITS
 62
   250
420
  2301728
370
    18
100
AcDbSpline
210
0.0
220
0.0
230
1.0
 70
     8
 71
     3
 72
    11
 73
     7
 74
     0
 42
0.0000000001
 43
0.0000000001
 12
1.0
 22
0.0
 32
0.0
 13
1.0
 23
0.0
 33
0.0
 40
0.0
 40
0.0
 40
0.0
 40
0.0
 40
1.0
 40
1.0
 40
1.0
 40
2.0
 40
2.0
 40
2.0
 40
2.0
 10
4.832316544592079
 20
6.428005393170476
 30
0.0
 10
4.832316544592079
 20
6.428005393170476
 30
0.0
 10
4.832316544592079
 20
6.397731782824141
 30
0.0
 10
4.832316544592079
 20
6.391560949646696
 30
0.0
 10
4.832316544592079
 20
6.377747061106775
 30
0.0
 10
4.846205433130105
 20
6.369648450200252
 30
0.0
 10
4.853190155175879
 20
6.374572061186982
 30
0.0
  0
SPLINE
  5
22B
330
225
100
AcDbEntity
  8
ITS
 62
   250
420
  2301728
370
     9
100
AcDbSpline
210
0.0
220
0.0
230
1.0
 70
    24
 71
     3
 72
     8
 73
     4
 74
     0
 42
0.0000000001
 43
0.0000000001
 12
1.0
 22
0.0
 32
0.0
 13
1.0
 23
0.0
 33
0.0
 40
0.0
 40
0.0
 40
0.0
 40
0.0
 40
1.0
 40
1.0
 40
1.0
 40
1.0
 10
4.856865155083041
 20
6.388576227499875
 30
0.0
 10
4.856865155083041
 20
6.402702616031901
 30
0.0
 10
4.856865155083041
 20
6.422660948861044
 30
0.0
 10
4.856865155083041
 20
6.422660948861044
 30
0.0
  0
SPLINE
  5
22C
330
225
100
AcDbEntity
  8
ITS
 62
   250
420
  2301728
370
     9
100
AcDbSpline
210
0.0
220
0.0
230
1.0
 70
     8
 71
     3
 72
     8
 73
     4
 74
     0
 42
0.0000000001
 43
0.0000000001
 12
1.0
 22
0.0
 32
0.0
 13
1.0
 23
0.0
 33
0.0
 40
0.0
 40
0.0
 40
0.0
 40
0.0
 40
1.0
 40
1.0
 40
1.0
 40
1.0
 10
4.867554043701905
 20
6.449537337070979
 30
0.0
 10
4.867554043701905
 20
6.449537337070979
 30
0.0
 10
4.857217932851906
 20
6.448927614864159
 30
0.0
 10
4.857638888888888
 20
6.436563726287608
 30
0.0
  0
SPLINE
  5
22D
330
225
100
AcDbEntity
  8
ITS
 62
   250
420
  2301728
370
    18
100
AcDbSpline
210
0.0
220
0.0
230
1.0
 70
     8
 71
     3
 72
     8
 73
     4
 74
     0
 42
0.0000000001
 43
0.0000000001
 12
1.0
 22
0.0
 32
0.0
 13
1.0
 23
0.0
 33
0.0
 40
0.0
 40
0.0
 40
0.0
 40
0.0
 40
1.0
 40
1.0
 40
1.0
 40
1.0
 10
4.833469322340735
 20
6.44275539279786
 30
0.0
 10
4.833469322340735
 20
6.454148448065602
 30
0.0
 10
4.839558211075806
 20
6.458862336835409
 30
0.0
 10
4.844347222222217
 20
6.460361111111107
 30
0.0
  0
POLYLINE
  5
22E
330
225
100
AcDbEntity
  8
ITS
 62
   250
420
  2301728
370
     9
100
AcDb2dPolyline
 66
     1
 10
0.0
 20
0.0
 30
0.0
  0
VERTEX
  5
22F
330
22E
100
AcDbEntity
  8
ITS
 62
   250
420
  2301728
370
     9
100
AcDbVertex
100
AcDb2dVertex
 10
4.876152777777785
 20
6.452684559213695
 30
0.0
  0
VERTEX
  5
230
330
22E
100
AcDbEntity
  8
ITS
 62
   250
420
  2301728
370
     9
100
AcDbVertex
100
AcDb2dVertex
 10
4.899210987346629
 20
6.459248447936766
 30
0.0
  0
SEQEND
  5
231
330
22E
100
AcDbEntity
  8
ITS
 62
   250
420
  2301728
370
     9
  0
ENDBLK
  5
228
330
225
100
AcDbEntity
  8
0
100
AcDbBlockEnd
  0
BLOCK
  5
234
330
232
100
AcDbEntity
  8
0
100
AcDbBlockBegin
  2
block 6
 70
     0
 10
0.0
 20
0.0
 30
0.0
  3
block 6
  1

  0
SPLINE
  5
236
330
232
100
AcDbEntity
  8
ITS
 62
   250
420
  2301728
370
    18
100
AcDbSpline
210
0.0
220
0.0
230
1.0
 70
     8
 71
     3
 72
    11
 73
     7
 74
     0
 42
0.0000000001
 43
0.0000000001
 12
1.0
 22
0.0
 32
0.0
 13
1.0
 23
0.0
 33
0.0
 40
0.0
 40
0.0
 40
0.0
 40
0.0
 40
1.0
 40
1.0
 40
1.0
 40
2.0
 40
2.0
 40
2.0
 40
2.0
 10
4.798055555555544
 20
6.484835947290371
 30
0.0
 10
4.798055555555544
 20
6.484835947290371
 30
0.0
 10
4.79675265660161
 20
6.485798447266056
 30
0.0
 10
4.812906822860188
 20
6.490335947151429
 30
0.0
 10
4.820759600439588
 20
6.492519280429607
 30
0.0
 10
4.828287378027198
 20
6.499510946919649
 30
0.0
 10
4.842556822111166
 20
6.489990113826833
 30
0.0
  0
SPLINE
  5
237
330
232
100
AcDbEntity
  8
ITS
 62
   250
420
  2301728
370
    18
100
AcDbSpline
210
0.0
220
0.0
230
1.0
 70
     8
 71
     3
 72
    11
 73
     7
 74
     0
 42
0.0000000001
 43
0.0000000001
 12
1.0
 22
0.0
 32
0.0
 13
1.0
 23
0.0
 33
0.0
 40
0.0
 40
0.0
 40
0.0
 40
0.0
 40
1.0
 40
1.0
 40
1.0
 40
2.0
 40
2.0
 40
2.0
 40
2.0
 10
4.776380434894033
 20
6.44347483722413
 30
0.0
 10
4.776380434894033
 20
6.44347483722413
 30
0.0
 10
4.776380434894033
 20
6.413201226877795
 30
0.0
 10
4.776380434894033
 20
6.407030393700349
 30
0.0
 10
4.776380434894033
 20
6.393215116271575
 30
0.0
 10
4.790269323432059
 20
6.385117894253906
 30
0.0
 10
4.797254045477833
 20
6.390041666666662
 30
0.0
  0
SPLINE
  5
238
330
232
100
AcDbEntity
  8
ITS
 62
   250
420
  2301728
370
     9
100
AcDbSpline
210
0.0
220
0.0
230
1.0
 70
    24
 71
     3
 72
     8
 73
     4
 74
     0
 42
0.0000000001
 43
0.0000000001
 12
1.0
 22
0.0
 32
0.0
 13
1.0
 23
0.0
 33
0.0
 40
0.0
 40
0.0
 40
0.0
 40
0.0
 40
1.0
 40
1.0
 40
1.0
 40
1.0
 10
4.800930555555547
 20
6.404045671553527
 30
0.0
 10
4.800930555555547
 20
6.418172060085554
 30
0.0
 10
4.800930555555547
 20
6.438130392914697
 30
0.0
 10
4.800930555555547
 20
6.438130392914697
 30
0.0
  0
SPLINE
  5
239
330
232
100
AcDbEntity
  8
ITS
 62
   250
420
  2301728
370
     9
100
AcDbSpline
210
0.0
220
0.0
230
1.0
 70
     8
 71
     3
 72
     8
 73
     4
 74
     0
 42
0.0000000001
 43
0.0000000001
 12
1.0
 22
0.0
 32
0.0
 13
1.0
 23
0.0
 33
0.0
 40
0.0
 40
0.0
 40
0.0
 40
0.0
 40
1.0
 40
1.0
 40
1.0
 40
1.0
 10
4.811617934003859
 20
6.465006781124644
 30
0.0
 10
4.811617934003859
 20
6.465006781124644
 30
0.0
 10
4.801283212042714
 20
6.464395670028958
 30
0.0
 10
4.801704045365416
 20
6.452033170341261
 30
0.0
  0
SPLINE
  5
23A
330
232
100
AcDbEntity
  8
ITS
 62
   250
420
  2301728
370
    18
100
AcDbSpline
210
0.0
220
0.0
230
1.0
 70
     8
 71
     3
 72
     8
 73
     4
 74
     0
 42
0.0000000001
 43
0.0000000001
 12
1.0
 22
0.0
 32
0.0
 13
1.0
 23
0.0
 33
0.0
 40
0.0
 40
0.0
 40
0.0
 40
0.0
 40
1.0
 40
1.0
 40
1.0
 40
1.0
 10
4.777533212642689
 20
6.458224836851514
 30
0.0
 10
4.777533212642689
 20
6.469617892119269
 30
0.0
 10
4.783623490266614
 20
6.474331780889075
 30
0.0
 10
4.788410990145672
 20
6.475830391962315
 30
0.0
  0
POLYLINE
  5
23B
330
232
100
AcDbEntity
  8
ITS
 62
   250
420
  2301728
370
     9
100
AcDb2dPolyline
 66
     1
 10
0.0
 20
0.0
 30
0.0
  0
VERTEX
  5
23C
330
23B
100
AcDbEntity
  8
ITS
 62
   250
420
  2301728
370
     9
100
AcDbVertex
100
AcDb2dVertex
 10
4.820217933786605
 20
6.468152777777782
 30
0.0
  0
VERTEX
  5
23D
330
23B
100
AcDbEntity
  8
ITS
 62
   250
420
  2301728
370
     9
100
AcDbVertex
100
AcDb2dVertex
 10
4.838988766645747
 20
6.476901225268597
 30
0.0
  0
SEQEND
  5
23E
330
23B
100
AcDbEntity
  8
ITS
 62
   250
420
  2301728
370
     9
  0
ENDBLK
  5
235
330
232
100
AcDbEntity
  8
0
100
AcDbBlockEnd
  0
BLOCK
  5
243
330
241
100
AcDbEntity
  8
0
100
AcDbBlockBegin
  2
block 7
 70
     0
 10
0.0
 20
0.0
 30
0.0
  3
block 7
  1

  0
INSERT
  5
246
330
241
100
AcDbEntity
  8
ITS
100
AcDbBlockReference
  2
block 8
 10
0.0
 20
0.0
 30
0.0
  0
POLYLINE
  5
257
330
241
100
AcDbEntity
  8
ITS
 62
   250
420
  2301728
370
     9
100
AcDb2dPolyline
 66
     1
 10
0.0
 20
0.0
 30
0.0
  0
VERTEX
  5
258
330
257
100
AcDbEntity
  8
ITS
 62
   250
420
  2301728
370
     9
100
AcDbVertex
100
AcDb2dVertex
 10
4.54307766300998
 20
5.089788760310006
 30
0.0
  0
VERTEX
  5
259
330
257
100
AcDbEntity
  8
ITS
 62
   250
420
  2301728
370
     9
100
AcDbVertex
100
AcDb2dVertex
 10
4.551052662808514
 20
5.087130427043828
 30
0.0
  0
SEQEND
  5
25A
330
257
100
AcDbEntity
  8
ITS
 62
   250
420
  2301728
370
     9
  0
ENDBLK
  5
244
330
241
100
AcDbEntity
  8
0
100
AcDbBlockEnd
  0
BLOCK
  5
247
330
245
100
AcDbEntity
  8
0
100
AcDbBlockBegin
  2
block 8
 70
     0
 10
0.0
 20
0.0
 30
0.0
  3
block 8
  1

  0
POLYLINE
  5
249
330
245
100
AcDbEntity
  8
ITS
370
     0
100
AcDb2dPolyline
 66
     1
 10
0.0
 20
0.0
 30
0.0
  0
VERTEX
  5
24A
330
249
100
AcDbEntity
  8
ITS
370
     0
100
AcDbVertex
100
AcDb2dVertex
 10
4.523030441294193
 20
5.084187371562621
 30
0.0
  0
VERTEX
  5
24B
330
249
100
AcDbEntity
  8
ITS
370
     0
100
AcDbVertex
100
AcDb2dVertex
 10
4.54131377416565
 20
5.088310982569561
 30
0.0
  0
VERTEX
  5
24C
330
249
100
AcDbEntity
  8
ITS
370
     0
100
AcDbVertex
100
AcDb2dVertex
 10
4.543673496328261
 20
5.096570704583124
 30
0.0
  0
VERTEX
  5
24D
330
249
100
AcDbEntity
  8
ITS
370
     0
100
AcDbVertex
100
AcDb2dVertex
 10
4.537773496477308
 20
5.104234593278407
 30
0.0
  0
VERTEX
  5
24E
330
249
100
AcDbEntity
  8
ITS
370
     0
100
AcDbVertex
100
AcDb2dVertex
 10
4.527154052301133
 20
5.095974871264843
 30
0.0
  0
VERTEX
  5
24F
330
249
100
AcDbEntity
  8
ITS
370
     0
100
AcDbVertex
100
AcDb2dVertex
 10
4.523030441294193
 20
5.084187371562621
 30
0.0
  0
SEQEND
  5
251
330
249
100
AcDbEntity
  8
ITS
370
     0
  0
HATCH
  5
250
330
245
100
AcDbEntity
  8
ITS
 62
    43
420
 15510365
100
AcDbHatch
 10
0.0
 20
0.0
 30
0.0
210
0.0
220
0.0
230
1.0
  2
SOLID
 70
     1
 71
     0
 91
        1
 92
        1
 93
        5
 72
     1
 10
4.523030441294193
 20
5.084187371562621
 11
4.54131377416565
 21
5.088310982569561
 72
     1
 10
4.54131377416565
 20
5.088310982569561
 11
4.543673496328261
 21
5.096570704583124
 72
     1
 10
4.543673496328261
 20
5.096570704583124
 11
4.537773496477308
 21
5.104234593278407
 72
     1
 10
4.537773496477308
 20
5.104234593278407
 11
4.527154052301133
 21
5.095974871264843
 72
     1
 10
4.527154052301133
 20
5.095974871264843
 11
4.523030441294193
 21
5.084187371562621
 97
        0
 75
     2
 76
     1
 98
        0
  0
SPLINE
  5
252
330
245
100
AcDbEntity
  8
ITS
 62
   250
420
  2301728
370
     9
100
AcDbSpline
210
0.0
220
0.0
230
1.0
 70
     8
 71
     3
 72
    14
 73
    10
 74
     0
 42
0.0000000001
 43
0.0000000001
 12
1.0
 22
0.0
 32
0.0
 13
1.0
 23
0.0
 33
0.0
 40
0.0
 40
0.0
 40
0.0
 40
0.0
 40
1.0
 40
1.0
 40
1.0
 40
2.0
 40
2.0
 40
2.0
 40
3.0
 40
3.0
 40
3.0
 40
3.0
 10
4.520372108028014
 20
5.077691538393386
 30
0.0
 10
4.521254052450179
 20
5.093912371316947
 30
0.0
 10
4.53302627437501
 20
5.103204037748886
 30
0.0
 10
4.53719016315871
 20
5.10365125995981
 30
0.0
 10
4.539577663098397
 20
5.103922093286301
 30
0.0
 10
4.545451274061128
 20
5.096001260153066
 30
0.0
 10
4.542494329691382
 20
5.091552649154336
 30
0.0
 10
4.542494329691382
 20
5.091552649154336
 30
0.0
 10
4.541015163062083
 20
5.084486111111119
 30
0.0
 10
4.522433219087057
 20
5.083888888888901
 30
0.0
  0
SPLINE
  5
253
330
245
100
AcDbEntity
  8
ITS
 62
   250
420
  2301728
370
     9
100
AcDbSpline
210
0.0
220
0.0
230
1.0
 70
     8
 71
     3
 72
    11
 73
     7
 74
     0
 42
0.0000000001
 43
0.0000000001
 12
1.0
 22
0.0
 32
0.0
 13
1.0
 23
0.0
 33
0.0
 40
0.0
 40
0.0
 40
0.0
 40
0.0
 40
1.0
 40
1.0
 40
1.0
 40
2.0
 40
2.0
 40
2.0
 40
2.0
 10
4.521891552434075
 20
5.076835982859444
 30
0.0
 10
4.541015163062083
 20
5.074449871808611
 30
0.0
 10
4.548977662860933
 20
5.082410982718607
 30
0.0
 10
4.550754051704947
 20
5.091267926939306
 30
0.0
 10
4.550754051704947
 20
5.091267926939306
 30
0.0
 10
4.551635996127112
 20
5.084770704881217
 30
0.0
 10
4.551635996127112
 20
5.084770704881217
 30
0.0
  0
SPLINE
  5
254
330
245
100
AcDbEntity
  8
ITS
 62
   250
420
  2301728
370
     9
100
AcDbSpline
210
0.0
220
0.0
230
1.0
 70
     8
 71
     3
 72
     8
 73
     4
 74
     0
 42
0.0000000001
 43
0.0000000001
 12
1.0
 22
0.0
 32
0.0
 13
1.0
 23
0.0
 33
0.0
 40
0.0
 40
0.0
 40
0.0
 40
0.0
 40
1.0
 40
1.0
 40
1.0
 40
1.0
 10
4.520073496924447
 20
5.072088760757146
 30
0.0
 10
4.522731830190625
 20
5.061767927684539
 30
0.0
 10
4.5274526634047
 20
5.060288761055239
 30
0.0
 10
4.532755441048518
 20
5.059406816633074
 30
0.0
  0
SPLINE
  5
255
330
245
100
AcDbEntity
  8
ITS
 62
   250
420
  2301728
370
     9
100
AcDbSpline
210
0.0
220
0.0
230
1.0
 70
     8
 71
     3
 72
    11
 73
     7
 74
     0
 42
0.0000000001
 43
0.0000000001
 12
1.0
 22
0.0
 32
0.0
 13
1.0
 23
0.0
 33
0.0
 40
0.0
 40
0.0
 40
0.0
 40
0.0
 40
1.0
 40
1.0
 40
1.0
 40
2.0
 40
2.0
 40
2.0
 40
2.0
 10
4.55090277777779
 20
5.086683204832903
 30
0.0
 10
4.55090277777779
 20
5.086683204832903
 30
0.0
 10
4.550998496143216
 20
5.100694444444444
 30
0.0
 10
4.544012385208589
 20
5.103787371067483
 30
0.0
 10
4.537204052047248
 20
5.106784593213988
 30
0.0
 10
4.528781830037789
 20
5.101724871119586
 30
0.0
 10
4.522569444444444
 20
5.08599153818371
 30
0.0
  0
SPLINE
  5
256
330
245
100
AcDbEntity
  8
ITS
 62
   250
420
  2301728
370
     9
100
AcDbSpline
210
0.0
220
0.0
230
1.0
 70
     8
 71
     3
 72
     8
 73
     4
 74
     0
 42
0.0000000001
 43
0.0000000001
 12
1.0
 22
0.0
 32
0.0
 13
1.0
 23
0.0
 33
0.0
 40
0.0
 40
0.0
 40
0.0
 40
0.0
 40
1.0
 40
1.0
 40
1.0
 40
1.0
 10
4.538072107580875
 20
5.059705427736642
 30
0.0
 10
4.543388888888885
 20
5.061184594365941
 30
0.0
 10
4.553697107186154
 20
5.064426260950717
 30
0.0
 10
4.551934607230678
 20
5.084770704881217
 30
0.0
  0
ENDBLK
  5
248
330
245
100
AcDbEntity
  8
0
100
AcDbBlockEnd
  0
BLOCK
  5
268
330
266
100
AcDbEntity
  8
0
100
AcDbBlockBegin
  2
block 9
 70
     0
 10
0.0
 20
0.0
 30
0.0
  3
block 9
  1

  0
INSERT
  5
26B
330
266
100
AcDbEntity
  8
ITS
100
AcDbBlockReference
  2
block 10
 10
0.0
 20
0.0
 30
0.0
  0
INSERT
  5
270
330
266
100
AcDbEntity
  8
ITS
100
AcDbBlockReference
  2
block 11
 10
0.0
 20
0.0
 30
0.0
  0
INSERT
  5
278
330
266
100
AcDbEntity
  8
ITS
100
AcDbBlockReference
  2
block 12
 10
0.0
 20
0.0
 30
0.0
  0
INSERT
  5
280
330
266
100
AcDbEntity
  8
ITS
100
AcDbBlockReference
  2
block 13
 10
0.0
 20
0.0
 30
0.0
  0
INSERT
  5
288
330
266
100
AcDbEntity
  8
ITS
100
AcDbBlockReference
  2
block 14
 10
0.0
 20
0.0
 30
0.0
  0
INSERT
  5
290
330
266
100
AcDbEntity
  8
ITS
100
AcDbBlockReference
  2
block 15
 10
0.0
 20
0.0
 30
0.0
  0
ENDBLK
  5
269
330
266
100
AcDbEntity
  8
0
100
AcDbBlockEnd
  0
BLOCK
  5
26C
330
26A
100
AcDbEntity
  8
0
100
AcDbBlockBegin
  2
block 10
 70
     0
 10
0.0
 20
0.0
 30
0.0
  3
block 10
  1

  0
SPLINE
  5
26E
330
26A
100
AcDbEntity
  8
ITS
 62
   250
420
  2301728
370
     9
100
AcDbSpline
210
0.0
220
0.0
230
1.0
 70
     8
 71
     3
 72
    11
 73
     7
 74
     0
 42
0.0000000001
 43
0.0000000001
 12
1.0
 22
0.0
 32
0.0
 13
1.0
 23
0.0
 33
0.0
 40
0.0
 40
0.0
 40
0.0
 40
0.0
 40
1.0
 40
1.0
 40
1.0
 40
2.0
 40
2.0
 40
2.0
 40
2.0
 10
4.589437384061057
 20
5.035399872795097
 30
0.0
 10
4.59429293949395
 20
5.029541666666672
 30
0.0
 10
4.604302661463306
 20
5.027452650773638
 30
0.0
 10
4.609944444444434
 20
5.03884570604138
 30
0.0
 10
4.612630439030706
 20
5.044270705904333
 30
0.0
 10
4.612263888888896
 20
5.048977650229871
 30
0.0
 10
4.61288738346866
 20
5.050631816854749
 30
0.0
  0
ENDBLK
  5
26D
330
26A
100
AcDbEntity
  8
0
100
AcDbBlockEnd
  0
BLOCK
  5
271
330
26F
100
AcDbEntity
  8
0
100
AcDbBlockBegin
  2
block 11
 70
     0
 10
0.0
 20
0.0
 30
0.0
  3
block 11
  1

  0
POLYLINE
  5
273
330
26F
100
AcDbEntity
  8
ITS
 62
   250
420
  2301728
370
     9
100
AcDb2dPolyline
 66
     1
 10
0.0
 20
0.0
 30
0.0
  0
VERTEX
  5
274
330
273
100
AcDbEntity
  8
ITS
 62
   250
420
  2301728
370
     9
100
AcDbVertex
100
AcDb2dVertex
 10
4.601169328209127
 20
5.04774292803884
 30
0.0
  0
VERTEX
  5
275
330
273
100
AcDbEntity
  8
ITS
 62
   250
420
  2301728
370
     9
100
AcDbVertex
100
AcDb2dVertex
 10
4.61288738346866
 20
5.050631816854749
 30
0.0
  0
SEQEND
  5
276
330
273
100
AcDbEntity
  8
ITS
 62
   250
420
  2301728
370
     9
  0
ENDBLK
  5
272
330
26F
100
AcDbEntity
  8
0
100
AcDbBlockEnd
  0
BLOCK
  5
279
330
277
100
AcDbEntity
  8
0
100
AcDbBlockBegin
  2
block 12
 70
     0
 10
0.0
 20
0.0
 30
0.0
  3
block 12
  1

  0
POLYLINE
  5
27B
330
277
100
AcDbEntity
  8
ITS
 62
   250
420
  2301728
370
     9
100
AcDb2dPolyline
 66
     1
 10
0.0
 20
0.0
 30
0.0
  0
VERTEX
  5
27C
330
27B
100
AcDbEntity
  8
ITS
 62
   250
420
  2301728
370
     9
100
AcDbVertex
100
AcDb2dVertex
 10
4.61288738346866
 20
5.050631816854749
 30
0.0
  0
VERTEX
  5
27D
330
27B
100
AcDbEntity
  8
ITS
 62
   250
420
  2301728
370
     9
100
AcDbVertex
100
AcDb2dVertex
 10
4.601169328209127
 20
5.062092927676328
 30
0.0
  0
SEQEND
  5
27E
330
27B
100
AcDbEntity
  8
ITS
 62
   250
420
  2301728
370
     9
  0
ENDBLK
  5
27A
330
277
100
AcDbEntity
  8
0
100
AcDbBlockEnd
  0
BLOCK
  5
281
330
27F
100
AcDbEntity
  8
0
100
AcDbBlockBegin
  2
block 13
 70
     0
 10
0.0
 20
0.0
 30
0.0
  3
block 13
  1

  0
POLYLINE
  5
283
330
27F
100
AcDbEntity
  8
ITS
 62
   250
420
  2301728
370
     9
100
AcDb2dPolyline
 66
     1
 10
0.0
 20
0.0
 30
0.0
  0
VERTEX
  5
284
330
283
100
AcDbEntity
  8
ITS
 62
   250
420
  2301728
370
     9
100
AcDbVertex
100
AcDb2dVertex
 10
4.601169328209127
 20
5.048394316911273
 30
0.0
  0
VERTEX
  5
285
330
283
100
AcDbEntity
  8
ITS
 62
   250
420
  2301728
370
     9
100
AcDbVertex
100
AcDb2dVertex
 10
4.589437384061057
 20
5.035399872795097
 30
0.0
  0
SEQEND
  5
286
330
283
100
AcDbEntity
  8
ITS
 62
   250
420
  2301728
370
     9
  0
ENDBLK
  5
282
330
27F
100
AcDbEntity
  8
0
100
AcDbBlockEnd
  0
BLOCK
  5
289
330
287
100
AcDbEntity
  8
0
100
AcDbBlockBegin
  2
block 14
 70
     0
 10
0.0
 20
0.0
 30
0.0
  3
block 14
  1

  0
POLYLINE
  5
28B
330
287
100
AcDbEntity
  8
ITS
 62
   250
420
  2301728
370
     9
100
AcDb2dPolyline
 66
     1
 10
0.0
 20
0.0
 30
0.0
  0
VERTEX
  5
28C
330
28B
100
AcDbEntity
  8
ITS
 62
   250
420
  2301728
370
     9
100
AcDbVertex
100
AcDb2dVertex
 10
4.601169328209127
 20
5.062092927676328
 30
0.0
  0
VERTEX
  5
28D
330
28B
100
AcDbEntity
  8
ITS
 62
   250
420
  2301728
370
     9
100
AcDbVertex
100
AcDb2dVertex
 10
4.589437384061057
 20
5.035399872795097
 30
0.0
  0
SEQEND
  5
28E
330
28B
100
AcDbEntity
  8
ITS
 62
   250
420
  2301728
370
     9
  0
ENDBLK
  5
28A
330
287
100
AcDbEntity
  8
0
100
AcDbBlockEnd
  0
BLOCK
  5
291
330
28F
100
AcDbEntity
  8
0
100
AcDbBlockBegin
  2
block 15
 70
     0
 10
0.0
 20
0.0
 30
0.0
  3
block 15
  1

  0
POLYLINE
  5
293
330
28F
100
AcDbEntity
  8
ITS
 62
   250
420
  2301728
370
     9
100
AcDb2dPolyline
 66
     1
 10
0.0
 20
0.0
 30
0.0
  0
VERTEX
  5
294
330
293
100
AcDbEntity
  8
ITS
 62
   250
420
  2301728
370
     9
100
AcDbVertex
100
AcDb2dVertex
 10
4.601169328209127
 20
5.047959594700033
 30
0.0
  0
VERTEX
  5
295
330
293
100
AcDbEntity
  8
ITS
 62
   250
420
  2301728
370
     9
100
AcDbVertex
100
AcDb2dVertex
 10
4.601169328209127
 20
5.062092927676328
 30
0.0
  0
SEQEND
  5
296
330
293
100
AcDbEntity
  8
ITS
 62
   250
420
  2301728
370
     9
  0
ENDBLK
  5
292
330
28F
100
AcDbEntity
  8
0
100
AcDbBlockEnd
  0
ENDSEC
  0
SECTION
  2
ENTITIES
  0
POLYLINE
  5
41
330
1F
100
AcDbEntity
  8
Wood
370
     0
100
AcDb2dPolyline
 66
     1
 10
0.0
 20
0.0
 30
0.0
  0
VERTEX
  5
42
330
41
100
AcDbEntity
  8
Wood
370
     0
100
AcDbVertex
100
AcDb2dVertex
 10
5.532783193563469
 20
6.291788729944932
 30
0.0
  0
VERTEX
  5
43
330
41
100
AcDbEntity
  8
Wood
370
     0
100
AcDbVertex
100
AcDb2dVertex
 10
5.299234588352292
 20
6.157538733336373
 30
0.0
  0
VERTEX
  5
44
330
41
100
AcDbEntity
  8
Wood
370
     0
100
AcDbVertex
100
AcDb2dVertex
 10
3.362522137277766
 20
6.663065109454591
 30
0.0
  0
VERTEX
  5
45
330
41
100
AcDbEntity
  8
Wood
370
     0
100
AcDbVertex
100
AcDb2dVertex
 10
3.362522137277766
 20
6.812344272350148
 30
0.0
  0
VERTEX
  5
46
330
41
100
AcDbEntity
  8
Wood
370
     0
100
AcDbVertex
100
AcDb2dVertex
 10
3.641384630233107
 20
6.905720658880151
 30
0.0
  0
VERTEX
  5
47
330
41
100
AcDbEntity
  8
Wood
370
     0
100
AcDbVertex
100
AcDb2dVertex
 10
5.532783193563469
 20
6.448716503758381
 30
0.0
  0
VERTEX
  5
48
330
41
100
AcDbEntity
  8
Wood
370
     0
100
AcDbVertex
100
AcDb2dVertex
 10
5.532783193563469
 20
6.291788729944932
 30
0.0
  0
SEQEND
  5
4A
330
41
100
AcDbEntity
  8
Wood
370
     0
  0
HATCH
  5
49
330
1F
100
AcDbEntity
  8
Wood
 62
    43
420
 15510365
100
AcDbHatch
 10
0.0
 20
0.0
 30
0.0
210
0.0
220
0.0
230
1.0
  2
SOLID
 70
     1
 71
     0
 91
        1
 92
        1
 93
        6
 72
     1
 10
5.532783193563469
 20
6.291788729944932
 11
5.299234588352292
 21
6.157538733336373
 72
     1
 10
5.299234588352292
 20
6.157538733336373
 11
3.362522137277766
 21
6.663065109454591
 72
     1
 10
3.362522137277766
 20
6.663065109454591
 11
3.362522137277766
 21
6.812344272350148
 72
     1
 10
3.362522137277766
 20
6.812344272350148
 11
3.641384630233107
 21
6.905720658880151
 72
     1
 10
3.641384630233107
 20
6.905720658880151
 11
5.532783193563469
 21
6.448716503758381
 72
     1
 10
5.532783193563469
 20
6.448716503758381
 11
5.532783193563469
 21
6.291788729944932
 97
        0
 75
     2
 76
     1
 98
        0
  0
POLYLINE
  5
4B
330
1F
100
AcDbEntity
  8
Wood
370
     0
100
AcDb2dPolyline
 66
     1
 10
0.0
 20
0.0
 30
0.0
  0
VERTEX
  5
4C
330
4B
100
AcDbEntity
  8
Wood
370
     0
100
AcDbVertex
100
AcDb2dVertex
 10
5.310966532500363
 20
4.826767933621138
 30
0.0
  0
VERTEX
  5
4D
330
4B
100
AcDbEntity
  8
Wood
370
     0
100
AcDbVertex
100
AcDb2dVertex
 10
3.340094360066562
 20
5.561685970611102
 30
0.0
  0
VERTEX
  5
4E
330
4B
100
AcDbEntity
  8
Wood
370
     0
100
AcDbVertex
100
AcDb2dVertex
 10
3.340094360066562
 20
5.597697080812496
 30
0.0
  0
VERTEX
  5
4F
330
4B
100
AcDbEntity
  8
Wood
370
     0
100
AcDbVertex
100
AcDb2dVertex
 10
3.456122134913231
 20
5.649712357276258
 30
0.0
  0
VERTEX
  5
50
330
4B
100
AcDbEntity
  8
Wood
370
     0
100
AcDbVertex
100
AcDb2dVertex
 10
3.453009634991859
 20
6.11883595653631
 30
0.0
  0
VERTEX
  5
51
330
4B
100
AcDbEntity
  8
Wood
370
     0
100
AcDbVertex
100
AcDb2dVertex
 10
3.493686022853176
 20
6.136197067208841
 30
0.0
  0
VERTEX
  5
52
330
4B
100
AcDbEntity
  8
Wood
370
     0
100
AcDbVertex
100
AcDb2dVertex
 10
3.41035269162502
 20
6.223002620571505
 30
0.0
  0
VERTEX
  5
53
330
4B
100
AcDbEntity
  8
Wood
370
     0
100
AcDbVertex
100
AcDb2dVertex
 10
3.453009634991859
 20
6.243835953378543
 30
0.0
  0
VERTEX
  5
54
330
4B
100
AcDbEntity
  8
Wood
370
     0
100
AcDbVertex
100
AcDb2dVertex
 10
3.456399912683992
 20
6.592413722350506
 30
0.0
  0
VERTEX
  5
55
330
4B
100
AcDbEntity
  8
Wood
370
     0
100
AcDbVertex
100
AcDb2dVertex
 10
3.362433248391123
 20
6.61692344395356
 30
0.0
  0
VERTEX
  5
56
330
4B
100
AcDbEntity
  8
Wood
370
     0
100
AcDbVertex
100
AcDb2dVertex
 10
3.361849915072526
 20
6.662448442803502
 30
0.0
  0
VERTEX
  5
57
330
4B
100
AcDbEntity
  8
Wood
370
     0
100
AcDbVertex
100
AcDb2dVertex
 10
5.306952643712874
 20
6.161648455454775
 30
0.0
  0
VERTEX
  5
58
330
4B
100
AcDbEntity
  8
Wood
370
     0
100
AcDbVertex
100
AcDb2dVertex
 10
5.528958333333321
 20
6.295613729848305
 30
0.0
  0
VERTEX
  5
59
330
4B
100
AcDbEntity
  8
Wood
370
     0
100
AcDbVertex
100
AcDb2dVertex
 10
5.525133193756725
 20
6.235920675800722
 30
0.0
  0
VERTEX
  5
5A
330
4B
100
AcDbEntity
  8
Wood
370
     0
100
AcDbVertex
100
AcDb2dVertex
 10
5.441148473656136
 20
6.187351232583246
 30
0.0
  0
VERTEX
  5
5B
330
4B
100
AcDbEntity
  8
Wood
370
     0
100
AcDbVertex
100
AcDb2dVertex
 10
5.446492917965568
 20
5.732944444444443
 30
0.0
  0
VERTEX
  5
5C
330
4B
100
AcDbEntity
  8
Wood
370
     0
100
AcDbVertex
100
AcDb2dVertex
 10
5.404513888888888
 20
5.690626245131575
 30
0.0
  0
VERTEX
  5
5D
330
4B
100
AcDbEntity
  8
Wood
370
     0
100
AcDbVertex
100
AcDb2dVertex
 10
5.501044305476372
 20
5.594760969775558
 30
0.0
  0
VERTEX
  5
5E
330
4B
100
AcDbEntity
  8
Wood
370
     0
100
AcDbVertex
100
AcDb2dVertex
 10
5.446492917965568
 20
5.554097222222228
 30
0.0
  0
VERTEX
  5
5F
330
4B
100
AcDbEntity
  8
Wood
370
     0
100
AcDbVertex
100
AcDb2dVertex
 10
5.440470695895479
 20
5.097560982335886
 30
0.0
  0
VERTEX
  5
60
330
4B
100
AcDbEntity
  8
Wood
370
     0
100
AcDbVertex
100
AcDb2dVertex
 10
5.529974860301081
 20
5.065701260918508
 30
0.0
  0
VERTEX
  5
61
330
4B
100
AcDbEntity
  8
Wood
370
     0
100
AcDbVertex
100
AcDb2dVertex
 10
5.528659582556529
 20
5.009806817886076
 30
0.0
  0
VERTEX
  5
62
330
4B
100
AcDbEntity
  8
Wood
370
     0
100
AcDbVertex
100
AcDb2dVertex
 10
5.310966532500363
 20
4.826767933621138
 30
0.0
  0
SEQEND
  5
64
330
4B
100
AcDbEntity
  8
Wood
370
     0
  0
HATCH
  5
63
330
1F
100
AcDbEntity
  8
Wood
 62
   253
420
 10987947
100
AcDbHatch
 10
0.0
 20
0.0
 30
0.0
210
0.0
220
0.0
230
1.0
  2
SOLID
 70
     1
 71
     0
 91
        1
 92
        1
 93
       22
 72
     1
 10
5.310966532500363
 20
4.826767933621138
 11
3.340094360066562
 21
5.561685970611102
 72
     1
 10
3.340094360066562
 20
5.561685970611102
 11
3.340094360066562
 21
5.597697080812496
 72
     1
 10
3.340094360066562
 20
5.597697080812496
 11
3.456122134913231
 21
5.649712357276258
 72
     1
 10
3.456122134913231
 20
5.649712357276258
 11
3.453009634991859
 21
6.11883595653631
 72
     1
 10
3.453009634991859
 20
6.11883595653631
 11
3.493686022853176
 21
6.136197067208841
 72
     1
 10
3.493686022853176
 20
6.136197067208841
 11
3.41035269162502
 21
6.223002620571505
 72
     1
 10
3.41035269162502
 20
6.223002620571505
 11
3.453009634991859
 21
6.243835953378543
 72
     1
 10
3.453009634991859
 20
6.243835953378543
 11
3.456399912683992
 21
6.592413722350506
 72
     1
 10
3.456399912683992
 20
6.592413722350506
 11
3.362433248391123
 21
6.61692344395356
 72
     1
 10
3.362433248391123
 20
6.61692344395356
 11
3.361849915072526
 21
6.662448442803502
 72
     1
 10
3.361849915072526
 20
6.662448442803502
 11
5.306952643712874
 21
6.161648455454775
 72
     1
 10
5.306952643712874
 20
6.161648455454775
 11
5.528958333333321
 21
6.295613729848305
 72
     1
 10
5.528958333333321
 20
6.295613729848305
 11
5.525133193756725
 21
6.235920675800722
 72
     1
 10
5.525133193756725
 20
6.235920675800722
 11
5.441148473656136
 21
6.187351232583246
 72
     1
 10
5.441148473656136
 20
6.187351232583246
 11
5.446492917965568
 21
5.732944444444443
 72
     1
 10
5.446492917965568
 20
5.732944444444443
 11
5.404513888888888
 21
5.690626245131575
 72
     1
 10
5.404513888888888
 20
5.690626245131575
 11
5.501044305476372
 21
5.594760969775558
 72
     1
 10
5.501044305476372
 20
5.594760969775558
 11
5.446492917965568
 21
5.554097222222228
 72
     1
 10
5.446492917965568
 20
5.554097222222228
 11
5.440470695895479
 21
5.097560982335886
 72
     1
 10
5.440470695895479
 20
5.097560982335886
 11
5.529974860301081
 21
5.065701260918508
 72
     1
 10
5.529974860301081
 20
5.065701260918508
 11
5.528659582556529
 21
5.009806817886076
 72
     1
 10
5.528659582556529
 20
5.009806817886076
 11
5.310966532500363
 21
4.826767933621138
 97
        0
 75
     2
 76
     1
 98
        0
  0
POLYLINE
  5
65
330
1F
100
AcDbEntity
  8
Wood
 62
   250
420
  2301728
370
    25
100
AcDb2dPolyline
 66
     1
 10
0.0
 20
0.0
 30
0.0
  0
VERTEX
  5
66
330
65
100
AcDbEntity
  8
Wood
 62
   250
420
  2301728
370
    25
100
AcDbVertex
100
AcDb2dVertex
 10
5.310966532500363
 20
4.826767933621138
 30
0.0
  0
VERTEX
  5
67
330
65
100
AcDbEntity
  8
Wood
 62
   250
420
  2301728
370
    25
100
AcDbVertex
100
AcDb2dVertex
 10
3.340094360066562
 20
5.559685970661627
 30
0.0
  0
VERTEX
  5
68
330
65
100
AcDbEntity
  8
Wood
 62
   250
420
  2301728
370
    25
100
AcDbVertex
100
AcDb2dVertex
 10
3.340094360066562
 20
5.602491525135822
 30
0.0
  0
VERTEX
  5
69
330
65
100
AcDbEntity
  8
Wood
 62
   250
420
  2301728
370
    25
100
AcDbVertex
100
AcDb2dVertex
 10
3.456345746018693
 20
5.653713746064063
 30
0.0
  0
VERTEX
  5
6A
330
65
100
AcDbEntity
  8
Wood
 62
   250
420
  2301728
370
    25
100
AcDbVertex
100
AcDb2dVertex
 10
3.456345746018693
 20
6.118055555555555
 30
0.0
  0
VERTEX
  5
6B
330
65
100
AcDbEntity
  8
Wood
 62
   250
420
  2301728
370
    25
100
AcDbVertex
100
AcDb2dVertex
 10
3.49702213388001
 20
6.135416666666666
 30
0.0
  0
VERTEX
  5
6C
330
65
100
AcDbEntity
  8
Wood
 62
   250
420
  2301728
370
    25
100
AcDbVertex
100
AcDb2dVertex
 10
3.413688802651866
 20
6.222222222222221
 30
0.0
  0
VERTEX
  5
6D
330
65
100
AcDbEntity
  8
Wood
 62
   250
420
  2301728
370
    25
100
AcDbVertex
100
AcDb2dVertex
 10
3.456345746018693
 20
6.243055555555555
 30
0.0
  0
VERTEX
  5
6E
330
65
100
AcDbEntity
  8
Wood
 62
   250
420
  2301728
370
    25
100
AcDbVertex
100
AcDb2dVertex
 10
3.456345746018693
 20
6.592997055669103
 30
0.0
  0
VERTEX
  5
6F
330
65
100
AcDbEntity
  8
Wood
 62
   250
420
  2301728
370
    25
100
AcDbVertex
100
AcDb2dVertex
 10
3.360602692881811
 20
6.617410943941245
 30
0.0
  0
VERTEX
  5
70
330
65
100
AcDbEntity
  8
Wood
 62
   250
420
  2301728
370
    25
100
AcDbVertex
100
AcDb2dVertex
 10
3.361545748413543
 20
6.818053994428131
 30
0.0
  0
VERTEX
  5
71
330
65
100
AcDbEntity
  8
Wood
 62
   250
420
  2301728
370
    25
100
AcDbVertex
100
AcDb2dVertex
 10
3.640109630265316
 20
6.903747047818897
 30
0.0
  0
VERTEX
  5
72
330
65
100
AcDbEntity
  8
Wood
 62
   250
420
  2301728
370
    25
100
AcDbVertex
100
AcDb2dVertex
 10
5.527845693688201
 20
6.453802614741006
 30
0.0
  0
VERTEX
  5
73
330
65
100
AcDbEntity
  8
Wood
 62
   250
420
  2301728
370
    25
100
AcDbVertex
100
AcDb2dVertex
 10
5.527845693688201
 20
6.237704009089005
 30
0.0
  0
VERTEX
  5
74
330
65
100
AcDbEntity
  8
Wood
 62
   250
420
  2301728
370
    25
100
AcDbVertex
100
AcDb2dVertex
 10
5.445773473539298
 20
6.189901232518827
 30
0.0
  0
VERTEX
  5
75
330
65
100
AcDbEntity
  8
Wood
 62
   250
420
  2301728
370
    25
100
AcDbVertex
100
AcDb2dVertex
 10
5.445773473539298
 20
5.732380410743442
 30
0.0
  0
VERTEX
  5
76
330
65
100
AcDbEntity
  8
Wood
 62
   250
420
  2301728
370
    25
100
AcDbVertex
100
AcDb2dVertex
 10
5.412638888888877
 20
5.699727633790543
 30
0.0
  0
VERTEX
  5
77
330
65
100
AcDbEntity
  8
Wood
 62
   250
420
  2301728
370
    25
100
AcDbVertex
100
AcDb2dVertex
 10
5.402641530184458
 20
5.691724856214933
 30
0.0
  0
VERTEX
  5
78
330
65
100
AcDbEntity
  8
Wood
 62
   250
420
  2301728
370
    25
100
AcDbVertex
100
AcDb2dVertex
 10
5.498779027755821
 20
5.59558735864357
 30
0.0
  0
VERTEX
  5
79
330
65
100
AcDbEntity
  8
Wood
 62
   250
420
  2301728
370
    25
100
AcDbVertex
100
AcDb2dVertex
 10
5.445773473539298
 20
5.554124999999999
 30
0.0
  0
VERTEX
  5
7A
330
65
100
AcDbEntity
  8
Wood
 62
   250
420
  2301728
370
    25
100
AcDbVertex
100
AcDb2dVertex
 10
5.441134584767597
 20
5.09956792672963
 30
0.0
  0
VERTEX
  5
7B
330
65
100
AcDbEntity
  8
Wood
 62
   250
420
  2301728
370
    25
100
AcDbVertex
100
AcDb2dVertex
 10
5.528944444444455
 20
5.066066538687058
 30
0.0
  0
VERTEX
  5
7C
330
65
100
AcDbEntity
  8
Wood
 62
   250
420
  2301728
370
    25
100
AcDbVertex
100
AcDb2dVertex
 10
5.528944444444455
 20
5.011284595626521
 30
0.0
  0
VERTEX
  5
7D
330
65
100
AcDbEntity
  8
Wood
 62
   250
420
  2301728
370
    25
100
AcDbVertex
100
AcDb2dVertex
 10
5.310966532500363
 20
4.826767933621138
 30
0.0
  0
SEQEND
  5
7E
330
65
100
AcDbEntity
  8
Wood
 62
   250
420
  2301728
370
    25
  0
POLYLINE
  5
7F
330
1F
100
AcDbEntity
  8
Wood
 62
   250
420
  2301728
370
    18
100
AcDb2dPolyline
 66
     1
 10
0.0
 20
0.0
 30
0.0
  0
VERTEX
  5
80
330
7F
100
AcDbEntity
  8
Wood
 62
   250
420
  2301728
370
    18
100
AcDbVertex
100
AcDb2dVertex
 10
5.409804030003518
 20
4.96788181894519
 30
0.0
  0
VERTEX
  5
81
330
7F
100
AcDbEntity
  8
Wood
 62
   250
420
  2301728
370
    18
100
AcDbVertex
100
AcDb2dVertex
 10
5.408379030039517
 20
5.531635971370242
 30
0.0
  0
VERTEX
  5
82
330
7F
100
AcDbEntity
  8
Wood
 62
   250
420
  2301728
370
    18
100
AcDbVertex
100
AcDb2dVertex
 10
5.466660973011636
 20
5.571695692580457
 30
0.0
  0
VERTEX
  5
83
330
7F
100
AcDbEntity
  8
Wood
 62
   250
420
  2301728
370
    18
100
AcDbVertex
100
AcDb2dVertex
 10
5.352159587015294
 20
5.683715134195053
 30
0.0
  0
VERTEX
  5
84
330
7F
100
AcDbEntity
  8
Wood
 62
   250
420
  2301728
370
    18
100
AcDbVertex
100
AcDb2dVertex
 10
5.407849863386218
 20
5.698520689376588
 30
0.0
  0
VERTEX
  5
85
330
7F
100
AcDbEntity
  8
Wood
 62
   250
420
  2301728
370
    18
100
AcDbVertex
100
AcDb2dVertex
 10
5.40964014111877
 20
6.167155399760102
 30
0.0
  0
VERTEX
  5
86
330
7F
100
AcDbEntity
  8
Wood
 62
   250
420
  2301728
370
    18
100
AcDbVertex
100
AcDb2dVertex
 10
5.305555555555555
 20
6.109137345670206
 30
0.0
  0
VERTEX
  5
87
330
7F
100
AcDbEntity
  8
Wood
 62
   250
420
  2301728
370
    18
100
AcDbVertex
100
AcDb2dVertex
 10
5.305894310406276
 20
6.331625000000005
 30
0.0
  0
SEQEND
  5
88
330
7F
100
AcDbEntity
  8
Wood
 62
   250
420
  2301728
370
    18
  0
POLYLINE
  5
89
330
1F
100
AcDbEntity
  8
Wood
 62
   250
420
  2301728
370
    18
100
AcDb2dPolyline
 66
     1
 10
0.0
 20
0.0
 30
0.0
  0
VERTEX
  5
8A
330
89
100
AcDbEntity
  8
Wood
 62
   250
420
  2301728
370
    18
100
AcDbVertex
100
AcDb2dVertex
 10
5.310899865835381
 20
4.827054044725021
 30
0.0
  0
VERTEX
  5
8B
330
89
100
AcDbEntity
  8
Wood
 62
   250
420
  2301728
370
    18
100
AcDbVertex
100
AcDb2dVertex
 10
5.310180555555562
 20
4.888604043170138
 30
0.0
  0
SEQEND
  5
8C
330
89
100
AcDbEntity
  8
Wood
 62
   250
420
  2301728
370
    18
  0
POLYLINE
  5
8D
330
1F
100
AcDbEntity
  8
Wood
 62
   250
420
  2301728
370
    18
100
AcDb2dPolyline
 66
     1
 10
0.0
 20
0.0
 30
0.0
  0
VERTEX
  5
8E
330
8D
100
AcDbEntity
  8
Wood
 62
   250
420
  2301728
370
    18
100
AcDbVertex
100
AcDb2dVertex
 10
3.36296935948869
 20
6.816169272253533
 30
0.0
  0
VERTEX
  5
8F
330
8D
100
AcDbEntity
  8
Wood
 62
   250
420
  2301728
370
    18
100
AcDbVertex
100
AcDb2dVertex
 10
5.306437365948113
 20
6.330804006737101
 30
0.0
  0
VERTEX
  5
90
330
8D
100
AcDbEntity
  8
Wood
 62
   250
420
  2301728
370
    18
100
AcDbVertex
100
AcDb2dVertex
 10
5.527777777777778
 20
6.453701225854679
 30
0.0
  0
SEQEND
  5
91
330
8D
100
AcDbEntity
  8
Wood
 62
   250
420
  2301728
370
    18
  0
POLYLINE
  5
92
330
1F
100
AcDbEntity
  8
Wood
 62
   250
420
  2301728
370
    25
100
AcDb2dPolyline
 66
     1
 10
0.0
 20
0.0
 30
0.0
  0
VERTEX
  5
93
330
92
100
AcDbEntity
  8
Wood
 62
   250
420
  2301728
370
    25
100
AcDbVertex
100
AcDb2dVertex
 10
4.653212382449965
 20
6.494045669279936
 30
0.0
  0
VERTEX
  5
2B0
330
92
100
AcDbEntity
  8
0
100
AcDbVertex
100
AcDb2dVertex
 10
4.653212382449965
 20
6.494045669279936
 30
0.0
  0
SEQEND
  5
94
330
92
100
AcDbEntity
  8
Wood
 62
   250
420
  2301728
370
    25
  0
POLYLINE
  5
95
330
1F
100
AcDbEntity
  8
Wood
370
     0
100
AcDb2dPolyline
 66
     1
 10
0.0
 20
0.0
 30
0.0
  0
VERTEX
  5
96
330
95
100
AcDbEntity
  8
Wood
370
     0
100
AcDbVertex
100
AcDb2dVertex
 10
4.678913770689582
 20
6.318806784817954
 30
0.0
  0
VERTEX
  5
97
330
95
100
AcDbEntity
  8
Wood
370
     0
100
AcDbVertex
100
AcDb2dVertex
 10
4.603665161479411
 20
6.272487341543638
 30
0.0
  0
VERTEX
  5
98
330
95
100
AcDbEntity
  8
Wood
370
     0
100
AcDbVertex
100
AcDb2dVertex
 10
4.603665161479411
 20
5.247802645207129
 30
0.0
  0
VERTEX
  5
99
330
95
100
AcDbEntity
  8
Wood
370
     0
100
AcDbVertex
100
AcDb2dVertex
 10
4.678913770689582
 20
5.21887209038242
 30
0.0
  0
VERTEX
  5
9A
330
95
100
AcDbEntity
  8
Wood
370
     0
100
AcDbVertex
100
AcDb2dVertex
 10
4.678913770689582
 20
5.056776261143972
 30
0.0
  0
VERTEX
  5
9B
330
95
100
AcDbEntity
  8
Wood
370
     0
100
AcDbVertex
100
AcDb2dVertex
 10
3.736463794497872
 20
4.351237390078495
 30
0.0
  0
VERTEX
  5
9C
330
95
100
AcDbEntity
  8
Wood
370
     0
100
AcDbVertex
100
AcDb2dVertex
 10
3.488917967418072
 20
4.460977665084
 30
0.0
  0
VERTEX
  5
9D
330
95
100
AcDbEntity
  8
Wood
370
     0
100
AcDbVertex
100
AcDb2dVertex
 10
3.488917967418072
 20
4.662055555555551
 30
0.0
  0
VERTEX
  5
9E
330
95
100
AcDbEntity
  8
Wood
370
     0
100
AcDbVertex
100
AcDb2dVertex
 10
3.567979076531931
 20
4.716009603085795
 30
0.0
  0
VERTEX
  5
9F
330
95
100
AcDbEntity
  8
Wood
370
     0
100
AcDbVertex
100
AcDb2dVertex
 10
3.567979076531931
 20
5.096259593479872
 30
0.0
  0
VERTEX
  5
A0
330
95
100
AcDbEntity
  8
Wood
370
     0
100
AcDbVertex
100
AcDb2dVertex
 10
3.519883244413601
 20
5.145426258904485
 30
0.0
  0
VERTEX
  5
A1
330
95
100
AcDbEntity
  8
Wood
370
     0
100
AcDbVertex
100
AcDb2dVertex
 10
3.645358241243836
 20
5.278631811094985
 30
0.0
  0
VERTEX
  5
A2
330
95
100
AcDbEntity
  8
Wood
370
     0
100
AcDbVertex
100
AcDb2dVertex
 10
3.567979076531931
 20
5.349447087083818
 30
0.0
  0
VERTEX
  5
A3
330
95
100
AcDbEntity
  8
Wood
370
     0
100
AcDbVertex
100
AcDb2dVertex
 10
3.567979076531931
 20
5.842813741286995
 30
0.0
  0
VERTEX
  5
A4
330
95
100
AcDbEntity
  8
Wood
370
     0
100
AcDbVertex
100
AcDb2dVertex
 10
3.488917967418072
 20
5.867051240674704
 30
0.0
  0
VERTEX
  5
A5
330
95
100
AcDbEntity
  8
Wood
370
     0
100
AcDbVertex
100
AcDb2dVertex
 10
3.488917967418072
 20
6.064391513467247
 30
0.0
  0
VERTEX
  5
A6
330
95
100
AcDbEntity
  8
Wood
370
     0
100
AcDbVertex
100
AcDb2dVertex
 10
4.460394331765403
 20
6.545030390214176
 30
0.0
  0
VERTEX
  5
A7
330
95
100
AcDbEntity
  8
Wood
370
     0
100
AcDbVertex
100
AcDb2dVertex
 10
4.678913770689582
 20
6.488517891641802
 30
0.0
  0
VERTEX
  5
A8
330
95
100
AcDbEntity
  8
Wood
370
     0
100
AcDbVertex
100
AcDb2dVertex
 10
4.678913770689582
 20
6.318806784817954
 30
0.0
  0
SEQEND
  5
AA
330
95
100
AcDbEntity
  8
Wood
370
     0
  0
HATCH
  5
A9
330
1F
100
AcDbEntity
  8
Wood
 62
    43
420
 15510365
100
AcDbHatch
 10
0.0
 20
0.0
 30
0.0
210
0.0
220
0.0
230
1.0
  2
SOLID
 70
     1
 71
     0
 91
        1
 92
        1
 93
       18
 72
     1
 10
4.678913770689582
 20
6.318806784817954
 11
4.603665161479411
 21
6.272487341543638
 72
     1
 10
4.603665161479411
 20
6.272487341543638
 11
4.603665161479411
 21
5.247802645207129
 72
     1
 10
4.603665161479411
 20
5.247802645207129
 11
4.678913770689582
 21
5.21887209038242
 72
     1
 10
4.678913770689582
 20
5.21887209038242
 11
4.678913770689582
 21
5.056776261143972
 72
     1
 10
4.678913770689582
 20
5.056776261143972
 11
3.736463794497872
 21
4.351237390078495
 72
     1
 10
3.736463794497872
 20
4.351237390078495
 11
3.488917967418072
 21
4.460977665084
 72
     1
 10
3.488917967418072
 20
4.460977665084
 11
3.488917967418072
 21
4.662055555555551
 72
     1
 10
3.488917967418072
 20
4.662055555555551
 11
3.567979076531931
 21
4.716009603085795
 72
     1
 10
3.567979076531931
 20
4.716009603085795
 11
3.567979076531931
 21
5.096259593479872
 72
     1
 10
3.567979076531931
 20
5.096259593479872
 11
3.519883244413601
 21
5.145426258904485
 72
     1
 10
3.519883244413601
 20
5.145426258904485
 11
3.645358241243836
 21
5.278631811094985
 72
     1
 10
3.645358241243836
 20
5.278631811094985
 11
3.567979076531931
 21
5.349447087083818
 72
     1
 10
3.567979076531931
 20
5.349447087083818
 11
3.567979076531931
 21
5.842813741286995
 72
     1
 10
3.567979076531931
 20
5.842813741286995
 11
3.488917967418072
 21
5.867051240674704
 72
     1
 10
3.488917967418072
 20
5.867051240674704
 11
3.488917967418072
 21
6.064391513467247
 72
     1
 10
3.488917967418072
 20
6.064391513467247
 11
4.460394331765403
 21
6.545030390214176
 72
     1
 10
4.460394331765403
 20
6.545030390214176
 11
4.678913770689582
 21
6.488517891641802
 72
     1
 10
4.678913770689582
 20
6.488517891641802
 11
4.678913770689582
 21
6.318806784817954
 97
        0
 75
     2
 76
     1
 98
        0
  0
POLYLINE
  5
AB
330
1F
100
AcDbEntity
  8
Wood
 62
   250
420
  2301728
370
    25
100
AcDb2dPolyline
 66
     1
 10
0.0
 20
0.0
 30
0.0
  0
VERTEX
  5
AC
330
AB
100
AcDbEntity
  8
Wood
 62
   250
420
  2301728
370
    25
100
AcDbVertex
100
AcDb2dVertex
 10
3.73989573885563
 20
5.790920687042368
 30
0.0
  0
VERTEX
  5
AD
330
AB
100
AcDbEntity
  8
Wood
 62
   250
420
  2301728
370
    25
100
AcDbVertex
100
AcDb2dVertex
 10
3.64363601906512
 20
5.818488741901496
 30
0.0
  0
SEQEND
  5
AE
330
AB
100
AcDbEntity
  8
Wood
 62
   250
420
  2301728
370
    25
  0
POLYLINE
  5
AF
330
1F
100
AcDbEntity
  8
Wood
 62
   250
420
  2301728
370
    25
100
AcDb2dPolyline
 66
     1
 10
0.0
 20
0.0
 30
0.0
  0
VERTEX
  5
B0
330
AF
100
AcDbEntity
  8
Wood
 62
   250
420
  2301728
370
    25
100
AcDbVertex
100
AcDb2dVertex
 10
4.678913770689582
 20
6.318806784817954
 30
0.0
  0
VERTEX
  5
B1
330
AF
100
AcDbEntity
  8
Wood
 62
   250
420
  2301728
370
    25
100
AcDbVertex
100
AcDb2dVertex
 10
4.603665161479411
 20
6.272487341543638
 30
0.0
  0
VERTEX
  5
B2
330
AF
100
AcDbEntity
  8
Wood
 62
   250
420
  2301728
370
    25
100
AcDbVertex
100
AcDb2dVertex
 10
4.603665161479411
 20
5.247802645207129
 30
0.0
  0
VERTEX
  5
B3
330
AF
100
AcDbEntity
  8
Wood
 62
   250
420
  2301728
370
    25
100
AcDbVertex
100
AcDb2dVertex
 10
4.678913770689582
 20
5.21887209038242
 30
0.0
  0
VERTEX
  5
B4
330
AF
100
AcDbEntity
  8
Wood
 62
   250
420
  2301728
370
    25
100
AcDbVertex
100
AcDb2dVertex
 10
4.678913770689582
 20
5.056776261143972
 30
0.0
  0
VERTEX
  5
B5
330
AF
100
AcDbEntity
  8
Wood
 62
   250
420
  2301728
370
    25
100
AcDbVertex
100
AcDb2dVertex
 10
3.736463794497872
 20
4.351237390078495
 30
0.0
  0
VERTEX
  5
B6
330
AF
100
AcDbEntity
  8
Wood
 62
   250
420
  2301728
370
    25
100
AcDbVertex
100
AcDb2dVertex
 10
3.488917967418072
 20
4.460977665084
 30
0.0
  0
VERTEX
  5
B7
330
AF
100
AcDbEntity
  8
Wood
 62
   250
420
  2301728
370
    25
100
AcDbVertex
100
AcDb2dVertex
 10
3.488917967418072
 20
4.662055555555551
 30
0.0
  0
VERTEX
  5
B8
330
AF
100
AcDbEntity
  8
Wood
 62
   250
420
  2301728
370
    25
100
AcDbVertex
100
AcDb2dVertex
 10
3.567979076531931
 20
4.716009603085795
 30
0.0
  0
VERTEX
  5
B9
330
AF
100
AcDbEntity
  8
Wood
 62
   250
420
  2301728
370
    25
100
AcDbVertex
100
AcDb2dVertex
 10
3.567979076531931
 20
5.096259593479872
 30
0.0
  0
VERTEX
  5
BA
330
AF
100
AcDbEntity
  8
Wood
 62
   250
420
  2301728
370
    25
100
AcDbVertex
100
AcDb2dVertex
 10
3.519883244413601
 20
5.145426258904485
 30
0.0
  0
VERTEX
  5
BB
330
AF
100
AcDbEntity
  8
Wood
 62
   250
420
  2301728
370
    25
100
AcDbVertex
100
AcDb2dVertex
 10
3.645358241243836
 20
5.278631811094985
 30
0.0
  0
VERTEX
  5
BC
330
AF
100
AcDbEntity
  8
Wood
 62
   250
420
  2301728
370
    25
100
AcDbVertex
100
AcDb2dVertex
 10
3.567979076531931
 20
5.349447087083818
 30
0.0
  0
VERTEX
  5
BD
330
AF
100
AcDbEntity
  8
Wood
 62
   250
420
  2301728
370
    25
100
AcDbVertex
100
AcDb2dVertex
 10
3.567979076531931
 20
5.842813741286995
 30
0.0
  0
VERTEX
  5
BE
330
AF
100
AcDbEntity
  8
Wood
 62
   250
420
  2301728
370
    25
100
AcDbVertex
100
AcDb2dVertex
 10
3.488917967418072
 20
5.867051240674704
 30
0.0
  0
VERTEX
  5
BF
330
AF
100
AcDbEntity
  8
Wood
 62
   250
420
  2301728
370
    25
100
AcDbVertex
100
AcDb2dVertex
 10
3.488917967418072
 20
6.064391513467247
 30
0.0
  0
VERTEX
  5
C0
330
AF
100
AcDbEntity
  8
Wood
 62
   250
420
  2301728
370
    25
100
AcDbVertex
100
AcDb2dVertex
 10
4.460394331765403
 20
6.545030390214176
 30
0.0
  0
VERTEX
  5
C1
330
AF
100
AcDbEntity
  8
Wood
 62
   250
420
  2301728
370
    25
100
AcDbVertex
100
AcDb2dVertex
 10
4.678913770689582
 20
6.488517891641802
 30
0.0
  0
VERTEX
  5
C2
330
AF
100
AcDbEntity
  8
Wood
 62
   250
420
  2301728
370
    25
100
AcDbVertex
100
AcDb2dVertex
 10
4.678913770689582
 20
6.318806784817954
 30
0.0
  0
SEQEND
  5
C3
330
AF
100
AcDbEntity
  8
Wood
 62
   250
420
  2301728
370
    25
  0
POLYLINE
  5
C4
330
1F
100
AcDbEntity
  8
Wood
 62
   250
420
  2301728
370
    18
100
AcDb2dPolyline
 66
     1
 10
0.0
 20
0.0
 30
0.0
  0
VERTEX
  5
C5
330
C4
100
AcDbEntity
  8
Wood
 62
   250
420
  2301728
370
    18
100
AcDbVertex
100
AcDb2dVertex
 10
3.488917967418072
 20
6.064391513467247
 30
0.0
  0
VERTEX
  5
C6
330
C4
100
AcDbEntity
  8
Wood
 62
   250
420
  2301728
370
    18
100
AcDbVertex
100
AcDb2dVertex
 10
3.73989573885563
 20
5.991984570851955
 30
0.0
  0
VERTEX
  5
C7
330
C4
100
AcDbEntity
  8
Wood
 62
   250
420
  2301728
370
    18
100
AcDbVertex
100
AcDb2dVertex
 10
4.678913770689582
 20
6.488517891641802
 30
0.0
  0
SEQEND
  5
C8
330
C4
100
AcDbEntity
  8
Wood
 62
   250
420
  2301728
370
    18
  0
POLYLINE
  5
C9
330
1F
100
AcDbEntity
  8
Wood
 62
   250
420
  2301728
370
    18
100
AcDb2dPolyline
 66
     1
 10
0.0
 20
0.0
 30
0.0
  0
VERTEX
  5
CA
330
C9
100
AcDbEntity
  8
Wood
 62
   250
420
  2301728
370
    18
100
AcDbVertex
100
AcDb2dVertex
 10
3.642224907989657
 20
4.600097222222226
 30
0.0
  0
VERTEX
  5
CB
330
C9
100
AcDbEntity
  8
Wood
 62
   250
420
  2301728
370
    18
100
AcDbVertex
100
AcDb2dVertex
 10
3.733017961251587
 20
4.563408218051942
 30
0.0
  0
VERTEX
  5
CC
330
C9
100
AcDbEntity
  8
Wood
 62
   250
420
  2301728
370
    18
100
AcDbVertex
100
AcDb2dVertex
 10
4.676377659642538
 20
5.218858201493882
 30
0.0
  0
SEQEND
  5
CD
330
C9
100
AcDbEntity
  8
Wood
 62
   250
420
  2301728
370
    18
  0
POLYLINE
  5
CE
330
1F
100
AcDbEntity
  8
Wood
 62
   250
420
  2301728
370
    18
100
AcDb2dPolyline
 66
     1
 10
0.0
 20
0.0
 30
0.0
  0
VERTEX
  5
CF
330
CE
100
AcDbEntity
  8
Wood
 62
   250
420
  2301728
370
    18
100
AcDbVertex
100
AcDb2dVertex
 10
3.488917967418072
 20
4.662055555555551
 30
0.0
  0
VERTEX
  5
D0
330
CE
100
AcDbEntity
  8
Wood
 62
   250
420
  2301728
370
    18
100
AcDbVertex
100
AcDb2dVertex
 10
3.569186020945886
 20
4.629611111111116
 30
0.0
  0
SEQEND
  5
D1
330
CE
100
AcDbEntity
  8
Wood
 62
   250
420
  2301728
370
    18
  0
POLYLINE
  5
D2
330
1F
100
AcDbEntity
  8
Wood
 62
   250
420
  2301728
370
    18
100
AcDb2dPolyline
 66
     1
 10
0.0
 20
0.0
 30
0.0
  0
VERTEX
  5
D3
330
D2
100
AcDbEntity
  8
Wood
 62
   250
420
  2301728
370
    18
100
AcDbVertex
100
AcDb2dVertex
 10
3.64363601906512
 20
5.323283198855885
 30
0.0
  0
VERTEX
  5
D4
330
D2
100
AcDbEntity
  8
Wood
 62
   250
420
  2301728
370
    18
100
AcDbVertex
100
AcDb2dVertex
 10
3.717556850531057
 20
5.252373478424993
 30
0.0
  0
VERTEX
  5
D5
330
D2
100
AcDbEntity
  8
Wood
 62
   250
420
  2301728
370
    18
100
AcDbVertex
100
AcDb2dVertex
 10
3.58692768716436
 20
5.120917926190284
 30
0.0
  0
VERTEX
  5
D6
330
D2
100
AcDbEntity
  8
Wood
 62
   250
420
  2301728
370
    18
100
AcDbVertex
100
AcDb2dVertex
 10
3.643229074630956
 20
5.068209594188475
 30
0.0
  0
VERTEX
  5
D7
330
D2
100
AcDbEntity
  8
Wood
 62
   250
420
  2301728
370
    18
100
AcDbVertex
100
AcDb2dVertex
 10
3.642184630212897
 20
4.519544330271148
 30
0.0
  0
VERTEX
  5
D8
330
D2
100
AcDbEntity
  8
Wood
 62
   250
420
  2301728
370
    18
100
AcDbVertex
100
AcDb2dVertex
 10
3.569999999999999
 20
4.549208333333328
 30
0.0
  0
VERTEX
  5
D9
330
D2
100
AcDbEntity
  8
Wood
 62
   250
420
  2301728
370
    18
100
AcDbVertex
100
AcDb2dVertex
 10
3.569999999999999
 20
5.092569444444456
 30
0.0
  0
VERTEX
  5
DA
330
D2
100
AcDbEntity
  8
Wood
 62
   250
420
  2301728
370
    18
100
AcDbVertex
100
AcDb2dVertex
 10
3.519883244413601
 20
5.145426258904485
 30
0.0
  0
VERTEX
  5
DB
330
D2
100
AcDbEntity
  8
Wood
 62
   250
420
  2301728
370
    18
100
AcDbVertex
100
AcDb2dVertex
 10
3.647080463422551
 20
5.278685977760284
 30
0.0
  0
VERTEX
  5
DC
330
D2
100
AcDbEntity
  8
Wood
 62
   250
420
  2301728
370
    18
100
AcDbVertex
100
AcDb2dVertex
 10
3.569999999999999
 20
5.351359587035504
 30
0.0
  0
VERTEX
  5
DD
330
D2
100
AcDbEntity
  8
Wood
 62
   250
420
  2301728
370
    18
100
AcDbVertex
100
AcDb2dVertex
 10
3.569999999999999
 20
5.914320683925022
 30
0.0
  0
VERTEX
  5
DE
330
D2
100
AcDbEntity
  8
Wood
 62
   250
420
  2301728
370
    18
100
AcDbVertex
100
AcDb2dVertex
 10
3.64464018570642
 20
5.891492906723922
 30
0.0
  0
VERTEX
  5
DF
330
D2
100
AcDbEntity
  8
Wood
 62
   250
420
  2301728
370
    18
100
AcDbVertex
100
AcDb2dVertex
 10
3.64363601906512
 20
5.323283198855885
 30
0.0
  0
SEQEND
  5
E0
330
D2
100
AcDbEntity
  8
Wood
 62
   250
420
  2301728
370
    18
  0
POLYLINE
  5
E1
330
1F
100
AcDbEntity
  8
Wood
 62
   250
420
  2301728
370
    18
100
AcDb2dPolyline
 66
     1
 10
0.0
 20
0.0
 30
0.0
  0
VERTEX
  5
E2
330
E1
100
AcDbEntity
  8
Wood
 62
   250
420
  2301728
370
    18
100
AcDbVertex
100
AcDb2dVertex
 10
3.522705466564528
 20
5.146280425549573
 30
0.0
  0
VERTEX
  5
E3
330
E1
100
AcDbEntity
  8
Wood
 62
   250
420
  2301728
370
    18
100
AcDbVertex
100
AcDb2dVertex
 10
3.588636020454537
 20
5.11907209290358
 30
0.0
  0
SEQEND
  5
E4
330
E1
100
AcDbEntity
  8
Wood
 62
   250
420
  2301728
370
    18
  0
POLYLINE
  5
E5
330
1F
100
AcDbEntity
  8
Wood
 62
   250
420
  2301728
370
    18
100
AcDb2dPolyline
 66
     1
 10
0.0
 20
0.0
 30
0.0
  0
VERTEX
  5
E6
330
E5
100
AcDbEntity
  8
Wood
 62
   250
420
  2301728
370
    18
100
AcDbVertex
100
AcDb2dVertex
 10
3.568020743197545
 20
5.096259593479872
 30
0.0
  0
VERTEX
  5
E7
330
E5
100
AcDbEntity
  8
Wood
 62
   250
420
  2301728
370
    18
100
AcDbVertex
100
AcDb2dVertex
 10
3.64363601906512
 20
5.068209594188475
 30
0.0
  0
SEQEND
  5
E8
330
E5
100
AcDbEntity
  8
Wood
 62
   250
420
  2301728
370
    18
  0
POLYLINE
  5
E9
330
1F
100
AcDbEntity
  8
Wood
 62
   250
420
  2301728
370
    13
100
AcDb2dPolyline
 66
     1
 10
0.0
 20
0.0
 30
0.0
  0
VERTEX
  5
EA
330
E9
100
AcDbEntity
  8
Wood
 62
   250
420
  2301728
370
    13
100
AcDbVertex
100
AcDb2dVertex
 10
3.587917964917121
 20
5.907348461878933
 30
0.0
  0
VERTEX
  5
EB
330
E9
100
AcDbEntity
  8
Wood
 62
   250
420
  2301728
370
    13
100
AcDbVertex
100
AcDb2dVertex
 10
3.586954076052582
 20
5.346177642721967
 30
0.0
  0
VERTEX
  5
EC
330
E9
100
AcDbEntity
  8
Wood
 62
   250
420
  2301728
370
    13
100
AcDbVertex
100
AcDb2dVertex
 10
3.662542963031935
 20
5.273451255670301
 30
0.0
  0
VERTEX
  5
ED
330
E9
100
AcDbEntity
  8
Wood
 62
   250
420
  2301728
370
    13
100
AcDbVertex
100
AcDb2dVertex
 10
3.535359632911523
 20
5.140191536814503
 30
0.0
  0
VERTEX
  5
EE
330
E9
100
AcDbEntity
  8
Wood
 62
   250
420
  2301728
370
    13
100
AcDbVertex
100
AcDb2dVertex
 10
3.586506853841658
 20
5.091105426943411
 30
0.0
  0
VERTEX
  5
EF
330
E9
100
AcDbEntity
  8
Wood
 62
   250
420
  2301728
370
    13
100
AcDbVertex
100
AcDb2dVertex
 10
3.585462409423599
 20
4.541951274149546
 30
0.0
  0
SEQEND
  5
F0
330
E9
100
AcDbEntity
  8
Wood
 62
   250
420
  2301728
370
    13
  0
POLYLINE
  5
F1
330
1F
100
AcDbEntity
  8
Wood
 62
   250
420
  2301728
370
    25
100
AcDb2dPolyline
 66
     1
 10
0.0
 20
0.0
 30
0.0
  0
VERTEX
  5
F2
330
F1
100
AcDbEntity
  8
Wood
 62
   250
420
  2301728
370
    25
100
AcDbVertex
100
AcDb2dVertex
 10
3.73989573885563
 20
5.790920687042368
 30
0.0
  0
VERTEX
  5
F3
330
F1
100
AcDbEntity
  8
Wood
 62
   250
420
  2301728
370
    25
100
AcDbVertex
100
AcDb2dVertex
 10
4.676960992961136
 20
6.318155395945521
 30
0.0
  0
SEQEND
  5
F4
330
F1
100
AcDbEntity
  8
Wood
 62
   250
420
  2301728
370
    25
  0
POLYLINE
  5
F5
330
1F
100
AcDbEntity
  8
Wood
 62
   250
420
  2301728
370
    18
100
AcDb2dPolyline
 66
     1
 10
0.0
 20
0.0
 30
0.0
  0
VERTEX
  5
F6
330
F5
100
AcDbEntity
  8
Wood
 62
   250
420
  2301728
370
    18
100
AcDbVertex
100
AcDb2dVertex
 10
3.738172127788049
 20
5.790885964821023
 30
0.0
  0
VERTEX
  5
F7
330
F5
100
AcDbEntity
  8
Wood
 62
   250
420
  2301728
370
    18
100
AcDbVertex
100
AcDb2dVertex
 10
3.738172127788049
 20
5.991942904186342
 30
0.0
  0
SEQEND
  5
F8
330
F5
100
AcDbEntity
  8
Wood
 62
   250
420
  2301728
370
    18
  0
POLYLINE
  5
F9
330
1F
100
AcDbEntity
  8
Wood
 62
   250
420
  2301728
370
    18
100
AcDb2dPolyline
 66
     1
 10
0.0
 20
0.0
 30
0.0
  0
VERTEX
  5
FA
330
F9
100
AcDbEntity
  8
Wood
 62
   250
420
  2301728
370
    18
100
AcDbVertex
100
AcDb2dVertex
 10
3.738172127788049
 20
4.353162390029865
 30
0.0
  0
VERTEX
  5
FB
330
F9
100
AcDbEntity
  8
Wood
 62
   250
420
  2301728
370
    18
100
AcDbVertex
100
AcDb2dVertex
 10
3.738172127788049
 20
4.563544329159614
 30
0.0
  0
SEQEND
  5
FC
330
F9
100
AcDbEntity
  8
Wood
 62
   250
420
  2301728
370
    18
  0
POLYLINE
  5
FD
330
1F
100
AcDbEntity
  8
Wood
 62
   250
420
  2301728
370
    18
100
AcDb2dPolyline
 66
     1
 10
0.0
 20
0.0
 30
0.0
  0
VERTEX
  5
FE
330
FD
100
AcDbEntity
  8
Wood
 62
   250
420
  2301728
370
    18
100
AcDbVertex
100
AcDb2dVertex
 10
3.568331854300797
 20
5.356622086902562
 30
0.0
  0
VERTEX
  5
FF
330
FD
100
AcDbEntity
  8
Wood
 62
   250
420
  2301728
370
    18
100
AcDbVertex
100
AcDb2dVertex
 10
3.64363601906512
 20
5.323283198855885
 30
0.0
  0
SEQEND
  5
100
330
FD
100
AcDbEntity
  8
Wood
 62
   250
420
  2301728
370
    18
  0
POLYLINE
  5
101
330
1F
100
AcDbEntity
  8
Wood
 62
   250
420
  2301728
370
    18
100
AcDb2dPolyline
 66
     1
 10
0.0
 20
0.0
 30
0.0
  0
VERTEX
  5
102
330
101
100
AcDbEntity
  8
Wood
 62
   250
420
  2301728
370
    18
100
AcDbVertex
100
AcDb2dVertex
 10
3.641927685774943
 20
5.280422088827536
 30
0.0
  0
VERTEX
  5
103
330
101
100
AcDbEntity
  8
Wood
 62
   250
420
  2301728
370
    18
100
AcDbVertex
100
AcDb2dVertex
 10
3.714111111111113
 20
5.254163756157545
 30
0.0
  0
SEQEND
  5
104
330
101
100
AcDbEntity
  8
Wood
 62
   250
420
  2301728
370
    18
  0
POLYLINE
  5
105
330
1F
100
AcDbEntity
  8
Wood
 62
   250
420
  2301728
370
    13
100
AcDb2dPolyline
 66
     1
 10
0.0
 20
0.0
 30
0.0
  0
VERTEX
  5
106
330
105
100
AcDbEntity
  8
Wood
 62
   250
420
  2301728
370
    13
100
AcDbVertex
100
AcDb2dVertex
 10
3.625731852850751
 20
5.897054017694548
 30
0.0
  0
VERTEX
  5
107
330
105
100
AcDbEntity
  8
Wood
 62
   250
420
  2301728
370
    13
100
AcDbVertex
100
AcDb2dVertex
 10
3.62474157509799
 20
5.332044309745672
 30
0.0
  0
VERTEX
  5
108
330
105
100
AcDbEntity
  8
Wood
 62
   250
420
  2301728
370
    13
100
AcDbVertex
100
AcDb2dVertex
 10
3.700372128742957
 20
5.259426256024603
 30
0.0
  0
VERTEX
  5
109
330
105
100
AcDbEntity
  8
Wood
 62
   250
420
  2301728
370
    13
100
AcDbVertex
100
AcDb2dVertex
 10
3.56974296537626
 20
5.126098481614968
 30
0.0
  0
VERTEX
  5
10A
330
105
100
AcDbEntity
  8
Wood
 62
   250
420
  2301728
370
    13
100
AcDbVertex
100
AcDb2dVertex
 10
3.624322130664142
 20
5.075262371788085
 30
0.0
  0
VERTEX
  5
10B
330
105
100
AcDbEntity
  8
Wood
 62
   250
420
  2301728
370
    13
100
AcDbVertex
100
AcDb2dVertex
 10
3.62327777777778
 20
4.524684607919071
 30
0.0
  0
SEQEND
  5
10C
330
105
100
AcDbEntity
  8
Wood
 62
   250
420
  2301728
370
    13
  0
POLYLINE
  5
10D
330
1F
100
AcDbEntity
  8
Wood
 62
   250
420
  2301728
370
    13
100
AcDb2dPolyline
 66
     1
 10
0.0
 20
0.0
 30
0.0
  0
VERTEX
  5
10E
330
10D
100
AcDbEntity
  8
Wood
 62
   250
420
  2301728
370
    13
100
AcDbVertex
100
AcDb2dVertex
 10
3.606824908883937
 20
5.90220123978674
 30
0.0
  0
VERTEX
  5
10F
330
10D
100
AcDbEntity
  8
Wood
 62
   250
420
  2301728
370
    13
100
AcDbVertex
100
AcDb2dVertex
 10
3.605848520019713
 20
5.33730680961273
 30
0.0
  0
VERTEX
  5
110
330
10D
100
AcDbEntity
  8
Wood
 62
   250
420
  2301728
370
    13
100
AcDbVertex
100
AcDb2dVertex
 10
3.679727684820035
 20
5.268269311356764
 30
0.0
  0
VERTEX
  5
111
330
10D
100
AcDbEntity
  8
Wood
 62
   250
420
  2301728
370
    13
100
AcDbVertex
100
AcDb2dVertex
 10
3.554266576878338
 20
5.133179036991653
 30
0.0
  0
VERTEX
  5
112
330
10D
100
AcDbEntity
  8
Wood
 62
   250
420
  2301728
370
    13
100
AcDbVertex
100
AcDb2dVertex
 10
3.605401297808789
 20
5.080362371659248
 30
0.0
  0
VERTEX
  5
113
330
10D
100
AcDbEntity
  8
Wood
 62
   250
420
  2301728
370
    13
100
AcDbVertex
100
AcDb2dVertex
 10
3.604369353390414
 20
4.533541666666679
 30
0.0
  0
SEQEND
  5
114
330
10D
100
AcDbEntity
  8
Wood
 62
   250
420
  2301728
370
    13
  0
POLYLINE
  5
115
330
1F
100
AcDbEntity
  8
Wood
 62
   250
420
  2301728
370
    18
100
AcDb2dPolyline
 66
     1
 10
0.0
 20
0.0
 30
0.0
  0
VERTEX
  5
116
330
115
100
AcDbEntity
  8
Wood
 62
   250
420
  2301728
370
    18
100
AcDbVertex
100
AcDb2dVertex
 10
3.641927685774943
 20
4.600423494894636
 30
0.0
  0
VERTEX
  5
117
330
115
100
AcDbEntity
  8
Wood
 62
   250
420
  2301728
370
    18
100
AcDbVertex
100
AcDb2dVertex
 10
4.601847222222229
 20
5.254625000000007
 30
0.0
  0
SEQEND
  5
118
330
115
100
AcDbEntity
  8
Wood
 62
   250
420
  2301728
370
    18
  0
POLYLINE
  5
119
330
1F
100
AcDbEntity
  8
Wood
 62
   250
420
  2301728
370
    13
100
AcDb2dPolyline
 66
     1
 10
0.0
 20
0.0
 30
0.0
  0
VERTEX
  5
11A
330
119
100
AcDbEntity
  8
Wood
 62
   250
420
  2301728
370
    13
100
AcDbVertex
100
AcDb2dVertex
 10
3.49045130071267
 20
6.034722222222222
 30
0.0
  0
VERTEX
  5
11B
330
119
100
AcDbEntity
  8
Wood
 62
   250
420
  2301728
370
    13
100
AcDbVertex
100
AcDb2dVertex
 10
3.737847222222222
 20
5.960937349414053
 30
0.0
  0
SEQEND
  5
11C
330
119
100
AcDbEntity
  8
Wood
 62
   250
420
  2301728
370
    13
  0
POLYLINE
  5
11D
330
1F
100
AcDbEntity
  8
Wood
 62
   250
420
  2301728
370
    13
100
AcDb2dPolyline
 66
     1
 10
0.0
 20
0.0
 30
0.0
  0
VERTEX
  5
11E
330
11D
100
AcDbEntity
  8
Wood
 62
   250
420
  2301728
370
    13
100
AcDbVertex
100
AcDb2dVertex
 10
3.49045130071267
 20
6.006944444444444
 30
0.0
  0
VERTEX
  5
11F
330
11D
100
AcDbEntity
  8
Wood
 62
   250
420
  2301728
370
    13
100
AcDbVertex
100
AcDb2dVertex
 10
3.737847222222222
 20
5.933159572338
 30
0.0
  0
SEQEND
  5
120
330
11D
100
AcDbEntity
  8
Wood
 62
   250
420
  2301728
370
    13
  0
POLYLINE
  5
121
330
1F
100
AcDbEntity
  8
Wood
 62
   250
420
  2301728
370
    13
100
AcDb2dPolyline
 66
     1
 10
0.0
 20
0.0
 30
0.0
  0
VERTEX
  5
122
330
121
100
AcDbEntity
  8
Wood
 62
   250
420
  2301728
370
    13
100
AcDbVertex
100
AcDb2dVertex
 10
3.49045130071267
 20
5.979166666666666
 30
0.0
  0
VERTEX
  5
123
330
121
100
AcDbEntity
  8
Wood
 62
   250
420
  2301728
370
    13
100
AcDbVertex
100
AcDb2dVertex
 10
3.737847222222222
 20
5.905381795261948
 30
0.0
  0
SEQEND
  5
124
330
121
100
AcDbEntity
  8
Wood
 62
   250
420
  2301728
370
    13
  0
POLYLINE
  5
125
330
1F
100
AcDbEntity
  8
Wood
 62
   250
420
  2301728
370
    13
100
AcDb2dPolyline
 66
     1
 10
0.0
 20
0.0
 30
0.0
  0
VERTEX
  5
126
330
125
100
AcDbEntity
  8
Wood
 62
   250
420
  2301728
370
    13
100
AcDbVertex
100
AcDb2dVertex
 10
3.49045130071267
 20
5.951388888888888
 30
0.0
  0
VERTEX
  5
127
330
125
100
AcDbEntity
  8
Wood
 62
   250
420
  2301728
370
    13
100
AcDbVertex
100
AcDb2dVertex
 10
3.737847222222222
 20
5.877604018185896
 30
0.0
  0
SEQEND
  5
128
330
125
100
AcDbEntity
  8
Wood
 62
   250
420
  2301728
370
    13
  0
POLYLINE
  5
129
330
1F
100
AcDbEntity
  8
Wood
 62
   250
420
  2301728
370
    13
100
AcDb2dPolyline
 66
     1
 10
0.0
 20
0.0
 30
0.0
  0
VERTEX
  5
12A
330
129
100
AcDbEntity
  8
Wood
 62
   250
420
  2301728
370
    13
100
AcDbVertex
100
AcDb2dVertex
 10
3.645127685694105
 20
5.877474851522505
 30
0.0
  0
VERTEX
  5
12B
330
129
100
AcDbEntity
  8
Wood
 62
   250
420
  2301728
370
    13
100
AcDbVertex
100
AcDb2dVertex
 10
3.737847222222222
 20
5.849826241109844
 30
0.0
  0
SEQEND
  5
12C
330
129
100
AcDbEntity
  8
Wood
 62
   250
420
  2301728
370
    13
  0
POLYLINE
  5
12D
330
1F
100
AcDbEntity
  8
Wood
 62
   250
420
  2301728
370
    13
100
AcDb2dPolyline
 66
     1
 10
0.0
 20
0.0
 30
0.0
  0
VERTEX
  5
12E
330
12D
100
AcDbEntity
  8
Wood
 62
   250
420
  2301728
370
    13
100
AcDbVertex
100
AcDb2dVertex
 10
3.49045130071267
 20
5.923611111111111
 30
0.0
  0
VERTEX
  5
12F
330
12D
100
AcDbEntity
  8
Wood
 62
   250
420
  2301728
370
    13
100
AcDbVertex
100
AcDb2dVertex
 10
3.570204076475723
 20
5.899827628735592
 30
0.0
  0
SEQEND
  5
130
330
12D
100
AcDbEntity
  8
Wood
 62
   250
420
  2301728
370
    13
  0
POLYLINE
  5
131
330
1F
100
AcDbEntity
  8
Wood
 62
   250
420
  2301728
370
    13
100
AcDb2dPolyline
 66
     1
 10
0.0
 20
0.0
 30
0.0
  0
VERTEX
  5
132
330
131
100
AcDbEntity
  8
Wood
 62
   250
420
  2301728
370
    13
100
AcDbVertex
100
AcDb2dVertex
 10
3.644137407941344
 20
5.849995685550008
 30
0.0
  0
VERTEX
  5
133
330
131
100
AcDbEntity
  8
Wood
 62
   250
420
  2301728
370
    13
100
AcDbVertex
100
AcDb2dVertex
 10
3.737847222222222
 20
5.822048464033792
 30
0.0
  0
SEQEND
  5
134
330
131
100
AcDbEntity
  8
Wood
 62
   250
420
  2301728
370
    13
  0
POLYLINE
  5
135
330
1F
100
AcDbEntity
  8
Wood
 62
   250
420
  2301728
370
    13
100
AcDb2dPolyline
 66
     1
 10
0.0
 20
0.0
 30
0.0
  0
VERTEX
  5
136
330
135
100
AcDbEntity
  8
Wood
 62
   250
420
  2301728
370
    13
100
AcDbVertex
100
AcDb2dVertex
 10
3.49045130071267
 20
5.895833333333333
 30
0.0
  0
VERTEX
  5
137
330
135
100
AcDbEntity
  8
Wood
 62
   250
420
  2301728
370
    13
100
AcDbVertex
100
AcDb2dVertex
 10
3.569905465372155
 20
5.872137351657329
 30
0.0
  0
SEQEND
  5
138
330
135
100
AcDbEntity
  8
Wood
 62
   250
420
  2301728
370
    13
  0
POLYLINE
  5
139
330
1F
100
AcDbEntity
  8
Wood
 62
   250
420
  2301728
370
    13
100
AcDb2dPolyline
 66
     1
 10
0.0
 20
0.0
 30
0.0
  0
VERTEX
  5
13A
330
139
100
AcDbEntity
  8
Wood
 62
   250
420
  2301728
370
    13
100
AcDbVertex
100
AcDb2dVertex
 10
3.642808241308254
 20
4.565497106888061
 30
0.0
  0
VERTEX
  5
13B
330
139
100
AcDbEntity
  8
Wood
 62
   250
420
  2301728
370
    13
100
AcDbVertex
100
AcDb2dVertex
 10
3.738715183329886
 20
4.526204052325132
 30
0.0
  0
SEQEND
  5
13C
330
139
100
AcDbEntity
  8
Wood
 62
   250
420
  2301728
370
    13
  0
POLYLINE
  5
13D
330
1F
100
AcDbEntity
  8
Wood
 62
   250
420
  2301728
370
    13
100
AcDb2dPolyline
 66
     1
 10
0.0
 20
0.0
 30
0.0
  0
VERTEX
  5
13E
330
13D
100
AcDbEntity
  8
Wood
 62
   250
420
  2301728
370
    13
100
AcDbVertex
100
AcDb2dVertex
 10
3.488715189645417
 20
4.628634605293073
 30
0.0
  0
VERTEX
  5
13F
330
13D
100
AcDbEntity
  8
Wood
 62
   250
420
  2301728
370
    13
100
AcDbVertex
100
AcDb2dVertex
 10
3.568820743177336
 20
4.595810995011157
 30
0.0
  0
SEQEND
  5
140
330
13D
100
AcDbEntity
  8
Wood
 62
   250
420
  2301728
370
    13
  0
POLYLINE
  5
141
330
1F
100
AcDbEntity
  8
Wood
 62
   250
420
  2301728
370
    13
100
AcDb2dPolyline
 66
     1
 10
0.0
 20
0.0
 30
0.0
  0
VERTEX
  5
142
330
141
100
AcDbEntity
  8
Wood
 62
   250
420
  2301728
370
    13
100
AcDbVertex
100
AcDb2dVertex
 10
3.642306852432032
 20
4.537935996473203
 30
0.0
  0
VERTEX
  5
143
330
141
100
AcDbEntity
  8
Wood
 62
   250
420
  2301728
370
    13
100
AcDbVertex
100
AcDb2dVertex
 10
3.738715183329886
 20
4.49842627524908
 30
0.0
  0
SEQEND
  5
144
330
141
100
AcDbEntity
  8
Wood
 62
   250
420
  2301728
370
    13
  0
POLYLINE
  5
145
330
1F
100
AcDbEntity
  8
Wood
 62
   250
420
  2301728
370
    13
100
AcDb2dPolyline
 66
     1
 10
0.0
 20
0.0
 30
0.0
  0
VERTEX
  5
146
330
145
100
AcDbEntity
  8
Wood
 62
   250
420
  2301728
370
    13
100
AcDbVertex
100
AcDb2dVertex
 10
3.488715189645417
 20
4.600856828217021
 30
0.0
  0
VERTEX
  5
147
330
145
100
AcDbEntity
  8
Wood
 62
   250
420
  2301728
370
    13
100
AcDbVertex
100
AcDb2dVertex
 10
3.569526298715068
 20
4.567748495720076
 30
0.0
  0
SEQEND
  5
148
330
145
100
AcDbEntity
  8
Wood
 62
   250
420
  2301728
370
    13
  0
POLYLINE
  5
149
330
1F
100
AcDbEntity
  8
Wood
 62
   250
420
  2301728
370
    13
100
AcDb2dPolyline
 66
     1
 10
0.0
 20
0.0
 30
0.0
  0
VERTEX
  5
14A
330
149
100
AcDbEntity
  8
Wood
 62
   250
420
  2301728
370
    13
100
AcDbVertex
100
AcDb2dVertex
 10
3.488715189645417
 20
4.57307905114097
 30
0.0
  0
VERTEX
  5
14B
330
149
100
AcDbEntity
  8
Wood
 62
   250
420
  2301728
370
    13
100
AcDbVertex
100
AcDb2dVertex
 10
3.738715183329886
 20
4.467759609357118
 30
0.0
  0
SEQEND
  5
14C
330
149
100
AcDbEntity
  8
Wood
 62
   250
420
  2301728
370
    13
  0
POLYLINE
  5
14D
330
1F
100
AcDbEntity
  8
Wood
 62
   250
420
  2301728
370
    13
100
AcDb2dPolyline
 66
     1
 10
0.0
 20
0.0
 30
0.0
  0
VERTEX
  5
14E
330
14D
100
AcDbEntity
  8
Wood
 62
   250
420
  2301728
370
    13
100
AcDbVertex
100
AcDb2dVertex
 10
3.488715189645417
 20
4.545301274064918
 30
0.0
  0
VERTEX
  5
14F
330
14D
100
AcDbEntity
  8
Wood
 62
   250
420
  2301728
370
    13
100
AcDbVertex
100
AcDb2dVertex
 10
3.738715183329886
 20
4.439981832281066
 30
0.0
  0
SEQEND
  5
150
330
14D
100
AcDbEntity
  8
Wood
 62
   250
420
  2301728
370
    13
  0
POLYLINE
  5
151
330
1F
100
AcDbEntity
  8
Wood
 62
   250
420
  2301728
370
    13
100
AcDb2dPolyline
 66
     1
 10
0.0
 20
0.0
 30
0.0
  0
VERTEX
  5
152
330
151
100
AcDbEntity
  8
Wood
 62
   250
420
  2301728
370
    13
100
AcDbVertex
100
AcDb2dVertex
 10
3.488715189645417
 20
4.517523496988866
 30
0.0
  0
VERTEX
  5
153
330
151
100
AcDbEntity
  8
Wood
 62
   250
420
  2301728
370
    13
100
AcDbVertex
100
AcDb2dVertex
 10
3.738715183329886
 20
4.412204055205014
 30
0.0
  0
SEQEND
  5
154
330
151
100
AcDbEntity
  8
Wood
 62
   250
420
  2301728
370
    13
  0
POLYLINE
  5
155
330
1F
100
AcDbEntity
  8
Wood
 62
   250
420
  2301728
370
    13
100
AcDb2dPolyline
 66
     1
 10
0.0
 20
0.0
 30
0.0
  0
VERTEX
  5
156
330
155
100
AcDbEntity
  8
Wood
 62
   250
420
  2301728
370
    13
100
AcDbVertex
100
AcDb2dVertex
 10
3.488715189645417
 20
4.489745719912813
 30
0.0
  0
VERTEX
  5
157
330
155
100
AcDbEntity
  8
Wood
 62
   250
420
  2301728
370
    13
100
AcDbVertex
100
AcDb2dVertex
 10
3.738715183329886
 20
4.384426278128962
 30
0.0
  0
SEQEND
  5
158
330
155
100
AcDbEntity
  8
Wood
 62
   250
420
  2301728
370
    13
  0
POLYLINE
  5
159
330
1F
100
AcDbEntity
  8
Wood
 62
   250
420
  2301728
370
    18
100
AcDb2dPolyline
 66
     1
 10
0.0
 20
0.0
 30
0.0
  0
VERTEX
  5
15A
330
159
100
AcDbEntity
  8
Wood
 62
   250
420
  2301728
370
    18
100
AcDbVertex
100
AcDb2dVertex
 10
4.681056826190999
 20
6.320787340323477
 30
0.0
  0
VERTEX
  5
15B
330
159
100
AcDbEntity
  8
Wood
 62
   250
420
  2301728
370
    18
100
AcDbVertex
100
AcDb2dVertex
 10
5.300930555555547
 20
6.161729011008295
 30
0.0
  0
VERTEX
  5
15C
330
159
100
AcDbEntity
  8
Wood
 62
   250
420
  2301728
370
    18
100
AcDbVertex
100
AcDb2dVertex
 10
5.524997082649052
 20
6.290920674411305
 30
0.0
  0
SEQEND
  5
15D
330
159
100
AcDbEntity
  8
Wood
 62
   250
420
  2301728
370
    18
  0
POLYLINE
  5
15E
330
1F
100
AcDbEntity
  8
Wood
 62
   250
420
  2301728
370
    18
100
AcDb2dPolyline
 66
     1
 10
0.0
 20
0.0
 30
0.0
  0
VERTEX
  5
15F
330
15E
100
AcDbEntity
  8
Wood
 62
   250
420
  2301728
370
    18
100
AcDbVertex
100
AcDb2dVertex
 10
3.364623526113569
 20
6.662156776144204
 30
0.0
  0
VERTEX
  5
160
330
15E
100
AcDbEntity
  8
Wood
 62
   250
420
  2301728
370
    18
100
AcDbVertex
100
AcDb2dVertex
 10
4.232956837510957
 20
6.434977615216566
 30
0.0
  0
SEQEND
  5
161
330
15E
100
AcDbEntity
  8
Wood
 62
   250
420
  2301728
370
    18
  0
POLYLINE
  5
162
330
1F
100
AcDbEntity
  8
Wood
 62
   250
420
  2301728
370
    18
100
AcDb2dPolyline
 66
     1
 10
0.0
 20
0.0
 30
0.0
  0
VERTEX
  5
163
330
162
100
AcDbEntity
  8
Wood
 62
   250
420
  2301728
370
    18
100
AcDbVertex
100
AcDb2dVertex
 10
4.679592937339091
 20
5.118001259597299
 30
0.0
  0
VERTEX
  5
164
330
162
100
AcDbEntity
  8
Wood
 62
   250
420
  2301728
370
    18
100
AcDbVertex
100
AcDb2dVertex
 10
5.305555555555555
 20
4.888604043170138
 30
0.0
  0
VERTEX
  5
165
330
162
100
AcDbEntity
  8
Wood
 62
   250
420
  2301728
370
    18
100
AcDbVertex
100
AcDb2dVertex
 10
5.410169307772068
 20
4.970227652219263
 30
0.0
  0
SEQEND
  5
166
330
162
100
AcDbEntity
  8
Wood
 62
   250
420
  2301728
370
    18
  0
POLYLINE
  5
167
330
1F
100
AcDbEntity
  8
Wood
 62
   250
420
  2301728
370
    18
100
AcDb2dPolyline
 66
     1
 10
0.0
 20
0.0
 30
0.0
  0
VERTEX
  5
168
330
167
100
AcDbEntity
  8
Wood
 62
   250
420
  2301728
370
    18
100
AcDbVertex
100
AcDb2dVertex
 10
3.344902777777772
 20
5.598802636340123
 30
0.0
  0
VERTEX
  5
169
330
167
100
AcDbEntity
  8
Wood
 62
   250
420
  2301728
370
    18
100
AcDbVertex
100
AcDb2dVertex
 10
3.564852687722022
 20
5.518141527266683
 30
0.0
  0
SEQEND
  5
16A
330
167
100
AcDbEntity
  8
Wood
 62
   250
420
  2301728
370
    18
  0
POLYLINE
  5
16B
330
1F
100
AcDbEntity
  8
Wood
 62
   250
420
  2301728
370
    18
100
AcDb2dPolyline
 66
     1
 10
0.0
 20
0.0
 30
0.0
  0
VERTEX
  5
16C
330
16B
100
AcDbEntity
  8
Wood
 62
   250
420
  2301728
370
    18
100
AcDbVertex
100
AcDb2dVertex
 10
3.566297132129976
 20
5.619160969159162
 30
0.0
  0
VERTEX
  5
16D
330
16B
100
AcDbEntity
  8
Wood
 62
   250
420
  2301728
370
    18
100
AcDbVertex
100
AcDb2dVertex
 10
3.456855468228039
 20
5.655944444444445
 30
0.0
  0
SEQEND
  5
16E
330
16B
100
AcDbEntity
  8
Wood
 62
   250
420
  2301728
370
    18
  0
POLYLINE
  5
16F
330
1F
100
AcDbEntity
  8
Wood
 62
   250
420
  2301728
370
    18
100
AcDb2dPolyline
 66
     1
 10
0.0
 20
0.0
 30
0.0
  0
VERTEX
  5
170
330
16F
100
AcDbEntity
  8
Wood
 62
   250
420
  2301728
370
    18
100
AcDbVertex
100
AcDb2dVertex
 10
5.406642918972263
 20
4.967529041176324
 30
0.0
  0
VERTEX
  5
171
330
16F
100
AcDbEntity
  8
Wood
 62
   250
420
  2301728
370
    18
100
AcDbVertex
100
AcDb2dVertex
 10
4.690456825953535
 20
5.221598479202435
 30
0.0
  0
SEQEND
  5
172
330
16F
100
AcDbEntity
  8
Wood
 62
   250
420
  2301728
370
    18
  0
POLYLINE
  5
173
330
1F
100
AcDbEntity
  8
Wood
 62
   250
420
  2301728
370
    18
100
AcDb2dPolyline
 66
     1
 10
0.0
 20
0.0
 30
0.0
  0
VERTEX
  5
174
330
173
100
AcDbEntity
  8
Wood
 62
   250
420
  2301728
370
    18
100
AcDbVertex
100
AcDb2dVertex
 10
5.440647084779912
 20
5.09956792672963
 30
0.0
  0
VERTEX
  5
175
330
173
100
AcDbEntity
  8
Wood
 62
   250
420
  2301728
370
    18
100
AcDbVertex
100
AcDb2dVertex
 10
5.440647084779912
 20
4.993544318296901
 30
0.0
  0
VERTEX
  5
176
330
173
100
AcDbEntity
  8
Wood
 62
   250
420
  2301728
370
    18
100
AcDbVertex
100
AcDb2dVertex
 10
5.529323471428648
 20
5.063191538759686
 30
0.0
  0
SEQEND
  5
177
330
173
100
AcDbEntity
  8
Wood
 62
   250
420
  2301728
370
    18
  0
POLYLINE
  5
178
330
1F
100
AcDbEntity
  8
Wood
 62
   250
420
  2301728
370
    18
100
AcDb2dPolyline
 66
     1
 10
0.0
 20
0.0
 30
0.0
  0
VERTEX
  5
179
330
178
100
AcDbEntity
  8
Wood
 62
   250
420
  2301728
370
    18
100
AcDbVertex
100
AcDb2dVertex
 10
4.172641561256872
 20
6.405517893738558
 30
0.0
  0
VERTEX
  5
17A
330
178
100
AcDbEntity
  8
Wood
 62
   250
420
  2301728
370
    18
100
AcDbVertex
100
AcDb2dVertex
 10
3.454861111111111
 20
6.59375
 30
0.0
  0
SEQEND
  5
17B
330
178
100
AcDbEntity
  8
Wood
 62
   250
420
  2301728
370
    18
  0
POLYLINE
  5
17C
330
1F
100
AcDbEntity
  8
Wood
 62
   250
420
  2301728
370
    18
100
AcDb2dPolyline
 66
     1
 10
0.0
 20
0.0
 30
0.0
  0
VERTEX
  5
17D
330
17C
100
AcDbEntity
  8
Wood
 62
   250
420
  2301728
370
    18
100
AcDbVertex
100
AcDb2dVertex
 10
5.302829032705934
 20
6.109137345670206
 30
0.0
  0
VERTEX
  5
17E
330
17C
100
AcDbEntity
  8
Wood
 62
   250
420
  2301728
370
    18
100
AcDbVertex
100
AcDb2dVertex
 10
4.866644321502664
 20
6.223524842780547
 30
0.0
  0
SEQEND
  5
17F
330
17C
100
AcDbEntity
  8
Wood
 62
   250
420
  2301728
370
    18
  0
SPLINE
  5
181
330
1F
100
AcDbEntity
  8
ITS
370
     0
100
AcDbSpline
210
0.0
220
0.0
230
1.0
 70
    11
 71
     3
 72
    92
 73
    88
 74
     0
 42
0.0000000001
 43
0.0000000001
 12
1.0
 22
0.0
 32
0.0
 13
1.0
 23
0.0
 33
0.0
 40
0.0
 40
0.0
 40
0.0
 40
0.0
 40
1.0
 40
1.0
 40
1.0
 40
2.0
 40
2.0
 40
2.0
 40
3.0
 40
3.0
 40
3.0
 40
4.0
 40
4.0
 40
4.0
 40
5.0
 40
5.0
 40
5.0
 40
6.0
 40
6.0
 40
6.0
 40
7.0
 40
7.0
 40
7.0
 40
8.0
 40
8.0
 40
8.0
 40
9.0
 40
9.0
 40
9.0
 40
10.0
 40
10.0
 40
10.0
 40
11.0
 40
11.0
 40
11.0
 40
12.0
 40
12.0
 40
12.0
 40
13.0
 40
13.0
 40
13.0
 40
14.0
 40
14.0
 40
14.0
 40
15.0
 40
15.0
 40
15.0
 40
16.0
 40
16.0
 40
16.0
 40
17.0
 40
17.0
 40
17.0
 40
18.0
 40
18.0
 40
18.0
 40
19.0
 40
19.0
 40
19.0
 40
20.0
 40
20.0
 40
20.0
 40
21.0
 40
21.0
 40
21.0
 40
22.0
 40
22.0
 40
22.0
 40
23.0
 40
23.0
 40
23.0
 40
24.0
 40
24.0
 40
24.0
 40
25.0
 40
25.0
 40
25.0
 40
26.0
 40
26.0
 40
26.0
 40
27.0
 40
27.0
 40
27.0
 40
28.0
 40
28.0
 40
28.0
 40
29.0
 40
29.0
 40
29.0
 40
29.0
 10
4.49293321983229
 20
4.916245709138517
 30
0.0
 10
4.49293321983229
 20
4.916245709138517
 30
0.0
 10
4.487752664407607
 20
5.109767926471957
 30
0.0
 10
4.487752664407607
 20
5.109767926471957
 30
0.0
 10
4.487752664407607
 20
5.109767926471957
 30
0.0
 10
4.576212384395149
 20
5.493495694555955
 30
0.0
 10
4.576212384395149
 20
5.493495694555955
 30
0.0
 10
4.576212384395149
 20
5.493495694555955
 30
0.0
 10
4.576212384395149
 20
5.978420682305719
 30
0.0
 10
4.576212384395149
 20
6.022806792295543
 30
0.0
 10
4.576212384395149
 20
6.067213735618174
 30
0.0
 10
4.574504051104971
 20
6.038384569679793
 30
0.0
 10
4.578491551004238
 20
6.066765124518408
 30
0.0
 10
4.584255439747519
 20
6.107822067925654
 30
0.0
 10
4.597398494971054
 20
6.241373453440751
 30
0.0
 10
4.610487383529289
 20
6.342284562002633
 30
0.0
 10
4.610635994636646
 20
6.343370673086307
 30
0.0
 10
4.615695716731048
 20
6.34705956188202
 30
0.0
 10
4.61690277777777
 20
6.35044289512987
 30
0.0
 10
4.62786238309036
 20
6.381231783240966
 30
0.0
 10
4.674140159699062
 20
6.494988724811669
 30
0.0
 10
4.684895714982909
 20
6.498941502489591
 30
0.0
 10
4.696356825804489
 20
6.503147057938905
 30
0.0
 10
4.715060991998649
 20
6.509297057783543
 30
0.0
 10
4.715060991998649
 20
6.509297057783543
 30
0.0
 10
4.715060991998649
 20
6.509297057783543
 30
0.0
 10
4.800713767612655
 20
6.53459289047785
 30
0.0
 10
4.800713767612655
 20
6.53459289047785
 30
0.0
 10
4.800713767612655
 20
6.53459289047785
 30
0.0
 10
4.93151793097493
 20
6.501606780200038
 30
0.0
 10
4.93151793097493
 20
6.501606780200038
 30
0.0
 10
4.93151793097493
 20
6.501606780200038
 30
0.0
 10
4.953192930427374
 20
6.501044280214248
 30
0.0
 10
4.953192930427374
 20
6.501044280214248
 30
0.0
 10
4.953192930427374
 20
6.501044280214248
 30
0.0
 10
4.964924874575445
 20
6.493956780393293
 30
0.0
 10
4.964924874575445
 20
6.493956780393293
 30
0.0
 10
4.964924874575445
 20
6.493956780393293
 30
0.0
 10
5.046820705839915
 20
6.474113725339016
 30
0.0
 10
5.046820705839915
 20
6.474113725339016
 30
0.0
 10
5.046820705839915
 20
6.474113725339016
 30
0.0
 10
5.047199872497004
 20
6.458706781283783
 30
0.0
 10
5.047199872497004
 20
6.458706781283783
 30
0.0
 10
5.018242928784073
 20
6.448472222222222
 30
0.0
 10
4.960760985791745
 20
6.433776226358026
 30
0.0
 10
4.949381819412539
 20
6.429402777777782
 30
0.0
 10
4.939981819650003
 20
6.425794282115223
 30
0.0
 10
4.863769321575293
 20
6.351073450669496
 30
0.0
 10
4.863769321575293
 20
6.330660951185172
 30
0.0
 10
4.861002654978519
 20
6.30771928509806
 30
0.0
 10
4.867622099255741
 20
5.522874999999999
 30
0.0
 10
4.867622099255741
 20
5.522874999999999
 30
0.0
 10
4.867622099255741
 20
5.522874999999999
 30
0.0
 10
4.697361111111099
 20
5.257988756060917
 30
0.0
 10
4.69137904815246
 20
5.238430555555547
 30
0.0
 10
4.685397103859132
 20
5.218898479270643
 30
0.0
 10
4.667059604322376
 20
5.185505424558666
 30
0.0
 10
4.66250265999305
 20
5.154405425344319
 30
0.0
 10
4.657158215683618
 20
5.117960981820539
 30
0.0
 10
4.661770715567096
 20
5.038899872706679
 30
0.0
 10
4.661770715567096
 20
5.032755428417456
 30
0.0
 10
4.661770715567096
 20
5.021388888888901
 30
0.0
 10
4.638698493927728
 20
5.004137373584854
 30
0.0
 10
4.638698493927728
 20
5.004137373584854
 30
0.0
 10
4.638698493927728
 20
5.004137373584854
 30
0.0
 10
4.638698493927728
 20
4.991441540572244
 30
0.0
 10
4.631048494120983
 20
4.98558181849805
 30
0.0
 10
4.62410404985197
 20
4.980265151965694
 30
0.0
 10
4.616481827822301
 20
4.981730429706456
 30
0.0
 10
4.616481827822301
 20
4.981730429706456
 30
0.0
 10
4.616481827822301
 20
4.981730429706456
 30
0.0
 10
4.581108217604802
 20
4.950913763818284
 30
0.0
 10
4.581108217604802
 20
4.950913763818284
 30
0.0
 10
4.581108217604802
 20
4.950913763818284
 30
0.0
 10
4.57999710652176
 20
4.941691541829035
 30
0.0
 10
4.573716551124865
 20
4.93564154198187
 30
0.0
 10
4.568604051254018
 20
4.93067765321838
 30
0.0
 10
4.561210995885227
 20
4.934176264241109
 30
0.0
 10
4.561210995885227
 20
4.934176264241109
 30
0.0
 10
4.561210995885227
 20
4.934176264241109
 30
0.0
 10
4.511515163807315
 20
4.893147098610926
 30
0.0
 10
4.511515163807315
 20
4.893147098610926
 30
0.0
 10
4.511515163807315
 20
4.893147098610926
 30
0.0
 10
4.4786373868601
 20
4.900079042880255
 30
0.0
 10
4.4786373868601
 20
4.900079042880255
 30
0.0
 10
4.4786373868601
 20
4.900079042880255
 30
0.0
 10
4.49293321983229
 20
4.916245709138517
 30
0.0
 10
4.49293321983229
 20
4.916245709138517
 30
0.0
  0
HATCH
  5
182
330
1F
100
AcDbEntity
  8
ITS
 62
   254
420
 13358815
100
AcDbHatch
 10
0.0
 20
0.0
 30
0.0
210
0.0
220
0.0
230
1.0
  2
SOLID
 70
     1
 71
     0
 91
        1
 92
        1
 93
        1
 72
     4
 94
        3
 73
     0
 74
     1
 95
       92
 96
       88
 40
0.0
 40
0.0
 40
0.0
 40
0.0
 40
1.0
 40
1.0
 40
1.0
 40
2.0
 40
2.0
 40
2.0
 40
3.0
 40
3.0
 40
3.0
 40
4.0
 40
4.0
 40
4.0
 40
5.0
 40
5.0
 40
5.0
 40
6.0
 40
6.0
 40
6.0
 40
7.0
 40
7.0
 40
7.0
 40
8.0
 40
8.0
 40
8.0
 40
9.0
 40
9.0
 40
9.0
 40
10.0
 40
10.0
 40
10.0
 40
11.0
 40
11.0
 40
11.0
 40
12.0
 40
12.0
 40
12.0
 40
13.0
 40
13.0
 40
13.0
 40
14.0
 40
14.0
 40
14.0
 40
15.0
 40
15.0
 40
15.0
 40
16.0
 40
16.0
 40
16.0
 40
17.0
 40
17.0
 40
17.0
 40
18.0
 40
18.0
 40
18.0
 40
19.0
 40
19.0
 40
19.0
 40
20.0
 40
20.0
 40
20.0
 40
21.0
 40
21.0
 40
21.0
 40
22.0
 40
22.0
 40
22.0
 40
23.0
 40
23.0
 40
23.0
 40
24.0
 40
24.0
 40
24.0
 40
25.0
 40
25.0
 40
25.0
 40
26.0
 40
26.0
 40
26.0
 40
27.0
 40
27.0
 40
27.0
 40
28.0
 40
28.0
 40
28.0
 40
29.0
 40
29.0
 40
29.0
 40
29.0
 10
4.49293321983229
 20
4.916245709138517
 10
4.49293321983229
 20
4.916245709138517
 10
4.487752664407607
 20
5.109767926471957
 10
4.487752664407607
 20
5.109767926471957
 10
4.487752664407607
 20
5.109767926471957
 10
4.576212384395149
 20
5.493495694555955
 10
4.576212384395149
 20
5.493495694555955
 10
4.576212384395149
 20
5.493495694555955
 10
4.576212384395149
 20
5.978420682305719
 10
4.576212384395149
 20
6.022806792295543
 10
4.576212384395149
 20
6.067213735618174
 10
4.574504051104971
 20
6.038384569679793
 10
4.578491551004238
 20
6.066765124518408
 10
4.584255439747519
 20
6.107822067925654
 10
4.597398494971054
 20
6.241373453440751
 10
4.610487383529289
 20
6.342284562002633
 10
4.610635994636646
 20
6.343370673086307
 10
4.615695716731048
 20
6.34705956188202
 10
4.61690277777777
 20
6.35044289512987
 10
4.62786238309036
 20
6.381231783240966
 10
4.674140159699062
 20
6.494988724811669
 10
4.684895714982909
 20
6.498941502489591
 10
4.696356825804489
 20
6.503147057938905
 10
4.715060991998649
 20
6.509297057783543
 10
4.715060991998649
 20
6.509297057783543
 10
4.715060991998649
 20
6.509297057783543
 10
4.800713767612655
 20
6.53459289047785
 10
4.800713767612655
 20
6.53459289047785
 10
4.800713767612655
 20
6.53459289047785
 10
4.93151793097493
 20
6.501606780200038
 10
4.93151793097493
 20
6.501606780200038
 10
4.93151793097493
 20
6.501606780200038
 10
4.953192930427374
 20
6.501044280214248
 10
4.953192930427374
 20
6.501044280214248
 10
4.953192930427374
 20
6.501044280214248
 10
4.964924874575445
 20
6.493956780393293
 10
4.964924874575445
 20
6.493956780393293
 10
4.964924874575445
 20
6.493956780393293
 10
5.046820705839915
 20
6.474113725339016
 10
5.046820705839915
 20
6.474113725339016
 10
5.046820705839915
 20
6.474113725339016
 10
5.047199872497004
 20
6.458706781283783
 10
5.047199872497004
 20
6.458706781283783
 10
5.018242928784073
 20
6.448472222222222
 10
4.960760985791745
 20
6.433776226358026
 10
4.949381819412539
 20
6.429402777777782
 10
4.939981819650003
 20
6.425794282115223
 10
4.863769321575293
 20
6.351073450669496
 10
4.863769321575293
 20
6.330660951185172
 10
4.861002654978519
 20
6.30771928509806
 10
4.867622099255741
 20
5.522874999999999
 10
4.867622099255741
 20
5.522874999999999
 10
4.867622099255741
 20
5.522874999999999
 10
4.697361111111099
 20
5.257988756060917
 10
4.69137904815246
 20
5.238430555555547
 10
4.685397103859132
 20
5.218898479270643
 10
4.667059604322376
 20
5.185505424558666
 10
4.66250265999305
 20
5.154405425344319
 10
4.657158215683618
 20
5.117960981820539
 10
4.661770715567096
 20
5.038899872706679
 10
4.661770715567096
 20
5.032755428417456
 10
4.661770715567096
 20
5.021388888888901
 10
4.638698493927728
 20
5.004137373584854
 10
4.638698493927728
 20
5.004137373584854
 10
4.638698493927728
 20
5.004137373584854
 10
4.638698493927728
 20
4.991441540572244
 10
4.631048494120983
 20
4.98558181849805
 10
4.62410404985197
 20
4.980265151965694
 10
4.616481827822301
 20
4.981730429706456
 10
4.616481827822301
 20
4.981730429706456
 10
4.616481827822301
 20
4.981730429706456
 10
4.581108217604802
 20
4.950913763818284
 10
4.581108217604802
 20
4.950913763818284
 10
4.581108217604802
 20
4.950913763818284
 10
4.57999710652176
 20
4.941691541829035
 10
4.573716551124865
 20
4.93564154198187
 10
4.568604051254018
 20
4.93067765321838
 10
4.561210995885227
 20
4.934176264241109
 10
4.561210995885227
 20
4.934176264241109
 10
4.561210995885227
 20
4.934176264241109
 10
4.511515163807315
 20
4.893147098610926
 10
4.511515163807315
 20
4.893147098610926
 10
4.511515163807315
 20
4.893147098610926
 10
4.4786373868601
 20
4.900079042880255
 10
4.4786373868601
 20
4.900079042880255
 10
4.4786373868601
 20
4.900079042880255
 10
4.49293321983229
 20
4.916245709138517
 10
4.49293321983229
 20
4.916245709138517
 97
        0
 97
        0
 75
     2
 76
     1
 98
        0
  0
SPLINE
  5
183
330
1F
100
AcDbEntity
  8
ITS
370
     0
100
AcDbSpline
210
0.0
220
0.0
230
1.0
 70
    11
 71
     3
 72
    29
 73
    25
 74
     0
 42
0.0000000001
 43
0.0000000001
 12
1.0
 22
0.0
 32
0.0
 13
1.0
 23
0.0
 33
0.0
 40
0.0
 40
0.0
 40
0.0
 40
0.0
 40
1.0
 40
1.0
 40
1.0
 40
2.0
 40
2.0
 40
2.0
 40
3.0
 40
3.0
 40
3.0
 40
4.0
 40
4.0
 40
4.0
 40
5.0
 40
5.0
 40
5.0
 40
6.0
 40
6.0
 40
6.0
 40
7.0
 40
7.0
 40
7.0
 40
8.0
 40
8.0
 40
8.0
 40
8.0
 10
4.27606944444445
 20
6.45824567018432
 30
0.0
 10
4.2730582253868
 20
6.47623039195221
 30
0.0
 10
4.205220727100519
 20
6.593479000101373
 30
0.0
 10
4.205220727100519
 20
6.593479000101373
 30
0.0
 10
4.205220727100519
 20
6.593479000101373
 30
0.0
 10
4.201381838308609
 20
6.610697055221963
 30
0.0
 10
4.212734615799592
 20
6.615051221778635
 30
0.0
 10
4.226162393238155
 20
6.62017761053802
 30
0.0
 10
4.336805555555555
 20
6.651081776423982
 30
0.0
 10
4.336805555555555
 20
6.651081776423982
 30
0.0
 10
4.336805555555555
 20
6.651081776423982
 30
0.0
 10
4.545599885168485
 20
6.599433166617624
 30
0.0
 10
4.545599885168485
 20
6.599433166617624
 30
0.0
 10
4.545599885168485
 20
6.599433166617624
 30
0.0
 10
4.545599885168485
 20
6.587130389150641
 30
0.0
 10
4.545599885168485
 20
6.587130389150641
 30
0.0
 10
4.545599885168485
 20
6.587130389150641
 30
0.0
 10
4.454413776360929
 20
6.561163723139948
 30
0.0
 10
4.448581832063812
 20
6.559197056522962
 30
0.0
 10
4.435723499055308
 20
6.554842889966292
 30
0.0
 10
4.438327665656187
 20
6.539265112582042
 30
0.0
 10
4.438327665656187
 20
6.533284557177567
 30
0.0
 10
4.438327665656187
 20
6.533284557177567
 30
0.0
 10
4.27606944444445
 20
6.45824567018432
 30
0.0
 10
4.27606944444445
 20
6.45824567018432
 30
0.0
  0
HATCH
  5
184
330
1F
100
AcDbEntity
  8
ITS
 62
   254
420
 13358815
100
AcDbHatch
 10
0.0
 20
0.0
 30
0.0
210
0.0
220
0.0
230
1.0
  2
SOLID
 70
     1
 71
     0
 91
        1
 92
        1
 93
        1
 72
     4
 94
        3
 73
     0
 74
     1
 95
       29
 96
       25
 40
0.0
 40
0.0
 40
0.0
 40
0.0
 40
1.0
 40
1.0
 40
1.0
 40
2.0
 40
2.0
 40
2.0
 40
3.0
 40
3.0
 40
3.0
 40
4.0
 40
4.0
 40
4.0
 40
5.0
 40
5.0
 40
5.0
 40
6.0
 40
6.0
 40
6.0
 40
7.0
 40
7.0
 40
7.0
 40
8.0
 40
8.0
 40
8.0
 40
8.0
 10
4.27606944444445
 20
6.45824567018432
 10
4.2730582253868
 20
6.47623039195221
 10
4.205220727100519
 20
6.593479000101373
 10
4.205220727100519
 20
6.593479000101373
 10
4.205220727100519
 20
6.593479000101373
 10
4.201381838308609
 20
6.610697055221963
 10
4.212734615799592
 20
6.615051221778635
 10
4.226162393238155
 20
6.62017761053802
 10
4.336805555555555
 20
6.651081776423982
 10
4.336805555555555
 20
6.651081776423982
 10
4.336805555555555
 20
6.651081776423982
 10
4.545599885168485
 20
6.599433166617624
 10
4.545599885168485
 20
6.599433166617624
 10
4.545599885168485
 20
6.599433166617624
 10
4.545599885168485
 20
6.587130389150641
 10
4.545599885168485
 20
6.587130389150641
 10
4.545599885168485
 20
6.587130389150641
 10
4.454413776360929
 20
6.561163723139948
 10
4.448581832063812
 20
6.559197056522962
 10
4.435723499055308
 20
6.554842889966292
 10
4.438327665656187
 20
6.539265112582042
 10
4.438327665656187
 20
6.533284557177567
 10
4.438327665656187
 20
6.533284557177567
 10
4.27606944444445
 20
6.45824567018432
 10
4.27606944444445
 20
6.45824567018432
 97
        0
 97
        0
 75
     2
 76
     1
 98
        0
  0
SPLINE
  5
185
330
1F
100
AcDbEntity
  8
ITS
370
     0
100
AcDbSpline
210
0.0
220
0.0
230
1.0
 70
    11
 71
     3
 72
    14
 73
    10
 74
     0
 42
0.0000000001
 43
0.0000000001
 12
1.0
 22
0.0
 32
0.0
 13
1.0
 23
0.0
 33
0.0
 40
0.0
 40
0.0
 40
0.0
 40
0.0
 40
1.0
 40
1.0
 40
1.0
 40
2.0
 40
2.0
 40
2.0
 40
3.0
 40
3.0
 40
3.0
 40
3.0
 10
4.619316549972912
 20
5.499091527747926
 30
0.0
 10
4.620252661060375
 20
5.494873472298928
 30
0.0
 10
4.646863771499233
 20
5.507215138653818
 30
0.0
 10
4.646863771499233
 20
5.507215138653818
 30
0.0
 10
4.646863771499233
 20
5.507215138653818
 30
0.0
 10
4.634806827359372
 20
5.524305555555555
 30
0.0
 10
4.632433216308224
 20
5.523355416023858
 30
0.0
 10
4.632433216308224
 20
5.523355416023858
 30
0.0
 10
4.618380438885449
 20
5.503309583196924
 30
0.0
 10
4.619316549972912
 20
5.499091527747926
 30
0.0
  0
HATCH
  5
186
330
1F
100
AcDbEntity
  8
ITS
 62
    43
420
 15510365
100
AcDbHatch
 10
0.0
 20
0.0
 30
0.0
210
0.0
220
0.0
230
1.0
  2
SOLID
 70
     1
 71
     0
 91
        1
 92
        1
 93
        1
 72
     4
 94
        3
 73
     0
 74
     1
 95
       14
 96
       10
 40
0.0
 40
0.0
 40
0.0
 40
0.0
 40
1.0
 40
1.0
 40
1.0
 40
2.0
 40
2.0
 40
2.0
 40
3.0
 40
3.0
 40
3.0
 40
3.0
 10
4.619316549972912
 20
5.499091527747926
 10
4.620252661060375
 20
5.494873472298928
 10
4.646863771499233
 20
5.507215138653818
 10
4.646863771499233
 20
5.507215138653818
 10
4.646863771499233
 20
5.507215138653818
 10
4.634806827359372
 20
5.524305555555555
 10
4.632433216308224
 20
5.523355416023858
 10
4.632433216308224
 20
5.523355416023858
 10
4.618380438885449
 20
5.503309583196924
 10
4.619316549972912
 20
5.499091527747926
 97
        0
 97
        0
 75
     2
 76
     1
 98
        0
  0
SPLINE
  5
187
330
1F
100
AcDbEntity
  8
ITS
370
     0
100
AcDbSpline
210
0.0
220
0.0
230
1.0
 70
    11
 71
     3
 72
    14
 73
    10
 74
     0
 42
0.0000000001
 43
0.0000000001
 12
1.0
 22
0.0
 32
0.0
 13
1.0
 23
0.0
 33
0.0
 40
0.0
 40
0.0
 40
0.0
 40
0.0
 40
1.0
 40
1.0
 40
1.0
 40
2.0
 40
2.0
 40
2.0
 40
3.0
 40
3.0
 40
3.0
 40
3.0
 10
4.634033216267804
 20
6.072041666666665
 30
0.0
 10
4.638305555555562
 20
6.071349846624811
 30
0.0
 10
4.636583333333343
 20
6.100660956995449
 30
0.0
 10
4.636583333333343
 20
6.100660956995449
 30
0.0
 10
4.636583333333343
 20
6.100660956995449
 30
0.0
 10
4.621229049924598
 20
6.090331790589718
 30
0.0
 10
4.621229049924598
 20
6.087767901765599
 30
0.0
 10
4.621229049924598
 20
6.087767901765599
 30
0.0
 10
4.629760994153508
 20
6.072733179923185
 30
0.0
 10
4.634033216267804
 20
6.072041666666665
 30
0.0
  0
HATCH
  5
188
330
1F
100
AcDbEntity
  8
ITS
 62
    43
420
 15510365
100
AcDbHatch
 10
0.0
 20
0.0
 30
0.0
210
0.0
220
0.0
230
1.0
  2
SOLID
 70
     1
 71
     0
 91
        1
 92
        1
 93
        1
 72
     4
 94
        3
 73
     0
 74
     1
 95
       14
 96
       10
 40
0.0
 40
0.0
 40
0.0
 40
0.0
 40
1.0
 40
1.0
 40
1.0
 40
2.0
 40
2.0
 40
2.0
 40
3.0
 40
3.0
 40
3.0
 40
3.0
 10
4.634033216267804
 20
6.072041666666665
 10
4.638305555555562
 20
6.071349846624811
 10
4.636583333333343
 20
6.100660956995449
 10
4.636583333333343
 20
6.100660956995449
 10
4.636583333333343
 20
6.100660956995449
 10
4.621229049924598
 20
6.090331790589718
 10
4.621229049924598
 20
6.087767901765599
 10
4.621229049924598
 20
6.087767901765599
 10
4.629760994153508
 20
6.072733179923185
 10
4.634033216267804
 20
6.072041666666665
 97
        0
 97
        0
 75
     2
 76
     1
 98
        0
  0
SPLINE
  5
189
330
1F
100
AcDbEntity
  8
ITS
370
     0
100
AcDbSpline
210
0.0
220
0.0
230
1.0
 70
    11
 71
     3
 72
    14
 73
    10
 74
     0
 42
0.0000000001
 43
0.0000000001
 12
1.0
 22
0.0
 32
0.0
 13
1.0
 23
0.0
 33
0.0
 40
0.0
 40
0.0
 40
0.0
 40
0.0
 40
1.0
 40
1.0
 40
1.0
 40
2.0
 40
2.0
 40
2.0
 40
3.0
 40
3.0
 40
3.0
 40
3.0
 10
4.740152777777767
 20
5.432644307204302
 30
0.0
 10
4.739854046927879
 20
5.427327640671946
 30
0.0
 10
4.717041666666672
 20
5.434692918263661
 30
0.0
 10
4.717041666666672
 20
5.434692918263661
 30
0.0
 10
4.717041666666672
 20
5.434692918263661
 30
0.0
 10
4.730481824942419
 20
5.454209584437295
 30
0.0
 10
4.732490158225017
 20
5.453734584449294
 30
0.0
 10
4.732490158225017
 20
5.453734584449294
 30
0.0
 10
4.740423491357938
 20
5.437988751513735
 30
0.0
 10
4.740152777777767
 20
5.432644307204302
 30
0.0
  0
HATCH
  5
18A
330
1F
100
AcDbEntity
  8
ITS
 62
    43
420
 15510365
100
AcDbHatch
 10
0.0
 20
0.0
 30
0.0
210
0.0
220
0.0
230
1.0
  2
SOLID
 70
     1
 71
     0
 91
        1
 92
        1
 93
        1
 72
     4
 94
        3
 73
     0
 74
     1
 95
       14
 96
       10
 40
0.0
 40
0.0
 40
0.0
 40
0.0
 40
1.0
 40
1.0
 40
1.0
 40
2.0
 40
2.0
 40
2.0
 40
3.0
 40
3.0
 40
3.0
 40
3.0
 10
4.740152777777767
 20
5.432644307204302
 10
4.739854046927879
 20
5.427327640671946
 10
4.717041666666672
 20
5.434692918263661
 10
4.717041666666672
 20
5.434692918263661
 10
4.717041666666672
 20
5.434692918263661
 10
4.730481824942419
 20
5.454209584437295
 10
4.732490158225017
 20
5.453734584449294
 10
4.732490158225017
 20
5.453734584449294
 10
4.740423491357938
 20
5.437988751513735
 10
4.740152777777767
 20
5.432644307204302
 97
        0
 97
        0
 75
     2
 76
     1
 98
        0
  0
SPLINE
  5
18B
330
1F
100
AcDbEntity
  8
ITS
370
     0
100
AcDbSpline
210
0.0
220
0.0
230
1.0
 70
    11
 71
     3
 72
    14
 73
    10
 74
     0
 42
0.0000000001
 43
0.0000000001
 12
1.0
 22
0.0
 32
0.0
 13
1.0
 23
0.0
 33
0.0
 40
0.0
 40
0.0
 40
0.0
 40
0.0
 40
1.0
 40
1.0
 40
1.0
 40
2.0
 40
2.0
 40
2.0
 40
3.0
 40
3.0
 40
3.0
 40
3.0
 10
4.340006834806647
 20
6.48826789164813
 30
0.0
 10
4.342799890291644
 20
6.480705391839162
 30
0.0
 10
4.353881834456135
 20
6.486435947249952
 30
0.0
 10
4.351779056731478
 20
6.491712336005561
 30
0.0
 10
4.348511001258481
 20
6.499931780242352
 30
0.0
 10
4.33950405704157
 20
6.503363724600098
 30
0.0
 10
4.33950405704157
 20
6.503363724600098
 30
0.0
 10
4.33950405704157
 20
6.503363724600098
 30
0.0
 10
4.337212390432796
 20
6.495842891456757
 30
0.0
 10
4.340006834806647
 20
6.48826789164813
 30
0.0
  0
HATCH
  5
18C
330
1F
100
AcDbEntity
  8
ITS
 62
    43
420
 15510365
100
AcDbHatch
 10
0.0
 20
0.0
 30
0.0
210
0.0
220
0.0
230
1.0
  2
SOLID
 70
     1
 71
     0
 91
        1
 92
        1
 93
        1
 72
     4
 94
        3
 73
     0
 74
     1
 95
       14
 96
       10
 40
0.0
 40
0.0
 40
0.0
 40
0.0
 40
1.0
 40
1.0
 40
1.0
 40
2.0
 40
2.0
 40
2.0
 40
3.0
 40
3.0
 40
3.0
 40
3.0
 10
4.340006834806647
 20
6.48826789164813
 10
4.342799890291644
 20
6.480705391839162
 10
4.353881834456135
 20
6.486435947249952
 10
4.351779056731478
 20
6.491712336005561
 10
4.348511001258481
 20
6.499931780242352
 10
4.33950405704157
 20
6.503363724600098
 10
4.33950405704157
 20
6.503363724600098
 10
4.33950405704157
 20
6.503363724600098
 10
4.337212390432796
 20
6.495842891456757
 10
4.340006834806647
 20
6.48826789164813
 97
        0
 97
        0
 75
     2
 76
     1
 98
        0
  0
SPLINE
  5
18D
330
1F
100
AcDbEntity
  8
ITS
370
     0
100
AcDbSpline
210
0.0
220
0.0
230
1.0
 70
    11
 71
     3
 72
    17
 73
    13
 74
     0
 42
0.0000000001
 43
0.0000000001
 12
1.0
 22
0.0
 32
0.0
 13
1.0
 23
0.0
 33
0.0
 40
0.0
 40
0.0
 40
0.0
 40
0.0
 40
1.0
 40
1.0
 40
1.0
 40
2.0
 40
2.0
 40
2.0
 40
3.0
 40
3.0
 40
3.0
 40
4.0
 40
4.0
 40
4.0
 40
4.0
 10
4.771823490564707
 20
6.351997061757275
 30
0.0
 10
4.774617934938558
 20
6.344415117504367
 30
0.0
 10
4.781480434765196
 20
6.342284562002633
 30
0.0
 10
4.781480434765196
 20
6.342284562002633
 30
0.0
 10
4.781480434765196
 20
6.342284562002633
 30
0.0
 10
4.785726267991271
 20
6.350151228470572
 30
0.0
 10
4.783595712489538
 20
6.355420672781898
 30
0.0
 10
4.780341545905078
 20
6.363647061462971
 30
0.0
 10
4.771322101688484
 20
6.367079005820718
 30
0.0
 10
4.771322101688484
 20
6.367079005820718
 30
0.0
 10
4.771322101688484
 20
6.367079005820718
 30
0.0
 10
4.769029046190856
 20
6.359558172677376
 30
0.0
 10
4.771823490564707
 20
6.351997061757275
 30
0.0
  0
HATCH
  5
18E
330
1F
100
AcDbEntity
  8
ITS
 62
    43
420
 15510365
100
AcDbHatch
 10
0.0
 20
0.0
 30
0.0
210
0.0
220
0.0
230
1.0
  2
SOLID
 70
     1
 71
     0
 91
        1
 92
        1
 93
        1
 72
     4
 94
        3
 73
     0
 74
     1
 95
       17
 96
       13
 40
0.0
 40
0.0
 40
0.0
 40
0.0
 40
1.0
 40
1.0
 40
1.0
 40
2.0
 40
2.0
 40
2.0
 40
3.0
 40
3.0
 40
3.0
 40
4.0
 40
4.0
 40
4.0
 40
4.0
 10
4.771823490564707
 20
6.351997061757275
 10
4.774617934938558
 20
6.344415117504367
 10
4.781480434765196
 20
6.342284562002633
 10
4.781480434765196
 20
6.342284562002633
 10
4.781480434765196
 20
6.342284562002633
 10
4.785726267991271
 20
6.350151228470572
 10
4.783595712489538
 20
6.355420672781898
 10
4.780341545905078
 20
6.363647061462971
 10
4.771322101688484
 20
6.367079005820718
 10
4.771322101688484
 20
6.367079005820718
 10
4.771322101688484
 20
6.367079005820718
 10
4.769029046190856
 20
6.359558172677376
 10
4.771823490564707
 20
6.351997061757275
 97
        0
 97
        0
 75
     2
 76
     1
 98
        0
  0
SPLINE
  5
18F
330
1F
100
AcDbEntity
  8
ITS
370
     0
100
AcDbSpline
210
0.0
220
0.0
230
1.0
 70
    11
 71
     3
 72
    17
 73
    13
 74
     0
 42
0.0000000001
 43
0.0000000001
 12
1.0
 22
0.0
 32
0.0
 13
1.0
 23
0.0
 33
0.0
 40
0.0
 40
0.0
 40
0.0
 40
0.0
 40
1.0
 40
1.0
 40
1.0
 40
2.0
 40
2.0
 40
2.0
 40
3.0
 40
3.0
 40
3.0
 40
4.0
 40
4.0
 40
4.0
 40
4.0
 10
4.681517937290462
 20
5.786309576047743
 30
0.0
 10
4.669256826489092
 20
5.788295687108681
 30
0.0
 10
4.659315160073573
 20
5.775533187431089
 30
0.0
 10
4.659315160073573
 20
5.759501243391658
 30
0.0
 10
4.659315160073573
 20
5.743469299352202
 30
0.0
 10
4.665473493251334
 20
5.728630410838175
 30
0.0
 10
4.681517937290462
 20
5.726880410882384
 30
0.0
 10
4.697048492453683
 20
5.725192910925013
 30
0.0
 10
4.703708333333325
 20
5.736287355089189
 30
0.0
 10
4.703708333333325
 20
5.752319444444449
 30
0.0
 10
4.703708333333325
 20
5.768351243168088
 30
0.0
 10
4.693792936980369
 20
5.784329020542221
 30
0.0
 10
4.681517937290462
 20
5.786309576047743
 30
0.0
  0
HATCH
  5
190
330
1F
100
AcDbEntity
  8
ITS
 62
    43
420
 15510365
100
AcDbHatch
 10
0.0
 20
0.0
 30
0.0
210
0.0
220
0.0
230
1.0
  2
SOLID
 70
     1
 71
     0
 91
        1
 92
        1
 93
        1
 72
     4
 94
        3
 73
     0
 74
     1
 95
       17
 96
       13
 40
0.0
 40
0.0
 40
0.0
 40
0.0
 40
1.0
 40
1.0
 40
1.0
 40
2.0
 40
2.0
 40
2.0
 40
3.0
 40
3.0
 40
3.0
 40
4.0
 40
4.0
 40
4.0
 40
4.0
 10
4.681517937290462
 20
5.786309576047743
 10
4.669256826489092
 20
5.788295687108681
 10
4.659315160073573
 20
5.775533187431089
 10
4.659315160073573
 20
5.759501243391658
 10
4.659315160073573
 20
5.743469299352202
 10
4.665473493251334
 20
5.728630410838175
 10
4.681517937290462
 20
5.726880410882384
 10
4.697048492453683
 20
5.725192910925013
 10
4.703708333333325
 20
5.736287355089189
 10
4.703708333333325
 20
5.752319444444449
 10
4.703708333333325
 20
5.768351243168088
 10
4.693792936980369
 20
5.784329020542221
 10
4.681517937290462
 20
5.786309576047743
 97
        0
 97
        0
 75
     2
 76
     1
 98
        0
  0
POLYLINE
  5
191
330
1F
100
AcDbEntity
  8
ITS
 62
   250
420
  2301728
370
     9
100
AcDb2dPolyline
 66
     1
 10
0.0
 20
0.0
 30
0.0
  0
VERTEX
  5
192
330
191
100
AcDbEntity
  8
ITS
 62
   250
420
  2301728
370
     9
100
AcDbVertex
100
AcDb2dVertex
 10
4.63182210521255
 20
6.339035950973589
 30
0.0
  0
VERTEX
  5
193
330
191
100
AcDbEntity
  8
ITS
 62
   250
420
  2301728
370
     9
100
AcDbVertex
100
AcDb2dVertex
 10
4.672065159751481
 20
6.354587339469617
 30
0.0
  0
SEQEND
  5
194
330
191
100
AcDbEntity
  8
ITS
 62
   250
420
  2301728
370
     9
  0
SPLINE
  5
195
330
1F
100
AcDbEntity
  8
ITS
 62
   250
420
  2301728
370
     9
100
AcDbSpline
210
0.0
220
0.0
230
1.0
 70
     8
 71
     3
 72
    17
 73
    13
 74
     0
 42
0.0000000001
 43
0.0000000001
 12
1.0
 22
0.0
 32
0.0
 13
1.0
 23
0.0
 33
0.0
 40
0.0
 40
0.0
 40
0.0
 40
0.0
 40
1.0
 40
1.0
 40
1.0
 40
2.0
 40
2.0
 40
2.0
 40
3.0
 40
3.0
 40
3.0
 40
4.0
 40
4.0
 40
4.0
 40
4.0
 10
4.6351457162397
 20
6.101155401427402
 30
0.0
 10
4.641547104966876
 20
6.105258179101535
 30
0.0
 10
4.645847222222224
 20
6.10253873472579
 30
0.0
 10
4.645847222222224
 20
6.096116512665806
 30
0.0
 10
4.645847222222224
 20
6.089687346161554
 30
0.0
 10
4.646172104850039
 20
6.077459568692675
 30
0.0
 10
4.646172104850039
 20
6.073629013233888
 30
0.0
 10
4.646172104850039
 20
6.06556512454871
 30
0.0
 10
4.641234604974771
 20
6.063408180158754
 30
0.0
 10
4.637722222222211
 20
6.066894291181799
 30
0.0
 10
4.636081827327163
 20
6.068515124474199
 30
0.0
 10
4.634630438474939
 20
6.069945679993617
 30
0.0
 10
4.633355438507149
 20
6.071267902182424
 30
0.0
  0
SPLINE
  5
196
330
1F
100
AcDbEntity
  8
ITS
 62
   250
420
  2301728
370
    18
100
AcDbSpline
210
0.0
220
0.0
230
1.0
 70
    11
 71
     3
 72
    26
 73
    22
 74
     0
 42
0.0000000001
 43
0.0000000001
 12
1.0
 22
0.0
 32
0.0
 13
1.0
 23
0.0
 33
0.0
 40
0.0
 40
0.0
 40
0.0
 40
0.0
 40
1.0
 40
1.0
 40
1.0
 40
2.0
 40
2.0
 40
2.0
 40
3.0
 40
3.0
 40
3.0
 40
4.0
 40
4.0
 40
4.0
 40
5.0
 40
5.0
 40
5.0
 40
6.0
 40
6.0
 40
6.0
 40
7.0
 40
7.0
 40
7.0
 40
7.0
 10
4.623291666666672
 20
6.090433179476046
 30
0.0
 10
4.620754049936598
 20
6.08797222222222
 30
0.0
 10
4.621351272143733
 20
6.084690124065572
 30
0.0
 10
4.625202660935328
 20
6.080545679725825
 30
0.0
 10
4.628092938640091
 20
6.077426235360185
 30
0.0
 10
4.630642938575672
 20
6.074565124321351
 30
0.0
 10
4.634602660697864
 20
6.070529013312213
 30
0.0
 10
4.636148493992146
 20
6.071919291054857
 30
0.0
 10
4.637192938410205
 20
6.074327624327351
 30
0.0
 10
4.637192938410205
 20
6.077901235348185
 30
0.0
 10
4.637192938410205
 20
6.08174567969551
 30
0.0
 10
4.636881827306953
 20
6.093987346052927
 30
0.0
 10
4.636881827306953
 20
6.100395679224372
 30
0.0
 10
4.636881827306953
 20
6.100863734768104
 30
0.0
 10
4.63684016064134
 20
6.101230401425507
 30
0.0
 10
4.63679988286458
 20
6.101670679192162
 30
0.0
 10
4.636651271757223
 20
6.101583333333338
 30
0.0
 10
4.63655555555556
 20
6.101562345861566
 30
0.0
 10
4.636433216207175
 20
6.101487345863461
 30
0.0
 10
4.633626271833641
 20
6.0996706792427
 30
0.0
 10
4.625854049807761
 20
6.092929012746329
 30
0.0
 10
4.623291666666672
 20
6.090433179476046
 30
0.0
  0
SPLINE
  5
197
330
1F
100
AcDbEntity
  8
ITS
 62
   250
420
  2301728
370
     9
100
AcDbSpline
210
0.0
220
0.0
230
1.0
 70
     8
 71
     3
 72
    17
 73
    13
 74
     0
 42
0.0000000001
 43
0.0000000001
 12
1.0
 22
0.0
 32
0.0
 13
1.0
 23
0.0
 33
0.0
 40
0.0
 40
0.0
 40
0.0
 40
0.0
 40
1.0
 40
1.0
 40
1.0
 40
2.0
 40
2.0
 40
2.0
 40
3.0
 40
3.0
 40
3.0
 40
4.0
 40
4.0
 40
4.0
 40
4.0
 10
4.74080404690388
 20
5.431992918331868
 30
0.0
 10
4.744466546811357
 20
5.423055555555544
 30
0.0
 10
4.741780435768103
 20
5.41788736313265
 30
0.0
 10
4.736694444444437
 20
5.419026251992768
 30
0.0
 10
4.73162210269139
 20
5.420152777777781
 30
0.0
 10
4.724080436215242
 20
5.421183196382723
 30
0.0
 10
4.721029047403438
 20
5.421847222222216
 30
0.0
 10
4.714654047564484
 20
5.423312362995603
 30
0.0
 10
4.712226269848037
 20
5.430745696141154
 30
0.0
 10
4.714762380895081
 20
5.434651251598047
 30
0.0
 10
4.715929047532275
 20
5.436441529330598
 30
0.0
 10
4.71721654749975
 20
5.437879029294284
 30
0.0
 10
4.718316547471962
 20
5.439005418154718
 30
0.0
  0
SPLINE
  5
198
330
1F
100
AcDbEntity
  8
ITS
 62
   250
420
  2301728
370
    18
100
AcDbSpline
210
0.0
220
0.0
230
1.0
 70
    11
 71
     3
 72
    26
 73
    22
 74
     0
 42
0.0000000001
 43
0.0000000001
 12
1.0
 22
0.0
 32
0.0
 13
1.0
 23
0.0
 33
0.0
 40
0.0
 40
0.0
 40
0.0
 40
0.0
 40
1.0
 40
1.0
 40
1.0
 40
2.0
 40
2.0
 40
2.0
 40
3.0
 40
3.0
 40
3.0
 40
4.0
 40
4.0
 40
4.0
 40
5.0
 40
5.0
 40
5.0
 40
6.0
 40
6.0
 40
6.0
 40
7.0
 40
7.0
 40
7.0
 40
7.0
 10
4.735148491491196
 20
5.450710973414567
 30
0.0
 10
4.733045713766538
 20
5.454427639987342
 30
0.0
 10
4.72919444444445
 20
5.451320695621385
 30
0.0
 10
4.726155436162824
 20
5.447130417949463
 30
0.0
 10
4.72390404733081
 20
5.443983195806746
 30
0.0
 10
4.720756825188093
 20
5.441541666666656
 30
0.0
 10
4.717827658595423
 20
5.437174862645406
 30
0.0
 10
4.719020714120839
 20
5.434990140478375
 30
0.0
 10
4.7210151585149
 20
5.433213751634361
 30
0.0
 10
4.723822102888435
 20
5.432590140539004
 30
0.0
 10
4.726874999999987
 20
5.431884585001272
 30
0.0
 10
4.735052658160283
 20
5.430976251690885
 30
0.0
 10
4.740138888888901
 20
5.429835973941914
 30
0.0
 10
4.740505435800312
 20
5.429741529499855
 30
0.0
 10
4.740817935792418
 20
5.429781807276615
 30
0.0
 10
4.741129046895669
 20
5.429741529499855
 30
0.0
 10
4.741074880230371
 20
5.429931807272825
 30
0.0
 10
4.741048491342149
 20
5.430026251714884
 30
0.0
 10
4.740966546899775
 20
5.430230418376393
 30
0.0
 10
4.739352658051656
 20
5.434163751610362
 30
0.0
 10
4.737304046992297
 20
5.447008195730328
 30
0.0
 10
4.735148491491196
 20
5.450710973414567
 30
0.0
  0
SPLINE
  5
199
330
1F
100
AcDbEntity
  8
ITS
 62
   250
420
  2301728
370
     9
100
AcDbSpline
210
0.0
220
0.0
230
1.0
 70
     8
 71
     3
 72
    17
 73
    13
 74
     0
 42
0.0000000001
 43
0.0000000001
 12
1.0
 22
0.0
 32
0.0
 13
1.0
 23
0.0
 33
0.0
 40
0.0
 40
0.0
 40
0.0
 40
0.0
 40
1.0
 40
1.0
 40
1.0
 40
2.0
 40
2.0
 40
2.0
 40
3.0
 40
3.0
 40
3.0
 40
4.0
 40
4.0
 40
4.0
 40
4.0
 10
4.647080438160426
 20
5.508883194167234
 30
0.0
 10
4.653224882449649
 20
5.50442208316882
 30
0.0
 10
4.652288771362186
 20
5.499416666666662
 30
0.0
 10
4.64632210484625
 20
5.497083333333332
 30
0.0
 10
4.640312382775846
 20
5.494709583414179
 30
0.0
 10
4.629109605281074
 20
5.489908194646583
 30
0.0
 10
4.625501272038895
 20
5.488498472459974
 30
0.0
 10
4.618027777777772
 20
5.485555555555544
 30
0.0
 10
4.613715161225526
 20
5.489162361332092
 30
0.0
 10
4.61564155006575
 20
5.493720694550271
 30
0.0
 10
4.6165359944876
 20
5.495822083386074
 30
0.0
 10
4.617852661121004
 20
5.497870694445433
 30
0.0
 10
4.618611111111123
 20
5.499579027735611
 30
0.0
  0
SPLINE
  5
19A
330
1F
100
AcDbEntity
  8
ITS
 62
   250
420
  2301728
370
    18
100
AcDbSpline
210
0.0
220
0.0
230
1.0
 70
    11
 71
     3
 72
    26
 73
    22
 74
     0
 42
0.0000000001
 43
0.0000000001
 12
1.0
 22
0.0
 32
0.0
 13
1.0
 23
0.0
 33
0.0
 40
0.0
 40
0.0
 40
0.0
 40
0.0
 40
1.0
 40
1.0
 40
1.0
 40
2.0
 40
2.0
 40
2.0
 40
3.0
 40
3.0
 40
3.0
 40
4.0
 40
4.0
 40
4.0
 40
5.0
 40
5.0
 40
5.0
 40
6.0
 40
6.0
 40
6.0
 40
7.0
 40
7.0
 40
7.0
 40
7.0
 10
4.635917938442415
 20
5.522529027155845
 30
0.0
 10
4.632717938523253
 20
5.524006804896291
 30
0.0
 10
4.629855438595566
 20
5.522230416052277
 30
0.0
 10
4.627387383102359
 20
5.517090138404354
 30
0.0
 10
4.625583333333325
 20
5.51327902738952
 30
0.0
 10
4.620687383271616
 20
5.503281805419848
 30
0.0
 10
4.618380438885449
 20
5.498115138883703
 30
0.0
 10
4.620226272172153
 20
5.497219305573
 30
0.0
 10
4.622870716549793
 20
5.497111111111116
 30
0.0
 10
4.626192938688089
 20
5.498426249986955
 30
0.0
 10
4.629801271930268
 20
5.499823472173881
 30
0.0
 10
4.641017938313578
 20
5.504598472053254
 30
0.0
 10
4.646986111111119
 20
5.506944444444444
 30
0.0
 10
4.64744710481783
 20
5.507134583100297
 30
0.0
 10
4.647759604809935
 20
5.507337360872953
 30
0.0
 10
4.64815277777777
 20
5.507499999999999
 30
0.0
 10
4.648044327024965
 20
5.507622083087981
 30
0.0
 10
4.648004049248205
 20
5.50767624975328
 30
0.0
 10
4.647867938140532
 20
5.507812360860953
 30
0.0
 10
4.64512766043198
 20
5.509724860812639
 30
0.0
 10
4.639147105027505
 20
5.521063749415084
 30
0.0
 10
4.635917938442415
 20
5.522529027155845
 30
0.0
  0
SPLINE
  5
19B
330
1F
100
AcDbEntity
  8
ITS
370
     0
100
AcDbSpline
210
0.0
220
0.0
230
1.0
 70
    11
 71
     3
 72
    14
 73
    10
 74
     0
 42
0.0000000001
 43
0.0000000001
 12
1.0
 22
0.0
 32
0.0
 13
1.0
 23
0.0
 33
0.0
 40
0.0
 40
0.0
 40
0.0
 40
0.0
 40
1.0
 40
1.0
 40
1.0
 40
2.0
 40
2.0
 40
2.0
 40
3.0
 40
3.0
 40
3.0
 40
3.0
 10
4.619316549972912
 20
5.739827632777532
 30
0.0
 10
4.620252661060375
 20
5.735609577328533
 30
0.0
 10
4.646863771499233
 20
5.747951243683436
 30
0.0
 10
4.646863771499233
 20
5.747951243683436
 30
0.0
 10
4.646863771499233
 20
5.747951243683436
 30
0.0
 10
4.634806827359372
 20
5.765041666666662
 30
0.0
 10
4.632433216308224
 20
5.764091521053463
 30
0.0
 10
4.632433216308224
 20
5.764091521053463
 30
0.0
 10
4.618380438885449
 20
5.74404568822653
 30
0.0
 10
4.619316549972912
 20
5.739827632777532
 30
0.0
  0
HATCH
  5
19C
330
1F
100
AcDbEntity
  8
ITS
 62
    43
420
 15510365
100
AcDbHatch
 10
0.0
 20
0.0
 30
0.0
210
0.0
220
0.0
230
1.0
  2
SOLID
 70
     1
 71
     0
 91
        1
 92
        1
 93
        1
 72
     4
 94
        3
 73
     0
 74
     1
 95
       14
 96
       10
 40
0.0
 40
0.0
 40
0.0
 40
0.0
 40
1.0
 40
1.0
 40
1.0
 40
2.0
 40
2.0
 40
2.0
 40
3.0
 40
3.0
 40
3.0
 40
3.0
 10
4.619316549972912
 20
5.739827632777532
 10
4.620252661060375
 20
5.735609577328533
 10
4.646863771499233
 20
5.747951243683436
 10
4.646863771499233
 20
5.747951243683436
 10
4.646863771499233
 20
5.747951243683436
 10
4.634806827359372
 20
5.765041666666662
 10
4.632433216308224
 20
5.764091521053463
 10
4.632433216308224
 20
5.764091521053463
 10
4.618380438885449
 20
5.74404568822653
 10
4.619316549972912
 20
5.739827632777532
 97
        0
 97
        0
 75
     2
 76
     1
 98
        0
  0
SPLINE
  5
19D
330
1F
100
AcDbEntity
  8
ITS
 62
   250
420
  2301728
370
     9
100
AcDbSpline
210
0.0
220
0.0
230
1.0
 70
     8
 71
     3
 72
    17
 73
    13
 74
     0
 42
0.0000000001
 43
0.0000000001
 12
1.0
 22
0.0
 32
0.0
 13
1.0
 23
0.0
 33
0.0
 40
0.0
 40
0.0
 40
0.0
 40
0.0
 40
1.0
 40
1.0
 40
1.0
 40
2.0
 40
2.0
 40
2.0
 40
3.0
 40
3.0
 40
3.0
 40
4.0
 40
4.0
 40
4.0
 40
4.0
 10
4.647080438160426
 20
5.749620688085693
 30
0.0
 10
4.653224882449649
 20
5.745158188198426
 30
0.0
 10
4.652288771362186
 20
5.74015277777778
 30
0.0
 10
4.64632210484625
 20
5.737819444444439
 30
0.0
 10
4.640312382775846
 20
5.735445688443797
 30
0.0
 10
4.629109605281074
 20
5.730644299676189
 30
0.0
 10
4.625501272038895
 20
5.729234577489579
 30
0.0
 10
4.618027777777772
 20
5.726291666666662
 30
0.0
 10
4.613715161225526
 20
5.729898466361697
 30
0.0
 10
4.61564155006575
 20
5.734456799579877
 30
0.0
 10
4.6165359944876
 20
5.73655818841568
 30
0.0
 10
4.617852661121004
 20
5.738606799475039
 30
0.0
 10
4.618611111111123
 20
5.740315132765216
 30
0.0
  0
SPLINE
  5
19E
330
1F
100
AcDbEntity
  8
ITS
 62
   250
420
  2301728
370
    18
100
AcDbSpline
210
0.0
220
0.0
230
1.0
 70
    11
 71
     3
 72
    26
 73
    22
 74
     0
 42
0.0000000001
 43
0.0000000001
 12
1.0
 22
0.0
 32
0.0
 13
1.0
 23
0.0
 33
0.0
 40
0.0
 40
0.0
 40
0.0
 40
0.0
 40
1.0
 40
1.0
 40
1.0
 40
2.0
 40
2.0
 40
2.0
 40
3.0
 40
3.0
 40
3.0
 40
4.0
 40
4.0
 40
4.0
 40
5.0
 40
5.0
 40
5.0
 40
6.0
 40
6.0
 40
6.0
 40
7.0
 40
7.0
 40
7.0
 40
7.0
 10
4.635917938442415
 20
5.763265132185451
 30
0.0
 10
4.632717938523253
 20
5.764742909925896
 30
0.0
 10
4.629855438595566
 20
5.762966521081883
 30
0.0
 10
4.627387383102359
 20
5.75782624343396
 30
0.0
 10
4.625583333333325
 20
5.754015132419125
 30
0.0
 10
4.620687383271616
 20
5.744017910449454
 30
0.0
 10
4.618380438885449
 20
5.738851243913309
 30
0.0
 10
4.620226272172153
 20
5.737955410602606
 30
0.0
 10
4.622870716549793
 20
5.737847222222222
 30
0.0
 10
4.626192938688089
 20
5.73916235501656
 30
0.0
 10
4.629801271930268
 20
5.740559577203485
 30
0.0
 10
4.641017938313578
 20
5.745334577082859
 30
0.0
 10
4.646986111111119
 20
5.74768055555555
 30
0.0
 10
4.64744710481783
 20
5.747870688129902
 30
0.0
 10
4.647759604809935
 20
5.748073465902558
 30
0.0
 10
4.64815277777777
 20
5.748236111111106
 30
0.0
 10
4.648044327024965
 20
5.748358188117587
 30
0.0
 10
4.648004049248205
 20
5.748412354782886
 30
0.0
 10
4.647867938140532
 20
5.748548465890559
 30
0.0
 10
4.64512766043198
 20
5.750460965842245
 30
0.0
 10
4.639147105027505
 20
5.761799854444689
 30
0.0
 10
4.635917938442415
 20
5.763265132185451
 30
0.0
  0
SPLINE
  5
19F
330
1F
100
AcDbEntity
  8
ITS
370
     0
100
AcDbSpline
210
0.0
220
0.0
230
1.0
 70
    11
 71
     3
 72
    14
 73
    10
 74
     0
 42
0.0000000001
 43
0.0000000001
 12
1.0
 22
0.0
 32
0.0
 13
1.0
 23
0.0
 33
0.0
 40
0.0
 40
0.0
 40
0.0
 40
0.0
 40
1.0
 40
1.0
 40
1.0
 40
2.0
 40
2.0
 40
2.0
 40
3.0
 40
3.0
 40
3.0
 40
3.0
 10
4.619316549972912
 20
5.623345691275668
 30
0.0
 10
4.620252661060375
 20
5.619126246937816
 30
0.0
 10
4.646863771499233
 20
5.63146930218156
 30
0.0
 10
4.646863771499233
 20
5.63146930218156
 30
0.0
 10
4.646863771499233
 20
5.63146930218156
 30
0.0
 10
4.634806827359372
 20
5.648559579527601
 30
0.0
 10
4.632433216308224
 20
5.6476095795516
 30
0.0
 10
4.632433216308224
 20
5.6476095795516
 30
0.0
 10
4.618380438885449
 20
5.627563746724667
 30
0.0
 10
4.619316549972912
 20
5.623345691275668
 30
0.0
  0
HATCH
  5
1A0
330
1F
100
AcDbEntity
  8
ITS
 62
    43
420
 15510365
100
AcDbHatch
 10
0.0
 20
0.0
 30
0.0
210
0.0
220
0.0
230
1.0
  2
SOLID
 70
     1
 71
     0
 91
        1
 92
        1
 93
        1
 72
     4
 94
        3
 73
     0
 74
     1
 95
       14
 96
       10
 40
0.0
 40
0.0
 40
0.0
 40
0.0
 40
1.0
 40
1.0
 40
1.0
 40
2.0
 40
2.0
 40
2.0
 40
3.0
 40
3.0
 40
3.0
 40
3.0
 10
4.619316549972912
 20
5.623345691275668
 10
4.620252661060375
 20
5.619126246937816
 10
4.646863771499233
 20
5.63146930218156
 10
4.646863771499233
 20
5.63146930218156
 10
4.646863771499233
 20
5.63146930218156
 10
4.634806827359372
 20
5.648559579527601
 10
4.632433216308224
 20
5.6476095795516
 10
4.632433216308224
 20
5.6476095795516
 10
4.618380438885449
 20
5.627563746724667
 10
4.619316549972912
 20
5.623345691275668
 97
        0
 97
        0
 75
     2
 76
     1
 98
        0
  0
SPLINE
  5
1A1
330
1F
100
AcDbEntity
  8
ITS
 62
   250
420
  2301728
370
     9
100
AcDbSpline
210
0.0
220
0.0
230
1.0
 70
     8
 71
     3
 72
    17
 73
    13
 74
     0
 42
0.0000000001
 43
0.0000000001
 12
1.0
 22
0.0
 32
0.0
 13
1.0
 23
0.0
 33
0.0
 40
0.0
 40
0.0
 40
0.0
 40
0.0
 40
1.0
 40
1.0
 40
1.0
 40
2.0
 40
2.0
 40
2.0
 40
3.0
 40
3.0
 40
3.0
 40
4.0
 40
4.0
 40
4.0
 40
4.0
 10
4.647080438160426
 20
5.633137357694977
 30
0.0
 10
4.653224882449649
 20
5.628674857807709
 30
0.0
 10
4.652288771362186
 20
5.623670691267458
 30
0.0
 10
4.64632210484625
 20
5.62133735799307
 30
0.0
 10
4.640312382775846
 20
5.618963746941922
 30
0.0
 10
4.629109605281074
 20
5.614162358174339
 30
0.0
 10
4.625501272038895
 20
5.612752635987716
 30
0.0
 10
4.618027777777772
 20
5.609809580506508
 30
0.0
 10
4.613715161225526
 20
5.613416666666668
 30
0.0
 10
4.61564155006575
 20
5.617973469189161
 30
0.0
 10
4.6165359944876
 20
5.620076246913817
 30
0.0
 10
4.617852661121004
 20
5.622124999999995
 30
0.0
 10
4.618611111111123
 20
5.623833333333335
 30
0.0
  0
SPLINE
  5
1A2
330
1F
100
AcDbEntity
  8
ITS
 62
   250
420
  2301728
370
    18
100
AcDbSpline
210
0.0
220
0.0
230
1.0
 70
    11
 71
     3
 72
    26
 73
    22
 74
     0
 42
0.0000000001
 43
0.0000000001
 12
1.0
 22
0.0
 32
0.0
 13
1.0
 23
0.0
 33
0.0
 40
0.0
 40
0.0
 40
0.0
 40
0.0
 40
1.0
 40
1.0
 40
1.0
 40
2.0
 40
2.0
 40
2.0
 40
3.0
 40
3.0
 40
3.0
 40
4.0
 40
4.0
 40
4.0
 40
5.0
 40
5.0
 40
5.0
 40
6.0
 40
6.0
 40
6.0
 40
7.0
 40
7.0
 40
7.0
 40
7.0
 10
4.635917938442415
 20
5.646783190683587
 30
0.0
 10
4.632717938523253
 20
5.648260968424034
 30
0.0
 10
4.629855438595566
 20
5.64648457958002
 30
0.0
 10
4.627387383102359
 20
5.641344301932096
 30
0.0
 10
4.625583333333325
 20
5.637531802028408
 30
0.0
 10
4.620687383271616
 20
5.627535968947591
 30
0.0
 10
4.618380438885449
 20
5.622367913522591
 30
0.0
 10
4.620226272172153
 20
5.621473469100756
 30
0.0
 10
4.622870716549793
 20
5.621365135770146
 30
0.0
 10
4.626192938688089
 20
5.62268055555555
 30
0.0
 10
4.629801271930268
 20
5.624077635701623
 30
0.0
 10
4.641017938313578
 20
5.628851246692142
 30
0.0
 10
4.646986111111119
 20
5.631198468855069
 30
0.0
 10
4.64744710481783
 20
5.631388888888889
 30
0.0
 10
4.647759604809935
 20
5.631591524400695
 30
0.0
 10
4.64815277777777
 20
5.631754024396602
 30
0.0
 10
4.648044327024965
 20
5.631876246615724
 30
0.0
 10
4.648004049248205
 20
5.631930555555552
 30
0.0
 10
4.647867938140532
 20
5.632066524388695
 30
0.0
 10
4.64512766043198
 20
5.633979024340394
 30
0.0
 10
4.639147105027505
 20
5.645317912942838
 30
0.0
 10
4.635917938442415
 20
5.646783190683587
 30
0.0
  0
SPLINE
  5
1A3
330
1F
100
AcDbEntity
  8
ITS
 62
   250
420
  2301728
370
    13
100
AcDbSpline
210
0.0
220
0.0
230
1.0
 70
     8
 71
     3
 72
    11
 73
     7
 74
     0
 42
0.0000000001
 43
0.0000000001
 12
1.0
 22
0.0
 32
0.0
 13
1.0
 23
0.0
 33
0.0
 40
0.0
 40
0.0
 40
0.0
 40
0.0
 40
1.0
 40
1.0
 40
1.0
 40
2.0
 40
2.0
 40
2.0
 40
2.0
 10
4.492797108724617
 20
4.913140153661415
 30
0.0
 10
4.492797108724617
 20
4.913140153661415
 30
0.0
 10
4.503227664016675
 20
4.908772098216205
 30
0.0
 10
4.503227664016675
 20
4.908772098216205
 30
0.0
 10
4.503227664016675
 20
4.908772098216205
 30
0.0
 10
4.519219330279358
 20
4.90549015385467
 30
0.0
 10
4.510294330504823
 20
4.891817931977837
 30
0.0
  0
SPLINE
  5
1A4
330
1F
100
AcDbEntity
  8
ITS
 62
   250
420
  2301728
370
    18
100
AcDbSpline
210
0.0
220
0.0
230
1.0
 70
     8
 71
     3
 72
    26
 73
    22
 74
     0
 42
0.0000000001
 43
0.0000000001
 12
1.0
 22
0.0
 32
0.0
 13
1.0
 23
0.0
 33
0.0
 40
0.0
 40
0.0
 40
0.0
 40
0.0
 40
1.0
 40
1.0
 40
1.0
 40
2.0
 40
2.0
 40
2.0
 40
3.0
 40
3.0
 40
3.0
 40
4.0
 40
4.0
 40
4.0
 40
5.0
 40
5.0
 40
5.0
 40
6.0
 40
6.0
 40
6.0
 40
7.0
 40
7.0
 40
7.0
 40
7.0
 10
5.046820705839915
 20
6.471170669857807
 30
0.0
 10
5.046820705839915
 20
6.471170669857807
 30
0.0
 10
4.949774874958166
 20
6.44214567059104
 30
0.0
 10
4.938354041913347
 20
6.438285948466323
 30
0.0
 10
4.929144319923782
 20
6.435166666666671
 30
0.0
 10
4.879719321172362
 20
6.375658172270656
 30
0.0
 10
4.861341543858846
 20
6.353258172836528
 30
0.0
 10
4.858073488385849
 20
6.349609561817588
 30
0.0
 10
4.856987377302175
 20
6.347222222222221
 30
0.0
 10
4.855469321784969
 20
6.342448450887382
 30
0.0
 10
4.854180555555558
 20
6.338385950990009
 30
0.0
 10
4.85446515514367
 20
6.331319444444438
 30
0.0
 10
4.85446515514367
 20
6.331319444444438
 30
0.0
 10
4.85446515514367
 20
6.331319444444438
 30
0.0
 10
4.854044321820967
 20
5.522724860484232
 30
0.0
 10
4.854044321820967
 20
5.522724860484232
 30
0.0
 10
4.854044321820967
 20
5.522724860484232
 30
0.0
 10
4.683512381684523
 20
5.247626256322696
 30
0.0
 10
4.683512381684523
 20
5.247626256322696
 30
0.0
 10
4.683512381684523
 20
5.247626256322696
 30
0.0
 10
4.683512381684523
 20
5.213487368296228
 30
0.0
 10
4.683512381684523
 20
5.213487368296228
 30
0.0
  0
SPLINE
  5
1A5
330
1F
100
AcDbEntity
  8
ITS
 62
   250
420
  2301728
370
    18
100
AcDbSpline
210
0.0
220
0.0
230
1.0
 70
     8
 71
     3
 72
     8
 73
     4
 74
     0
 42
0.0000000001
 43
0.0000000001
 12
1.0
 22
0.0
 32
0.0
 13
1.0
 23
0.0
 33
0.0
 40
0.0
 40
0.0
 40
0.0
 40
0.0
 40
1.0
 40
1.0
 40
1.0
 40
1.0
 10
4.504679052868899
 20
4.90932904264658
 30
0.0
 10
4.488701275494754
 20
4.915459598047264
 30
0.0
 10
4.482109608994606
 20
4.905856820512073
 30
0.0
 10
4.482109608994606
 20
4.905856820512073
 30
0.0
  0
POLYLINE
  5
1A6
330
1F
100
AcDbEntity
  8
ITS
 62
   250
420
  2301728
370
     9
100
AcDb2dPolyline
 66
     1
 10
0.0
 20
0.0
 30
0.0
  0
VERTEX
  5
1A7
330
1A6
100
AcDbEntity
  8
ITS
 62
   250
420
  2301728
370
     9
100
AcDbVertex
100
AcDb2dVertex
 10
4.681694444444449
 20
6.453260948088023
 30
0.0
  0
VERTEX
  5
1A8
330
1A6
100
AcDbEntity
  8
ITS
 62
   250
420
  2301728
370
     9
100
AcDbVertex
100
AcDb2dVertex
 10
4.681694444444449
 20
6.432263888888883
 30
0.0
  0
SEQEND
  5
1A9
330
1A6
100
AcDbEntity
  8
ITS
 62
   250
420
  2301728
370
     9
  0
POLYLINE
  5
1AA
330
1F
100
AcDbEntity
  8
ITS
 62
   250
420
  2301728
370
     9
100
AcDb2dPolyline
 66
     1
 10
0.0
 20
0.0
 30
0.0
  0
VERTEX
  5
1AB
330
1AA
100
AcDbEntity
  8
ITS
 62
   250
420
  2301728
370
     9
100
AcDbVertex
100
AcDb2dVertex
 10
4.681694444444449
 20
5.713527777777775
 30
0.0
  0
VERTEX
  5
1AC
330
1AA
100
AcDbEntity
  8
ITS
 62
   250
420
  2301728
370
     9
100
AcDbVertex
100
AcDb2dVertex
 10
4.681694444444449
 20
5.696810967197558
 30
0.0
  0
SEQEND
  5
1AD
330
1AA
100
AcDbEntity
  8
ITS
 62
   250
420
  2301728
370
     9
  0
POLYLINE
  5
1AE
330
1F
100
AcDbEntity
  8
ITS
 62
   250
420
  2301728
370
     9
100
AcDb2dPolyline
 66
     1
 10
0.0
 20
0.0
 30
0.0
  0
VERTEX
  5
1AF
330
1AE
100
AcDbEntity
  8
ITS
 62
   250
420
  2301728
370
     9
100
AcDbVertex
100
AcDb2dVertex
 10
4.681694444444449
 20
5.688842911843292
 30
0.0
  0
VERTEX
  5
1B0
330
1AE
100
AcDbEntity
  8
ITS
 62
   250
420
  2301728
370
     9
100
AcDbVertex
100
AcDb2dVertex
 10
4.681694444444449
 20
5.302083333333333
 30
0.0
  0
SEQEND
  5
1B1
330
1AE
100
AcDbEntity
  8
ITS
 62
   250
420
  2301728
370
     9
  0
POLYLINE
  5
1B2
330
1F
100
AcDbEntity
  8
ITS
 62
   250
420
  2301728
370
     9
100
AcDb2dPolyline
 66
     1
 10
0.0
 20
0.0
 30
0.0
  0
VERTEX
  5
1B3
330
1B2
100
AcDbEntity
  8
ITS
 62
   250
420
  2301728
370
     9
100
AcDbVertex
100
AcDb2dVertex
 10
4.681694444444449
 20
6.421385948893253
 30
0.0
  0
VERTEX
  5
1B4
330
1B2
100
AcDbEntity
  8
ITS
 62
   250
420
  2301728
370
     9
100
AcDbVertex
100
AcDb2dVertex
 10
4.681694444444449
 20
5.801880408987724
 30
0.0
  0
SEQEND
  5
1B5
330
1B2
100
AcDbEntity
  8
ITS
 62
   250
420
  2301728
370
     9
  0
POLYLINE
  5
1B6
330
1F
100
AcDbEntity
  8
ITS
 62
   250
420
  2301728
370
     9
100
AcDb2dPolyline
 66
     1
 10
0.0
 20
0.0
 30
0.0
  0
VERTEX
  5
1B7
330
1B6
100
AcDbEntity
  8
ITS
 62
   250
420
  2301728
370
     9
100
AcDbVertex
100
AcDb2dVertex
 10
4.681694444444449
 20
5.289102644163803
 30
0.0
  0
VERTEX
  5
1B8
330
1B6
100
AcDbEntity
  8
ITS
 62
   250
420
  2301728
370
     9
100
AcDbVertex
100
AcDb2dVertex
 10
4.681694444444449
 20
5.27065681129645
 30
0.0
  0
SEQEND
  5
1B9
330
1B6
100
AcDbEntity
  8
ITS
 62
   250
420
  2301728
370
     9
  0
SPLINE
  5
1BA
330
1F
100
AcDbEntity
  8
ITS
 62
   250
420
  2301728
370
    18
100
AcDbSpline
210
0.0
220
0.0
230
1.0
 70
     8
 71
     3
 72
    29
 73
    25
 74
     0
 42
0.0000000001
 43
0.0000000001
 12
1.0
 22
0.0
 32
0.0
 13
1.0
 23
0.0
 33
0.0
 40
0.0
 40
0.0
 40
0.0
 40
0.0
 40
1.0
 40
1.0
 40
1.0
 40
2.0
 40
2.0
 40
2.0
 40
3.0
 40
3.0
 40
3.0
 40
4.0
 40
4.0
 40
4.0
 40
5.0
 40
5.0
 40
5.0
 40
6.0
 40
6.0
 40
6.0
 40
7.0
 40
7.0
 40
7.0
 40
8.0
 40
8.0
 40
8.0
 40
8.0
 10
4.505005441749542
 20
4.907199876033701
 30
0.0
 10
4.505005441749542
 20
4.907199876033701
 30
0.0
 10
4.506130441721123
 20
5.103204037748886
 30
0.0
 10
4.506130441721123
 20
5.103204037748886
 30
0.0
 10
4.506130441721123
 20
5.103204037748886
 30
0.0
 10
4.589748495164309
 20
5.486755416948451
 30
0.0
 10
4.589748495164309
 20
5.486755416948451
 30
0.0
 10
4.589748495164309
 20
5.486755416948451
 30
0.0
 10
4.589748495164309
 20
5.970309571399512
 30
0.0
 10
4.589748495164309
 20
6.014716514722143
 30
0.0
 10
4.589748495164309
 20
6.059109569156235
 30
0.0
 10
4.590074884044952
 20
6.029669292122182
 30
0.0
 10
4.590548495144099
 20
6.058912346938996
 30
0.0
 10
4.596490161660666
 20
6.100097222222226
 30
0.0
 10
4.609659605772422
 20
6.236402777777774
 30
0.0
 10
4.62273460544212
 20
6.338859562089156
 30
0.0
 10
4.622938772103629
 20
6.340480395381544
 30
0.0
 10
4.625895716473375
 20
6.347913728527096
 30
0.0
 10
4.628213771970372
 20
6.353888888888882
 30
0.0
 10
4.641574882743953
 20
6.38832622750619
 30
0.0
 10
4.676690159634644
 20
6.46462622557869
 30
0.0
 10
4.677381826283837
 20
6.4674609477293
 30
0.0
 10
4.677381826283837
 20
6.4674609477293
 30
0.0
 10
4.681762381728731
 20
6.482076225137866
 30
0.0
 10
4.680324881765046
 20
6.493516502626638
 30
0.0
  0
SPLINE
  5
1BB
330
1F
100
AcDbEntity
  8
ITS
 62
   250
420
  2301728
370
    18
100
AcDbSpline
210
0.0
220
0.0
230
1.0
 70
     8
 71
     3
 72
    11
 73
     7
 74
     0
 42
0.0000000001
 43
0.0000000001
 12
1.0
 22
0.0
 32
0.0
 13
1.0
 23
0.0
 33
0.0
 40
0.0
 40
0.0
 40
0.0
 40
0.0
 40
1.0
 40
1.0
 40
1.0
 40
2.0
 40
2.0
 40
2.0
 40
2.0
 10
4.637559605067609
 20
5.003892929146584
 30
0.0
 10
4.637559605067609
 20
5.003892929146584
 30
0.0
 10
4.637559605067609
 20
5.435749999999997
 30
0.0
 10
4.637559605067609
 20
5.441934584747387
 30
0.0
 10
4.637559605067609
 20
5.455742917731893
 30
0.0
 10
4.62902777777779
 20
5.461276250925443
 30
0.0
 10
4.622694444444455
 20
5.455729028843355
 30
0.0
  0
SPLINE
  5
1BC
330
1F
100
AcDbEntity
  8
ITS
 62
   250
420
  2301728
370
     9
100
AcDbSpline
210
0.0
220
0.0
230
1.0
 70
    24
 71
     3
 72
     8
 73
     4
 74
     0
 42
0.0000000001
 43
0.0000000001
 12
1.0
 22
0.0
 32
0.0
 13
1.0
 23
0.0
 33
0.0
 40
0.0
 40
0.0
 40
0.0
 40
0.0
 40
1.0
 40
1.0
 40
1.0
 40
1.0
 10
4.618815161096689
 20
5.427205418452811
 30
0.0
 10
4.618815161096689
 20
5.413085974365054
 30
0.0
 10
4.618815161096689
 20
5.007419317946389
 30
0.0
 10
4.618815161096689
 20
5.007419317946389
 30
0.0
  0
SPLINE
  5
1BD
330
1F
100
AcDbEntity
  8
ITS
 62
   250
420
  2301728
370
    18
100
AcDbSpline
210
0.0
220
0.0
230
1.0
 70
     8
 71
     3
 72
    11
 73
     7
 74
     0
 42
0.0000000001
 43
0.0000000001
 12
1.0
 22
0.0
 32
0.0
 13
1.0
 23
0.0
 33
0.0
 40
0.0
 40
0.0
 40
0.0
 40
0.0
 40
1.0
 40
1.0
 40
1.0
 40
2.0
 40
2.0
 40
2.0
 40
2.0
 10
4.581108217604802
 20
4.947523486126152
 30
0.0
 10
4.581108217604802
 20
4.947523486126152
 30
0.0
 10
4.581108217604802
 20
5.262451255948185
 30
0.0
 10
4.581108217604802
 20
5.268635978014168
 30
0.0
 10
4.581108217604802
 20
5.282442922109819
 30
0.0
 10
4.572577662264747
 20
5.287977644192223
 30
0.0
 10
4.566242940202553
 20
5.282430555555544
 30
0.0
  0
SPLINE
  5
1BE
330
1F
100
AcDbEntity
  8
ITS
 62
   250
420
  2301728
370
     9
100
AcDbSpline
210
0.0
220
0.0
230
1.0
 70
    24
 71
     3
 72
     8
 73
     4
 74
     0
 42
0.0000000001
 43
0.0000000001
 12
1.0
 22
0.0
 32
0.0
 13
1.0
 23
0.0
 33
0.0
 40
0.0
 40
0.0
 40
0.0
 40
0.0
 40
1.0
 40
1.0
 40
1.0
 40
1.0
 10
4.562363773633883
 20
5.253906811719591
 30
0.0
 10
4.562363773633883
 20
5.23978597874298
 30
0.0
 10
4.562363773633883
 20
4.964938763463983
 30
0.0
 10
4.562363773633883
 20
4.964938763463983
 30
0.0
  0
SPLINE
  5
1BF
330
1F
100
AcDbEntity
  8
ITS
 62
   250
420
  2301728
370
     9
100
AcDbSpline
210
0.0
220
0.0
230
1.0
 70
     8
 71
     3
 72
     8
 73
     4
 74
     0
 42
0.0000000001
 43
0.0000000001
 12
1.0
 22
0.0
 32
0.0
 13
1.0
 23
0.0
 33
0.0
 40
0.0
 40
0.0
 40
0.0
 40
0.0
 40
1.0
 40
1.0
 40
1.0
 40
1.0
 10
4.615152777777767
 20
4.984659596299125
 30
0.0
 10
4.615152777777767
 20
4.984659596299125
 30
0.0
 10
4.618408216662525
 20
4.988077651768334
 30
0.0
 10
4.618137383336034
 20
4.996269318228062
 30
0.0
  0
SPLINE
  5
1C0
330
1F
100
AcDbEntity
  8
ITS
 62
   250
420
  2301728
370
     9
100
AcDbSpline
210
0.0
220
0.0
230
1.0
 70
     8
 71
     3
 72
     8
 73
     4
 74
     0
 42
0.0000000001
 43
0.0000000001
 12
1.0
 22
0.0
 32
0.0
 13
1.0
 23
0.0
 33
0.0
 40
0.0
 40
0.0
 40
0.0
 40
0.0
 40
1.0
 40
1.0
 40
1.0
 40
1.0
 10
4.561224884773765
 20
4.936699875288468
 30
0.0
 10
4.561224884773765
 20
4.936699875288468
 30
0.0
 10
4.564480440247078
 20
4.940144319645898
 30
0.0
 10
4.564195718032048
 20
4.94833737499448
 30
0.0
  0
SPLINE
  5
1C1
330
1F
100
AcDbEntity
  8
ITS
 62
   250
420
  2301728
370
    18
100
AcDbSpline
210
0.0
220
0.0
230
1.0
 70
     8
 71
     3
 72
    11
 73
     7
 74
     0
 42
0.0000000001
 43
0.0000000001
 12
1.0
 22
0.0
 32
0.0
 13
1.0
 23
0.0
 33
0.0
 40
0.0
 40
0.0
 40
0.0
 40
0.0
 40
1.0
 40
1.0
 40
1.0
 40
2.0
 40
2.0
 40
2.0
 40
2.0
 10
4.712890158720155
 20
6.457804003528811
 30
0.0
 10
4.712890158720155
 20
6.457804003528811
 30
0.0
 10
4.712890158720155
 20
6.429972222222217
 30
0.0
 10
4.712890158720155
 20
6.423801226610016
 30
0.0
 10
4.712890158720155
 20
6.40999289362551
 30
0.0
 10
4.726806825035257
 20
6.401881782719303
 30
0.0
 10
4.733805555555565
 20
6.406819444444446
 30
0.0
  0
SPLINE
  5
1C2
330
1F
100
AcDbEntity
  8
ITS
 62
   250
420
  2301728
370
     9
100
AcDbSpline
210
0.0
220
0.0
230
1.0
 70
    24
 71
     3
 72
     8
 73
     4
 74
     0
 42
0.0000000001
 43
0.0000000001
 12
1.0
 22
0.0
 32
0.0
 13
1.0
 23
0.0
 33
0.0
 40
0.0
 40
0.0
 40
0.0
 40
0.0
 40
1.0
 40
1.0
 40
1.0
 40
1.0
 10
4.738809602509819
 20
6.417270671219436
 30
0.0
 10
4.738809602509819
 20
6.431395670862608
 30
0.0
 10
4.738809602509819
 20
6.452236111111106
 30
0.0
 10
4.738809602509819
 20
6.452236111111106
 30
0.0
  0
SPLINE
  5
1C3
330
1F
100
AcDbEntity
  8
ITS
 62
   250
420
  2301728
370
     9
100
AcDbSpline
210
0.0
220
0.0
230
1.0
 70
     8
 71
     3
 72
     8
 73
     4
 74
     0
 42
0.0000000001
 43
0.0000000001
 12
1.0
 22
0.0
 32
0.0
 13
1.0
 23
0.0
 33
0.0
 40
0.0
 40
0.0
 40
0.0
 40
0.0
 40
1.0
 40
1.0
 40
1.0
 40
1.0
 10
4.747477657846401
 20
6.479430555555559
 30
0.0
 10
4.747477657846401
 20
6.479430555555559
 30
0.0
 10
4.739176269167223
 20
6.478495669672762
 30
0.0
 10
4.739569444444442
 20
6.466117892207674
 30
0.0
  0
SPLINE
  5
1C4
330
1F
100
AcDbEntity
  8
ITS
 62
   250
420
  2301728
370
    13
100
AcDbSpline
210
0.0
220
0.0
230
1.0
 70
    11
 71
     3
 72
    17
 73
    13
 74
     0
 42
0.0000000001
 43
0.0000000001
 12
1.0
 22
0.0
 32
0.0
 13
1.0
 23
0.0
 33
0.0
 40
0.0
 40
0.0
 40
0.0
 40
0.0
 40
1.0
 40
1.0
 40
1.0
 40
2.0
 40
2.0
 40
2.0
 40
3.0
 40
3.0
 40
3.0
 40
4.0
 40
4.0
 40
4.0
 40
4.0
 10
4.703898492280637
 20
5.748073465902558
 30
0.0
 10
4.703898492280637
 20
5.731730410759862
 30
0.0
 10
4.694322103633668
 20
5.725266522034265
 30
0.0
 10
4.681124999999989
 20
5.727397077535998
 30
0.0
 10
4.667927659856003
 20
5.729533188593146
 30
0.0
 10
4.66061793781844
 20
5.739413743899099
 30
0.0
 10
4.66061793781844
 20
5.755770687930331
 30
0.0
 10
4.66061793781844
 20
5.772108187517611
 30
0.0
 10
4.667927659856003
 20
5.788737353764191
 30
0.0
 10
4.681124999999989
 20
5.786606798262457
 30
0.0
 10
4.694322103633668
 20
5.784470687205308
 30
0.0
 10
4.703898492280637
 20
5.764431798822645
 30
0.0
 10
4.703898492280637
 20
5.748073465902558
 30
0.0
  0
SPLINE
  5
1C5
330
1F
100
AcDbEntity
  8
ITS
 62
   250
420
  2301728
370
     9
100
AcDbSpline
210
0.0
220
0.0
230
1.0
 70
     8
 71
     3
 72
     8
 73
     4
 74
     0
 42
0.0000000001
 43
0.0000000001
 12
1.0
 22
0.0
 32
0.0
 13
1.0
 23
0.0
 33
0.0
 40
0.0
 40
0.0
 40
0.0
 40
0.0
 40
1.0
 40
1.0
 40
1.0
 40
1.0
 10
4.875881821269306
 20
6.443583333333335
 30
0.0
 10
4.882852654426541
 20
6.441752615045415
 30
0.0
 10
4.911281820375026
 20
6.433404004145207
 30
0.0
 10
4.917873486875174
 20
6.431667893077954
 30
0.0
  0
POLYLINE
  5
1C6
330
1F
100
AcDbEntity
  8
ITS
 62
   250
420
  2301728
370
     9
100
AcDb2dPolyline
 66
     1
 10
0.0
 20
0.0
 30
0.0
  0
VERTEX
  5
1C7
330
1C6
100
AcDbEntity
  8
ITS
 62
   250
420
  2301728
370
     9
100
AcDbVertex
100
AcDb2dVertex
 10
4.815198489468963
 20
6.45905261460838
 30
0.0
  0
VERTEX
  5
1C8
330
1C6
100
AcDbEntity
  8
ITS
 62
   250
420
  2301728
370
     9
100
AcDbVertex
100
AcDb2dVertex
 10
4.830660989078347
 20
6.455484559142961
 30
0.0
  0
SEQEND
  5
1C9
330
1C6
100
AcDbEntity
  8
ITS
 62
   250
420
  2301728
370
     9
  0
POLYLINE
  5
1CA
330
1F
100
AcDbEntity
  8
ITS
 62
   250
420
  2301728
370
     9
100
AcDb2dPolyline
 66
     1
 10
0.0
 20
0.0
 30
0.0
  0
VERTEX
  5
1CB
330
1CA
100
AcDbEntity
  8
ITS
 62
   250
420
  2301728
370
     9
100
AcDbVertex
100
AcDb2dVertex
 10
4.757026268716294
 20
6.474087336450793
 30
0.0
  0
VERTEX
  5
1CC
330
1CA
100
AcDbEntity
  8
ITS
 62
   250
420
  2301728
370
     9
100
AcDbVertex
100
AcDb2dVertex
 10
4.769979046166857
 20
6.470954003196614
 30
0.0
  0
SEQEND
  5
1CD
330
1CA
100
AcDbEntity
  8
ITS
 62
   250
420
  2301728
370
     9
  0
POLYLINE
  5
1CE
330
1F
100
AcDbEntity
  8
ITS
 62
   250
420
  2301728
370
     9
100
AcDb2dPolyline
 66
     1
 10
0.0
 20
0.0
 30
0.0
  0
VERTEX
  5
1CF
330
1CE
100
AcDbEntity
  8
ITS
 62
   250
420
  2301728
370
     9
100
AcDbVertex
100
AcDb2dVertex
 10
4.69141932592922
 20
6.490966502691056
 30
0.0
  0
VERTEX
  5
1D0
330
1CE
100
AcDbEntity
  8
ITS
 62
   250
420
  2301728
370
     9
100
AcDbVertex
100
AcDb2dVertex
 10
4.710692936553439
 20
6.4858873361527
 30
0.0
  0
SEQEND
  5
1D1
330
1CE
100
AcDbEntity
  8
ITS
 62
   250
420
  2301728
370
     9
  0
POLYLINE
  5
1D2
330
1F
100
AcDbEntity
  8
ITS
 62
   250
420
  2301728
370
     9
100
AcDb2dPolyline
 66
     1
 10
0.0
 20
0.0
 30
0.0
  0
VERTEX
  5
1D3
330
1D2
100
AcDbEntity
  8
ITS
 62
   250
420
  2301728
370
     9
100
AcDbVertex
100
AcDb2dVertex
 10
4.397338777802765
 20
6.558884556530857
 30
0.0
  0
VERTEX
  5
1D4
330
1D2
100
AcDbEntity
  8
ITS
 62
   250
420
  2301728
370
     9
100
AcDbVertex
100
AcDb2dVertex
 10
4.413560999615179
 20
6.55487066774338
 30
0.0
  0
SEQEND
  5
1D5
330
1D2
100
AcDbEntity
  8
ITS
 62
   250
420
  2301728
370
     9
  0
POLYLINE
  5
1D6
330
1F
100
AcDbEntity
  8
ITS
 62
   250
420
  2301728
370
     9
100
AcDb2dPolyline
 66
     1
 10
0.0
 20
0.0
 30
0.0
  0
VERTEX
  5
1D7
330
1D6
100
AcDbEntity
  8
ITS
 62
   250
420
  2301728
370
     9
100
AcDbVertex
100
AcDb2dVertex
 10
4.345784612438466
 20
6.572679000626825
 30
0.0
  0
VERTEX
  5
1D8
330
1D6
100
AcDbEntity
  8
ITS
 62
   250
420
  2301728
370
     9
100
AcDbVertex
100
AcDb2dVertex
 10
4.357217945482969
 20
6.569451222930588
 30
0.0
  0
SEQEND
  5
1D9
330
1D6
100
AcDbEntity
  8
ITS
 62
   250
420
  2301728
370
     9
  0
POLYLINE
  5
1DA
330
1F
100
AcDbEntity
  8
ITS
 62
   250
420
  2301728
370
     9
100
AcDb2dPolyline
 66
     1
 10
0.0
 20
0.0
 30
0.0
  0
VERTEX
  5
1DB
330
1DA
100
AcDbEntity
  8
ITS
 62
   250
420
  2301728
370
     9
100
AcDbVertex
100
AcDb2dVertex
 10
4.285983225060287
 20
6.589240111319567
 30
0.0
  0
VERTEX
  5
1DC
330
1DA
100
AcDbEntity
  8
ITS
 62
   250
420
  2301728
370
     9
100
AcDbVertex
100
AcDb2dVertex
 10
4.301431835781133
 20
6.58528594475279
 30
0.0
  0
SEQEND
  5
1DD
330
1DA
100
AcDbEntity
  8
ITS
 62
   250
420
  2301728
370
     9
  0
POLYLINE
  5
1DE
330
1F
100
AcDbEntity
  8
ITS
 62
   250
420
  2301728
370
     9
100
AcDb2dPolyline
 66
     1
 10
0.0
 20
0.0
 30
0.0
  0
VERTEX
  5
1DF
330
1DE
100
AcDbEntity
  8
ITS
 62
   250
420
  2301728
370
     9
100
AcDbVertex
100
AcDb2dVertex
 10
4.218879060088814
 20
6.606065110894532
 30
0.0
  0
VERTEX
  5
1E0
330
1DE
100
AcDbEntity
  8
ITS
 62
   250
420
  2301728
370
     9
100
AcDbVertex
100
AcDb2dVertex
 10
4.246419337170866
 20
6.598442888864863
 30
0.0
  0
SEQEND
  5
1E1
330
1DE
100
AcDbEntity
  8
ITS
 62
   250
420
  2301728
370
     9
  0
SPLINE
  5
1E2
330
1F
100
AcDbEntity
  8
ITS
 62
   250
420
  2301728
370
    18
100
AcDbSpline
210
0.0
220
0.0
230
1.0
 70
     8
 71
     3
 72
     8
 73
     4
 74
     0
 42
0.0000000001
 43
0.0000000001
 12
1.0
 22
0.0
 32
0.0
 13
1.0
 23
0.0
 33
0.0
 40
0.0
 40
0.0
 40
0.0
 40
0.0
 40
1.0
 40
1.0
 40
1.0
 40
1.0
 10
4.714070714245887
 20
6.471170669857807
 30
0.0
 10
4.714070714245887
 20
6.482563725125551
 30
0.0
 10
4.720052658539215
 20
6.488667891638013
 30
0.0
 10
4.724840158418273
 20
6.490159558266996
 30
0.0
  0
SPLINE
  5
1E3
330
1F
100
AcDbEntity
  8
ITS
 62
   250
420
  2301728
370
    18
100
AcDbSpline
210
0.0
220
0.0
230
1.0
 70
     8
 71
     3
 72
    11
 73
     7
 74
     0
 42
0.0000000001
 43
0.0000000001
 12
1.0
 22
0.0
 32
0.0
 13
1.0
 23
0.0
 33
0.0
 40
0.0
 40
0.0
 40
0.0
 40
0.0
 40
1.0
 40
1.0
 40
1.0
 40
2.0
 40
2.0
 40
2.0
 40
2.0
 10
4.734456824842002
 20
6.495388888888884
 30
0.0
 10
4.734456824842002
 20
6.495388888888884
 30
0.0
 10
4.733154047097135
 20
6.496351224777249
 30
0.0
 10
4.749308213355713
 20
6.500888888888893
 30
0.0
 10
4.757160990935113
 20
6.503072057940799
 30
0.0
 10
4.7693554350715
 20
6.507880391152664
 30
0.0
 10
4.778958333333321
 20
6.500542891338025
 30
0.0
  0
SPLINE
  5
1E4
330
1F
100
AcDbEntity
  8
ITS
 62
   250
420
  2301728
370
     9
100
AcDbSpline
210
0.0
220
0.0
230
1.0
 70
     8
 71
     3
 72
     8
 73
     4
 74
     0
 42
0.0000000001
 43
0.0000000001
 12
1.0
 22
0.0
 32
0.0
 13
1.0
 23
0.0
 33
0.0
 40
0.0
 40
0.0
 40
0.0
 40
0.0
 40
1.0
 40
1.0
 40
1.0
 40
1.0
 10
4.761176268611456
 20
6.484748447292581
 30
0.0
 10
4.761176268611456
 20
6.484748447292581
 30
0.0
 10
4.761135990834696
 20
6.485765113933565
 30
0.0
 10
4.774766546045915
 20
6.489399836063967
 30
0.0
  0
SPLINE
  5
1E5
330
1F
100
AcDbEntity
  8
ITS
 62
   250
420
  2301728
370
    18
100
AcDbSpline
210
0.0
220
0.0
230
1.0
 70
     8
 71
     3
 72
    11
 73
     7
 74
     0
 42
0.0000000001
 43
0.0000000001
 12
1.0
 22
0.0
 32
0.0
 13
1.0
 23
0.0
 33
0.0
 40
0.0
 40
0.0
 40
0.0
 40
0.0
 40
1.0
 40
1.0
 40
1.0
 40
2.0
 40
2.0
 40
2.0
 40
2.0
 10
4.365098500839445
 20
6.546745667948622
 30
0.0
 10
4.365098500839445
 20
6.546745667948622
 30
0.0
 10
4.365098500839445
 20
6.551133167837785
 30
0.0
 10
4.365098500839445
 20
6.524305555555555
 30
0.0
 10
4.365098500839445
 20
6.524305555555555
 30
0.0
 10
4.360501278733358
 20
6.505513888888887
 30
0.0
 10
4.383504055930037
 20
6.506435946744709
 30
0.0
  0
SPLINE
  5
1E6
330
1F
100
AcDbEntity
  8
ITS
 62
   250
420
  2301728
370
     9
100
AcDbSpline
210
0.0
220
0.0
230
1.0
 70
    24
 71
     3
 72
     8
 73
     4
 74
     0
 42
0.0000000001
 43
0.0000000001
 12
1.0
 22
0.0
 32
0.0
 13
1.0
 23
0.0
 33
0.0
 40
0.0
 40
0.0
 40
0.0
 40
0.0
 40
1.0
 40
1.0
 40
1.0
 40
1.0
 10
4.390408222422289
 20
6.523274835208213
 30
0.0
 10
4.390408222422289
 20
6.534112334934434
 30
0.0
 10
4.390408222422289
 20
6.541287334753179
 30
0.0
 10
4.390408222422289
 20
6.541287334753179
 30
0.0
  0
SPLINE
  5
1E7
330
1F
100
AcDbEntity
  8
ITS
 62
   250
420
  2301728
370
     9
100
AcDbSpline
210
0.0
220
0.0
230
1.0
 70
     8
 71
     3
 72
     8
 73
     4
 74
     0
 42
0.0000000001
 43
0.0000000001
 12
1.0
 22
0.0
 32
0.0
 13
1.0
 23
0.0
 33
0.0
 40
0.0
 40
0.0
 40
0.0
 40
0.0
 40
1.0
 40
1.0
 40
1.0
 40
1.0
 10
4.399074888870018
 20
6.570806778451899
 30
0.0
 10
4.399074888870018
 20
6.570806778451899
 30
0.0
 10
4.39077350019084
 20
6.567552611867439
 30
0.0
 10
4.391180555555567
 20
6.555176223291205
 30
0.0
  0
SPLINE
  5
1E8
330
1F
100
AcDbEntity
  8
ITS
 62
   250
420
  2301728
370
    18
100
AcDbSpline
210
0.0
220
0.0
230
1.0
 70
     8
 71
     3
 72
     8
 73
     4
 74
     0
 42
0.0000000001
 43
0.0000000001
 12
1.0
 22
0.0
 32
0.0
 13
1.0
 23
0.0
 33
0.0
 40
0.0
 40
0.0
 40
0.0
 40
0.0
 40
1.0
 40
1.0
 40
1.0
 40
1.0
 10
4.366251278588101
 20
6.560133167610426
 30
0.0
 10
4.366251278588101
 20
6.571519278433899
 30
0.0
 10
4.371066556244235
 20
6.577799833830795
 30
0.0
 10
4.375854056123292
 20
6.579298444904061
 30
0.0
  0
SPLINE
  5
1E9
330
1F
100
AcDbEntity
  8
ITS
 62
   250
420
  2301728
370
    18
100
AcDbSpline
210
0.0
220
0.0
230
1.0
 70
     8
 71
     3
 72
    11
 73
     7
 74
     0
 42
0.0000000001
 43
0.0000000001
 12
1.0
 22
0.0
 32
0.0
 13
1.0
 23
0.0
 33
0.0
 40
0.0
 40
0.0
 40
0.0
 40
0.0
 40
1.0
 40
1.0
 40
1.0
 40
2.0
 40
2.0
 40
2.0
 40
2.0
 10
4.383205444826469
 20
6.583909555898672
 30
0.0
 10
4.383205444826469
 20
6.583909555898672
 30
0.0
 10
4.394762388978961
 20
6.588581778002864
 30
0.0
 10
4.399006833316181
 20
6.589917889080223
 30
0.0
 10
4.414672110698222
 20
6.594881777843713
 30
0.0
 10
4.425509610424443
 20
6.594679000071058
 30
0.0
 10
4.430284610303817
 20
6.587069444444447
 30
0.0
  0
SPLINE
  5
1EA
330
1F
100
AcDbEntity
  8
ITS
 62
   250
420
  2301728
370
     9
100
AcDbSpline
210
0.0
220
0.0
230
1.0
 70
     8
 71
     3
 72
     8
 73
     4
 74
     0
 42
0.0000000001
 43
0.0000000001
 12
1.0
 22
0.0
 32
0.0
 13
1.0
 23
0.0
 33
0.0
 40
0.0
 40
0.0
 40
0.0
 40
0.0
 40
1.0
 40
1.0
 40
1.0
 40
1.0
 10
4.405123499828329
 20
6.573140111726287
 30
0.0
 10
4.406426277573195
 20
6.57359427838148
 30
0.0
 10
4.422783221604428
 20
6.578619278254538
 30
0.0
 10
4.423990166018383
 20
6.579122056019615
 30
0.0
  0
INSERT
  5
1EC
330
1F
100
AcDbEntity
  8
ITS
100
AcDbBlockReference
  2
block 2
 10
0.0
 20
0.0
 30
0.0
  0
INSERT
  5
1F6
330
1F
100
AcDbEntity
  8
ITS
100
AcDbBlockReference
  2
block 3
 10
0.0
 20
0.0
 30
0.0
  0
SPLINE
  5
1FF
330
1F
100
AcDbEntity
  8
ITS
 62
   250
420
  2301728
370
    18
100
AcDbSpline
210
0.0
220
0.0
230
1.0
 70
     8
 71
     3
 72
    14
 73
    10
 74
     0
 42
0.0000000001
 43
0.0000000001
 12
1.0
 22
0.0
 32
0.0
 13
1.0
 23
0.0
 33
0.0
 40
0.0
 40
0.0
 40
0.0
 40
0.0
 40
1.0
 40
1.0
 40
1.0
 40
2.0
 40
2.0
 40
2.0
 40
3.0
 40
3.0
 40
3.0
 40
3.0
 10
4.541042940839159
 20
6.600165111043578
 30
0.0
 10
4.541042940839159
 20
6.600165111043578
 30
0.0
 10
4.438652777777785
 20
6.570074834025945
 30
0.0
 10
4.43358044355389
 20
6.56835261184723
 30
0.0
 10
4.422865166046803
 20
6.564730389716512
 30
0.0
 10
4.42381377713395
 20
6.548956779003876
 30
0.0
 10
4.42381377713395
 20
6.540995668093879
 30
0.0
 10
4.42381377713395
 20
6.538079001500894
 30
0.0
 10
4.42381377713395
 20
6.532002612765508
 30
0.0
 10
4.42381377713395
 20
6.525458333333328
 30
0.0
  0
SPLINE
  5
200
330
1F
100
AcDbEntity
  8
ITS
 62
   250
420
  2301728
370
     9
100
AcDbSpline
210
0.0
220
0.0
230
1.0
 70
    11
 71
     3
 72
    11
 73
     7
 74
     0
 42
0.0000000001
 43
0.0000000001
 12
1.0
 22
0.0
 32
0.0
 13
1.0
 23
0.0
 33
0.0
 40
0.0
 40
0.0
 40
0.0
 40
0.0
 40
1.0
 40
1.0
 40
1.0
 40
2.0
 40
2.0
 40
2.0
 40
2.0
 10
4.78393599025872
 20
6.34959567292905
 30
0.0
 10
4.78393599025872
 20
6.32857206234904
 30
0.0
 10
4.76190821303741
 20
6.335897062163995
 30
0.0
 10
4.761894324148872
 20
6.354926228349945
 30
0.0
 10
4.761894324148872
 20
6.3764776166944
 30
0.0
 10
4.78393599025872
 20
6.365769283631582
 30
0.0
 10
4.78393599025872
 20
6.34959567292905
 30
0.0
  0
SPLINE
  5
201
330
1F
100
AcDbEntity
  8
ITS
 62
   250
420
  2301728
370
    18
100
AcDbSpline
210
0.0
220
0.0
230
1.0
 70
    11
 71
     3
 72
    17
 73
    13
 74
     0
 42
0.0000000001
 43
0.0000000001
 12
1.0
 22
0.0
 32
0.0
 13
1.0
 23
0.0
 33
0.0
 40
0.0
 40
0.0
 40
0.0
 40
0.0
 40
1.0
 40
1.0
 40
1.0
 40
2.0
 40
2.0
 40
2.0
 40
3.0
 40
3.0
 40
3.0
 40
4.0
 40
4.0
 40
4.0
 40
4.0
 10
4.771863768341468
 20
6.365641505857032
 30
0.0
 10
4.771334601688168
 20
6.364060950341404
 30
0.0
 10
4.770684601704589
 20
6.362181783722209
 30
0.0
 10
4.771063768361677
 20
6.359822061559599
 30
0.0
 10
4.772379046106228
 20
6.350565117349005
 30
0.0
 10
4.775227657145377
 20
6.345547061920215
 30
0.0
 10
4.781480434765196
 20
6.342834561988739
 30
0.0
 10
4.782212379191151
 20
6.344685950830858
 30
0.0
 10
4.78317626805569
 20
6.348252617407436
 30
0.0
 10
4.78317626805569
 20
6.351101228446573
 30
0.0
 10
4.78317626805569
 20
6.358031783827047
 30
0.0
 10
4.777763888888885
 20
6.364467894775569
 30
0.0
 10
4.771863768341468
 20
6.365641505857032
 30
0.0
  0
SPLINE
  5
202
330
1F
100
AcDbEntity
  8
ITS
 62
   250
420
  2301728
370
     9
100
AcDbSpline
210
0.0
220
0.0
230
1.0
 70
    11
 71
     3
 72
    14
 73
    10
 74
     0
 42
0.0000000001
 43
0.0000000001
 12
1.0
 22
0.0
 32
0.0
 13
1.0
 23
0.0
 33
0.0
 40
0.0
 40
0.0
 40
0.0
 40
0.0
 40
1.0
 40
1.0
 40
1.0
 40
2.0
 40
2.0
 40
2.0
 40
3.0
 40
3.0
 40
3.0
 40
3.0
 10
4.351129056747898
 20
6.491909558222788
 30
0.0
 10
4.351847222222229
 20
6.489935947161547
 30
0.0
 10
4.332356834999902
 20
6.481404002932625
 30
0.0
 10
4.332356834999902
 20
6.481404002932625
 30
0.0
 10
4.332356834999902
 20
6.481404002932625
 30
0.0
 10
4.330240168386707
 20
6.487277777777775
 30
0.0
 10
4.330240168386707
 20
6.490919280470027
 30
0.0
 10
4.330227668387023
 20
6.510531779974573
 30
0.0
 10
4.346638888888896
 20
6.504367891241397
 30
0.0
 10
4.351129056747898
 20
6.491909558222788
 30
0.0
  0
SPLINE
  5
203
330
1F
100
AcDbEntity
  8
ITS
 62
   250
420
  2301728
370
    18
100
AcDbSpline
210
0.0
220
0.0
230
1.0
 70
    11
 71
     3
 72
    17
 73
    13
 74
     0
 42
0.0000000001
 43
0.0000000001
 12
1.0
 22
0.0
 32
0.0
 13
1.0
 23
0.0
 33
0.0
 40
0.0
 40
0.0
 40
0.0
 40
0.0
 40
1.0
 40
1.0
 40
1.0
 40
2.0
 40
2.0
 40
2.0
 40
3.0
 40
3.0
 40
3.0
 40
4.0
 40
4.0
 40
4.0
 40
4.0
 10
4.339626279260705
 20
6.501084557991008
 30
0.0
 10
4.339084612607722
 20
6.499510946919649
 30
0.0
 10
4.338908223723289
 20
6.498195669175098
 30
0.0
 10
4.339261001492155
 20
6.495842891456757
 30
0.0
 10
4.339734612591302
 20
6.492512335985339
 30
0.0
 10
4.340847222222211
 20
6.489230391623803
 30
0.0
 10
4.342665168072825
 20
6.487413725003029
 30
0.0
 10
4.343098501395212
 20
6.486979002791789
 30
0.0
 10
4.350436001209851
 20
6.487983169433088
 30
0.0
 10
4.350261001214272
 20
6.489799836053862
 30
0.0
 10
4.349609612341839
 20
6.496310947000488
 30
0.0
 10
4.344820723573926
 20
6.499002613599158
 30
0.0
 10
4.339626279260705
 20
6.501084557991008
 30
0.0
  0
SPLINE
  5
204
330
1F
100
AcDbEntity
  8
ITS
 62
   250
420
  2301728
370
     9
100
AcDbSpline
210
0.0
220
0.0
230
1.0
 70
    11
 71
     3
 72
    11
 73
     7
 74
     0
 42
0.0000000001
 43
0.0000000001
 12
1.0
 22
0.0
 32
0.0
 13
1.0
 23
0.0
 33
0.0
 40
0.0
 40
0.0
 40
0.0
 40
0.0
 40
1.0
 40
1.0
 40
1.0
 40
2.0
 40
2.0
 40
2.0
 40
2.0
 10
4.328924890642156
 20
6.625895665949125
 30
0.0
 10
4.308811002261387
 20
6.629495665858181
 30
0.0
 10
4.311279057754594
 20
6.640170665588508
 30
0.0
 10
4.329670723956648
 20
6.636990110113301
 30
0.0
 10
4.351372112297314
 20
6.633233165763764
 30
0.0
 10
4.344347222222217
 20
6.623134554907765
 30
0.0
 10
4.328924890642156
 20
6.625895665949125
 30
0.0
  0
POLYLINE
  5
205
330
1F
100
AcDbEntity
  8
ITS
 62
   250
420
  2301728
370
     9
100
AcDb2dPolyline
 66
     1
 10
0.0
 20
0.0
 30
0.0
  0
VERTEX
  5
206
330
205
100
AcDbEntity
  8
ITS
 62
   250
420
  2301728
370
     9
100
AcDbVertex
100
AcDb2dVertex
 10
4.577080439928775
 20
6.063455402379796
 30
0.0
  0
VERTEX
  5
207
330
205
100
AcDbEntity
  8
ITS
 62
   250
420
  2301728
370
     9
100
AcDbVertex
100
AcDb2dVertex
 10
4.587904050766459
 20
6.059712346918786
 30
0.0
  0
SEQEND
  5
208
330
205
100
AcDbEntity
  8
ITS
 62
   250
420
  2301728
370
     9
  0
POLYLINE
  5
209
330
1F
100
AcDbEntity
  8
ITS
 62
   250
420
  2301728
370
     9
100
AcDb2dPolyline
 66
     1
 10
0.0
 20
0.0
 30
0.0
  0
VERTEX
  5
20A
330
209
100
AcDbEntity
  8
ITS
 62
   250
420
  2301728
370
     9
100
AcDbVertex
100
AcDb2dVertex
 10
4.577080439928775
 20
5.490790139068748
 30
0.0
  0
VERTEX
  5
20B
330
209
100
AcDbEntity
  8
ITS
 62
   250
420
  2301728
370
     9
100
AcDbVertex
100
AcDb2dVertex
 10
4.587904050766459
 20
5.487054028052019
 30
0.0
  0
SEQEND
  5
20C
330
209
100
AcDbEntity
  8
ITS
 62
   250
420
  2301728
370
     9
  0
POLYLINE
  5
20D
330
1F
100
AcDbEntity
  8
ITS
 62
   250
420
  2301728
370
     9
100
AcDb2dPolyline
 66
     1
 10
0.0
 20
0.0
 30
0.0
  0
VERTEX
  5
20E
330
20D
100
AcDbEntity
  8
ITS
 62
   250
420
  2301728
370
     9
100
AcDbVertex
100
AcDb2dVertex
 10
4.854044321820967
 20
5.521348471630113
 30
0.0
  0
VERTEX
  5
20F
330
20D
100
AcDbEntity
  8
ITS
 62
   250
420
  2301728
370
     9
100
AcDbVertex
100
AcDb2dVertex
 10
4.867622099255741
 20
5.52657069372041
 30
0.0
  0
SEQEND
  5
210
330
20D
100
AcDbEntity
  8
ITS
 62
   250
420
  2301728
370
     9
  0
SPLINE
  5
211
330
1F
100
AcDbEntity
  8
ITS
 62
   250
420
  2301728
370
    18
100
AcDbSpline
210
0.0
220
0.0
230
1.0
 70
     8
 71
     3
 72
    11
 73
     7
 74
     0
 42
0.0000000001
 43
0.0000000001
 12
1.0
 22
0.0
 32
0.0
 13
1.0
 23
0.0
 33
0.0
 40
0.0
 40
0.0
 40
0.0
 40
0.0
 40
1.0
 40
1.0
 40
1.0
 40
2.0
 40
2.0
 40
2.0
 40
2.0
 10
4.321641557492815
 20
6.629231776975959
 30
0.0
 10
4.323770724105694
 20
6.629774832517796
 30
0.0
 10
4.324951279631427
 20
6.629645665854392
 30
0.0
 10
4.328409612877396
 20
6.629081776979748
 30
0.0
 10
4.331625000000005
 20
6.628566499214988
 30
0.0
 10
4.333577668302395
 20
6.628072054783047
 30
0.0
 10
4.335679057138198
 20
6.626966499255407
 30
0.0
  0
SPLINE
  5
212
330
1F
100
AcDbEntity
  8
ITS
 62
   250
420
  2301728
370
     9
100
AcDbSpline
210
0.0
220
0.0
230
1.0
 70
    11
 71
     3
 72
    11
 73
     7
 74
     0
 42
0.0000000001
 43
0.0000000001
 12
1.0
 22
0.0
 32
0.0
 13
1.0
 23
0.0
 33
0.0
 40
0.0
 40
0.0
 40
0.0
 40
0.0
 40
1.0
 40
1.0
 40
1.0
 40
2.0
 40
2.0
 40
2.0
 40
2.0
 10
4.817966544954591
 20
6.507384557831856
 30
0.0
 10
4.796834601043984
 20
6.511169279958469
 30
0.0
 10
4.799438767644864
 20
6.522385946341778
 30
0.0
 10
4.818766544934381
 20
6.519035946426406
 30
0.0
 10
4.841512377693107
 20
6.515081779859631
 30
0.0
 10
4.83416098898993
 20
6.504488724571678
 30
0.0
 10
4.817966544954591
 20
6.507384557831856
 30
0.0
  0
SPLINE
  5
213
330
1F
100
AcDbEntity
  8
ITS
 62
   250
420
  2301728
370
    18
100
AcDbSpline
210
0.0
220
0.0
230
1.0
 70
     8
 71
     3
 72
    11
 73
     7
 74
     0
 42
0.0000000001
 43
0.0000000001
 12
1.0
 22
0.0
 32
0.0
 13
1.0
 23
0.0
 33
0.0
 40
0.0
 40
0.0
 40
0.0
 40
0.0
 40
1.0
 40
1.0
 40
1.0
 40
2.0
 40
2.0
 40
2.0
 40
2.0
 10
4.810370711813144
 20
6.510790113301381
 30
0.0
 10
4.812594322868082
 20
6.511372057731124
 30
0.0
 10
4.813788767282353
 20
6.511237335512305
 30
0.0
 10
4.817423489412755
 20
6.510647057749439
 30
0.0
 10
4.820787378216664
 20
6.510104002207602
 30
0.0
 10
4.822794322610409
 20
6.50960261333138
 30
0.0
 10
4.824977655888587
 20
6.508429002249916
 30
0.0
  0
SPLINE
  5
214
330
1F
100
AcDbEntity
  8
ITS
 62
   250
420
  2301728
370
     9
100
AcDbSpline
210
0.0
220
0.0
230
1.0
 70
    11
 71
     3
 72
    11
 73
     7
 74
     0
 42
0.0000000001
 43
0.0000000001
 12
1.0
 22
0.0
 32
0.0
 13
1.0
 23
0.0
 33
0.0
 40
0.0
 40
0.0
 40
0.0
 40
0.0
 40
1.0
 40
1.0
 40
1.0
 40
2.0
 40
2.0
 40
2.0
 40
2.0
 10
4.948798486093943
 20
6.459791666666661
 30
0.0
 10
4.927680555555551
 20
6.463574836716361
 30
0.0
 10
4.930270708784215
 20
6.474772058655717
 30
0.0
 10
4.949598486073733
 20
6.471441503184299
 30
0.0
 10
4.972384596609218
 20
6.467481781062108
 30
0.0
 10
4.965006819017819
 20
6.456888888888884
 30
0.0
 10
4.948798486093943
 20
6.459791666666661
 30
0.0
  0
SPLINE
  5
215
330
1F
100
AcDbEntity
  8
ITS
 62
   250
420
  2301728
370
    18
100
AcDbSpline
210
0.0
220
0.0
230
1.0
 70
     8
 71
     3
 72
    11
 73
     7
 74
     0
 42
0.0000000001
 43
0.0000000001
 12
1.0
 22
0.0
 32
0.0
 13
1.0
 23
0.0
 33
0.0
 40
0.0
 40
0.0
 40
0.0
 40
0.0
 40
1.0
 40
1.0
 40
1.0
 40
2.0
 40
2.0
 40
2.0
 40
2.0
 10
4.941216541841034
 20
6.463195670059273
 30
0.0
 10
4.943440152895972
 20
6.463765114489332
 30
0.0
 10
4.944647097309926
 20
6.463629003381672
 30
0.0
 10
4.948269319440644
 20
6.463047058951916
 30
0.0
 10
4.951633208244553
 20
6.46249705896581
 30
0.0
 10
4.953654041526836
 20
6.461988725645319
 30
0.0
 10
4.955837374805014
 20
6.460822059008124
 30
0.0
  0
SPLINE
  5
216
330
1F
100
AcDbEntity
  8
ITS
 62
   250
420
  2301728
370
     9
100
AcDbSpline
210
0.0
220
0.0
230
1.0
 70
    11
 71
     3
 72
    11
 73
     7
 74
     0
 42
0.0000000001
 43
0.0000000001
 12
1.0
 22
0.0
 32
0.0
 13
1.0
 23
0.0
 33
0.0
 40
0.0
 40
0.0
 40
0.0
 40
0.0
 40
1.0
 40
1.0
 40
1.0
 40
2.0
 40
2.0
 40
2.0
 40
2.0
 10
4.479465164616967
 20
6.595810944486907
 30
0.0
 10
4.459363776235882
 20
6.599419277729086
 30
0.0
 10
4.461819444444447
 20
6.610094277459413
 30
0.0
 10
4.480224886819997
 20
6.606899833095667
 30
0.0
 10
4.501898497383586
 20
6.6031498331904
 30
0.0
 10
4.494885997560737
 20
6.59305816677867
 30
0.0
 10
4.479465164616967
 20
6.595810944486907
 30
0.0
  0
SPLINE
  5
217
330
1F
100
AcDbEntity
  8
ITS
 62
   250
420
  2301728
370
    18
100
AcDbSpline
210
0.0
220
0.0
230
1.0
 70
     8
 71
     3
 72
    11
 73
     7
 74
     0
 42
0.0000000001
 43
0.0000000001
 12
1.0
 22
0.0
 32
0.0
 13
1.0
 23
0.0
 33
0.0
 40
0.0
 40
0.0
 40
0.0
 40
0.0
 40
1.0
 40
1.0
 40
1.0
 40
2.0
 40
2.0
 40
2.0
 40
2.0
 10
4.472181831467625
 20
6.599141499958338
 30
0.0
 10
4.474297109191967
 20
6.599683166611308
 30
0.0
 10
4.475504053605921
 20
6.599555555555551
 30
0.0
 10
4.478949886852206
 20
6.598998444406384
 30
0.0
 10
4.482149886771367
 20
6.598476222197355
 30
0.0
 10
4.484130442276889
 20
6.5979817777654
 30
0.0
 10
4.486219331113008
 20
6.596869277793505
 30
0.0
  0
INSERT
  5
219
330
1F
100
AcDbEntity
  8
ITS
100
AcDbBlockReference
  2
block 4
 10
0.0
 20
0.0
 30
0.0
  0
INSERT
  5
226
330
1F
100
AcDbEntity
  8
ITS
100
AcDbBlockReference
  2
block 5
 10
0.0
 20
0.0
 30
0.0
  0
INSERT
  5
233
330
1F
100
AcDbEntity
  8
ITS
100
AcDbBlockReference
  2
block 6
 10
0.0
 20
0.0
 30
0.0
  0
SPLINE
  5
23F
330
1F
100
AcDbEntity
  8
ITS
 62
   250
420
  2301728
370
    20
100
AcDbSpline
210
0.0
220
0.0
230
1.0
 70
    11
 71
     3
 72
    89
 73
    85
 74
     0
 42
0.0000000001
 43
0.0000000001
 12
1.0
 22
0.0
 32
0.0
 13
1.0
 23
0.0
 33
0.0
 40
0.0
 40
0.0
 40
0.0
 40
0.0
 40
1.0
 40
1.0
 40
1.0
 40
2.0
 40
2.0
 40
2.0
 40
3.0
 40
3.0
 40
3.0
 40
4.0
 40
4.0
 40
4.0
 40
5.0
 40
5.0
 40
5.0
 40
6.0
 40
6.0
 40
6.0
 40
7.0
 40
7.0
 40
7.0
 40
8.0
 40
8.0
 40
8.0
 40
9.0
 40
9.0
 40
9.0
 40
10.0
 40
10.0
 40
10.0
 40
11.0
 40
11.0
 40
11.0
 40
12.0
 40
12.0
 40
12.0
 40
13.0
 40
13.0
 40
13.0
 40
14.0
 40
14.0
 40
14.0
 40
15.0
 40
15.0
 40
15.0
 40
16.0
 40
16.0
 40
16.0
 40
17.0
 40
17.0
 40
17.0
 40
18.0
 40
18.0
 40
18.0
 40
19.0
 40
19.0
 40
19.0
 40
20.0
 40
20.0
 40
20.0
 40
21.0
 40
21.0
 40
21.0
 40
22.0
 40
22.0
 40
22.0
 40
23.0
 40
23.0
 40
23.0
 40
24.0
 40
24.0
 40
24.0
 40
25.0
 40
25.0
 40
25.0
 40
26.0
 40
26.0
 40
26.0
 40
27.0
 40
27.0
 40
27.0
 40
28.0
 40
28.0
 40
28.0
 40
28.0
 10
4.489067942152158
 20
4.913140153661415
 30
0.0
 10
4.489067942152158
 20
4.913140153661415
 30
0.0
 10
4.489067942152158
 20
5.111192926435958
 30
0.0
 10
4.489067942152158
 20
5.111192926435958
 30
0.0
 10
4.489067942152158
 20
5.111192926435958
 30
0.0
 10
4.576212384395149
 20
5.493495694555955
 30
0.0
 10
4.576212384395149
 20
5.493495694555955
 30
0.0
 10
4.576212384395149
 20
5.493495694555955
 30
0.0
 10
4.576212384395149
 20
5.978420682305719
 30
0.0
 10
4.576212384395149
 20
6.022806792295543
 30
0.0
 10
4.576212384395149
 20
6.067213735618174
 30
0.0
 10
4.576835995490506
 20
6.032280403167331
 30
0.0
 10
4.57739293992088
 20
6.062005402416414
 30
0.0
 10
4.58353599532125
 20
6.103345679149848
 30
0.0
 10
4.597967939401112
 20
6.239915120144259
 30
0.0
 10
4.610487383529289
 20
6.341213728696352
 30
0.0
 10
4.61067766130226
 20
6.342733173102411
 30
0.0
 10
4.614637383424451
 20
6.355577617222378
 30
0.0
 10
4.616413772268465
 20
6.3592928949063
 30
0.0
 10
4.633287382953313
 20
6.394579005126009
 30
0.0
 10
4.675483215220689
 20
6.496263888888885
 30
0.0
 10
4.685966548289191
 20
6.4996206691391
 30
0.0
 10
4.700317936815534
 20
6.504204002356649
 30
0.0
 10
4.728326269441317
 20
6.51320400212929
 30
0.0
 10
4.728326269441317
 20
6.51320400212929
 30
0.0
 10
4.728326269441317
 20
6.51320400212929
 30
0.0
 10
4.800713767612655
 20
6.53459289047785
 30
0.0
 10
4.800713767612655
 20
6.53459289047785
 30
0.0
 10
4.800713767612655
 20
6.53459289047785
 30
0.0
 10
5.046820705839915
 20
6.474113725339016
 30
0.0
 10
5.046820705839915
 20
6.474113725339016
 30
0.0
 10
5.046820705839915
 20
6.474113725339016
 30
0.0
 10
5.047199872497004
 20
6.458706781283783
 30
0.0
 10
5.047199872497004
 20
6.458706781283783
 30
0.0
 10
5.018242928784073
 20
6.448472222222222
 30
0.0
 10
4.960760985791745
 20
6.433776226358026
 30
0.0
 10
4.949381819412539
 20
6.429402777777782
 30
0.0
 10
4.942070708486122
 20
6.426594282095013
 30
0.0
 10
4.895236111111116
 20
6.373454005659672
 30
0.0
 10
4.874741543520334
 20
6.349927617365109
 30
0.0
 10
4.868869321446456
 20
6.343187339757606
 30
0.0
 10
4.866929043717694
 20
6.343098450870961
 30
0.0
 10
4.865885988188489
 20
6.336805555555555
 30
0.0
 10
4.864799877104815
 20
6.330295673416609
 30
0.0
 10
4.865206821538979
 20
6.323167895818894
 30
0.0
 10
4.865206821538979
 20
6.323167895818894
 30
0.0
 10
4.865206821538979
 20
6.323167895818894
 30
0.0
 10
4.867622099255741
 20
5.522874999999999
 30
0.0
 10
4.867622099255741
 20
5.522874999999999
 30
0.0
 10
4.867622099255741
 20
5.522874999999999
 30
0.0
 10
4.697361111111099
 20
5.257988756060917
 30
0.0
 10
4.69137904815246
 20
5.238430555555547
 30
0.0
 10
4.685397103859132
 20
5.218898479270643
 30
0.0
 10
4.661187382248499
 20
5.151787369854901
 30
0.0
 10
4.661187382248499
 20
5.151787369854901
 30
0.0
 10
4.661187382248499
 20
5.151787369854901
 30
0.0
 10
4.661770715567096
 20
5.052395705699078
 30
0.0
 10
4.661770715567096
 20
5.032755428417456
 30
0.0
 10
4.661770715567096
 20
5.021388888888901
 30
0.0
 10
4.638698493927728
 20
5.004137373584854
 30
0.0
 10
4.638698493927728
 20
5.004137373584854
 30
0.0
 10
4.638698493927728
 20
5.004137373584854
 30
0.0
 10
4.638698493927728
 20
4.991441540572244
 30
0.0
 10
4.631048494120983
 20
4.98558181849805
 30
0.0
 10
4.62410404985197
 20
4.980265151965694
 30
0.0
 10
4.616481827822301
 20
4.981730429706456
 30
0.0
 10
4.616481827822301
 20
4.981730429706456
 30
0.0
 10
4.616481827822301
 20
4.981730429706456
 30
0.0
 10
4.581108217604802
 20
4.950913763818284
 30
0.0
 10
4.581108217604802
 20
4.950913763818284
 30
0.0
 10
4.581108217604802
 20
4.950913763818284
 30
0.0
 10
4.57999710652176
 20
4.941691541829035
 30
0.0
 10
4.573716551124865
 20
4.93564154198187
 30
0.0
 10
4.568604051254018
 20
4.93067765321838
 30
0.0
 10
4.561210995885227
 20
4.934176264241109
 30
0.0
 10
4.561210995885227
 20
4.934176264241109
 30
0.0
 10
4.561210995885227
 20
4.934176264241109
 30
0.0
 10
4.511515163807315
 20
4.893147098610926
 30
0.0
 10
4.511515163807315
 20
4.893147098610926
 30
0.0
 10
4.511515163807315
 20
4.893147098610926
 30
0.0
 10
4.475748498044191
 20
4.901815153947508
 30
0.0
 10
4.475748498044191
 20
4.901815153947508
 30
0.0
 10
4.475748498044191
 20
4.901815153947508
 30
0.0
 10
4.489067942152158
 20
4.913140153661415
 30
0.0
 10
4.489067942152158
 20
4.913140153661415
 30
0.0
  0
SPLINE
  5
240
330
1F
100
AcDbEntity
  8
ITS
 62
   250
420
  2301728
370
    20
100
AcDbSpline
210
0.0
220
0.0
230
1.0
 70
    11
 71
     3
 72
    29
 73
    25
 74
     0
 42
0.0000000001
 43
0.0000000001
 12
1.0
 22
0.0
 32
0.0
 13
1.0
 23
0.0
 33
0.0
 40
0.0
 40
0.0
 40
0.0
 40
0.0
 40
1.0
 40
1.0
 40
1.0
 40
2.0
 40
2.0
 40
2.0
 40
3.0
 40
3.0
 40
3.0
 40
4.0
 40
4.0
 40
4.0
 40
5.0
 40
5.0
 40
5.0
 40
6.0
 40
6.0
 40
6.0
 40
7.0
 40
7.0
 40
7.0
 40
8.0
 40
8.0
 40
8.0
 40
8.0
 10
4.276624999999992
 20
6.454861111111111
 30
0.0
 10
4.273613780928321
 20
6.472873447592569
 30
0.0
 10
4.205220727100519
 20
6.593479000101373
 30
0.0
 10
4.205220727100519
 20
6.593479000101373
 30
0.0
 10
4.205220727100519
 20
6.593479000101373
 30
0.0
 10
4.202372116061371
 20
6.611308166317636
 30
0.0
 10
4.212734615799592
 20
6.615051221778635
 30
0.0
 10
4.22628461545729
 20
6.619927610544336
 30
0.0
 10
4.336805555555555
 20
6.651081776423982
 30
0.0
 10
4.336805555555555
 20
6.651081776423982
 30
0.0
 10
4.336805555555555
 20
6.651081776423982
 30
0.0
 10
4.545599885168485
 20
6.599433166617624
 30
0.0
 10
4.545599885168485
 20
6.599433166617624
 30
0.0
 10
4.545599885168485
 20
6.599433166617624
 30
0.0
 10
4.545599885168485
 20
6.587130389150641
 30
0.0
 10
4.545599885168485
 20
6.587130389150641
 30
0.0
 10
4.545599885168485
 20
6.587130389150641
 30
0.0
 10
4.454413776360929
 20
6.561163723139948
 30
0.0
 10
4.448581832063812
 20
6.559197056522962
 30
0.0
 10
4.435723499055308
 20
6.554842889966292
 30
0.0
 10
4.438327665656187
 20
6.539265112582042
 30
0.0
 10
4.438327665656187
 20
6.533284557177567
 30
0.0
 10
4.438327665656187
 20
6.533284557177567
 30
0.0
 10
4.276624999999992
 20
6.454861111111111
 30
0.0
 10
4.276624999999992
 20
6.454861111111111
 30
0.0
  0
INSERT
  5
242
330
1F
100
AcDbEntity
  8
ITS
100
AcDbBlockReference
  2
block 7
 10
0.0
 20
0.0
 30
0.0
  0
POLYLINE
  5
25B
330
1F
100
AcDbEntity
  8
ITS
 62
     7
420
 16777215
370
    13
100
AcDb2dPolyline
 66
     1
 10
0.0
 20
0.0
 30
0.0
  0
VERTEX
  5
25C
330
25B
100
AcDbEntity
  8
ITS
 62
     7
420
 16777215
370
    13
100
AcDbVertex
100
AcDb2dVertex
 10
4.79262904559467
 20
6.024881792243124
 30
0.0
  0
VERTEX
  5
25D
330
25B
100
AcDbEntity
  8
ITS
 62
     7
420
 16777215
370
    13
100
AcDbVertex
100
AcDb2dVertex
 10
4.802544323121967
 20
6.014980403604365
 30
0.0
  0
SEQEND
  5
25E
330
25B
100
AcDbEntity
  8
ITS
 62
     7
420
 16777215
370
    13
  0
SPLINE
  5
25F
330
1F
100
AcDbEntity
  8
ITS
 62
     7
420
 16777215
370
    15
100
AcDbSpline
210
0.0
220
0.0
230
1.0
 70
     8
 71
     3
 72
    14
 73
    10
 74
     0
 42
0.0000000001
 43
0.0000000001
 12
1.0
 22
0.0
 32
0.0
 13
1.0
 23
0.0
 33
0.0
 40
0.0
 40
0.0
 40
0.0
 40
0.0
 40
1.0
 40
1.0
 40
1.0
 40
2.0
 40
2.0
 40
2.0
 40
3.0
 40
3.0
 40
3.0
 40
3.0
 10
4.826659600290541
 20
6.116224845491161
 30
0.0
 10
4.824652777777778
 20
6.108574845684416
 30
0.0
 10
4.810872100689367
 20
6.067640124496291
 30
0.0
 10
4.809067934068278
 20
6.060669291339056
 30
0.0
 10
4.807263888888883
 20
6.053690124848698
 30
0.0
 10
4.805242934164905
 20
6.048516513868283
 30
0.0
 10
4.809747100717787
 20
6.043341513999015
 30
0.0
 10
4.814250000000002
 20
6.038160958574331
 30
0.0
 10
4.820542933778395
 20
6.028259569935572
 30
0.0
 10
4.825492933653347
 20
6.026462347758752
 30
0.0
  0
POLYLINE
  5
260
330
1F
100
AcDbEntity
  8
ITS
 62
     7
420
 16777215
370
    15
100
AcDb2dPolyline
 66
     1
 10
0.0
 20
0.0
 30
0.0
  0
VERTEX
  5
261
330
260
100
AcDbEntity
  8
ITS
 62
     7
420
 16777215
370
    15
100
AcDbVertex
100
AcDb2dVertex
 10
4.826633211402319
 20
6.001926237267475
 30
0.0
  0
VERTEX
  5
262
330
260
100
AcDbEntity
  8
ITS
 62
     7
420
 16777215
370
    15
100
AcDbVertex
100
AcDb2dVertex
 10
4.826172100302856
 20
6.138535956038658
 30
0.0
  0
SEQEND
  5
263
330
260
100
AcDbEntity
  8
ITS
 62
     7
420
 16777215
370
    15
  0
SPLINE
  5
264
330
1F
100
AcDbEntity
  8
ITS
 62
     7
420
 16777215
370
    15
100
AcDbSpline
210
0.0
220
0.0
230
1.0
 70
     8
 71
     3
 72
    26
 73
    22
 74
     0
 42
0.0000000001
 43
0.0000000001
 12
1.0
 22
0.0
 32
0.0
 13
1.0
 23
0.0
 33
0.0
 40
0.0
 40
0.0
 40
0.0
 40
0.0
 40
1.0
 40
1.0
 40
1.0
 40
2.0
 40
2.0
 40
2.0
 40
3.0
 40
3.0
 40
3.0
 40
4.0
 40
4.0
 40
4.0
 40
5.0
 40
5.0
 40
5.0
 40
6.0
 40
6.0
 40
6.0
 40
7.0
 40
7.0
 40
7.0
 40
7.0
 10
4.793538767793911
 20
6.139662344899079
 30
0.0
 10
4.797133212147552
 20
6.129306789605127
 30
0.0
 10
4.795341545526147
 20
6.127060956328529
 30
0.0
 10
4.793538767793911
 20
6.117154012134354
 30
0.0
 10
4.791720712284283
 20
6.107252623495596
 30
0.0
 10
4.783188768055374
 20
6.069444444444444
 30
0.0
 10
4.781833333333325
 20
6.062241513521561
 30
0.0
 10
4.780476268123897
 20
6.055040124814594
 30
0.0
 10
4.776420712670793
 20
6.042433180688628
 30
0.0
 10
4.785888888888899
 20
6.032538736494138
 30
0.0
 10
4.795341545526147
 20
6.02263734785538
 30
0.0
 10
4.792181823383745
 20
6.024881792243124
 30
0.0
 10
4.792181823383745
 20
6.024881792243124
 30
0.0
 10
4.792181823383745
 20
6.024881792243124
 30
0.0
 10
4.79262904559467
 20
6.005981792720578
 30
0.0
 10
4.79262904559467
 20
6.002380403922668
 30
0.0
 10
4.79262904559467
 20
5.998779015124758
 30
0.0
 10
4.802544323121967
 20
5.988423459830806
 30
0.0
 10
4.805242934164905
 20
5.98707345986491
 30
0.0
 10
4.807942934096697
 20
5.98572484878788
 30
0.0
 10
4.811088767350561
 20
5.983024848856076
 30
0.0
 10
4.816948489424754
 20
5.990220682007626
 30
0.0
  0
SPLINE
  5
265
330
1F
100
AcDbEntity
  8
ITS
 62
     7
420
 16777215
370
    15
100
AcDbSpline
210
0.0
220
0.0
230
1.0
 70
    11
 71
     3
 72
    38
 73
    34
 74
     0
 42
0.0000000001
 43
0.0000000001
 12
1.0
 22
0.0
 32
0.0
 13
1.0
 23
0.0
 33
0.0
 40
0.0
 40
0.0
 40
0.0
 40
0.0
 40
1.0
 40
1.0
 40
1.0
 40
2.0
 40
2.0
 40
2.0
 40
3.0
 40
3.0
 40
3.0
 40
4.0
 40
4.0
 40
4.0
 40
5.0
 40
5.0
 40
5.0
 40
6.0
 40
6.0
 40
6.0
 40
7.0
 40
7.0
 40
7.0
 40
8.0
 40
8.0
 40
8.0
 40
9.0
 40
9.0
 40
9.0
 40
10.0
 40
10.0
 40
10.0
 40
11.0
 40
11.0
 40
11.0
 40
11.0
 10
4.802544323121967
 20
6.014980403604365
 30
0.0
 10
4.802544323121967
 20
6.014980403604365
 30
0.0
 10
4.80276098978316
 20
6.001477626167697
 30
0.0
 10
4.80276098978316
 20
6.001477626167697
 30
0.0
 10
4.80276098978316
 20
6.001477626167697
 30
0.0
 10
4.812662378421919
 20
5.993156793044565
 30
0.0
 10
4.814019322832084
 20
5.992248459734179
 30
0.0
 10
4.815362378353711
 20
5.991347222222227
 30
0.0
 10
4.815362378353711
 20
5.988423459830806
 30
0.0
 10
4.818522100496112
 20
5.992031793072985
 30
0.0
 10
4.821194444444447
 20
5.995097222222221
 30
0.0
 10
4.826633211402319
 20
6.001477626167697
 30
0.0
 10
4.826633211402319
 20
6.001477626167697
 30
0.0
 10
4.826633211402319
 20
6.001477626167697
 30
0.0
 10
4.825955433641663
 20
6.072373457710051
 30
0.0
 10
4.825955433641663
 20
6.080023457516796
 30
0.0
 10
4.82189987818856
 20
6.070345679983498
 30
0.0
 10
4.818548489384335
 20
6.060269291349161
 30
0.0
 10
4.819458333333336
 20
6.05419845816919
 30
0.0
 10
4.820352656005424
 20
6.048116513878388
 30
0.0
 10
4.817613767185725
 20
6.046265125036269
 30
0.0
 10
4.825723489203079
 20
6.041984569588849
 30
0.0
 10
4.825723489203079
 20
6.041760958483388
 30
0.0
 10
4.826172100302856
 20
6.013630403638469
 30
0.0
 10
4.826172100302856
 20
6.013630403638469
 30
0.0
 10
4.826172100302856
 20
6.013630403638469
 30
0.0
 10
4.820542933778395
 20
6.011602625911918
 30
0.0
 10
4.820542933778395
 20
6.011602625911918
 30
0.0
 10
4.820542933778395
 20
6.011602625911918
 30
0.0
 10
4.814697100592739
 20
6.01173873701959
 30
0.0
 10
4.81176793400007
 20
6.011060959258935
 30
0.0
 10
4.808837378518547
 20
6.010388888888883
 30
0.0
 10
4.802544323121967
 20
6.014980403604365
 30
0.0
 10
4.802544323121967
 20
6.014980403604365
 30
0.0
  0
INSERT
  5
267
330
1F
100
AcDbEntity
  8
ITS
100
AcDbBlockReference
  2
block 9
 10
0.0
 20
0.0
 30
0.0
  0
SPLINE
  5
297
330
1F
100
AcDbEntity
  8
ITS
 62
   250
420
  2301728
370
     9
100
AcDbSpline
210
0.0
220
0.0
230
1.0
 70
     8
 71
     3
 72
     8
 73
     4
 74
     0
 42
0.0000000001
 43
0.0000000001
 12
1.0
 22
0.0
 32
0.0
 13
1.0
 23
0.0
 33
0.0
 40
0.0
 40
0.0
 40
0.0
 40
0.0
 40
1.0
 40
1.0
 40
1.0
 40
1.0
 10
4.591145717351234
 20
5.037760983846561
 30
0.0
 10
4.591145717351234
 20
5.037760983846561
 30
0.0
 10
4.603326272599083
 20
5.035387372795412
 30
0.0
 10
4.608941550235007
 20
5.04882765023366
 30
0.0
  0
MTEXT
  5
299
330
1F
100
AcDbEntity
  8
callout
 62
   250
420
  2301728
100
AcDbMText
 10
3.596592585245768
 20
3.924780474768744
 30
0.0
 40
0.118
 41
0.0
 46
0.0
 71
     7
 72
     1
  1
\fHelvetica Neue LT Std 55 Roman|b0|i0|c0|p34;\W1;SIMPSON Strong-Tie\H0.068794;®\H0.118; ^C
 73
     1
 44
1.0
  0
MTEXT
  5
29A
330
1F
100
AcDbEntity
  8
callout
 62
   250
420
  2301728
100
AcDbMText
 10
3.167888429429796
 20
3.724775049421522
 30
0.0
 40
0.118
 41
0.0
 46
0.0
 71
     7
 72
     1
  1
\fHelvetica Neue LT Std 55 Roman|b0|i0|c0|p34;\W1;ITSE Top Fix I-Joist Installation on 
 73
     1
 44
1.0
  0
MTEXT
  5
29B
330
1F
100
AcDbEntity
  8
callout
 62
   250
420
  2301728
100
AcDbMText
 10
3.975207222832573
 20
3.5247696240743
 30
0.0
 40
0.118
 41
0.0
 46
0.0
 71
     7
 72
     1
  1
\fHelvetica Neue LT Std 55 Roman|b0|i0|c0|p34;\W1;Wood Nailer
 73
     1
 44
1.0
  0
POLYLINE
  5
29C
330
1F
100
AcDbEntity
  8
callout
 62
   250
420
  2236191
370
    18
100
AcDb2dPolyline
 66
     1
 10
0.0
 20
0.0
 30
0.0
  0
VERTEX
  5
29D
330
29C
100
AcDbEntity
  8
callout
 62
   250
420
  2236191
370
    18
100
AcDbVertex
100
AcDb2dVertex
 10
4.683512381684523
 20
4.645833333333333
 30
0.0
  0
VERTEX
  5
29E
330
29C
100
AcDbEntity
  8
callout
 62
   250
420
  2236191
370
    18
100
AcDbVertex
100
AcDb2dVertex
 10
4.561210995885227
 20
4.934176264241109
 30
0.0
  0
SEQEND
  5
29F
330
29C
100
AcDbEntity
  8
callout
 62
   250
420
  2236191
370
    18
  0
MTEXT
  5
2A0
330
1F
100
AcDbEntity
  8
callout
 62
   250
420
  2236191
100
AcDbMText
 10
4.622691684299045
 20
4.412200185987684
 30
0.0
 40
0.118
 41
0.0
 46
0.0
 71
     7
 72
     1
  1
\fHelvetica Neue LT Std 57 Condensed|b0|i0|c0|p34;\W1;ITSE
 73
     1
 44
1.0
  0
MTEXT
  5
2A1
330
1F
100
AcDbEntity
  8
callout
 62
   250
420
  2236191
100
AcDbMText
 10
2.733854823642307
 20
6.399518966674805
 30
0.0
 40
0.118
 41
0.0
 46
0.0
 71
     7
 72
     1
  1
\fHelvetica Neue LT Std 57 Condensed|b0|i0|c0|p34;\W1;Steel Beam
 73
     1
 44
1.0
  0
MTEXT
  5
2A2
330
1F
100
AcDbEntity
  8
callout
 62
   250
420
  2236191
100
AcDbMText
 10
4.653212441338433
 20
6.816171010335286
 30
0.0
 40
0.118
 41
0.0
 46
0.0
 71
     7
 72
     1
  1
\fHelvetica Neue LT Std 57 Condensed|b0|i0|c0|p34;\W1;Wood Nailer
 73
     1
 44
1.0
  0
MTEXT
  5
2A3
330
1F
100
AcDbEntity
  8
callout
 62
   250
420
  2236191
100
AcDbMText
 10
2.733853975931803
 20
4.727412965562608
 30
0.0
 40
0.118
 41
0.0
 46
0.0
 71
     7
 72
     1
  1
\fHelvetica Neue LT Std 57 Condensed|b0|i0|c0|p34;\W1;I-Joist
 73
     1
 44
1.0
  0
POLYLINE
  5
2A4
330
1F
100
AcDbEntity
  8
callout
 62
   250
420
  2236191
370
    18
100
AcDb2dPolyline
 66
     1
 10
0.0
 20
0.0
 30
0.0
  0
VERTEX
  5
2A5
330
2A4
100
AcDbEntity
  8
callout
 62
   250
420
  2236191
370
    18
100
AcDbVertex
100
AcDb2dVertex
 10
3.223927030485255
 20
4.808399844901992
 30
0.0
  0
VERTEX
  5
2A6
330
2A4
100
AcDbEntity
  8
callout
 62
   250
420
  2236191
370
    18
100
AcDbVertex
100
AcDb2dVertex
 10
3.561439206561835
 20
5.003302651383718
 30
0.0
  0
SEQEND
  5
2A7
330
2A4
100
AcDbEntity
  8
callout
 62
   250
420
  2236191
370
    18
  0
POLYLINE
  5
2A8
330
1F
100
AcDbEntity
  8
callout
 62
   250
420
  2236191
370
    18
100
AcDb2dPolyline
 66
     1
 10
0.0
 20
0.0
 30
0.0
  0
VERTEX
  5
2A9
330
2A8
100
AcDbEntity
  8
callout
 62
   250
420
  2236191
370
    18
100
AcDbVertex
100
AcDb2dVertex
 10
3.115143369175623
 20
6.294762027320921
 30
0.0
  0
VERTEX
  5
2AA
330
2A8
100
AcDbEntity
  8
callout
 62
   250
420
  2236191
370
    18
100
AcDbVertex
100
AcDb2dVertex
 10
3.453622507272232
 20
6.026462347758752
 30
0.0
  0
SEQEND
  5
2AB
330
2A8
100
AcDbEntity
  8
callout
 62
   250
420
  2236191
370
    18
  0
POLYLINE
  5
2AC
330
1F
100
AcDbEntity
  8
callout
 62
   250
420
  2236191
370
    18
100
AcDb2dPolyline
 66
     1
 10
0.0
 20
0.0
 30
0.0
  0
VERTEX
  5
2AD
330
2AC
100
AcDbEntity
  8
callout
 62
   250
420
  2236191
370
    18
100
AcDbVertex
100
AcDb2dVertex
 10
4.566242940202553
 20
6.871415770609296
 30
0.0
  0
VERTEX
  5
2AE
330
2AC
100
AcDbEntity
  8
callout
 62
   250
420
  2236191
370
    18
100
AcDbVertex
100
AcDb2dVertex
 10
4.204595880122636
 20
6.769636236272984
 30
0.0
  0
SEQEND
  5
2AF
330
2AC
100
AcDbEntity
  8
callout
 62
   250
420
  2236191
370
    18
  0
ENDSEC
  0
SECTION
  2
OBJECTS
  0
DICTIONARY
  5
C
330
0
100
AcDbDictionary
281
     1
  3
ACAD_GROUP
350
D
  3
ACAD_LAYOUT
350
1A
  3
ACAD_MATERIAL
350
3B
  3
ACAD_MLEADERSTYLE
350
2B2
  3
ACAD_MLINESTYLE
350
17
  3
ACAD_PLOTSETTINGS
350
19
  3
ACAD_PLOTSTYLENAME
350
E
  3
ACAD_TABLESTYLE
350
2B1
  3
ACAD_VISUALSTYLE
350
2A
  0
SUN
  5
3F
330
29
100
AcDbSun
 90
        1
290
     0
 63
     7
421
 16777215
 40
1.0
291
     1
 91
  2455826
 92
 54000000
292
     0
 70
     2
 71
   256
280
     1
  0
DICTIONARY
  5
D
102
{ACAD_REACTORS
330
C
102
}
330
C
100
AcDbDictionary
281
     1
  0
DICTIONARY
  5
1A
102
{ACAD_REACTORS
330
C
102
}
330
C
100
AcDbDictionary
281
     1
  3
Layout1
350
1E
  3
Layout2
350
26
  3
Model
350
22
  0
DICTIONARY
  5
3B
102
{ACAD_REACTORS
330
C
102
}
330
C
100
AcDbDictionary
281
     1
  3
ByBlock
350
3D
  3
ByLayer
350
3C
  3
Global
350
3E
  0
DICTIONARY
  5
2B2
102
{ACAD_REACTORS
330
C
102
}
330
C
100
AcDbDictionary
281
     1
  0
DICTIONARY
  5
17
102
{ACAD_REACTORS
330
C
102
}
330
C
100
AcDbDictionary
281
     1
  3
Standard
350
18
  0
DICTIONARY
  5
19
102
{ACAD_REACTORS
330
C
102
}
330
C
100
AcDbDictionary
281
     1
  0
ACDBDICTIONARYWDFLT
  5
E
102
{ACAD_REACTORS
330
C
102
}
330
C
100
AcDbDictionary
281
     1
  3
Normal
350
F
100
AcDbDictionaryWithDefault
340
F
  0
DICTIONARY
  5
2B1
102
{ACAD_REACTORS
330
C
102
}
330
C
100
AcDbDictionary
281
     1
  0
DICTIONARY
  5
2A
102
{ACAD_REACTORS
330
C
102
}
330
C
100
AcDbDictionary
281
     1
  3
2dWireframe
350
2F
  3
3D Hidden
350
31
  3
3dWireframe
350
30
  3
Basic
350
32
  3
Brighten
350
36
  3
ColorChange
350
3A
  3
Conceptual
350
34
  3
Dim
350
35
  3
Facepattern
350
39
  3
Flat
350
2B
  3
FlatWithEdges
350
2C
  3
Gouraud
350
2D
  3
GouraudWithEdges
350
2E
  3
Linepattern
350
38
  3
Realistic
350
33
  3
Thicken
350
37
  0
LAYOUT
  5
1E
102
{ACAD_REACTORS
330
1A
102
}
330
1A
100
AcDbPlotSettings
  1

  2
none_device
  4

  6

 40
0.0
 41
0.0
 42
0.0
 43
0.0
 44
0.0
 45
0.0
 46
0.0
 47
0.0
 48
0.0
 49
0.0
140
0.0
141
0.0
142
1.0
143
1.0
 70
   688
 72
     0
 73
     0
 74
     5
  7

 75
    16
 76
     0
 77
     2
 78
   300
147
1.0
148
0.0
149
0.0
100
AcDbLayout
  1
Layout1
 70
     1
 71
     1
 10
0.0
 20
0.0
 11
12.0
 21
9.0
 12
0.0
 22
0.0
 32
0.0
 14
1.000000000000000E+20
 24
1.000000000000000E+20
 34
1.000000000000000E+20
 15
-1.000000000000000E+20
 25
-1.000000000000000E+20
 35
-1.000000000000000E+20
146
0.0
 13
0.0
 23
0.0
 33
0.0
 16
1.0
 26
0.0
 36
0.0
 17
0.0
 27
1.0
 37
0.0
 76
     0
330
1B
  0
LAYOUT
  5
26
102
{ACAD_REACTORS
330
1A
102
}
330
1A
100
AcDbPlotSettings
  1

  2
none_device
  4

  6

 40
0.0
 41
0.0
 42
0.0
 43
0.0
 44
0.0
 45
0.0
 46
0.0
 47
0.0
 48
0.0
 49
0.0
140
0.0
141
0.0
142
1.0
143
1.0
 70
   688
 72
     0
 73
     0
 74
     5
  7

 75
    16
 76
     0
 77
     2
 78
   300
147
1.0
148
0.0
149
0.0
100
AcDbLayout
  1
Layout2
 70
     1
 71
     2
 10
0.0
 20
0.0
 11
0.0
 21
0.0
 12
0.0
 22
0.0
 32
0.0
 14
0.0
 24
0.0
 34
0.0
 15
0.0
 25
0.0
 35
0.0
146
0.0
 13
0.0
 23
0.0
 33
0.0
 16
1.0
 26
0.0
 36
0.0
 17
0.0
 27
1.0
 37
0.0
 76
     0
330
23
  0
LAYOUT
  5
22
102
{ACAD_REACTORS
330
1A
102
}
330
1A
100
AcDbPlotSettings
  1

  2
none_device
  4

  6

 40
0.0
 41
0.0
 42
0.0
 43
0.0
 44
0.0
 45
0.0
 46
0.0
 47
0.0
 48
0.0
 49
0.0
140
0.0
141
0.0
142
1.0
143
1.0
 70
  1712
 72
     0
 73
     0
 74
     0
  7

 75
     0
 76
     0
 77
     2
 78
   300
147
1.0
148
0.0
149
0.0
100
AcDbLayout
  1
Model
 70
     1
 71
     0
 10
0.0
 20
0.0
 11
12.0
 21
9.0
 12
0.0
 22
0.0
 32
0.0
 14
1.000000000000000E+20
 24
1.000000000000000E+20
 34
1.000000000000000E+20
 15
-1.000000000000000E+20
 25
-1.000000000000000E+20
 35
-1.000000000000000E+20
146
0.0
 13
0.0
 23
0.0
 33
0.0
 16
1.0
 26
0.0
 36
0.0
 17
0.0
 27
1.0
 37
0.0
 76
     0
330
1F
331
29
  0
MATERIAL
  5
3D
102
{ACAD_REACTORS
330
3B
102
}
330
3B
100
AcDbMaterial
  1
ByBlock
 72
     1
 94
      127
  0
MATERIAL
  5
3C
102
{ACAD_REACTORS
330
3B
102
}
330
3B
100
AcDbMaterial
  1
ByLayer
 72
     1
 94
      127
  0
MATERIAL
  5
3E
102
{ACAD_REACTORS
330
3B
102
}
330
3B
100
AcDbMaterial
  1
Global
 72
     1
 94
      127
  0
MLINESTYLE
  5
18
102
{ACAD_REACTORS
330
17
102
}
330
17
100
AcDbMlineStyle
  2
Standard
 70
     0
  3

 62
   256
 51
90.0
 52
90.0
 71
     2
 49
0.5
 62
   256
  6
BYLAYER
 49
-0.5
 62
   256
  6
BYLAYER
  0
ACDBPLACEHOLDER
  5
F
102
{ACAD_REACTORS
330
E
102
}
330
E
  0
VISUALSTYLE
  5
2F
102
{ACAD_REACTORS
330
2A
102
}
330
2A
100
AcDbVisualStyle
  2
2dWireframe
 70
     4
177
     2
291
     0
 71
     0
176
     1
 72
     2
176
     1
 73
     0
176
     1
 90
        0
176
     1
 40
-0.6
176
     1
 41
-30.0
176
     1
 62
     5
 63
     7
421
 16777215
176
     1
 74
     1
176
     1
 91
        4
176
     1
 64
     7
176
     1
 65
   257
176
     1
 75
     1
176
     1
175
     1
176
     1
 42
1.0
176
     1
 92
        0
176
     1
 66
   257
176
     1
 43
1.0
176
     1
 76
     1
176
     1
 77
     6
176
     1
 78
     2
176
     1
 67
     7
176
     1
 79
     5
176
     1
170
     0
176
     1
171
     0
176
     1
290
     0
176
     1
 93
        1
176
     1
 44
0.0
176
     1
173
     0
176
     1
  0
VISUALSTYLE
  5
31
102
{ACAD_REACTORS
330
2A
102
}
330
2A
100
AcDbVisualStyle
  2
3D Hidden
 70
     6
177
     2
291
     0
 71
     1
176
     1
 72
     2
176
     1
 73
     2
176
     1
 90
        0
176
     1
 40
-0.6
176
     1
 41
-30.0
176
     1
 62
     5
 63
     7
421
 16777215
176
     1
 74
     2
176
     1
 91
        2
176
     1
 64
     7
176
     1
 65
   257
176
     1
 75
     2
176
     1
175
     1
176
     1
 42
40.0
176
     1
 92
        0
176
     1
 66
   257
176
     1
 43
1.0
176
     1
 76
     1
176
     1
 77
     6
176
     1
 78
     2
176
     1
 67
     7
176
     1
 79
     3
176
     1
170
     0
176
     1
171
     0
176
     1
290
     0
176
     1
 93
        1
176
     1
 44
0.0
176
     1
173
     0
176
     1
  0
VISUALSTYLE
  5
30
102
{ACAD_REACTORS
330
2A
102
}
330
2A
100
AcDbVisualStyle
  2
3dWireframe
 70
     5
177
     2
291
     0
 71
     0
176
     1
 72
     2
176
     1
 73
     0
176
     1
 90
        0
176
     1
 40
-0.6
176
     1
 41
-30.0
176
     1
 62
     5
 63
     7
421
 16777215
176
     1
 74
     1
176
     1
 91
        4
176
     1
 64
     7
176
     1
 65
   257
176
     1
 75
     1
176
     1
175
     1
176
     1
 42
1.0
176
     1
 92
        0
176
     1
 66
   257
176
     1
 43
1.0
176
     1
 76
     1
176
     1
 77
     6
176
     1
 78
     2
176
     1
 67
     7
176
     1
 79
     5
176
     1
170
     0
176
     1
171
     0
176
     1
290
     0
176
     1
 93
        1
176
     1
 44
0.0
176
     1
173
     0
176
     1
  0
VISUALSTYLE
  5
32
102
{ACAD_REACTORS
330
2A
102
}
330
2A
100
AcDbVisualStyle
  2
Basic
 70
     7
177
     2
291
     1
 71
     1
176
     1
 72
     0
176
     1
 73
     1
176
     1
 90
        0
176
     1
 40
-0.6
176
     1
 41
-30.0
176
     1
 62
     5
 63
     7
421
 16777215
176
     1
 74
     0
176
     1
 91
        4
176
     1
 64
     7
176
     1
 65
   257
176
     1
 75
     1
176
     1
175
     1
176
     1
 42
1.0
176
     1
 92
        8
176
     1
 66
     7
176
     1
 43
1.0
176
     1
 76
     1
176
     1
 77
     6
176
     1
 78
     2
176
     1
 67
     7
176
     1
 79
     5
176
     1
170
     0
176
     1
171
     0
176
     1
290
     0
176
     1
 93
        1
176
     1
 44
0.0
176
     1
173
     0
176
     1
  0
VISUALSTYLE
  5
36
102
{ACAD_REACTORS
330
2A
102
}
330
2A
100
AcDbVisualStyle
  2
Brighten
 70
    12
177
     2
291
     1
 71
     2
176
     1
 72
     2
176
     1
 73
     0
176
     1
 90
        0
176
     1
 40
-0.6
176
     1
 41
-30.0
176
     1
 62
     5
 63
     7
421
 16777215
176
     1
 74
     1
176
     1
 91
        4
176
     1
 64
     7
176
     1
 65
   257
176
     1
 75
     1
176
     1
175
     1
176
     1
 42
1.0
176
     1
 92
        8
176
     1
 66
     7
176
     1
 43
1.0
176
     1
 76
     1
176
     1
 77
     6
176
     1
 78
     2
176
     1
 67
     7
176
     1
 79
     5
176
     1
170
     0
176
     1
171
     0
176
     1
290
     0
176
     1
 93
        1
176
     1
 44
50.0
176
     1
173
     0
176
     1
  0
VISUALSTYLE
  5
3A
102
{ACAD_REACTORS
330
2A
102
}
330
2A
100
AcDbVisualStyle
  2
ColorChange
 70
    16
177
     2
291
     1
 71
     2
176
     1
 72
     2
176
     1
 73
     3
176
     1
 90
        0
176
     1
 40
-0.6
176
     1
 41
-30.0
176
     1
 62
     5
 63
     8
421
  8421504
176
     1
 74
     1
176
     1
 91
        4
176
     1
 64
     7
176
     1
 65
   257
176
     1
 75
     1
176
     1
175
     1
176
     1
 42
1.0
176
     1
 92
        8
176
     1
 66
     8
424
  8421504
176
     1
 43
1.0
176
     1
 76
     1
176
     1
 77
     6
176
     1
 78
     2
176
     1
 67
     7
176
     1
 79
     5
176
     1
170
     0
176
     1
171
     0
176
     1
290
     0
176
     1
 93
        1
176
     1
 44
0.0
176
     1
173
     0
176
     1
  0
VISUALSTYLE
  5
34
102
{ACAD_REACTORS
330
2A
102
}
330
2A
100
AcDbVisualStyle
  2
Conceptual
 70
     9
177
     2
291
     0
 71
     3
176
     1
 72
     2
176
     1
 73
     0
176
     1
 90
        0
176
     1
 40
-0.6
176
     1
 41
-30.0
176
     1
 62
     5
 63
     7
421
 16777215
176
     1
 74
     2
176
     1
 91
        2
176
     1
 64
     7
176
     1
 65
   257
176
     1
 75
     1
176
     1
175
     1
176
     1
 42
40.0
176
     1
 92
        8
176
     1
 66
     7
176
     1
 43
1.0
176
     1
 76
     1
176
     1
 77
     6
176
     1
 78
     2
176
     1
 67
     7
176
     1
 79
     3
176
     1
170
     0
176
     1
171
     0
176
     1
290
     0
176
     1
 93
        1
176
     1
 44
0.0
176
     1
173
     0
176
     1
  0
VISUALSTYLE
  5
35
102
{ACAD_REACTORS
330
2A
102
}
330
2A
100
AcDbVisualStyle
  2
Dim
 70
    11
177
     2
291
     1
 71
     2
176
     1
 72
     2
176
     1
 73
     0
176
     1
 90
        0
176
     1
 40
-0.6
176
     1
 41
-30.0
176
     1
 62
     5
 63
     7
421
 16777215
176
     1
 74
     1
176
     1
 91
        4
176
     1
 64
     7
176
     1
 65
   257
176
     1
 75
     1
176
     1
175
     1
176
     1
 42
1.0
176
     1
 92
        8
176
     1
 66
     7
176
     1
 43
1.0
176
     1
 76
     1
176
     1
 77
     6
176
     1
 78
     2
176
     1
 67
     7
176
     1
 79
     5
176
     1
170
     0
176
     1
171
     0
176
     1
290
     0
176
     1
 93
        1
176
     1
 44
-50.0
176
     1
173
     0
176
     1
  0
VISUALSTYLE
  5
39
102
{ACAD_REACTORS
330
2A
102
}
330
2A
100
AcDbVisualStyle
  2
Facepattern
 70
    15
177
     2
291
     1
 71
     2
176
     1
 72
     2
176
     1
 73
     0
176
     1
 90
        0
176
     1
 40
-0.6
176
     1
 41
-30.0
176
     1
 62
     5
 63
     7
421
 16777215
176
     1
 74
     1
176
     1
 91
        4
176
     1
 64
     7
176
     1
 65
   257
176
     1
 75
     1
176
     1
175
     1
176
     1
 42
1.0
176
     1
 92
        8
176
     1
 66
     7
176
     1
 43
1.0
176
     1
 76
     1
176
     1
 77
     6
176
     1
 78
     2
176
     1
 67
     7
176
     1
 79
     5
176
     1
170
     0
176
     1
171
     0
176
     1
290
     0
176
     1
 93
        1
176
     1
 44
0.0
176
     1
173
     0
176
     1
  0
VISUALSTYLE
  5
2B
102
{ACAD_REACTORS
330
2A
102
}
330
2A
100
AcDbVisualStyle
  2
Flat
 70
     0
177
     2
291
     1
 71
     2
176
     1
 72
     1
176
     1
 73
     1
176
     1
 90
        2
176
     1
 40
-0.6
176
     1
 41
30.0
176
     1
 62
     5
 63
     7
421
 16777215
176
     1
 74
     0
176
     1
 91
        4
176
     1
 64
     7
176
     1
 65
   257
176
     1
 75
     1
176
     1
175
     1
176
     1
 42
1.0
176
     1
 92
        8
176
     1
 66
     7
176
     1
 43
1.0
176
     1
 76
     1
176
     1
 77
     6
176
     1
 78
     2
176
     1
 67
     7
176
     1
 79
     5
176
     1
170
     0
176
     1
171
     0
176
     1
290
     0
176
     1
 93
       13
176
     1
 44
0.0
176
     1
173
     0
176
     1
  0
VISUALSTYLE
  5
2C
102
{ACAD_REACTORS
330
2A
102
}
330
2A
100
AcDbVisualStyle
  2
FlatWithEdges
 70
     1
177
     2
291
     1
 71
     2
176
     1
 72
     1
176
     1
 73
     1
176
     1
 90
        2
176
     1
 40
-0.6
176
     1
 41
30.0
176
     1
 62
     5
 63
     7
421
 16777215
176
     1
 74
     1
176
     1
 91
        4
176
     1
 64
     7
176
     1
 65
   257
176
     1
 75
     1
176
     1
175
     1
176
     1
 42
1.0
176
     1
 92
        0
176
     1
 66
   257
176
     1
 43
1.0
176
     1
 76
     1
176
     1
 77
     6
176
     1
 78
     2
176
     1
 67
     7
176
     1
 79
     5
176
     1
170
     0
176
     1
171
     0
176
     1
290
     0
176
     1
 93
       13
176
     1
 44
0.0
176
     1
173
     0
176
     1
  0
VISUALSTYLE
  5
2D
102
{ACAD_REACTORS
330
2A
102
}
330
2A
100
AcDbVisualStyle
  2
Gouraud
 70
     2
177
     2
291
     1
 71
     2
176
     1
 72
     2
176
     1
 73
     1
176
     1
 90
        2
176
     1
 40
-0.6
176
     1
 41
30.0
176
     1
 62
     5
 63
     7
421
 16777215
176
     1
 74
     0
176
     1
 91
        4
176
     1
 64
     7
176
     1
 65
   257
176
     1
 75
     1
176
     1
175
     1
176
     1
 42
1.0
176
     1
 92
        0
176
     1
 66
     7
176
     1
 43
1.0
176
     1
 76
     1
176
     1
 77
     6
176
     1
 78
     2
176
     1
 67
     7
176
     1
 79
     5
176
     1
170
     0
176
     1
171
     0
176
     1
290
     0
176
     1
 93
       13
176
     1
 44
0.0
176
     1
173
     0
176
     1
  0
VISUALSTYLE
  5
2E
102
{ACAD_REACTORS
330
2A
102
}
330
2A
100
AcDbVisualStyle
  2
GouraudWithEdges
 70
     3
177
     2
291
     1
 71
     2
176
     1
 72
     2
176
     1
 73
     1
176
     1
 90
        2
176
     1
 40
-0.6
176
     1
 41
30.0
176
     1
 62
     5
 63
     7
421
 16777215
176
     1
 74
     1
176
     1
 91
        4
176
     1
 64
     7
176
     1
 65
   257
176
     1
 75
     1
176
     1
175
     1
176
     1
 42
1.0
176
     1
 92
        0
176
     1
 66
   257
176
     1
 43
1.0
176
     1
 76
     1
176
     1
 77
     6
176
     1
 78
     2
176
     1
 67
     7
176
     1
 79
     5
176
     1
170
     0
176
     1
171
     0
176
     1
290
     0
176
     1
 93
       13
176
     1
 44
0.0
176
     1
173
     0
176
     1
  0
VISUALSTYLE
  5
38
102
{ACAD_REACTORS
330
2A
102
}
330
2A
100
AcDbVisualStyle
  2
Linepattern
 70
    14
177
     2
291
     1
 71
     2
176
     1
 72
     2
176
     1
 73
     0
176
     1
 90
        0
176
     1
 40
-0.6
176
     1
 41
-30.0
176
     1
 62
     5
 63
     7
421
 16777215
176
     1
 74
     1
176
     1
 91
        4
176
     1
 64
     7
176
     1
 65
   257
176
     1
 75
     7
176
     1
175
     7
176
     1
 42
1.0
176
     1
 92
        8
176
     1
 66
     7
176
     1
 43
1.0
176
     1
 76
     1
176
     1
 77
     6
176
     1
 78
     2
176
     1
 67
     7
176
     1
 79
     5
176
     1
170
     0
176
     1
171
     0
176
     1
290
     0
176
     1
 93
        1
176
     1
 44
0.0
176
     1
173
     0
176
     1
  0
VISUALSTYLE
  5
33
102
{ACAD_REACTORS
330
2A
102
}
330
2A
100
AcDbVisualStyle
  2
Realistic
 70
     8
177
     2
291
     0
 71
     2
176
     1
 72
     2
176
     1
 73
     0
176
     1
 90
        0
176
     1
 40
-0.6
176
     1
 41
-30.0
176
     1
 62
     5
 63
     7
421
 16777215
176
     1
 74
     1
176
     1
 91
        0
176
     1
 64
     7
176
     1
 65
   257
176
     1
 75
     1
176
     1
175
     1
176
     1
 42
1.0
176
     1
 92
        8
176
     1
 66
     8
424
  7895160
176
     1
 43
1.0
176
     1
 76
     1
176
     1
 77
     6
176
     1
 78
     2
176
     1
 67
     7
176
     1
 79
     5
176
     1
170
     0
176
     1
171
     0
176
     1
290
     0
176
     1
 93
       13
176
     1
 44
0.0
176
     1
173
     0
176
     1
  0
VISUALSTYLE
  5
37
102
{ACAD_REACTORS
330
2A
102
}
330
2A
100
AcDbVisualStyle
  2
Thicken
 70
    13
177
     2
291
     1
 71
     2
176
     1
 72
     2
176
     1
 73
     0
176
     1
 90
        0
176
     1
 40
-0.6
176
     1
 41
-30.0
176
     1
 62
     5
 63
     7
421
 16777215
176
     1
 74
     1
176
     1
 91
        4
176
     1
 64
     7
176
     1
 65
   257
176
     1
 75
     1
176
     1
175
     1
176
     1
 42
1.0
176
     1
 92
       12
176
     1
 66
     7
176
     1
 43
1.0
176
     1
 76
     1
176
     1
 77
     6
176
     1
 78
     2
176
     1
 67
     7
176
     1
 79
     5
176
     1
170
     0
176
     1
171
     0
176
     1
290
     0
176
     1
 93
        1
176
     1
 44
0.0
176
     1
173
     0
176
     1
  0
ENDSEC
  0
EOF
