  0
SECTION
  2
HEADER
  9
$ACADVER
  1
AC1024
  9
$ACADMAINTVER
 70
     6
  9
$DWGCODEPAGE
  3
ANSI_1252
  9
$INSBASE
 10
0.0
 20
0.0
 30
0.0
  9
$EXTMIN
 10
1.000000000000000E+20
 20
1.000000000000000E+20
 30
1.000000000000000E+20
  9
$EXTMAX
 10
-1.000000000000000E+20
 20
-1.000000000000000E+20
 30
-1.000000000000000E+20
  9
$LIMMIN
 10
0.0
 20
0.0
  9
$LIMMAX
 10
12.0
 20
9.0
  9
$ORTHOMODE
 70
     0
  9
$REGENMODE
 70
     1
  9
$FILLMODE
 70
     1
  9
$QTEXTMODE
 70
     0
  9
$MIRRTEXT
 70
     1
  9
$LTSCALE
 40
1.0
  9
$ATTMODE
 70
     1
  9
$TEXTSIZE
 40
0.2
  9
$TRACEWID
 40
0.05
  9
$TEXTSTYLE
  7
Standard
  9
$CLAYER
  8
0
  9
$CELTYPE
  6
ByLayer
  9
$CECOLOR
 62
   256
  9
$CELTSCALE
 40
1.0
  9
$DISPSILH
 70
     0
  9
$DIMSCALE
 40
1.0
  9
$DIMASZ
 40
0.18
  9
$DIMEXO
 40
0.0625
  9
$DIMDLI
 40
0.38
  9
$DIMRND
 40
0.0
  9
$DIMDLE
 40
0.0
  9
$DIMEXE
 40
0.18
  9
$DIMTP
 40
0.0
  9
$DIMTM
 40
0.0
  9
$DIMTXT
 40
0.18
  9
$DIMCEN
 40
0.09
  9
$DIMTSZ
 40
0.0
  9
$DIMTOL
 70
     0
  9
$DIMLIM
 70
     0
  9
$DIMTIH
 70
     1
  9
$DIMTOH
 70
     1
  9
$DIMSE1
 70
     0
  9
$DIMSE2
 70
     0
  9
$DIMTAD
 70
     0
  9
$DIMZIN
 70
     0
  9
$DIMBLK
  1

  9
$DIMASO
 70
     1
  9
$DIMSHO
 70
     1
  9
$DIMPOST
  1

  9
$DIMAPOST
  1

  9
$DIMALT
 70
     0
  9
$DIMALTD
 70
     2
  9
$DIMALTF
 40
25.4
  9
$DIMLFAC
 40
1.0
  9
$DIMTOFL
 70
     0
  9
$DIMTVP
 40
0.0
  9
$DIMTIX
 70
     0
  9
$DIMSOXD
 70
     0
  9
$DIMSAH
 70
     0
  9
$DIMBLK1
  1

  9
$DIMBLK2
  1

  9
$DIMSTYLE
  2
Standard
  9
$DIMCLRD
 70
     0
  9
$DIMCLRE
 70
     0
  9
$DIMCLRT
 70
     0
  9
$DIMTFAC
 40
1.0
  9
$DIMGAP
 40
0.09
  9
$DIMJUST
 70
     0
  9
$DIMSD1
 70
     0
  9
$DIMSD2
 70
     0
  9
$DIMTOLJ
 70
     1
  9
$DIMTZIN
 70
     0
  9
$DIMALTZ
 70
     0
  9
$DIMALTTZ
 70
     0
  9
$DIMUPT
 70
     0
  9
$DIMDEC
 70
     4
  9
$DIMTDEC
 70
     4
  9
$DIMALTU
 70
     2
  9
$DIMALTTD
 70
     2
  9
$DIMTXSTY
  7
Standard
  9
$DIMAUNIT
 70
     0
  9
$DIMADEC
 70
     0
  9
$DIMALTRND
 40
0.0
  9
$DIMAZIN
 70
     0
  9
$DIMDSEP
 70
    46
  9
$DIMATFIT
 70
     3
  9
$DIMFRAC
 70
     0
  9
$DIMLDRBLK
  1

  9
$DIMLUNIT
 70
     2
  9
$DIMLWD
 70
    -2
  9
$DIMLWE
 70
    -2
  9
$DIMTMOVE
 70
     0
  9
$DIMFXL
 40
1.0
  9
$DIMFXLON
 70
     0
  9
$DIMJOGANG
 40
0.7853981633974483
  9
$DIMTFILL
 70
     0
  9
$DIMTFILLCLR
 70
     0
  9
$DIMARCSYM
 70
     0
  9
$DIMLTYPE
  6

  9
$DIMLTEX1
  6

  9
$DIMLTEX2
  6

  9
$DIMTXTDIRECTION
 70
     0
  9
$LUNITS
 70
     2
  9
$LUPREC
 70
     4
  9
$SKETCHINC
 40
0.1
  9
$FILLETRAD
 40
0.5
  9
$AUNITS
 70
     0
  9
$AUPREC
 70
     0
  9
$MENU
  1
.
  9
$ELEVATION
 40
0.0
  9
$PELEVATION
 40
0.0
  9
$THICKNESS
 40
0.0
  9
$LIMCHECK
 70
     0
  9
$CHAMFERA
 40
0.5
  9
$CHAMFERB
 40
0.5
  9
$CHAMFERC
 40
1.0
  9
$CHAMFERD
 40
0.0
  9
$SKPOLY
 70
     0
  9
$TDCREATE
 40
2458854.984291227
  9
$TDUCREATE
 40
2458854.44262456
  9
$TDUPDATE
 40
2458854.98429147
  9
$TDUUPDATE
 40
2458854.442624803
  9
$TDINDWG
 40
0.0000000116
  9
$TDUSRTIMER
 40
0.0000000116
  9
$USRTIMER
 70
     1
  9
$ANGBASE
 50
0.0
  9
$ANGDIR
 70
     0
  9
$PDMODE
 70
     0
  9
$PDSIZE
 40
0.0
  9
$PLINEWID
 40
0.0
  9
$SPLFRAME
 70
     0
  9
$SPLINETYPE
 70
     6
  9
$SPLINESEGS
 70
     8
  9
$HANDSEED
  5
111
  9
$SURFTAB1
 70
     6
  9
$SURFTAB2
 70
     6
  9
$SURFTYPE
 70
     6
  9
$SURFU
 70
     6
  9
$SURFV
 70
     6
  9
$UCSBASE
  2

  9
$UCSNAME
  2

  9
$UCSORG
 10
0.0
 20
0.0
 30
0.0
  9
$UCSXDIR
 10
1.0
 20
0.0
 30
0.0
  9
$UCSYDIR
 10
0.0
 20
1.0
 30
0.0
  9
$UCSORTHOREF
  2

  9
$UCSORTHOVIEW
 70
     0
  9
$UCSORGTOP
 10
0.0
 20
0.0
 30
0.0
  9
$UCSORGBOTTOM
 10
0.0
 20
0.0
 30
0.0
  9
$UCSORGLEFT
 10
0.0
 20
0.0
 30
0.0
  9
$UCSORGRIGHT
 10
0.0
 20
0.0
 30
0.0
  9
$UCSORGFRONT
 10
0.0
 20
0.0
 30
0.0
  9
$UCSORGBACK
 10
0.0
 20
0.0
 30
0.0
  9
$PUCSBASE
  2

  9
$PUCSNAME
  2

  9
$PUCSORG
 10
0.0
 20
0.0
 30
0.0
  9
$PUCSXDIR
 10
1.0
 20
0.0
 30
0.0
  9
$PUCSYDIR
 10
0.0
 20
1.0
 30
0.0
  9
$PUCSORTHOREF
  2

  9
$PUCSORTHOVIEW
 70
     0
  9
$PUCSORGTOP
 10
0.0
 20
0.0
 30
0.0
  9
$PUCSORGBOTTOM
 10
0.0
 20
0.0
 30
0.0
  9
$PUCSORGLEFT
 10
0.0
 20
0.0
 30
0.0
  9
$PUCSORGRIGHT
 10
0.0
 20
0.0
 30
0.0
  9
$PUCSORGFRONT
 10
0.0
 20
0.0
 30
0.0
  9
$PUCSORGBACK
 10
0.0
 20
0.0
 30
0.0
  9
$USERI1
 70
     0
  9
$USERI2
 70
     0
  9
$USERI3
 70
     0
  9
$USERI4
 70
     0
  9
$USERI5
 70
     0
  9
$USERR1
 40
0.0
  9
$USERR2
 40
0.0
  9
$USERR3
 40
0.0
  9
$USERR4
 40
0.0
  9
$USERR5
 40
0.0
  9
$WORLDVIEW
 70
     1
  9
$SHADEDGE
 70
     3
  9
$SHADEDIF
 70
    70
  9
$TILEMODE
 70
     1
  9
$MAXACTVP
 70
    64
  9
$PINSBASE
 10
0.0
 20
0.0
 30
0.0
  9
$PLIMCHECK
 70
     0
  9
$PEXTMIN
 10
1.000000000000000E+20
 20
1.000000000000000E+20
 30
1.000000000000000E+20
  9
$PEXTMAX
 10
-1.000000000000000E+20
 20
-1.000000000000000E+20
 30
-1.000000000000000E+20
  9
$PLIMMIN
 10
0.0
 20
0.0
  9
$PLIMMAX
 10
12.0
 20
9.0
  9
$UNITMODE
 70
     0
  9
$VISRETAIN
 70
     1
  9
$PLINEGEN
 70
     0
  9
$PSLTSCALE
 70
     1
  9
$TREEDEPTH
 70
  3020
  9
$CMLSTYLE
  2
Standard
  9
$CMLJUST
 70
     0
  9
$CMLSCALE
 40
1.0
  9
$PROXYGRAPHICS
 70
     1
  9
$MEASUREMENT
 70
     0
  9
$CELWEIGHT
370
    -1
  9
$ENDCAPS
280
     0
  9
$JOINSTYLE
280
     0
  9
$LWDISPLAY
290
     1
  9
$INSUNITS
 70
     1
  9
$HYPERLINKBASE
  1

  9
$STYLESHEET
  1

  9
$XEDIT
290
     1
  9
$CEPSNTYPE
380
     0
  9
$PSTYLEMODE
290
     1
  9
$FINGERPRINTGUID
  2
{E2B41EB7-C27D-45F7-AA2A-4B4958429D1C}
  9
$VERSIONGUID
  2
{FAEB1C32-E019-11D5-929B-00C0DF256EC4}
  9
$EXTNAMES
290
     1
  9
$PSVPSCALE
 40
0.0
  9
$OLESTARTUP
290
     0
  9
$SORTENTS
280
   127
  9
$INDEXCTL
280
     0
  9
$HIDETEXT
280
     1
  9
$XCLIPFRAME
280
     2
  9
$HALOGAP
280
     0
  9
$OBSCOLOR
 70
   257
  9
$OBSLTYPE
280
     0
  9
$INTERSECTIONDISPLAY
280
     0
  9
$INTERSECTIONCOLOR
 70
   257
  9
$DIMASSOC
280
     2
  9
$PROJECTNAME
  1

  9
$CAMERADISPLAY
290
     0
  9
$LENSLENGTH
 40
50.0
  9
$CAMERAHEIGHT
 40
0.0
  9
$STEPSPERSEC
 40
2.0
  9
$STEPSIZE
 40
6.0
  9
$3DDWFPREC
 40
2.0
  9
$PSOLWIDTH
 40
0.25
  9
$PSOLHEIGHT
 40
4.0
  9
$LOFTANG1
 40
1.570796326794897
  9
$LOFTANG2
 40
1.570796326794897
  9
$LOFTMAG1
 40
0.0
  9
$LOFTMAG2
 40
0.0
  9
$LOFTPARAM
 70
     7
  9
$LOFTNORMALS
280
     1
  9
$LATITUDE
 40
37.795
  9
$LONGITUDE
 40
-122.394
  9
$NORTHDIRECTION
 40
0.0
  9
$TIMEZONE
 70
 -8000
  9
$LIGHTGLYPHDISPLAY
280
     1
  9
$TILEMODELIGHTSYNCH
280
     1
  9
$CMATERIAL
347
3C
  9
$SOLIDHIST
280
     1
  9
$SHOWHIST
280
     1
  9
$DWFFRAME
280
     2
  9
$DGNFRAME
280
     2
  9
$REALWORLDSCALE
290
     1
  9
$INTERFERECOLOR
 62
   256
  9
$CSHADOW
280
     0
  9
$SHADOWPLANELOCATION
 40
0.0
  0
ENDSEC
  0
SECTION
  2
CLASSES
  0
CLASS
  1
ACDBDICTIONARYWDFLT
  2
AcDbDictionaryWithDefault
  3
ObjectDBX Classes
 90
        0
 91
        4
280
     0
281
     0
  0
CLASS
  1
VISUALSTYLE
  2
AcDbVisualStyle
  3
ObjectDBX Classes
 90
     4095
 91
        4
280
     0
281
     0
  0
CLASS
  1
MATERIAL
  2
AcDbMaterial
  3
ObjectDBX Classes
 90
     1153
 91
        4
280
     0
281
     0
  0
CLASS
  1
SUN
  2
AcDbSun
  3
SCENEOE
 90
     1024
 91
        4
280
     0
281
     0
  0
ENDSEC
  0
SECTION
  2
TABLES
  0
TABLE
  2
VPORT
  5
8
330
0
100
AcDbSymbolTable
 70
     1
  0
VPORT
  5
29
330
8
100
AcDbSymbolTableRecord
100
AcDbViewportTableRecord
  2
*Active
 70
     0
 10
0.0
 20
0.0
 11
1.0
 21
1.0
 12
0.0
 22
0.0
 13
0.0
 23
0.0
 14
0.5
 24
0.5
 15
0.5
 25
0.5
 16
0.0
 26
0.0
 36
1.0
 17
4.062509619594595
 27
6.422065115542762
 37
0.0
 40
11.69291338582677
 41
0.7070707070707065
 42
50.0
 43
0.0
 44
0.0
 50
0.0
 51
0.0
 71
     0
 72
   100
 73
     1
 74
     3
 75
     0
 76
     0
 77
     0
 78
     0
281
     0
 65
     1
110
0.0
120
0.0
130
0.0
111
1.0
121
0.0
131
0.0
112
0.0
122
1.0
132
0.0
 79
     0
146
0.0
 60
     3
 61
     5
292
     1
282
     1
141
0.0
142
0.0
 63
   250
361
3F
  0
ENDTAB
  0
TABLE
  2
LTYPE
  5
5
330
0
100
AcDbSymbolTable
 70
     1
  0
LTYPE
  5
14
330
5
100
AcDbSymbolTableRecord
100
AcDbLinetypeTableRecord
  2
ByBlock
 70
     0
  3

 72
    65
 73
     0
 40
0.0
  0
LTYPE
  5
15
330
5
100
AcDbSymbolTableRecord
100
AcDbLinetypeTableRecord
  2
ByLayer
 70
     0
  3

 72
    65
 73
     0
 40
0.0
  0
LTYPE
  5
16
330
5
100
AcDbSymbolTableRecord
100
AcDbLinetypeTableRecord
  2
Continuous
 70
     0
  3
Solid line
 72
    65
 73
     0
 40
0.0
  0
ENDTAB
  0
TABLE
  2
LAYER
  5
2
330
0
100
AcDbSymbolTable
 70
     3
  0
LAYER
  5
10
330
2
100
AcDbSymbolTableRecord
100
AcDbLayerTableRecord
  2
0
 70
     0
 62
     7
  6
Continuous
370
    -3
390
F
347
3E
  0
LAYER
  5
40
330
2
100
AcDbSymbolTableRecord
100
AcDbLayerTableRecord
  2
Layer 1
 70
     0
 62
     7
  6
Continuous
370
    -3
390
F
347
3E
  0
LAYER
  5
E6
330
2
100
AcDbSymbolTableRecord
100
AcDbLayerTableRecord
  2
callout
 70
     0
 62
     7
  6
Continuous
370
    -3
390
F
347
3E
  0
ENDTAB
  0
TABLE
  2
STYLE
  5
3
330
0
100
AcDbSymbolTable
 70
     1
  0
STYLE
  5
11
330
3
100
AcDbSymbolTableRecord
100
AcDbTextStyleTableRecord
  2
Standard
 70
     0
 40
0.0
 41
1.0
 50
0.0
 71
     0
 42
0.2
  3
txt
  4

  0
ENDTAB
  0
TABLE
  2
VIEW
  5
6
330
0
100
AcDbSymbolTable
 70
     0
  0
ENDTAB
  0
TABLE
  2
UCS
  5
7
330
0
100
AcDbSymbolTable
 70
     0
  0
ENDTAB
  0
TABLE
  2
APPID
  5
9
330
0
100
AcDbSymbolTable
 70
     1
  0
APPID
  5
12
330
9
100
AcDbSymbolTableRecord
100
AcDbRegAppTableRecord
  2
ACAD
 70
     0
  0
ENDTAB
  0
TABLE
  2
DIMSTYLE
  5
A
330
0
100
AcDbSymbolTable
 70
     1
100
AcDbDimStyleTable
  0
DIMSTYLE
105
27
330
A
100
AcDbSymbolTableRecord
100
AcDbDimStyleTableRecord
  2
Standard
 70
     0
178
     0
340
11
  0
ENDTAB
  0
TABLE
  2
BLOCK_RECORD
  5
1
330
0
100
AcDbSymbolTable
 70
     3
  0
BLOCK_RECORD
  5
1F
330
1
100
AcDbSymbolTableRecord
100
AcDbBlockTableRecord
  2
*Model_Space
340
22
 70
     0
280
     1
281
     0
  0
BLOCK_RECORD
  5
1B
330
1
100
AcDbSymbolTableRecord
100
AcDbBlockTableRecord
  2
*Paper_Space
340
1E
 70
     0
280
     1
281
     0
  0
BLOCK_RECORD
  5
23
330
1
100
AcDbSymbolTableRecord
100
AcDbBlockTableRecord
  2
*Paper_Space0
340
26
 70
     0
280
     1
281
     0
  0
BLOCK_RECORD
  5
EB
330
1
100
AcDbSymbolTableRecord
100
AcDbBlockTableRecord
  2
block 2
340
0
102
{BLKREFS
331
EC
102
}
 70
     0
280
     1
281
     0
  0
BLOCK_RECORD
  5
FB
330
1
100
AcDbSymbolTableRecord
100
AcDbBlockTableRecord
  2
block 3
340
0
102
{BLKREFS
331
FC
102
}
 70
     0
280
     1
281
     0
  0
ENDTAB
  0
ENDSEC
  0
SECTION
  2
BLOCKS
  0
BLOCK
  5
20
330
1F
100
AcDbEntity
  8
0
100
AcDbBlockBegin
  2
*Model_Space
 70
     0
 10
0.0
 20
0.0
 30
0.0
  3
*Model_Space
  1

  0
ENDBLK
  5
21
330
1F
100
AcDbEntity
  8
0
100
AcDbBlockEnd
  0
BLOCK
  5
1C
330
1B
100
AcDbEntity
 67
     1
  8
0
100
AcDbBlockBegin
  2
*Paper_Space
 70
     0
 10
0.0
 20
0.0
 30
0.0
  3
*Paper_Space
  1

  0
ENDBLK
  5
1D
330
1B
100
AcDbEntity
 67
     1
  8
0
100
AcDbBlockEnd
  0
BLOCK
  5
24
330
23
100
AcDbEntity
  8
0
100
AcDbBlockBegin
  2
*Paper_Space0
 70
     0
 10
0.0
 20
0.0
 30
0.0
  3
*Paper_Space0
  1

  0
ENDBLK
  5
25
330
23
100
AcDbEntity
  8
0
100
AcDbBlockEnd
  0
BLOCK
  5
ED
330
EB
100
AcDbEntity
  8
0
100
AcDbBlockBegin
  2
block 2
 70
     0
 10
0.0
 20
0.0
 30
0.0
  3
block 2
  1

  0
POLYLINE
  5
EF
330
EB
100
AcDbEntity
  8
callout
 62
   250
420
  2301728
370
    25
100
AcDb2dPolyline
 66
     1
 10
0.0
 20
0.0
 30
0.0
  0
VERTEX
  5
F0
330
EF
100
AcDbEntity
  8
callout
 62
   250
420
  2301728
370
    25
100
AcDbVertex
100
AcDb2dVertex
 10
4.941397088372974
 20
7.915349590622541
 30
0.0
  0
VERTEX
  5
F1
330
EF
100
AcDbEntity
  8
callout
 62
   250
420
  2301728
370
    25
100
AcDbVertex
100
AcDb2dVertex
 10
5.243120487603973
 20
7.795497031149554
 30
0.0
  0
SEQEND
  5
F2
330
EF
100
AcDbEntity
  8
callout
 62
   250
420
  2301728
370
    25
  0
POLYLINE
  5
F3
330
EB
100
AcDbEntity
  8
callout
370
     0
100
AcDb2dPolyline
 66
     1
 10
0.0
 20
0.0
 30
0.0
  0
VERTEX
  5
F4
330
F3
100
AcDbEntity
  8
callout
370
     0
100
AcDbVertex
100
AcDb2dVertex
 10
4.998717724150664
 20
7.940535356356096
 30
0.0
  0
VERTEX
  5
F5
330
F3
100
AcDbEntity
  8
callout
370
     0
100
AcDbVertex
100
AcDb2dVertex
 10
4.969067619853882
 20
7.861698466126667
 30
0.0
  0
VERTEX
  5
F6
330
F3
100
AcDbEntity
  8
callout
370
     0
100
AcDbVertex
100
AcDb2dVertex
 10
4.870335534080772
 20
7.941581636399569
 30
0.0
  0
VERTEX
  5
F7
330
F3
100
AcDbEntity
  8
callout
370
     0
100
AcDbVertex
100
AcDb2dVertex
 10
4.998717724150664
 20
7.940535356356096
 30
0.0
  0
SEQEND
  5
F9
330
F3
100
AcDbEntity
  8
callout
370
     0
  0
HATCH
  5
F8
330
EB
100
AcDbEntity
  8
callout
 62
   250
420
  2301728
100
AcDbHatch
 10
0.0
 20
0.0
 30
0.0
210
0.0
220
0.0
230
1.0
  2
SOLID
 70
     1
 71
     0
 91
        1
 92
        1
 93
        3
 72
     1
 10
4.998717724150664
 20
7.940535356356096
 11
4.969067619853882
 21
7.861698466126667
 72
     1
 10
4.969067619853882
 20
7.861698466126667
 11
4.870335534080772
 21
7.941581636399569
 72
     1
 10
4.870335534080772
 20
7.941581636399569
 11
4.998717724150664
 21
7.940535356356096
 97
        0
 75
     2
 76
     1
 98
        0
  0
ENDBLK
  5
EE
330
EB
100
AcDbEntity
  8
0
100
AcDbBlockEnd
  0
BLOCK
  5
FD
330
FB
100
AcDbEntity
  8
0
100
AcDbBlockBegin
  2
block 3
 70
     0
 10
0.0
 20
0.0
 30
0.0
  3
block 3
  1

  0
POLYLINE
  5
FF
330
FB
100
AcDbEntity
  8
callout
 62
   250
420
  2301728
370
    25
100
AcDb2dPolyline
 66
     1
 10
0.0
 20
0.0
 30
0.0
  0
VERTEX
  5
100
330
FF
100
AcDbEntity
  8
callout
 62
   250
420
  2301728
370
    25
100
AcDbVertex
100
AcDb2dVertex
 10
3.382529267235567
 20
8.411417127576113
 30
0.0
  0
VERTEX
  5
101
330
FF
100
AcDbEntity
  8
callout
 62
   250
420
  2301728
370
    25
100
AcDbVertex
100
AcDb2dVertex
 10
3.131227847547797
 20
8.616963331916269
 30
0.0
  0
SEQEND
  5
102
330
FF
100
AcDbEntity
  8
callout
 62
   250
420
  2301728
370
    25
  0
POLYLINE
  5
103
330
FB
100
AcDbEntity
  8
callout
370
     0
100
AcDb2dPolyline
 66
     1
 10
0.0
 20
0.0
 30
0.0
  0
VERTEX
  5
104
330
103
100
AcDbEntity
  8
callout
370
     0
100
AcDbVertex
100
AcDb2dVertex
 10
3.32027445080957
 20
8.404760107724176
 30
0.0
  0
VERTEX
  5
105
330
103
100
AcDbEntity
  8
callout
370
     0
100
AcDbVertex
100
AcDb2dVertex
 10
3.372393457769943
 20
8.470926512034238
 30
0.0
  0
VERTEX
  5
106
330
103
100
AcDbEntity
  8
callout
370
     0
100
AcDbVertex
100
AcDb2dVertex
 10
3.442319414352015
 20
8.36490903116415
 30
0.0
  0
VERTEX
  5
107
330
103
100
AcDbEntity
  8
callout
370
     0
100
AcDbVertex
100
AcDb2dVertex
 10
3.32027445080957
 20
8.404760107724176
 30
0.0
  0
SEQEND
  5
109
330
103
100
AcDbEntity
  8
callout
370
     0
  0
HATCH
  5
108
330
FB
100
AcDbEntity
  8
callout
 62
   250
420
  2301728
100
AcDbHatch
 10
0.0
 20
0.0
 30
0.0
210
0.0
220
0.0
230
1.0
  2
SOLID
 70
     1
 71
     0
 91
        1
 92
        1
 93
        3
 72
     1
 10
3.32027445080957
 20
8.404760107724176
 11
3.372393457769943
 21
8.470926512034238
 72
     1
 10
3.372393457769943
 20
8.470926512034238
 11
3.442319414352015
 21
8.36490903116415
 72
     1
 10
3.442319414352015
 20
8.36490903116415
 11
3.32027445080957
 21
8.404760107724176
 97
        0
 75
     2
 76
     1
 98
        0
  0
ENDBLK
  5
FE
330
FB
100
AcDbEntity
  8
0
100
AcDbBlockEnd
  0
ENDSEC
  0
SECTION
  2
ENTITIES
  0
POLYLINE
  5
41
330
1F
100
AcDbEntity
  8
Layer 1
 62
   250
420
  2301728
370
    30
100
AcDb2dPolyline
 66
     1
 10
0.0
 20
0.0
 30
0.0
  0
VERTEX
  5
42
330
41
100
AcDbEntity
  8
Layer 1
 62
   250
420
  2301728
370
    30
100
AcDbVertex
100
AcDb2dVertex
 10
3.869978799010596
 20
6.473292522300577
 30
0.0
  0
VERTEX
  5
43
330
41
100
AcDbEntity
  8
Layer 1
 62
   250
420
  2301728
370
    30
100
AcDbVertex
100
AcDb2dVertex
 10
4.405933352741461
 20
6.20559934110055
 30
0.0
  0
VERTEX
  5
44
330
41
100
AcDbEntity
  8
Layer 1
 62
   250
420
  2301728
370
    30
100
AcDbVertex
100
AcDb2dVertex
 10
4.62855476488408
 20
6.343014416791005
 30
0.0
  0
VERTEX
  5
45
330
41
100
AcDbEntity
  8
Layer 1
 62
   250
420
  2301728
370
    30
100
AcDbVertex
100
AcDb2dVertex
 10
4.741059592057379
 20
6.306067631020672
 30
0.0
  0
VERTEX
  5
46
330
41
100
AcDbEntity
  8
Layer 1
 62
   250
420
  2301728
370
    30
100
AcDbVertex
100
AcDb2dVertex
 10
4.767587389179551
 20
6.427724572896497
 30
0.0
  0
VERTEX
  5
47
330
41
100
AcDbEntity
  8
Layer 1
 62
   250
420
  2301728
370
    30
100
AcDbVertex
100
AcDb2dVertex
 10
4.844807430904893
 20
6.475100225474407
 30
0.0
  0
VERTEX
  5
48
330
41
100
AcDbEntity
  8
Layer 1
 62
   250
420
  2301728
370
    30
100
AcDbVertex
100
AcDb2dVertex
 10
4.844807430904893
 20
8.870953950260615
 30
0.0
  0
VERTEX
  5
49
330
41
100
AcDbEntity
  8
Layer 1
 62
   250
420
  2301728
370
    30
100
AcDbVertex
100
AcDb2dVertex
 10
4.313110561048183
 20
8.972410056122726
 30
0.0
  0
VERTEX
  5
4A
330
41
100
AcDbEntity
  8
Layer 1
 62
   250
420
  2301728
370
    30
100
AcDbVertex
100
AcDb2dVertex
 10
4.193755230317189
 20
8.946015614152707
 30
0.0
  0
VERTEX
  5
4B
330
41
100
AcDbEntity
  8
Layer 1
 62
   250
420
  2301728
370
    30
100
AcDbVertex
100
AcDb2dVertex
 10
4.057436630322349
 20
8.973291681850949
 30
0.0
  0
VERTEX
  5
4C
330
41
100
AcDbEntity
  8
Layer 1
 62
   250
420
  2301728
370
    30
100
AcDbVertex
100
AcDb2dVertex
 10
4.026266285845773
 20
8.910093687422178
 30
0.0
  0
VERTEX
  5
4D
330
41
100
AcDbEntity
  8
Layer 1
 62
   250
420
  2301728
370
    30
100
AcDbVertex
100
AcDb2dVertex
 10
3.868146400438213
 20
8.874581704307577
 30
0.0
  0
VERTEX
  5
4E
330
41
100
AcDbEntity
  8
Layer 1
 62
   250
420
  2301728
370
    30
100
AcDbVertex
100
AcDb2dVertex
 10
3.869978799010596
 20
6.473292522300577
 30
0.0
  0
SEQEND
  5
50
330
41
100
AcDbEntity
  8
Layer 1
 62
   250
420
  2301728
370
    30
  0
HATCH
  5
4F
330
1F
100
AcDbEntity
  8
Layer 1
 62
    43
420
 15444572
100
AcDbHatch
 10
0.0
 20
0.0
 30
0.0
210
0.0
220
0.0
230
1.0
  2
SOLID
 70
     1
 71
     0
 91
        1
 92
        1
 93
       12
 72
     1
 10
3.869978799010596
 20
6.473292522300577
 11
4.405933352741461
 21
6.20559934110055
 72
     1
 10
4.405933352741461
 20
6.20559934110055
 11
4.62855476488408
 21
6.343014416791005
 72
     1
 10
4.62855476488408
 20
6.343014416791005
 11
4.741059592057379
 21
6.306067631020672
 72
     1
 10
4.741059592057379
 20
6.306067631020672
 11
4.767587389179551
 21
6.427724572896497
 72
     1
 10
4.767587389179551
 20
6.427724572896497
 11
4.844807430904893
 21
6.475100225474407
 72
     1
 10
4.844807430904893
 20
6.475100225474407
 11
4.844807430904893
 21
8.870953950260615
 72
     1
 10
4.844807430904893
 20
8.870953950260615
 11
4.313110561048183
 21
8.972410056122726
 72
     1
 10
4.313110561048183
 20
8.972410056122726
 11
4.193755230317189
 21
8.946015614152707
 72
     1
 10
4.193755230317189
 20
8.946015614152707
 11
4.057436630322349
 21
8.973291681850949
 72
     1
 10
4.057436630322349
 20
8.973291681850949
 11
4.026266285845773
 21
8.910093687422178
 72
     1
 10
4.026266285845773
 20
8.910093687422178
 11
3.868146400438213
 21
8.874581704307577
 72
     1
 10
3.868146400438213
 20
8.874581704307577
 11
3.869978799010596
 21
6.473292522300577
 97
        0
 75
     2
 76
     1
 98
        0
  0
POLYLINE
  5
51
330
1F
100
AcDbEntity
  8
Layer 1
 62
   250
420
  2301728
370
    30
100
AcDb2dPolyline
 66
     1
 10
0.0
 20
0.0
 30
0.0
  0
VERTEX
  5
52
330
51
100
AcDbEntity
  8
Layer 1
 62
   250
420
  2301728
370
    30
100
AcDbVertex
100
AcDb2dVertex
 10
2.859131928331433
 20
6.642809146565898
 30
0.0
  0
VERTEX
  5
53
330
51
100
AcDbEntity
  8
Layer 1
 62
   250
420
  2301728
370
    30
100
AcDbVertex
100
AcDb2dVertex
 10
2.859131928331433
 20
7.330684655931186
 30
0.0
  0
VERTEX
  5
54
330
51
100
AcDbEntity
  8
Layer 1
 62
   250
420
  2301728
370
    30
100
AcDbVertex
100
AcDb2dVertex
 10
2.859131928331433
 20
7.330684655931186
 30
0.0
  0
VERTEX
  5
55
330
51
100
AcDbEntity
  8
Layer 1
 62
   250
420
  2301728
370
    30
100
AcDbVertex
100
AcDb2dVertex
 10
2.804434090083519
 20
7.355115813716489
 30
0.0
  0
VERTEX
  5
56
330
51
100
AcDbEntity
  8
Layer 1
 62
   250
420
  2301728
370
    30
100
AcDbVertex
100
AcDb2dVertex
 10
2.888420671011494
 20
7.466245107190552
 30
0.0
  0
VERTEX
  5
57
330
51
100
AcDbEntity
  8
Layer 1
 62
   250
420
  2301728
370
    30
100
AcDbVertex
100
AcDb2dVertex
 10
2.859131928331433
 20
7.478726161617613
 30
0.0
  0
VERTEX
  5
58
330
51
100
AcDbEntity
  8
Layer 1
 62
   250
420
  2301728
370
    30
100
AcDbVertex
100
AcDb2dVertex
 10
2.859131928331433
 20
8.176069886786902
 30
0.0
  0
VERTEX
  5
59
330
51
100
AcDbEntity
  8
Layer 1
 62
   250
420
  2301728
370
    30
100
AcDbVertex
100
AcDb2dVertex
 10
3.873534936401761
 20
8.448731782175134
 30
0.0
  0
VERTEX
  5
5A
330
51
100
AcDbEntity
  8
Layer 1
 62
   250
420
  2301728
370
    30
100
AcDbVertex
100
AcDb2dVertex
 10
4.400532271914446
 20
8.313714629683862
 30
0.0
  0
VERTEX
  5
5B
330
51
100
AcDbEntity
  8
Layer 1
 62
   250
420
  2301728
370
    30
100
AcDbVertex
100
AcDb2dVertex
 10
4.400532271914446
 20
6.859592763655528
 30
0.0
  0
VERTEX
  5
5C
330
51
100
AcDbEntity
  8
Layer 1
 62
   250
420
  2301728
370
    30
100
AcDbVertex
100
AcDb2dVertex
 10
3.397328627086444
 20
6.350008153660307
 30
0.0
  0
VERTEX
  5
5D
330
51
100
AcDbEntity
  8
Layer 1
 62
   250
420
  2301728
370
    30
100
AcDbVertex
100
AcDb2dVertex
 10
2.859131928331433
 20
6.642809146565898
 30
0.0
  0
SEQEND
  5
5F
330
51
100
AcDbEntity
  8
Layer 1
 62
   250
420
  2301728
370
    30
  0
HATCH
  5
5E
330
1F
100
AcDbEntity
  8
Layer 1
 62
    43
420
 15444572
100
AcDbHatch
 10
0.0
 20
0.0
 30
0.0
210
0.0
220
0.0
230
1.0
  2
SOLID
 70
     1
 71
     0
 91
        1
 92
        1
 93
       10
 72
     1
 10
2.859131928331433
 20
6.642809146565898
 11
2.859131928331433
 21
7.330684655931186
 72
     1
 10
2.859131928331433
 20
7.330684655931186
 11
2.804434090083519
 21
7.355115813716489
 72
     1
 10
2.804434090083519
 20
7.355115813716489
 11
2.888420671011494
 21
7.466245107190552
 72
     1
 10
2.888420671011494
 20
7.466245107190552
 11
2.859131928331433
 21
7.478726161617613
 72
     1
 10
2.859131928331433
 20
7.478726161617613
 11
2.859131928331433
 21
8.176069886786902
 72
     1
 10
2.859131928331433
 20
8.176069886786902
 11
3.873534936401761
 21
8.448731782175134
 72
     1
 10
3.873534936401761
 20
8.448731782175134
 11
4.400532271914446
 21
8.313714629683862
 72
     1
 10
4.400532271914446
 20
8.313714629683862
 11
4.400532271914446
 21
6.859592763655528
 72
     1
 10
4.400532271914446
 20
6.859592763655528
 11
3.397328627086444
 21
6.350008153660307
 72
     1
 10
3.397328627086444
 20
6.350008153660307
 11
2.859131928331433
 21
6.642809146565898
 97
        0
 75
     2
 76
     1
 98
        0
  0
POLYLINE
  5
60
330
1F
100
AcDbEntity
  8
Layer 1
 62
   250
420
  2301728
370
    18
100
AcDb2dPolyline
 66
     1
 10
0.0
 20
0.0
 30
0.0
  0
VERTEX
  5
61
330
60
100
AcDbEntity
  8
Layer 1
 62
   250
420
  2301728
370
    18
100
AcDbVertex
100
AcDb2dVertex
 10
2.859070189835064
 20
7.330758742126843
 30
0.0
  0
VERTEX
  5
62
330
60
100
AcDbEntity
  8
Layer 1
 62
   250
420
  2301728
370
    18
100
AcDbVertex
100
AcDb2dVertex
 10
3.355741575928593
 20
7.10889775109538
 30
0.0
  0
SEQEND
  5
63
330
60
100
AcDbEntity
  8
Layer 1
 62
   250
420
  2301728
370
    18
  0
POLYLINE
  5
64
330
1F
100
AcDbEntity
  8
Layer 1
 62
   250
420
  2301728
370
    18
100
AcDb2dPolyline
 66
     1
 10
0.0
 20
0.0
 30
0.0
  0
VERTEX
  5
65
330
64
100
AcDbEntity
  8
Layer 1
 62
   250
420
  2301728
370
    18
100
AcDbVertex
100
AcDb2dVertex
 10
2.888494757207139
 20
7.466304376147074
 30
0.0
  0
VERTEX
  5
66
330
64
100
AcDbEntity
  8
Layer 1
 62
   250
420
  2301728
370
    18
100
AcDbVertex
100
AcDb2dVertex
 10
3.39712365527848
 20
7.251763101245766
 30
0.0
  0
SEQEND
  5
67
330
64
100
AcDbEntity
  8
Layer 1
 62
   250
420
  2301728
370
    18
  0
POLYLINE
  5
68
330
1F
100
AcDbEntity
  8
Layer 1
 62
   250
420
  2301728
370
    18
100
AcDb2dPolyline
 66
     1
 10
0.0
 20
0.0
 30
0.0
  0
VERTEX
  5
69
330
68
100
AcDbEntity
  8
Layer 1
 62
   250
420
  2301728
370
    18
100
AcDbVertex
100
AcDb2dVertex
 10
3.397390365582825
 20
6.350225473167547
 30
0.0
  0
VERTEX
  5
6A
330
68
100
AcDbEntity
  8
Layer 1
 62
   250
420
  2301728
370
    18
100
AcDbVertex
100
AcDb2dVertex
 10
3.397390365582825
 20
7.09033915908521
 30
0.0
  0
VERTEX
  5
6B
330
68
100
AcDbEntity
  8
Layer 1
 62
   250
420
  2301728
370
    18
100
AcDbVertex
100
AcDb2dVertex
 10
3.355800844885114
 20
7.108776743642466
 30
0.0
  0
VERTEX
  5
6C
330
68
100
AcDbEntity
  8
Layer 1
 62
   250
420
  2301728
370
    18
100
AcDbVertex
100
AcDb2dVertex
 10
3.459647465326839
 20
7.226237937304707
 30
0.0
  0
VERTEX
  5
6D
330
68
100
AcDbEntity
  8
Layer 1
 62
   250
420
  2301728
370
    18
100
AcDbVertex
100
AcDb2dVertex
 10
3.397390365582825
 20
7.251896456397932
 30
0.0
  0
VERTEX
  5
6E
330
68
100
AcDbEntity
  8
Layer 1
 62
   250
420
  2301728
370
    18
100
AcDbVertex
100
AcDb2dVertex
 10
3.397390365582825
 20
7.995798416453137
 30
0.0
  0
VERTEX
  5
6F
330
68
100
AcDbEntity
  8
Layer 1
 62
   250
420
  2301728
370
    18
100
AcDbVertex
100
AcDb2dVertex
 10
4.399929704189844
 20
8.313497616932711
 30
0.0
  0
SEQEND
  5
70
330
68
100
AcDbEntity
  8
Layer 1
 62
   250
420
  2301728
370
    18
  0
SPLINE
  5
71
330
1F
100
AcDbEntity
  8
Layer 1
 62
   250
420
  2301728
370
    13
100
AcDbSpline
210
0.0
220
0.0
230
1.0
 70
     8
 71
     3
 72
    32
 73
    28
 74
     0
 42
0.0000000001
 43
0.0000000001
 12
1.0
 22
0.0
 32
0.0
 13
1.0
 23
0.0
 33
0.0
 40
0.0
 40
0.0
 40
0.0
 40
0.0
 40
1.0
 40
1.0
 40
1.0
 40
2.0
 40
2.0
 40
2.0
 40
3.0
 40
3.0
 40
3.0
 40
4.0
 40
4.0
 40
4.0
 40
5.0
 40
5.0
 40
5.0
 40
6.0
 40
6.0
 40
6.0
 40
7.0
 40
7.0
 40
7.0
 40
8.0
 40
8.0
 40
8.0
 40
9.0
 40
9.0
 40
9.0
 40
9.0
 10
3.357005980334343
 20
6.372834368270686
 30
0.0
 10
3.358574138142254
 20
6.382504828611975
 30
0.0
 10
3.358235811182125
 20
6.409817939408046
 30
0.0
 10
3.357825867566198
 20
6.424901888842252
 30
0.0
 10
3.357428271649546
 20
6.439938917019226
 30
0.0
 10
3.355860284478732
 20
6.505897857005859
 30
0.0
 10
3.355136538664131
 20
6.515894815683648
 30
0.0
 10
3.354390737627922
 20
6.525878903972498
 30
0.0
 10
3.352496600559157
 20
6.565248308340566
 30
0.0
 10
3.355536604120642
 20
6.573353338144607
 30
0.0
 10
3.358574138142254
 20
6.581443550709523
 30
0.0
 10
3.359720004634975
 20
6.60035034783924
 30
0.0
 10
3.362831624852245
 20
6.612288103498208
 30
0.0
 10
3.365930897370238
 20
6.624250554555728
 30
0.0
 10
3.374781728210488
 20
6.663535994568734
 30
0.0
 10
3.375179324127139
 20
6.683998601807097
 30
0.0
 10
3.37557692004379
 20
6.704438983186769
 30
0.0
 10
3.379772668257399
 20
6.743013195721535
 30
0.0
 10
3.380182611873339
 20
6.758060102057912
 30
0.0
 10
3.380580379051556
 20
6.77309739807721
 30
0.0
 10
3.381400095021831
 20
6.836367010760088
 30
0.0
 10
3.378278596645133
 20
6.853707850181106
 30
0.0
 10
3.375179324127139
 20
6.871071184901464
 30
0.0
 10
3.375179324127139
 20
6.915083324196909
 30
0.0
 10
3.376335068779276
 20
6.928927564623917
 30
0.0
 10
3.377480935271983
 20
6.942756987811801
 30
0.0
 10
3.364785030877531
 20
7.062317290350759
 30
0.0
 10
3.37557692004379
 20
7.099720940994277
 30
0.0
  0
SPLINE
  5
72
330
1F
100
AcDbEntity
  8
Layer 1
 62
   250
420
  2301728
370
    13
100
AcDbSpline
210
0.0
220
0.0
230
1.0
 70
     8
 71
     3
 72
    29
 73
    25
 74
     0
 42
0.0000000001
 43
0.0000000001
 12
1.0
 22
0.0
 32
0.0
 13
1.0
 23
0.0
 33
0.0
 40
0.0
 40
0.0
 40
0.0
 40
0.0
 40
1.0
 40
1.0
 40
1.0
 40
2.0
 40
2.0
 40
2.0
 40
3.0
 40
3.0
 40
3.0
 40
4.0
 40
4.0
 40
4.0
 40
5.0
 40
5.0
 40
5.0
 40
6.0
 40
6.0
 40
6.0
 40
7.0
 40
7.0
 40
7.0
 40
8.0
 40
8.0
 40
8.0
 40
8.0
 10
3.297270280782262
 20
7.130251862221384
 30
0.0
 10
3.293422737688199
 20
7.112490931584362
 30
0.0
 10
3.291071735746262
 20
7.112140533332219
 30
0.0
 10
3.296872684865611
 20
7.093994078070573
 30
0.0
 10
3.302683512144376
 20
7.075833081977053
 30
0.0
 10
3.31315189158963
 20
7.041118760235614
 30
0.0
 10
3.32042238666453
 20
7.029168656877371
 30
0.0
 10
3.327717237654294
 20
7.017230901218404
 30
0.0
 10
3.346359794019539
 20
6.986035673770314
 30
0.0
 10
3.345142481237366
 20
6.966308989408743
 30
0.0
 10
3.343922358182668
 20
6.946616878605128
 30
0.0
 10
3.33744722468292
 20
6.942831074007446
 30
0.0
 10
3.335481470958345
 20
6.922368466769095
 30
0.0
 10
3.333528064933059
 20
6.90191573769016
 30
0.0
 10
3.331636397404155
 20
6.847111709228455
 30
0.0
 10
3.332384667980212
 20
6.822453353776496
 30
0.0
 10
3.333118121317132
 20
6.797817492650008
 30
0.0
 10
3.33392813038957
 20
6.760401225840432
 30
0.0
 10
3.330828857871564
 20
6.742240229746926
 30
0.0
 10
3.327717237654294
 20
6.72409405089253
 30
0.0
 10
3.319217081473463
 20
6.621548877954385
 30
0.0
 10
3.321170487498749
 20
6.59609533066911
 30
0.0
 10
3.323133771683438
 20
6.570639313843988
 30
0.0
 10
3.326245391900733
 20
6.420646871672122
 30
0.0
 10
3.315018863719994
 20
6.395926777723793
 30
0.0
  0
SPLINE
  5
73
330
1F
100
AcDbEntity
  8
Layer 1
 62
   250
420
  2301728
370
    13
100
AcDbSpline
210
0.0
220
0.0
230
1.0
 70
     8
 71
     3
 72
    29
 73
    25
 74
     0
 42
0.0000000001
 43
0.0000000001
 12
1.0
 22
0.0
 32
0.0
 13
1.0
 23
0.0
 33
0.0
 40
0.0
 40
0.0
 40
0.0
 40
0.0
 40
1.0
 40
1.0
 40
1.0
 40
2.0
 40
2.0
 40
2.0
 40
3.0
 40
3.0
 40
3.0
 40
4.0
 40
4.0
 40
4.0
 40
5.0
 40
5.0
 40
5.0
 40
6.0
 40
6.0
 40
6.0
 40
7.0
 40
7.0
 40
7.0
 40
8.0
 40
8.0
 40
8.0
 40
8.0
 10
3.253727354059265
 20
6.429075411197168
 30
0.0
 10
3.257587244852617
 20
6.458774357394999
 30
0.0
 10
3.2645315909248
 20
6.513590473654125
 30
0.0
 10
3.265279861500858
 20
6.541748167080603
 30
0.0
 10
3.266015784377638
 20
6.56990365367642
 30
0.0
 10
3.273780017681714
 20
6.625058094088305
 30
0.0
 10
3.273382421765051
 20
6.647402490696158
 30
0.0
 10
3.272972478149124
 20
6.669747152535465
 30
0.0
 10
3.267969358819705
 20
6.717134887581197
 30
0.0
 10
3.271826611656416
 20
6.739153304928196
 30
0.0
 10
3.275674323361879
 20
6.761159374575918
 30
0.0
 10
3.292674467112142
 20
6.787422930933618
 30
0.0
 10
3.289587542293424
 20
6.812059060526886
 30
0.0
 10
3.286478391616002
 20
6.836692720580307
 30
0.0
 10
3.279929171920596
 20
6.861341197872851
 30
0.0
 10
3.272972478149124
 20
6.88647123543712
 30
0.0
 10
3.266015784377638
 20
6.911576577602836
 30
0.0
 10
3.262168241283588
 20
6.955526978401899
 30
0.0
 10
3.249072271432636
 20
6.972880434962841
 30
0.0
 10
3.235978771121533
 20
6.99023142198391
 30
0.0
 10
3.224836207295867
 20
7.002929795918223
 30
0.0
 10
3.225572130172647
 20
7.021824245348663
 30
0.0
 10
3.226330278908133
 20
7.040718694779116
 30
0.0
 10
3.220252741325023
 20
7.146857048206256
 30
0.0
 10
3.229091224465997
 20
7.164546362187466
 30
0.0
  0
SPLINE
  5
74
330
1F
100
AcDbEntity
  8
Layer 1
 62
   250
420
  2301728
370
    13
100
AcDbSpline
210
0.0
220
0.0
230
1.0
 70
     8
 71
     3
 72
    29
 73
    25
 74
     0
 42
0.0000000001
 43
0.0000000001
 12
1.0
 22
0.0
 32
0.0
 13
1.0
 23
0.0
 33
0.0
 40
0.0
 40
0.0
 40
0.0
 40
0.0
 40
1.0
 40
1.0
 40
1.0
 40
2.0
 40
2.0
 40
2.0
 40
3.0
 40
3.0
 40
3.0
 40
4.0
 40
4.0
 40
4.0
 40
5.0
 40
5.0
 40
5.0
 40
6.0
 40
6.0
 40
6.0
 40
7.0
 40
7.0
 40
7.0
 40
8.0
 40
8.0
 40
8.0
 40
8.0
 10
3.180075797424378
 20
7.184189082193976
 30
0.0
 10
3.176554233591168
 20
7.166499768212765
 30
0.0
 10
3.172383180776112
 20
7.096609320776994
 30
0.0
 10
3.174262500605753
 20
7.078124814962481
 30
0.0
 10
3.176156637674517
 20
7.059615613749416
 30
0.0
 10
3.180075797424378
 20
6.941539504663297
 30
0.0
 10
3.180075797424378
 20
6.918461654718511
 30
0.0
 10
3.180075797424378
 20
6.895381335233878
 30
0.0
 10
3.175420714797736
 20
6.834413335294155
 30
0.0
 10
3.182377408569209
 20
6.818195867066505
 30
0.0
 10
3.189324224181266
 20
6.802012972396836
 30
0.0
 10
3.201212589043141
 20
6.788919472085732
 30
0.0
 10
3.205867671669769
 20
6.764609321753318
 30
0.0
 10
3.21052275429641
 20
6.740299171420904
 30
0.0
 10
3.216600291879508
 20
6.696007974121862
 30
0.0
 10
3.224364525183571
 20
6.683240453071612
 30
0.0
 10
3.232118880328206
 20
6.670492688340219
 30
0.0
 10
3.240898094512659
 20
6.66089605646376
 30
0.0
 10
3.235168762049107
 20
6.646244276504174
 30
0.0
 10
3.229429551426127
 20
6.631604844243864
 30
0.0
 10
3.218625314560591
 20
6.602232137208741
 30
0.0
 10
3.218625314560591
 20
6.587592704948419
 30
0.0
 10
3.218625314560591
 20
6.572943394528693
 30
0.0
 10
3.215513694343321
 20
6.465044259184942
 30
0.0
 10
3.219783528752588
 20
6.446873384932005
 30
0.0
  0
SPLINE
  5
75
330
1F
100
AcDbEntity
  8
Layer 1
 62
   250
420
  2301728
370
    13
100
AcDbSpline
210
0.0
220
0.0
230
1.0
 70
     8
 71
     3
 72
    29
 73
    25
 74
     0
 42
0.0000000001
 43
0.0000000001
 12
1.0
 22
0.0
 32
0.0
 13
1.0
 23
0.0
 33
0.0
 40
0.0
 40
0.0
 40
0.0
 40
0.0
 40
1.0
 40
1.0
 40
1.0
 40
2.0
 40
2.0
 40
2.0
 40
3.0
 40
3.0
 40
3.0
 40
4.0
 40
4.0
 40
4.0
 40
5.0
 40
5.0
 40
5.0
 40
6.0
 40
6.0
 40
6.0
 40
7.0
 40
7.0
 40
7.0
 40
8.0
 40
8.0
 40
8.0
 40
8.0
 10
3.164206534316274
 20
6.476935093586664
 30
0.0
 10
3.165436365164055
 20
6.495419599401177
 30
0.0
 10
3.15684977508829
 20
6.532149065664283
 30
0.0
 10
3.157262188244077
 20
6.547149050743428
 30
0.0
 10
3.157659784160728
 20
6.56212680996388
 30
0.0
 10
3.160781282537426
 20
6.581900415582695
 30
0.0
 10
3.156513917668008
 20
6.598048736694409
 30
0.0
 10
3.152268778657306
 20
6.614194588266261
 30
0.0
 10
3.15043638008491
 20
6.631545575287342
 30
0.0
 10
3.143827891432996
 20
6.644290870478888
 30
0.0
 10
3.137207220195238
 20
6.657060861068985
 30
0.0
 10
3.124101207071412
 20
6.670892753796718
 30
0.0
 10
3.126802883672768
 20
6.690945417419154
 30
0.0
 10
3.129514438433527
 20
6.710998081041579
 30
0.0
 10
3.130647957226971
 20
6.778451092640491
 30
0.0
 10
3.130647957226971
 20
6.799289069936789
 30
0.0
 10
3.130647957226971
 20
6.820173968490356
 30
0.0
 10
3.117228642263752
 20
6.904279358487631
 30
0.0
 10
3.123365284194644
 20
6.923514333261803
 30
0.0
 10
3.129514438433527
 20
6.942756987811801
 30
0.0
 10
3.133361981527577
 20
6.998721700005338
 30
0.0
 10
3.130647957226971
 20
7.018786711327039
 30
0.0
 10
3.127958628324892
 20
7.038839374949475
 30
0.0
 10
3.123014609535226
 20
7.195390914976163
 30
0.0
 10
3.126066960795975
 20
7.210862582167616
 30
0.0
  0
SPLINE
  5
76
330
1F
100
AcDbEntity
  8
Layer 1
 62
   250
420
  2301728
370
    13
100
AcDbSpline
210
0.0
220
0.0
230
1.0
 70
     8
 71
     3
 72
    29
 73
    25
 74
     0
 42
0.0000000001
 43
0.0000000001
 12
1.0
 22
0.0
 32
0.0
 13
1.0
 23
0.0
 33
0.0
 40
0.0
 40
0.0
 40
0.0
 40
0.0
 40
1.0
 40
1.0
 40
1.0
 40
2.0
 40
2.0
 40
2.0
 40
3.0
 40
3.0
 40
3.0
 40
4.0
 40
4.0
 40
4.0
 40
5.0
 40
5.0
 40
5.0
 40
6.0
 40
6.0
 40
6.0
 40
7.0
 40
7.0
 40
7.0
 40
8.0
 40
8.0
 40
8.0
 40
8.0
 10
3.073201521120445
 20
7.234676354989169
 30
0.0
 10
3.072058124167584
 20
7.219688996733465
 30
0.0
 10
3.068608176990185
 20
7.191135897806033
 30
0.0
 10
3.070924768813155
 20
7.162978204379556
 30
0.0
 10
3.073201521120445
 20
7.134822980492963
 30
0.0
 10
3.07901481793907
 20
7.106267691149823
 30
0.0
 10
3.081306550924485
 20
7.074264924169142
 30
0.0
 10
3.083608162069329
 20
7.042262157188475
 30
0.0
 10
3.089480727844463
 20
6.961256310865464
 30
0.0
 10
3.084815767058406
 20
6.931965098645541
 30
0.0
 10
3.080160848104103
 20
6.902664008266217
 30
0.0
 10
3.075915545421064
 20
6.795863818157941
 30
0.0
 10
3.078617222022406
 20
6.775401210919577
 30
0.0
 10
3.081306550924485
 20
6.754938603681226
 30
0.0
 10
3.085561568094616
 20
6.738405034352139
 30
0.0
 10
3.080160848104103
 20
6.727600797486603
 30
0.0
 10
3.074744983529803
 20
6.716808908320344
 30
0.0
 10
3.068210581073521
 20
6.699855517215913
 30
0.0
 10
3.062807227870836
 20
6.691355626812411
 30
0.0
 10
3.057418691907274
 20
6.682840387615114
 30
0.0
 10
3.048496244411227
 20
6.672048498448854
 30
0.0
 10
3.04889384032789
 20
6.6551074550437
 30
0.0
 10
3.04931629453621
 20
6.638154063939269
 30
0.0
 10
3.053897128074077
 20
6.561052560126957
 30
0.0
 10
3.046192163726548
 20
6.542158110696517
 30
0.0
  0
SPLINE
  5
77
330
1F
100
AcDbEntity
  8
Layer 1
 62
   250
420
  2301728
370
    13
100
AcDbSpline
210
0.0
220
0.0
230
1.0
 70
     8
 71
     3
 72
    35
 73
    31
 74
     0
 42
0.0000000001
 43
0.0000000001
 12
1.0
 22
0.0
 32
0.0
 13
1.0
 23
0.0
 33
0.0
 40
0.0
 40
0.0
 40
0.0
 40
0.0
 40
1.0
 40
1.0
 40
1.0
 40
2.0
 40
2.0
 40
2.0
 40
3.0
 40
3.0
 40
3.0
 40
4.0
 40
4.0
 40
4.0
 40
5.0
 40
5.0
 40
5.0
 40
6.0
 40
6.0
 40
6.0
 40
7.0
 40
7.0
 40
7.0
 40
8.0
 40
8.0
 40
8.0
 40
9.0
 40
9.0
 40
9.0
 40
10.0
 40
10.0
 40
10.0
 40
10.0
 10
2.990301537728656
 20
6.571446853376566
 30
0.0
 10
2.996114834547269
 20
6.590282033850498
 30
0.0
 10
2.996848287884202
 20
6.611831238625036
 30
0.0
 10
2.991845000138015
 20
6.639648135551523
 30
0.0
 10
2.986854060091117
 20
6.667455154318595
 30
0.0
 10
2.984490871705387
 20
6.690547821502504
 30
0.0
 10
2.987189917511374
 20
6.705594727838893
 30
0.0
 10
2.989903941812006
 20
6.720656451414406
 30
0.0
 10
2.986528080830238
 20
6.74838938398582
 30
0.0
 10
2.990711481344583
 20
6.761907645151975
 30
0.0
 10
2.994894881858916
 20
6.775401210919577
 30
0.0
 10
2.995294947315415
 20
6.789317068002383
 30
0.0
 10
3.003409855278884
 20
6.808211517432836
 30
0.0
 10
3.011500067843788
 20
6.827118314562552
 30
0.0
 10
3.021496765176746
 20
6.853636233525322
 30
0.0
 10
3.031142787850285
 20
6.86486276170606
 30
0.0
 10
3.040801158223113
 20
6.876052517232146
 30
0.0
 10
3.050449650436525
 20
6.893813177425967
 30
0.0
 10
3.04931629453621
 20
6.903459200099519
 30
0.0
 10
3.048157917451097
 20
6.91312991817161
 30
0.0
 10
3.035869487132724
 20
6.935415045822942
 30
0.0
 10
3.036207814092841
 20
6.954707363600214
 30
0.0
 10
3.036546141052996
 20
6.974013953756272
 30
0.0
 10
3.036943899550212
 20
7.029976196409948
 30
0.0
 10
3.031962675082152
 20
7.057733824379915
 30
0.0
 10
3.026971735035242
 20
7.085479104650605
 30
0.0
 10
3.028043515332292
 20
7.134763711536429
 30
0.0
 10
3.024596199963387
 20
7.154478048198724
 30
0.0
 10
3.021146090517353
 20
7.174204732560295
 30
0.0
 10
3.01155933680031
 20
7.223548608402628
 30
0.0
 10
3.015406879894373
 20
7.260132371814292
 30
0.0
  0
SPLINE
  5
78
330
1F
100
AcDbEntity
  8
Layer 1
 62
   250
420
  2301728
370
    13
100
AcDbSpline
210
0.0
220
0.0
230
1.0
 70
     8
 71
     3
 72
    38
 73
    34
 74
     0
 42
0.0000000001
 43
0.0000000001
 12
1.0
 22
0.0
 32
0.0
 13
1.0
 23
0.0
 33
0.0
 40
0.0
 40
0.0
 40
0.0
 40
0.0
 40
1.0
 40
1.0
 40
1.0
 40
2.0
 40
2.0
 40
2.0
 40
3.0
 40
3.0
 40
3.0
 40
4.0
 40
4.0
 40
4.0
 40
5.0
 40
5.0
 40
5.0
 40
6.0
 40
6.0
 40
6.0
 40
7.0
 40
7.0
 40
7.0
 40
8.0
 40
8.0
 40
8.0
 40
9.0
 40
9.0
 40
9.0
 40
10.0
 40
10.0
 40
10.0
 40
11.0
 40
11.0
 40
11.0
 40
11.0
 10
2.977146298921184
 20
7.277206770371612
 30
0.0
 10
2.981391437931885
 20
7.251763101245766
 30
0.0
 10
2.987130648554853
 20
7.23624451279708
 30
0.0
 10
2.988335784004094
 20
7.208499232526391
 30
0.0
 10
2.989565614851863
 20
7.180729256857148
 30
0.0
 10
2.991785731181494
 20
7.125502937080253
 30
0.0
 10
2.989903941812006
 20
7.094329935490855
 30
0.0
 10
2.988009804743216
 20
7.063137177582613
 30
0.0
 10
2.980643167355828
 20
7.049221320499807
 30
0.0
 10
2.984490871705387
 20
7.023777651373948
 30
0.0
 10
2.988335784004094
 20
6.998321634548827
 30
0.0
 10
2.994956620355298
 20
6.977871648025093
 30
0.0
 10
2.988009804743216
 20
6.965908923952232
 30
0.0
 10
2.981065458671032
 20
6.95398351599254
 30
0.0
 10
2.970236526406943
 20
6.942023534474881
 30
0.0
 10
2.963292180334747
 20
6.919281541950365
 30
0.0
 10
2.956333017023414
 20
6.896514854027322
 30
0.0
 10
2.953307830701065
 20
6.886795015872671
 30
0.0
 10
2.944805365233328
 20
6.875654650872307
 30
0.0
 10
2.936292701100254
 20
6.864524434745918
 30
0.0
 10
2.926236734810787
 20
6.867152025151616
 30
0.0
 10
2.921641080808449
 20
6.845195346300998
 30
0.0
 10
2.917047736562154
 20
6.823260893309073
 30
0.0
 10
2.923932654126095
 20
6.815904134081089
 30
0.0
 10
2.921243325224016
 20
6.801254823661351
 30
0.0
 10
2.918541648622686
 20
6.786603043701764
 30
0.0
 10
2.911234280191782
 20
6.781273776694724
 30
0.0
 10
2.912802437999694
 20
6.768106190187975
 30
0.0
 10
2.914358248108341
 20
6.754938603681226
 30
0.0
 10
2.929733603245432
 20
6.735777443946441
 30
0.0
 10
2.924330250042746
 20
6.713361430682792
 30
0.0
 10
2.918951592238601
 20
6.690945417419154
 30
0.0
 10
2.922786787633375
 20
6.632353114819921
 30
0.0
 10
2.92509086831808
 20
6.607707107067224
 30
0.0
  0
SPLINE
  5
79
330
1F
100
AcDbEntity
  8
Layer 1
 62
   250
420
  2301728
370
    13
100
AcDbSpline
210
0.0
220
0.0
230
1.0
 70
     8
 71
     3
 72
    32
 73
    28
 74
     0
 42
0.0000000001
 43
0.0000000001
 12
1.0
 22
0.0
 32
0.0
 13
1.0
 23
0.0
 33
0.0
 40
0.0
 40
0.0
 40
0.0
 40
0.0
 40
1.0
 40
1.0
 40
1.0
 40
2.0
 40
2.0
 40
2.0
 40
3.0
 40
3.0
 40
3.0
 40
4.0
 40
4.0
 40
4.0
 40
5.0
 40
5.0
 40
5.0
 40
6.0
 40
6.0
 40
6.0
 40
7.0
 40
7.0
 40
7.0
 40
8.0
 40
8.0
 40
8.0
 40
9.0
 40
9.0
 40
9.0
 40
9.0
 10
2.941767831134989
 20
7.293281286270926
 30
0.0
 10
2.941357727342822
 20
7.268234932078472
 30
0.0
 10
2.940550187810244
 20
7.257008403897745
 30
0.0
 10
2.943237047172463
 20
7.228141952532887
 30
0.0
 10
2.945951071473082
 20
7.199238458070213
 30
0.0
 10
2.954041444524276
 20
7.174856691082014
 30
0.0
 10
2.952497821628627
 20
7.146387835633807
 30
0.0
 10
2.950944481059853
 20
7.117881937087796
 30
0.0
 10
2.951280338480122
 20
7.106606018109952
 30
0.0
 10
2.9520878780127
 20
7.091618656618922
 30
0.0
 10
2.952907765244554
 20
7.076640621509644
 30
0.0
 10
2.964112067566601
 20
7.08230849113046
 30
0.0
 10
2.952907765244554
 20
7.064606553796339
 30
0.0
 10
2.94169374493745
 20
7.046917239815103
 30
0.0
 10
2.936702644716181
 20
7.046917239815103
 30
0.0
 10
2.930889347897568
 20
7.029168656877371
 30
0.0
 10
2.92509086831808
 20
7.01141760439979
 30
0.0
 10
2.918205791202392
 20
7.013780954041003
 30
0.0
 10
2.918205791202392
 20
7.001023311150182
 30
0.0
 10
2.918205791202392
 20
6.98826566825936
 30
0.0
 10
2.923547405908708
 20
6.979824781035037
 30
0.0
 10
2.913550708575763
 20
6.964765526999372
 30
0.0
 10
2.903554011242805
 20
6.949716151123134
 30
0.0
 10
2.890386424736056
 20
6.933980243167209
 30
0.0
 10
2.88229621217114
 20
6.916977461265686
 30
0.0
 10
2.874181304207683
 20
6.899962331664874
 30
0.0
 10
2.865342821066709
 20
6.882539727987996
 30
0.0
 10
2.859191197287954
 20
6.862897007981486
 30
0.0
  0
SPLINE
  5
7A
330
1F
100
AcDbEntity
  8
Layer 1
 62
   250
420
  2301728
370
    13
100
AcDbSpline
210
0.0
220
0.0
230
1.0
 70
     8
 71
     3
 72
    17
 73
    13
 74
     0
 42
0.0000000001
 43
0.0000000001
 12
1.0
 22
0.0
 32
0.0
 13
1.0
 23
0.0
 33
0.0
 40
0.0
 40
0.0
 40
0.0
 40
0.0
 40
1.0
 40
1.0
 40
1.0
 40
2.0
 40
2.0
 40
2.0
 40
3.0
 40
3.0
 40
3.0
 40
4.0
 40
4.0
 40
4.0
 40
4.0
 10
2.859951973672688
 20
7.142937888456408
 30
0.0
 10
2.86722214089635
 20
7.153729777622667
 30
0.0
 10
2.875001191439537
 20
7.173385123282868
 30
0.0
 10
2.881945537511733
 20
7.180331660940497
 30
0.0
 10
2.888904700823066
 20
7.187300702411246
 30
0.0
 10
2.891206311967911
 20
7.176484117846434
 30
0.0
 10
2.892339830761342
 20
7.203483597080927
 30
0.0
 10
2.89348569725405
 20
7.230492954474837
 30
0.0
 10
2.89348569725405
 20
7.251763101245766
 30
0.0
 10
2.891942234844691
 20
7.270998347176196
 30
0.0
 10
2.890386424736056
 20
7.290241001726194
 30
0.0
 10
2.888818266928133
 20
7.307532719790755
 30
0.0
 10
2.891532291228764
 20
7.31528707493539
 30
0.0
  0
SPLINE
  5
7B
330
1F
100
AcDbEntity
  8
Layer 1
 62
   250
420
  2301728
370
    13
100
AcDbSpline
210
0.0
220
0.0
230
1.0
 70
     8
 71
     3
 72
    14
 73
    10
 74
     0
 42
0.0000000001
 43
0.0000000001
 12
1.0
 22
0.0
 32
0.0
 13
1.0
 23
0.0
 33
0.0
 40
0.0
 40
0.0
 40
0.0
 40
0.0
 40
1.0
 40
1.0
 40
1.0
 40
2.0
 40
2.0
 40
2.0
 40
3.0
 40
3.0
 40
3.0
 40
3.0
 10
2.839548477281457
 20
7.339994821184455
 30
0.0
 10
2.845300035603688
 20
7.346939167256664
 30
0.0
 10
2.858445554323099
 20
7.354572514948408
 30
0.0
 10
2.869259511276709
 20
7.371190048632557
 30
0.0
 10
2.880054028600044
 20
7.387792765077582
 30
0.0
 10
2.887408159670953
 20
7.404807894678369
 30
0.0
 10
2.89659731747132
 20
7.410897779960767
 30
0.0
 10
2.906991610720929
 20
7.417770793505294
 30
0.0
 10
2.923668413361611
 20
7.433699325972308
 30
0.0
 10
2.929805219901242
 20
7.448760765017305
 30
0.0
  0
SPLINE
  5
7C
330
1F
100
AcDbEntity
  8
Layer 1
 62
   250
420
  2301728
370
    13
100
AcDbSpline
210
0.0
220
0.0
230
1.0
 70
     8
 71
     3
 72
    14
 73
    10
 74
     0
 42
0.0000000001
 43
0.0000000001
 12
1.0
 22
0.0
 32
0.0
 13
1.0
 23
0.0
 33
0.0
 40
0.0
 40
0.0
 40
0.0
 40
0.0
 40
1.0
 40
1.0
 40
1.0
 40
2.0
 40
2.0
 40
2.0
 40
3.0
 40
3.0
 40
3.0
 40
3.0
 10
2.864942755610198
 20
7.328780640703005
 30
0.0
 10
2.874181304207683
 20
7.336883200967185
 30
0.0
 10
2.888420671011494
 20
7.342696780017402
 30
0.0
 10
2.898488985000237
 20
7.357755751821464
 30
0.0
 10
2.908547420829564
 20
7.372805127697713
 30
0.0
 10
2.907050879677449
 20
7.381717697034333
 30
0.0
 10
2.91974925361175
 20
7.392857791320138
 30
0.0
 10
2.932445158006203
 20
7.403988007446527
 30
0.0
 10
2.954463575353202
 20
7.420953746250234
 30
0.0
 10
2.960988099650055
 20
7.434844907934499
 30
0.0
  0
SPLINE
  5
7D
330
1F
100
AcDbEntity
  8
Layer 1
 62
   250
420
  2301728
370
    13
100
AcDbSpline
210
0.0
220
0.0
230
1.0
 70
     8
 71
     3
 72
    11
 73
     7
 74
     0
 42
0.0000000001
 43
0.0000000001
 12
1.0
 22
0.0
 32
0.0
 13
1.0
 23
0.0
 33
0.0
 40
0.0
 40
0.0
 40
0.0
 40
0.0
 40
1.0
 40
1.0
 40
1.0
 40
2.0
 40
2.0
 40
2.0
 40
2.0
 10
2.913960811665447
 20
7.306786918754558
 30
0.0
 10
2.924740193658661
 20
7.319532495592524
 30
0.0
 10
2.934339295074968
 20
7.343442298822007
 30
0.0
 10
2.947096937965789
 20
7.351957554707521
 30
0.0
 10
2.959854580856611
 20
7.360445080723543
 30
0.0
 10
2.994149080822707
 20
7.396295390798273
 30
0.0
 10
3.001854045170249
 20
7.417903864529332
 30
0.0
  0
SPLINE
  5
7E
330
1F
100
AcDbEntity
  8
Layer 1
 62
   250
420
  2301728
370
    13
100
AcDbSpline
210
0.0
220
0.0
230
1.0
 70
     8
 71
     3
 72
    11
 73
     7
 74
     0
 42
0.0000000001
 43
0.0000000001
 12
1.0
 22
0.0
 32
0.0
 13
1.0
 23
0.0
 33
0.0
 40
0.0
 40
0.0
 40
0.0
 40
0.0
 40
1.0
 40
1.0
 40
1.0
 40
2.0
 40
2.0
 40
2.0
 40
2.0
 10
2.961748717925389
 20
7.285660005295211
 30
0.0
 10
2.97523981415313
 20
7.297187817338251
 30
0.0
 10
3.004543535834387
 20
7.321833825090948
 30
0.0
 10
3.014189396745855
 20
7.334193872065119
 30
0.0
 10
3.023847767118683
 20
7.346541571340013
 30
0.0
 10
3.058890537660836
 20
7.384019308179177
 30
0.0
 10
3.072393981587866
 20
7.388252099490601
 30
0.0
  0
SPLINE
  5
7F
330
1F
100
AcDbEntity
  8
Layer 1
 62
   250
420
  2301728
370
    13
100
AcDbSpline
210
0.0
220
0.0
230
1.0
 70
     8
 71
     3
 72
    11
 73
     7
 74
     0
 42
0.0000000001
 43
0.0000000001
 12
1.0
 22
0.0
 32
0.0
 13
1.0
 23
0.0
 33
0.0
 40
0.0
 40
0.0
 40
0.0
 40
0.0
 40
1.0
 40
1.0
 40
1.0
 40
2.0
 40
2.0
 40
2.0
 40
2.0
 10
3.032757866915454
 20
7.253585621658746
 30
0.0
 10
3.05477628426244
 20
7.269055099681585
 30
0.0
 10
3.062881314066481
 20
7.277206770371612
 30
0.0
 10
3.079412413855721
 20
7.294896084352835
 30
0.0
 10
3.095955861344224
 20
7.312585398334047
 30
0.0
 10
3.129924382049454
 20
7.353162407691204
 30
0.0
 10
3.140306327599786
 20
7.359311561930099
 30
0.0
  0
SPLINE
  5
80
330
1F
100
AcDbEntity
  8
Layer 1
 62
   250
420
  2301728
370
    13
100
AcDbSpline
210
0.0
220
0.0
230
1.0
 70
     8
 71
     3
 72
    11
 73
     7
 74
     0
 42
0.0000000001
 43
0.0000000001
 12
1.0
 22
0.0
 32
0.0
 13
1.0
 23
0.0
 33
0.0
 40
0.0
 40
0.0
 40
0.0
 40
0.0
 40
1.0
 40
1.0
 40
1.0
 40
2.0
 40
2.0
 40
2.0
 40
2.0
 10
3.101697541507052
 20
7.223197933743222
 30
0.0
 10
3.117915009734689
 20
7.236716194909377
 30
0.0
 10
3.143743927077922
 20
7.25283735108269
 30
0.0
 10
3.156116321751369
 20
7.272890014705113
 30
0.0
 10
3.168464021026264
 20
7.292930330628273
 30
0.0
 10
3.193110028778948
 20
7.322233890547446
 30
0.0
 10
3.206591246847286
 20
7.331156338043506
 30
0.0
  0
SPLINE
  5
81
330
1F
100
AcDbEntity
  8
Layer 1
 62
   250
420
  2301728
370
    13
100
AcDbSpline
210
0.0
220
0.0
230
1.0
 70
     8
 71
     3
 72
    11
 73
     7
 74
     0
 42
0.0000000001
 43
0.0000000001
 12
1.0
 22
0.0
 32
0.0
 13
1.0
 23
0.0
 33
0.0
 40
0.0
 40
0.0
 40
0.0
 40
0.0
 40
1.0
 40
1.0
 40
1.0
 40
2.0
 40
2.0
 40
2.0
 40
2.0
 10
3.1480014137879
 20
7.202676057548349
 30
0.0
 10
3.166159940341559
 20
7.216987041007946
 30
0.0
 10
3.18277747402572
 20
7.231698089924066
 30
0.0
 10
3.198572650938167
 20
7.248244006952417
 30
0.0
 10
3.214370297390461
 20
7.264787454440921
 30
0.0
 10
3.245563055298703
 20
7.304554454725651
 30
0.0
 10
3.257587244852617
 20
7.309957807928349
 30
0.0
  0
SPLINE
  5
82
330
1F
100
AcDbEntity
  8
Layer 1
 62
   250
420
  2301728
370
    13
100
AcDbSpline
210
0.0
220
0.0
230
1.0
 70
     8
 71
     3
 72
    11
 73
     7
 74
     0
 42
0.0000000001
 43
0.0000000001
 12
1.0
 22
0.0
 32
0.0
 13
1.0
 23
0.0
 33
0.0
 40
0.0
 40
0.0
 40
0.0
 40
0.0
 40
1.0
 40
1.0
 40
1.0
 40
2.0
 40
2.0
 40
2.0
 40
2.0
 10
3.201684271155424
 20
7.178437523871732
 30
0.0
 10
3.216659560836029
 20
7.189651704353182
 30
0.0
 10
3.229357934770329
 20
7.194173431827657
 30
0.0
 10
3.24597299891463
 20
7.212334427921178
 30
0.0
 10
3.262578184899515
 20
7.230492954474837
 30
0.0
 10
3.293422737688199
 20
7.276458499795555
 30
0.0
 10
3.310763846549864
 20
7.287613411320497
 30
0.0
  0
SPLINE
  5
83
330
1F
100
AcDbEntity
  8
Layer 1
 62
   250
420
  2301728
370
    13
100
AcDbSpline
210
0.0
220
0.0
230
1.0
 70
     8
 71
     3
 72
    11
 73
     7
 74
     0
 42
0.0000000001
 43
0.0000000001
 12
1.0
 22
0.0
 32
0.0
 13
1.0
 23
0.0
 33
0.0
 40
0.0
 40
0.0
 40
0.0
 40
0.0
 40
1.0
 40
1.0
 40
1.0
 40
2.0
 40
2.0
 40
2.0
 40
2.0
 10
3.251038025157198
 20
7.156444079449733
 30
0.0
 10
3.268379134018864
 20
7.168779153498904
 30
0.0
 10
3.283366771398732
 20
7.180800873512945
 30
0.0
 10
3.297270280782262
 20
7.197344321001449
 30
0.0
 10
3.311186307373595
 20
7.213900116189241
 30
0.0
 10
3.342500073525798
 20
7.256284828720241
 30
0.0
 10
3.356741739569871
 20
7.268234932078472
 30
0.0
  0
SPLINE
  5
84
330
1F
100
AcDbEntity
  8
Layer 1
 62
   250
420
  2301728
370
    13
100
AcDbSpline
210
0.0
220
0.0
230
1.0
 70
     8
 71
     3
 72
    11
 73
     7
 74
     0
 42
0.0000000001
 43
0.0000000001
 12
1.0
 22
0.0
 32
0.0
 13
1.0
 23
0.0
 33
0.0
 40
0.0
 40
0.0
 40
0.0
 40
0.0
 40
1.0
 40
1.0
 40
1.0
 40
2.0
 40
2.0
 40
2.0
 40
2.0
 10
3.286888335231929
 20
7.139900354434783
 30
0.0
 10
3.303491051676954
 20
7.151847988253166
 30
0.0
 10
3.324279638176171
 20
7.168574181690941
 30
0.0
 10
3.337773203943773
 20
7.185720196904058
 30
0.0
 10
3.36052771492253
 20
7.214697777562391
 30
0.0
 10
3.387527023402034
 20
7.247508084075636
 30
0.0
 10
3.396787797858211
 20
7.251365505329115
 30
0.0
  0
SPLINE
  5
85
330
1F
100
AcDbEntity
  8
Layer 1
 62
   250
420
  2301728
370
    13
100
AcDbSpline
210
0.0
220
0.0
230
1.0
 70
     8
 71
     3
 72
    11
 73
     7
 74
     0
 42
0.0000000001
 43
0.0000000001
 12
1.0
 22
0.0
 32
0.0
 13
1.0
 23
0.0
 33
0.0
 40
0.0
 40
0.0
 40
0.0
 40
0.0
 40
1.0
 40
1.0
 40
1.0
 40
2.0
 40
2.0
 40
2.0
 40
2.0
 10
3.331974724364297
 20
7.120183548232628
 30
0.0
 10
3.343586671089421
 20
7.132121303891595
 30
0.0
 10
3.366750955514312
 20
7.146711345354813
 30
0.0
 10
3.379844284913196
 20
7.162580608462904
 30
0.0
 10
3.392940254764148
 20
7.178437523871732
 30
0.0
 10
3.423846718403777
 20
7.219219784149168
 30
0.0
 10
3.438098260552301
 20
7.23393055395296
 30
0.0
  0
SPLINE
  5
86
330
1F
100
AcDbEntity
  8
Layer 1
 62
   250
420
  2301728
370
    13
100
AcDbSpline
210
0.0
220
0.0
230
1.0
 70
     8
 71
     3
 72
    11
 73
     7
 74
     0
 42
0.0000000001
 43
0.0000000001
 12
1.0
 22
0.0
 32
0.0
 13
1.0
 23
0.0
 33
0.0
 40
0.0
 40
0.0
 40
0.0
 40
0.0
 40
1.0
 40
1.0
 40
1.0
 40
2.0
 40
2.0
 40
2.0
 40
2.0
 10
2.859324552440133
 20
7.520253943818943
 30
0.0
 10
2.863917896570392
 20
7.511813056594645
 30
0.0
 10
2.87532470116053
 20
7.502769601645696
 30
0.0
 10
2.878436321377825
 20
7.494328714421372
 30
0.0
 10
2.881547941595083
 20
7.485887827197075
 30
0.0
 10
2.886612967837651
 20
7.478002872089834
 30
0.0
 10
2.885128774384801
 20
7.467800917299201
 30
0.0
  0
SPLINE
  5
87
330
1F
100
AcDbEntity
  8
Layer 1
 62
   250
420
  2301728
370
    13
100
AcDbSpline
210
0.0
220
0.0
230
1.0
 70
     8
 71
     3
 72
    23
 73
    19
 74
     0
 42
0.0000000001
 43
0.0000000001
 12
1.0
 22
0.0
 32
0.0
 13
1.0
 23
0.0
 33
0.0
 40
0.0
 40
0.0
 40
0.0
 40
0.0
 40
1.0
 40
1.0
 40
1.0
 40
2.0
 40
2.0
 40
2.0
 40
3.0
 40
3.0
 40
3.0
 40
4.0
 40
4.0
 40
4.0
 40
5.0
 40
5.0
 40
5.0
 40
6.0
 40
6.0
 40
6.0
 40
6.0
 10
2.948255152157774
 20
7.441127417325561
 30
0.0
 10
2.947301909773753
 20
7.456863610397199
 30
0.0
 10
2.942237043719286
 20
7.466111752038387
 30
0.0
 10
2.943237047172463
 20
7.482716938023259
 30
0.0
 10
2.944264375752128
 20
7.499322124008144
 30
0.0
 10
2.943454366679703
 20
7.516685458728501
 30
0.0
 10
2.940693421121813
 20
7.526185778550611
 30
0.0
 10
2.937907780165422
 20
7.53571326331112
 30
0.0
 10
2.934941862799582
 20
7.550169949622159
 30
0.0
 10
2.929876836557026
 20
7.555284366661819
 30
0.0
 10
2.924814279854318
 20
7.560421009560185
 30
0.0
 10
2.912392494383766
 20
7.578038706885599
 30
0.0
 10
2.907389206637579
 20
7.58580294018965
 30
0.0
 10
2.902395797050821
 20
7.593569643033561
 30
0.0
 10
2.896933174891602
 20
7.600262096040549
 30
0.0
 10
2.891398936076598
 20
7.60895487633008
 30
0.0
 10
2.885852349562305
 20
7.617672352018164
 30
0.0
 10
2.877302802584381
 20
7.635845695810947
 30
0.0
 10
2.85954187194736
 20
7.638050994901454
 30
0.0
  0
SPLINE
  5
88
330
1F
100
AcDbEntity
  8
Layer 1
 62
   250
420
  2301728
370
    13
100
AcDbSpline
210
0.0
220
0.0
230
1.0
 70
     8
 71
     3
 72
    47
 73
    43
 74
     0
 42
0.0000000001
 43
0.0000000001
 12
1.0
 22
0.0
 32
0.0
 13
1.0
 23
0.0
 33
0.0
 40
0.0
 40
0.0
 40
0.0
 40
0.0
 40
1.0
 40
1.0
 40
1.0
 40
2.0
 40
2.0
 40
2.0
 40
3.0
 40
3.0
 40
3.0
 40
4.0
 40
4.0
 40
4.0
 40
5.0
 40
5.0
 40
5.0
 40
6.0
 40
6.0
 40
6.0
 40
7.0
 40
7.0
 40
7.0
 40
8.0
 40
8.0
 40
8.0
 40
9.0
 40
9.0
 40
9.0
 40
10.0
 40
10.0
 40
10.0
 40
11.0
 40
11.0
 40
11.0
 40
12.0
 40
12.0
 40
12.0
 40
13.0
 40
13.0
 40
13.0
 40
14.0
 40
14.0
 40
14.0
 40
14.0
 10
2.977205728949154
 20
7.431143067691878
 30
0.0
 10
2.977749027730978
 20
7.455369253669232
 30
0.0
 10
2.978894733138506
 20
7.495136253953937
 30
0.0
 10
2.976941327113221
 20
7.516480486920537
 30
0.0
 10
2.974975573388658
 20
7.537800024488572
 30
0.0
 10
2.97450636081621
 20
7.571887083106844
 30
0.0
 10
2.979015740591409
 20
7.582908927779486
 30
0.0
 10
2.983562163464411
 20
7.593905500453843
 30
0.0
 10
2.985972595655817
 20
7.596063878287092
 30
0.0
 10
2.980776522507995
 20
7.60766577652579
 30
0.0
 10
2.975590488812536
 20
7.619289900623167
 30
0.0
 10
2.972478868595267
 20
7.621460626155693
 30
0.0
 10
2.968959774301917
 20
7.62935821461191
 30
0.0
 10
2.965460436327412
 20
7.637243455368863
 30
0.0
 10
2.961531398418149
 20
7.64352596475995
 30
0.0
 10
2.958637097708106
 20
7.654196846473306
 30
0.0
 10
2.955742796998063
 20
7.664857850027247
 30
0.0
 10
2.955876152150242
 20
7.691649887913917
 30
0.0
 10
2.952161964208358
 20
7.701730549601936
 30
0.0
 10
2.948447776266461
 20
7.711788985431262
 30
0.0
 10
2.943587721831868
 20
7.729525512673439
 30
0.0
 10
2.934075054310483
 20
7.741018459154803
 30
0.0
 10
2.92453522185071
 20
7.752484532701474
 30
0.0
 10
2.917795847586452
 20
7.766726369045133
 30
0.0
 10
2.909836680003435
 20
7.771608649338431
 30
0.0
 10
2.901854967822576
 20
7.77644400837447
 30
0.0
 10
2.893364848754636
 20
7.777542953609945
 30
0.0
 10
2.890917375804873
 20
7.787732568525724
 30
0.0
 10
2.888494757207139
 20
7.797921596493223
 30
0.0
 10
2.889976481120129
 20
7.817430961347567
 30
0.0
 10
2.891398936076598
 20
7.829924363473904
 30
0.0
 10
2.892821549972811
 20
7.842415296060381
 30
0.0
 10
2.895439262285208
 20
7.866520474584831
 30
0.0
 10
2.894293236786628
 20
7.878809200678157
 30
0.0
 10
2.893159717993197
 20
7.891082814067456
 30
0.0
 10
2.893159717993197
 20
7.945442029270263
 30
0.0
 10
2.89592066355106
 20
7.962383072675417
 30
0.0
 10
2.8986939568082
 20
7.979338933319696
 30
0.0
 10
2.898898928616164
 20
8.027196146169343
 30
0.0
 10
2.893836371913456
 20
8.046431392099773
 30
0.0
 10
2.888771504508314
 20
8.065676516189619
 30
0.0
 10
2.890724751696186
 20
8.15849911071872
 30
0.0
 10
2.891532291228764
 20
8.164986591917783
 30
0.0
  0
POLYLINE
  5
89
330
1F
100
AcDbEntity
  8
Layer 1
 62
   250
420
  2301728
370
    18
100
AcDb2dPolyline
 66
     1
 10
0.0
 20
0.0
 30
0.0
  0
VERTEX
  5
8A
330
89
100
AcDbEntity
  8
Layer 1
 62
   250
420
  2301728
370
    18
100
AcDbVertex
100
AcDb2dVertex
 10
2.859396169095918
 20
8.175911836236184
 30
0.0
  0
VERTEX
  5
8B
330
89
100
AcDbEntity
  8
Layer 1
 62
   250
420
  2301728
370
    18
100
AcDbVertex
100
AcDb2dVertex
 10
3.397257010430646
 20
7.995736677956769
 30
0.0
  0
SEQEND
  5
8C
330
89
100
AcDbEntity
  8
Layer 1
 62
   250
420
  2301728
370
    18
  0
SPLINE
  5
8D
330
1F
100
AcDbEntity
  8
Layer 1
 62
   250
420
  2301728
370
    13
100
AcDbSpline
210
0.0
220
0.0
230
1.0
 70
     8
 71
     3
 72
    50
 73
    46
 74
     0
 42
0.0000000001
 43
0.0000000001
 12
1.0
 22
0.0
 32
0.0
 13
1.0
 23
0.0
 33
0.0
 40
0.0
 40
0.0
 40
0.0
 40
0.0
 40
1.0
 40
1.0
 40
1.0
 40
2.0
 40
2.0
 40
2.0
 40
3.0
 40
3.0
 40
3.0
 40
4.0
 40
4.0
 40
4.0
 40
5.0
 40
5.0
 40
5.0
 40
6.0
 40
6.0
 40
6.0
 40
7.0
 40
7.0
 40
7.0
 40
8.0
 40
8.0
 40
8.0
 40
9.0
 40
9.0
 40
9.0
 40
10.0
 40
10.0
 40
10.0
 40
11.0
 40
11.0
 40
11.0
 40
12.0
 40
12.0
 40
12.0
 40
13.0
 40
13.0
 40
13.0
 40
14.0
 40
14.0
 40
14.0
 40
15.0
 40
15.0
 40
15.0
 40
15.0
 10
3.025885137499043
 20
7.408798671084027
 30
0.0
 10
3.026971735035242
 20
7.427152291286234
 30
0.0
 10
3.028720331625398
 20
7.454850650299679
 30
0.0
 10
3.028381842292434
 20
7.479341077041504
 30
0.0
 10
3.028043515332292
 20
7.503856199181882
 30
0.0
 10
3.022304304709324
 20
7.524378075376767
 30
0.0
 10
3.028779438209085
 20
7.555694597890124
 30
0.0
 10
3.035266919408109
 20
7.587008364042314
 30
0.0
 10
3.037086970281242
 20
7.599634832917395
 30
0.0
 10
3.036341169245032
 20
7.618010678978294
 30
0.0
 10
3.035605246368239
 20
7.6363642991805
 30
0.0
 10
3.037425297241359
 20
7.665460417751862
 30
0.0
 10
3.038499709698158
 20
7.677012925193455
 30
0.0
 10
3.039571327375345
 20
7.688562963095187
 30
0.0
 10
3.045251269041791
 20
7.696450673391988
 30
0.0
 10
3.037027701324708
 20
7.711571957474196
 30
0.0
 10
3.028779438209085
 20
7.72669265845607
 30
0.0
 10
3.032698597958933
 20
7.727102602071997
 30
0.0
 10
3.025126988763569
 20
7.738978619234583
 30
0.0
 10
3.017577605426898
 20
7.750869453636319
 30
0.0
 10
3.003264152427441
 20
7.768558767617529
 30
0.0
 10
2.995294947315415
 20
7.785428194366887
 30
0.0
 10
2.987335620362817
 20
7.802309968815532
 30
0.0
 10
2.977689597689277
 20
7.824257063903574
 30
0.0
 10
2.974770601580682
 20
7.840113684915549
 30
0.0
 10
2.971876300870652
 20
7.855992826183056
 30
0.0
 10
2.963978712414435
 20
7.866713098693531
 30
0.0
 10
2.965050492711485
 20
7.877927279174981
 30
0.0
 10
2.966124742548408
 20
7.889129111957168
 30
0.0
 10
2.961469659921767
 20
7.903165976492876
 30
0.0
 10
2.965050492711485
 20
7.908567156682389
 30
0.0
 10
2.968633795041064
 20
7.913982561057676
 30
0.0
 10
2.971189768790964
 20
7.921144226637125
 30
0.0
 10
2.967211340084595
 20
7.928355283013653
 30
0.0
 10
2.963230441838366
 20
7.935578687089471
 30
0.0
 10
2.955273584425627
 20
7.94233040905298
 30
0.0
 10
2.949519556563523
 20
7.952448113838828
 30
0.0
 10
2.943780345940556
 20
7.962575994675161
 30
0.0
 10
2.943721076984048
 20
7.977709037015416
 30
0.0
 10
2.940886045230526
 20
7.990671651714213
 30
0.0
 10
2.938053483016865
 20
8.003634266412986
 30
0.0
 10
2.938789405893633
 20
8.041099655552873
 30
0.0
 10
2.938053483016865
 20
8.058717352878299
 30
0.0
 10
2.937317560140071
 20
8.076347698668162
 30
0.0
 10
2.940609456766765
 20
8.124278696948283
 30
0.0
 10
2.930830078941047
 20
8.151265828483487
 30
0.0
  0
SPLINE
  5
8E
330
1F
100
AcDbEntity
  8
Layer 1
 62
   250
420
  2301728
370
    13
100
AcDbSpline
210
0.0
220
0.0
230
1.0
 70
     8
 71
     3
 72
    47
 73
    43
 74
     0
 42
0.0000000001
 43
0.0000000001
 12
1.0
 22
0.0
 32
0.0
 13
1.0
 23
0.0
 33
0.0
 40
0.0
 40
0.0
 40
0.0
 40
0.0
 40
1.0
 40
1.0
 40
1.0
 40
2.0
 40
2.0
 40
2.0
 40
3.0
 40
3.0
 40
3.0
 40
4.0
 40
4.0
 40
4.0
 40
5.0
 40
5.0
 40
5.0
 40
6.0
 40
6.0
 40
6.0
 40
7.0
 40
7.0
 40
7.0
 40
8.0
 40
8.0
 40
8.0
 40
9.0
 40
9.0
 40
9.0
 40
10.0
 40
10.0
 40
10.0
 40
11.0
 40
11.0
 40
11.0
 40
12.0
 40
12.0
 40
12.0
 40
13.0
 40
13.0
 40
13.0
 40
14.0
 40
14.0
 40
14.0
 40
14.0
 10
2.996379075311754
 20
8.12926993909731
 30
0.0
 10
2.994956620355298
 20
8.11373870084723
 30
0.0
 10
2.990904105453283
 20
8.092204313311804
 30
0.0
 10
2.992726625866238
 20
8.071680268224352
 30
0.0
 10
2.994559024438634
 20
8.051145743682936
 30
0.0
 10
2.994149080822707
 20
8.047587136751897
 30
0.0
 10
3.001372484898525
 20
8.028475367814217
 30
0.0
 10
3.008605767133758
 20
8.009375946575826
 30
0.0
 10
3.016093411974035
 20
7.99924589409069
 30
0.0
 10
3.02296861093032
 20
7.980544068768924
 30
0.0
 10
3.029866035745272
 20
7.961842243447172
 30
0.0
 10
3.032288654343006
 20
7.964734074617354
 30
0.0
 10
3.037027701324708
 20
7.945647001078227
 30
0.0
 10
3.04174205290787
 20
7.926522884441257
 30
0.0
 10
3.042754564248412
 20
7.91606685269528
 30
0.0
 10
3.051064565860416
 20
7.897377375072804
 30
0.0
 10
3.059359750233271
 20
7.878663202051762
 30
0.0
 10
3.061589907925534
 20
7.86213210226256
 30
0.0
 10
3.073082983207402
 20
7.84377848206034
 30
0.0
 10
3.084549056754074
 20
7.825402635999429
 30
0.0
 10
3.089952409956772
 20
7.825328549803796
 30
0.0
 10
3.088527485460443
 20
7.806639072181307
 30
0.0
 10
3.08711737820325
 20
7.787924899160278
 30
0.0
 10
3.091350169514701
 20
7.782195566696727
 30
0.0
 10
3.084549056754074
 20
7.770319549534128
 30
0.0
 10
3.077735596294183
 20
7.758419129706605
 30
0.0
 10
3.074831417424725
 20
7.757357227542153
 30
0.0
 10
3.076651468297844
 20
7.746552697969807
 30
0.0
 10
3.078471519170964
 20
7.735748753265208
 30
0.0
 10
3.08711737820325
 20
7.732105889818184
 30
0.0
 10
3.083138949496869
 20
7.717721111868437
 30
0.0
 10
3.07913582539196
 20
7.703348389549395
 30
0.0
 10
3.070924768813155
 20
7.678084996194734
 30
0.0
 10
3.072334712631346
 20
7.645346015633057
 30
0.0
 10
3.073744819888538
 20
7.612609795315456
 30
0.0
 10
3.073334876272611
 20
7.59167579448615
 30
0.0
 10
3.071574094356012
 20
7.567933349799027
 30
0.0
 10
3.06982566013869
 20
7.54415415053543
 30
0.0
 10
3.059769693849211
 20
7.513561490811955
 30
0.0
 10
3.06119214880568
 20
7.485477883581135
 30
0.0
 10
3.062614603762149
 20
7.457394276350315
 30
0.0
 10
3.068753879841627
 20
7.406556328895704
 30
0.0
 10
3.063338178939653
 20
7.393618693113467
 30
0.0
  0
SPLINE
  5
8F
330
1F
100
AcDbEntity
  8
Layer 1
 62
   250
420
  2301728
370
    13
100
AcDbSpline
210
0.0
220
0.0
230
1.0
 70
     8
 71
     3
 72
    32
 73
    28
 74
     0
 42
0.0000000001
 43
0.0000000001
 12
1.0
 22
0.0
 32
0.0
 13
1.0
 23
0.0
 33
0.0
 40
0.0
 40
0.0
 40
0.0
 40
0.0
 40
1.0
 40
1.0
 40
1.0
 40
2.0
 40
2.0
 40
2.0
 40
3.0
 40
3.0
 40
3.0
 40
4.0
 40
4.0
 40
4.0
 40
5.0
 40
5.0
 40
5.0
 40
6.0
 40
6.0
 40
6.0
 40
7.0
 40
7.0
 40
7.0
 40
8.0
 40
8.0
 40
8.0
 40
9.0
 40
9.0
 40
9.0
 40
9.0
 10
3.111210209028425
 20
7.374975853230239
 30
0.0
 10
3.114455184397873
 20
7.388612652309424
 30
0.0
 10
3.120530252441123
 20
7.403385439721912
 30
0.0
 10
3.116937071952129
 20
7.432553174949071
 30
0.0
 10
3.113368586861674
 20
7.461711032016814
 30
0.0
 10
3.111210209028425
 20
7.504927979478945
 30
0.0
 10
3.113368586861674
 20
7.525452325213678
 30
0.0
 10
3.115526964694936
 20
7.545986549107838
 30
0.0
 10
3.119517741100581
 20
7.644672121112787
 30
0.0
 10
3.119517741100581
 20
7.670923330434384
 30
0.0
 10
3.119517741100581
 20
7.697186596268781
 30
0.0
 10
3.119107797484654
 20
7.719940936492549
 30
0.0
 10
3.119868415759988
 20
7.746552697969807
 30
0.0
 10
3.120604338636768
 20
7.773152111747789
 30
0.0
 10
3.120604338636768
 20
7.818517558883753
 30
0.0
 10
3.125259421263422
 20
7.835796929249037
 30
0.0
 10
3.129924382049454
 20
7.85308864731361
 30
0.0
 10
3.139293816259245
 20
7.880495600624158
 30
0.0
 10
3.140380413795444
 20
7.892374087326616
 30
0.0
 10
3.141464541791758
 20
7.904250104489202
 30
0.0
 10
3.14070392351645
 20
7.907905023474578
 30
0.0
 10
3.137473765386125
 20
7.922616072390686
 30
0.0
 10
3.134228790016689
 20
7.937339469006069
 30
0.0
 10
3.119107797484654
 20
7.97223653669678
 30
0.0
 10
3.112632663984893
 20
8.001056066804393
 30
0.0
 10
3.106145182785869
 20
8.029897822770685
 30
0.0
 10
3.09387156970662
 20
8.063310697008559
 30
0.0
 10
3.090626594337171
 20
8.098281850894914
 30
0.0
  0
SPLINE
  5
90
330
1F
100
AcDbEntity
  8
Layer 1
 62
   250
420
  2301728
370
    13
100
AcDbSpline
210
0.0
220
0.0
230
1.0
 70
     8
 71
     3
 72
    20
 73
    16
 74
     0
 42
0.0000000001
 43
0.0000000001
 12
1.0
 22
0.0
 32
0.0
 13
1.0
 23
0.0
 33
0.0
 40
0.0
 40
0.0
 40
0.0
 40
0.0
 40
1.0
 40
1.0
 40
1.0
 40
2.0
 40
2.0
 40
2.0
 40
3.0
 40
3.0
 40
3.0
 40
4.0
 40
4.0
 40
4.0
 40
5.0
 40
5.0
 40
5.0
 40
5.0
 10
3.173877252388378
 20
8.070185895964817
 30
0.0
 10
3.175287525721008
 20
8.040292415874672
 30
0.0
 10
3.18392087097858
 20
8.012270247285844
 30
0.0
 10
3.181426635725049
 20
7.983112390218113
 30
0.0
 10
3.178929930931657
 20
7.95395453315037
 30
0.0
 10
3.174262500605753
 20
7.911824183224426
 30
0.0
 10
3.175684955562221
 20
7.891638164449823
 30
0.0
 10
3.177097532359274
 20
7.871439797975957
 30
0.0
 10
3.185417412130694
 20
7.79623243123241
 30
0.0
 10
3.181426635725049
 20
7.751953581632632
 30
0.0
 10
3.177433389779543
 20
7.707652506174175
 30
0.0
 10
3.174203231649231
 20
7.604976447623711
 30
0.0
 10
3.1781816603556
 20
7.577628763269672
 30
0.0
 10
3.18216255860183
 20
7.550278609375785
 30
0.0
 10
3.173116634113045
 20
7.369574969567402
 30
0.0
 10
3.179255910192524
 20
7.343973249890824
 30
0.0
  0
SPLINE
  5
91
330
1F
100
AcDbEntity
  8
Layer 1
 62
   250
420
  2301728
370
    13
100
AcDbSpline
210
0.0
220
0.0
230
1.0
 70
     8
 71
     3
 72
    20
 73
    16
 74
     0
 42
0.0000000001
 43
0.0000000001
 12
1.0
 22
0.0
 32
0.0
 13
1.0
 23
0.0
 33
0.0
 40
0.0
 40
0.0
 40
0.0
 40
0.0
 40
1.0
 40
1.0
 40
1.0
 40
2.0
 40
2.0
 40
2.0
 40
3.0
 40
3.0
 40
3.0
 40
4.0
 40
4.0
 40
4.0
 40
5.0
 40
5.0
 40
5.0
 40
5.0
 10
3.230780389726785
 20
8.049335570969232
 30
0.0
 10
3.232528823944133
 20
8.028475367814217
 30
0.0
 10
3.239413901059808
 20
8.009375946575826
 30
0.0
 10
3.238677978183027
 20
7.970475754780182
 30
0.0
 10
3.237942055306247
 20
7.931600258383102
 30
0.0
 10
3.23509714539331
 20
7.835458602288908
 30
0.0
 10
3.235435472353439
 20
7.801983989554666
 30
0.0
 10
3.235773799313569
 20
7.768487150961732
 30
0.0
 10
3.24224893281333
 20
7.652581767408138
 30
0.0
 10
3.240100433139496
 20
7.619084928815204
 30
0.0
 10
3.237942055306247
 20
7.585610316080962
 30
0.0
 10
3.232600440599918
 20
7.494533686229336
 30
0.0
 10
3.234022895556386
 20
7.465701808422459
 30
0.0
 10
3.235435472353439
 20
7.436869930615583
 30
0.0
 10
3.241848867356818
 20
7.355597373988202
 30
0.0
 10
3.230708773071013
 20
7.32243886235541
 30
0.0
  0
SPLINE
  5
92
330
1F
100
AcDbEntity
  8
Layer 1
 62
   250
420
  2301728
370
    13
100
AcDbSpline
210
0.0
220
0.0
230
1.0
 70
     8
 71
     3
 72
    23
 73
    19
 74
     0
 42
0.0000000001
 43
0.0000000001
 12
1.0
 22
0.0
 32
0.0
 13
1.0
 23
0.0
 33
0.0
 40
0.0
 40
0.0
 40
0.0
 40
0.0
 40
1.0
 40
1.0
 40
1.0
 40
2.0
 40
2.0
 40
2.0
 40
3.0
 40
3.0
 40
3.0
 40
4.0
 40
4.0
 40
4.0
 40
5.0
 40
5.0
 40
5.0
 40
6.0
 40
6.0
 40
6.0
 40
6.0
 10
3.290192579557886
 20
7.300032727251189
 30
0.0
 10
3.290192579557886
 20
7.320954668902573
 30
0.0
 10
3.284717609699404
 20
7.32885225735879
 30
0.0
 10
3.28762425810871
 20
7.366655973458819
 30
0.0
 10
3.290516258265244
 20
7.404469567718252
 30
0.0
 10
3.296655365358371
 20
7.444841605267457
 30
0.0
 10
3.297003570477917
 20
7.471105161625157
 30
0.0
 10
3.297329549738783
 20
7.497368717982858
 30
0.0
 10
3.29773949335471
 20
7.524039748416625
 30
0.0
 10
3.295919442481603
 20
7.549206829078722
 30
0.0
 10
3.294111739307747
 20
7.574396135599512
 30
0.0
 10
3.296944301521408
 20
7.647914337082233
 30
0.0
 10
3.297329549738783
 20
7.675264490976133
 30
0.0
 10
3.29773949335471
 20
7.702599827630896
 30
0.0
 10
3.295521846564939
 20
7.81892750249968
 30
0.0
 10
3.297329549738783
 20
7.866784715349316
 30
0.0
 10
3.299161948311179
 20
7.914656745438087
 30
0.0
 10
3.291264359854949
 20
8.011195997448933
 30
0.0
 10
3.292350957391136
 20
8.030236149730815
 30
0.0
  0
SPLINE
  5
93
330
1F
100
AcDbEntity
  8
Layer 1
 62
   250
420
  2301728
370
    13
100
AcDbSpline
210
0.0
220
0.0
230
1.0
 70
     8
 71
     3
 72
    23
 73
    19
 74
     0
 42
0.0000000001
 43
0.0000000001
 12
1.0
 22
0.0
 32
0.0
 13
1.0
 23
0.0
 33
0.0
 40
0.0
 40
0.0
 40
0.0
 40
0.0
 40
1.0
 40
1.0
 40
1.0
 40
2.0
 40
2.0
 40
2.0
 40
3.0
 40
3.0
 40
3.0
 40
4.0
 40
4.0
 40
4.0
 40
5.0
 40
5.0
 40
5.0
 40
6.0
 40
6.0
 40
6.0
 40
6.0
 10
3.354993305352536
 20
8.007205221043288
 30
0.0
 10
3.357499888305344
 20
7.964336478700702
 30
0.0
 10
3.369040048047661
 20
7.972982337732989
 30
0.0
 10
3.366869322515135
 20
7.90891753481512
 30
0.0
 10
3.364723292381162
 20
7.844840384197974
 30
0.0
 10
3.364723292381162
 20
7.772875523284029
 30
0.0
 10
3.365049271642015
 20
7.74330772260037
 30
0.0
 10
3.365399946301421
 20
7.713742391456561
 30
0.0
 10
3.37153675284104
 20
7.614768173148705
 30
0.0
 10
3.368294247011464
 20
7.568330945715679
 30
0.0
 10
3.365049271642015
 20
7.521869022884099
 30
0.0
 10
3.366471726598484
 20
7.44261161077841
 30
0.0
 10
3.369704354268656
 20
7.407702195388437
 30
0.0
 10
3.372946860098232
 20
7.372805127697713
 30
0.0
 10
3.376191835467681
 20
7.333519687684706
 30
0.0
 10
3.375117585630758
 20
7.316964174078457
 30
0.0
 10
3.374033457634432
 20
7.300430323167852
 30
0.0
 10
3.376251104424202
 20
7.274374208157964
 30
0.0
 10
3.375179324127139
 20
7.261821537075093
 30
0.0
  0
POLYLINE
  5
94
330
1F
100
AcDbEntity
  8
Layer 1
 62
   250
420
  2301728
370
    18
100
AcDb2dPolyline
 66
     1
 10
0.0
 20
0.0
 30
0.0
  0
VERTEX
  5
95
330
94
100
AcDbEntity
  8
Layer 1
 62
   250
420
  2301728
370
    18
100
AcDbVertex
100
AcDb2dVertex
 10
4.405451595305572
 20
6.206490844988214
 30
0.0
  0
VERTEX
  5
96
330
94
100
AcDbEntity
  8
Layer 1
 62
   250
420
  2301728
370
    18
100
AcDbVertex
100
AcDb2dVertex
 10
4.405451595305572
 20
8.761908948424155
 30
0.0
  0
SEQEND
  5
97
330
94
100
AcDbEntity
  8
Layer 1
 62
   250
420
  2301728
370
    18
  0
POLYLINE
  5
98
330
1F
100
AcDbEntity
  8
Layer 1
 62
   250
420
  2301728
370
    18
100
AcDb2dPolyline
 66
     1
 10
0.0
 20
0.0
 30
0.0
  0
VERTEX
  5
99
330
98
100
AcDbEntity
  8
Layer 1
 62
   250
420
  2301728
370
    18
100
AcDbVertex
100
AcDb2dVertex
 10
4.740237235285652
 20
6.307104837759753
 30
0.0
  0
VERTEX
  5
9A
330
98
100
AcDbEntity
  8
Layer 1
 62
   250
420
  2301728
370
    18
100
AcDbVertex
100
AcDb2dVertex
 10
4.649101336477517
 20
6.41097615360003
 30
0.0
  0
VERTEX
  5
9B
330
98
100
AcDbEntity
  8
Layer 1
 62
   250
420
  2301728
370
    18
100
AcDbVertex
100
AcDb2dVertex
 10
4.62824133610262
 20
6.34318234550114
 30
0.0
  0
SEQEND
  5
9C
330
98
100
AcDbEntity
  8
Layer 1
 62
   250
420
  2301728
370
    18
  0
SPLINE
  5
9D
330
1F
100
AcDbEntity
  8
Layer 1
 62
   250
420
  2301728
370
    13
100
AcDbSpline
210
0.0
220
0.0
230
1.0
 70
     8
 71
     3
 72
    11
 73
     7
 74
     0
 42
0.0000000001
 43
0.0000000001
 12
1.0
 22
0.0
 32
0.0
 13
1.0
 23
0.0
 33
0.0
 40
0.0
 40
0.0
 40
0.0
 40
0.0
 40
1.0
 40
1.0
 40
1.0
 40
2.0
 40
2.0
 40
2.0
 40
2.0
 10
4.642349614514008
 20
6.385796725238656
 30
0.0
 10
4.653852731158495
 20
6.370821435558064
 30
0.0
 10
4.661737971915449
 20
6.359402283268651
 30
0.0
 10
4.671433589257327
 20
6.351840552232702
 30
0.0
 10
4.68117572011397
 20
6.344293638435879
 30
0.0
 10
4.703725088529786
 20
6.327532871440136
 30
0.0
 10
4.708982738881054
 20
6.317402818955012
 30
0.0
  0
POLYLINE
  5
9E
330
1F
100
AcDbEntity
  8
Layer 1
 62
   250
420
  2301728
370
    18
100
AcDb2dPolyline
 66
     1
 10
0.0
 20
0.0
 30
0.0
  0
VERTEX
  5
9F
330
9E
100
AcDbEntity
  8
Layer 1
 62
   250
420
  2301728
370
    18
100
AcDbVertex
100
AcDb2dVertex
 10
3.869568855394669
 20
8.874124839434419
 30
0.0
  0
VERTEX
  5
A0
330
9E
100
AcDbEntity
  8
Layer 1
 62
   250
420
  2301728
370
    18
100
AcDbVertex
100
AcDb2dVertex
 10
4.406054163030173
 20
8.761849679467648
 30
0.0
  0
VERTEX
  5
A1
330
9E
100
AcDbEntity
  8
Layer 1
 62
   250
420
  2301728
370
    18
100
AcDbVertex
100
AcDb2dVertex
 10
4.56011146780333
 20
8.80000160068721
 30
0.0
  0
VERTEX
  5
A2
330
9E
100
AcDbEntity
  8
Layer 1
 62
   250
420
  2301728
370
    18
100
AcDbVertex
100
AcDb2dVertex
 10
4.583890667066927
 20
8.866829818702803
 30
0.0
  0
VERTEX
  5
A3
330
9E
100
AcDbEntity
  8
Layer 1
 62
   250
420
  2301728
370
    18
100
AcDbVertex
100
AcDb2dVertex
 10
4.670662888951331
 20
8.765707100721126
 30
0.0
  0
VERTEX
  5
A4
330
9E
100
AcDbEntity
  8
Layer 1
 62
   250
420
  2301728
370
    18
100
AcDbVertex
100
AcDb2dVertex
 10
4.69313817117149
 20
8.832932914653359
 30
0.0
  0
VERTEX
  5
A5
330
9E
100
AcDbEntity
  8
Layer 1
 62
   250
420
  2301728
370
    18
100
AcDbVertex
100
AcDb2dVertex
 10
4.844807430904893
 20
8.870469920449043
 30
0.0
  0
SEQEND
  5
A6
330
9E
100
AcDbEntity
  8
Layer 1
 62
   250
420
  2301728
370
    18
  0
POLYLINE
  5
A7
330
1F
100
AcDbEntity
  8
Layer 1
 62
   250
420
  2301728
370
    18
100
AcDb2dPolyline
 66
     1
 10
0.0
 20
0.0
 30
0.0
  0
VERTEX
  5
A8
330
A7
100
AcDbEntity
  8
Layer 1
 62
   250
420
  2301728
370
    18
100
AcDbVertex
100
AcDb2dVertex
 10
4.026663694189462
 20
8.909972679969288
 30
0.0
  0
VERTEX
  5
A9
330
A7
100
AcDbEntity
  8
Layer 1
 62
   250
420
  2301728
370
    18
100
AcDbVertex
100
AcDb2dVertex
 10
4.558375381285284
 20
8.800796792520512
 30
0.0
  0
SEQEND
  5
AA
330
A7
100
AcDbEntity
  8
Layer 1
 62
   250
420
  2301728
370
    18
  0
POLYLINE
  5
AB
330
1F
100
AcDbEntity
  8
Layer 1
 62
   250
420
  2301728
370
    18
100
AcDb2dPolyline
 66
     1
 10
0.0
 20
0.0
 30
0.0
  0
VERTEX
  5
AC
330
AB
100
AcDbEntity
  8
Layer 1
 62
   250
420
  2301728
370
    18
100
AcDbVertex
100
AcDb2dVertex
 10
4.193683613661404
 20
8.945943997496922
 30
0.0
  0
VERTEX
  5
AD
330
AB
100
AcDbEntity
  8
Layer 1
 62
   250
420
  2301728
370
    18
100
AcDbVertex
100
AcDb2dVertex
 10
4.58335971599811
 20
8.866696463550637
 30
0.0
  0
SEQEND
  5
AE
330
AB
100
AcDbEntity
  8
Layer 1
 62
   250
420
  2301728
370
    18
  0
POLYLINE
  5
AF
330
1F
100
AcDbEntity
  8
Layer 1
 62
   250
420
  2301728
370
    18
100
AcDb2dPolyline
 66
     1
 10
0.0
 20
0.0
 30
0.0
  0
VERTEX
  5
B0
330
AF
100
AcDbEntity
  8
Layer 1
 62
   250
420
  2301728
370
    18
100
AcDbVertex
100
AcDb2dVertex
 10
4.596865629465001
 20
8.852383010551181
 30
0.0
  0
VERTEX
  5
B1
330
AF
100
AcDbEntity
  8
Layer 1
 62
   250
420
  2301728
370
    18
100
AcDbVertex
100
AcDb2dVertex
 10
4.69313817117149
 20
8.832932914653359
 30
0.0
  0
SEQEND
  5
B2
330
AF
100
AcDbEntity
  8
Layer 1
 62
   250
420
  2301728
370
    18
  0
SPLINE
  5
B3
330
1F
100
AcDbEntity
  8
Layer 1
 62
   250
420
  2301728
370
    13
100
AcDbSpline
210
0.0
220
0.0
230
1.0
 70
     8
 71
     3
 72
    11
 73
     7
 74
     0
 42
0.0000000001
 43
0.0000000001
 12
1.0
 22
0.0
 32
0.0
 13
1.0
 23
0.0
 33
0.0
 40
0.0
 40
0.0
 40
0.0
 40
0.0
 40
1.0
 40
1.0
 40
1.0
 40
2.0
 40
2.0
 40
2.0
 40
2.0
 10
4.425059741754113
 20
8.766973974666724
 30
0.0
 10
4.438056930010867
 20
8.77049553849992
 30
0.0
 10
4.464802046640266
 20
8.778526482108317
 30
0.0
 10
4.476885505150701
 20
8.786085743604405
 30
0.0
 10
4.488966494121238
 20
8.793647474640352
 30
0.0
 10
4.514217539138422
 20
8.804246739697923
 30
0.0
 10
4.525794741978542
 20
8.807755955831844
 30
0.0
  0
SPLINE
  5
B4
330
1F
100
AcDbEntity
  8
Layer 1
 62
   250
420
  2301728
370
    13
100
AcDbSpline
210
0.0
220
0.0
230
1.0
 70
     8
 71
     3
 72
    14
 73
    10
 74
     0
 42
0.0000000001
 43
0.0000000001
 12
1.0
 22
0.0
 32
0.0
 13
1.0
 23
0.0
 33
0.0
 40
0.0
 40
0.0
 40
0.0
 40
0.0
 40
1.0
 40
1.0
 40
1.0
 40
2.0
 40
2.0
 40
2.0
 40
3.0
 40
3.0
 40
3.0
 40
3.0
 10
4.338914782992863
 20
8.776029777314937
 30
0.0
 10
4.345933215260705
 20
8.783048209582779
 30
0.0
 10
4.361054207792752
 20
8.786085743604405
 30
0.0
 10
4.372653636491577
 20
8.788582448397795
 30
0.0
 10
4.384253065190427
 20
8.791079153191175
 30
0.0
 10
4.411336508779995
 20
8.793573388444706
 30
0.0
 10
4.422479270187775
 20
8.798626066987985
 30
0.0
 10
4.433619166891453
 20
8.80370344092983
 30
0.0
 10
4.460752001278125
 20
8.816268459711965
 30
0.0
 10
4.474401148056586
 20
8.81726862335323
 30
0.0
  0
SPLINE
  5
B5
330
1F
100
AcDbEntity
  8
Layer 1
 62
   250
420
  2301728
370
    13
100
AcDbSpline
210
0.0
220
0.0
230
1.0
 70
     8
 71
     3
 72
    14
 73
    10
 74
     0
 42
0.0000000001
 43
0.0000000001
 12
1.0
 22
0.0
 32
0.0
 13
1.0
 23
0.0
 33
0.0
 40
0.0
 40
0.0
 40
0.0
 40
0.0
 40
1.0
 40
1.0
 40
1.0
 40
2.0
 40
2.0
 40
2.0
 40
3.0
 40
3.0
 40
3.0
 40
3.0
 10
4.253300775300456
 20
8.795129198553342
 30
0.0
 10
4.266372049752842
 20
8.799725331262696
 30
0.0
 10
4.275921760372057
 20
8.805199982081945
 30
0.0
 10
4.293045549726482
 20
8.807225004763028
 30
0.0
 10
4.310216260338166
 20
8.809237679744834
 30
0.0
 10
4.328905737960642
 20
8.821321138255245
 30
0.0
 10
4.341446061344211
 20
8.823346160936328
 30
0.0
 10
4.354011080126358
 20
8.825383851004112
 30
0.0
 10
4.371641125151048
 20
8.830920239671551
 30
0.0
 10
4.377644576538513
 20
8.836911343359727
 30
0.0
  0
SPLINE
  5
B6
330
1F
100
AcDbEntity
  8
Layer 1
 62
   250
420
  2301728
370
    13
100
AcDbSpline
210
0.0
220
0.0
230
1.0
 70
     8
 71
     3
 72
    14
 73
    10
 74
     0
 42
0.0000000001
 43
0.0000000001
 12
1.0
 22
0.0
 32
0.0
 13
1.0
 23
0.0
 33
0.0
 40
0.0
 40
0.0
 40
0.0
 40
0.0
 40
1.0
 40
1.0
 40
1.0
 40
2.0
 40
2.0
 40
2.0
 40
3.0
 40
3.0
 40
3.0
 40
3.0
 10
4.145004044040054
 20
8.817811922121324
 30
0.0
 10
4.163177578864482
 20
8.82180301812395
 30
0.0
 10
4.168640009992057
 20
8.822346316905762
 30
0.0
 10
4.183289320411808
 20
8.823346160936328
 30
0.0
 10
4.197928752672119
 20
8.824358672276881
 30
0.0
 10
4.219608843058975
 20
8.829833642135364
 30
0.0
 10
4.2286522980079
 20
8.833886157037378
 30
0.0
 10
4.237695752956849
 20
8.837923854700268
 30
0.0
 10
4.273896737690974
 20
8.843398824558765
 30
0.0
 10
4.286508677730353
 20
8.856013234137992
 30
0.0
  0
SPLINE
  5
B7
330
1F
100
AcDbEntity
  8
Layer 1
 62
   250
420
  2301728
370
    13
100
AcDbSpline
210
0.0
220
0.0
230
1.0
 70
     8
 71
     3
 72
    14
 73
    10
 74
     0
 42
0.0000000001
 43
0.0000000001
 12
1.0
 22
0.0
 32
0.0
 13
1.0
 23
0.0
 33
0.0
 40
0.0
 40
0.0
 40
0.0
 40
0.0
 40
1.0
 40
1.0
 40
1.0
 40
2.0
 40
2.0
 40
2.0
 40
3.0
 40
3.0
 40
3.0
 40
3.0
 10
4.060945846456282
 20
8.834355369609852
 30
0.0
 10
4.069532625198008
 20
8.837395373171324
 30
0.0
 10
4.084110130295989
 20
8.846979657348482
 30
0.0
 10
4.09868782405993
 20
8.847982290529607
 30
0.0
 10
4.113280335062983
 20
8.849007149569413
 30
0.0
 10
4.121308809131531
 20
8.846979657348482
 30
0.0
 10
4.138469641583773
 20
8.852057031290315
 30
0.0
 10
4.155615656796903
 20
8.857109709833606
 30
0.0
 10
4.184832782821155
 20
8.871146574369302
 30
0.0
 10
4.197397801603302
 20
8.874184108390926
 30
0.0
  0
SPLINE
  5
B8
330
1F
100
AcDbEntity
  8
Layer 1
 62
   250
420
  2301728
370
    13
100
AcDbSpline
210
0.0
220
0.0
230
1.0
 70
     8
 71
     3
 72
    17
 73
    13
 74
     0
 42
0.0000000001
 43
0.0000000001
 12
1.0
 22
0.0
 32
0.0
 13
1.0
 23
0.0
 33
0.0
 40
0.0
 40
0.0
 40
0.0
 40
0.0
 40
1.0
 40
1.0
 40
1.0
 40
2.0
 40
2.0
 40
2.0
 40
3.0
 40
3.0
 40
3.0
 40
4.0
 40
4.0
 40
4.0
 40
4.0
 10
3.963744757764289
 20
8.855084687152523
 30
0.0
 10
3.979818992680369
 20
8.856554063366236
 30
0.0
 10
3.986968310560516
 20
8.856494794409741
 30
0.0
 10
3.999521168540696
 20
8.860075627199434
 30
0.0
 10
4.012073652726232
 20
8.863656459989151
 30
0.0
 10
4.009517678976332
 20
8.87168772445471
 30
0.0
 10
4.029691350051658
 20
8.869662701722493
 30
0.0
 10
4.049889716525538
 20
8.867637678990224
 30
0.0
 10
4.067976815050075
 20
8.870746508912804
 30
0.0
 10
4.079045104053421
 20
8.873702548119228
 30
0.0
 10
4.090128588108832
 20
8.876668465485043
 30
0.0
 10
4.107805365204513
 20
8.889366839419342
 30
0.0
 10
4.124892111461096
 20
8.888835888350526
 30
0.0
  0
SPLINE
  5
B9
330
1F
100
AcDbEntity
  8
Layer 1
 62
   250
420
  2301728
370
    13
100
AcDbSpline
210
0.0
220
0.0
230
1.0
 70
     8
 71
     3
 72
    11
 73
     7
 74
     0
 42
0.0000000001
 43
0.0000000001
 12
1.0
 22
0.0
 32
0.0
 13
1.0
 23
0.0
 33
0.0
 40
0.0
 40
0.0
 40
0.0
 40
0.0
 40
1.0
 40
1.0
 40
1.0
 40
2.0
 40
2.0
 40
2.0
 40
2.0
 10
4.106187816599483
 20
8.893826828397449
 30
0.0
 10
4.111724524954348
 20
8.906379499480295
 30
0.0
 10
4.121913846396006
 20
8.910432014382309
 30
0.0
 10
4.120358036287371
 20
8.923527984233273
 30
0.0
 10
4.118814573878
 20
8.93663383224364
 30
0.0
 10
4.118874032746968
 20
8.9532513659278
 30
0.0
 10
4.122395406667717
 20
8.95978576838407
 30
0.0
  0
SPLINE
  5
BA
330
1F
100
AcDbEntity
  8
Layer 1
 62
   250
420
  2301728
370
    13
100
AcDbSpline
210
0.0
220
0.0
230
1.0
 70
     8
 71
     3
 72
    11
 73
     7
 74
     0
 42
0.0000000001
 43
0.0000000001
 12
1.0
 22
0.0
 32
0.0
 13
1.0
 23
0.0
 33
0.0
 40
0.0
 40
0.0
 40
0.0
 40
0.0
 40
1.0
 40
1.0
 40
1.0
 40
2.0
 40
2.0
 40
2.0
 40
2.0
 10
4.186329323973268
 20
8.877764941180658
 30
0.0
 10
4.185869989560262
 20
8.89086091103161
 30
0.0
 10
4.182469433179954
 20
8.905102747375269
 30
0.0
 10
4.186786380474485
 20
8.915966575173064
 30
0.0
 10
4.193876237770079
 20
8.933608645921291
 30
0.0
 10
4.188811403206728
 20
8.940227012732635
 30
0.0
 10
4.188811403206728
 20
8.94620823826138
 30
0.0
  0
SPLINE
  5
BB
330
1F
100
AcDbEntity
  8
Layer 1
 62
   250
420
  2301728
370
    13
100
AcDbSpline
210
0.0
220
0.0
230
1.0
 70
     8
 71
     3
 72
    11
 73
     7
 74
     0
 42
0.0000000001
 43
0.0000000001
 12
1.0
 22
0.0
 32
0.0
 13
1.0
 23
0.0
 33
0.0
 40
0.0
 40
0.0
 40
0.0
 40
0.0
 40
1.0
 40
1.0
 40
1.0
 40
2.0
 40
2.0
 40
2.0
 40
2.0
 10
4.279490245462512
 20
8.85953232843134
 30
0.0
 10
4.281517931704608
 20
8.87217143340912
 30
0.0
 10
4.28347114370874
 20
8.876752429840115
 30
0.0
 10
4.28050275680304
 20
8.889317448622238
 30
0.0
 10
4.277536839437213
 20
8.901870119705096
 30
0.0
 10
4.278549350777768
 20
8.917991597905294
 30
0.0
 10
4.280021196531329
 20
8.927590377294715
 30
0.0
  0
SPLINE
  5
BC
330
1F
100
AcDbEntity
  8
Layer 1
 62
   250
420
  2301728
370
    13
100
AcDbSpline
210
0.0
220
0.0
230
1.0
 70
     8
 71
     3
 72
    11
 73
     7
 74
     0
 42
0.0000000001
 43
0.0000000001
 12
1.0
 22
0.0
 32
0.0
 13
1.0
 23
0.0
 33
0.0
 40
0.0
 40
0.0
 40
0.0
 40
0.0
 40
1.0
 40
1.0
 40
1.0
 40
2.0
 40
2.0
 40
2.0
 40
2.0
 10
4.382709602781056
 20
8.83745464212782
 30
0.0
 10
4.38116614037171
 20
8.854072175811982
 30
0.0
 10
4.376632065197959
 20
8.866140817083267
 30
0.0
 10
4.379672068759444
 20
8.875208967430744
 30
0.0
 10
4.382709602781056
 20
8.884240074680406
 30
0.0
 10
4.386231166614253
 20
8.895311021850274
 30
0.0
 10
4.384734625462139
 20
8.906379499480295
 30
0.0
  0
SPLINE
  5
BD
330
1F
100
AcDbEntity
  8
Layer 1
 62
   250
420
  2301728
370
    13
100
AcDbSpline
210
0.0
220
0.0
230
1.0
 70
     8
 71
     3
 72
    11
 73
     7
 74
     0
 42
0.0000000001
 43
0.0000000001
 12
1.0
 22
0.0
 32
0.0
 13
1.0
 23
0.0
 33
0.0
 40
0.0
 40
0.0
 40
0.0
 40
0.0
 40
1.0
 40
1.0
 40
1.0
 40
2.0
 40
2.0
 40
2.0
 40
2.0
 10
4.467311099132934
 20
8.820790506757817
 30
0.0
 10
4.472376125375503
 20
8.833414474925082
 30
0.0
 10
4.479345166846239
 20
8.839479664808904
 30
0.0
 10
4.478379576762942
 20
8.85156312331934
 30
0.0
 10
4.477438682078198
 20
8.863656459989151
 30
0.0
 10
4.474882907234283
 20
8.874245846887309
 30
0.0
 10
4.476379249480411
 20
8.886808396129583
 30
0.0
  0
SPLINE
  5
BE
330
1F
100
AcDbEntity
  8
Layer 1
 62
   250
420
  2301728
370
    13
100
AcDbSpline
210
0.0
220
0.0
230
1.0
 70
     8
 71
     3
 72
    11
 73
     7
 74
     0
 42
0.0000000001
 43
0.0000000001
 12
1.0
 22
0.0
 32
0.0
 13
1.0
 23
0.0
 33
0.0
 40
0.0
 40
0.0
 40
0.0
 40
0.0
 40
1.0
 40
1.0
 40
1.0
 40
2.0
 40
2.0
 40
2.0
 40
2.0
 10
4.533776294789832
 20
8.806669358295657
 30
0.0
 10
4.534354167115907
 20
8.822802862168235
 30
0.0
 10
4.529217524217554
 20
8.838479501167638
 30
0.0
 10
4.530785682025453
 20
8.848535467457129
 30
0.0
 10
4.532304449036271
 20
8.858593903286444
 30
0.0
 10
4.534813501528939
 20
8.866214903278912
 30
0.0
 10
4.533341655775378
 20
8.876283217267668
 30
0.0
  0
SPLINE
  5
BF
330
1F
100
AcDbEntity
  8
Layer 1
 62
   250
420
  2301728
370
    13
100
AcDbSpline
210
0.0
220
0.0
230
1.0
 70
     8
 71
     3
 72
    14
 73
    10
 74
     0
 42
0.0000000001
 43
0.0000000001
 12
1.0
 22
0.0
 32
0.0
 13
1.0
 23
0.0
 33
0.0
 40
0.0
 40
0.0
 40
0.0
 40
0.0
 40
1.0
 40
1.0
 40
1.0
 40
2.0
 40
2.0
 40
2.0
 40
3.0
 40
3.0
 40
3.0
 40
3.0
 10
4.264924899397834
 20
8.932112104769176
 30
0.0
 10
4.281517931704608
 20
8.932583786881473
 30
0.0
 10
4.291089674161336
 20
8.933655567178535
 30
0.0
 10
4.302160621331217
 20
8.937177131011733
 30
0.0
 10
4.313229098961225
 20
8.94067399944639
 30
0.0
 10
4.329846827887447
 20
8.945136457964331
 30
0.0
 10
4.340939805673947
 20
8.944664775852035
 30
0.0
 10
4.351986057445275
 20
8.944183215580297
 30
0.0
 10
4.375209610241503
 20
8.952767336116215
 30
0.0
 10
4.388787140364179
 20
8.957279185431263
 30
0.0
  0
SPLINE
  5
C0
330
1F
100
AcDbEntity
  8
Layer 1
 62
   250
420
  2301728
370
    13
100
AcDbSpline
210
0.0
220
0.0
230
1.0
 70
     8
 71
     3
 72
    14
 73
    10
 74
     0
 42
0.0000000001
 43
0.0000000001
 12
1.0
 22
0.0
 32
0.0
 13
1.0
 23
0.0
 33
0.0
 40
0.0
 40
0.0
 40
0.0
 40
0.0
 40
1.0
 40
1.0
 40
1.0
 40
2.0
 40
2.0
 40
2.0
 40
3.0
 40
3.0
 40
3.0
 40
3.0
 10
4.346992647858491
 20
8.915435302128495
 30
0.0
 10
4.363079230473836
 20
8.915966575173064
 30
0.0
 10
4.372194302078571
 20
8.91644781346905
 30
0.0
 10
4.382228042509344
 20
8.922537698751436
 30
0.0
 10
4.392308704197376
 20
8.928602888635243
 30
0.0
 10
4.398289929726135
 20
8.93108724572936
 30
0.0
 10
4.411408125435779
 20
8.93108724572936
 30
0.0
 10
4.424504292920018
 20
8.93108724572936
 30
0.0
 10
4.450165083919829
 20
8.939263892189198
 30
0.0
 10
4.456699486376086
 20
8.944254832236108
 30
0.0
  0
SPLINE
  5
C1
330
1F
100
AcDbEntity
  8
Layer 1
 62
   250
420
  2301728
370
    13
100
AcDbSpline
210
0.0
220
0.0
230
1.0
 70
     8
 71
     3
 72
    14
 73
    10
 74
     0
 42
0.0000000001
 43
0.0000000001
 12
1.0
 22
0.0
 32
0.0
 13
1.0
 23
0.0
 33
0.0
 40
0.0
 40
0.0
 40
0.0
 40
0.0
 40
1.0
 40
1.0
 40
1.0
 40
2.0
 40
2.0
 40
2.0
 40
3.0
 40
3.0
 40
3.0
 40
3.0
 10
4.414448128997265
 20
8.901870119705096
 30
0.0
 10
4.434631678232007
 20
8.90543860479555
 30
0.0
 10
4.446643520086607
 20
8.911926085994574
 30
0.0
 10
4.457230437444903
 20
8.911456873422127
 30
0.0
 10
4.467842050201751
 20
8.910975313150415
 30
0.0
 10
4.484916448759072
 20
8.91200017219022
 30
0.0
 10
4.48998147500164
 20
8.914494407443751
 30
0.0
 10
4.495044031704361
 20
8.917003781938345
 30
0.0
 10
4.515062321689836
 20
8.93108724572936
 30
0.0
 10
4.526226911453174
 20
8.93108724572936
 30
0.0
  0
SPLINE
  5
C2
330
1F
100
AcDbEntity
  8
Layer 1
 62
   250
420
  2301728
370
    13
100
AcDbSpline
210
0.0
220
0.0
230
1.0
 70
     8
 71
     3
 72
    14
 73
    10
 74
     0
 42
0.0000000001
 43
0.0000000001
 12
1.0
 22
0.0
 32
0.0
 13
1.0
 23
0.0
 33
0.0
 40
0.0
 40
0.0
 40
0.0
 40
0.0
 40
1.0
 40
1.0
 40
1.0
 40
2.0
 40
2.0
 40
2.0
 40
3.0
 40
3.0
 40
3.0
 40
3.0
 10
4.495044031704361
 20
8.884771025749222
 30
0.0
 10
4.518195967844778
 20
8.88431416087605
 30
0.0
 10
4.531751272108774
 20
8.885264933720224
 30
0.0
 10
4.543857157126291
 20
8.889317448622238
 30
0.0
 10
4.555940414988274
 20
8.893370284929182
 30
0.0
 10
4.559437283422944
 20
8.899422805708822
 30
0.0
 10
4.576607994034601
 20
8.899904365980547
 30
0.0
 10
4.593729313849179
 20
8.900385926252257
 30
0.0
 10
4.612300253558614
 20
8.907466097016481
 30
0.0
 10
4.621415325163349
 20
8.913000335831486
 30
0.0
  0
SPLINE
  5
C3
330
1F
100
AcDbEntity
  8
Layer 1
 62
   250
420
  2301728
370
    13
100
AcDbSpline
210
0.0
220
0.0
230
1.0
 70
     8
 71
     3
 72
    14
 73
    10
 74
     0
 42
0.0000000001
 43
0.0000000001
 12
1.0
 22
0.0
 32
0.0
 13
1.0
 23
0.0
 33
0.0
 40
0.0
 40
0.0
 40
0.0
 40
0.0
 40
1.0
 40
1.0
 40
1.0
 40
2.0
 40
2.0
 40
2.0
 40
3.0
 40
3.0
 40
3.0
 40
3.0
 10
4.571061407520321
 20
8.869662701722493
 30
0.0
 10
4.586639264925528
 20
8.868168309304199
 30
0.0
 10
4.588207422733427
 20
8.867094380208414
 30
0.0
 10
4.604824956417588
 20
8.868650190356359
 30
0.0
 10
4.621415325163349
 20
8.870218027383833
 30
0.0
 10
4.632557888989013
 20
8.879187396137114
 30
0.0
 10
4.648644471604332
 20
8.877705672224137
 30
0.0
 10
4.664706358821124
 20
8.87620913107201
 30
0.0
 10
4.701989002011739
 20
8.885193317064426
 30
0.0
 10
4.714529325395334
 20
8.895311021850274
 30
0.0
  0
SPLINE
  5
C4
330
1F
100
AcDbEntity
  8
Layer 1
 62
   250
420
  2301728
370
    13
100
AcDbSpline
210
0.0
220
0.0
230
1.0
 70
     8
 71
     3
 72
    11
 73
     7
 74
     0
 42
0.0000000001
 43
0.0000000001
 12
1.0
 22
0.0
 32
0.0
 13
1.0
 23
0.0
 33
0.0
 40
0.0
 40
0.0
 40
0.0
 40
0.0
 40
1.0
 40
1.0
 40
1.0
 40
2.0
 40
2.0
 40
2.0
 40
2.0
 10
4.652622900310714
 20
8.788654065053581
 30
0.0
 10
4.659616637180003
 20
8.798712819896574
 30
0.0
 10
4.661184998600295
 20
8.800122608140112
 30
0.0
 10
4.661184998600295
 20
8.8086968505166
 30
0.0
 10
4.661184998600295
 20
8.81726862335323
 30
0.0
 10
4.660194509506078
 20
8.83184878665702
 30
0.0
 10
4.662678866600193
 20
8.837923854700268
 30
0.0
  0
SPLINE
  5
C5
330
1F
100
AcDbEntity
  8
Layer 1
 62
   250
420
  2301728
370
    13
100
AcDbSpline
210
0.0
220
0.0
230
1.0
 70
     8
 71
     3
 72
    14
 73
    10
 74
     0
 42
0.0000000001
 43
0.0000000001
 12
1.0
 22
0.0
 32
0.0
 13
1.0
 23
0.0
 33
0.0
 40
0.0
 40
0.0
 40
0.0
 40
0.0
 40
1.0
 40
1.0
 40
1.0
 40
2.0
 40
2.0
 40
2.0
 40
3.0
 40
3.0
 40
3.0
 40
3.0
 10
4.663306129723347
 20
8.839951346921213
 30
0.0
 10
4.680454614476326
 20
8.839951346921213
 30
0.0
 10
4.694995265142451
 20
8.84251966837039
 30
0.0
 10
4.706547772584043
 20
8.848535467457129
 30
0.0
 10
4.718122505884316
 20
8.85454138838443
 30
0.0
 10
4.732134880426176
 20
8.861088138539975
 30
0.0
 10
4.744749084600699
 20
8.861088138539975
 30
0.0
 10
4.75738572003863
 20
8.861088138539975
 30
0.0
 10
4.791052956881559
 20
8.872628298282292
 30
0.0
 10
4.805183871181852
 20
8.878162537097296
 30
0.0
  0
SPLINE
  5
C6
330
1F
100
AcDbEntity
  8
Layer 1
 62
   250
420
  2301728
370
    30
100
AcDbSpline
210
0.0
220
0.0
230
1.0
 70
    11
 71
     3
 72
    38
 73
    34
 74
     0
 42
0.0000000001
 43
0.0000000001
 12
1.0
 22
0.0
 32
0.0
 13
1.0
 23
0.0
 33
0.0
 40
0.0
 40
0.0
 40
0.0
 40
0.0
 40
1.0
 40
1.0
 40
1.0
 40
2.0
 40
2.0
 40
2.0
 40
3.0
 40
3.0
 40
3.0
 40
4.0
 40
4.0
 40
4.0
 40
5.0
 40
5.0
 40
5.0
 40
6.0
 40
6.0
 40
6.0
 40
7.0
 40
7.0
 40
7.0
 40
8.0
 40
8.0
 40
8.0
 40
9.0
 40
9.0
 40
9.0
 40
10.0
 40
10.0
 40
10.0
 40
11.0
 40
11.0
 40
11.0
 40
11.0
 10
4.029486378243695
 20
6.671361966369166
 30
0.0
 10
4.029486378243695
 20
6.671361966369166
 30
0.0
 10
4.057557637775239
 20
6.659762537670328
 30
0.0
 10
4.057557637775239
 20
6.659762537670328
 30
0.0
 10
4.057557637775239
 20
6.659762537670328
 30
0.0
 10
4.396215516247947
 20
6.835825912091208
 30
0.0
 10
4.396215516247947
 20
6.835825912091208
 30
0.0
 10
4.396215516247947
 20
6.859857004420014
 30
0.0
 10
4.410057484403447
 20
6.875387940567975
 30
0.0
 10
4.431112583938658
 20
6.879018164154786
 30
0.0
 10
4.431112583938658
 20
6.885493297654547
 30
0.0
 10
4.431112583938658
 20
7.050811704166411
 30
0.0
 10
4.431112583938658
 20
7.254200537082637
 30
0.0
 10
4.396625459863874
 20
7.254200537082637
 30
0.0
 10
4.384060441081727
 20
7.305495349410395
 30
0.0
 10
4.431112583938658
 20
7.317023161453449
 30
0.0
 10
4.431112583938658
 20
7.642128494997905
 30
0.0
 10
4.431112583938658
 20
8.029211290690998
 30
0.0
 10
4.431112583938658
 20
8.029211290690998
 30
0.0
 10
4.431112583938658
 20
8.029211290690998
 30
0.0
 10
4.405718305609904
 20
8.04175161407458
 30
0.0
 10
4.405718305609904
 20
8.04175161407458
 30
0.0
 10
4.405718305609904
 20
8.04175161407458
 30
0.0
 10
4.178093599965374
 20
7.954895725532171
 30
0.0
 10
4.178093599965374
 20
7.954895725532171
 30
0.0
 10
4.178093599965374
 20
7.954895725532171
 30
0.0
 10
4.178093599965374
 20
6.995694044143129
 30
0.0
 10
4.178093599965374
 20
6.995694044143129
 30
0.0
 10
4.178093599965374
 20
6.995694044143129
 30
0.0
 10
4.029486378243695
 20
6.696936787025656
 30
0.0
 10
4.029486378243695
 20
6.696936787025656
 30
0.0
 10
4.029486378243695
 20
6.696936787025656
 30
0.0
 10
4.029486378243695
 20
6.671361966369166
 30
0.0
 10
4.029486378243695
 20
6.671361966369166
 30
0.0
  0
HATCH
  5
C7
330
1F
100
AcDbEntity
  8
Layer 1
 62
     9
420
 12307926
100
AcDbHatch
 10
0.0
 20
0.0
 30
0.0
210
0.0
220
0.0
230
1.0
  2
SOLID
 70
     1
 71
     0
 91
        1
 92
        1
 93
        1
 72
     4
 94
        3
 73
     0
 74
     1
 95
       38
 96
       34
 40
0.0
 40
0.0
 40
0.0
 40
0.0
 40
1.0
 40
1.0
 40
1.0
 40
2.0
 40
2.0
 40
2.0
 40
3.0
 40
3.0
 40
3.0
 40
4.0
 40
4.0
 40
4.0
 40
5.0
 40
5.0
 40
5.0
 40
6.0
 40
6.0
 40
6.0
 40
7.0
 40
7.0
 40
7.0
 40
8.0
 40
8.0
 40
8.0
 40
9.0
 40
9.0
 40
9.0
 40
10.0
 40
10.0
 40
10.0
 40
11.0
 40
11.0
 40
11.0
 40
11.0
 10
4.029486378243695
 20
6.671361966369166
 10
4.029486378243695
 20
6.671361966369166
 10
4.057557637775239
 20
6.659762537670328
 10
4.057557637775239
 20
6.659762537670328
 10
4.057557637775239
 20
6.659762537670328
 10
4.396215516247947
 20
6.835825912091208
 10
4.396215516247947
 20
6.835825912091208
 10
4.396215516247947
 20
6.859857004420014
 10
4.410057484403447
 20
6.875387940567975
 10
4.431112583938658
 20
6.879018164154786
 10
4.431112583938658
 20
6.885493297654547
 10
4.431112583938658
 20
7.050811704166411
 10
4.431112583938658
 20
7.254200537082637
 10
4.396625459863874
 20
7.254200537082637
 10
4.384060441081727
 20
7.305495349410395
 10
4.431112583938658
 20
7.317023161453449
 10
4.431112583938658
 20
7.642128494997905
 10
4.431112583938658
 20
8.029211290690998
 10
4.431112583938658
 20
8.029211290690998
 10
4.431112583938658
 20
8.029211290690998
 10
4.405718305609904
 20
8.04175161407458
 10
4.405718305609904
 20
8.04175161407458
 10
4.405718305609904
 20
8.04175161407458
 10
4.178093599965374
 20
7.954895725532171
 10
4.178093599965374
 20
7.954895725532171
 10
4.178093599965374
 20
7.954895725532171
 10
4.178093599965374
 20
6.995694044143129
 10
4.178093599965374
 20
6.995694044143129
 10
4.178093599965374
 20
6.995694044143129
 10
4.029486378243695
 20
6.696936787025656
 10
4.029486378243695
 20
6.696936787025656
 10
4.029486378243695
 20
6.696936787025656
 10
4.029486378243695
 20
6.671361966369166
 10
4.029486378243695
 20
6.671361966369166
 97
        0
 97
        0
 75
     2
 76
     1
 98
        0
  0
POLYLINE
  5
C8
330
1F
100
AcDbEntity
  8
Layer 1
 62
   250
420
  2301728
370
    18
100
AcDb2dPolyline
 66
     1
 10
0.0
 20
0.0
 30
0.0
  0
VERTEX
  5
C9
330
C8
100
AcDbEntity
  8
Layer 1
 62
   250
420
  2301728
370
    18
100
AcDbVertex
100
AcDb2dVertex
 10
4.057629442796294
 20
6.659905770981936
 30
0.0
  0
VERTEX
  5
CA
330
C8
100
AcDbEntity
  8
Layer 1
 62
   250
420
  2301728
370
    18
100
AcDbVertex
100
AcDb2dVertex
 10
4.057629442796294
 20
6.685203737256339
 30
0.0
  0
VERTEX
  5
CB
330
C8
100
AcDbEntity
  8
Layer 1
 62
   250
420
  2301728
370
    18
100
AcDbVertex
100
AcDb2dVertex
 10
4.203329636334956
 20
6.988544726262969
 30
0.0
  0
VERTEX
  5
CC
330
C8
100
AcDbEntity
  8
Layer 1
 62
   250
420
  2301728
370
    18
100
AcDbVertex
100
AcDb2dVertex
 10
4.203329636334956
 20
7.940451089223352
 30
0.0
  0
VERTEX
  5
CD
330
C8
100
AcDbEntity
  8
Layer 1
 62
   250
420
  2301728
370
    18
100
AcDbVertex
100
AcDb2dVertex
 10
4.431038497743
 20
8.029065587839556
 30
0.0
  0
SEQEND
  5
CE
330
C8
100
AcDbEntity
  8
Layer 1
 62
   250
420
  2301728
370
    18
  0
POLYLINE
  5
CF
330
1F
100
AcDbEntity
  8
Layer 1
 62
   250
420
  2301728
370
    18
100
AcDb2dPolyline
 66
     1
 10
0.0
 20
0.0
 30
0.0
  0
VERTEX
  5
D0
330
CF
100
AcDbEntity
  8
Layer 1
 62
   250
420
  2301728
370
    18
100
AcDbVertex
100
AcDb2dVertex
 10
4.178416918277915
 20
7.954547222715568
 30
0.0
  0
VERTEX
  5
D1
330
CF
100
AcDbEntity
  8
Layer 1
 62
   250
420
  2301728
370
    18
100
AcDbVertex
100
AcDb2dVertex
 10
4.203475339186399
 20
7.940581974835645
 30
0.0
  0
SEQEND
  5
D2
330
CF
100
AcDbEntity
  8
Layer 1
 62
   250
420
  2301728
370
    18
  0
POLYLINE
  5
D3
330
1F
100
AcDbEntity
  8
Layer 1
 62
   250
420
  2301728
370
    18
100
AcDb2dPolyline
 66
     1
 10
0.0
 20
0.0
 30
0.0
  0
VERTEX
  5
D4
330
D3
100
AcDbEntity
  8
Layer 1
 62
   250
420
  2301728
370
    18
100
AcDbVertex
100
AcDb2dVertex
 10
4.178562812549646
 20
6.995355990640051
 30
0.0
  0
VERTEX
  5
D5
330
D3
100
AcDbEntity
  8
Layer 1
 62
   250
420
  2301728
370
    18
100
AcDbVertex
100
AcDb2dVertex
 10
4.203186403023361
 20
6.988663537463973
 30
0.0
  0
SEQEND
  5
D6
330
D3
100
AcDbEntity
  8
Layer 1
 62
   250
420
  2301728
370
    18
  0
POLYLINE
  5
D7
330
1F
100
AcDbEntity
  8
Layer 1
 62
   250
420
  2301728
370
    18
100
AcDb2dPolyline
 66
     1
 10
0.0
 20
0.0
 30
0.0
  0
VERTEX
  5
D8
330
D7
100
AcDbEntity
  8
Layer 1
 62
   250
420
  2301728
370
    18
100
AcDbVertex
100
AcDb2dVertex
 10
4.029762966707444
 20
6.696743896998643
 30
0.0
  0
VERTEX
  5
D9
330
D7
100
AcDbEntity
  8
Layer 1
 62
   250
420
  2301728
370
    18
100
AcDbVertex
100
AcDb2dVertex
 10
4.057365013666564
 20
6.684998765448363
 30
0.0
  0
SEQEND
  5
DA
330
D7
100
AcDbEntity
  8
Layer 1
 62
   250
420
  2301728
370
    18
  0
SPLINE
  5
DB
330
1F
100
AcDbEntity
  8
Layer 1
 62
   250
420
  2301728
370
    30
100
AcDbSpline
210
0.0
220
0.0
230
1.0
 70
    11
 71
     3
 72
    23
 73
    19
 74
     0
 42
0.0000000001
 43
0.0000000001
 12
1.0
 22
0.0
 32
0.0
 13
1.0
 23
0.0
 33
0.0
 40
0.0
 40
0.0
 40
0.0
 40
0.0
 40
1.0
 40
1.0
 40
1.0
 40
2.0
 40
2.0
 40
2.0
 40
3.0
 40
3.0
 40
3.0
 40
4.0
 40
4.0
 40
4.0
 40
5.0
 40
5.0
 40
5.0
 40
6.0
 40
6.0
 40
6.0
 40
6.0
 10
4.274039971002568
 20
7.680087502312896
 30
0.0
 10
4.277610925632871
 20
7.676155994863771
 30
0.0
 10
4.281614049737779
 20
7.674395212947173
 30
0.0
 10
4.282890801842819
 20
7.680351743077381
 30
0.0
 10
4.284024320636237
 20
7.685814656136093
 30
0.0
 10
4.288076835538277
 20
7.71186060208706
 30
0.0
 10
4.288558395809988
 20
7.715972385945608
 30
0.0
 10
4.289281970987505
 20
7.72326740667721
 30
0.0
 10
4.287691781498021
 20
7.725583835061179
 30
0.0
 10
4.280527452201593
 20
7.722326511992478
 30
0.0
 10
4.278043095107478
 20
7.721254731695403
 30
0.0
 10
4.263307350792831
 20
7.714236299427575
 30
0.0
 10
4.255688820340209
 20
7.710522111485665
 30
0.0
 10
4.24915194834408
 20
7.707279605656089
 30
0.0
 10
4.2487173093296
 20
7.705047141627169
 30
0.0
 10
4.252503113927282
 20
7.701081060620076
 30
0.0
 10
4.257931162528545
 20
7.695267763801464
 30
0.0
 10
4.270856734129489
 20
7.683584370747553
 30
0.0
 10
4.274039971002568
 20
7.680087502312896
 30
0.0
  0
SPLINE
  5
DC
330
1F
100
AcDbEntity
  8
Layer 1
 62
   250
420
  2301728
370
    30
100
AcDbSpline
210
0.0
220
0.0
230
1.0
 70
    11
 71
     3
 72
    17
 73
    13
 74
     0
 42
0.0000000001
 43
0.0000000001
 12
1.0
 22
0.0
 32
0.0
 13
1.0
 23
0.0
 33
0.0
 40
0.0
 40
0.0
 40
0.0
 40
0.0
 40
1.0
 40
1.0
 40
1.0
 40
2.0
 40
2.0
 40
2.0
 40
3.0
 40
3.0
 40
3.0
 40
4.0
 40
4.0
 40
4.0
 40
4.0
 10
4.264707579890606
 20
7.689143304961109
 30
0.0
 10
4.266130034847063
 20
7.697305134181811
 30
0.0
 10
4.268251369582483
 20
7.711028658692385
 30
0.0
 10
4.269071450521071
 20
7.716960201887597
 30
0.0
 10
4.264393948329017
 20
7.71473020739855
 30
0.0
 10
4.259282000829216
 20
7.712270545702987
 30
0.0
 10
4.255688820340209
 20
7.710522111485665
 30
0.0
 10
4.24915194834408
 20
7.707279605656089
 30
0.0
 10
4.2487173093296
 20
7.705047141627169
 30
0.0
 10
4.252503113927282
 20
7.701081060620076
 30
0.0
 10
4.25532579798154
 20
7.698041057058617
 30
0.0
 10
4.260245121372665
 20
7.693388443971823
 30
0.0
 10
4.264707579890606
 20
7.689143304961109
 30
0.0
  0
HATCH
  5
DD
330
1F
100
AcDbEntity
  8
Layer 1
 62
    43
420
 15444572
100
AcDbHatch
 10
0.0
 20
0.0
 30
0.0
210
0.0
220
0.0
230
1.0
  2
SOLID
 70
     1
 71
     0
 91
        1
 92
        1
 93
        1
 72
     4
 94
        3
 73
     0
 74
     1
 95
       17
 96
       13
 40
0.0
 40
0.0
 40
0.0
 40
0.0
 40
1.0
 40
1.0
 40
1.0
 40
2.0
 40
2.0
 40
2.0
 40
3.0
 40
3.0
 40
3.0
 40
4.0
 40
4.0
 40
4.0
 40
4.0
 10
4.264707579890606
 20
7.689143304961109
 10
4.266130034847063
 20
7.697305134181811
 10
4.268251369582483
 20
7.711028658692385
 10
4.269071450521071
 20
7.716960201887597
 10
4.264393948329017
 20
7.71473020739855
 10
4.259282000829216
 20
7.712270545702987
 10
4.255688820340209
 20
7.710522111485665
 10
4.24915194834408
 20
7.707279605656089
 10
4.2487173093296
 20
7.705047141627169
 10
4.252503113927282
 20
7.701081060620076
 10
4.25532579798154
 20
7.698041057058617
 10
4.260245121372665
 20
7.693388443971823
 10
4.264707579890606
 20
7.689143304961109
 97
        0
 97
        0
 75
     2
 76
     1
 98
        0
  0
SPLINE
  5
DE
330
1F
100
AcDbEntity
  8
Layer 1
 62
   250
420
  2301728
370
    30
100
AcDbSpline
210
0.0
220
0.0
230
1.0
 70
    11
 71
     3
 72
    11
 73
     7
 74
     0
 42
0.0000000001
 43
0.0000000001
 12
1.0
 22
0.0
 32
0.0
 13
1.0
 23
0.0
 33
0.0
 40
0.0
 40
0.0
 40
0.0
 40
0.0
 40
1.0
 40
1.0
 40
1.0
 40
2.0
 40
2.0
 40
2.0
 40
2.0
 10
4.281083098668963
 20
6.918893824193143
 30
0.0
 10
4.281083098668963
 20
6.883105252614781
 30
0.0
 10
4.231884925678084
 20
6.865223314524883
 30
0.0
 10
4.231884925678084
 20
6.909971376697095
 30
0.0
 10
4.231884925678084
 20
6.954744134267874
 30
0.0
 10
4.281083098668963
 20
6.954672517612076
 30
0.0
 10
4.281083098668963
 20
6.918893824193143
 30
0.0
  0
HATCH
  5
DF
330
1F
100
AcDbEntity
  8
Layer 1
 62
   250
420
  2301728
100
AcDbHatch
 10
0.0
 20
0.0
 30
0.0
210
0.0
220
0.0
230
1.0
  2
SOLID
 70
     1
 71
     0
 91
        1
 92
        1
 93
        1
 72
     4
 94
        3
 73
     0
 74
     1
 95
       11
 96
        7
 40
0.0
 40
0.0
 40
0.0
 40
0.0
 40
1.0
 40
1.0
 40
1.0
 40
2.0
 40
2.0
 40
2.0
 40
2.0
 10
4.281083098668963
 20
6.918893824193143
 10
4.281083098668963
 20
6.883105252614781
 10
4.231884925678084
 20
6.865223314524883
 10
4.231884925678084
 20
6.909971376697095
 10
4.231884925678084
 20
6.954744134267874
 10
4.281083098668963
 20
6.954672517612076
 10
4.281083098668963
 20
6.918893824193143
 97
        0
 97
        0
 75
     2
 76
     1
 98
        0
  0
SPLINE
  5
E0
330
1F
100
AcDbEntity
  8
Layer 1
 62
   250
420
  2301728
370
    30
100
AcDbSpline
210
0.0
220
0.0
230
1.0
 70
    11
 71
     3
 72
    11
 73
     7
 74
     0
 42
0.0000000001
 43
0.0000000001
 12
1.0
 22
0.0
 32
0.0
 13
1.0
 23
0.0
 33
0.0
 40
0.0
 40
0.0
 40
0.0
 40
0.0
 40
1.0
 40
1.0
 40
1.0
 40
2.0
 40
2.0
 40
2.0
 40
2.0
 10
4.285424549734014
 20
7.904023203234462
 30
0.0
 10
4.285424549734014
 20
7.868219518005061
 30
0.0
 10
4.236177178821764
 20
7.850337579915163
 30
0.0
 10
4.236177178821764
 20
7.895110337485928
 30
0.0
 10
4.236177178821764
 20
7.939858399658154
 30
0.0
 10
4.285424549734014
 20
7.939799130701632
 30
0.0
 10
4.285424549734014
 20
7.904023203234462
 30
0.0
  0
HATCH
  5
E1
330
1F
100
AcDbEntity
  8
Layer 1
 62
   250
420
  2301728
100
AcDbHatch
 10
0.0
 20
0.0
 30
0.0
210
0.0
220
0.0
230
1.0
  2
SOLID
 70
     1
 71
     0
 91
        1
 92
        1
 93
        1
 72
     4
 94
        3
 73
     0
 74
     1
 95
       11
 96
        7
 40
0.0
 40
0.0
 40
0.0
 40
0.0
 40
1.0
 40
1.0
 40
1.0
 40
2.0
 40
2.0
 40
2.0
 40
2.0
 10
4.285424549734014
 20
7.904023203234462
 10
4.285424549734014
 20
7.868219518005061
 10
4.236177178821764
 20
7.850337579915163
 10
4.236177178821764
 20
7.895110337485928
 10
4.236177178821764
 20
7.939858399658154
 10
4.285424549734014
 20
7.939799130701632
 10
4.285424549734014
 20
7.904023203234462
 97
        0
 97
        0
 75
     2
 76
     1
 98
        0
  0
SPLINE
  5
E2
330
1F
100
AcDbEntity
  8
Layer 1
 62
   250
420
  2301728
370
    30
100
AcDbSpline
210
0.0
220
0.0
230
1.0
 70
    11
 71
     3
 72
    11
 73
     7
 74
     0
 42
0.0000000001
 43
0.0000000001
 12
1.0
 22
0.0
 32
0.0
 13
1.0
 23
0.0
 33
0.0
 40
0.0
 40
0.0
 40
0.0
 40
0.0
 40
1.0
 40
1.0
 40
1.0
 40
2.0
 40
2.0
 40
2.0
 40
2.0
 10
4.288726324520136
 20
6.914819083432424
 30
0.0
 10
4.288726324520136
 20
6.879018164154786
 30
0.0
 10
4.239505925670528
 20
6.861148573764163
 30
0.0
 10
4.239505925670528
 20
6.905909254833078
 30
0.0
 10
4.239505925670528
 20
6.950669393507155
 30
0.0
 10
4.288726324520136
 20
6.950595307311509
 30
0.0
 10
4.288726324520136
 20
6.914819083432424
 30
0.0
  0
HATCH
  5
E3
330
1F
100
AcDbEntity
  8
Layer 1
 62
     9
420
 12307926
100
AcDbHatch
 10
0.0
 20
0.0
 30
0.0
210
0.0
220
0.0
230
1.0
  2
SOLID
 70
     1
 71
     0
 91
        1
 92
        1
 93
        1
 72
     4
 94
        3
 73
     0
 74
     1
 95
       11
 96
        7
 40
0.0
 40
0.0
 40
0.0
 40
0.0
 40
1.0
 40
1.0
 40
1.0
 40
2.0
 40
2.0
 40
2.0
 40
2.0
 10
4.288726324520136
 20
6.914819083432424
 10
4.288726324520136
 20
6.879018164154786
 10
4.239505925670528
 20
6.861148573764163
 10
4.239505925670528
 20
6.905909254833078
 10
4.239505925670528
 20
6.950669393507155
 10
4.288726324520136
 20
6.950595307311509
 10
4.288726324520136
 20
6.914819083432424
 97
        0
 97
        0
 75
     2
 76
     1
 98
        0
  0
SPLINE
  5
E4
330
1F
100
AcDbEntity
  8
Layer 1
 62
   250
420
  2301728
370
    30
100
AcDbSpline
210
0.0
220
0.0
230
1.0
 70
    11
 71
     3
 72
    11
 73
     7
 74
     0
 42
0.0000000001
 43
0.0000000001
 12
1.0
 22
0.0
 32
0.0
 13
1.0
 23
0.0
 33
0.0
 40
0.0
 40
0.0
 40
0.0
 40
0.0
 40
1.0
 40
1.0
 40
1.0
 40
2.0
 40
2.0
 40
2.0
 40
2.0
 10
4.293045549726482
 20
7.89994569652198
 30
0.0
 10
4.293045549726482
 20
7.864157124943631
 30
0.0
 10
4.243847376735579
 20
7.846262839154443
 30
0.0
 10
4.243847376735579
 20
7.891023249025945
 30
0.0
 10
4.243847376735579
 20
7.935796006596711
 30
0.0
 10
4.293045549726482
 20
7.935721920401066
 30
0.0
 10
4.293045549726482
 20
7.89994569652198
 30
0.0
  0
HATCH
  5
E5
330
1F
100
AcDbEntity
  8
Layer 1
 62
     9
420
 12307926
100
AcDbHatch
 10
0.0
 20
0.0
 30
0.0
210
0.0
220
0.0
230
1.0
  2
SOLID
 70
     1
 71
     0
 91
        1
 92
        1
 93
        1
 72
     4
 94
        3
 73
     0
 74
     1
 95
       11
 96
        7
 40
0.0
 40
0.0
 40
0.0
 40
0.0
 40
1.0
 40
1.0
 40
1.0
 40
2.0
 40
2.0
 40
2.0
 40
2.0
 10
4.293045549726482
 20
7.89994569652198
 10
4.293045549726482
 20
7.864157124943631
 10
4.243847376735579
 20
7.846262839154443
 10
4.243847376735579
 20
7.891023249025945
 10
4.243847376735579
 20
7.935796006596711
 10
4.293045549726482
 20
7.935721920401066
 10
4.293045549726482
 20
7.89994569652198
 97
        0
 97
        0
 75
     2
 76
     1
 98
        0
  0
MTEXT
  5
E7
330
1F
100
AcDbEntity
  8
callout
 62
   250
420
  2301728
100
AcDbMText
 10
3.192978223164876
 20
5.650896496242947
 30
0.0
 40
0.118
 41
0.0
 46
0.0
 71
     7
 72
     1
  1
\fHelvetica Neue LT Std 55 Roman|b0|i0|c0|p34;\W1;SIMPSON Strong-Tie\H0.068794;®\H0.118; 
 73
     1
 44
1.0
  0
MTEXT
  5
E8
330
1F
100
AcDbEntity
  8
callout
 62
   250
420
  2301728
100
AcDbMText
 10
3.043848991394043
 20
5.45090463426378
 30
0.0
 40
0.118
 41
0.0
 46
0.0
 71
     7
 72
     1
  1
\fHelvetica Neue LT Std 55 Roman|b0|i0|c0|p34;\W1;IUC/HUC/SAIX Installation 
 73
     1
 44
1.0
  0
MTEXT
  5
E9
330
1F
100
AcDbEntity
  8
callout
 62
   250
420
  2301728
100
AcDbMText
 10
3.671670171949598
 20
5.250899208916558
 30
0.0
 40
0.118
 41
0.0
 46
0.0
 71
     7
 72
     1
  1
\fHelvetica Neue LT Std 55 Roman|b0|i0|c0|p34;\W1;on a Post
 73
     1
 44
1.0
  0
MTEXT
  5
EA
330
1F
100
AcDbEntity
  8
callout
 62
   250
420
  2301728
100
AcDbMText
 10
5.321167257097032
 20
7.71696048312717
 30
0.0
 40
0.118
 41
0.0
 46
0.0
 71
     7
 72
     1
  1
\fHelvetica Neue LT Std 57 Condensed|b0|i0|c0|p34;\W1;Post
 73
     1
 44
1.0
  0
INSERT
  5
EC
330
1F
100
AcDbEntity
  8
callout
100
AcDbBlockReference
  2
block 2
 10
0.0
 20
0.0
 30
0.0
  0
MTEXT
  5
FA
330
1F
100
AcDbEntity
  8
callout
 62
   250
420
  2301728
100
AcDbMText
 10
2.804434246487088
 20
8.61696328057183
 30
0.0
 40
0.118
 41
0.0
 46
0.0
 71
     7
 72
     1
  1
\fHelvetica Neue LT Std 57 Condensed|b0|i0|c0|p34;\W1;Joist
 73
     1
 44
1.0
  0
INSERT
  5
FC
330
1F
100
AcDbEntity
  8
callout
100
AcDbBlockReference
  2
block 3
 10
0.0
 20
0.0
 30
0.0
  0
MTEXT
  5
10A
330
1F
100
AcDbEntity
  8
callout
 62
   250
420
  2236191
100
AcDbMText
 10
4.907191382514106
 20
6.815530141194661
 30
0.0
 40
0.118
 41
0.0
 46
0.0
 71
     7
 72
     1
  1
\fHelvetica Neue LT Std 57 Condensed|b0|i0|c0|p34;\W1;IUC / HUC / SAIX
 73
     1
 44
1.0
  0
POLYLINE
  5
10B
330
1F
100
AcDbEntity
  8
callout
 62
   250
420
  2236191
370
    18
100
AcDb2dPolyline
 66
     1
 10
0.0
 20
0.0
 30
0.0
  0
VERTEX
  5
10C
330
10B
100
AcDbEntity
  8
callout
 62
   250
420
  2236191
370
    18
100
AcDbVertex
100
AcDb2dVertex
 10
5.243120487603973
 20
7.021953405017913
 30
0.0
  0
VERTEX
  5
10D
330
10B
100
AcDbEntity
  8
callout
 62
   250
420
  2236191
370
    18
100
AcDbVertex
100
AcDb2dVertex
 10
4.431112583938658
 20
7.434844907934499
 30
0.0
  0
SEQEND
  5
10E
330
10B
100
AcDbEntity
  8
callout
 62
   250
420
  2236191
370
    18
  0
ENDSEC
  0
SECTION
  2
OBJECTS
  0
DICTIONARY
  5
C
330
0
100
AcDbDictionary
281
     1
  3
ACAD_GROUP
350
D
  3
ACAD_LAYOUT
350
1A
  3
ACAD_MATERIAL
350
3B
  3
ACAD_MLEADERSTYLE
350
110
  3
ACAD_MLINESTYLE
350
17
  3
ACAD_PLOTSETTINGS
350
19
  3
ACAD_PLOTSTYLENAME
350
E
  3
ACAD_TABLESTYLE
350
10F
  3
ACAD_VISUALSTYLE
350
2A
  0
SUN
  5
3F
330
29
100
AcDbSun
 90
        1
290
     0
 63
     7
421
 16777215
 40
1.0
291
     1
 91
  2455826
 92
 54000000
292
     0
 70
     2
 71
   256
280
     1
  0
DICTIONARY
  5
D
102
{ACAD_REACTORS
330
C
102
}
330
C
100
AcDbDictionary
281
     1
  0
DICTIONARY
  5
1A
102
{ACAD_REACTORS
330
C
102
}
330
C
100
AcDbDictionary
281
     1
  3
Layout1
350
1E
  3
Layout2
350
26
  3
Model
350
22
  0
DICTIONARY
  5
3B
102
{ACAD_REACTORS
330
C
102
}
330
C
100
AcDbDictionary
281
     1
  3
ByBlock
350
3D
  3
ByLayer
350
3C
  3
Global
350
3E
  0
DICTIONARY
  5
110
102
{ACAD_REACTORS
330
C
102
}
330
C
100
AcDbDictionary
281
     1
  0
DICTIONARY
  5
17
102
{ACAD_REACTORS
330
C
102
}
330
C
100
AcDbDictionary
281
     1
  3
Standard
350
18
  0
DICTIONARY
  5
19
102
{ACAD_REACTORS
330
C
102
}
330
C
100
AcDbDictionary
281
     1
  0
ACDBDICTIONARYWDFLT
  5
E
102
{ACAD_REACTORS
330
C
102
}
330
C
100
AcDbDictionary
281
     1
  3
Normal
350
F
100
AcDbDictionaryWithDefault
340
F
  0
DICTIONARY
  5
10F
102
{ACAD_REACTORS
330
C
102
}
330
C
100
AcDbDictionary
281
     1
  0
DICTIONARY
  5
2A
102
{ACAD_REACTORS
330
C
102
}
330
C
100
AcDbDictionary
281
     1
  3
2dWireframe
350
2F
  3
3D Hidden
350
31
  3
3dWireframe
350
30
  3
Basic
350
32
  3
Brighten
350
36
  3
ColorChange
350
3A
  3
Conceptual
350
34
  3
Dim
350
35
  3
Facepattern
350
39
  3
Flat
350
2B
  3
FlatWithEdges
350
2C
  3
Gouraud
350
2D
  3
GouraudWithEdges
350
2E
  3
Linepattern
350
38
  3
Realistic
350
33
  3
Thicken
350
37
  0
LAYOUT
  5
1E
102
{ACAD_REACTORS
330
1A
102
}
330
1A
100
AcDbPlotSettings
  1

  2
none_device
  4

  6

 40
0.0
 41
0.0
 42
0.0
 43
0.0
 44
0.0
 45
0.0
 46
0.0
 47
0.0
 48
0.0
 49
0.0
140
0.0
141
0.0
142
1.0
143
1.0
 70
   688
 72
     0
 73
     0
 74
     5
  7

 75
    16
 76
     0
 77
     2
 78
   300
147
1.0
148
0.0
149
0.0
100
AcDbLayout
  1
Layout1
 70
     1
 71
     1
 10
0.0
 20
0.0
 11
12.0
 21
9.0
 12
0.0
 22
0.0
 32
0.0
 14
1.000000000000000E+20
 24
1.000000000000000E+20
 34
1.000000000000000E+20
 15
-1.000000000000000E+20
 25
-1.000000000000000E+20
 35
-1.000000000000000E+20
146
0.0
 13
0.0
 23
0.0
 33
0.0
 16
1.0
 26
0.0
 36
0.0
 17
0.0
 27
1.0
 37
0.0
 76
     0
330
1B
  0
LAYOUT
  5
26
102
{ACAD_REACTORS
330
1A
102
}
330
1A
100
AcDbPlotSettings
  1

  2
none_device
  4

  6

 40
0.0
 41
0.0
 42
0.0
 43
0.0
 44
0.0
 45
0.0
 46
0.0
 47
0.0
 48
0.0
 49
0.0
140
0.0
141
0.0
142
1.0
143
1.0
 70
   688
 72
     0
 73
     0
 74
     5
  7

 75
    16
 76
     0
 77
     2
 78
   300
147
1.0
148
0.0
149
0.0
100
AcDbLayout
  1
Layout2
 70
     1
 71
     2
 10
0.0
 20
0.0
 11
0.0
 21
0.0
 12
0.0
 22
0.0
 32
0.0
 14
0.0
 24
0.0
 34
0.0
 15
0.0
 25
0.0
 35
0.0
146
0.0
 13
0.0
 23
0.0
 33
0.0
 16
1.0
 26
0.0
 36
0.0
 17
0.0
 27
1.0
 37
0.0
 76
     0
330
23
  0
LAYOUT
  5
22
102
{ACAD_REACTORS
330
1A
102
}
330
1A
100
AcDbPlotSettings
  1

  2
none_device
  4

  6

 40
0.0
 41
0.0
 42
0.0
 43
0.0
 44
0.0
 45
0.0
 46
0.0
 47
0.0
 48
0.0
 49
0.0
140
0.0
141
0.0
142
1.0
143
1.0
 70
  1712
 72
     0
 73
     0
 74
     0
  7

 75
     0
 76
     0
 77
     2
 78
   300
147
1.0
148
0.0
149
0.0
100
AcDbLayout
  1
Model
 70
     1
 71
     0
 10
0.0
 20
0.0
 11
12.0
 21
9.0
 12
0.0
 22
0.0
 32
0.0
 14
1.000000000000000E+20
 24
1.000000000000000E+20
 34
1.000000000000000E+20
 15
-1.000000000000000E+20
 25
-1.000000000000000E+20
 35
-1.000000000000000E+20
146
0.0
 13
0.0
 23
0.0
 33
0.0
 16
1.0
 26
0.0
 36
0.0
 17
0.0
 27
1.0
 37
0.0
 76
     0
330
1F
331
29
  0
MATERIAL
  5
3D
102
{ACAD_REACTORS
330
3B
102
}
330
3B
100
AcDbMaterial
  1
ByBlock
 72
     1
 94
      127
  0
MATERIAL
  5
3C
102
{ACAD_REACTORS
330
3B
102
}
330
3B
100
AcDbMaterial
  1
ByLayer
 72
     1
 94
      127
  0
MATERIAL
  5
3E
102
{ACAD_REACTORS
330
3B
102
}
330
3B
100
AcDbMaterial
  1
Global
 72
     1
 94
      127
  0
MLINESTYLE
  5
18
102
{ACAD_REACTORS
330
17
102
}
330
17
100
AcDbMlineStyle
  2
Standard
 70
     0
  3

 62
   256
 51
90.0
 52
90.0
 71
     2
 49
0.5
 62
   256
  6
BYLAYER
 49
-0.5
 62
   256
  6
BYLAYER
  0
ACDBPLACEHOLDER
  5
F
102
{ACAD_REACTORS
330
E
102
}
330
E
  0
VISUALSTYLE
  5
2F
102
{ACAD_REACTORS
330
2A
102
}
330
2A
100
AcDbVisualStyle
  2
2dWireframe
 70
     4
177
     2
291
     0
 71
     0
176
     1
 72
     2
176
     1
 73
     0
176
     1
 90
        0
176
     1
 40
-0.6
176
     1
 41
-30.0
176
     1
 62
     5
 63
     7
421
 16777215
176
     1
 74
     1
176
     1
 91
        4
176
     1
 64
     7
176
     1
 65
   257
176
     1
 75
     1
176
     1
175
     1
176
     1
 42
1.0
176
     1
 92
        0
176
     1
 66
   257
176
     1
 43
1.0
176
     1
 76
     1
176
     1
 77
     6
176
     1
 78
     2
176
     1
 67
     7
176
     1
 79
     5
176
     1
170
     0
176
     1
171
     0
176
     1
290
     0
176
     1
 93
        1
176
     1
 44
0.0
176
     1
173
     0
176
     1
  0
VISUALSTYLE
  5
31
102
{ACAD_REACTORS
330
2A
102
}
330
2A
100
AcDbVisualStyle
  2
3D Hidden
 70
     6
177
     2
291
     0
 71
     1
176
     1
 72
     2
176
     1
 73
     2
176
     1
 90
        0
176
     1
 40
-0.6
176
     1
 41
-30.0
176
     1
 62
     5
 63
     7
421
 16777215
176
     1
 74
     2
176
     1
 91
        2
176
     1
 64
     7
176
     1
 65
   257
176
     1
 75
     2
176
     1
175
     1
176
     1
 42
40.0
176
     1
 92
        0
176
     1
 66
   257
176
     1
 43
1.0
176
     1
 76
     1
176
     1
 77
     6
176
     1
 78
     2
176
     1
 67
     7
176
     1
 79
     3
176
     1
170
     0
176
     1
171
     0
176
     1
290
     0
176
     1
 93
        1
176
     1
 44
0.0
176
     1
173
     0
176
     1
  0
VISUALSTYLE
  5
30
102
{ACAD_REACTORS
330
2A
102
}
330
2A
100
AcDbVisualStyle
  2
3dWireframe
 70
     5
177
     2
291
     0
 71
     0
176
     1
 72
     2
176
     1
 73
     0
176
     1
 90
        0
176
     1
 40
-0.6
176
     1
 41
-30.0
176
     1
 62
     5
 63
     7
421
 16777215
176
     1
 74
     1
176
     1
 91
        4
176
     1
 64
     7
176
     1
 65
   257
176
     1
 75
     1
176
     1
175
     1
176
     1
 42
1.0
176
     1
 92
        0
176
     1
 66
   257
176
     1
 43
1.0
176
     1
 76
     1
176
     1
 77
     6
176
     1
 78
     2
176
     1
 67
     7
176
     1
 79
     5
176
     1
170
     0
176
     1
171
     0
176
     1
290
     0
176
     1
 93
        1
176
     1
 44
0.0
176
     1
173
     0
176
     1
  0
VISUALSTYLE
  5
32
102
{ACAD_REACTORS
330
2A
102
}
330
2A
100
AcDbVisualStyle
  2
Basic
 70
     7
177
     2
291
     1
 71
     1
176
     1
 72
     0
176
     1
 73
     1
176
     1
 90
        0
176
     1
 40
-0.6
176
     1
 41
-30.0
176
     1
 62
     5
 63
     7
421
 16777215
176
     1
 74
     0
176
     1
 91
        4
176
     1
 64
     7
176
     1
 65
   257
176
     1
 75
     1
176
     1
175
     1
176
     1
 42
1.0
176
     1
 92
        8
176
     1
 66
     7
176
     1
 43
1.0
176
     1
 76
     1
176
     1
 77
     6
176
     1
 78
     2
176
     1
 67
     7
176
     1
 79
     5
176
     1
170
     0
176
     1
171
     0
176
     1
290
     0
176
     1
 93
        1
176
     1
 44
0.0
176
     1
173
     0
176
     1
  0
VISUALSTYLE
  5
36
102
{ACAD_REACTORS
330
2A
102
}
330
2A
100
AcDbVisualStyle
  2
Brighten
 70
    12
177
     2
291
     1
 71
     2
176
     1
 72
     2
176
     1
 73
     0
176
     1
 90
        0
176
     1
 40
-0.6
176
     1
 41
-30.0
176
     1
 62
     5
 63
     7
421
 16777215
176
     1
 74
     1
176
     1
 91
        4
176
     1
 64
     7
176
     1
 65
   257
176
     1
 75
     1
176
     1
175
     1
176
     1
 42
1.0
176
     1
 92
        8
176
     1
 66
     7
176
     1
 43
1.0
176
     1
 76
     1
176
     1
 77
     6
176
     1
 78
     2
176
     1
 67
     7
176
     1
 79
     5
176
     1
170
     0
176
     1
171
     0
176
     1
290
     0
176
     1
 93
        1
176
     1
 44
50.0
176
     1
173
     0
176
     1
  0
VISUALSTYLE
  5
3A
102
{ACAD_REACTORS
330
2A
102
}
330
2A
100
AcDbVisualStyle
  2
ColorChange
 70
    16
177
     2
291
     1
 71
     2
176
     1
 72
     2
176
     1
 73
     3
176
     1
 90
        0
176
     1
 40
-0.6
176
     1
 41
-30.0
176
     1
 62
     5
 63
     8
421
  8421504
176
     1
 74
     1
176
     1
 91
        4
176
     1
 64
     7
176
     1
 65
   257
176
     1
 75
     1
176
     1
175
     1
176
     1
 42
1.0
176
     1
 92
        8
176
     1
 66
     8
424
  8421504
176
     1
 43
1.0
176
     1
 76
     1
176
     1
 77
     6
176
     1
 78
     2
176
     1
 67
     7
176
     1
 79
     5
176
     1
170
     0
176
     1
171
     0
176
     1
290
     0
176
     1
 93
        1
176
     1
 44
0.0
176
     1
173
     0
176
     1
  0
VISUALSTYLE
  5
34
102
{ACAD_REACTORS
330
2A
102
}
330
2A
100
AcDbVisualStyle
  2
Conceptual
 70
     9
177
     2
291
     0
 71
     3
176
     1
 72
     2
176
     1
 73
     0
176
     1
 90
        0
176
     1
 40
-0.6
176
     1
 41
-30.0
176
     1
 62
     5
 63
     7
421
 16777215
176
     1
 74
     2
176
     1
 91
        2
176
     1
 64
     7
176
     1
 65
   257
176
     1
 75
     1
176
     1
175
     1
176
     1
 42
40.0
176
     1
 92
        8
176
     1
 66
     7
176
     1
 43
1.0
176
     1
 76
     1
176
     1
 77
     6
176
     1
 78
     2
176
     1
 67
     7
176
     1
 79
     3
176
     1
170
     0
176
     1
171
     0
176
     1
290
     0
176
     1
 93
        1
176
     1
 44
0.0
176
     1
173
     0
176
     1
  0
VISUALSTYLE
  5
35
102
{ACAD_REACTORS
330
2A
102
}
330
2A
100
AcDbVisualStyle
  2
Dim
 70
    11
177
     2
291
     1
 71
     2
176
     1
 72
     2
176
     1
 73
     0
176
     1
 90
        0
176
     1
 40
-0.6
176
     1
 41
-30.0
176
     1
 62
     5
 63
     7
421
 16777215
176
     1
 74
     1
176
     1
 91
        4
176
     1
 64
     7
176
     1
 65
   257
176
     1
 75
     1
176
     1
175
     1
176
     1
 42
1.0
176
     1
 92
        8
176
     1
 66
     7
176
     1
 43
1.0
176
     1
 76
     1
176
     1
 77
     6
176
     1
 78
     2
176
     1
 67
     7
176
     1
 79
     5
176
     1
170
     0
176
     1
171
     0
176
     1
290
     0
176
     1
 93
        1
176
     1
 44
-50.0
176
     1
173
     0
176
     1
  0
VISUALSTYLE
  5
39
102
{ACAD_REACTORS
330
2A
102
}
330
2A
100
AcDbVisualStyle
  2
Facepattern
 70
    15
177
     2
291
     1
 71
     2
176
     1
 72
     2
176
     1
 73
     0
176
     1
 90
        0
176
     1
 40
-0.6
176
     1
 41
-30.0
176
     1
 62
     5
 63
     7
421
 16777215
176
     1
 74
     1
176
     1
 91
        4
176
     1
 64
     7
176
     1
 65
   257
176
     1
 75
     1
176
     1
175
     1
176
     1
 42
1.0
176
     1
 92
        8
176
     1
 66
     7
176
     1
 43
1.0
176
     1
 76
     1
176
     1
 77
     6
176
     1
 78
     2
176
     1
 67
     7
176
     1
 79
     5
176
     1
170
     0
176
     1
171
     0
176
     1
290
     0
176
     1
 93
        1
176
     1
 44
0.0
176
     1
173
     0
176
     1
  0
VISUALSTYLE
  5
2B
102
{ACAD_REACTORS
330
2A
102
}
330
2A
100
AcDbVisualStyle
  2
Flat
 70
     0
177
     2
291
     1
 71
     2
176
     1
 72
     1
176
     1
 73
     1
176
     1
 90
        2
176
     1
 40
-0.6
176
     1
 41
30.0
176
     1
 62
     5
 63
     7
421
 16777215
176
     1
 74
     0
176
     1
 91
        4
176
     1
 64
     7
176
     1
 65
   257
176
     1
 75
     1
176
     1
175
     1
176
     1
 42
1.0
176
     1
 92
        8
176
     1
 66
     7
176
     1
 43
1.0
176
     1
 76
     1
176
     1
 77
     6
176
     1
 78
     2
176
     1
 67
     7
176
     1
 79
     5
176
     1
170
     0
176
     1
171
     0
176
     1
290
     0
176
     1
 93
       13
176
     1
 44
0.0
176
     1
173
     0
176
     1
  0
VISUALSTYLE
  5
2C
102
{ACAD_REACTORS
330
2A
102
}
330
2A
100
AcDbVisualStyle
  2
FlatWithEdges
 70
     1
177
     2
291
     1
 71
     2
176
     1
 72
     1
176
     1
 73
     1
176
     1
 90
        2
176
     1
 40
-0.6
176
     1
 41
30.0
176
     1
 62
     5
 63
     7
421
 16777215
176
     1
 74
     1
176
     1
 91
        4
176
     1
 64
     7
176
     1
 65
   257
176
     1
 75
     1
176
     1
175
     1
176
     1
 42
1.0
176
     1
 92
        0
176
     1
 66
   257
176
     1
 43
1.0
176
     1
 76
     1
176
     1
 77
     6
176
     1
 78
     2
176
     1
 67
     7
176
     1
 79
     5
176
     1
170
     0
176
     1
171
     0
176
     1
290
     0
176
     1
 93
       13
176
     1
 44
0.0
176
     1
173
     0
176
     1
  0
VISUALSTYLE
  5
2D
102
{ACAD_REACTORS
330
2A
102
}
330
2A
100
AcDbVisualStyle
  2
Gouraud
 70
     2
177
     2
291
     1
 71
     2
176
     1
 72
     2
176
     1
 73
     1
176
     1
 90
        2
176
     1
 40
-0.6
176
     1
 41
30.0
176
     1
 62
     5
 63
     7
421
 16777215
176
     1
 74
     0
176
     1
 91
        4
176
     1
 64
     7
176
     1
 65
   257
176
     1
 75
     1
176
     1
175
     1
176
     1
 42
1.0
176
     1
 92
        0
176
     1
 66
     7
176
     1
 43
1.0
176
     1
 76
     1
176
     1
 77
     6
176
     1
 78
     2
176
     1
 67
     7
176
     1
 79
     5
176
     1
170
     0
176
     1
171
     0
176
     1
290
     0
176
     1
 93
       13
176
     1
 44
0.0
176
     1
173
     0
176
     1
  0
VISUALSTYLE
  5
2E
102
{ACAD_REACTORS
330
2A
102
}
330
2A
100
AcDbVisualStyle
  2
GouraudWithEdges
 70
     3
177
     2
291
     1
 71
     2
176
     1
 72
     2
176
     1
 73
     1
176
     1
 90
        2
176
     1
 40
-0.6
176
     1
 41
30.0
176
     1
 62
     5
 63
     7
421
 16777215
176
     1
 74
     1
176
     1
 91
        4
176
     1
 64
     7
176
     1
 65
   257
176
     1
 75
     1
176
     1
175
     1
176
     1
 42
1.0
176
     1
 92
        0
176
     1
 66
   257
176
     1
 43
1.0
176
     1
 76
     1
176
     1
 77
     6
176
     1
 78
     2
176
     1
 67
     7
176
     1
 79
     5
176
     1
170
     0
176
     1
171
     0
176
     1
290
     0
176
     1
 93
       13
176
     1
 44
0.0
176
     1
173
     0
176
     1
  0
VISUALSTYLE
  5
38
102
{ACAD_REACTORS
330
2A
102
}
330
2A
100
AcDbVisualStyle
  2
Linepattern
 70
    14
177
     2
291
     1
 71
     2
176
     1
 72
     2
176
     1
 73
     0
176
     1
 90
        0
176
     1
 40
-0.6
176
     1
 41
-30.0
176
     1
 62
     5
 63
     7
421
 16777215
176
     1
 74
     1
176
     1
 91
        4
176
     1
 64
     7
176
     1
 65
   257
176
     1
 75
     7
176
     1
175
     7
176
     1
 42
1.0
176
     1
 92
        8
176
     1
 66
     7
176
     1
 43
1.0
176
     1
 76
     1
176
     1
 77
     6
176
     1
 78
     2
176
     1
 67
     7
176
     1
 79
     5
176
     1
170
     0
176
     1
171
     0
176
     1
290
     0
176
     1
 93
        1
176
     1
 44
0.0
176
     1
173
     0
176
     1
  0
VISUALSTYLE
  5
33
102
{ACAD_REACTORS
330
2A
102
}
330
2A
100
AcDbVisualStyle
  2
Realistic
 70
     8
177
     2
291
     0
 71
     2
176
     1
 72
     2
176
     1
 73
     0
176
     1
 90
        0
176
     1
 40
-0.6
176
     1
 41
-30.0
176
     1
 62
     5
 63
     7
421
 16777215
176
     1
 74
     1
176
     1
 91
        0
176
     1
 64
     7
176
     1
 65
   257
176
     1
 75
     1
176
     1
175
     1
176
     1
 42
1.0
176
     1
 92
        8
176
     1
 66
     8
424
  7895160
176
     1
 43
1.0
176
     1
 76
     1
176
     1
 77
     6
176
     1
 78
     2
176
     1
 67
     7
176
     1
 79
     5
176
     1
170
     0
176
     1
171
     0
176
     1
290
     0
176
     1
 93
       13
176
     1
 44
0.0
176
     1
173
     0
176
     1
  0
VISUALSTYLE
  5
37
102
{ACAD_REACTORS
330
2A
102
}
330
2A
100
AcDbVisualStyle
  2
Thicken
 70
    13
177
     2
291
     1
 71
     2
176
     1
 72
     2
176
     1
 73
     0
176
     1
 90
        0
176
     1
 40
-0.6
176
     1
 41
-30.0
176
     1
 62
     5
 63
     7
421
 16777215
176
     1
 74
     1
176
     1
 91
        4
176
     1
 64
     7
176
     1
 65
   257
176
     1
 75
     1
176
     1
175
     1
176
     1
 42
1.0
176
     1
 92
       12
176
     1
 66
     7
176
     1
 43
1.0
176
     1
 76
     1
176
     1
 77
     6
176
     1
 78
     2
176
     1
 67
     7
176
     1
 79
     5
176
     1
170
     0
176
     1
171
     0
176
     1
290
     0
176
     1
 93
        1
176
     1
 44
0.0
176
     1
173
     0
176
     1
  0
ENDSEC
  0
EOF
