  0
SECTION
  2
HEADER
  9
$ACADVER
  1
AC1024
  9
$ACADMAINTVER
 70
     6
  9
$DWGCODEPAGE
  3
ANSI_1252
  9
$INSBASE
 10
0.0
 20
0.0
 30
0.0
  9
$EXTMIN
 10
1.000000000000000E+20
 20
1.000000000000000E+20
 30
1.000000000000000E+20
  9
$EXTMAX
 10
-1.000000000000000E+20
 20
-1.000000000000000E+20
 30
-1.000000000000000E+20
  9
$LIMMIN
 10
0.0
 20
0.0
  9
$LIMMAX
 10
12.0
 20
9.0
  9
$ORTHOMODE
 70
     0
  9
$REGENMODE
 70
     1
  9
$FILLMODE
 70
     1
  9
$QTEXTMODE
 70
     0
  9
$MIRRTEXT
 70
     1
  9
$LTSCALE
 40
1.0
  9
$ATTMODE
 70
     1
  9
$TEXTSIZE
 40
0.2
  9
$TRACEWID
 40
0.05
  9
$TEXTSTYLE
  7
Standard
  9
$CLAYER
  8
0
  9
$CELTYPE
  6
ByLayer
  9
$CECOLOR
 62
   256
  9
$CELTSCALE
 40
1.0
  9
$DISPSILH
 70
     0
  9
$DIMSCALE
 40
1.0
  9
$DIMASZ
 40
0.18
  9
$DIMEXO
 40
0.0625
  9
$DIMDLI
 40
0.38
  9
$DIMRND
 40
0.0
  9
$DIMDLE
 40
0.0
  9
$DIMEXE
 40
0.18
  9
$DIMTP
 40
0.0
  9
$DIMTM
 40
0.0
  9
$DIMTXT
 40
0.18
  9
$DIMCEN
 40
0.09
  9
$DIMTSZ
 40
0.0
  9
$DIMTOL
 70
     0
  9
$DIMLIM
 70
     0
  9
$DIMTIH
 70
     1
  9
$DIMTOH
 70
     1
  9
$DIMSE1
 70
     0
  9
$DIMSE2
 70
     0
  9
$DIMTAD
 70
     0
  9
$DIMZIN
 70
     0
  9
$DIMBLK
  1

  9
$DIMASO
 70
     1
  9
$DIMSHO
 70
     1
  9
$DIMPOST
  1

  9
$DIMAPOST
  1

  9
$DIMALT
 70
     0
  9
$DIMALTD
 70
     2
  9
$DIMALTF
 40
25.4
  9
$DIMLFAC
 40
1.0
  9
$DIMTOFL
 70
     0
  9
$DIMTVP
 40
0.0
  9
$DIMTIX
 70
     0
  9
$DIMSOXD
 70
     0
  9
$DIMSAH
 70
     0
  9
$DIMBLK1
  1

  9
$DIMBLK2
  1

  9
$DIMSTYLE
  2
Standard
  9
$DIMCLRD
 70
     0
  9
$DIMCLRE
 70
     0
  9
$DIMCLRT
 70
     0
  9
$DIMTFAC
 40
1.0
  9
$DIMGAP
 40
0.09
  9
$DIMJUST
 70
     0
  9
$DIMSD1
 70
     0
  9
$DIMSD2
 70
     0
  9
$DIMTOLJ
 70
     1
  9
$DIMTZIN
 70
     0
  9
$DIMALTZ
 70
     0
  9
$DIMALTTZ
 70
     0
  9
$DIMUPT
 70
     0
  9
$DIMDEC
 70
     4
  9
$DIMTDEC
 70
     4
  9
$DIMALTU
 70
     2
  9
$DIMALTTD
 70
     2
  9
$DIMTXSTY
  7
Standard
  9
$DIMAUNIT
 70
     0
  9
$DIMADEC
 70
     0
  9
$DIMALTRND
 40
0.0
  9
$DIMAZIN
 70
     0
  9
$DIMDSEP
 70
    46
  9
$DIMATFIT
 70
     3
  9
$DIMFRAC
 70
     0
  9
$DIMLDRBLK
  1

  9
$DIMLUNIT
 70
     2
  9
$DIMLWD
 70
    -2
  9
$DIMLWE
 70
    -2
  9
$DIMTMOVE
 70
     0
  9
$DIMFXL
 40
1.0
  9
$DIMFXLON
 70
     0
  9
$DIMJOGANG
 40
0.7853981633974483
  9
$DIMTFILL
 70
     0
  9
$DIMTFILLCLR
 70
     0
  9
$DIMARCSYM
 70
     0
  9
$DIMLTYPE
  6

  9
$DIMLTEX1
  6

  9
$DIMLTEX2
  6

  9
$DIMTXTDIRECTION
 70
     0
  9
$LUNITS
 70
     2
  9
$LUPREC
 70
     4
  9
$SKETCHINC
 40
0.1
  9
$FILLETRAD
 40
0.5
  9
$AUNITS
 70
     0
  9
$AUPREC
 70
     0
  9
$MENU
  1
.
  9
$ELEVATION
 40
0.0
  9
$PELEVATION
 40
0.0
  9
$THICKNESS
 40
0.0
  9
$LIMCHECK
 70
     0
  9
$CHAMFERA
 40
0.5
  9
$CHAMFERB
 40
0.5
  9
$CHAMFERC
 40
1.0
  9
$CHAMFERD
 40
0.0
  9
$SKPOLY
 70
     0
  9
$TDCREATE
 40
2458854.985171921
  9
$TDUCREATE
 40
2458854.443505255
  9
$TDUPDATE
 40
2458854.985172199
  9
$TDUUPDATE
 40
2458854.443505533
  9
$TDINDWG
 40
0.0000000116
  9
$TDUSRTIMER
 40
0.0000000116
  9
$USRTIMER
 70
     1
  9
$ANGBASE
 50
0.0
  9
$ANGDIR
 70
     0
  9
$PDMODE
 70
     0
  9
$PDSIZE
 40
0.0
  9
$PLINEWID
 40
0.0
  9
$SPLFRAME
 70
     0
  9
$SPLINETYPE
 70
     6
  9
$SPLINESEGS
 70
     8
  9
$HANDSEED
  5
296
  9
$SURFTAB1
 70
     6
  9
$SURFTAB2
 70
     6
  9
$SURFTYPE
 70
     6
  9
$SURFU
 70
     6
  9
$SURFV
 70
     6
  9
$UCSBASE
  2

  9
$UCSNAME
  2

  9
$UCSORG
 10
0.0
 20
0.0
 30
0.0
  9
$UCSXDIR
 10
1.0
 20
0.0
 30
0.0
  9
$UCSYDIR
 10
0.0
 20
1.0
 30
0.0
  9
$UCSORTHOREF
  2

  9
$UCSORTHOVIEW
 70
     0
  9
$UCSORGTOP
 10
0.0
 20
0.0
 30
0.0
  9
$UCSORGBOTTOM
 10
0.0
 20
0.0
 30
0.0
  9
$UCSORGLEFT
 10
0.0
 20
0.0
 30
0.0
  9
$UCSORGRIGHT
 10
0.0
 20
0.0
 30
0.0
  9
$UCSORGFRONT
 10
0.0
 20
0.0
 30
0.0
  9
$UCSORGBACK
 10
0.0
 20
0.0
 30
0.0
  9
$PUCSBASE
  2

  9
$PUCSNAME
  2

  9
$PUCSORG
 10
0.0
 20
0.0
 30
0.0
  9
$PUCSXDIR
 10
1.0
 20
0.0
 30
0.0
  9
$PUCSYDIR
 10
0.0
 20
1.0
 30
0.0
  9
$PUCSORTHOREF
  2

  9
$PUCSORTHOVIEW
 70
     0
  9
$PUCSORGTOP
 10
0.0
 20
0.0
 30
0.0
  9
$PUCSORGBOTTOM
 10
0.0
 20
0.0
 30
0.0
  9
$PUCSORGLEFT
 10
0.0
 20
0.0
 30
0.0
  9
$PUCSORGRIGHT
 10
0.0
 20
0.0
 30
0.0
  9
$PUCSORGFRONT
 10
0.0
 20
0.0
 30
0.0
  9
$PUCSORGBACK
 10
0.0
 20
0.0
 30
0.0
  9
$USERI1
 70
     0
  9
$USERI2
 70
     0
  9
$USERI3
 70
     0
  9
$USERI4
 70
     0
  9
$USERI5
 70
     0
  9
$USERR1
 40
0.0
  9
$USERR2
 40
0.0
  9
$USERR3
 40
0.0
  9
$USERR4
 40
0.0
  9
$USERR5
 40
0.0
  9
$WORLDVIEW
 70
     1
  9
$SHADEDGE
 70
     3
  9
$SHADEDIF
 70
    70
  9
$TILEMODE
 70
     1
  9
$MAXACTVP
 70
    64
  9
$PINSBASE
 10
0.0
 20
0.0
 30
0.0
  9
$PLIMCHECK
 70
     0
  9
$PEXTMIN
 10
1.000000000000000E+20
 20
1.000000000000000E+20
 30
1.000000000000000E+20
  9
$PEXTMAX
 10
-1.000000000000000E+20
 20
-1.000000000000000E+20
 30
-1.000000000000000E+20
  9
$PLIMMIN
 10
0.0
 20
0.0
  9
$PLIMMAX
 10
12.0
 20
9.0
  9
$UNITMODE
 70
     0
  9
$VISRETAIN
 70
     1
  9
$PLINEGEN
 70
     0
  9
$PSLTSCALE
 70
     1
  9
$TREEDEPTH
 70
  3020
  9
$CMLSTYLE
  2
Standard
  9
$CMLJUST
 70
     0
  9
$CMLSCALE
 40
1.0
  9
$PROXYGRAPHICS
 70
     1
  9
$MEASUREMENT
 70
     0
  9
$CELWEIGHT
370
    -1
  9
$ENDCAPS
280
     0
  9
$JOINSTYLE
280
     0
  9
$LWDISPLAY
290
     1
  9
$INSUNITS
 70
     1
  9
$HYPERLINKBASE
  1

  9
$STYLESHEET
  1

  9
$XEDIT
290
     1
  9
$CEPSNTYPE
380
     0
  9
$PSTYLEMODE
290
     1
  9
$FINGERPRINTGUID
  2
{F5FAF47E-CEB8-46DB-A027-18F0F4CAB357}
  9
$VERSIONGUID
  2
{FAEB1C32-E019-11D5-929B-00C0DF256EC4}
  9
$EXTNAMES
290
     1
  9
$PSVPSCALE
 40
0.0
  9
$OLESTARTUP
290
     0
  9
$SORTENTS
280
   127
  9
$INDEXCTL
280
     0
  9
$HIDETEXT
280
     1
  9
$XCLIPFRAME
280
     2
  9
$HALOGAP
280
     0
  9
$OBSCOLOR
 70
   257
  9
$OBSLTYPE
280
     0
  9
$INTERSECTIONDISPLAY
280
     0
  9
$INTERSECTIONCOLOR
 70
   257
  9
$DIMASSOC
280
     2
  9
$PROJECTNAME
  1

  9
$CAMERADISPLAY
290
     0
  9
$LENSLENGTH
 40
50.0
  9
$CAMERAHEIGHT
 40
0.0
  9
$STEPSPERSEC
 40
2.0
  9
$STEPSIZE
 40
6.0
  9
$3DDWFPREC
 40
2.0
  9
$PSOLWIDTH
 40
0.25
  9
$PSOLHEIGHT
 40
4.0
  9
$LOFTANG1
 40
1.570796326794897
  9
$LOFTANG2
 40
1.570796326794897
  9
$LOFTMAG1
 40
0.0
  9
$LOFTMAG2
 40
0.0
  9
$LOFTPARAM
 70
     7
  9
$LOFTNORMALS
280
     1
  9
$LATITUDE
 40
37.795
  9
$LONGITUDE
 40
-122.394
  9
$NORTHDIRECTION
 40
0.0
  9
$TIMEZONE
 70
 -8000
  9
$LIGHTGLYPHDISPLAY
280
     1
  9
$TILEMODELIGHTSYNCH
280
     1
  9
$CMATERIAL
347
3C
  9
$SOLIDHIST
280
     1
  9
$SHOWHIST
280
     1
  9
$DWFFRAME
280
     2
  9
$DGNFRAME
280
     2
  9
$REALWORLDSCALE
290
     1
  9
$INTERFERECOLOR
 62
   256
  9
$CSHADOW
280
     0
  9
$SHADOWPLANELOCATION
 40
0.0
  0
ENDSEC
  0
SECTION
  2
CLASSES
  0
CLASS
  1
ACDBDICTIONARYWDFLT
  2
AcDbDictionaryWithDefault
  3
ObjectDBX Classes
 90
        0
 91
        4
280
     0
281
     0
  0
CLASS
  1
VISUALSTYLE
  2
AcDbVisualStyle
  3
ObjectDBX Classes
 90
     4095
 91
        4
280
     0
281
     0
  0
CLASS
  1
MATERIAL
  2
AcDbMaterial
  3
ObjectDBX Classes
 90
     1153
 91
        4
280
     0
281
     0
  0
CLASS
  1
SUN
  2
AcDbSun
  3
SCENEOE
 90
     1024
 91
        4
280
     0
281
     0
  0
ENDSEC
  0
SECTION
  2
TABLES
  0
TABLE
  2
VPORT
  5
8
330
0
100
AcDbSymbolTable
 70
     1
  0
VPORT
  5
29
330
8
100
AcDbSymbolTableRecord
100
AcDbViewportTableRecord
  2
*Active
 70
     0
 10
0.0
 20
0.0
 11
1.0
 21
1.0
 12
0.0
 22
0.0
 13
0.0
 23
0.0
 14
0.5
 24
0.5
 15
0.5
 25
0.5
 16
0.0
 26
0.0
 36
1.0
 17
3.057861111111101
 27
-2.881944444444444
 37
0.0
 40
11.69291338582677
 41
0.7070707070707065
 42
50.0
 43
0.0
 44
0.0
 50
0.0
 51
0.0
 71
     0
 72
   100
 73
     1
 74
     3
 75
     0
 76
     0
 77
     0
 78
     0
281
     0
 65
     1
110
0.0
120
0.0
130
0.0
111
1.0
121
0.0
131
0.0
112
0.0
122
1.0
132
0.0
 79
     0
146
0.0
 60
     3
 61
     5
292
     1
282
     1
141
0.0
142
0.0
 63
   250
361
3F
  0
ENDTAB
  0
TABLE
  2
LTYPE
  5
5
330
0
100
AcDbSymbolTable
 70
     1
  0
LTYPE
  5
14
330
5
100
AcDbSymbolTableRecord
100
AcDbLinetypeTableRecord
  2
ByBlock
 70
     0
  3

 72
    65
 73
     0
 40
0.0
  0
LTYPE
  5
15
330
5
100
AcDbSymbolTableRecord
100
AcDbLinetypeTableRecord
  2
ByLayer
 70
     0
  3

 72
    65
 73
     0
 40
0.0
  0
LTYPE
  5
16
330
5
100
AcDbSymbolTableRecord
100
AcDbLinetypeTableRecord
  2
Continuous
 70
     0
  3
Solid line
 72
    65
 73
     0
 40
0.0
  0
ENDTAB
  0
TABLE
  2
LAYER
  5
2
330
0
100
AcDbSymbolTable
 70
     5
  0
LAYER
  5
10
330
2
100
AcDbSymbolTableRecord
100
AcDbLayerTableRecord
  2
0
 70
     0
 62
     7
  6
Continuous
370
    -3
390
F
347
3E
  0
LAYER
  5
40
330
2
100
AcDbSymbolTableRecord
100
AcDbLayerTableRecord
  2
Wood
 70
     0
 62
     7
  6
Continuous
370
    -3
390
F
347
3E
  0
LAYER
  5
116
330
2
100
AcDbSymbolTableRecord
100
AcDbLayerTableRecord
  2
callout
 70
     0
 62
     7
  6
Continuous
370
    -3
390
F
347
3E
  0
LAYER
  5
12B
330
2
100
AcDbSymbolTableRecord
100
AcDbLayerTableRecord
  2
IUC
 70
     0
 62
     7
  6
Continuous
370
    -3
390
F
347
3E
  0
LAYER
  5
21C
330
2
100
AcDbSymbolTableRecord
100
AcDbLayerTableRecord
  2
Nails
 70
     0
 62
     7
  6
Continuous
370
    -3
390
F
347
3E
  0
ENDTAB
  0
TABLE
  2
STYLE
  5
3
330
0
100
AcDbSymbolTable
 70
     1
  0
STYLE
  5
11
330
3
100
AcDbSymbolTableRecord
100
AcDbTextStyleTableRecord
  2
Standard
 70
     0
 40
0.0
 41
1.0
 50
0.0
 71
     0
 42
0.2
  3
txt
  4

  0
ENDTAB
  0
TABLE
  2
VIEW
  5
6
330
0
100
AcDbSymbolTable
 70
     0
  0
ENDTAB
  0
TABLE
  2
UCS
  5
7
330
0
100
AcDbSymbolTable
 70
     0
  0
ENDTAB
  0
TABLE
  2
APPID
  5
9
330
0
100
AcDbSymbolTable
 70
     1
  0
APPID
  5
12
330
9
100
AcDbSymbolTableRecord
100
AcDbRegAppTableRecord
  2
ACAD
 70
     0
  0
ENDTAB
  0
TABLE
  2
DIMSTYLE
  5
A
330
0
100
AcDbSymbolTable
 70
     1
100
AcDbDimStyleTable
  0
DIMSTYLE
105
27
330
A
100
AcDbSymbolTableRecord
100
AcDbDimStyleTableRecord
  2
Standard
 70
     0
178
     0
340
11
  0
ENDTAB
  0
TABLE
  2
BLOCK_RECORD
  5
1
330
0
100
AcDbSymbolTable
 70
    18
  0
BLOCK_RECORD
  5
1F
330
1
100
AcDbSymbolTableRecord
100
AcDbBlockTableRecord
  2
*Model_Space
340
22
 70
     0
280
     1
281
     0
  0
BLOCK_RECORD
  5
1B
330
1
100
AcDbSymbolTableRecord
100
AcDbBlockTableRecord
  2
*Paper_Space
340
1E
 70
     0
280
     1
281
     0
  0
BLOCK_RECORD
  5
23
330
1
100
AcDbSymbolTableRecord
100
AcDbBlockTableRecord
  2
*Paper_Space0
340
26
 70
     0
280
     1
281
     0
  0
BLOCK_RECORD
  5
41
330
1
100
AcDbSymbolTableRecord
100
AcDbBlockTableRecord
  2
block 2
340
0
102
{BLKREFS
331
42
102
}
 70
     0
280
     1
281
     0
  0
BLOCK_RECORD
  5
11B
330
1
100
AcDbSymbolTableRecord
100
AcDbBlockTableRecord
  2
block 3
340
0
102
{BLKREFS
331
11C
102
}
 70
     0
280
     1
281
     0
  0
BLOCK_RECORD
  5
14F
330
1
100
AcDbSymbolTableRecord
100
AcDbBlockTableRecord
  2
block 4
340
0
102
{BLKREFS
331
150
102
}
 70
     0
280
     1
281
     0
  0
BLOCK_RECORD
  5
15F
330
1
100
AcDbSymbolTableRecord
100
AcDbBlockTableRecord
  2
block 5
340
0
102
{BLKREFS
331
160
102
}
 70
     0
280
     1
281
     0
  0
BLOCK_RECORD
  5
21D
330
1
100
AcDbSymbolTableRecord
100
AcDbBlockTableRecord
  2
block 6
340
0
102
{BLKREFS
331
21E
102
}
 70
     0
280
     1
281
     0
  0
BLOCK_RECORD
  5
224
330
1
100
AcDbSymbolTableRecord
100
AcDbBlockTableRecord
  2
block 7
340
0
102
{BLKREFS
331
225
102
}
 70
     0
280
     1
281
     0
  0
BLOCK_RECORD
  5
22B
330
1
100
AcDbSymbolTableRecord
100
AcDbBlockTableRecord
  2
block 8
340
0
102
{BLKREFS
331
22C
102
}
 70
     0
280
     1
281
     0
  0
BLOCK_RECORD
  5
232
330
1
100
AcDbSymbolTableRecord
100
AcDbBlockTableRecord
  2
block 9
340
0
102
{BLKREFS
331
233
102
}
 70
     0
280
     1
281
     0
  0
BLOCK_RECORD
  5
239
330
1
100
AcDbSymbolTableRecord
100
AcDbBlockTableRecord
  2
block 10
340
0
102
{BLKREFS
331
23A
102
}
 70
     0
280
     1
281
     0
  0
BLOCK_RECORD
  5
240
330
1
100
AcDbSymbolTableRecord
100
AcDbBlockTableRecord
  2
block 11
340
0
102
{BLKREFS
331
241
102
}
 70
     0
280
     1
281
     0
  0
BLOCK_RECORD
  5
247
330
1
100
AcDbSymbolTableRecord
100
AcDbBlockTableRecord
  2
block 12
340
0
102
{BLKREFS
331
248
102
}
 70
     0
280
     1
281
     0
  0
BLOCK_RECORD
  5
24E
330
1
100
AcDbSymbolTableRecord
100
AcDbBlockTableRecord
  2
block 13
340
0
102
{BLKREFS
331
24F
102
}
 70
     0
280
     1
281
     0
  0
BLOCK_RECORD
  5
255
330
1
100
AcDbSymbolTableRecord
100
AcDbBlockTableRecord
  2
block 14
340
0
102
{BLKREFS
331
256
102
}
 70
     0
280
     1
281
     0
  0
BLOCK_RECORD
  5
25C
330
1
100
AcDbSymbolTableRecord
100
AcDbBlockTableRecord
  2
block 15
340
0
102
{BLKREFS
331
25D
102
}
 70
     0
280
     1
281
     0
  0
BLOCK_RECORD
  5
263
330
1
100
AcDbSymbolTableRecord
100
AcDbBlockTableRecord
  2
block 16
340
0
102
{BLKREFS
331
264
102
}
 70
     0
280
     1
281
     0
  0
BLOCK_RECORD
  5
26A
330
1
100
AcDbSymbolTableRecord
100
AcDbBlockTableRecord
  2
block 17
340
0
102
{BLKREFS
331
26B
102
}
 70
     0
280
     1
281
     0
  0
BLOCK_RECORD
  5
27B
330
1
100
AcDbSymbolTableRecord
100
AcDbBlockTableRecord
  2
block 18
340
0
102
{BLKREFS
331
27C
102
}
 70
     0
280
     1
281
     0
  0
ENDTAB
  0
ENDSEC
  0
SECTION
  2
BLOCKS
  0
BLOCK
  5
20
330
1F
100
AcDbEntity
  8
0
100
AcDbBlockBegin
  2
*Model_Space
 70
     0
 10
0.0
 20
0.0
 30
0.0
  3
*Model_Space
  1

  0
ENDBLK
  5
21
330
1F
100
AcDbEntity
  8
0
100
AcDbBlockEnd
  0
BLOCK
  5
1C
330
1B
100
AcDbEntity
 67
     1
  8
0
100
AcDbBlockBegin
  2
*Paper_Space
 70
     0
 10
0.0
 20
0.0
 30
0.0
  3
*Paper_Space
  1

  0
ENDBLK
  5
1D
330
1B
100
AcDbEntity
 67
     1
  8
0
100
AcDbBlockEnd
  0
BLOCK
  5
24
330
23
100
AcDbEntity
  8
0
100
AcDbBlockBegin
  2
*Paper_Space0
 70
     0
 10
0.0
 20
0.0
 30
0.0
  3
*Paper_Space0
  1

  0
ENDBLK
  5
25
330
23
100
AcDbEntity
  8
0
100
AcDbBlockEnd
  0
BLOCK
  5
43
330
41
100
AcDbEntity
  8
0
100
AcDbBlockBegin
  2
block 2
 70
     0
 10
0.0
 20
0.0
 30
0.0
  3
block 2
  1

  0
POLYLINE
  5
45
330
41
100
AcDbEntity
  8
Wood
370
     0
100
AcDb2dPolyline
 66
     1
 10
0.0
 20
0.0
 30
0.0
  0
VERTEX
  5
46
330
45
100
AcDbEntity
  8
Wood
370
     0
100
AcDbVertex
100
AcDb2dVertex
 10
5.496330564066688
 20
-1.319813202340192
 30
0.0
  0
VERTEX
  5
47
330
45
100
AcDbEntity
  8
Wood
370
     0
100
AcDbVertex
100
AcDb2dVertex
 10
2.754265355559305
 20
-0.3383687578957379
 30
0.0
  0
VERTEX
  5
48
330
45
100
AcDbEntity
  8
Wood
370
     0
100
AcDbVertex
100
AcDb2dVertex
 10
2.48441536237629
 20
-0.4378284801179638
 30
0.0
  0
VERTEX
  5
49
330
45
100
AcDbEntity
  8
Wood
370
     0
100
AcDbVertex
100
AcDb2dVertex
 10
2.48441536237629
 20
-1.436790980117962
 30
0.0
  0
VERTEX
  5
4A
330
45
100
AcDbEntity
  8
Wood
370
     0
100
AcDbVertex
100
AcDb2dVertex
 10
5.268194583333322
 20
-2.701547924562406
 30
0.0
  0
VERTEX
  5
4B
330
45
100
AcDbEntity
  8
Wood
370
     0
100
AcDbVertex
100
AcDb2dVertex
 10
5.49631667517815
 20
-2.47078125789575
 30
0.0
  0
VERTEX
  5
4C
330
45
100
AcDbEntity
  8
Wood
370
     0
100
AcDbVertex
100
AcDb2dVertex
 10
5.496330564066688
 20
-1.319813202340192
 30
0.0
  0
SEQEND
  5
4E
330
45
100
AcDbEntity
  8
Wood
370
     0
  0
HATCH
  5
4D
330
41
100
AcDbEntity
  8
Wood
 62
    43
420
 15510365
100
AcDbHatch
 10
0.0
 20
0.0
 30
0.0
210
0.0
220
0.0
230
1.0
  2
SOLID
 70
     1
 71
     0
 91
        1
 92
        1
 93
        6
 72
     1
 10
5.496330564066688
 20
-1.319813202340192
 11
2.754265355559305
 21
-0.3383687578957379
 72
     1
 10
2.754265355559305
 20
-0.3383687578957379
 11
2.48441536237629
 21
-0.4378284801179638
 72
     1
 10
2.48441536237629
 20
-0.4378284801179638
 11
2.48441536237629
 21
-1.436790980117962
 72
     1
 10
2.48441536237629
 20
-1.436790980117962
 11
5.268194583333322
 21
-2.701547924562406
 72
     1
 10
5.268194583333322
 20
-2.701547924562406
 11
5.49631667517815
 21
-2.47078125789575
 72
     1
 10
5.49631667517815
 20
-2.47078125789575
 11
5.496330564066688
 21
-1.319813202340192
 97
        0
 75
     2
 76
     1
 98
        0
  0
ENDBLK
  5
44
330
41
100
AcDbEntity
  8
0
100
AcDbBlockEnd
  0
BLOCK
  5
11D
330
11B
100
AcDbEntity
  8
0
100
AcDbBlockBegin
  2
block 3
 70
     0
 10
0.0
 20
0.0
 30
0.0
  3
block 3
  1

  0
POLYLINE
  5
11F
330
11B
100
AcDbEntity
  8
callout
 62
   250
420
  2301728
370
    25
100
AcDb2dPolyline
 66
     1
 10
0.0
 20
0.0
 30
0.0
  0
VERTEX
  5
120
330
11F
100
AcDbEntity
  8
callout
 62
   250
420
  2301728
370
    25
100
AcDbVertex
100
AcDb2dVertex
 10
1.91061582353316
 20
-2.035332474440793
 30
0.0
  0
VERTEX
  5
121
330
11F
100
AcDbEntity
  8
callout
 62
   250
420
  2301728
370
    25
100
AcDbVertex
100
AcDb2dVertex
 10
2.136302869516473
 20
-2.268714142382098
 30
0.0
  0
SEQEND
  5
122
330
11F
100
AcDbEntity
  8
callout
 62
   250
420
  2301728
370
    25
  0
POLYLINE
  5
123
330
11B
100
AcDbEntity
  8
callout
370
     0
100
AcDb2dPolyline
 66
     1
 10
0.0
 20
0.0
 30
0.0
  0
VERTEX
  5
124
330
123
100
AcDbEntity
  8
callout
370
     0
100
AcDbVertex
100
AcDb2dVertex
 10
1.97322238741981
 20
-2.035961950294765
 30
0.0
  0
VERTEX
  5
125
330
123
100
AcDbEntity
  8
callout
370
     0
100
AcDbVertex
100
AcDb2dVertex
 10
1.913760864734778
 20
-2.095616885261077
 30
0.0
  0
VERTEX
  5
126
330
123
100
AcDbEntity
  8
callout
370
     0
100
AcDbVertex
100
AcDb2dVertex
 10
1.856641218794746
 20
-1.982185444726977
 30
0.0
  0
VERTEX
  5
127
330
123
100
AcDbEntity
  8
callout
370
     0
100
AcDbVertex
100
AcDb2dVertex
 10
1.97322238741981
 20
-2.035961950294765
 30
0.0
  0
SEQEND
  5
129
330
123
100
AcDbEntity
  8
callout
370
     0
  0
HATCH
  5
128
330
11B
100
AcDbEntity
  8
callout
 62
   250
420
  2301728
100
AcDbHatch
 10
0.0
 20
0.0
 30
0.0
210
0.0
220
0.0
230
1.0
  2
SOLID
 70
     1
 71
     0
 91
        1
 92
        1
 93
        3
 72
     1
 10
1.97322238741981
 20
-2.035961950294765
 11
1.913760864734778
 21
-2.095616885261077
 72
     1
 10
1.913760864734778
 20
-2.095616885261077
 11
1.856641218794746
 21
-1.982185444726977
 72
     1
 10
1.856641218794746
 20
-1.982185444726977
 11
1.97322238741981
 21
-2.035961950294765
 97
        0
 75
     2
 76
     1
 98
        0
  0
ENDBLK
  5
11E
330
11B
100
AcDbEntity
  8
0
100
AcDbBlockEnd
  0
BLOCK
  5
151
330
14F
100
AcDbEntity
  8
0
100
AcDbBlockBegin
  2
block 4
 70
     0
 10
0.0
 20
0.0
 30
0.0
  3
block 4
  1

  0
POLYLINE
  5
153
330
14F
100
AcDbEntity
  8
IUC
 62
   250
420
  2301728
370
    13
100
AcDb2dPolyline
 66
     1
 10
0.0
 20
0.0
 30
0.0
  0
VERTEX
  5
154
330
153
100
AcDbEntity
  8
IUC
 62
   250
420
  2301728
370
    13
100
AcDbVertex
100
AcDb2dVertex
 10
4.874572246440291
 20
-2.622134035673525
 30
0.0
  0
VERTEX
  5
155
330
153
100
AcDbEntity
  8
IUC
 62
   250
420
  2301728
370
    13
100
AcDbVertex
100
AcDb2dVertex
 10
4.881488912932228
 20
-2.618181257895748
 30
0.0
  0
SEQEND
  5
156
330
153
100
AcDbEntity
  8
IUC
 62
   250
420
  2301728
370
    13
  0
POLYLINE
  5
157
330
14F
100
AcDbEntity
  8
IUC
 62
   250
420
  2301728
370
    13
100
AcDb2dPolyline
 66
     1
 10
0.0
 20
0.0
 30
0.0
  0
VERTEX
  5
158
330
157
100
AcDbEntity
  8
IUC
 62
   250
420
  2301728
370
    13
100
AcDbVertex
100
AcDb2dVertex
 10
4.74710419410485
 20
-2.694271535673515
 30
0.0
  0
VERTEX
  5
159
330
157
100
AcDbEntity
  8
IUC
 62
   250
420
  2301728
370
    13
100
AcDbVertex
100
AcDb2dVertex
 10
4.865186135566293
 20
-2.628061813451293
 30
0.0
  0
SEQEND
  5
15A
330
157
100
AcDbEntity
  8
IUC
 62
   250
420
  2301728
370
    13
  0
POLYLINE
  5
15B
330
14F
100
AcDbEntity
  8
IUC
 62
   250
420
  2301728
370
    13
100
AcDb2dPolyline
 66
     1
 10
0.0
 20
0.0
 30
0.0
  0
VERTEX
  5
15C
330
15B
100
AcDbEntity
  8
IUC
 62
   250
420
  2301728
370
    13
100
AcDbVertex
100
AcDb2dVertex
 10
4.728359750133929
 20
-2.704111813451302
 30
0.0
  0
VERTEX
  5
15D
330
15B
100
AcDbEntity
  8
IUC
 62
   250
420
  2301728
370
    13
100
AcDbVertex
100
AcDb2dVertex
 10
4.738626416541238
 20
-2.699249313451294
 30
0.0
  0
SEQEND
  5
15E
330
15B
100
AcDbEntity
  8
IUC
 62
   250
420
  2301728
370
    13
  0
ENDBLK
  5
152
330
14F
100
AcDbEntity
  8
0
100
AcDbBlockEnd
  0
BLOCK
  5
161
330
15F
100
AcDbEntity
  8
0
100
AcDbBlockBegin
  2
block 5
 70
     0
 10
0.0
 20
0.0
 30
0.0
  3
block 5
  1

  0
POLYLINE
  5
163
330
15F
100
AcDbEntity
  8
IUC
 62
   250
420
  2301728
370
    15
100
AcDb2dPolyline
 66
     1
 10
0.0
 20
0.0
 30
0.0
  0
VERTEX
  5
164
330
163
100
AcDbEntity
  8
IUC
 62
   250
420
  2301728
370
    15
100
AcDbVertex
100
AcDb2dVertex
 10
4.92789030064892
 20
-1.414418757895747
 30
0.0
  0
VERTEX
  5
165
330
163
100
AcDbEntity
  8
IUC
 62
   250
420
  2301728
370
    15
100
AcDbVertex
100
AcDb2dVertex
 10
4.92789030064892
 20
-1.401227091229063
 30
0.0
  0
SEQEND
  5
166
330
163
100
AcDbEntity
  8
IUC
 62
   250
420
  2301728
370
    15
  0
POLYLINE
  5
167
330
15F
100
AcDbEntity
  8
IUC
 62
   250
420
  2301728
370
    15
100
AcDb2dPolyline
 66
     1
 10
0.0
 20
0.0
 30
0.0
  0
VERTEX
  5
168
330
167
100
AcDbEntity
  8
IUC
 62
   250
420
  2301728
370
    15
100
AcDbVertex
100
AcDb2dVertex
 10
4.928093078421575
 20
-1.745499313451293
 30
0.0
  0
VERTEX
  5
169
330
167
100
AcDbEntity
  8
IUC
 62
   250
420
  2301728
370
    15
100
AcDbVertex
100
AcDb2dVertex
 10
4.927944583333328
 20
-1.42610348011797
 30
0.0
  0
SEQEND
  5
16A
330
167
100
AcDbEntity
  8
IUC
 62
   250
420
  2301728
370
    15
  0
POLYLINE
  5
16B
330
15F
100
AcDbEntity
  8
IUC
 62
   250
420
  2301728
370
    15
100
AcDb2dPolyline
 66
     1
 10
0.0
 20
0.0
 30
0.0
  0
VERTEX
  5
16C
330
16B
100
AcDbEntity
  8
IUC
 62
   250
420
  2301728
370
    15
100
AcDbVertex
100
AcDb2dVertex
 10
4.928106967310113
 20
-1.858299313451299
 30
0.0
  0
VERTEX
  5
16D
330
16B
100
AcDbEntity
  8
IUC
 62
   250
420
  2301728
370
    15
100
AcDbVertex
100
AcDb2dVertex
 10
4.928093078421575
 20
-1.758811813451302
 30
0.0
  0
SEQEND
  5
16E
330
16B
100
AcDbEntity
  8
IUC
 62
   250
420
  2301728
370
    15
  0
POLYLINE
  5
16F
330
15F
100
AcDbEntity
  8
IUC
 62
   250
420
  2301728
370
    15
100
AcDb2dPolyline
 66
     1
 10
0.0
 20
0.0
 30
0.0
  0
VERTEX
  5
170
330
16F
100
AcDbEntity
  8
IUC
 62
   250
420
  2301728
370
    15
100
AcDbVertex
100
AcDb2dVertex
 10
4.928459745078978
 20
-2.325388202340188
 30
0.0
  0
VERTEX
  5
171
330
16F
100
AcDbEntity
  8
IUC
 62
   250
420
  2301728
370
    15
100
AcDbVertex
100
AcDb2dVertex
 10
4.928106967310113
 20
-1.869943757895738
 30
0.0
  0
SEQEND
  5
172
330
16F
100
AcDbEntity
  8
IUC
 62
   250
420
  2301728
370
    15
  0
POLYLINE
  5
173
330
15F
100
AcDbEntity
  8
IUC
 62
   250
420
  2301728
370
    15
100
AcDb2dPolyline
 66
     1
 10
0.0
 20
0.0
 30
0.0
  0
VERTEX
  5
174
330
173
100
AcDbEntity
  8
IUC
 62
   250
420
  2301728
370
    15
100
AcDbVertex
100
AcDb2dVertex
 10
4.928459745078978
 20
-2.35822570234019
 30
0.0
  0
VERTEX
  5
175
330
173
100
AcDbEntity
  8
IUC
 62
   250
420
  2301728
370
    15
100
AcDbVertex
100
AcDb2dVertex
 10
4.928459745078978
 20
-2.341772924562406
 30
0.0
  0
SEQEND
  5
176
330
173
100
AcDbEntity
  8
IUC
 62
   250
420
  2301728
370
    15
  0
ENDBLK
  5
162
330
15F
100
AcDbEntity
  8
0
100
AcDbBlockEnd
  0
BLOCK
  5
21F
330
21D
100
AcDbEntity
  8
0
100
AcDbBlockBegin
  2
block 6
 70
     0
 10
0.0
 20
0.0
 30
0.0
  3
block 6
  1

  0
SPLINE
  5
221
330
21D
100
AcDbEntity
  8
Nails
 62
   250
420
  2301728
370
    20
100
AcDbSpline
210
0.0
220
0.0
230
1.0
 70
    11
 71
     3
 72
    23
 73
    19
 74
     0
 42
0.0000000001
 43
0.0000000001
 12
1.0
 22
0.0
 32
0.0
 13
1.0
 23
0.0
 33
0.0
 40
0.0
 40
0.0
 40
0.0
 40
0.0
 40
1.0
 40
1.0
 40
1.0
 40
2.0
 40
2.0
 40
2.0
 40
3.0
 40
3.0
 40
3.0
 40
4.0
 40
4.0
 40
4.0
 40
5.0
 40
5.0
 40
5.0
 40
6.0
 40
6.0
 40
6.0
 40
6.0
 10
5.012741687394282
 20
-1.597557646784644
 30
0.0
 10
5.00229863210254
 20
-1.602107646784626
 30
0.0
 10
4.989548632424632
 20
-1.594492369006856
 30
0.0
 10
4.984326410334334
 20
-1.580535424562413
 30
0.0
 10
4.979131966021113
 20
-1.566599313451295
 30
0.0
 10
4.983350021470111
 20
-1.551590980117971
 30
0.0
 10
4.993834743427467
 20
-1.546993757895747
 30
0.0
 10
4.993834743427467
 20
-1.546993757895747
 30
0.0
 10
5.003288909855301
 20
-1.542890980117969
 30
0.0
 10
5.003288909855301
 20
-1.542890980117969
 30
0.0
 10
5.013719465147359
 20
-1.538278480117962
 30
0.0
 10
5.026441687048191
 20
-1.545914591229083
 30
0.0
 10
5.031716686914933
 20
-1.559906257895742
 30
0.0
 10
5.036912520117008
 20
-1.573828480117969
 30
0.0
 10
5.032666805555563
 20
-1.588849313451293
 30
0.0
 10
5.022209742710654
 20
-1.5934743134513
 30
0.0
 10
5.022209742710654
 20
-1.5934743134513
 30
0.0
 10
5.012741687394282
 20
-1.597557646784644
 30
0.0
 10
5.012741687394282
 20
-1.597557646784644
 30
0.0
  0
HATCH
  5
222
330
21D
100
AcDbEntity
  8
Nails
 62
   254
420
 13358815
100
AcDbHatch
 10
0.0
 20
0.0
 30
0.0
210
0.0
220
0.0
230
1.0
  2
SOLID
 70
     1
 71
     0
 91
        1
 92
        1
 93
        1
 72
     4
 94
        3
 73
     0
 74
     1
 95
       23
 96
       19
 40
0.0
 40
0.0
 40
0.0
 40
0.0
 40
1.0
 40
1.0
 40
1.0
 40
2.0
 40
2.0
 40
2.0
 40
3.0
 40
3.0
 40
3.0
 40
4.0
 40
4.0
 40
4.0
 40
5.0
 40
5.0
 40
5.0
 40
6.0
 40
6.0
 40
6.0
 40
6.0
 10
5.012741687394282
 20
-1.597557646784644
 10
5.00229863210254
 20
-1.602107646784626
 10
4.989548632424632
 20
-1.594492369006856
 10
4.984326410334334
 20
-1.580535424562413
 10
4.979131966021113
 20
-1.566599313451295
 10
4.983350021470111
 20
-1.551590980117971
 10
4.993834743427467
 20
-1.546993757895747
 10
4.993834743427467
 20
-1.546993757895747
 10
5.003288909855301
 20
-1.542890980117969
 10
5.003288909855301
 20
-1.542890980117969
 10
5.013719465147359
 20
-1.538278480117962
 10
5.026441687048191
 20
-1.545914591229083
 10
5.031716686914933
 20
-1.559906257895742
 10
5.036912520117008
 20
-1.573828480117969
 10
5.032666805555563
 20
-1.588849313451293
 10
5.022209742710654
 20
-1.5934743134513
 10
5.022209742710654
 20
-1.5934743134513
 10
5.012741687394282
 20
-1.597557646784644
 10
5.012741687394282
 20
-1.597557646784644
 97
        0
 97
        0
 75
     2
 76
     1
 98
        0
  0
SPLINE
  5
223
330
21D
100
AcDbEntity
  8
Nails
 62
   250
420
  2301728
370
    20
100
AcDbSpline
210
0.0
220
0.0
230
1.0
 70
    11
 71
     3
 72
    17
 73
    13
 74
     0
 42
0.0000000001
 43
0.0000000001
 12
1.0
 22
0.0
 32
0.0
 13
1.0
 23
0.0
 33
0.0
 40
0.0
 40
0.0
 40
0.0
 40
0.0
 40
1.0
 40
1.0
 40
1.0
 40
2.0
 40
2.0
 40
2.0
 40
3.0
 40
3.0
 40
3.0
 40
4.0
 40
4.0
 40
4.0
 40
4.0
 10
5.012334742960117
 20
-1.597720146784645
 30
0.0
 10
5.022861250000005
 20
-1.593184035673517
 30
0.0
 10
5.027091687031771
 20
-1.578140980117963
 30
0.0
 10
5.02184307605325
 20
-1.564178480117966
 30
0.0
 10
5.01659446507473
 20
-1.550235424562415
 30
0.0
 10
5.00389863206212
 20
-1.542599313451294
 30
0.0
 10
4.993427798993303
 20
-1.547170146784639
 30
0.0
 10
4.982984743701561
 20
-1.551740980117971
 30
0.0
 10
4.978752799364025
 20
-1.566747924562416
 30
0.0
 10
4.983933354788708
 20
-1.58074514678463
 30
0.0
 10
4.989169465767544
 20
-1.594668757895748
 30
0.0
 10
5.001905576556914
 20
-1.602304869006856
 30
0.0
 10
5.012334742960117
 20
-1.597720146784645
 30
0.0
  0
ENDBLK
  5
220
330
21D
100
AcDbEntity
  8
0
100
AcDbBlockEnd
  0
BLOCK
  5
226
330
224
100
AcDbEntity
  8
0
100
AcDbBlockBegin
  2
block 7
 70
     0
 10
0.0
 20
0.0
 30
0.0
  3
block 7
  1

  0
SPLINE
  5
228
330
224
100
AcDbEntity
  8
Nails
 62
   250
420
  2301728
370
    20
100
AcDbSpline
210
0.0
220
0.0
230
1.0
 70
     8
 71
     3
 72
    20
 73
    16
 74
     0
 42
0.0000000001
 43
0.0000000001
 12
1.0
 22
0.0
 32
0.0
 13
1.0
 23
0.0
 33
0.0
 40
0.0
 40
0.0
 40
0.0
 40
0.0
 40
1.0
 40
1.0
 40
1.0
 40
2.0
 40
2.0
 40
2.0
 40
3.0
 40
3.0
 40
3.0
 40
4.0
 40
4.0
 40
4.0
 40
5.0
 40
5.0
 40
5.0
 40
5.0
 10
5.121873629081821
 20
-1.561913202340191
 30
0.0
 10
5.114793073705136
 20
-1.559817369006851
 30
0.0
 10
5.108173629427912
 20
-1.553415980117961
 30
0.0
 10
5.104769462847242
 20
-1.54431459122908
 30
0.0
 10
5.09957501853402
 20
-1.530378480117962
 30
0.0
 10
5.103793073983019
 20
-1.515370146784638
 30
0.0
 10
5.114277916666676
 20
-1.510772924562414
 30
0.0
 10
5.114277916666676
 20
-1.510772924562414
 30
0.0
 10
5.123730573479356
 20
-1.506668757895745
 30
0.0
 10
5.123730573479356
 20
-1.506668757895745
 30
0.0
 10
5.134161128771413
 20
-1.502057646784629
 30
0.0
 10
5.146883350672245
 20
-1.50969375789575
 30
0.0
 10
5.152159739427841
 20
-1.523684035673518
 30
0.0
 10
5.152825017188812
 20
-1.525454869006858
 30
0.0
 10
5.153340294953574
 20
-1.527238202340186
 30
0.0
 10
5.153693072722439
 20
-1.52901459122908
 30
0.0
  0
HATCH
  5
229
330
224
100
AcDbEntity
  8
Nails
 62
   254
420
 13358815
100
AcDbHatch
 10
0.0
 20
0.0
 30
0.0
210
0.0
220
0.0
230
1.0
  2
SOLID
 70
     1
 71
     0
 91
        1
 92
        1
 93
        2
 72
     4
 94
        3
 73
     0
 74
     0
 95
       20
 96
       16
 40
0.0
 40
0.0
 40
0.0
 40
0.0
 40
0.0138888888888889
 40
0.0138888888888889
 40
0.0138888888888889
 40
0.0277777777777778
 40
0.0277777777777778
 40
0.0277777777777778
 40
0.0416666666666667
 40
0.0416666666666667
 40
0.0416666666666667
 40
0.0555555555555556
 40
0.0555555555555556
 40
0.0555555555555556
 40
0.0694444444444444
 40
0.0694444444444444
 40
0.0694444444444444
 40
0.0694444444444444
 10
5.121873629081821
 20
-1.561913202340191
 10
5.114793073705136
 20
-1.559817369006851
 10
5.108173629427912
 20
-1.553415980117961
 10
5.104769462847242
 20
-1.54431459122908
 10
5.09957501853402
 20
-1.530378480117962
 10
5.103793073983019
 20
-1.515370146784638
 10
5.114277916666676
 20
-1.510772924562414
 10
5.114277916666676
 20
-1.510772924562414
 10
5.123730573479356
 20
-1.506668757895745
 10
5.123730573479356
 20
-1.506668757895745
 10
5.134161128771413
 20
-1.502057646784629
 10
5.146883350672245
 20
-1.50969375789575
 10
5.152159739427841
 20
-1.523684035673518
 10
5.152825017188812
 20
-1.525454869006858
 10
5.153340294953574
 20
-1.527238202340186
 10
5.153693072722439
 20
-1.52901459122908
 97
        0
 72
     1
 10
5.153693072722439
 20
-1.52901459122908
 11
5.121873629081821
 21
-1.561913202340191
 97
        0
 75
     2
 76
     1
 98
        0
  0
SPLINE
  5
22A
330
224
100
AcDbEntity
  8
Nails
 62
   250
420
  2301728
370
    20
100
AcDbSpline
210
0.0
220
0.0
230
1.0
 70
     8
 71
     3
 72
    17
 73
    13
 74
     0
 42
0.0000000001
 43
0.0000000001
 12
1.0
 22
0.0
 32
0.0
 13
1.0
 23
0.0
 33
0.0
 40
0.0
 40
0.0
 40
0.0
 40
0.0
 40
1.0
 40
1.0
 40
1.0
 40
2.0
 40
2.0
 40
2.0
 40
3.0
 40
3.0
 40
3.0
 40
4.0
 40
4.0
 40
4.0
 40
4.0
 10
5.144443072956114
 20
-1.542592369006861
 30
0.0
 10
5.14479585072498
 20
-1.537913202340191
 30
0.0
 10
5.144130572964008
 20
-1.532867369006857
 30
0.0
 10
5.142286128566158
 20
-1.527957646784633
 30
0.0
 10
5.137037517587638
 20
-1.514014591229081
 30
0.0
 10
5.124341684575029
 20
-1.506378480117961
 30
0.0
 10
5.113870851506211
 20
-1.510949313451293
 30
0.0
 10
5.103426407325615
 20
-1.515520146784638
 30
0.0
 10
5.099194583333327
 20
-1.530527091229083
 30
0.0
 10
5.104376407301616
 20
-1.544524313451297
 30
0.0
 10
5.108309740535585
 20
-1.554961813451301
 30
0.0
 10
5.116447240330015
 20
-1.561878480117962
 30
0.0
 10
5.124680694444451
 20
-1.562746535673518
 30
0.0
  0
ENDBLK
  5
227
330
224
100
AcDbEntity
  8
0
100
AcDbBlockEnd
  0
BLOCK
  5
22D
330
22B
100
AcDbEntity
  8
0
100
AcDbBlockBegin
  2
block 8
 70
     0
 10
0.0
 20
0.0
 30
0.0
  3
block 8
  1

  0
SPLINE
  5
22F
330
22B
100
AcDbEntity
  8
Nails
 62
   250
420
  2301728
370
    20
100
AcDbSpline
210
0.0
220
0.0
230
1.0
 70
    11
 71
     3
 72
    23
 73
    19
 74
     0
 42
0.0000000001
 43
0.0000000001
 12
1.0
 22
0.0
 32
0.0
 13
1.0
 23
0.0
 33
0.0
 40
0.0
 40
0.0
 40
0.0
 40
0.0
 40
1.0
 40
1.0
 40
1.0
 40
2.0
 40
2.0
 40
2.0
 40
3.0
 40
3.0
 40
3.0
 40
4.0
 40
4.0
 40
4.0
 40
5.0
 40
5.0
 40
5.0
 40
6.0
 40
6.0
 40
6.0
 40
6.0
 10
5.012741687394282
 20
-1.781585424562422
 30
0.0
 10
5.00229863210254
 20
-1.786135424562404
 30
0.0
 10
4.989548632424632
 20
-1.778520146784634
 30
0.0
 10
4.984326410334334
 20
-1.764563202340191
 30
0.0
 10
4.979131966021113
 20
-1.750627091229072
 30
0.0
 10
4.983350021470111
 20
-1.735618757895748
 30
0.0
 10
4.993834743427467
 20
-1.731021535673525
 30
0.0
 10
4.993834743427467
 20
-1.731021535673525
 30
0.0
 10
5.003288909855301
 20
-1.726918757895747
 30
0.0
 10
5.003288909855301
 20
-1.726918757895747
 30
0.0
 10
5.013719465147359
 20
-1.72230625789574
 30
0.0
 10
5.026441687048191
 20
-1.72994236900686
 30
0.0
 10
5.031716686914933
 20
-1.74393403567352
 30
0.0
 10
5.036912520117008
 20
-1.757856257895747
 30
0.0
 10
5.032666805555563
 20
-1.772877091229071
 30
0.0
 10
5.022209742710654
 20
-1.777502091229078
 30
0.0
 10
5.022209742710654
 20
-1.777502091229078
 30
0.0
 10
5.012741687394282
 20
-1.781585424562422
 30
0.0
 10
5.012741687394282
 20
-1.781585424562422
 30
0.0
  0
HATCH
  5
230
330
22B
100
AcDbEntity
  8
Nails
 62
   254
420
 13358815
100
AcDbHatch
 10
0.0
 20
0.0
 30
0.0
210
0.0
220
0.0
230
1.0
  2
SOLID
 70
     1
 71
     0
 91
        1
 92
        1
 93
        1
 72
     4
 94
        3
 73
     0
 74
     1
 95
       23
 96
       19
 40
0.0
 40
0.0
 40
0.0
 40
0.0
 40
1.0
 40
1.0
 40
1.0
 40
2.0
 40
2.0
 40
2.0
 40
3.0
 40
3.0
 40
3.0
 40
4.0
 40
4.0
 40
4.0
 40
5.0
 40
5.0
 40
5.0
 40
6.0
 40
6.0
 40
6.0
 40
6.0
 10
5.012741687394282
 20
-1.781585424562422
 10
5.00229863210254
 20
-1.786135424562404
 10
4.989548632424632
 20
-1.778520146784634
 10
4.984326410334334
 20
-1.764563202340191
 10
4.979131966021113
 20
-1.750627091229072
 10
4.983350021470111
 20
-1.735618757895748
 10
4.993834743427467
 20
-1.731021535673525
 10
4.993834743427467
 20
-1.731021535673525
 10
5.003288909855301
 20
-1.726918757895747
 10
5.003288909855301
 20
-1.726918757895747
 10
5.013719465147359
 20
-1.72230625789574
 10
5.026441687048191
 20
-1.72994236900686
 10
5.031716686914933
 20
-1.74393403567352
 10
5.036912520117008
 20
-1.757856257895747
 10
5.032666805555563
 20
-1.772877091229071
 10
5.022209742710654
 20
-1.777502091229078
 10
5.022209742710654
 20
-1.777502091229078
 10
5.012741687394282
 20
-1.781585424562422
 10
5.012741687394282
 20
-1.781585424562422
 97
        0
 97
        0
 75
     2
 76
     1
 98
        0
  0
SPLINE
  5
231
330
22B
100
AcDbEntity
  8
Nails
 62
   250
420
  2301728
370
    20
100
AcDbSpline
210
0.0
220
0.0
230
1.0
 70
    11
 71
     3
 72
    17
 73
    13
 74
     0
 42
0.0000000001
 43
0.0000000001
 12
1.0
 22
0.0
 32
0.0
 13
1.0
 23
0.0
 33
0.0
 40
0.0
 40
0.0
 40
0.0
 40
0.0
 40
1.0
 40
1.0
 40
1.0
 40
2.0
 40
2.0
 40
2.0
 40
3.0
 40
3.0
 40
3.0
 40
4.0
 40
4.0
 40
4.0
 40
4.0
 10
5.012334742960117
 20
-1.781747924562422
 30
0.0
 10
5.022861250000005
 20
-1.777211813451294
 30
0.0
 10
5.027091687031771
 20
-1.762168757895741
 30
0.0
 10
5.02184307605325
 20
-1.748206257895744
 30
0.0
 10
5.01659446507473
 20
-1.734263202340192
 30
0.0
 10
5.00389863206212
 20
-1.726627091229072
 30
0.0
 10
4.993427798993303
 20
-1.731197924562417
 30
0.0
 10
4.982984743701561
 20
-1.735768757895749
 30
0.0
 10
4.978752799364025
 20
-1.750775702340194
 30
0.0
 10
4.983933354788708
 20
-1.764772924562408
 30
0.0
 10
4.989169465767544
 20
-1.778696535673526
 30
0.0
 10
5.001905576556914
 20
-1.786332646784634
 30
0.0
 10
5.012334742960117
 20
-1.781747924562422
 30
0.0
  0
ENDBLK
  5
22E
330
22B
100
AcDbEntity
  8
0
100
AcDbBlockEnd
  0
BLOCK
  5
234
330
232
100
AcDbEntity
  8
0
100
AcDbBlockBegin
  2
block 9
 70
     0
 10
0.0
 20
0.0
 30
0.0
  3
block 9
  1

  0
SPLINE
  5
236
330
232
100
AcDbEntity
  8
Nails
 62
   250
420
  2301728
370
    20
100
AcDbSpline
210
0.0
220
0.0
230
1.0
 70
    11
 71
     3
 72
    23
 73
    19
 74
     0
 42
0.0000000001
 43
0.0000000001
 12
1.0
 22
0.0
 32
0.0
 13
1.0
 23
0.0
 33
0.0
 40
0.0
 40
0.0
 40
0.0
 40
0.0
 40
1.0
 40
1.0
 40
1.0
 40
2.0
 40
2.0
 40
2.0
 40
3.0
 40
3.0
 40
3.0
 40
4.0
 40
4.0
 40
4.0
 40
5.0
 40
5.0
 40
5.0
 40
6.0
 40
6.0
 40
6.0
 40
6.0
 10
5.012741687394282
 20
-1.899640980117978
 30
0.0
 10
5.00229863210254
 20
-1.90419098011796
 30
0.0
 10
4.989548632424632
 20
-1.896575702340189
 30
0.0
 10
4.984326410334334
 20
-1.882618757895746
 30
0.0
 10
4.979131966021113
 20
-1.868682646784628
 30
0.0
 10
4.983350021470111
 20
-1.853674313451304
 30
0.0
 10
4.993834743427467
 20
-1.84907709122908
 30
0.0
 10
4.993834743427467
 20
-1.84907709122908
 30
0.0
 10
5.003288909855301
 20
-1.844974313451303
 30
0.0
 10
5.003288909855301
 20
-1.844974313451303
 30
0.0
 10
5.013719465147359
 20
-1.840361813451295
 30
0.0
 10
5.026441687048191
 20
-1.847997924562416
 30
0.0
 10
5.031716686914933
 20
-1.861989591229076
 30
0.0
 10
5.036912520117008
 20
-1.875911813451302
 30
0.0
 10
5.032666805555563
 20
-1.890932646784626
 30
0.0
 10
5.022209742710654
 20
-1.895557646784634
 30
0.0
 10
5.022209742710654
 20
-1.895557646784634
 30
0.0
 10
5.012741687394282
 20
-1.899640980117978
 30
0.0
 10
5.012741687394282
 20
-1.899640980117978
 30
0.0
  0
HATCH
  5
237
330
232
100
AcDbEntity
  8
Nails
 62
   254
420
 13358815
100
AcDbHatch
 10
0.0
 20
0.0
 30
0.0
210
0.0
220
0.0
230
1.0
  2
SOLID
 70
     1
 71
     0
 91
        1
 92
        1
 93
        1
 72
     4
 94
        3
 73
     0
 74
     1
 95
       23
 96
       19
 40
0.0
 40
0.0
 40
0.0
 40
0.0
 40
1.0
 40
1.0
 40
1.0
 40
2.0
 40
2.0
 40
2.0
 40
3.0
 40
3.0
 40
3.0
 40
4.0
 40
4.0
 40
4.0
 40
5.0
 40
5.0
 40
5.0
 40
6.0
 40
6.0
 40
6.0
 40
6.0
 10
5.012741687394282
 20
-1.899640980117978
 10
5.00229863210254
 20
-1.90419098011796
 10
4.989548632424632
 20
-1.896575702340189
 10
4.984326410334334
 20
-1.882618757895746
 10
4.979131966021113
 20
-1.868682646784628
 10
4.983350021470111
 20
-1.853674313451304
 10
4.993834743427467
 20
-1.84907709122908
 10
4.993834743427467
 20
-1.84907709122908
 10
5.003288909855301
 20
-1.844974313451303
 10
5.003288909855301
 20
-1.844974313451303
 10
5.013719465147359
 20
-1.840361813451295
 10
5.026441687048191
 20
-1.847997924562416
 10
5.031716686914933
 20
-1.861989591229076
 10
5.036912520117008
 20
-1.875911813451302
 10
5.032666805555563
 20
-1.890932646784626
 10
5.022209742710654
 20
-1.895557646784634
 10
5.022209742710654
 20
-1.895557646784634
 10
5.012741687394282
 20
-1.899640980117978
 10
5.012741687394282
 20
-1.899640980117978
 97
        0
 97
        0
 75
     2
 76
     1
 98
        0
  0
SPLINE
  5
238
330
232
100
AcDbEntity
  8
Nails
 62
   250
420
  2301728
370
    20
100
AcDbSpline
210
0.0
220
0.0
230
1.0
 70
    11
 71
     3
 72
    17
 73
    13
 74
     0
 42
0.0000000001
 43
0.0000000001
 12
1.0
 22
0.0
 32
0.0
 13
1.0
 23
0.0
 33
0.0
 40
0.0
 40
0.0
 40
0.0
 40
0.0
 40
1.0
 40
1.0
 40
1.0
 40
2.0
 40
2.0
 40
2.0
 40
3.0
 40
3.0
 40
3.0
 40
4.0
 40
4.0
 40
4.0
 40
4.0
 10
5.012334742960117
 20
-1.899803480117978
 30
0.0
 10
5.022861250000005
 20
-1.89526736900685
 30
0.0
 10
5.027091687031771
 20
-1.880224313451297
 30
0.0
 10
5.02184307605325
 20
-1.866261813451299
 30
0.0
 10
5.01659446507473
 20
-1.852318757895748
 30
0.0
 10
5.00389863206212
 20
-1.844682646784627
 30
0.0
 10
4.993427798993303
 20
-1.849253480117972
 30
0.0
 10
4.982984743701561
 20
-1.853824313451304
 30
0.0
 10
4.978752799364025
 20
-1.868831257895749
 30
0.0
 10
4.983933354788708
 20
-1.882828480117963
 30
0.0
 10
4.989169465767544
 20
-1.896752091229081
 30
0.0
 10
5.001905576556914
 20
-1.904388202340189
 30
0.0
 10
5.012334742960117
 20
-1.899803480117978
 30
0.0
  0
ENDBLK
  5
235
330
232
100
AcDbEntity
  8
0
100
AcDbBlockEnd
  0
BLOCK
  5
23B
330
239
100
AcDbEntity
  8
0
100
AcDbBlockBegin
  2
block 10
 70
     0
 10
0.0
 20
0.0
 30
0.0
  3
block 10
  1

  0
SPLINE
  5
23D
330
239
100
AcDbEntity
  8
Nails
 62
   250
420
  2301728
370
    20
100
AcDbSpline
210
0.0
220
0.0
230
1.0
 70
    11
 71
     3
 72
    23
 73
    19
 74
     0
 42
0.0000000001
 43
0.0000000001
 12
1.0
 22
0.0
 32
0.0
 13
1.0
 23
0.0
 33
0.0
 40
0.0
 40
0.0
 40
0.0
 40
0.0
 40
1.0
 40
1.0
 40
1.0
 40
2.0
 40
2.0
 40
2.0
 40
3.0
 40
3.0
 40
3.0
 40
4.0
 40
4.0
 40
4.0
 40
5.0
 40
5.0
 40
5.0
 40
6.0
 40
6.0
 40
6.0
 40
6.0
 10
5.012741687394282
 20
-2.022904869006867
 30
0.0
 10
5.00229863210254
 20
-2.027454869006849
 30
0.0
 10
4.989548632424632
 20
-2.019839591229078
 30
0.0
 10
4.984326410334334
 20
-2.005882646784635
 30
0.0
 10
4.979131966021113
 20
-1.991946535673517
 30
0.0
 10
4.983350021470111
 20
-1.976938202340193
 30
0.0
 10
4.993834743427467
 20
-1.972340980117969
 30
0.0
 10
4.993834743427467
 20
-1.972340980117969
 30
0.0
 10
5.003288909855301
 20
-1.968238202340192
 30
0.0
 10
5.003288909855301
 20
-1.968238202340192
 30
0.0
 10
5.013719465147359
 20
-1.963625702340184
 30
0.0
 10
5.026441687048191
 20
-1.971261813451305
 30
0.0
 10
5.031716686914933
 20
-1.985253480117965
 30
0.0
 10
5.036912520117008
 20
-1.999175702340191
 30
0.0
 10
5.032666805555563
 20
-2.014196535673515
 30
0.0
 10
5.022209742710654
 20
-2.018821535673522
 30
0.0
 10
5.022209742710654
 20
-2.018821535673522
 30
0.0
 10
5.012741687394282
 20
-2.022904869006867
 30
0.0
 10
5.012741687394282
 20
-2.022904869006867
 30
0.0
  0
HATCH
  5
23E
330
239
100
AcDbEntity
  8
Nails
 62
   254
420
 13358815
100
AcDbHatch
 10
0.0
 20
0.0
 30
0.0
210
0.0
220
0.0
230
1.0
  2
SOLID
 70
     1
 71
     0
 91
        1
 92
        1
 93
        1
 72
     4
 94
        3
 73
     0
 74
     1
 95
       23
 96
       19
 40
0.0
 40
0.0
 40
0.0
 40
0.0
 40
1.0
 40
1.0
 40
1.0
 40
2.0
 40
2.0
 40
2.0
 40
3.0
 40
3.0
 40
3.0
 40
4.0
 40
4.0
 40
4.0
 40
5.0
 40
5.0
 40
5.0
 40
6.0
 40
6.0
 40
6.0
 40
6.0
 10
5.012741687394282
 20
-2.022904869006867
 10
5.00229863210254
 20
-2.027454869006849
 10
4.989548632424632
 20
-2.019839591229078
 10
4.984326410334334
 20
-2.005882646784635
 10
4.979131966021113
 20
-1.991946535673517
 10
4.983350021470111
 20
-1.976938202340193
 10
4.993834743427467
 20
-1.972340980117969
 10
4.993834743427467
 20
-1.972340980117969
 10
5.003288909855301
 20
-1.968238202340192
 10
5.003288909855301
 20
-1.968238202340192
 10
5.013719465147359
 20
-1.963625702340184
 10
5.026441687048191
 20
-1.971261813451305
 10
5.031716686914933
 20
-1.985253480117965
 10
5.036912520117008
 20
-1.999175702340191
 10
5.032666805555563
 20
-2.014196535673515
 10
5.022209742710654
 20
-2.018821535673522
 10
5.022209742710654
 20
-2.018821535673522
 10
5.012741687394282
 20
-2.022904869006867
 10
5.012741687394282
 20
-2.022904869006867
 97
        0
 97
        0
 75
     2
 76
     1
 98
        0
  0
SPLINE
  5
23F
330
239
100
AcDbEntity
  8
Nails
 62
   250
420
  2301728
370
    20
100
AcDbSpline
210
0.0
220
0.0
230
1.0
 70
    11
 71
     3
 72
    17
 73
    13
 74
     0
 42
0.0000000001
 43
0.0000000001
 12
1.0
 22
0.0
 32
0.0
 13
1.0
 23
0.0
 33
0.0
 40
0.0
 40
0.0
 40
0.0
 40
0.0
 40
1.0
 40
1.0
 40
1.0
 40
2.0
 40
2.0
 40
2.0
 40
3.0
 40
3.0
 40
3.0
 40
4.0
 40
4.0
 40
4.0
 40
4.0
 10
5.012334742960117
 20
-2.023067369006867
 30
0.0
 10
5.022861250000005
 20
-2.018531257895739
 30
0.0
 10
5.027091687031771
 20
-2.003488202340185
 30
0.0
 10
5.02184307605325
 20
-1.989525702340188
 30
0.0
 10
5.01659446507473
 20
-1.975582646784637
 30
0.0
 10
5.00389863206212
 20
-1.967946535673516
 30
0.0
 10
4.993427798993303
 20
-1.972517369006861
 30
0.0
 10
4.982984743701561
 20
-1.977088202340193
 30
0.0
 10
4.978752799364025
 20
-1.992095146784638
 30
0.0
 10
4.983933354788708
 20
-2.006092369006852
 30
0.0
 10
4.989169465767544
 20
-2.02001598011797
 30
0.0
 10
5.001905576556914
 20
-2.027652091229078
 30
0.0
 10
5.012334742960117
 20
-2.023067369006867
 30
0.0
  0
ENDBLK
  5
23C
330
239
100
AcDbEntity
  8
0
100
AcDbBlockEnd
  0
BLOCK
  5
242
330
240
100
AcDbEntity
  8
0
100
AcDbBlockBegin
  2
block 11
 70
     0
 10
0.0
 20
0.0
 30
0.0
  3
block 11
  1

  0
SPLINE
  5
244
330
240
100
AcDbEntity
  8
Nails
 62
   250
420
  2301728
370
    20
100
AcDbSpline
210
0.0
220
0.0
230
1.0
 70
    11
 71
     3
 72
    23
 73
    19
 74
     0
 42
0.0000000001
 43
0.0000000001
 12
1.0
 22
0.0
 32
0.0
 13
1.0
 23
0.0
 33
0.0
 40
0.0
 40
0.0
 40
0.0
 40
0.0
 40
1.0
 40
1.0
 40
1.0
 40
2.0
 40
2.0
 40
2.0
 40
3.0
 40
3.0
 40
3.0
 40
4.0
 40
4.0
 40
4.0
 40
5.0
 40
5.0
 40
5.0
 40
6.0
 40
6.0
 40
6.0
 40
6.0
 10
5.012741687394282
 20
-2.140960424562422
 30
0.0
 10
5.00229863210254
 20
-2.145510424562404
 30
0.0
 10
4.989548632424632
 20
-2.137895146784634
 30
0.0
 10
4.984326410334334
 20
-2.123938202340191
 30
0.0
 10
4.979131966021113
 20
-2.110002091229072
 30
0.0
 10
4.983350021470111
 20
-2.094993757895748
 30
0.0
 10
4.993834743427467
 20
-2.090396535673524
 30
0.0
 10
4.993834743427467
 20
-2.090396535673524
 30
0.0
 10
5.003288909855301
 20
-2.086293757895747
 30
0.0
 10
5.003288909855301
 20
-2.086293757895747
 30
0.0
 10
5.013719465147359
 20
-2.08168125789574
 30
0.0
 10
5.026441687048191
 20
-2.08931736900686
 30
0.0
 10
5.031716686914933
 20
-2.10330903567352
 30
0.0
 10
5.036912520117008
 20
-2.117231257895747
 30
0.0
 10
5.032666805555563
 20
-2.132252091229071
 30
0.0
 10
5.022209742710654
 20
-2.136877091229078
 30
0.0
 10
5.022209742710654
 20
-2.136877091229078
 30
0.0
 10
5.012741687394282
 20
-2.140960424562422
 30
0.0
 10
5.012741687394282
 20
-2.140960424562422
 30
0.0
  0
HATCH
  5
245
330
240
100
AcDbEntity
  8
Nails
 62
   254
420
 13358815
100
AcDbHatch
 10
0.0
 20
0.0
 30
0.0
210
0.0
220
0.0
230
1.0
  2
SOLID
 70
     1
 71
     0
 91
        1
 92
        1
 93
        1
 72
     4
 94
        3
 73
     0
 74
     1
 95
       23
 96
       19
 40
0.0
 40
0.0
 40
0.0
 40
0.0
 40
1.0
 40
1.0
 40
1.0
 40
2.0
 40
2.0
 40
2.0
 40
3.0
 40
3.0
 40
3.0
 40
4.0
 40
4.0
 40
4.0
 40
5.0
 40
5.0
 40
5.0
 40
6.0
 40
6.0
 40
6.0
 40
6.0
 10
5.012741687394282
 20
-2.140960424562422
 10
5.00229863210254
 20
-2.145510424562404
 10
4.989548632424632
 20
-2.137895146784634
 10
4.984326410334334
 20
-2.123938202340191
 10
4.979131966021113
 20
-2.110002091229072
 10
4.983350021470111
 20
-2.094993757895748
 10
4.993834743427467
 20
-2.090396535673524
 10
4.993834743427467
 20
-2.090396535673524
 10
5.003288909855301
 20
-2.086293757895747
 10
5.003288909855301
 20
-2.086293757895747
 10
5.013719465147359
 20
-2.08168125789574
 10
5.026441687048191
 20
-2.08931736900686
 10
5.031716686914933
 20
-2.10330903567352
 10
5.036912520117008
 20
-2.117231257895747
 10
5.032666805555563
 20
-2.132252091229071
 10
5.022209742710654
 20
-2.136877091229078
 10
5.022209742710654
 20
-2.136877091229078
 10
5.012741687394282
 20
-2.140960424562422
 10
5.012741687394282
 20
-2.140960424562422
 97
        0
 97
        0
 75
     2
 76
     1
 98
        0
  0
SPLINE
  5
246
330
240
100
AcDbEntity
  8
Nails
 62
   250
420
  2301728
370
    20
100
AcDbSpline
210
0.0
220
0.0
230
1.0
 70
    11
 71
     3
 72
    17
 73
    13
 74
     0
 42
0.0000000001
 43
0.0000000001
 12
1.0
 22
0.0
 32
0.0
 13
1.0
 23
0.0
 33
0.0
 40
0.0
 40
0.0
 40
0.0
 40
0.0
 40
1.0
 40
1.0
 40
1.0
 40
2.0
 40
2.0
 40
2.0
 40
3.0
 40
3.0
 40
3.0
 40
4.0
 40
4.0
 40
4.0
 40
4.0
 10
5.012334742960117
 20
-2.141122924562422
 30
0.0
 10
5.022861250000005
 20
-2.136586813451294
 30
0.0
 10
5.027091687031771
 20
-2.121543757895741
 30
0.0
 10
5.02184307605325
 20
-2.107581257895744
 30
0.0
 10
5.01659446507473
 20
-2.093638202340192
 30
0.0
 10
5.00389863206212
 20
-2.086002091229072
 30
0.0
 10
4.993427798993303
 20
-2.090572924562417
 30
0.0
 10
4.982984743701561
 20
-2.095143757895749
 30
0.0
 10
4.978752799364025
 20
-2.110150702340194
 30
0.0
 10
4.983933354788708
 20
-2.124147924562408
 30
0.0
 10
4.989169465767544
 20
-2.138071535673526
 30
0.0
 10
5.001905576556914
 20
-2.145707646784634
 30
0.0
 10
5.012334742960117
 20
-2.141122924562422
 30
0.0
  0
ENDBLK
  5
243
330
240
100
AcDbEntity
  8
0
100
AcDbBlockEnd
  0
BLOCK
  5
249
330
247
100
AcDbEntity
  8
0
100
AcDbBlockBegin
  2
block 12
 70
     0
 10
0.0
 20
0.0
 30
0.0
  3
block 12
  1

  0
SPLINE
  5
24B
330
247
100
AcDbEntity
  8
Nails
 62
   250
420
  2301728
370
    20
100
AcDbSpline
210
0.0
220
0.0
230
1.0
 70
    11
 71
     3
 72
    23
 73
    19
 74
     0
 42
0.0000000001
 43
0.0000000001
 12
1.0
 22
0.0
 32
0.0
 13
1.0
 23
0.0
 33
0.0
 40
0.0
 40
0.0
 40
0.0
 40
0.0
 40
1.0
 40
1.0
 40
1.0
 40
2.0
 40
2.0
 40
2.0
 40
3.0
 40
3.0
 40
3.0
 40
4.0
 40
4.0
 40
4.0
 40
5.0
 40
5.0
 40
5.0
 40
6.0
 40
6.0
 40
6.0
 40
6.0
 10
5.012741687394282
 20
-2.257279869006867
 30
0.0
 10
5.00229863210254
 20
-2.261829869006849
 30
0.0
 10
4.989548632424632
 20
-2.254214591229078
 30
0.0
 10
4.984326410334334
 20
-2.240257646784635
 30
0.0
 10
4.979131966021113
 20
-2.226321535673517
 30
0.0
 10
4.983350021470111
 20
-2.211313202340193
 30
0.0
 10
4.993834743427467
 20
-2.206715980117969
 30
0.0
 10
4.993834743427467
 20
-2.206715980117969
 30
0.0
 10
5.003288909855301
 20
-2.202613202340192
 30
0.0
 10
5.003288909855301
 20
-2.202613202340192
 30
0.0
 10
5.013719465147359
 20
-2.198000702340184
 30
0.0
 10
5.026441687048191
 20
-2.205636813451305
 30
0.0
 10
5.031716686914933
 20
-2.219628480117965
 30
0.0
 10
5.036912520117008
 20
-2.233550702340191
 30
0.0
 10
5.032666805555563
 20
-2.248571535673515
 30
0.0
 10
5.022209742710654
 20
-2.253196535673522
 30
0.0
 10
5.022209742710654
 20
-2.253196535673522
 30
0.0
 10
5.012741687394282
 20
-2.257279869006867
 30
0.0
 10
5.012741687394282
 20
-2.257279869006867
 30
0.0
  0
HATCH
  5
24C
330
247
100
AcDbEntity
  8
Nails
 62
   254
420
 13358815
100
AcDbHatch
 10
0.0
 20
0.0
 30
0.0
210
0.0
220
0.0
230
1.0
  2
SOLID
 70
     1
 71
     0
 91
        1
 92
        1
 93
        1
 72
     4
 94
        3
 73
     0
 74
     1
 95
       23
 96
       19
 40
0.0
 40
0.0
 40
0.0
 40
0.0
 40
1.0
 40
1.0
 40
1.0
 40
2.0
 40
2.0
 40
2.0
 40
3.0
 40
3.0
 40
3.0
 40
4.0
 40
4.0
 40
4.0
 40
5.0
 40
5.0
 40
5.0
 40
6.0
 40
6.0
 40
6.0
 40
6.0
 10
5.012741687394282
 20
-2.257279869006867
 10
5.00229863210254
 20
-2.261829869006849
 10
4.989548632424632
 20
-2.254214591229078
 10
4.984326410334334
 20
-2.240257646784635
 10
4.979131966021113
 20
-2.226321535673517
 10
4.983350021470111
 20
-2.211313202340193
 10
4.993834743427467
 20
-2.206715980117969
 10
4.993834743427467
 20
-2.206715980117969
 10
5.003288909855301
 20
-2.202613202340192
 10
5.003288909855301
 20
-2.202613202340192
 10
5.013719465147359
 20
-2.198000702340184
 10
5.026441687048191
 20
-2.205636813451305
 10
5.031716686914933
 20
-2.219628480117965
 10
5.036912520117008
 20
-2.233550702340191
 10
5.032666805555563
 20
-2.248571535673515
 10
5.022209742710654
 20
-2.253196535673522
 10
5.022209742710654
 20
-2.253196535673522
 10
5.012741687394282
 20
-2.257279869006867
 10
5.012741687394282
 20
-2.257279869006867
 97
        0
 97
        0
 75
     2
 76
     1
 98
        0
  0
SPLINE
  5
24D
330
247
100
AcDbEntity
  8
Nails
 62
   250
420
  2301728
370
    20
100
AcDbSpline
210
0.0
220
0.0
230
1.0
 70
    11
 71
     3
 72
    17
 73
    13
 74
     0
 42
0.0000000001
 43
0.0000000001
 12
1.0
 22
0.0
 32
0.0
 13
1.0
 23
0.0
 33
0.0
 40
0.0
 40
0.0
 40
0.0
 40
0.0
 40
1.0
 40
1.0
 40
1.0
 40
2.0
 40
2.0
 40
2.0
 40
3.0
 40
3.0
 40
3.0
 40
4.0
 40
4.0
 40
4.0
 40
4.0
 10
5.012334742960117
 20
-2.257442369006867
 30
0.0
 10
5.022861250000005
 20
-2.252906257895738
 30
0.0
 10
5.027091687031771
 20
-2.237863202340185
 30
0.0
 10
5.02184307605325
 20
-2.223900702340188
 30
0.0
 10
5.01659446507473
 20
-2.209957646784637
 30
0.0
 10
5.00389863206212
 20
-2.202321535673516
 30
0.0
 10
4.993427798993303
 20
-2.206892369006861
 30
0.0
 10
4.982984743701561
 20
-2.211463202340193
 30
0.0
 10
4.978752799364025
 20
-2.226470146784638
 30
0.0
 10
4.983933354788708
 20
-2.240467369006852
 30
0.0
 10
4.989169465767544
 20
-2.25439098011797
 30
0.0
 10
5.001905576556914
 20
-2.262027091229078
 30
0.0
 10
5.012334742960117
 20
-2.257442369006867
 30
0.0
  0
ENDBLK
  5
24A
330
247
100
AcDbEntity
  8
0
100
AcDbBlockEnd
  0
BLOCK
  5
250
330
24E
100
AcDbEntity
  8
0
100
AcDbBlockBegin
  2
block 13
 70
     0
 10
0.0
 20
0.0
 30
0.0
  3
block 13
  1

  0
SPLINE
  5
252
330
24E
100
AcDbEntity
  8
Nails
 62
   250
420
  2301728
370
    20
100
AcDbSpline
210
0.0
220
0.0
230
1.0
 70
     8
 71
     3
 72
    14
 73
    10
 74
     0
 42
0.0000000001
 43
0.0000000001
 12
1.0
 22
0.0
 32
0.0
 13
1.0
 23
0.0
 33
0.0
 40
0.0
 40
0.0
 40
0.0
 40
0.0
 40
1.0
 40
1.0
 40
1.0
 40
2.0
 40
2.0
 40
2.0
 40
3.0
 40
3.0
 40
3.0
 40
3.0
 10
5.121791805555555
 20
-2.202124313451299
 30
0.0
 10
5.114237518163614
 20
-2.200470146784634
 30
0.0
 10
5.109476407172779
 20
-2.194352091229082
 30
0.0
 10
5.105854185042062
 20
-2.18470209122908
 30
0.0
 10
5.10065974072884
 20
-2.170765980117961
 30
0.0
 10
5.104877796177839
 20
-2.155757646784637
 30
0.0
 10
5.115362518135194
 20
-2.151160424562414
 30
0.0
 10
5.115362518135194
 20
-2.151160424562414
 30
0.0
 10
5.12294458333334
 20
-2.147728480117962
 30
0.0
 10
5.12294458333334
 20
-2.147728480117962
 30
0.0
  0
HATCH
  5
253
330
24E
100
AcDbEntity
  8
Nails
 62
   254
420
 13358815
100
AcDbHatch
 10
0.0
 20
0.0
 30
0.0
210
0.0
220
0.0
230
1.0
  2
SOLID
 70
     1
 71
     0
 91
        1
 92
        1
 93
        2
 72
     4
 94
        3
 73
     0
 74
     0
 95
       14
 96
       10
 40
0.0
 40
0.0
 40
0.0
 40
0.0
 40
0.0138888888888889
 40
0.0138888888888889
 40
0.0138888888888889
 40
0.0277777777777778
 40
0.0277777777777778
 40
0.0277777777777778
 40
0.0416666666666667
 40
0.0416666666666667
 40
0.0416666666666667
 40
0.0416666666666667
 10
5.121791805555555
 20
-2.202124313451299
 10
5.114237518163614
 20
-2.200470146784634
 10
5.109476407172779
 20
-2.194352091229082
 10
5.105854185042062
 20
-2.18470209122908
 10
5.10065974072884
 20
-2.170765980117961
 10
5.104877796177839
 20
-2.155757646784637
 10
5.115362518135194
 20
-2.151160424562414
 10
5.115362518135194
 20
-2.151160424562414
 10
5.12294458333334
 20
-2.147728480117962
 10
5.12294458333334
 20
-2.147728480117962
 97
        0
 72
     1
 10
5.12294458333334
 20
-2.147728480117962
 11
5.121791805555555
 21
-2.202124313451299
 97
        0
 75
     2
 76
     1
 98
        0
  0
SPLINE
  5
254
330
24E
100
AcDbEntity
  8
Nails
 62
   250
420
  2301728
370
    20
100
AcDbSpline
210
0.0
220
0.0
230
1.0
 70
     8
 71
     3
 72
    14
 73
    10
 74
     0
 42
0.0000000001
 43
0.0000000001
 12
1.0
 22
0.0
 32
0.0
 13
1.0
 23
0.0
 33
0.0
 40
0.0
 40
0.0
 40
0.0
 40
0.0
 40
1.0
 40
1.0
 40
1.0
 40
2.0
 40
2.0
 40
2.0
 40
3.0
 40
3.0
 40
3.0
 40
3.0
 10
5.124802795674491
 20
-2.150847924562413
 30
0.0
 10
5.121194583333337
 20
-2.149892369006857
 30
0.0
 10
5.118427795835538
 20
-2.149824313451303
 30
0.0
 10
5.114955573701031
 20
-2.151336813451306
 30
0.0
 10
5.104512518409289
 20
-2.155907646784638
 30
0.0
 10
5.100280574071753
 20
-2.170914591229082
 30
0.0
 10
5.105461129496436
 20
-2.184911813451297
 30
0.0
 10
5.10923196273451
 20
-2.1949493134513
 30
0.0
 10
5.116908351429477
 20
-2.201717369006853
 30
0.0
 10
5.124802795674491
 20
-2.202999313451301
 30
0.0
  0
ENDBLK
  5
251
330
24E
100
AcDbEntity
  8
0
100
AcDbBlockEnd
  0
BLOCK
  5
257
330
255
100
AcDbEntity
  8
0
100
AcDbBlockBegin
  2
block 14
 70
     0
 10
0.0
 20
0.0
 30
0.0
  3
block 14
  1

  0
SPLINE
  5
259
330
255
100
AcDbEntity
  8
Nails
 62
   250
420
  2301728
370
    20
100
AcDbSpline
210
0.0
220
0.0
230
1.0
 70
     8
 71
     3
 72
    14
 73
    10
 74
     0
 42
0.0000000001
 43
0.0000000001
 12
1.0
 22
0.0
 32
0.0
 13
1.0
 23
0.0
 33
0.0
 40
0.0
 40
0.0
 40
0.0
 40
0.0
 40
1.0
 40
1.0
 40
1.0
 40
2.0
 40
2.0
 40
2.0
 40
3.0
 40
3.0
 40
3.0
 40
3.0
 10
5.121791805555555
 20
-2.086734035673519
 30
0.0
 10
5.114237518163614
 20
-2.085079869006853
 30
0.0
 10
5.109476407172779
 20
-2.078961813451302
 30
0.0
 10
5.105854185042062
 20
-2.069311813451299
 30
0.0
 10
5.10065974072884
 20
-2.055375702340194
 30
0.0
 10
5.104877796177839
 20
-2.040367369006857
 30
0.0
 10
5.115362518135194
 20
-2.035770146784633
 30
0.0
 10
5.115362518135194
 20
-2.035770146784633
 30
0.0
 10
5.12294458333334
 20
-2.032338202340194
 30
0.0
 10
5.12294458333334
 20
-2.032338202340194
 30
0.0
  0
HATCH
  5
25A
330
255
100
AcDbEntity
  8
Nails
 62
   254
420
 13358815
100
AcDbHatch
 10
0.0
 20
0.0
 30
0.0
210
0.0
220
0.0
230
1.0
  2
SOLID
 70
     1
 71
     0
 91
        1
 92
        1
 93
        2
 72
     4
 94
        3
 73
     0
 74
     0
 95
       14
 96
       10
 40
0.0
 40
0.0
 40
0.0
 40
0.0
 40
0.0138888888888889
 40
0.0138888888888889
 40
0.0138888888888889
 40
0.0277777777777778
 40
0.0277777777777778
 40
0.0277777777777778
 40
0.0416666666666667
 40
0.0416666666666667
 40
0.0416666666666667
 40
0.0416666666666667
 10
5.121791805555555
 20
-2.086734035673519
 10
5.114237518163614
 20
-2.085079869006853
 10
5.109476407172779
 20
-2.078961813451302
 10
5.105854185042062
 20
-2.069311813451299
 10
5.10065974072884
 20
-2.055375702340194
 10
5.104877796177839
 20
-2.040367369006857
 10
5.115362518135194
 20
-2.035770146784633
 10
5.115362518135194
 20
-2.035770146784633
 10
5.12294458333334
 20
-2.032338202340194
 10
5.12294458333334
 20
-2.032338202340194
 97
        0
 72
     1
 10
5.12294458333334
 20
-2.032338202340194
 11
5.121791805555555
 21
-2.086734035673519
 97
        0
 75
     2
 76
     1
 98
        0
  0
SPLINE
  5
25B
330
255
100
AcDbEntity
  8
Nails
 62
   250
420
  2301728
370
    20
100
AcDbSpline
210
0.0
220
0.0
230
1.0
 70
     8
 71
     3
 72
    14
 73
    10
 74
     0
 42
0.0000000001
 43
0.0000000001
 12
1.0
 22
0.0
 32
0.0
 13
1.0
 23
0.0
 33
0.0
 40
0.0
 40
0.0
 40
0.0
 40
0.0
 40
1.0
 40
1.0
 40
1.0
 40
2.0
 40
2.0
 40
2.0
 40
3.0
 40
3.0
 40
3.0
 40
3.0
 10
5.124802795674491
 20
-2.035457646784633
 30
0.0
 10
5.121194583333337
 20
-2.034502091229089
 30
0.0
 10
5.118427795835538
 20
-2.034434035673522
 30
0.0
 10
5.114955573701031
 20
-2.035946535673525
 30
0.0
 10
5.104512518409289
 20
-2.040517369006857
 30
0.0
 10
5.100280574071753
 20
-2.055524313451302
 30
0.0
 10
5.105461129496436
 20
-2.069521535673516
 30
0.0
 10
5.10923196273451
 20
-2.07955903567352
 30
0.0
 10
5.116908351429477
 20
-2.086327091229072
 30
0.0
 10
5.124802795674491
 20
-2.08760903567352
 30
0.0
  0
ENDBLK
  5
258
330
255
100
AcDbEntity
  8
0
100
AcDbBlockEnd
  0
BLOCK
  5
25E
330
25C
100
AcDbEntity
  8
0
100
AcDbBlockBegin
  2
block 15
 70
     0
 10
0.0
 20
0.0
 30
0.0
  3
block 15
  1

  0
SPLINE
  5
260
330
25C
100
AcDbEntity
  8
Nails
 62
   250
420
  2301728
370
    20
100
AcDbSpline
210
0.0
220
0.0
230
1.0
 70
     8
 71
     3
 72
    14
 73
    10
 74
     0
 42
0.0000000001
 43
0.0000000001
 12
1.0
 22
0.0
 32
0.0
 13
1.0
 23
0.0
 33
0.0
 40
0.0
 40
0.0
 40
0.0
 40
0.0
 40
1.0
 40
1.0
 40
1.0
 40
2.0
 40
2.0
 40
2.0
 40
3.0
 40
3.0
 40
3.0
 40
3.0
 10
5.121791805555555
 20
-1.973886813451296
 30
0.0
 10
5.114237518163614
 20
-1.972232646784631
 30
0.0
 10
5.109476407172779
 20
-1.96611459122908
 30
0.0
 10
5.105854185042062
 20
-1.956464591229077
 30
0.0
 10
5.10065974072884
 20
-1.942528480117971
 30
0.0
 10
5.104877796177839
 20
-1.927520146784635
 30
0.0
 10
5.115362518135194
 20
-1.922922924562411
 30
0.0
 10
5.115362518135194
 20
-1.922922924562411
 30
0.0
 10
5.12294458333334
 20
-1.919490980117972
 30
0.0
 10
5.12294458333334
 20
-1.919490980117972
 30
0.0
  0
HATCH
  5
261
330
25C
100
AcDbEntity
  8
Nails
 62
   254
420
 13358815
100
AcDbHatch
 10
0.0
 20
0.0
 30
0.0
210
0.0
220
0.0
230
1.0
  2
SOLID
 70
     1
 71
     0
 91
        1
 92
        1
 93
        2
 72
     4
 94
        3
 73
     0
 74
     0
 95
       14
 96
       10
 40
0.0
 40
0.0
 40
0.0
 40
0.0
 40
0.0138888888888889
 40
0.0138888888888889
 40
0.0138888888888889
 40
0.0277777777777778
 40
0.0277777777777778
 40
0.0277777777777778
 40
0.0416666666666667
 40
0.0416666666666667
 40
0.0416666666666667
 40
0.0416666666666667
 10
5.121791805555555
 20
-1.973886813451296
 10
5.114237518163614
 20
-1.972232646784631
 10
5.109476407172779
 20
-1.96611459122908
 10
5.105854185042062
 20
-1.956464591229077
 10
5.10065974072884
 20
-1.942528480117971
 10
5.104877796177839
 20
-1.927520146784635
 10
5.115362518135194
 20
-1.922922924562411
 10
5.115362518135194
 20
-1.922922924562411
 10
5.12294458333334
 20
-1.919490980117972
 10
5.12294458333334
 20
-1.919490980117972
 97
        0
 72
     1
 10
5.12294458333334
 20
-1.919490980117972
 11
5.121791805555555
 21
-1.973886813451296
 97
        0
 75
     2
 76
     1
 98
        0
  0
SPLINE
  5
262
330
25C
100
AcDbEntity
  8
Nails
 62
   250
420
  2301728
370
    20
100
AcDbSpline
210
0.0
220
0.0
230
1.0
 70
     8
 71
     3
 72
    14
 73
    10
 74
     0
 42
0.0000000001
 43
0.0000000001
 12
1.0
 22
0.0
 32
0.0
 13
1.0
 23
0.0
 33
0.0
 40
0.0
 40
0.0
 40
0.0
 40
0.0
 40
1.0
 40
1.0
 40
1.0
 40
2.0
 40
2.0
 40
2.0
 40
3.0
 40
3.0
 40
3.0
 40
3.0
 10
5.124802795674491
 20
-1.92261042456241
 30
0.0
 10
5.121194583333337
 20
-1.921654869006867
 30
0.0
 10
5.118427795835538
 20
-1.9215868134513
 30
0.0
 10
5.114955573701031
 20
-1.923099313451303
 30
0.0
 10
5.104512518409289
 20
-1.927670146784635
 30
0.0
 10
5.100280574071753
 20
-1.94267709122908
 30
0.0
 10
5.105461129496436
 20
-1.956674313451294
 30
0.0
 10
5.10923196273451
 20
-1.966711813451298
 30
0.0
 10
5.116908351429477
 20
-1.97347986900685
 30
0.0
 10
5.124802795674491
 20
-1.974761813451298
 30
0.0
  0
ENDBLK
  5
25F
330
25C
100
AcDbEntity
  8
0
100
AcDbBlockEnd
  0
BLOCK
  5
265
330
263
100
AcDbEntity
  8
0
100
AcDbBlockBegin
  2
block 16
 70
     0
 10
0.0
 20
0.0
 30
0.0
  3
block 16
  1

  0
SPLINE
  5
267
330
263
100
AcDbEntity
  8
Nails
 62
   250
420
  2301728
370
    20
100
AcDbSpline
210
0.0
220
0.0
230
1.0
 70
     8
 71
     3
 72
    14
 73
    10
 74
     0
 42
0.0000000001
 43
0.0000000001
 12
1.0
 22
0.0
 32
0.0
 13
1.0
 23
0.0
 33
0.0
 40
0.0
 40
0.0
 40
0.0
 40
0.0
 40
1.0
 40
1.0
 40
1.0
 40
2.0
 40
2.0
 40
2.0
 40
3.0
 40
3.0
 40
3.0
 40
3.0
 10
5.121791805555555
 20
-1.861039591229074
 30
0.0
 10
5.114237518163614
 20
-1.859385424562409
 30
0.0
 10
5.109476407172779
 20
-1.853267369006858
 30
0.0
 10
5.105854185042062
 20
-1.843617369006855
 30
0.0
 10
5.10065974072884
 20
-1.829681257895749
 30
0.0
 10
5.104877796177839
 20
-1.814672924562412
 30
0.0
 10
5.115362518135194
 20
-1.810075702340189
 30
0.0
 10
5.115362518135194
 20
-1.810075702340189
 30
0.0
 10
5.12294458333334
 20
-1.80664375789575
 30
0.0
 10
5.12294458333334
 20
-1.80664375789575
 30
0.0
  0
HATCH
  5
268
330
263
100
AcDbEntity
  8
Nails
 62
   254
420
 13358815
100
AcDbHatch
 10
0.0
 20
0.0
 30
0.0
210
0.0
220
0.0
230
1.0
  2
SOLID
 70
     1
 71
     0
 91
        1
 92
        1
 93
        2
 72
     4
 94
        3
 73
     0
 74
     0
 95
       14
 96
       10
 40
0.0
 40
0.0
 40
0.0
 40
0.0
 40
0.0138888888888889
 40
0.0138888888888889
 40
0.0138888888888889
 40
0.0277777777777778
 40
0.0277777777777778
 40
0.0277777777777778
 40
0.0416666666666667
 40
0.0416666666666667
 40
0.0416666666666667
 40
0.0416666666666667
 10
5.121791805555555
 20
-1.861039591229074
 10
5.114237518163614
 20
-1.859385424562409
 10
5.109476407172779
 20
-1.853267369006858
 10
5.105854185042062
 20
-1.843617369006855
 10
5.10065974072884
 20
-1.829681257895749
 10
5.104877796177839
 20
-1.814672924562412
 10
5.115362518135194
 20
-1.810075702340189
 10
5.115362518135194
 20
-1.810075702340189
 10
5.12294458333334
 20
-1.80664375789575
 10
5.12294458333334
 20
-1.80664375789575
 97
        0
 72
     1
 10
5.12294458333334
 20
-1.80664375789575
 11
5.121791805555555
 21
-1.861039591229074
 97
        0
 75
     2
 76
     1
 98
        0
  0
SPLINE
  5
269
330
263
100
AcDbEntity
  8
Nails
 62
   250
420
  2301728
370
    20
100
AcDbSpline
210
0.0
220
0.0
230
1.0
 70
     8
 71
     3
 72
    14
 73
    10
 74
     0
 42
0.0000000001
 43
0.0000000001
 12
1.0
 22
0.0
 32
0.0
 13
1.0
 23
0.0
 33
0.0
 40
0.0
 40
0.0
 40
0.0
 40
0.0
 40
1.0
 40
1.0
 40
1.0
 40
2.0
 40
2.0
 40
2.0
 40
3.0
 40
3.0
 40
3.0
 40
3.0
 10
5.124802795674491
 20
-1.809763202340188
 30
0.0
 10
5.121194583333337
 20
-1.808807646784645
 30
0.0
 10
5.118427795835538
 20
-1.808739591229078
 30
0.0
 10
5.114955573701031
 20
-1.81025209122908
 30
0.0
 10
5.104512518409289
 20
-1.814822924562413
 30
0.0
 10
5.100280574071753
 20
-1.829829869006858
 30
0.0
 10
5.105461129496436
 20
-1.843827091229072
 30
0.0
 10
5.10923196273451
 20
-1.853864591229075
 30
0.0
 10
5.116908351429477
 20
-1.860632646784628
 30
0.0
 10
5.124802795674491
 20
-1.861914591229076
 30
0.0
  0
ENDBLK
  5
266
330
263
100
AcDbEntity
  8
0
100
AcDbBlockEnd
  0
BLOCK
  5
26C
330
26A
100
AcDbEntity
  8
0
100
AcDbBlockBegin
  2
block 17
 70
     0
 10
0.0
 20
0.0
 30
0.0
  3
block 17
  1

  0
SPLINE
  5
26E
330
26A
100
AcDbEntity
  8
Nails
 62
   250
420
  2301728
370
    20
100
AcDbSpline
210
0.0
220
0.0
230
1.0
 70
     8
 71
     3
 72
    14
 73
    10
 74
     0
 42
0.0000000001
 43
0.0000000001
 12
1.0
 22
0.0
 32
0.0
 13
1.0
 23
0.0
 33
0.0
 40
0.0
 40
0.0
 40
0.0
 40
0.0
 40
1.0
 40
1.0
 40
1.0
 40
2.0
 40
2.0
 40
2.0
 40
3.0
 40
3.0
 40
3.0
 40
3.0
 10
5.121791805555555
 20
-1.748192369006852
 30
0.0
 10
5.114237518163614
 20
-1.746538202340187
 30
0.0
 10
5.109476407172779
 20
-1.740420146784635
 30
0.0
 10
5.105854185042062
 20
-1.730770146784632
 30
0.0
 10
5.10065974072884
 20
-1.716834035673527
 30
0.0
 10
5.104877796177839
 20
-1.70182570234019
 30
0.0
 10
5.115362518135194
 20
-1.697228480117966
 30
0.0
 10
5.115362518135194
 20
-1.697228480117966
 30
0.0
 10
5.12294458333334
 20
-1.693796535673528
 30
0.0
 10
5.12294458333334
 20
-1.693796535673528
 30
0.0
  0
HATCH
  5
26F
330
26A
100
AcDbEntity
  8
Nails
 62
   254
420
 13358815
100
AcDbHatch
 10
0.0
 20
0.0
 30
0.0
210
0.0
220
0.0
230
1.0
  2
SOLID
 70
     1
 71
     0
 91
        1
 92
        1
 93
        2
 72
     4
 94
        3
 73
     0
 74
     0
 95
       14
 96
       10
 40
0.0
 40
0.0
 40
0.0
 40
0.0
 40
0.0138888888888889
 40
0.0138888888888889
 40
0.0138888888888889
 40
0.0277777777777778
 40
0.0277777777777778
 40
0.0277777777777778
 40
0.0416666666666667
 40
0.0416666666666667
 40
0.0416666666666667
 40
0.0416666666666667
 10
5.121791805555555
 20
-1.748192369006852
 10
5.114237518163614
 20
-1.746538202340187
 10
5.109476407172779
 20
-1.740420146784635
 10
5.105854185042062
 20
-1.730770146784632
 10
5.10065974072884
 20
-1.716834035673527
 10
5.104877796177839
 20
-1.70182570234019
 10
5.115362518135194
 20
-1.697228480117966
 10
5.115362518135194
 20
-1.697228480117966
 10
5.12294458333334
 20
-1.693796535673528
 10
5.12294458333334
 20
-1.693796535673528
 97
        0
 72
     1
 10
5.12294458333334
 20
-1.693796535673528
 11
5.121791805555555
 21
-1.748192369006852
 97
        0
 75
     2
 76
     1
 98
        0
  0
SPLINE
  5
270
330
26A
100
AcDbEntity
  8
Nails
 62
   250
420
  2301728
370
    20
100
AcDbSpline
210
0.0
220
0.0
230
1.0
 70
     8
 71
     3
 72
    14
 73
    10
 74
     0
 42
0.0000000001
 43
0.0000000001
 12
1.0
 22
0.0
 32
0.0
 13
1.0
 23
0.0
 33
0.0
 40
0.0
 40
0.0
 40
0.0
 40
0.0
 40
1.0
 40
1.0
 40
1.0
 40
2.0
 40
2.0
 40
2.0
 40
3.0
 40
3.0
 40
3.0
 40
3.0
 10
5.124802795674491
 20
-1.696915980117966
 30
0.0
 10
5.121194583333337
 20
-1.695960424562423
 30
0.0
 10
5.118427795835538
 20
-1.695892369006856
 30
0.0
 10
5.114955573701031
 20
-1.697404869006858
 30
0.0
 10
5.104512518409289
 20
-1.70197570234019
 30
0.0
 10
5.100280574071753
 20
-1.716982646784635
 30
0.0
 10
5.105461129496436
 20
-1.730979869006849
 30
0.0
 10
5.10923196273451
 20
-1.741017369006853
 30
0.0
 10
5.116908351429477
 20
-1.747785424562405
 30
0.0
 10
5.124802795674491
 20
-1.749067369006853
 30
0.0
  0
ENDBLK
  5
26D
330
26A
100
AcDbEntity
  8
0
100
AcDbBlockEnd
  0
BLOCK
  5
27D
330
27B
100
AcDbEntity
  8
0
100
AcDbBlockBegin
  2
block 18
 70
     0
 10
0.0
 20
0.0
 30
0.0
  3
block 18
  1

  0
SPLINE
  5
27F
330
27B
100
AcDbEntity
  8
Nails
 62
   250
420
  2301728
370
    20
100
AcDbSpline
210
0.0
220
0.0
230
1.0
 70
    11
 71
     3
 72
    23
 73
    19
 74
     0
 42
0.0000000001
 43
0.0000000001
 12
1.0
 22
0.0
 32
0.0
 13
1.0
 23
0.0
 33
0.0
 40
0.0
 40
0.0
 40
0.0
 40
0.0
 40
1.0
 40
1.0
 40
1.0
 40
2.0
 40
2.0
 40
2.0
 40
3.0
 40
3.0
 40
3.0
 40
4.0
 40
4.0
 40
4.0
 40
5.0
 40
5.0
 40
5.0
 40
6.0
 40
6.0
 40
6.0
 40
6.0
 10
2.610500138888887
 20
-1.509747924562412
 30
0.0
 10
2.61990008117588
 20
-1.513843757895744
 30
0.0
 10
2.631373691997144
 20
-1.506988202340191
 30
0.0
 10
2.636073691878412
 20
-1.494428480117967
 30
0.0
 10
2.640752858426872
 20
-1.48188959122908
 30
0.0
 10
2.636955636300589
 20
-1.468379869006867
 30
0.0
 10
2.62751535876128
 20
-1.464243757895739
 30
0.0
 10
2.62751535876128
 20
-1.464243757895739
 30
0.0
 10
2.619011192309447
 20
-1.460546535673517
 30
0.0
 10
2.619011192309447
 20
-1.460546535673517
 30
0.0
 10
2.609625138888886
 20
-1.456396535673523
 30
0.0
 10
2.598170915058138
 20
-1.463272924562413
 30
0.0
 10
2.593423692955841
 20
-1.475860424562408
 30
0.0
 10
2.588751470851649
 20
-1.488392369006849
 30
0.0
 10
2.592569583333329
 20
-1.501915980117966
 30
0.0
 10
2.601982026072973
 20
-1.506072924562406
 30
0.0
 10
2.601982026072973
 20
-1.506072924562406
 30
0.0
 10
2.610500138888887
 20
-1.509747924562412
 30
0.0
 10
2.610500138888887
 20
-1.509747924562412
 30
0.0
  0
HATCH
  5
280
330
27B
100
AcDbEntity
  8
Nails
 62
   254
420
 13358815
100
AcDbHatch
 10
0.0
 20
0.0
 30
0.0
210
0.0
220
0.0
230
1.0
  2
SOLID
 70
     1
 71
     0
 91
        1
 92
        1
 93
        1
 72
     4
 94
        3
 73
     0
 74
     1
 95
       23
 96
       19
 40
0.0
 40
0.0
 40
0.0
 40
0.0
 40
1.0
 40
1.0
 40
1.0
 40
2.0
 40
2.0
 40
2.0
 40
3.0
 40
3.0
 40
3.0
 40
4.0
 40
4.0
 40
4.0
 40
5.0
 40
5.0
 40
5.0
 40
6.0
 40
6.0
 40
6.0
 40
6.0
 10
2.610500138888887
 20
-1.509747924562412
 10
2.61990008117588
 20
-1.513843757895744
 10
2.631373691997144
 20
-1.506988202340191
 10
2.636073691878412
 20
-1.494428480117967
 10
2.640752858426872
 20
-1.48188959122908
 10
2.636955636300589
 20
-1.468379869006867
 10
2.62751535876128
 20
-1.464243757895739
 10
2.62751535876128
 20
-1.464243757895739
 10
2.619011192309447
 20
-1.460546535673517
 10
2.619011192309447
 20
-1.460546535673517
 10
2.609625138888886
 20
-1.456396535673523
 10
2.598170915058138
 20
-1.463272924562413
 10
2.593423692955841
 20
-1.475860424562408
 10
2.588751470851649
 20
-1.488392369006849
 10
2.592569583333329
 20
-1.501915980117966
 10
2.601982026072973
 20
-1.506072924562406
 10
2.601982026072973
 20
-1.506072924562406
 10
2.610500138888887
 20
-1.509747924562412
 10
2.610500138888887
 20
-1.509747924562412
 97
        0
 97
        0
 75
     2
 76
     1
 98
        0
  0
SPLINE
  5
281
330
27B
100
AcDbEntity
  8
Nails
 62
   250
420
  2301728
370
    20
100
AcDbSpline
210
0.0
220
0.0
230
1.0
 70
    11
 71
     3
 72
    17
 73
    13
 74
     0
 42
0.0000000001
 43
0.0000000001
 12
1.0
 22
0.0
 32
0.0
 13
1.0
 23
0.0
 33
0.0
 40
0.0
 40
0.0
 40
0.0
 40
0.0
 40
1.0
 40
1.0
 40
1.0
 40
2.0
 40
2.0
 40
2.0
 40
3.0
 40
3.0
 40
3.0
 40
4.0
 40
4.0
 40
4.0
 40
4.0
 10
2.610866748070748
 20
-1.509897924562412
 30
0.0
 10
2.60139313719896
 20
-1.505814591229081
 30
0.0
 10
2.597587581739541
 20
-1.492271535673517
 30
0.0
 10
2.602308414953616
 20
-1.47970486900686
 30
0.0
 10
2.607034803723107
 20
-1.467159035673527
 30
0.0
 10
2.618462581212194
 20
-1.460289591229083
 30
0.0
 10
2.627882025418684
 20
-1.464399313451294
 30
0.0
 10
2.637280636292366
 20
-1.468515980117963
 30
0.0
 10
2.6410917473072
 20
-1.482017369006851
 30
0.0
 10
2.636426469647277
 20
-1.494618757895738
 30
0.0
 10
2.63171952532174
 20
-1.507150702340191
 30
0.0
 10
2.620252858944746
 20
-1.514020146784636
 30
0.0
 10
2.610866748070748
 20
-1.509897924562412
 30
0.0
  0
ENDBLK
  5
27E
330
27B
100
AcDbEntity
  8
0
100
AcDbBlockEnd
  0
ENDSEC
  0
SECTION
  2
ENTITIES
  0
INSERT
  5
42
330
1F
100
AcDbEntity
  8
Wood
100
AcDbBlockReference
  2
block 2
 10
0.0
 20
0.0
 30
0.0
  0
POLYLINE
  5
4F
330
1F
100
AcDbEntity
  8
Wood
 62
   250
420
  2301728
370
    20
100
AcDb2dPolyline
 66
     1
 10
0.0
 20
0.0
 30
0.0
  0
VERTEX
  5
50
330
4F
100
AcDbEntity
  8
Wood
 62
   250
420
  2301728
370
    20
100
AcDbVertex
100
AcDb2dVertex
 10
5.269850014232512
 20
-1.490915980117961
 30
0.0
  0
VERTEX
  5
51
330
4F
100
AcDbEntity
  8
Wood
 62
   250
420
  2301728
370
    20
100
AcDbVertex
100
AcDb2dVertex
 10
2.486415362325765
 20
-0.4393812578957497
 30
0.0
  0
SEQEND
  5
52
330
4F
100
AcDbEntity
  8
Wood
 62
   250
420
  2301728
370
    20
  0
POLYLINE
  5
53
330
1F
100
AcDbEntity
  8
Wood
 62
   250
420
  2301728
370
    20
100
AcDb2dPolyline
 66
     1
 10
0.0
 20
0.0
 30
0.0
  0
VERTEX
  5
54
330
53
100
AcDbEntity
  8
Wood
 62
   250
420
  2301728
370
    20
100
AcDbVertex
100
AcDb2dVertex
 10
5.269836125343974
 20
-1.490895146784636
 30
0.0
  0
VERTEX
  5
55
330
53
100
AcDbEntity
  8
Wood
 62
   250
420
  2301728
370
    20
100
AcDbVertex
100
AcDb2dVertex
 10
5.496629175170256
 20
-1.319440980117962
 30
0.0
  0
VERTEX
  5
56
330
53
100
AcDbEntity
  8
Wood
 62
   250
420
  2301728
370
    20
100
AcDbVertex
100
AcDb2dVertex
 10
5.497361249999989
 20
-2.471221535673521
 30
0.0
  0
VERTEX
  5
57
330
53
100
AcDbEntity
  8
Wood
 62
   250
420
  2301728
370
    20
100
AcDbVertex
100
AcDb2dVertex
 10
5.268194583333322
 20
-2.701547924562406
 30
0.0
  0
VERTEX
  5
58
330
53
100
AcDbEntity
  8
Wood
 62
   250
420
  2301728
370
    20
100
AcDbVertex
100
AcDb2dVertex
 10
2.48441536237629
 20
-1.436499313451299
 30
0.0
  0
VERTEX
  5
59
330
53
100
AcDbEntity
  8
Wood
 62
   250
420
  2301728
370
    20
100
AcDbVertex
100
AcDb2dVertex
 10
2.48441536237629
 20
-0.4373132023401922
 30
0.0
  0
VERTEX
  5
5A
330
53
100
AcDbEntity
  8
Wood
 62
   250
420
  2301728
370
    20
100
AcDbVertex
100
AcDb2dVertex
 10
2.754305694444446
 20
-0.339277091229077
 30
0.0
  0
VERTEX
  5
5B
330
53
100
AcDbEntity
  8
Wood
 62
   250
420
  2301728
370
    20
100
AcDbVertex
100
AcDb2dVertex
 10
5.496398619620524
 20
-1.318443757895744
 30
0.0
  0
SEQEND
  5
5C
330
53
100
AcDbEntity
  8
Wood
 62
   250
420
  2301728
370
    20
  0
POLYLINE
  5
5D
330
1F
100
AcDbEntity
  8
Wood
370
     0
100
AcDb2dPolyline
 66
     1
 10
0.0
 20
0.0
 30
0.0
  0
VERTEX
  5
5E
330
5D
100
AcDbEntity
  8
Wood
370
     0
100
AcDbVertex
100
AcDb2dVertex
 10
0.414970833333339
 20
-2.323652091229077
 30
0.0
  0
VERTEX
  5
5F
330
5D
100
AcDbEntity
  8
Wood
370
     0
100
AcDbVertex
100
AcDb2dVertex
 10
0.4184430555555612
 20
-1.86572570234019
 30
0.0
  0
VERTEX
  5
60
330
5D
100
AcDbEntity
  8
Wood
370
     0
100
AcDbVertex
100
AcDb2dVertex
 10
0.4757348611111132
 20
-1.81323542456241
 30
0.0
  0
VERTEX
  5
61
330
5D
100
AcDbEntity
  8
Wood
370
     0
100
AcDbVertex
100
AcDb2dVertex
 10
0.3594152777777834
 20
-1.712540980117966
 30
0.0
  0
VERTEX
  5
62
330
5D
100
AcDbEntity
  8
Wood
370
     0
100
AcDbVertex
100
AcDb2dVertex
 10
0.4219220833333313
 20
-1.654524313451298
 30
0.0
  0
VERTEX
  5
63
330
5D
100
AcDbEntity
  8
Wood
370
     0
100
AcDbVertex
100
AcDb2dVertex
 10
0.4196433333333339
 20
-1.179079869006854
 30
0.0
  0
VERTEX
  5
64
330
5D
100
AcDbEntity
  8
Wood
370
     0
100
AcDbVertex
100
AcDb2dVertex
 10
2.461655640729027
 20
-0.4515270912290816
 30
0.0
  0
VERTEX
  5
65
330
5D
100
AcDbEntity
  8
Wood
370
     0
100
AcDbVertex
100
AcDb2dVertex
 10
2.721509800831225
 20
-0.5544734801179629
 30
0.0
  0
VERTEX
  5
66
330
5D
100
AcDbEntity
  8
Wood
370
     0
100
AcDbVertex
100
AcDb2dVertex
 10
2.721509800831225
 20
-1.547949313451302
 30
0.0
  0
VERTEX
  5
67
330
5D
100
AcDbEntity
  8
Wood
370
     0
100
AcDbVertex
100
AcDb2dVertex
 10
0.6444695833333374
 20
-2.513349313451297
 30
0.0
  0
VERTEX
  5
68
330
5D
100
AcDbEntity
  8
Wood
370
     0
100
AcDbVertex
100
AcDb2dVertex
 10
0.414970833333339
 20
-2.323652091229077
 30
0.0
  0
SEQEND
  5
6A
330
5D
100
AcDbEntity
  8
Wood
370
     0
  0
HATCH
  5
69
330
1F
100
AcDbEntity
  8
Wood
 62
    43
420
 15510365
100
AcDbHatch
 10
0.0
 20
0.0
 30
0.0
210
0.0
220
0.0
230
1.0
  2
SOLID
 70
     1
 71
     0
 91
        1
 92
        1
 93
       10
 72
     1
 10
0.414970833333339
 20
-2.323652091229077
 11
0.4184430555555612
 21
-1.86572570234019
 72
     1
 10
0.4184430555555612
 20
-1.86572570234019
 11
0.4757348611111132
 21
-1.81323542456241
 72
     1
 10
0.4757348611111132
 20
-1.81323542456241
 11
0.3594152777777834
 21
-1.712540980117966
 72
     1
 10
0.3594152777777834
 20
-1.712540980117966
 11
0.4219220833333313
 21
-1.654524313451298
 72
     1
 10
0.4219220833333313
 20
-1.654524313451298
 11
0.4196433333333339
 21
-1.179079869006854
 72
     1
 10
0.4196433333333339
 20
-1.179079869006854
 11
2.461655640729027
 21
-0.4515270912290816
 72
     1
 10
2.461655640729027
 20
-0.4515270912290816
 11
2.721509800831225
 21
-0.5544734801179629
 72
     1
 10
2.721509800831225
 20
-0.5544734801179629
 11
2.721509800831225
 21
-1.547949313451302
 72
     1
 10
2.721509800831225
 20
-1.547949313451302
 11
0.6444695833333376
 21
-2.513349313451297
 72
     1
 10
0.6444695833333374
 20
-2.513349313451297
 11
0.414970833333339
 21
-2.323652091229077
 97
        0
 75
     2
 76
     1
 98
        0
  0
POLYLINE
  5
6B
330
1F
100
AcDbEntity
  8
Wood
 62
   250
420
  2301728
370
    13
100
AcDb2dPolyline
 66
     1
 10
0.0
 20
0.0
 30
0.0
  0
VERTEX
  5
6C
330
6B
100
AcDbEntity
  8
Wood
 62
   250
420
  2301728
370
    13
100
AcDbVertex
100
AcDb2dVertex
 10
5.326191679475869
 20
-1.449425702340186
 30
0.0
  0
VERTEX
  5
6D
330
6B
100
AcDbEntity
  8
Wood
 62
   250
420
  2301728
370
    13
100
AcDbVertex
100
AcDb2dVertex
 10
5.308477791034471
 20
-1.596181257895738
 30
0.0
  0
VERTEX
  5
6E
330
6B
100
AcDbEntity
  8
Wood
 62
   250
420
  2301728
370
    13
100
AcDbVertex
100
AcDb2dVertex
 10
5.305561124441485
 20
-1.768049313451305
 30
0.0
  0
VERTEX
  5
6F
330
6B
100
AcDbEntity
  8
Wood
 62
   250
420
  2301728
370
    13
100
AcDbVertex
100
AcDb2dVertex
 10
5.288241680434567
 20
-1.968122924562408
 30
0.0
  0
VERTEX
  5
70
330
6B
100
AcDbEntity
  8
Wood
 62
   250
420
  2301728
370
    13
100
AcDbVertex
100
AcDb2dVertex
 10
5.305955568875965
 20
-2.145239591229079
 30
0.0
  0
VERTEX
  5
71
330
6B
100
AcDbEntity
  8
Wood
 62
   250
420
  2301728
370
    13
100
AcDbVertex
100
AcDb2dVertex
 10
5.316494457498619
 20
-2.410234035673524
 30
0.0
  0
VERTEX
  5
72
330
6B
100
AcDbEntity
  8
Wood
 62
   250
420
  2301728
370
    13
100
AcDbVertex
100
AcDb2dVertex
 10
5.364141678517171
 20
-2.610795146784628
 30
0.0
  0
SEQEND
  5
73
330
6B
100
AcDbEntity
  8
Wood
 62
   250
420
  2301728
370
    13
  0
POLYLINE
  5
74
330
1F
100
AcDbEntity
  8
Wood
 62
   250
420
  2301728
370
    13
100
AcDb2dPolyline
 66
     1
 10
0.0
 20
0.0
 30
0.0
  0
VERTEX
  5
75
330
74
100
AcDbEntity
  8
Wood
 62
   250
420
  2301728
370
    13
100
AcDbVertex
100
AcDb2dVertex
 10
5.273050014151673
 20
-2.469106257895747
 30
0.0
  0
VERTEX
  5
76
330
74
100
AcDbEntity
  8
Wood
 62
   250
420
  2301728
370
    13
100
AcDbVertex
100
AcDb2dVertex
 10
5.316073624175917
 20
-2.65128264678463
 30
0.0
  0
SEQEND
  5
77
330
74
100
AcDbEntity
  8
Wood
 62
   250
420
  2301728
370
    13
  0
POLYLINE
  5
78
330
1F
100
AcDbEntity
  8
Wood
 62
   250
420
  2301728
370
    13
100
AcDb2dPolyline
 66
     1
 10
0.0
 20
0.0
 30
0.0
  0
VERTEX
  5
79
330
78
100
AcDbEntity
  8
Wood
 62
   250
420
  2301728
370
    13
100
AcDbVertex
100
AcDb2dVertex
 10
5.38185556695857
 20
-1.406409035673518
 30
0.0
  0
VERTEX
  5
7A
330
78
100
AcDbEntity
  8
Wood
 62
   250
420
  2301728
370
    13
100
AcDbVertex
100
AcDb2dVertex
 10
5.366677789564215
 20
-1.548104869006857
 30
0.0
  0
VERTEX
  5
7B
330
78
100
AcDbEntity
  8
Wood
 62
   250
420
  2301728
370
    13
100
AcDbVertex
100
AcDb2dVertex
 10
5.366677789564215
 20
-1.641720146784627
 30
0.0
  0
VERTEX
  5
7C
330
78
100
AcDbEntity
  8
Wood
 62
   250
420
  2301728
370
    13
100
AcDbVertex
100
AcDb2dVertex
 10
5.364141678517171
 20
-1.75305486900686
 30
0.0
  0
VERTEX
  5
7D
330
78
100
AcDbEntity
  8
Wood
 62
   250
420
  2301728
370
    13
100
AcDbVertex
100
AcDb2dVertex
 10
5.346427790075773
 20
-1.861853480117967
 30
0.0
  0
VERTEX
  5
7E
330
78
100
AcDbEntity
  8
Wood
 62
   250
420
  2301728
370
    13
100
AcDbVertex
100
AcDb2dVertex
 10
5.357834734232053
 20
-2.105600702340186
 30
0.0
  0
VERTEX
  5
7F
330
78
100
AcDbEntity
  8
Wood
 62
   250
420
  2301728
370
    13
100
AcDbVertex
100
AcDb2dVertex
 10
5.354498623205219
 20
-2.327152091229082
 30
0.0
  0
VERTEX
  5
80
330
78
100
AcDbEntity
  8
Wood
 62
   250
420
  2301728
370
    13
100
AcDbVertex
100
AcDb2dVertex
 10
5.404629177494371
 20
-2.557660424562414
 30
0.0
  0
SEQEND
  5
81
330
78
100
AcDbEntity
  8
Wood
 62
   250
420
  2301728
370
    13
  0
POLYLINE
  5
82
330
1F
100
AcDbEntity
  8
Wood
 62
   250
420
  2301728
370
    13
100
AcDb2dPolyline
 66
     1
 10
0.0
 20
0.0
 30
0.0
  0
VERTEX
  5
83
330
82
100
AcDbEntity
  8
Wood
 62
   250
420
  2301728
370
    13
100
AcDbVertex
100
AcDb2dVertex
 10
5.427401399141318
 20
-1.370988202340186
 30
0.0
  0
VERTEX
  5
84
330
82
100
AcDbEntity
  8
Wood
 62
   250
420
  2301728
370
    13
100
AcDbVertex
100
AcDb2dVertex
 10
5.417283343841366
 20
-1.578467369006855
 30
0.0
  0
VERTEX
  5
85
330
82
100
AcDbEntity
  8
Wood
 62
   250
420
  2301728
370
    13
100
AcDbVertex
100
AcDb2dVertex
 10
5.412223621746963
 20
-1.75305486900686
 30
0.0
  0
VERTEX
  5
86
330
82
100
AcDbEntity
  8
Wood
 62
   250
420
  2301728
370
    13
100
AcDbVertex
100
AcDb2dVertex
 10
5.397033344352924
 20
-1.874500702340192
 30
0.0
  0
VERTEX
  5
87
330
82
100
AcDbEntity
  8
Wood
 62
   250
420
  2301728
370
    13
100
AcDbVertex
100
AcDb2dVertex
 10
5.397548622117685
 20
-2.077809035673517
 30
0.0
  0
VERTEX
  5
88
330
82
100
AcDbEntity
  8
Wood
 62
   250
420
  2301728
370
    13
100
AcDbVertex
100
AcDb2dVertex
 10
5.400600010929489
 20
-2.249107646784637
 30
0.0
  0
VERTEX
  5
89
330
82
100
AcDbEntity
  8
Wood
 62
   250
420
  2301728
370
    13
100
AcDbVertex
100
AcDb2dVertex
 10
5.46535139818262
 20
-2.507056257895745
 30
0.0
  0
SEQEND
  5
8A
330
82
100
AcDbEntity
  8
Wood
 62
   250
420
  2301728
370
    13
  0
POLYLINE
  5
8B
330
1F
100
AcDbEntity
  8
Wood
 62
   250
420
  2301728
370
    13
100
AcDb2dPolyline
 66
     1
 10
0.0
 20
0.0
 30
0.0
  0
VERTEX
  5
8C
330
8B
100
AcDbEntity
  8
Wood
 62
   250
420
  2301728
370
    13
100
AcDbVertex
100
AcDb2dVertex
 10
5.470411120277023
 20
-1.330509035673521
 30
0.0
  0
VERTEX
  5
8D
330
8B
100
AcDbEntity
  8
Wood
 62
   250
420
  2301728
370
    13
100
AcDbVertex
100
AcDb2dVertex
 10
5.46535139818262
 20
-1.575938202340189
 30
0.0
  0
VERTEX
  5
8E
330
8B
100
AcDbEntity
  8
Wood
 62
   250
420
  2301728
370
    13
100
AcDbVertex
100
AcDb2dVertex
 10
5.470411120277023
 20
-1.742929869006856
 30
0.0
  0
VERTEX
  5
8F
330
8B
100
AcDbEntity
  8
Wood
 62
   250
420
  2301728
370
    13
100
AcDbVertex
100
AcDb2dVertex
 10
5.440055694444456
 20
-1.914988202340194
 30
0.0
  0
VERTEX
  5
90
330
8B
100
AcDbEntity
  8
Wood
 62
   250
420
  2301728
370
    13
100
AcDbVertex
100
AcDb2dVertex
 10
5.450702787441565
 20
-2.204354869006857
 30
0.0
  0
VERTEX
  5
91
330
8B
100
AcDbEntity
  8
Wood
 62
   250
420
  2301728
370
    13
100
AcDbVertex
100
AcDb2dVertex
 10
5.498243064018374
 20
-2.403315980117971
 30
0.0
  0
SEQEND
  5
92
330
8B
100
AcDbEntity
  8
Wood
 62
   250
420
  2301728
370
    13
  0
POLYLINE
  5
93
330
1F
100
AcDbEntity
  8
Wood
 62
   250
420
  2301728
370
    13
100
AcDb2dPolyline
 66
     1
 10
0.0
 20
0.0
 30
0.0
  0
VERTEX
  5
94
330
93
100
AcDbEntity
  8
Wood
 62
   250
420
  2301728
370
    13
100
AcDbVertex
100
AcDb2dVertex
 10
5.494038897457913
 20
-2.168345146784632
 30
0.0
  0
VERTEX
  5
95
330
93
100
AcDbEntity
  8
Wood
 62
   250
420
  2301728
370
    13
100
AcDbVertex
100
AcDb2dVertex
 10
5.483065286624019
 20
-2.049088202340184
 30
0.0
  0
VERTEX
  5
96
330
93
100
AcDbEntity
  8
Wood
 62
   250
420
  2301728
370
    13
100
AcDbVertex
100
AcDb2dVertex
 10
5.495720841859868
 20
-1.851728480117963
 30
0.0
  0
SEQEND
  5
97
330
93
100
AcDbEntity
  8
Wood
 62
   250
420
  2301728
370
    13
  0
POLYLINE
  5
98
330
1F
100
AcDbEntity
  8
Wood
 62
   250
420
  2301728
370
    20
100
AcDb2dPolyline
 66
     1
 10
0.0
 20
0.0
 30
0.0
  0
VERTEX
  5
99
330
98
100
AcDbEntity
  8
Wood
 62
   250
420
  2301728
370
    20
100
AcDbVertex
100
AcDb2dVertex
 10
5.268194583333322
 20
-1.491478480117962
 30
0.0
  0
VERTEX
  5
9A
330
98
100
AcDbEntity
  8
Wood
 62
   250
420
  2301728
370
    20
100
AcDbVertex
100
AcDb2dVertex
 10
5.268194583333322
 20
-2.698075702340184
 30
0.0
  0
SEQEND
  5
9B
330
98
100
AcDbEntity
  8
Wood
 62
   250
420
  2301728
370
    20
  0
POLYLINE
  5
9C
330
1F
100
AcDbEntity
  8
Wood
 62
   250
420
  2301728
370
    20
100
AcDb2dPolyline
 66
     1
 10
0.0
 20
0.0
 30
0.0
  0
VERTEX
  5
9D
330
9C
100
AcDbEntity
  8
Wood
 62
   250
420
  2301728
370
    20
100
AcDbVertex
100
AcDb2dVertex
 10
0.6428154166666723
 20
-1.351328480117963
 30
0.0
  0
VERTEX
  5
9E
330
9C
100
AcDbEntity
  8
Wood
 62
   250
420
  2301728
370
    20
100
AcDbVertex
100
AcDb2dVertex
 10
2.71950285643748
 20
-0.5545412578957464
 30
0.0
  0
SEQEND
  5
9F
330
9C
100
AcDbEntity
  8
Wood
 62
   250
420
  2301728
370
    20
  0
POLYLINE
  5
A0
330
1F
100
AcDbEntity
  8
Wood
 62
   250
420
  2301728
370
    20
100
AcDb2dPolyline
 66
     1
 10
0.0
 20
0.0
 30
0.0
  0
VERTEX
  5
A1
330
A0
100
AcDbEntity
  8
Wood
 62
   250
420
  2301728
370
    20
100
AcDbVertex
100
AcDb2dVertex
 10
0.4160355555555573
 20
-1.179853480117963
 30
0.0
  0
VERTEX
  5
28F
330
A0
100
AcDbEntity
  8
0
100
AcDbVertex
100
AcDb2dVertex
 10
0.4160355555555573
 20
-1.179853480117963
 30
0.0
  0
SEQEND
  5
A2
330
A0
100
AcDbEntity
  8
Wood
 62
   250
420
  2301728
370
    20
  0
POLYLINE
  5
A3
330
1F
100
AcDbEntity
  8
Wood
 62
   250
420
  2301728
370
    20
100
AcDb2dPolyline
 66
     1
 10
0.0
 20
0.0
 30
0.0
  0
VERTEX
  5
A4
330
A3
100
AcDbEntity
  8
Wood
 62
   250
420
  2301728
370
    20
100
AcDbVertex
100
AcDb2dVertex
 10
0.6444695833333374
 20
-2.509877091229075
 30
0.0
  0
VERTEX
  5
290
330
A3
100
AcDbEntity
  8
0
100
AcDbVertex
100
AcDb2dVertex
 10
0.6444695833333374
 20
-2.509877091229075
 30
0.0
  0
SEQEND
  5
A5
330
A3
100
AcDbEntity
  8
Wood
 62
   250
420
  2301728
370
    20
  0
POLYLINE
  5
A6
330
1F
100
AcDbEntity
  8
Wood
 62
   250
420
  2301728
370
    20
100
AcDb2dPolyline
 66
     1
 10
0.0
 20
0.0
 30
0.0
  0
VERTEX
  5
A7
330
A6
100
AcDbEntity
  8
Wood
 62
   250
420
  2301728
370
    20
100
AcDbVertex
100
AcDb2dVertex
 10
0.6444695833333374
 20
-1.351890980117964
 30
0.0
  0
VERTEX
  5
291
330
A6
100
AcDbEntity
  8
0
100
AcDbVertex
100
AcDb2dVertex
 10
0.6444695833333374
 20
-1.351890980117964
 30
0.0
  0
SEQEND
  5
A8
330
A6
100
AcDbEntity
  8
Wood
 62
   250
420
  2301728
370
    20
  0
POLYLINE
  5
A9
330
1F
100
AcDbEntity
  8
Wood
 62
   250
420
  2301728
370
    20
100
AcDb2dPolyline
 66
     1
 10
0.0
 20
0.0
 30
0.0
  0
VERTEX
  5
AA
330
A9
100
AcDbEntity
  8
Wood
 62
   250
420
  2301728
370
    20
100
AcDbVertex
100
AcDb2dVertex
 10
0.4173647222222219
 20
-1.65486320234019
 30
0.0
  0
VERTEX
  5
AB
330
A9
100
AcDbEntity
  8
Wood
 62
   250
420
  2301728
370
    20
100
AcDbVertex
100
AcDb2dVertex
 10
0.3576791666666723
 20
-1.713070146784629
 30
0.0
  0
VERTEX
  5
AC
330
A9
100
AcDbEntity
  8
Wood
 62
   250
420
  2301728
370
    20
100
AcDbVertex
100
AcDb2dVertex
 10
0.4757348611111132
 20
-1.815575702340185
 30
0.0
  0
VERTEX
  5
AD
330
A9
100
AcDbEntity
  8
Wood
 62
   250
420
  2301728
370
    20
100
AcDbVertex
100
AcDb2dVertex
 10
0.4191551388888936
 20
-1.864457646784634
 30
0.0
  0
VERTEX
  5
AE
330
A9
100
AcDbEntity
  8
Wood
 62
   250
420
  2301728
370
    20
100
AcDbVertex
100
AcDb2dVertex
 10
0.4160762499999969
 20
-2.325232646784634
 30
0.0
  0
VERTEX
  5
AF
330
A9
100
AcDbEntity
  8
Wood
 62
   250
420
  2301728
370
    20
100
AcDbVertex
100
AcDb2dVertex
 10
0.6444695833333374
 20
-2.513349313451297
 30
0.0
  0
VERTEX
  5
B0
330
A9
100
AcDbEntity
  8
Wood
 62
   250
420
  2301728
370
    20
100
AcDbVertex
100
AcDb2dVertex
 10
2.721509800831225
 20
-1.547657646784627
 30
0.0
  0
VERTEX
  5
B1
330
A9
100
AcDbEntity
  8
Wood
 62
   250
420
  2301728
370
    20
100
AcDbVertex
100
AcDb2dVertex
 10
2.721509800831225
 20
-0.5524729245624055
 30
0.0
  0
VERTEX
  5
B2
330
A9
100
AcDbEntity
  8
Wood
 62
   250
420
  2301728
370
    20
100
AcDbVertex
100
AcDb2dVertex
 10
2.461629251840804
 20
-0.4524368134512997
 30
0.0
  0
VERTEX
  5
B3
330
A9
100
AcDbEntity
  8
Wood
 62
   250
420
  2301728
370
    20
100
AcDbVertex
100
AcDb2dVertex
 10
0.4185583333333321
 20
-1.178538202340191
 30
0.0
  0
VERTEX
  5
B4
330
A9
100
AcDbEntity
  8
Wood
 62
   250
420
  2301728
370
    20
100
AcDbVertex
100
AcDb2dVertex
 10
0.4173647222222219
 20
-1.65486320234019
 30
0.0
  0
SEQEND
  5
B5
330
A9
100
AcDbEntity
  8
Wood
 62
   250
420
  2301728
370
    20
  0
POLYLINE
  5
B6
330
1F
100
AcDbEntity
  8
Wood
 62
   250
420
  2301728
370
    20
100
AcDb2dPolyline
 66
     1
 10
0.0
 20
0.0
 30
0.0
  0
VERTEX
  5
B7
330
B6
100
AcDbEntity
  8
Wood
 62
   250
420
  2301728
370
    20
100
AcDbVertex
100
AcDb2dVertex
 10
0.6406654166666688
 20
-1.841013202340188
 30
0.0
  0
VERTEX
  5
B8
330
B6
100
AcDbEntity
  8
Wood
 62
   250
420
  2301728
370
    20
100
AcDbVertex
100
AcDb2dVertex
 10
0.4173647222222219
 20
-1.65486320234019
 30
0.0
  0
SEQEND
  5
B9
330
B6
100
AcDbEntity
  8
Wood
 62
   250
420
  2301728
370
    20
  0
POLYLINE
  5
BA
330
1F
100
AcDbEntity
  8
Wood
 62
   250
420
  2301728
370
    20
100
AcDb2dPolyline
 66
     1
 10
0.0
 20
0.0
 30
0.0
  0
VERTEX
  5
BB
330
BA
100
AcDbEntity
  8
Wood
 62
   250
420
  2301728
370
    20
100
AcDbVertex
100
AcDb2dVertex
 10
0.6406654166666688
 20
-2.056290980117966
 30
0.0
  0
VERTEX
  5
BC
330
BA
100
AcDbEntity
  8
Wood
 62
   250
420
  2301728
370
    20
100
AcDbVertex
100
AcDb2dVertex
 10
0.4190872222222247
 20
-1.865949313451311
 30
0.0
  0
SEQEND
  5
BD
330
BA
100
AcDbEntity
  8
Wood
 62
   250
420
  2301728
370
    20
  0
POLYLINE
  5
BE
330
1F
100
AcDbEntity
  8
Wood
 62
   250
420
  2301728
370
    20
100
AcDb2dPolyline
 66
     1
 10
0.0
 20
0.0
 30
0.0
  0
VERTEX
  5
BF
330
BE
100
AcDbEntity
  8
Wood
 62
   250
420
  2301728
370
    20
100
AcDbVertex
100
AcDb2dVertex
 10
0.6419473611111167
 20
-2.508825702340194
 30
0.0
  0
VERTEX
  5
C0
330
BE
100
AcDbEntity
  8
Wood
 62
   250
420
  2301728
370
    20
100
AcDbVertex
100
AcDb2dVertex
 10
0.6386779166666656
 20
-2.057952091229077
 30
0.0
  0
VERTEX
  5
C1
330
BE
100
AcDbEntity
  8
Wood
 62
   250
420
  2301728
370
    20
100
AcDbVertex
100
AcDb2dVertex
 10
0.6927487500000021
 20
-1.997263202340188
 30
0.0
  0
VERTEX
  5
C2
330
BE
100
AcDbEntity
  8
Wood
 62
   250
420
  2301728
370
    20
100
AcDbVertex
100
AcDb2dVertex
 10
0.6930126388888943
 20
-1.996734035673525
 30
0.0
  0
VERTEX
  5
C3
330
BE
100
AcDbEntity
  8
Wood
 62
   250
420
  2301728
370
    20
100
AcDbVertex
100
AcDb2dVertex
 10
0.4777348611111165
 20
-1.81791459122908
 30
0.0
  0
SEQEND
  5
C4
330
BE
100
AcDbEntity
  8
Wood
 62
   250
420
  2301728
370
    20
  0
POLYLINE
  5
C5
330
1F
100
AcDbEntity
  8
Wood
 62
   250
420
  2301728
370
    20
100
AcDb2dPolyline
 66
     1
 10
0.0
 20
0.0
 30
0.0
  0
VERTEX
  5
C6
330
C5
100
AcDbEntity
  8
Wood
 62
   250
420
  2301728
370
    20
100
AcDbVertex
100
AcDb2dVertex
 10
0.4190601388888934
 20
-1.181372924562412
 30
0.0
  0
VERTEX
  5
C7
330
C5
100
AcDbEntity
  8
Wood
 62
   250
420
  2301728
370
    20
100
AcDbVertex
100
AcDb2dVertex
 10
0.6490404166666697
 20
-1.34867709122908
 30
0.0
  0
VERTEX
  5
C8
330
C5
100
AcDbEntity
  8
Wood
 62
   250
420
  2301728
370
    20
100
AcDbVertex
100
AcDb2dVertex
 10
0.6415543055555493
 20
-1.8432993134513
 30
0.0
  0
VERTEX
  5
C9
330
C5
100
AcDbEntity
  8
Wood
 62
   250
420
  2301728
370
    20
100
AcDbVertex
100
AcDb2dVertex
 10
0.5764293055555577
 20
-1.898304869006855
 30
0.0
  0
SEQEND
  5
CA
330
C5
100
AcDbEntity
  8
Wood
 62
   250
420
  2301728
370
    20
  0
POLYLINE
  5
CB
330
1F
100
AcDbEntity
  8
Wood
 62
   250
420
  2301728
370
    20
100
AcDb2dPolyline
 66
     1
 10
0.0
 20
0.0
 30
0.0
  0
VERTEX
  5
CC
330
CB
100
AcDbEntity
  8
Wood
 62
   250
420
  2301728
370
    20
100
AcDbVertex
100
AcDb2dVertex
 10
0.6030543055555502
 20
-1.327931257895746
 30
0.0
  0
VERTEX
  5
292
330
CB
100
AcDbEntity
  8
0
100
AcDbVertex
100
AcDb2dVertex
 10
0.6030543055555502
 20
-1.327931257895746
 30
0.0
  0
SEQEND
  5
CD
330
CB
100
AcDbEntity
  8
Wood
 62
   250
420
  2301728
370
    20
  0
POLYLINE
  5
CE
330
1F
100
AcDbEntity
  8
Wood
 62
   250
420
  2301728
370
    15
100
AcDb2dPolyline
 66
     1
 10
0.0
 20
0.0
 30
0.0
  0
VERTEX
  5
CF
330
CE
100
AcDbEntity
  8
Wood
 62
   250
420
  2301728
370
    15
100
AcDbVertex
100
AcDb2dVertex
 10
0.6389293055555577
 20
-1.34448542456241
 30
0.0
  0
VERTEX
  5
D0
330
CE
100
AcDbEntity
  8
Wood
 62
   250
420
  2301728
370
    15
100
AcDbVertex
100
AcDb2dVertex
 10
0.612887638888891
 20
-1.558027091229077
 30
0.0
  0
VERTEX
  5
D1
330
CE
100
AcDbEntity
  8
Wood
 62
   250
420
  2301728
370
    15
100
AcDbVertex
100
AcDb2dVertex
 10
0.628512638888891
 20
-1.830596535673521
 30
0.0
  0
VERTEX
  5
D2
330
CE
100
AcDbEntity
  8
Wood
 62
   250
420
  2301728
370
    15
100
AcDbVertex
100
AcDb2dVertex
 10
0.566012638888891
 20
-1.89136042456241
 30
0.0
  0
SEQEND
  5
D3
330
CE
100
AcDbEntity
  8
Wood
 62
   250
420
  2301728
370
    15
  0
POLYLINE
  5
D4
330
1F
100
AcDbEntity
  8
Wood
 62
   250
420
  2301728
370
    15
100
AcDb2dPolyline
 66
     1
 10
0.0
 20
0.0
 30
0.0
  0
VERTEX
  5
D5
330
D4
100
AcDbEntity
  8
Wood
 62
   250
420
  2301728
370
    15
100
AcDbVertex
100
AcDb2dVertex
 10
0.6007348611111133
 20
-1.314971535673521
 30
0.0
  0
VERTEX
  5
D6
330
D4
100
AcDbEntity
  8
Wood
 62
   250
420
  2301728
370
    15
100
AcDbVertex
100
AcDb2dVertex
 10
0.5752695833333392
 20
-1.555714591229073
 30
0.0
  0
VERTEX
  5
D7
330
D4
100
AcDbEntity
  8
Wood
 62
   250
420
  2301728
370
    15
100
AcDbVertex
100
AcDb2dVertex
 10
0.5885820833333355
 20
-1.801082646784632
 30
0.0
  0
VERTEX
  5
D8
330
D4
100
AcDbEntity
  8
Wood
 62
   250
420
  2301728
370
    15
100
AcDbVertex
100
AcDb2dVertex
 10
0.5278181944444466
 20
-1.854902091229077
 30
0.0
  0
SEQEND
  5
D9
330
D4
100
AcDbEntity
  8
Wood
 62
   250
420
  2301728
370
    15
  0
POLYLINE
  5
DA
330
1F
100
AcDbEntity
  8
Wood
 62
   250
420
  2301728
370
    15
100
AcDb2dPolyline
 66
     1
 10
0.0
 20
0.0
 30
0.0
  0
VERTEX
  5
DB
330
DA
100
AcDbEntity
  8
Wood
 62
   250
420
  2301728
370
    15
100
AcDbVertex
100
AcDb2dVertex
 10
0.5590681944444466
 20
-1.285457646784632
 30
0.0
  0
VERTEX
  5
DC
330
DA
100
AcDbEntity
  8
Wood
 62
   250
420
  2301728
370
    15
100
AcDbVertex
100
AcDb2dVertex
 10
0.5179779166666726
 20
-1.56613125789574
 30
0.0
  0
VERTEX
  5
DD
330
DA
100
AcDbEntity
  8
Wood
 62
   250
420
  2301728
370
    15
100
AcDbVertex
100
AcDb2dVertex
 10
0.5503529166666618
 20
-1.771806257895744
 30
0.0
  0
VERTEX
  5
DE
330
DA
100
AcDbEntity
  8
Wood
 62
   250
420
  2301728
370
    15
100
AcDbVertex
100
AcDb2dVertex
 10
0.4861515277777799
 20
-1.823652091229077
 30
0.0
  0
SEQEND
  5
DF
330
DA
100
AcDbEntity
  8
Wood
 62
   250
420
  2301728
370
    15
  0
POLYLINE
  5
E0
330
1F
100
AcDbEntity
  8
Wood
 62
   250
420
  2301728
370
    15
100
AcDb2dPolyline
 66
     1
 10
0.0
 20
0.0
 30
0.0
  0
VERTEX
  5
E1
330
E0
100
AcDbEntity
  8
Wood
 62
   250
420
  2301728
370
    15
100
AcDbVertex
100
AcDb2dVertex
 10
0.5208737500000021
 20
-1.255943757895744
 30
0.0
  0
VERTEX
  5
E2
330
E0
100
AcDbEntity
  8
Wood
 62
   250
420
  2301728
370
    15
100
AcDbVertex
100
AcDb2dVertex
 10
0.4693666666666634
 20
-1.547034035673518
 30
0.0
  0
VERTEX
  5
E3
330
E0
100
AcDbEntity
  8
Wood
 62
   250
420
  2301728
370
    15
100
AcDbVertex
100
AcDb2dVertex
 10
0.5056084722222194
 20
-1.735510424562411
 30
0.0
  0
VERTEX
  5
E4
330
E0
100
AcDbEntity
  8
Wood
 62
   250
420
  2301728
370
    15
100
AcDbVertex
100
AcDb2dVertex
 10
0.4427486111111167
 20
-1.787193757895744
 30
0.0
  0
SEQEND
  5
E5
330
E0
100
AcDbEntity
  8
Wood
 62
   250
420
  2301728
370
    15
  0
POLYLINE
  5
E6
330
1F
100
AcDbEntity
  8
Wood
 62
   250
420
  2301728
370
    15
100
AcDb2dPolyline
 66
     1
 10
0.0
 20
0.0
 30
0.0
  0
VERTEX
  5
E7
330
E6
100
AcDbEntity
  8
Wood
 62
   250
420
  2301728
370
    15
100
AcDbVertex
100
AcDb2dVertex
 10
0.4757348611111132
 20
-1.224693757895744
 30
0.0
  0
VERTEX
  5
E8
330
E6
100
AcDbEntity
  8
Wood
 62
   250
420
  2301728
370
    15
100
AcDbVertex
100
AcDb2dVertex
 10
0.4201791666666723
 20
-1.545874313451299
 30
0.0
  0
SEQEND
  5
E9
330
E6
100
AcDbEntity
  8
Wood
 62
   250
420
  2301728
370
    15
  0
POLYLINE
  5
EA
330
1F
100
AcDbEntity
  8
Wood
 62
   250
420
  2301728
370
    15
100
AcDb2dPolyline
 66
     1
 10
0.0
 20
0.0
 30
0.0
  0
VERTEX
  5
EB
330
EA
100
AcDbEntity
  8
Wood
 62
   250
420
  2301728
370
    15
100
AcDbVertex
100
AcDb2dVertex
 10
0.4201791666666723
 20
-1.543561813451295
 30
0.0
  0
VERTEX
  5
EC
330
EA
100
AcDbEntity
  8
Wood
 62
   250
420
  2301728
370
    15
100
AcDbVertex
100
AcDb2dVertex
 10
0.4524666666666614
 20
-1.685393757895756
 30
0.0
  0
VERTEX
  5
ED
330
EA
100
AcDbEntity
  8
Wood
 62
   250
420
  2301728
370
    15
100
AcDbVertex
100
AcDb2dVertex
 10
0.3924013888888945
 20
-1.740318757895744
 30
0.0
  0
SEQEND
  5
EE
330
EA
100
AcDbEntity
  8
Wood
 62
   250
420
  2301728
370
    15
  0
POLYLINE
  5
EF
330
1F
100
AcDbEntity
  8
Wood
 62
   250
420
  2301728
370
    15
100
AcDb2dPolyline
 66
     1
 10
0.0
 20
0.0
 30
0.0
  0
VERTEX
  5
F0
330
EF
100
AcDbEntity
  8
Wood
 62
   250
420
  2301728
370
    15
100
AcDbVertex
100
AcDb2dVertex
 10
0.4403613888888837
 20
-1.19581042456241
 30
0.0
  0
VERTEX
  5
F1
330
EF
100
AcDbEntity
  8
Wood
 62
   250
420
  2301728
370
    15
100
AcDbVertex
100
AcDb2dVertex
 10
0.41723583333333
 20
-1.342302091229082
 30
0.0
  0
SEQEND
  5
F2
330
EF
100
AcDbEntity
  8
Wood
 62
   250
420
  2301728
370
    15
  0
POLYLINE
  5
F3
330
1F
100
AcDbEntity
  8
Wood
 62
   250
420
  2301728
370
    15
100
AcDb2dPolyline
 66
     1
 10
0.0
 20
0.0
 30
0.0
  0
VERTEX
  5
F4
330
F3
100
AcDbEntity
  8
Wood
 62
   250
420
  2301728
370
    15
100
AcDbVertex
100
AcDb2dVertex
 10
0.5434431944444466
 20
-1.87573542456241
 30
0.0
  0
VERTEX
  5
F5
330
F3
100
AcDbEntity
  8
Wood
 62
   250
420
  2301728
370
    15
100
AcDbVertex
100
AcDb2dVertex
 10
0.4923293055555606
 20
-1.930375702340194
 30
0.0
  0
VERTEX
  5
F6
330
F3
100
AcDbEntity
  8
Wood
 62
   250
420
  2301728
370
    15
100
AcDbVertex
100
AcDb2dVertex
 10
0.5469154166666688
 20
-2.169138202340188
 30
0.0
  0
VERTEX
  5
F7
330
F3
100
AcDbEntity
  8
Wood
 62
   250
420
  2301728
370
    15
100
AcDbVertex
100
AcDb2dVertex
 10
0.5208737500000021
 20
-2.40698542456241
 30
0.0
  0
SEQEND
  5
F8
330
F3
100
AcDbEntity
  8
Wood
 62
   250
420
  2301728
370
    15
  0
POLYLINE
  5
F9
330
1F
100
AcDbEntity
  8
Wood
 62
   250
420
  2301728
370
    15
100
AcDb2dPolyline
 66
     1
 10
0.0
 20
0.0
 30
0.0
  0
VERTEX
  5
FA
330
F9
100
AcDbEntity
  8
Wood
 62
   250
420
  2301728
370
    15
100
AcDbVertex
100
AcDb2dVertex
 10
0.5903181944444466
 20
-1.912193757895744
 30
0.0
  0
VERTEX
  5
FB
330
F9
100
AcDbEntity
  8
Wood
 62
   250
420
  2301728
370
    15
100
AcDbVertex
100
AcDb2dVertex
 10
0.5339959722222274
 20
-1.965097924562416
 30
0.0
  0
VERTEX
  5
FC
330
F9
100
AcDbEntity
  8
Wood
 62
   250
420
  2301728
370
    15
100
AcDbVertex
100
AcDb2dVertex
 10
0.5868459722222243
 20
-2.207332646784633
 30
0.0
  0
VERTEX
  5
FD
330
F9
100
AcDbEntity
  8
Wood
 62
   250
420
  2301728
370
    15
100
AcDbVertex
100
AcDb2dVertex
 10
0.5608043055555577
 20
-2.445179869006854
 30
0.0
  0
SEQEND
  5
FE
330
F9
100
AcDbEntity
  8
Wood
 62
   250
420
  2301728
370
    15
  0
POLYLINE
  5
FF
330
1F
100
AcDbEntity
  8
Wood
 62
   250
420
  2301728
370
    15
100
AcDb2dPolyline
 66
     1
 10
0.0
 20
0.0
 30
0.0
  0
VERTEX
  5
100
330
FF
100
AcDbEntity
  8
Wood
 62
   250
420
  2301728
370
    15
100
AcDbVertex
100
AcDb2dVertex
 10
0.6337209722222243
 20
-1.946915980117966
 30
0.0
  0
VERTEX
  5
101
330
FF
100
AcDbEntity
  8
Wood
 62
   250
420
  2301728
370
    15
100
AcDbVertex
100
AcDb2dVertex
 10
0.5799015277777799
 20
-2.002471535673521
 30
0.0
  0
VERTEX
  5
102
330
FF
100
AcDbEntity
  8
Wood
 62
   250
420
  2301728
370
    15
100
AcDbVertex
100
AcDb2dVertex
 10
0.6233043055555577
 20
-2.221221535673521
 30
0.0
  0
VERTEX
  5
103
330
FF
100
AcDbEntity
  8
Wood
 62
   250
420
  2301728
370
    15
100
AcDbVertex
100
AcDb2dVertex
 10
0.6146237500000021
 20
-2.29761042456241
 30
0.0
  0
VERTEX
  5
104
330
FF
100
AcDbEntity
  8
Wood
 62
   250
420
  2301728
370
    15
100
AcDbVertex
100
AcDb2dVertex
 10
0.6024709722222243
 20
-2.479902091229077
 30
0.0
  0
SEQEND
  5
105
330
FF
100
AcDbEntity
  8
Wood
 62
   250
420
  2301728
370
    15
  0
POLYLINE
  5
106
330
1F
100
AcDbEntity
  8
Wood
 62
   250
420
  2301728
370
    15
100
AcDb2dPolyline
 66
     1
 10
0.0
 20
0.0
 30
0.0
  0
VERTEX
  5
107
330
106
100
AcDbEntity
  8
Wood
 62
   250
420
  2301728
370
    15
100
AcDbVertex
100
AcDb2dVertex
 10
0.4739986111111167
 20
-2.363582646784633
 30
0.0
  0
VERTEX
  5
108
330
106
100
AcDbEntity
  8
Wood
 62
   250
420
  2301728
370
    15
100
AcDbVertex
100
AcDb2dVertex
 10
0.4983043055555577
 20
-2.150040980117966
 30
0.0
  0
VERTEX
  5
109
330
106
100
AcDbEntity
  8
Wood
 62
   250
420
  2301728
370
    15
100
AcDbVertex
100
AcDb2dVertex
 10
0.446220833333339
 20
-1.893096535673521
 30
0.0
  0
VERTEX
  5
10A
330
106
100
AcDbEntity
  8
Wood
 62
   250
420
  2301728
370
    15
100
AcDbVertex
100
AcDb2dVertex
 10
0.5017765277777799
 20
-1.841013202340188
 30
0.0
  0
SEQEND
  5
10B
330
106
100
AcDbEntity
  8
Wood
 62
   250
420
  2301728
370
    15
  0
POLYLINE
  5
10C
330
1F
100
AcDbEntity
  8
Wood
 62
   250
420
  2301728
370
    15
100
AcDb2dPolyline
 66
     1
 10
0.0
 20
0.0
 30
0.0
  0
VERTEX
  5
10D
330
10C
100
AcDbEntity
  8
Wood
 62
   250
420
  2301728
370
    15
100
AcDbVertex
100
AcDb2dVertex
 10
0.4201791666666723
 20
-1.96948542456241
 30
0.0
  0
VERTEX
  5
10E
330
10C
100
AcDbEntity
  8
Wood
 62
   250
420
  2301728
370
    15
100
AcDbVertex
100
AcDb2dVertex
 10
0.4578920833333389
 20
-2.160634035673525
 30
0.0
  0
VERTEX
  5
10F
330
10C
100
AcDbEntity
  8
Wood
 62
   250
420
  2301728
370
    15
100
AcDbVertex
100
AcDb2dVertex
 10
0.4358041666666723
 20
-2.342749313451299
 30
0.0
  0
SEQEND
  5
110
330
10C
100
AcDbEntity
  8
Wood
 62
   250
420
  2301728
370
    15
  0
POLYLINE
  5
111
330
1F
100
AcDbEntity
  8
Wood
 62
   250
420
  2301728
370
    15
100
AcDb2dPolyline
 66
     1
 10
0.0
 20
0.0
 30
0.0
  0
VERTEX
  5
112
330
111
100
AcDbEntity
  8
Wood
 62
   250
420
  2301728
370
    15
100
AcDbVertex
100
AcDb2dVertex
 10
0.6736515277777799
 20
-1.979902091229077
 30
0.0
  0
VERTEX
  5
113
330
111
100
AcDbEntity
  8
Wood
 62
   250
420
  2301728
370
    15
100
AcDbVertex
100
AcDb2dVertex
 10
0.6180959722222243
 20
-2.037193757895744
 30
0.0
  0
VERTEX
  5
114
330
111
100
AcDbEntity
  8
Wood
 62
   250
420
  2301728
370
    15
100
AcDbVertex
100
AcDb2dVertex
 10
0.6371931944444466
 20
-2.134415980117966
 30
0.0
  0
SEQEND
  5
115
330
111
100
AcDbEntity
  8
Wood
 62
   250
420
  2301728
370
    15
  0
MTEXT
  5
117
330
1F
100
AcDbEntity
  8
callout
 62
   250
420
  2301728
100
AcDbMText
 10
1.924273485819488
 20
-3.199934906429714
 30
0.0
 40
0.118
 41
0.0
 46
0.0
 71
     7
 72
     1
  1
\fHelvetica Neue LT Std 55 Roman|b0|i0|c0|p34;\W1;SIMPSON Strong-Tie\H0.068794;®\H0.118; 
 73
     1
 44
1.0
  0
MTEXT
  5
118
330
1F
100
AcDbEntity
  8
callout
 62
   250
420
  2301728
100
AcDbMText
 10
1.747312222798655
 20
-3.399926768408881
 30
0.0
 40
0.118
 41
0.0
 46
0.0
 71
     7
 72
     1
  1
\fHelvetica Neue LT Std 55 Roman|b0|i0|c0|p34;\W1;IUC/HUC/SAIX Installed on 
 73
     1
 44
1.0
  0
MTEXT
  5
119
330
1F
100
AcDbEntity
  8
callout
 62
   250
420
  2301728
100
AcDbMText
 10
2.206886604309072
 20
-3.599932193756104
 30
0.0
 40
0.118
 41
0.0
 46
0.0
 71
     7
 72
     1
  1
\fHelvetica Neue LT Std 55 Roman|b0|i0|c0|p34;\W1;End of a Beam
 73
     1
 44
1.0
  0
MTEXT
  5
11A
330
1F
100
AcDbEntity
  8
callout
 62
   250
420
  2301728
100
AcDbMText
 10
2.167303398132314
 20
-2.380334350797865
 30
0.0
 40
0.118
 41
0.0
 46
0.0
 71
     7
 72
     1
  1
\fHelvetica Neue LT Std 57 Condensed|b0|i0|c0|p34;\W1;Joist
 73
     1
 44
1.0
  0
INSERT
  5
11C
330
1F
100
AcDbEntity
  8
callout
100
AcDbBlockReference
  2
block 3
 10
0.0
 20
0.0
 30
0.0
  0
MTEXT
  5
12A
330
1F
100
AcDbEntity
  8
callout
 62
   250
420
  2301728
100
AcDbMText
 10
5.102158647325293
 20
-0.5871562957763672
 30
0.0
 40
0.118
 41
0.0
 46
0.0
 71
     7
 72
     1
  1
\fHelvetica Neue LT Std 57 Condensed|b0|i0|c0|p34;\W1;Beam
 73
     1
 44
1.0
  0
SPLINE
  5
12C
330
1F
100
AcDbEntity
  8
IUC
370
     0
100
AcDbSpline
210
0.0
220
0.0
230
1.0
 70
    11
 71
     3
 72
    26
 73
    22
 74
     0
 42
0.0000000001
 43
0.0000000001
 12
1.0
 22
0.0
 32
0.0
 13
1.0
 23
0.0
 33
0.0
 40
0.0
 40
0.0
 40
0.0
 40
0.0
 40
1.0
 40
1.0
 40
1.0
 40
2.0
 40
2.0
 40
2.0
 40
3.0
 40
3.0
 40
3.0
 40
4.0
 40
4.0
 40
4.0
 40
5.0
 40
5.0
 40
5.0
 40
6.0
 40
6.0
 40
6.0
 40
7.0
 40
7.0
 40
7.0
 40
7.0
 10
2.575295915636009
 20
-0.4930313967846334
 30
0.0
 10
2.575295915636009
 20
-0.4930313967846334
 30
0.0
 10
2.576184804502443
 20
-0.4751479245624068
 30
0.0
 10
2.576184804502443
 20
-0.4751479245624068
 30
0.0
 10
2.576184804502443
 20
-0.4751479245624068
 30
0.0
 10
2.488050084506691
 20
-0.4406562578957391
 30
0.0
 10
2.479112584732472
 20
-0.4370826467846377
 30
0.0
 10
2.470173696069398
 20
-0.4335090356735236
 30
0.0
 10
2.459437585229504
 20
-0.4308229245624109
 30
0.0
 10
2.446030641123747
 20
-0.4361868134512987
 30
0.0
 10
2.432623697017991
 20
-0.4415520912290781
 30
0.0
 10
2.35906958333333
 20
-0.4684812578957462
 30
0.0
 10
2.35906958333333
 20
-0.4684812578957462
 30
0.0
 10
2.35906958333333
 20
-0.4684812578957462
 30
0.0
 10
2.358173698898756
 20
-0.4861480634512974
 30
0.0
 10
2.358173698898756
 20
-0.4861480634512974
 30
0.0
 10
2.358173698898756
 20
-0.4861480634512974
 30
0.0
 10
2.460333472222222
 20
-0.447817369006859
 30
0.0
 10
2.460333472222222
 20
-0.447817369006859
 30
0.0
 10
2.460333472222222
 20
-0.447817369006859
 30
0.0
 10
2.575295915636009
 20
-0.4930313967846334
 30
0.0
 10
2.575295915636009
 20
-0.4930313967846334
 30
0.0
  0
HATCH
  5
12D
330
1F
100
AcDbEntity
  8
IUC
 62
   254
420
 13358815
100
AcDbHatch
 10
0.0
 20
0.0
 30
0.0
210
0.0
220
0.0
230
1.0
  2
SOLID
 70
     1
 71
     0
 91
        1
 92
        1
 93
        1
 72
     4
 94
        3
 73
     0
 74
     1
 95
       26
 96
       22
 40
0.0
 40
0.0
 40
0.0
 40
0.0
 40
1.0
 40
1.0
 40
1.0
 40
2.0
 40
2.0
 40
2.0
 40
3.0
 40
3.0
 40
3.0
 40
4.0
 40
4.0
 40
4.0
 40
5.0
 40
5.0
 40
5.0
 40
6.0
 40
6.0
 40
6.0
 40
7.0
 40
7.0
 40
7.0
 40
7.0
 10
2.575295915636009
 20
-0.4930313967846334
 10
2.575295915636009
 20
-0.4930313967846334
 10
2.576184804502443
 20
-0.4751479245624068
 10
2.576184804502443
 20
-0.4751479245624068
 10
2.576184804502443
 20
-0.4751479245624068
 10
2.488050084506691
 20
-0.4406562578957391
 10
2.479112584732472
 20
-0.4370826467846377
 10
2.470173696069398
 20
-0.4335090356735236
 10
2.459437585229504
 20
-0.4308229245624109
 10
2.446030641123747
 20
-0.4361868134512987
 10
2.432623697017991
 20
-0.4415520912290781
 10
2.35906958333333
 20
-0.4684812578957462
 10
2.35906958333333
 20
-0.4684812578957462
 10
2.35906958333333
 20
-0.4684812578957462
 10
2.358173698898756
 20
-0.4861480634512974
 10
2.358173698898756
 20
-0.4861480634512974
 10
2.358173698898756
 20
-0.4861480634512974
 10
2.460333472222222
 20
-0.447817369006859
 10
2.460333472222222
 20
-0.447817369006859
 10
2.460333472222222
 20
-0.447817369006859
 10
2.575295915636009
 20
-0.4930313967846334
 10
2.575295915636009
 20
-0.4930313967846334
 97
        0
 97
        0
 75
     2
 76
     1
 98
        0
  0
SPLINE
  5
12E
330
1F
100
AcDbEntity
  8
IUC
370
     0
100
AcDbSpline
210
0.0
220
0.0
230
1.0
 70
    11
 71
     3
 72
    92
 73
    88
 74
     0
 42
0.0000000001
 43
0.0000000001
 12
1.0
 22
0.0
 32
0.0
 13
1.0
 23
0.0
 33
0.0
 40
0.0
 40
0.0
 40
0.0
 40
0.0
 40
1.0
 40
1.0
 40
1.0
 40
2.0
 40
2.0
 40
2.0
 40
3.0
 40
3.0
 40
3.0
 40
4.0
 40
4.0
 40
4.0
 40
5.0
 40
5.0
 40
5.0
 40
6.0
 40
6.0
 40
6.0
 40
7.0
 40
7.0
 40
7.0
 40
8.0
 40
8.0
 40
8.0
 40
9.0
 40
9.0
 40
9.0
 40
10.0
 40
10.0
 40
10.0
 40
11.0
 40
11.0
 40
11.0
 40
12.0
 40
12.0
 40
12.0
 40
13.0
 40
13.0
 40
13.0
 40
14.0
 40
14.0
 40
14.0
 40
15.0
 40
15.0
 40
15.0
 40
16.0
 40
16.0
 40
16.0
 40
17.0
 40
17.0
 40
17.0
 40
18.0
 40
18.0
 40
18.0
 40
19.0
 40
19.0
 40
19.0
 40
20.0
 40
20.0
 40
20.0
 40
21.0
 40
21.0
 40
21.0
 40
22.0
 40
22.0
 40
22.0
 40
23.0
 40
23.0
 40
23.0
 40
24.0
 40
24.0
 40
24.0
 40
25.0
 40
25.0
 40
25.0
 40
26.0
 40
26.0
 40
26.0
 40
27.0
 40
27.0
 40
27.0
 40
28.0
 40
28.0
 40
28.0
 40
29.0
 40
29.0
 40
29.0
 40
29.0
 10
5.261386125557439
 20
-2.463822924562414
 30
0.0
 10
5.261386125557439
 20
-2.463822924562414
 30
0.0
 10
5.228454181944926
 20
-2.525047924562412
 30
0.0
 10
5.228454181944926
 20
-2.525047924562412
 30
0.0
 10
5.227423626415404
 20
-2.564618757895737
 30
0.0
 10
5.228454181944926
 20
-2.732214591229081
 30
0.0
 10
5.228454181944926
 20
-2.732214591229081
 30
0.0
 10
5.228454181944926
 20
-2.732214591229081
 30
0.0
 10
5.052048630845749
 20
-2.885256257895738
 30
0.0
 10
5.052048630845749
 20
-2.885256257895738
 30
0.0
 10
5.048983353145407
 20
-2.886586813451294
 30
0.0
 10
5.039881964486439
 20
-2.887386813451295
 30
0.0
 10
5.039881964486439
 20
-2.887386813451295
 30
0.0
 10
5.039881964486439
 20
-2.887386813451295
 30
0.0
 10
4.704501417403308
 20
-2.726354869006855
 30
0.0
 10
4.704501417403308
 20
-2.726354869006855
 30
0.0
 10
4.697366695361325
 20
-2.723649313451296
 30
0.0
 10
4.696526417604773
 20
-2.715063202340187
 30
0.0
 10
4.696526417604773
 20
-2.715063202340187
 30
0.0
 10
4.696526417604773
 20
-2.715063202340187
 30
0.0
 10
4.697475028691921
 20
-2.48800625789574
 30
0.0
 10
4.697475028691921
 20
-2.48800625789574
 30
0.0
 10
4.697475028691921
 20
-2.48800625789574
 30
0.0
 10
4.703036139662546
 20
-2.47042153567352
 30
0.0
 10
4.703036139662546
 20
-2.47042153567352
 30
0.0
 10
4.703036139662546
 20
-2.47042153567352
 30
0.0
 10
4.790086137463478
 20
-2.270409035673525
 30
0.0
 10
4.790086137463478
 20
-2.270409035673525
 30
0.0
 10
4.790086137463478
 20
-2.270409035673525
 30
0.0
 10
4.792337526295492
 20
-2.25314236900686
 30
0.0
 10
4.792337526295492
 20
-2.25314236900686
 30
0.0
 10
4.792337526295492
 20
-2.25314236900686
 30
0.0
 10
4.790547248562941
 20
-1.445695146784626
 30
0.0
 10
4.790547248562941
 20
-1.445695146784626
 30
0.0
 10
4.790547248562941
 20
-1.445695146784626
 30
0.0
 10
4.922030578574726
 20
-1.371361813451295
 30
0.0
 10
4.922030578574726
 20
-1.371361813451295
 30
0.0
 10
4.924552800733232
 20
-1.370710424562415
 30
0.0
 10
4.928758356182546
 20
-1.370378480117968
 30
0.0
 10
4.928758356182546
 20
-1.370378480117968
 30
0.0
 10
4.928758356182546
 20
-1.370378480117968
 30
0.0
 10
5.05191390862693
 20
-1.414527091229072
 30
0.0
 10
5.05191390862693
 20
-1.414527091229072
 30
0.0
 10
5.05191390862693
 20
-1.414527091229072
 30
0.0
 10
5.051208472222217
 20
-2.27807986900685
 30
0.0
 10
5.051208472222217
 20
-2.27807986900685
 30
0.0
 10
5.051208472222217
 20
-2.27807986900685
 30
0.0
 10
4.933938911607229
 20
-2.372107646784634
 30
0.0
 10
4.933938911607229
 20
-2.372107646784634
 30
0.0
 10
4.9326500227509
 20
-2.372710424562405
 30
0.0
 10
4.888583472222232
 20
-2.434431257895742
 30
0.0
 10
4.89124169046363
 20
-2.428456257895744
 30
0.0
 10
4.89124169046363
 20
-2.428456257895744
 30
0.0
 10
4.89124169046363
 20
-2.606781257895742
 30
0.0
 10
4.89124169046363
 20
-2.606781257895742
 30
0.0
 10
4.889531968284599
 20
-2.61369098011797
 30
0.0
 10
4.898077801402047
 20
-2.617515980117964
 30
0.0
 10
4.898077801402047
 20
-2.617515980117964
 30
0.0
 10
4.898077801402047
 20
-2.617515980117964
 30
0.0
 10
5.037169464554962
 20
-2.680999313451303
 30
0.0
 10
5.037169464554962
 20
-2.680999313451303
 30
0.0
 10
5.037169464554962
 20
-2.680999313451303
 30
0.0
 10
5.036491686794307
 20
-2.633331257895748
 30
0.0
 10
5.036491686794307
 20
-2.633331257895748
 30
0.0
 10
5.036491686794307
 20
-2.633331257895748
 30
0.0
 10
5.127054184506505
 20
-2.399688202340182
 30
0.0
 10
5.127054184506505
 20
-2.399688202340182
 30
0.0
 10
5.127054184506505
 20
-2.399688202340182
 30
0.0
 10
5.12701402777778
 20
-2.320763202340193
 30
0.0
 10
5.12701402777778
 20
-2.320763202340193
 30
0.0
 10
5.12701402777778
 20
-2.320763202340193
 30
0.0
 10
5.108363907200883
 20
-2.302059035673526
 30
0.0
 10
5.108363907200883
 20
-2.302059035673526
 30
0.0
 10
5.108363907200883
 20
-2.302059035673526
 30
0.0
 10
5.107956962766719
 20
-1.448739591229077
 30
0.0
 10
5.107956962766719
 20
-1.448739591229077
 30
0.0
 10
5.107956962766719
 20
-1.448739591229077
 30
0.0
 10
5.122375138888881
 20
-1.44034514678463
 30
0.0
 10
5.122375138888881
 20
-1.44034514678463
 30
0.0
 10
5.122375138888881
 20
-1.44034514678463
 30
0.0
 10
5.260708472222228
 20
-1.490977091229082
 30
0.0
 10
5.260708472222228
 20
-1.490977091229082
 30
0.0
 10
5.260708472222228
 20
-1.490977091229082
 30
0.0
 10
5.260788903350304
 20
-1.883289591229072
 30
0.0
 10
5.260788903350304
 20
-1.883289591229072
 30
0.0
 10
5.260788903350304
 20
-1.889414591229082
 30
0.0
 10
5.261386125557439
 20
-2.463822924562414
 30
0.0
 10
5.261386125557439
 20
-2.463822924562414
 30
0.0
  0
POLYLINE
  5
12F
330
1F
100
AcDbEntity
  8
IUC
370
     0
100
AcDb2dPolyline
 66
     1
 10
0.0
 20
0.0
 30
0.0
  0
VERTEX
  5
130
330
12F
100
AcDbEntity
  8
IUC
370
     0
100
AcDbVertex
100
AcDb2dVertex
 10
4.831372247531615
 20
-2.141442369006856
 30
0.0
  0
VERTEX
  5
131
330
12F
100
AcDbEntity
  8
IUC
370
     0
100
AcDbVertex
100
AcDb2dVertex
 10
4.819139027777788
 20
-2.151845146784631
 30
0.0
  0
VERTEX
  5
132
330
12F
100
AcDbEntity
  8
IUC
370
     0
100
AcDbVertex
100
AcDb2dVertex
 10
4.831372247531615
 20
-2.162092369006852
 30
0.0
  0
VERTEX
  5
133
330
12F
100
AcDbEntity
  8
IUC
370
     0
100
AcDbVertex
100
AcDb2dVertex
 10
4.831372247531615
 20
-2.141442369006856
 30
0.0
  0
SEQEND
  5
134
330
12F
100
AcDbEntity
  8
IUC
370
     0
  0
POLYLINE
  5
135
330
1F
100
AcDbEntity
  8
IUC
370
     0
100
AcDb2dPolyline
 66
     1
 10
0.0
 20
0.0
 30
0.0
  0
VERTEX
  5
136
330
135
100
AcDbEntity
  8
IUC
370
     0
100
AcDbVertex
100
AcDb2dVertex
 10
4.831372247531615
 20
-1.981306257895742
 30
0.0
  0
VERTEX
  5
137
330
135
100
AcDbEntity
  8
IUC
370
     0
100
AcDbVertex
100
AcDb2dVertex
 10
4.819139027777788
 20
-1.991722924562408
 30
0.0
  0
VERTEX
  5
138
330
135
100
AcDbEntity
  8
IUC
370
     0
100
AcDbVertex
100
AcDb2dVertex
 10
4.831372247531615
 20
-2.00195625789575
 30
0.0
  0
VERTEX
  5
139
330
135
100
AcDbEntity
  8
IUC
370
     0
100
AcDbVertex
100
AcDb2dVertex
 10
4.831372247531615
 20
-1.981306257895742
 30
0.0
  0
SEQEND
  5
13A
330
135
100
AcDbEntity
  8
IUC
370
     0
  0
POLYLINE
  5
13B
330
1F
100
AcDbEntity
  8
IUC
370
     0
100
AcDb2dPolyline
 66
     1
 10
0.0
 20
0.0
 30
0.0
  0
VERTEX
  5
13C
330
13B
100
AcDbEntity
  8
IUC
370
     0
100
AcDbVertex
100
AcDb2dVertex
 10
4.831372247531615
 20
-1.824729869006849
 30
0.0
  0
VERTEX
  5
13D
330
13B
100
AcDbEntity
  8
IUC
370
     0
100
AcDbVertex
100
AcDb2dVertex
 10
4.819139027777788
 20
-1.835146535673516
 30
0.0
  0
VERTEX
  5
13E
330
13B
100
AcDbEntity
  8
IUC
370
     0
100
AcDbVertex
100
AcDb2dVertex
 10
4.831372247531615
 20
-1.845381257895749
 30
0.0
  0
VERTEX
  5
13F
330
13B
100
AcDbEntity
  8
IUC
370
     0
100
AcDbVertex
100
AcDb2dVertex
 10
4.831372247531615
 20
-1.824729869006849
 30
0.0
  0
SEQEND
  5
140
330
13B
100
AcDbEntity
  8
IUC
370
     0
  0
SPLINE
  5
141
330
1F
100
AcDbEntity
  8
IUC
370
     0
100
AcDbSpline
210
0.0
220
0.0
230
1.0
 70
    11
 71
     3
 72
    17
 73
    13
 74
     0
 42
0.0000000001
 43
0.0000000001
 12
1.0
 22
0.0
 32
0.0
 13
1.0
 23
0.0
 33
0.0
 40
0.0
 40
0.0
 40
0.0
 40
0.0
 40
1.0
 40
1.0
 40
1.0
 40
2.0
 40
2.0
 40
2.0
 40
3.0
 40
3.0
 40
3.0
 40
4.0
 40
4.0
 40
4.0
 40
4.0
 10
4.736415305485985
 20
-2.515790980117963
 30
0.0
 10
4.732848638909419
 20
-2.517825702340183
 30
0.0
 10
4.729729194543779
 20
-2.520145146784633
 30
0.0
 10
4.728861250000009
 20
-2.526506257895739
 30
0.0
 10
4.728115305695661
 20
-2.53198542456241
 30
0.0
 10
4.729661138989942
 20
-2.537071535673527
 30
0.0
 10
4.732265305590823
 20
-2.540679869006857
 30
0.0
 10
4.735831972167388
 20
-2.538671535673517
 30
0.0
 10
4.73781252767291
 20
-2.534888202340186
 30
0.0
 10
4.738313916549132
 20
-2.528377091229079
 30
0.0
 10
4.738666805555567
 20
-2.524200702340194
 30
0.0
 10
4.738409749880045
 20
-2.519968757895741
 30
0.0
 10
4.736415305485985
 20
-2.515790980117963
 30
0.0
  0
SPLINE
  5
142
330
1F
100
AcDbEntity
  8
IUC
370
     0
100
AcDbSpline
210
0.0
220
0.0
230
1.0
 70
    11
 71
     3
 72
    17
 73
    13
 74
     0
 42
0.0000000001
 43
0.0000000001
 12
1.0
 22
0.0
 32
0.0
 13
1.0
 23
0.0
 33
0.0
 40
0.0
 40
0.0
 40
0.0
 40
0.0
 40
1.0
 40
1.0
 40
1.0
 40
2.0
 40
2.0
 40
2.0
 40
3.0
 40
3.0
 40
3.0
 40
4.0
 40
4.0
 40
4.0
 40
4.0
 10
5.081833472222216
 20
-2.664567369006856
 30
0.0
 10
5.078240296850759
 20
-2.666927091229089
 30
0.0
 10
5.075119463596264
 20
-2.66947709122908
 30
0.0
 10
5.074251408062637
 20
-2.67590625789574
 30
0.0
 10
5.073505574748146
 20
-2.681427091229074
 30
0.0
 10
5.075065296930966
 20
-2.68635070234019
 30
0.0
 10
5.077697241308922
 20
-2.689727091229075
 30
0.0
 10
5.081291805555566
 20
-2.687395146784638
 30
0.0
 10
5.08324446339101
 20
-2.683447924562415
 30
0.0
 10
5.08375974115577
 20
-2.676950702340188
 30
0.0
 10
5.084098630036098
 20
-2.672718757895748
 30
0.0
 10
5.083827796709607
 20
-2.668554869006849
 30
0.0
 10
5.081833472222216
 20
-2.664567369006856
 30
0.0
  0
HATCH
  5
143
330
1F
100
AcDbEntity
  8
IUC
 62
   254
420
 13358815
100
AcDbHatch
 10
0.0
 20
0.0
 30
0.0
210
0.0
220
0.0
230
1.0
  2
SOLID
 70
     1
 71
     0
 91
        6
 92
        1
 93
        1
 72
     4
 94
        3
 73
     0
 74
     1
 95
       92
 96
       88
 40
0.0
 40
0.0
 40
0.0
 40
0.0
 40
1.0
 40
1.0
 40
1.0
 40
2.0
 40
2.0
 40
2.0
 40
3.0
 40
3.0
 40
3.0
 40
4.0
 40
4.0
 40
4.0
 40
5.0
 40
5.0
 40
5.0
 40
6.0
 40
6.0
 40
6.0
 40
7.0
 40
7.0
 40
7.0
 40
8.0
 40
8.0
 40
8.0
 40
9.0
 40
9.0
 40
9.0
 40
10.0
 40
10.0
 40
10.0
 40
11.0
 40
11.0
 40
11.0
 40
12.0
 40
12.0
 40
12.0
 40
13.0
 40
13.0
 40
13.0
 40
14.0
 40
14.0
 40
14.0
 40
15.0
 40
15.0
 40
15.0
 40
16.0
 40
16.0
 40
16.0
 40
17.0
 40
17.0
 40
17.0
 40
18.0
 40
18.0
 40
18.0
 40
19.0
 40
19.0
 40
19.0
 40
20.0
 40
20.0
 40
20.0
 40
21.0
 40
21.0
 40
21.0
 40
22.0
 40
22.0
 40
22.0
 40
23.0
 40
23.0
 40
23.0
 40
24.0
 40
24.0
 40
24.0
 40
25.0
 40
25.0
 40
25.0
 40
26.0
 40
26.0
 40
26.0
 40
27.0
 40
27.0
 40
27.0
 40
28.0
 40
28.0
 40
28.0
 40
29.0
 40
29.0
 40
29.0
 40
29.0
 10
5.261386125557439
 20
-2.463822924562414
 10
5.261386125557439
 20
-2.463822924562414
 10
5.228454181944926
 20
-2.525047924562412
 10
5.228454181944926
 20
-2.525047924562412
 10
5.227423626415404
 20
-2.564618757895737
 10
5.228454181944926
 20
-2.732214591229081
 10
5.228454181944926
 20
-2.732214591229081
 10
5.228454181944926
 20
-2.732214591229081
 10
5.052048630845749
 20
-2.885256257895738
 10
5.052048630845749
 20
-2.885256257895738
 10
5.048983353145407
 20
-2.886586813451294
 10
5.039881964486439
 20
-2.887386813451295
 10
5.039881964486439
 20
-2.887386813451295
 10
5.039881964486439
 20
-2.887386813451295
 10
4.704501417403308
 20
-2.726354869006855
 10
4.704501417403308
 20
-2.726354869006855
 10
4.697366695361325
 20
-2.723649313451296
 10
4.696526417604773
 20
-2.715063202340187
 10
4.696526417604773
 20
-2.715063202340187
 10
4.696526417604773
 20
-2.715063202340187
 10
4.697475028691921
 20
-2.48800625789574
 10
4.697475028691921
 20
-2.48800625789574
 10
4.697475028691921
 20
-2.48800625789574
 10
4.703036139662546
 20
-2.47042153567352
 10
4.703036139662546
 20
-2.47042153567352
 10
4.703036139662546
 20
-2.47042153567352
 10
4.790086137463478
 20
-2.270409035673525
 10
4.790086137463478
 20
-2.270409035673525
 10
4.790086137463478
 20
-2.270409035673525
 10
4.792337526295492
 20
-2.25314236900686
 10
4.792337526295492
 20
-2.25314236900686
 10
4.792337526295492
 20
-2.25314236900686
 10
4.790547248562941
 20
-1.445695146784626
 10
4.790547248562941
 20
-1.445695146784626
 10
4.790547248562941
 20
-1.445695146784626
 10
4.922030578574726
 20
-1.371361813451295
 10
4.922030578574726
 20
-1.371361813451295
 10
4.924552800733232
 20
-1.370710424562415
 10
4.928758356182546
 20
-1.370378480117968
 10
4.928758356182546
 20
-1.370378480117968
 10
4.928758356182546
 20
-1.370378480117968
 10
5.05191390862693
 20
-1.414527091229072
 10
5.05191390862693
 20
-1.414527091229072
 10
5.05191390862693
 20
-1.414527091229072
 10
5.051208472222217
 20
-2.27807986900685
 10
5.051208472222217
 20
-2.27807986900685
 10
5.051208472222217
 20
-2.27807986900685
 10
4.933938911607229
 20
-2.372107646784634
 10
4.933938911607229
 20
-2.372107646784634
 10
4.9326500227509
 20
-2.372710424562405
 10
4.888583472222232
 20
-2.434431257895742
 10
4.89124169046363
 20
-2.428456257895744
 10
4.89124169046363
 20
-2.428456257895744
 10
4.89124169046363
 20
-2.606781257895742
 10
4.89124169046363
 20
-2.606781257895742
 10
4.889531968284599
 20
-2.61369098011797
 10
4.898077801402047
 20
-2.617515980117964
 10
4.898077801402047
 20
-2.617515980117964
 10
4.898077801402047
 20
-2.617515980117964
 10
5.037169464554962
 20
-2.680999313451303
 10
5.037169464554962
 20
-2.680999313451303
 10
5.037169464554962
 20
-2.680999313451303
 10
5.036491686794307
 20
-2.633331257895748
 10
5.036491686794307
 20
-2.633331257895748
 10
5.036491686794307
 20
-2.633331257895748
 10
5.127054184506505
 20
-2.399688202340182
 10
5.127054184506505
 20
-2.399688202340182
 10
5.127054184506505
 20
-2.399688202340182
 10
5.12701402777778
 20
-2.320763202340193
 10
5.12701402777778
 20
-2.320763202340193
 10
5.12701402777778
 20
-2.320763202340193
 10
5.108363907200883
 20
-2.302059035673526
 10
5.108363907200883
 20
-2.302059035673526
 10
5.108363907200883
 20
-2.302059035673526
 10
5.107956962766719
 20
-1.448739591229077
 10
5.107956962766719
 20
-1.448739591229077
 10
5.107956962766719
 20
-1.448739591229077
 10
5.122375138888881
 20
-1.44034514678463
 10
5.122375138888881
 20
-1.44034514678463
 10
5.122375138888881
 20
-1.44034514678463
 10
5.260708472222228
 20
-1.490977091229082
 10
5.260708472222228
 20
-1.490977091229082
 10
5.260708472222228
 20
-1.490977091229082
 10
5.260788903350304
 20
-1.883289591229072
 10
5.260788903350304
 20
-1.883289591229072
 10
5.260788903350304
 20
-1.889414591229082
 10
5.261386125557439
 20
-2.463822924562414
 10
5.261386125557439
 20
-2.463822924562414
 97
        0
 97
        0
 92
        1
 93
        3
 72
     1
 10
4.831372247531615
 20
-2.141442369006856
 11
4.819139027777788
 21
-2.151845146784631
 72
     1
 10
4.819139027777788
 20
-2.151845146784631
 11
4.831372247531615
 21
-2.162092369006852
 72
     1
 10
4.831372247531615
 20
-2.162092369006852
 11
4.831372247531615
 21
-2.141442369006856
 97
        0
 92
        1
 93
        3
 72
     1
 10
4.831372247531615
 20
-1.981306257895742
 11
4.819139027777788
 21
-1.991722924562408
 72
     1
 10
4.819139027777788
 20
-1.991722924562408
 11
4.831372247531615
 21
-2.00195625789575
 72
     1
 10
4.831372247531615
 20
-2.00195625789575
 11
4.831372247531615
 21
-1.981306257895742
 97
        0
 92
        1
 93
        3
 72
     1
 10
4.831372247531615
 20
-1.824729869006849
 11
4.819139027777788
 21
-1.835146535673516
 72
     1
 10
4.819139027777788
 20
-1.835146535673516
 11
4.831372247531615
 21
-1.845381257895749
 72
     1
 10
4.831372247531615
 20
-1.845381257895749
 11
4.831372247531615
 21
-1.824729869006849
 97
        0
 92
        1
 93
        1
 72
     4
 94
        3
 73
     0
 74
     1
 95
       17
 96
       13
 40
0.0
 40
0.0
 40
0.0
 40
0.0
 40
1.0
 40
1.0
 40
1.0
 40
2.0
 40
2.0
 40
2.0
 40
3.0
 40
3.0
 40
3.0
 40
4.0
 40
4.0
 40
4.0
 40
4.0
 10
4.736415305485985
 20
-2.515790980117963
 10
4.732848638909419
 20
-2.517825702340183
 10
4.729729194543779
 20
-2.520145146784633
 10
4.728861250000009
 20
-2.526506257895739
 10
4.728115305695661
 20
-2.53198542456241
 10
4.729661138989942
 20
-2.537071535673527
 10
4.732265305590823
 20
-2.540679869006857
 10
4.735831972167388
 20
-2.538671535673517
 10
4.73781252767291
 20
-2.534888202340186
 10
4.738313916549132
 20
-2.528377091229079
 10
4.738666805555567
 20
-2.524200702340194
 10
4.738409749880045
 20
-2.519968757895741
 10
4.736415305485985
 20
-2.515790980117963
 97
        0
 97
        0
 92
        1
 93
        1
 72
     4
 94
        3
 73
     0
 74
     1
 95
       17
 96
       13
 40
0.0
 40
0.0
 40
0.0
 40
0.0
 40
1.0
 40
1.0
 40
1.0
 40
2.0
 40
2.0
 40
2.0
 40
3.0
 40
3.0
 40
3.0
 40
4.0
 40
4.0
 40
4.0
 40
4.0
 10
5.081833472222216
 20
-2.664567369006856
 10
5.078240296850759
 20
-2.666927091229089
 10
5.075119463596264
 20
-2.66947709122908
 10
5.074251408062637
 20
-2.67590625789574
 10
5.073505574748146
 20
-2.681427091229074
 10
5.075065296930966
 20
-2.68635070234019
 10
5.077697241308922
 20
-2.689727091229075
 10
5.081291805555566
 20
-2.687395146784638
 10
5.08324446339101
 20
-2.683447924562415
 10
5.08375974115577
 20
-2.676950702340188
 10
5.084098630036098
 20
-2.672718757895748
 10
5.083827796709607
 20
-2.668554869006849
 10
5.081833472222216
 20
-2.664567369006856
 97
        0
 97
        0
 75
     2
 76
     1
 98
        0
  0
POLYLINE
  5
144
330
1F
100
AcDbEntity
  8
IUC
 62
   250
420
  2301728
370
    20
100
AcDb2dPolyline
 66
     1
 10
0.0
 20
0.0
 30
0.0
  0
VERTEX
  5
145
330
144
100
AcDbEntity
  8
IUC
 62
   250
420
  2301728
370
    20
100
AcDbVertex
100
AcDb2dVertex
 10
5.035555694444434
 20
-1.42492986900686
 30
0.0
  0
VERTEX
  5
146
330
144
100
AcDbEntity
  8
IUC
 62
   250
420
  2301728
370
    20
100
AcDbVertex
100
AcDb2dVertex
 10
5.051615297523363
 20
-1.414153480117963
 30
0.0
  0
SEQEND
  5
147
330
144
100
AcDbEntity
  8
IUC
 62
   250
420
  2301728
370
    20
  0
POLYLINE
  5
148
330
1F
100
AcDbEntity
  8
IUC
 62
   250
420
  2301728
370
    15
100
AcDb2dPolyline
 66
     1
 10
0.0
 20
0.0
 30
0.0
  0
VERTEX
  5
149
330
148
100
AcDbEntity
  8
IUC
 62
   250
420
  2301728
370
    15
100
AcDbVertex
100
AcDb2dVertex
 10
5.108295851647047
 20
-1.452510424562408
 30
0.0
  0
VERTEX
  5
14A
330
148
100
AcDbEntity
  8
IUC
 62
   250
420
  2301728
370
    15
100
AcDbVertex
100
AcDb2dVertex
 10
5.222906959862838
 20
-1.49480764678463
 30
0.0
  0
SEQEND
  5
14B
330
148
100
AcDbEntity
  8
IUC
 62
   250
420
  2301728
370
    15
  0
SPLINE
  5
14C
330
1F
100
AcDbEntity
  8
IUC
 62
   250
420
  2301728
370
    15
100
AcDbSpline
210
0.0
220
0.0
230
1.0
 70
     8
 71
     3
 72
    23
 73
    19
 74
     0
 42
0.0000000001
 43
0.0000000001
 12
1.0
 22
0.0
 32
0.0
 13
1.0
 23
0.0
 33
0.0
 40
0.0
 40
0.0
 40
0.0
 40
0.0
 40
1.0
 40
1.0
 40
1.0
 40
2.0
 40
2.0
 40
2.0
 40
3.0
 40
3.0
 40
3.0
 40
4.0
 40
4.0
 40
4.0
 40
5.0
 40
5.0
 40
5.0
 40
6.0
 40
6.0
 40
6.0
 40
6.0
 10
5.258795847845097
 20
-1.490142369006852
 30
0.0
 10
5.258795847845097
 20
-1.490142369006852
 30
0.0
 10
5.266486249999994
 20
-1.493275702340194
 30
0.0
 10
5.256923625670171
 20
-1.492902091229073
 30
0.0
 10
5.256923625670171
 20
-1.492902091229073
 30
0.0
 10
5.144443072956114
 20
-1.562035424562408
 30
0.0
 10
5.144443072956114
 20
-1.562035424562408
 30
0.0
 10
5.144443072956114
 20
-1.562035424562408
 30
0.0
 10
5.144443072956114
 20
-2.40300486900685
 30
0.0
 10
5.144443072956114
 20
-2.40300486900685
 30
0.0
 10
5.144443072956114
 20
-2.40300486900685
 30
0.0
 10
5.051655575300123
 20
-2.642513202340183
 30
0.0
 10
5.051655575300123
 20
-2.642513202340183
 30
0.0
 10
5.051655575300123
 20
-2.642513202340183
 30
0.0
 10
5.051655575300123
 20
-2.876318757895749
 30
0.0
 10
5.051655575300123
 20
-2.876318757895749
 30
0.0
 10
5.051655575300123
 20
-2.876318757895749
 30
0.0
 10
5.049444583333322
 20
-2.889047924562406
 30
0.0
 10
5.037875138888896
 20
-2.884415980117966
 30
0.0
  0
SPLINE
  5
14D
330
1F
100
AcDbEntity
  8
IUC
 62
   250
420
  2301728
370
    25
100
AcDbSpline
210
0.0
220
0.0
230
1.0
 70
     8
 71
     3
 72
    11
 73
     7
 74
     0
 42
0.0000000001
 43
0.0000000001
 12
1.0
 22
0.0
 32
0.0
 13
1.0
 23
0.0
 33
0.0
 40
0.0
 40
0.0
 40
0.0
 40
0.0
 40
1.0
 40
1.0
 40
1.0
 40
2.0
 40
2.0
 40
2.0
 40
2.0
 10
5.036275020133113
 20
-2.673749313451304
 30
0.0
 10
5.036275020133113
 20
-2.673749313451304
 30
0.0
 10
5.035244464603592
 20
-2.86207014678463
 30
0.0
 10
5.035244464603592
 20
-2.86207014678463
 30
0.0
 10
5.035244464603592
 20
-2.86207014678463
 30
0.0
 10
5.034809742392351
 20
-2.864810424562405
 30
0.0
 10
5.032802797998607
 20
-2.864749313451297
 30
0.0
  0
SPLINE
  5
14E
330
1F
100
AcDbEntity
  8
IUC
 62
   250
420
  2301728
370
    15
100
AcDbSpline
210
0.0
220
0.0
230
1.0
 70
     8
 71
     3
 72
    41
 73
    37
 74
     0
 42
0.0000000001
 43
0.0000000001
 12
1.0
 22
0.0
 32
0.0
 13
1.0
 23
0.0
 33
0.0
 40
0.0
 40
0.0
 40
0.0
 40
0.0
 40
1.0
 40
1.0
 40
1.0
 40
2.0
 40
2.0
 40
2.0
 40
3.0
 40
3.0
 40
3.0
 40
4.0
 40
4.0
 40
4.0
 40
5.0
 40
5.0
 40
5.0
 40
6.0
 40
6.0
 40
6.0
 40
7.0
 40
7.0
 40
7.0
 40
8.0
 40
8.0
 40
8.0
 40
9.0
 40
9.0
 40
9.0
 40
10.0
 40
10.0
 40
10.0
 40
11.0
 40
11.0
 40
11.0
 40
12.0
 40
12.0
 40
12.0
 40
12.0
 10
5.036451409017546
 20
-2.28328125789575
 30
0.0
 10
5.036451409017546
 20
-2.28328125789575
 30
0.0
 10
5.035854186810411
 20
-1.423553480117966
 30
0.0
 10
5.035854186810411
 20
-1.423553480117966
 30
0.0
 10
5.035854186810411
 20
-1.423553480117966
 30
0.0
 10
4.933776411611334
 20
-1.386586813451294
 30
0.0
 10
4.933776411611334
 20
-1.386586813451294
 30
0.0
 10
4.933776411611334
 20
-1.386586813451294
 30
0.0
 10
4.926831967342322
 20
-1.383764591229073
 30
0.0
 10
4.921623634140562
 20
-1.387020146784632
 30
0.0
 10
4.921623634140562
 20
-1.387020146784632
 30
0.0
 10
4.807000138888876
 20
-1.455217369006858
 30
0.0
 10
4.807000138888876
 20
-1.455217369006858
 30
0.0
 10
4.807000138888876
 20
-1.455217369006858
 30
0.0
 10
4.808668081438504
 20
-2.27190070234019
 30
0.0
 10
4.808668081438504
 20
-2.27190070234019
 30
0.0
 10
4.808668081438504
 20
-2.27190070234019
 30
0.0
 10
4.714402916666661
 20
-2.493729869006857
 30
0.0
 10
4.714402916666661
 20
-2.493729869006857
 30
0.0
 10
4.714402916666661
 20
-2.493729869006857
 30
0.0
 10
4.713873639388768
 20
-2.704464591229073
 30
0.0
 10
4.713873639388768
 20
-2.704464591229073
 30
0.0
 10
4.712598639420977
 20
-2.712907646784629
 30
0.0
 10
4.721481972529899
 20
-2.716128480117971
 30
0.0
 10
4.721481972529899
 20
-2.716128480117971
 30
0.0
 10
4.721481972529899
 20
-2.716128480117971
 30
0.0
 10
5.027675020350367
 20
-2.863785424562416
 30
0.0
 10
5.027675020350367
 20
-2.863785424562416
 30
0.0
 10
5.033047242436876
 20
-2.865793757895744
 30
0.0
 10
5.034430694444432
 20
-2.861914591229076
 30
0.0
 10
5.034430694444432
 20
-2.861914591229076
 30
0.0
 10
5.034430694444432
 20
-2.861914591229076
 30
0.0
 10
5.032002798018817
 20
-2.865447924562406
 30
0.0
 10
5.032002798018817
 20
-2.865447924562406
 30
0.0
 10
5.032002798018817
 20
-2.865447924562406
 30
0.0
 10
5.030102798066815
 20
-2.864871535673526
 30
0.0
 10
5.024609742650025
 20
-2.862436813451293
 30
0.0
  0
INSERT
  5
150
330
1F
100
AcDbEntity
  8
IUC
100
AcDbBlockReference
  2
block 4
 10
0.0
 20
0.0
 30
0.0
  0
INSERT
  5
160
330
1F
100
AcDbEntity
  8
IUC
100
AcDbBlockReference
  2
block 5
 10
0.0
 20
0.0
 30
0.0
  0
SPLINE
  5
177
330
1F
100
AcDbEntity
  8
IUC
 62
   250
420
  2301728
370
    15
100
AcDbSpline
210
0.0
220
0.0
230
1.0
 70
    11
 71
     3
 72
    17
 73
    13
 74
     0
 42
0.0000000001
 43
0.0000000001
 12
1.0
 22
0.0
 32
0.0
 13
1.0
 23
0.0
 33
0.0
 40
0.0
 40
0.0
 40
0.0
 40
0.0
 40
1.0
 40
1.0
 40
1.0
 40
2.0
 40
2.0
 40
2.0
 40
3.0
 40
3.0
 40
3.0
 40
4.0
 40
4.0
 40
4.0
 40
4.0
 10
4.746290305236522
 20
-2.530397924562408
 30
0.0
 10
4.745191694153164
 20
-2.538713202340192
 30
0.0
 10
4.740063916504924
 20
-2.544300702340188
 30
0.0
 10
4.734869472191702
 20
-2.542890980117969
 30
0.0
 10
4.729701416766702
 20
-2.541452091229075
 30
0.0
 10
4.726365305739869
 20
-2.533572924562413
 30
0.0
 10
4.727491694600303
 20
-2.525271535673508
 30
0.0
 10
4.728630583460421
 20
-2.516929869006857
 30
0.0
 10
4.733730583331584
 20
-2.511342369006861
 30
0.0
 10
4.73889724986773
 20
-2.512765980117971
 30
0.0
 10
4.744147249735104
 20
-2.514190980117961
 30
0.0
 10
4.74742919409664
 20
-2.522070146784636
 30
0.0
 10
4.746290305236522
 20
-2.530397924562408
 30
0.0
  0
SPLINE
  5
178
330
1F
100
AcDbEntity
  8
IUC
 62
   250
420
  2301728
370
    25
100
AcDbSpline
210
0.0
220
0.0
230
1.0
 70
     8
 71
     3
 72
    92
 73
    88
 74
     0
 42
0.0000000001
 43
0.0000000001
 12
1.0
 22
0.0
 32
0.0
 13
1.0
 23
0.0
 33
0.0
 40
0.0
 40
0.0
 40
0.0
 40
0.0
 40
1.0
 40
1.0
 40
1.0
 40
2.0
 40
2.0
 40
2.0
 40
3.0
 40
3.0
 40
3.0
 40
4.0
 40
4.0
 40
4.0
 40
5.0
 40
5.0
 40
5.0
 40
6.0
 40
6.0
 40
6.0
 40
7.0
 40
7.0
 40
7.0
 40
8.0
 40
8.0
 40
8.0
 40
9.0
 40
9.0
 40
9.0
 40
10.0
 40
10.0
 40
10.0
 40
11.0
 40
11.0
 40
11.0
 40
12.0
 40
12.0
 40
12.0
 40
13.0
 40
13.0
 40
13.0
 40
14.0
 40
14.0
 40
14.0
 40
15.0
 40
15.0
 40
15.0
 40
16.0
 40
16.0
 40
16.0
 40
17.0
 40
17.0
 40
17.0
 40
18.0
 40
18.0
 40
18.0
 40
19.0
 40
19.0
 40
19.0
 40
20.0
 40
20.0
 40
20.0
 40
21.0
 40
21.0
 40
21.0
 40
22.0
 40
22.0
 40
22.0
 40
23.0
 40
23.0
 40
23.0
 40
24.0
 40
24.0
 40
24.0
 40
25.0
 40
25.0
 40
25.0
 40
26.0
 40
26.0
 40
26.0
 40
27.0
 40
27.0
 40
27.0
 40
28.0
 40
28.0
 40
28.0
 40
29.0
 40
29.0
 40
29.0
 40
29.0
 10
5.12701402777778
 20
-2.330629869006859
 30
0.0
 10
5.12701402777778
 20
-2.330629869006859
 30
0.0
 10
5.108119462762614
 20
-2.295182646784636
 30
0.0
 10
5.108119462762614
 20
-2.295182646784636
 30
0.0
 10
5.108119462762614
 20
-2.295182646784636
 30
0.0
 10
5.108119462762614
 20
-1.447289591229075
 30
0.0
 10
5.108119462762614
 20
-1.447289591229075
 30
0.0
 10
5.108119462762614
 20
-1.447289591229075
 30
0.0
 10
5.121140295767014
 20
-1.43917153567352
 30
0.0
 10
5.121140295767014
 20
-1.43917153567352
 30
0.0
 10
5.121140295767014
 20
-1.43917153567352
 30
0.0
 10
5.256286125686276
 20
-1.487599313451293
 30
0.0
 10
5.256286125686276
 20
-1.487599313451293
 30
0.0
 10
5.260993070011813
 20
-1.488697924562416
 30
0.0
 10
5.260748625573544
 20
-1.494977091229063
 30
0.0
 10
5.260748625573544
 20
-1.494977091229063
 30
0.0
 10
5.260748625573544
 20
-1.494977091229063
 30
0.0
 10
5.260598625577333
 20
-2.464277091229077
 30
0.0
 10
5.260598625577333
 20
-2.464277091229077
 30
0.0
 10
5.260598625577333
 20
-2.464277091229077
 30
0.0
 10
5.228101404176059
 20
-2.523345146784638
 30
0.0
 10
5.228101404176059
 20
-2.523345146784638
 30
0.0
 10
5.228101404176059
 20
-2.523345146784638
 30
0.0
 10
5.228101404176059
 20
-2.731109035673525
 30
0.0
 10
5.228101404176059
 20
-2.731109035673525
 30
0.0
 10
5.227097361111115
 20
-2.735978480117966
 30
0.0
 10
5.219936126604554
 20
-2.740406257895756
 30
0.0
 10
5.219936126604554
 20
-2.740406257895756
 30
0.0
 10
5.219936126604554
 20
-2.740406257895756
 30
0.0
 10
5.051994464180451
 20
-2.885135424562413
 30
0.0
 10
5.051994464180451
 20
-2.885135424562413
 30
0.0
 10
5.048061130946482
 20
-2.887135424562416
 30
0.0
 10
5.039855575598216
 20
-2.887257646784633
 30
0.0
 10
5.039855575598216
 20
-2.887257646784633
 30
0.0
 10
5.039855575598216
 20
-2.887257646784633
 30
0.0
 10
4.704704195175964
 20
-2.726415980117963
 30
0.0
 10
4.704704195175964
 20
-2.726415980117963
 30
0.0
 10
4.697570862022833
 20
-2.723743757895742
 30
0.0
 10
4.696743084265967
 20
-2.715138202340186
 30
0.0
 10
4.696743084265967
 20
-2.715138202340186
 30
0.0
 10
4.696743084265967
 20
-2.715138202340186
 30
0.0
 10
4.697366695361325
 20
-2.487152091229063
 30
0.0
 10
4.697366695361325
 20
-2.487152091229063
 30
0.0
 10
4.697366695361325
 20
-2.487152091229063
 30
0.0
 10
4.792309748518417
 20
-2.263627091229081
 30
0.0
 10
4.792309748518417
 20
-2.263627091229081
 30
0.0
 10
4.792309748518417
 20
-2.263627091229081
 30
0.0
 10
4.790587526339701
 20
-1.445695146784626
 30
0.0
 10
4.790587526339701
 20
-1.445695146784626
 30
0.0
 10
4.790587526339701
 20
-1.445695146784626
 30
0.0
 10
4.917323634249189
 20
-1.371327091229078
 30
0.0
 10
4.917323634249189
 20
-1.371327091229078
 30
0.0
 10
4.923793078530202
 20
-1.367271535673517
 30
0.0
 10
4.933125138888878
 20
-1.369875702340184
 30
0.0
 10
4.933125138888878
 20
-1.369875702340184
 30
0.0
 10
4.933125138888878
 20
-1.369875702340184
 30
0.0
 10
5.051615297523363
 20
-1.412925702340191
 30
0.0
 10
5.051615297523363
 20
-1.412925702340191
 30
0.0
 10
5.051615297523363
 20
-1.412925702340191
 30
0.0
 10
5.051506964192766
 20
-2.277842369006849
 30
0.0
 10
5.051506964192766
 20
-2.277842369006849
 30
0.0
 10
5.051506964192766
 20
-2.277842369006849
 30
0.0
 10
4.929572245050874
 20
-2.377796535673522
 30
0.0
 10
4.929572245050874
 20
-2.377796535673522
 30
0.0
 10
4.929572245050874
 20
-2.377796535673522
 30
0.0
 10
4.891784746005467
 20
-2.427160424562405
 30
0.0
 10
4.891784746005467
 20
-2.427160424562405
 30
0.0
 10
4.891784746005467
 20
-2.427160424562405
 30
0.0
 10
4.890563912702974
 20
-2.59628264678463
 30
0.0
 10
4.890563912702974
 20
-2.605125702340186
 30
0.0
 10
4.890563912702974
 20
-2.613961813451295
 30
0.0
 10
4.898077801402047
 20
-2.616179869006853
 30
0.0
 10
4.898077801402047
 20
-2.616179869006853
 30
0.0
 10
4.898077801402047
 20
-2.616179869006853
 30
0.0
 10
5.036491686794307
 20
-2.680829869006857
 30
0.0
 10
5.036491686794307
 20
-2.680829869006857
 30
0.0
 10
5.036491686794307
 20
-2.680829869006857
 30
0.0
 10
5.036491686794307
 20
-2.631974313451299
 30
0.0
 10
5.036491686794307
 20
-2.631974313451299
 30
0.0
 10
5.036491686794307
 20
-2.631974313451299
 30
0.0
 10
5.126891684510611
 20
-2.398507646784638
 30
0.0
 10
5.126891684510611
 20
-2.398507646784638
 30
0.0
 10
5.126891684510611
 20
-2.398507646784638
 30
0.0
 10
5.126891684510611
 20
-1.552554869006851
 30
0.0
 10
5.126891684510611
 20
-1.552554869006851
 30
0.0
 10
5.126891684510611
 20
-1.552554869006851
 30
0.0
 10
5.219841682162496
 20
-1.495263202340185
 30
0.0
 10
5.219841682162496
 20
-1.495263202340185
 30
0.0
  0
SPLINE
  5
179
330
1F
100
AcDbEntity
  8
IUC
 62
   250
420
  2301728
370
    15
100
AcDbSpline
210
0.0
220
0.0
230
1.0
 70
    11
 71
     3
 72
    17
 73
    13
 74
     0
 42
0.0000000001
 43
0.0000000001
 12
1.0
 22
0.0
 32
0.0
 13
1.0
 23
0.0
 33
0.0
 40
0.0
 40
0.0
 40
0.0
 40
0.0
 40
1.0
 40
1.0
 40
1.0
 40
2.0
 40
2.0
 40
2.0
 40
3.0
 40
3.0
 40
3.0
 40
4.0
 40
4.0
 40
4.0
 40
4.0
 10
4.734787527749328
 20
-2.514285424562407
 30
0.0
 10
4.731194583333338
 20
-2.516590980117952
 30
0.0
 10
4.728073639030046
 20
-2.519167369006861
 30
0.0
 10
4.72720558349642
 20
-2.525610424562413
 30
0.0
 10
4.726473639070465
 20
-2.531117369006854
 30
0.0
 10
4.728019472364748
 20
-2.536040980117971
 30
0.0
 10
4.730665305631242
 20
-2.539404869006856
 30
0.0
 10
4.734245861096345
 20
-2.537071535673527
 30
0.0
 10
4.736184749936253
 20
-2.533138202340183
 30
0.0
 10
4.736713916589552
 20
-2.526628480117968
 30
0.0
 10
4.73705280546988
 20
-2.522436813451299
 30
0.0
 10
4.736768083254851
 20
-2.518218757895738
 30
0.0
 10
4.734787527749328
 20
-2.514285424562407
 30
0.0
  0
SPLINE
  5
17A
330
1F
100
AcDbEntity
  8
IUC
 62
   250
420
  2301728
370
    15
100
AcDbSpline
210
0.0
220
0.0
230
1.0
 70
    11
 71
     3
 72
    17
 73
    13
 74
     0
 42
0.0000000001
 43
0.0000000001
 12
1.0
 22
0.0
 32
0.0
 13
1.0
 23
0.0
 33
0.0
 40
0.0
 40
0.0
 40
0.0
 40
0.0
 40
1.0
 40
1.0
 40
1.0
 40
2.0
 40
2.0
 40
2.0
 40
3.0
 40
3.0
 40
3.0
 40
4.0
 40
4.0
 40
4.0
 40
4.0
 10
5.092250138888883
 20
-2.680152091229072
 30
0.0
 10
5.091139027777772
 20
-2.688452091229073
 30
0.0
 10
5.086011129987784
 20
-2.694081257895744
 30
0.0
 10
5.080802796786025
 20
-2.692657646784634
 30
0.0
 10
5.075636130249879
 20
-2.69121875789574
 30
0.0
 10
5.072340296999806
 20
-2.683311813451294
 30
0.0
 10
5.073438908083163
 20
-2.675024313451293
 30
0.0
 10
5.074563908054743
 20
-2.66668264678463
 30
0.0
 10
5.079677796814445
 20
-2.661109035673525
 30
0.0
 10
5.084872241127666
 20
-2.662518757895744
 30
0.0
 10
5.090080574329426
 20
-2.663929869006854
 30
0.0
 10
5.093362518690961
 20
-2.6718368134513
 30
0.0
 10
5.092250138888883
 20
-2.680152091229072
 30
0.0
  0
SPLINE
  5
17B
330
1F
100
AcDbEntity
  8
IUC
 62
   250
420
  2301728
370
    15
100
AcDbSpline
210
0.0
220
0.0
230
1.0
 70
    11
 71
     3
 72
    17
 73
    13
 74
     0
 42
0.0000000001
 43
0.0000000001
 12
1.0
 22
0.0
 32
0.0
 13
1.0
 23
0.0
 33
0.0
 40
0.0
 40
0.0
 40
0.0
 40
0.0
 40
1.0
 40
1.0
 40
1.0
 40
2.0
 40
2.0
 40
2.0
 40
3.0
 40
3.0
 40
3.0
 40
4.0
 40
4.0
 40
4.0
 40
4.0
 10
5.081833472222216
 20
-2.664567369006856
 30
0.0
 10
5.078240296850759
 20
-2.666927091229089
 30
0.0
 10
5.075119463596264
 20
-2.66947709122908
 30
0.0
 10
5.074251408062637
 20
-2.67590625789574
 30
0.0
 10
5.073505574748146
 20
-2.681427091229074
 30
0.0
 10
5.075065296930966
 20
-2.68635070234019
 30
0.0
 10
5.077697241308922
 20
-2.689727091229075
 30
0.0
 10
5.081291805555566
 20
-2.687395146784638
 30
0.0
 10
5.08324446339101
 20
-2.683447924562415
 30
0.0
 10
5.08375974115577
 20
-2.676950702340188
 30
0.0
 10
5.084098630036098
 20
-2.672718757895748
 30
0.0
 10
5.083827796709607
 20
-2.668554869006849
 30
0.0
 10
5.081833472222216
 20
-2.664567369006856
 30
0.0
  0
POLYLINE
  5
17C
330
1F
100
AcDbEntity
  8
IUC
 62
   250
420
  2301728
370
    20
100
AcDb2dPolyline
 66
     1
 10
0.0
 20
0.0
 30
0.0
  0
VERTEX
  5
17D
330
17C
100
AcDbEntity
  8
IUC
 62
   250
420
  2301728
370
    20
100
AcDbVertex
100
AcDb2dVertex
 10
5.130919462186638
 20
-1.558121535673523
 30
0.0
  0
VERTEX
  5
17E
330
17C
100
AcDbEntity
  8
IUC
 62
   250
420
  2301728
370
    20
100
AcDbVertex
100
AcDb2dVertex
 10
5.140455573056847
 20
-1.561499313451299
 30
0.0
  0
SEQEND
  5
17F
330
17C
100
AcDbEntity
  8
IUC
 62
   250
420
  2301728
370
    20
  0
POLYLINE
  5
180
330
1F
100
AcDbEntity
  8
IUC
 62
   250
420
  2301728
370
    20
100
AcDb2dPolyline
 66
     1
 10
0.0
 20
0.0
 30
0.0
  0
VERTEX
  5
181
330
180
100
AcDbEntity
  8
IUC
 62
   250
420
  2301728
370
    20
100
AcDbVertex
100
AcDb2dVertex
 10
4.790587526339701
 20
-1.447499313451304
 30
0.0
  0
VERTEX
  5
182
330
180
100
AcDbEntity
  8
IUC
 62
   250
420
  2301728
370
    20
100
AcDbVertex
100
AcDb2dVertex
 10
4.807541805555553
 20
-1.455217369006858
 30
0.0
  0
SEQEND
  5
183
330
180
100
AcDbEntity
  8
IUC
 62
   250
420
  2301728
370
    20
  0
POLYLINE
  5
184
330
1F
100
AcDbEntity
  8
IUC
 62
   250
420
  2301728
370
    15
100
AcDb2dPolyline
 66
     1
 10
0.0
 20
0.0
 30
0.0
  0
VERTEX
  5
185
330
184
100
AcDbEntity
  8
IUC
 62
   250
420
  2301728
370
    15
100
AcDbVertex
100
AcDb2dVertex
 10
5.177713905448955
 20
-2.346289591229076
 30
0.0
  0
VERTEX
  5
186
330
184
100
AcDbEntity
  8
IUC
 62
   250
420
  2301728
370
    15
100
AcDbVertex
100
AcDb2dVertex
 10
5.177713905448955
 20
-2.380334035673526
 30
0.0
  0
VERTEX
  5
187
330
184
100
AcDbEntity
  8
IUC
 62
   250
420
  2301728
370
    15
100
AcDbVertex
100
AcDb2dVertex
 10
5.157381961518139
 20
-2.363446535673524
 30
0.0
  0
VERTEX
  5
188
330
184
100
AcDbEntity
  8
IUC
 62
   250
420
  2301728
370
    15
100
AcDbVertex
100
AcDb2dVertex
 10
5.177713905448955
 20
-2.346289591229076
 30
0.0
  0
SEQEND
  5
189
330
184
100
AcDbEntity
  8
IUC
 62
   250
420
  2301728
370
    15
  0
POLYLINE
  5
18A
330
1F
100
AcDbEntity
  8
IUC
 62
   250
420
  2301728
370
    15
100
AcDb2dPolyline
 66
     1
 10
0.0
 20
0.0
 30
0.0
  0
VERTEX
  5
18B
330
18A
100
AcDbEntity
  8
IUC
 62
   250
420
  2301728
370
    15
100
AcDbVertex
100
AcDb2dVertex
 10
5.168191683467285
 20
-2.35442014678463
 30
0.0
  0
VERTEX
  5
18C
330
18A
100
AcDbEntity
  8
IUC
 62
   250
420
  2301728
370
    15
100
AcDbVertex
100
AcDb2dVertex
 10
5.168191683467285
 20
-2.371449313451295
 30
0.0
  0
SEQEND
  5
18D
330
18A
100
AcDbEntity
  8
IUC
 62
   250
420
  2301728
370
    15
  0
POLYLINE
  5
18E
330
1F
100
AcDbEntity
  8
IUC
 62
   250
420
  2301728
370
    15
100
AcDb2dPolyline
 66
     1
 10
0.0
 20
0.0
 30
0.0
  0
VERTEX
  5
18F
330
18E
100
AcDbEntity
  8
IUC
 62
   250
420
  2301728
370
    15
100
AcDbVertex
100
AcDb2dVertex
 10
5.177713905448955
 20
-2.029828480117961
 30
0.0
  0
VERTEX
  5
190
330
18E
100
AcDbEntity
  8
IUC
 62
   250
420
  2301728
370
    15
100
AcDbVertex
100
AcDb2dVertex
 10
5.177713905448955
 20
-2.063872924562411
 30
0.0
  0
VERTEX
  5
191
330
18E
100
AcDbEntity
  8
IUC
 62
   250
420
  2301728
370
    15
100
AcDbVertex
100
AcDb2dVertex
 10
5.157381961518139
 20
-2.046993757895747
 30
0.0
  0
VERTEX
  5
192
330
18E
100
AcDbEntity
  8
IUC
 62
   250
420
  2301728
370
    15
100
AcDbVertex
100
AcDb2dVertex
 10
5.177713905448955
 20
-2.029828480117961
 30
0.0
  0
SEQEND
  5
193
330
18E
100
AcDbEntity
  8
IUC
 62
   250
420
  2301728
370
    15
  0
POLYLINE
  5
194
330
1F
100
AcDbEntity
  8
IUC
 62
   250
420
  2301728
370
    15
100
AcDb2dPolyline
 66
     1
 10
0.0
 20
0.0
 30
0.0
  0
VERTEX
  5
195
330
194
100
AcDbEntity
  8
IUC
 62
   250
420
  2301728
370
    15
100
AcDbVertex
100
AcDb2dVertex
 10
5.168191683467285
 20
-2.037946535673516
 30
0.0
  0
VERTEX
  5
196
330
194
100
AcDbEntity
  8
IUC
 62
   250
420
  2301728
370
    15
100
AcDbVertex
100
AcDb2dVertex
 10
5.168191683467285
 20
-2.054975702340193
 30
0.0
  0
SEQEND
  5
197
330
194
100
AcDbEntity
  8
IUC
 62
   250
420
  2301728
370
    15
  0
POLYLINE
  5
198
330
1F
100
AcDbEntity
  8
IUC
 62
   250
420
  2301728
370
    15
100
AcDb2dPolyline
 66
     1
 10
0.0
 20
0.0
 30
0.0
  0
VERTEX
  5
199
330
198
100
AcDbEntity
  8
IUC
 62
   250
420
  2301728
370
    15
100
AcDbVertex
100
AcDb2dVertex
 10
5.177713905448955
 20
-2.185549313451298
 30
0.0
  0
VERTEX
  5
19A
330
198
100
AcDbEntity
  8
IUC
 62
   250
420
  2301728
370
    15
100
AcDbVertex
100
AcDb2dVertex
 10
5.177713905448955
 20
-2.219607646784627
 30
0.0
  0
VERTEX
  5
19B
330
198
100
AcDbEntity
  8
IUC
 62
   250
420
  2301728
370
    15
100
AcDbVertex
100
AcDb2dVertex
 10
5.157381961518139
 20
-2.202714591229071
 30
0.0
  0
VERTEX
  5
19C
330
198
100
AcDbEntity
  8
IUC
 62
   250
420
  2301728
370
    15
100
AcDbVertex
100
AcDb2dVertex
 10
5.177713905448955
 20
-2.185549313451298
 30
0.0
  0
SEQEND
  5
19D
330
198
100
AcDbEntity
  8
IUC
 62
   250
420
  2301728
370
    15
  0
POLYLINE
  5
19E
330
1F
100
AcDbEntity
  8
IUC
 62
   250
420
  2301728
370
    15
100
AcDb2dPolyline
 66
     1
 10
0.0
 20
0.0
 30
0.0
  0
VERTEX
  5
19F
330
19E
100
AcDbEntity
  8
IUC
 62
   250
420
  2301728
370
    15
100
AcDbVertex
100
AcDb2dVertex
 10
5.168191683467285
 20
-2.193681257895744
 30
0.0
  0
VERTEX
  5
1A0
330
19E
100
AcDbEntity
  8
IUC
 62
   250
420
  2301728
370
    15
100
AcDbVertex
100
AcDb2dVertex
 10
5.168191683467285
 20
-2.210710424562409
 30
0.0
  0
SEQEND
  5
1A1
330
19E
100
AcDbEntity
  8
IUC
 62
   250
420
  2301728
370
    15
  0
POLYLINE
  5
1A2
330
1F
100
AcDbEntity
  8
IUC
 62
   250
420
  2301728
370
    15
100
AcDb2dPolyline
 66
     1
 10
0.0
 20
0.0
 30
0.0
  0
VERTEX
  5
1A3
330
1A2
100
AcDbEntity
  8
IUC
 62
   250
420
  2301728
370
    15
100
AcDbVertex
100
AcDb2dVertex
 10
4.83888752511954
 20
-2.134910424562412
 30
0.0
  0
VERTEX
  5
1A4
330
1A2
100
AcDbEntity
  8
IUC
 62
   250
420
  2301728
370
    15
100
AcDbVertex
100
AcDb2dVertex
 10
4.83888752511954
 20
-2.16895486900685
 30
0.0
  0
VERTEX
  5
1A5
330
1A2
100
AcDbEntity
  8
IUC
 62
   250
420
  2301728
370
    15
100
AcDbVertex
100
AcDb2dVertex
 10
4.818569583333328
 20
-2.152095146784619
 30
0.0
  0
VERTEX
  5
1A6
330
1A2
100
AcDbEntity
  8
IUC
 62
   250
420
  2301728
370
    15
100
AcDbVertex
100
AcDb2dVertex
 10
4.83888752511954
 20
-2.134910424562412
 30
0.0
  0
SEQEND
  5
1A7
330
1A2
100
AcDbEntity
  8
IUC
 62
   250
420
  2301728
370
    15
  0
POLYLINE
  5
1A8
330
1F
100
AcDbEntity
  8
IUC
 62
   250
420
  2301728
370
    15
100
AcDb2dPolyline
 66
     1
 10
0.0
 20
0.0
 30
0.0
  0
VERTEX
  5
1A9
330
1A8
100
AcDbEntity
  8
IUC
 62
   250
420
  2301728
370
    15
100
AcDbVertex
100
AcDb2dVertex
 10
4.829379192026408
 20
-2.143035424562413
 30
0.0
  0
VERTEX
  5
1AA
330
1A8
100
AcDbEntity
  8
IUC
 62
   250
420
  2301728
370
    15
100
AcDbVertex
100
AcDb2dVertex
 10
4.829379192026408
 20
-2.160064591229077
 30
0.0
  0
SEQEND
  5
1AB
330
1A8
100
AcDbEntity
  8
IUC
 62
   250
420
  2301728
370
    15
  0
POLYLINE
  5
1AC
330
1F
100
AcDbEntity
  8
IUC
 62
   250
420
  2301728
370
    15
100
AcDb2dPolyline
 66
     1
 10
0.0
 20
0.0
 30
0.0
  0
VERTEX
  5
1AD
330
1AC
100
AcDbEntity
  8
IUC
 62
   250
420
  2301728
370
    15
100
AcDbVertex
100
AcDb2dVertex
 10
4.83888752511954
 20
-1.818457646784635
 30
0.0
  0
VERTEX
  5
1AE
330
1AC
100
AcDbEntity
  8
IUC
 62
   250
420
  2301728
370
    15
100
AcDbVertex
100
AcDb2dVertex
 10
4.83888752511954
 20
-1.852500702340194
 30
0.0
  0
VERTEX
  5
1AF
330
1AC
100
AcDbEntity
  8
IUC
 62
   250
420
  2301728
370
    15
100
AcDbVertex
100
AcDb2dVertex
 10
4.818569583333328
 20
-1.835621535673517
 30
0.0
  0
VERTEX
  5
1B0
330
1AC
100
AcDbEntity
  8
IUC
 62
   250
420
  2301728
370
    15
100
AcDbVertex
100
AcDb2dVertex
 10
4.83888752511954
 20
-1.818457646784635
 30
0.0
  0
SEQEND
  5
1B1
330
1AC
100
AcDbEntity
  8
IUC
 62
   250
420
  2301728
370
    15
  0
POLYLINE
  5
1B2
330
1F
100
AcDbEntity
  8
IUC
 62
   250
420
  2301728
370
    15
100
AcDb2dPolyline
 66
     1
 10
0.0
 20
0.0
 30
0.0
  0
VERTEX
  5
1B3
330
1B2
100
AcDbEntity
  8
IUC
 62
   250
420
  2301728
370
    15
100
AcDbVertex
100
AcDb2dVertex
 10
4.829379192026408
 20
-1.826581257895744
 30
0.0
  0
VERTEX
  5
1B4
330
1B2
100
AcDbEntity
  8
IUC
 62
   250
420
  2301728
370
    15
100
AcDbVertex
100
AcDb2dVertex
 10
4.829379192026408
 20
-1.843603480117963
 30
0.0
  0
SEQEND
  5
1B5
330
1B2
100
AcDbEntity
  8
IUC
 62
   250
420
  2301728
370
    15
  0
POLYLINE
  5
1B6
330
1F
100
AcDbEntity
  8
IUC
 62
   250
420
  2301728
370
    15
100
AcDb2dPolyline
 66
     1
 10
0.0
 20
0.0
 30
0.0
  0
VERTEX
  5
1B7
330
1B6
100
AcDbEntity
  8
IUC
 62
   250
420
  2301728
370
    15
100
AcDbVertex
100
AcDb2dVertex
 10
4.83888752511954
 20
-1.974178480117972
 30
0.0
  0
VERTEX
  5
1B8
330
1B6
100
AcDbEntity
  8
IUC
 62
   250
420
  2301728
370
    15
100
AcDbVertex
100
AcDb2dVertex
 10
4.83888752511954
 20
-2.008222924562422
 30
0.0
  0
VERTEX
  5
1B9
330
1B6
100
AcDbEntity
  8
IUC
 62
   250
420
  2301728
370
    15
100
AcDbVertex
100
AcDb2dVertex
 10
4.818569583333328
 20
-1.991356257895745
 30
0.0
  0
VERTEX
  5
1BA
330
1B6
100
AcDbEntity
  8
IUC
 62
   250
420
  2301728
370
    15
100
AcDbVertex
100
AcDb2dVertex
 10
4.83888752511954
 20
-1.974178480117972
 30
0.0
  0
SEQEND
  5
1BB
330
1B6
100
AcDbEntity
  8
IUC
 62
   250
420
  2301728
370
    15
  0
POLYLINE
  5
1BC
330
1F
100
AcDbEntity
  8
IUC
 62
   250
420
  2301728
370
    15
100
AcDb2dPolyline
 66
     1
 10
0.0
 20
0.0
 30
0.0
  0
VERTEX
  5
1BD
330
1BC
100
AcDbEntity
  8
IUC
 62
   250
420
  2301728
370
    15
100
AcDbVertex
100
AcDb2dVertex
 10
4.829379192026408
 20
-1.98231598011796
 30
0.0
  0
VERTEX
  5
1BE
330
1BC
100
AcDbEntity
  8
IUC
 62
   250
420
  2301728
370
    15
100
AcDbVertex
100
AcDb2dVertex
 10
4.829379192026408
 20
-1.999338202340191
 30
0.0
  0
SEQEND
  5
1BF
330
1BC
100
AcDbEntity
  8
IUC
 62
   250
420
  2301728
370
    15
  0
POLYLINE
  5
1C0
330
1F
100
AcDbEntity
  8
IUC
 62
   250
420
  2301728
370
    15
100
AcDb2dPolyline
 66
     1
 10
0.0
 20
0.0
 30
0.0
  0
VERTEX
  5
1C1
330
1C0
100
AcDbEntity
  8
IUC
 62
   250
420
  2301728
370
    15
100
AcDbVertex
100
AcDb2dVertex
 10
4.696688917600668
 20
-2.487225702340184
 30
0.0
  0
VERTEX
  5
1C2
330
1C0
100
AcDbEntity
  8
IUC
 62
   250
420
  2301728
370
    15
100
AcDbVertex
100
AcDb2dVertex
 10
4.712639027777767
 20
-2.493527091229073
 30
0.0
  0
SEQEND
  5
1C3
330
1C0
100
AcDbEntity
  8
IUC
 62
   250
420
  2301728
370
    15
  0
POLYLINE
  5
1C4
330
1F
100
AcDbEntity
  8
IUC
 62
   250
420
  2301728
370
    15
100
AcDb2dPolyline
 66
     1
 10
0.0
 20
0.0
 30
0.0
  0
VERTEX
  5
1C5
330
1C4
100
AcDbEntity
  8
IUC
 62
   250
420
  2301728
370
    15
100
AcDbVertex
100
AcDb2dVertex
 10
5.035976409029545
 20
-2.632049313451299
 30
0.0
  0
VERTEX
  5
1C6
330
1C4
100
AcDbEntity
  8
IUC
 62
   250
420
  2301728
370
    15
100
AcDbVertex
100
AcDb2dVertex
 10
5.050611249999999
 20
-2.638125702340188
 30
0.0
  0
SEQEND
  5
1C7
330
1C4
100
AcDbEntity
  8
IUC
 62
   250
420
  2301728
370
    15
  0
POLYLINE
  5
1C8
330
1F
100
AcDbEntity
  8
IUC
 62
   250
420
  2301728
370
    15
100
AcDb2dPolyline
 66
     1
 10
0.0
 20
0.0
 30
0.0
  0
VERTEX
  5
1C9
330
1C8
100
AcDbEntity
  8
IUC
 62
   250
420
  2301728
370
    15
100
AcDbVertex
100
AcDb2dVertex
 10
5.129806962214742
 20
-2.399986813451303
 30
0.0
  0
VERTEX
  5
1CA
330
1C8
100
AcDbEntity
  8
IUC
 62
   250
420
  2301728
370
    15
100
AcDbVertex
100
AcDb2dVertex
 10
5.142963906326814
 20
-2.404334035673527
 30
0.0
  0
SEQEND
  5
1CB
330
1C8
100
AcDbEntity
  8
IUC
 62
   250
420
  2301728
370
    15
  0
POLYLINE
  5
1CC
330
1F
100
AcDbEntity
  8
IUC
 62
   250
420
  2301728
370
    15
100
AcDb2dPolyline
 66
     1
 10
0.0
 20
0.0
 30
0.0
  0
VERTEX
  5
1CD
330
1CC
100
AcDbEntity
  8
IUC
 62
   250
420
  2301728
370
    15
100
AcDbVertex
100
AcDb2dVertex
 10
4.792283359630194
 20
-2.265322924562409
 30
0.0
  0
VERTEX
  5
1CE
330
1CC
100
AcDbEntity
  8
IUC
 62
   250
420
  2301728
370
    15
100
AcDbVertex
100
AcDb2dVertex
 10
4.80706669259007
 20
-2.270199313451295
 30
0.0
  0
SEQEND
  5
1CF
330
1CC
100
AcDbEntity
  8
IUC
 62
   250
420
  2301728
370
    15
  0
SPLINE
  5
1D0
330
1F
100
AcDbEntity
  8
IUC
370
     0
100
AcDbSpline
210
0.0
220
0.0
230
1.0
 70
    11
 71
     3
 72
    50
 73
    46
 74
     0
 42
0.0000000001
 43
0.0000000001
 12
1.0
 22
0.0
 32
0.0
 13
1.0
 23
0.0
 33
0.0
 40
0.0
 40
0.0
 40
0.0
 40
0.0
 40
1.0
 40
1.0
 40
1.0
 40
2.0
 40
2.0
 40
2.0
 40
3.0
 40
3.0
 40
3.0
 40
4.0
 40
4.0
 40
4.0
 40
5.0
 40
5.0
 40
5.0
 40
6.0
 40
6.0
 40
6.0
 40
7.0
 40
7.0
 40
7.0
 40
8.0
 40
8.0
 40
8.0
 40
9.0
 40
9.0
 40
9.0
 40
10.0
 40
10.0
 40
10.0
 40
11.0
 40
11.0
 40
11.0
 40
12.0
 40
12.0
 40
12.0
 40
13.0
 40
13.0
 40
13.0
 40
14.0
 40
14.0
 40
14.0
 40
15.0
 40
15.0
 40
15.0
 40
15.0
 10
2.574869526757892
 20
-1.619828480117967
 30
0.0
 10
2.574869526757892
 20
-1.619828480117967
 30
0.0
 10
2.576740360043964
 20
-1.443022924562405
 30
0.0
 10
2.576740360043964
 20
-1.443022924562405
 30
0.0
 10
2.576740360043964
 20
-1.443022924562405
 30
0.0
 10
2.649637580424648
 20
-1.266706257895748
 30
0.0
 10
2.649637580424648
 20
-1.266706257895748
 30
0.0
 10
2.649637580424648
 20
-1.266706257895748
 30
0.0
 10
2.649637580424648
 20
-0.5841094523401832
 30
0.0
 10
2.649637580424648
 20
-0.5841094523401832
 30
0.0
 10
2.649637580424648
 20
-0.5841094523401832
 30
0.0
 10
2.723937578547672
 20
-0.5463829245624083
 30
0.0
 10
2.723937578547672
 20
-0.5463829245624083
 30
0.0
 10
2.723937578547672
 20
-0.5463829245624083
 30
0.0
 10
2.627345914321116
 20
-0.5110775078957456
 30
0.0
 10
2.627345914321116
 20
-0.5110775078957456
 30
0.0
 10
2.627345914321116
 20
-0.5110775078957456
 30
0.0
 10
2.643432025025858
 20
-0.5021391745624062
 30
0.0
 10
2.643432025025858
 20
-0.5021391745624062
 30
0.0
 10
2.643432025025858
 20
-0.5021391745624062
 30
0.0
 10
2.757147299930946
 20
-0.5457522301179678
 30
0.0
 10
2.757147299930946
 20
-0.5457522301179678
 30
0.0
 10
2.757147299930946
 20
-0.5457522301179678
 30
0.0
 10
2.757208472222222
 20
-0.8650604245624056
 30
0.0
 10
2.757208472222222
 20
-0.8650604245624056
 30
0.0
 10
2.757208472222222
 20
-0.8700048690068595
 30
0.0
 10
2.757690355472783
 20
-1.333913202340189
 30
0.0
 10
2.757690355472783
 20
-1.333913202340189
 30
0.0
 10
2.757690355472783
 20
-1.333913202340189
 30
0.0
 10
2.731098689477878
 20
-1.37947848011797
 30
0.0
 10
2.731098689477878
 20
-1.37947848011797
 30
0.0
 10
2.730265356165596
 20
-1.411311813451296
 30
0.0
 10
2.731098689477878
 20
-1.560767369006852
 30
0.0
 10
2.731098689477878
 20
-1.560767369006852
 30
0.0
 10
2.731098689477878
 20
-1.560767369006852
 30
0.0
 10
2.588650081965322
 20
-1.63363542456241
 30
0.0
 10
2.588650081965322
 20
-1.63363542456241
 30
0.0
 10
2.586173693138992
 20
-1.634354869006857
 30
0.0
 10
2.578823693324668
 20
-1.633934035673519
 30
0.0
 10
2.578823693324668
 20
-1.633934035673519
 30
0.0
 10
2.578823693324668
 20
-1.633934035673519
 30
0.0
 10
2.560559804897164
 20
-1.627356257895738
 30
0.0
 10
2.560559804897164
 20
-1.627356257895738
 30
0.0
 10
2.560559804897164
 20
-1.627356257895738
 30
0.0
 10
2.574869526757892
 20
-1.619828480117967
 30
0.0
 10
2.574869526757892
 20
-1.619828480117967
 30
0.0
  0
HATCH
  5
1D1
330
1F
100
AcDbEntity
  8
IUC
 62
   254
420
 13358815
100
AcDbHatch
 10
0.0
 20
0.0
 30
0.0
210
0.0
220
0.0
230
1.0
  2
SOLID
 70
     1
 71
     0
 91
        1
 92
        1
 93
        1
 72
     4
 94
        3
 73
     0
 74
     1
 95
       50
 96
       46
 40
0.0
 40
0.0
 40
0.0
 40
0.0
 40
1.0
 40
1.0
 40
1.0
 40
2.0
 40
2.0
 40
2.0
 40
3.0
 40
3.0
 40
3.0
 40
4.0
 40
4.0
 40
4.0
 40
5.0
 40
5.0
 40
5.0
 40
6.0
 40
6.0
 40
6.0
 40
7.0
 40
7.0
 40
7.0
 40
8.0
 40
8.0
 40
8.0
 40
9.0
 40
9.0
 40
9.0
 40
10.0
 40
10.0
 40
10.0
 40
11.0
 40
11.0
 40
11.0
 40
12.0
 40
12.0
 40
12.0
 40
13.0
 40
13.0
 40
13.0
 40
14.0
 40
14.0
 40
14.0
 40
15.0
 40
15.0
 40
15.0
 40
15.0
 10
2.574869526757892
 20
-1.619828480117967
 10
2.574869526757892
 20
-1.619828480117967
 10
2.576740360043964
 20
-1.443022924562405
 10
2.576740360043964
 20
-1.443022924562405
 10
2.576740360043964
 20
-1.443022924562405
 10
2.649637580424648
 20
-1.266706257895748
 10
2.649637580424648
 20
-1.266706257895748
 10
2.649637580424648
 20
-1.266706257895748
 10
2.649637580424648
 20
-0.5841094523401832
 10
2.649637580424648
 20
-0.5841094523401832
 10
2.649637580424648
 20
-0.5841094523401832
 10
2.723937578547672
 20
-0.5463829245624083
 10
2.723937578547672
 20
-0.5463829245624083
 10
2.723937578547672
 20
-0.5463829245624083
 10
2.627345914321116
 20
-0.5110775078957456
 10
2.627345914321116
 20
-0.5110775078957456
 10
2.627345914321116
 20
-0.5110775078957456
 10
2.643432025025858
 20
-0.5021391745624062
 10
2.643432025025858
 20
-0.5021391745624062
 10
2.643432025025858
 20
-0.5021391745624062
 10
2.757147299930946
 20
-0.5457522301179678
 10
2.757147299930946
 20
-0.5457522301179678
 10
2.757147299930946
 20
-0.5457522301179678
 10
2.757208472222222
 20
-0.8650604245624056
 10
2.757208472222222
 20
-0.8650604245624056
 10
2.757208472222222
 20
-0.8700048690068595
 10
2.757690355472783
 20
-1.333913202340189
 10
2.757690355472783
 20
-1.333913202340189
 10
2.757690355472783
 20
-1.333913202340189
 10
2.731098689477878
 20
-1.37947848011797
 10
2.731098689477878
 20
-1.37947848011797
 10
2.730265356165596
 20
-1.411311813451296
 10
2.731098689477878
 20
-1.560767369006852
 10
2.731098689477878
 20
-1.560767369006852
 10
2.731098689477878
 20
-1.560767369006852
 10
2.588650081965322
 20
-1.63363542456241
 10
2.588650081965322
 20
-1.63363542456241
 10
2.586173693138992
 20
-1.634354869006857
 10
2.578823693324668
 20
-1.633934035673519
 10
2.578823693324668
 20
-1.633934035673519
 10
2.578823693324668
 20
-1.633934035673519
 10
2.560559804897164
 20
-1.627356257895738
 10
2.560559804897164
 20
-1.627356257895738
 10
2.560559804897164
 20
-1.627356257895738
 10
2.574869526757892
 20
-1.619828480117967
 10
2.574869526757892
 20
-1.619828480117967
 97
        0
 97
        0
 75
     2
 76
     1
 98
        0
  0
SPLINE
  5
1D2
330
1F
100
AcDbEntity
  8
IUC
370
     0
100
AcDbSpline
210
0.0
220
0.0
230
1.0
 70
    11
 71
     3
 72
    17
 73
    13
 74
     0
 42
0.0000000001
 43
0.0000000001
 12
1.0
 22
0.0
 32
0.0
 13
1.0
 23
0.0
 33
0.0
 40
0.0
 40
0.0
 40
0.0
 40
0.0
 40
1.0
 40
1.0
 40
1.0
 40
2.0
 40
2.0
 40
2.0
 40
3.0
 40
3.0
 40
3.0
 40
4.0
 40
4.0
 40
4.0
 40
4.0
 10
2.612704248024329
 20
-1.474945146784636
 30
0.0
 10
2.609794525875612
 20
-1.476409035673517
 30
0.0
 10
2.607279248161376
 20
-1.478111813451303
 30
0.0
 10
2.606580637067913
 20
-1.483204869006853
 30
0.0
 10
2.605976470416509
 20
-1.487571535673523
 30
0.0
 10
2.607237581495762
 20
-1.491729869006867
 30
0.0
 10
2.609361250000006
 20
-1.494760424562413
 30
0.0
 10
2.612264027777782
 20
-1.493302091229073
 30
0.0
 10
2.613843136884447
 20
-1.490339591229081
 30
0.0
 10
2.61425702576288
 20
-1.485171535673519
 30
0.0
 10
2.614529247978226
 20
-1.481786813451297
 30
0.0
 10
2.614311192428179
 20
-1.478382646784629
 30
0.0
 10
2.612704248024329
 20
-1.474945146784636
 30
0.0
  0
HATCH
  5
1D3
330
1F
100
AcDbEntity
  8
IUC
 62
   254
420
 13358815
100
AcDbHatch
 10
0.0
 20
0.0
 30
0.0
210
0.0
220
0.0
230
1.0
  2
SOLID
 70
     1
 71
     0
 91
        1
 92
        1
 93
        1
 72
     4
 94
        3
 73
     0
 74
     1
 95
       17
 96
       13
 40
0.0
 40
0.0
 40
0.0
 40
0.0
 40
1.0
 40
1.0
 40
1.0
 40
2.0
 40
2.0
 40
2.0
 40
3.0
 40
3.0
 40
3.0
 40
4.0
 40
4.0
 40
4.0
 40
4.0
 10
2.612704248024329
 20
-1.474945146784636
 10
2.609794525875612
 20
-1.476409035673517
 10
2.607279248161376
 20
-1.478111813451303
 10
2.606580637067913
 20
-1.483204869006853
 10
2.605976470416509
 20
-1.487571535673523
 10
2.607237581495762
 20
-1.491729869006867
 10
2.609361250000006
 20
-1.494760424562413
 10
2.612264027777782
 20
-1.493302091229073
 10
2.613843136884447
 20
-1.490339591229081
 10
2.61425702576288
 20
-1.485171535673519
 10
2.614529247978226
 20
-1.481786813451297
 10
2.614311192428179
 20
-1.478382646784629
 10
2.612704248024329
 20
-1.474945146784636
 97
        0
 97
        0
 75
     2
 76
     1
 98
        0
  0
POLYLINE
  5
1D4
330
1F
100
AcDbEntity
  8
IUC
 62
   250
420
  2301728
370
    15
100
AcDb2dPolyline
 66
     1
 10
0.0
 20
0.0
 30
0.0
  0
VERTEX
  5
1D5
330
1D4
100
AcDbEntity
  8
IUC
 62
   250
420
  2301728
370
    15
100
AcDbVertex
100
AcDb2dVertex
 10
2.63064174757119
 20
-0.5124202856735185
 30
0.0
  0
VERTEX
  5
1D6
330
1D4
100
AcDbEntity
  8
IUC
 62
   250
420
  2301728
370
    15
100
AcDbVertex
100
AcDb2dVertex
 10
2.729044522863117
 20
-0.5495838967846364
 30
0.0
  0
SEQEND
  5
1D7
330
1D4
100
AcDbEntity
  8
IUC
 62
   250
420
  2301728
370
    15
  0
SPLINE
  5
1D8
330
1F
100
AcDbEntity
  8
IUC
 62
   250
420
  2301728
370
    15
100
AcDbSpline
210
0.0
220
0.0
230
1.0
 70
     8
 71
     3
 72
    23
 73
    19
 74
     0
 42
0.0000000001
 43
0.0000000001
 12
1.0
 22
0.0
 32
0.0
 13
1.0
 23
0.0
 33
0.0
 40
0.0
 40
0.0
 40
0.0
 40
0.0
 40
1.0
 40
1.0
 40
1.0
 40
2.0
 40
2.0
 40
2.0
 40
3.0
 40
3.0
 40
3.0
 40
4.0
 40
4.0
 40
4.0
 40
5.0
 40
5.0
 40
5.0
 40
6.0
 40
6.0
 40
6.0
 40
6.0
 10
2.755601466636663
 20
-0.5450062578957436
 30
0.0
 10
2.755601466636663
 20
-0.5450062578957436
 30
0.0
 10
2.761807022035454
 20
-0.5538427856735224
 30
0.0
 10
2.754082022230603
 20
-0.5531577856735213
 30
0.0
 10
2.754082022230603
 20
-0.5531577856735213
 30
0.0
 10
2.663255635636182
 20
-0.5946888967846335
 30
0.0
 10
2.663255635636182
 20
-0.5946888967846335
 30
0.0
 10
2.663255635636182
 20
-0.5946888967846335
 30
0.0
 10
2.663255635636182
 20
-1.271074313451297
 30
0.0
 10
2.663255635636182
 20
-1.271074313451297
 30
0.0
 10
2.663255635636182
 20
-1.271074313451297
 30
0.0
 10
2.588330637528947
 20
-1.453589591229072
 30
0.0
 10
2.588330637528947
 20
-1.453589591229072
 30
0.0
 10
2.588330637528947
 20
-1.453589591229072
 30
0.0
 10
2.588330637528947
 20
-1.626379869006857
 30
0.0
 10
2.588330637528947
 20
-1.626379869006857
 30
0.0
 10
2.588330637528947
 20
-1.626379869006857
 30
0.0
 10
2.586547304240665
 20
-1.636389591229077
 30
0.0
 10
2.57720286003228
 20
-1.631303480117961
 30
0.0
  0
SPLINE
  5
1D9
330
1F
100
AcDbEntity
  8
IUC
 62
   250
420
  2301728
370
    25
100
AcDbSpline
210
0.0
220
0.0
230
1.0
 70
     8
 71
     3
 72
    11
 73
     7
 74
     0
 42
0.0000000001
 43
0.0000000001
 12
1.0
 22
0.0
 32
0.0
 13
1.0
 23
0.0
 33
0.0
 40
0.0
 40
0.0
 40
0.0
 40
0.0
 40
1.0
 40
1.0
 40
1.0
 40
2.0
 40
2.0
 40
2.0
 40
2.0
 10
2.575913971175964
 20
-1.477006257895747
 30
0.0
 10
2.575913971175964
 20
-1.477006257895747
 30
0.0
 10
2.575079248974816
 20
-1.612938202340185
 30
0.0
 10
2.575079248974816
 20
-1.612938202340185
 30
0.0
 10
2.575079248974816
 20
-1.612938202340185
 30
0.0
 10
2.57472647120595
 20
-1.615109035673527
 30
0.0
 10
2.573105637913563
 20
-1.614824313451297
 30
0.0
  0
POLYLINE
  5
1DA
330
1F
100
AcDbEntity
  8
IUC
 62
   250
420
  2301728
370
    25
100
AcDb2dPolyline
 66
     1
 10
0.0
 20
0.0
 30
0.0
  0
VERTEX
  5
1DB
330
1DA
100
AcDbEntity
  8
IUC
 62
   250
420
  2301728
370
    25
100
AcDbVertex
100
AcDb2dVertex
 10
2.576090360060384
 20
-1.482736813451285
 30
0.0
  0
VERTEX
  5
1DC
330
1DA
100
AcDbEntity
  8
IUC
 62
   250
420
  2301728
370
    25
100
AcDbVertex
100
AcDb2dVertex
 10
2.576090360060384
 20
-1.443307646784635
 30
0.0
  0
VERTEX
  5
1DD
330
1DA
100
AcDbEntity
  8
IUC
 62
   250
420
  2301728
370
    25
100
AcDbVertex
100
AcDb2dVertex
 10
2.649080635994273
 20
-1.265377091229071
 30
0.0
  0
VERTEX
  5
1DE
330
1DA
100
AcDbEntity
  8
IUC
 62
   250
420
  2301728
370
    25
100
AcDbVertex
100
AcDb2dVertex
 10
2.649080635994273
 20
-0.5843400078957377
 30
0.0
  0
VERTEX
  5
1DF
330
1DA
100
AcDbEntity
  8
IUC
 62
   250
420
  2301728
370
    25
100
AcDbVertex
100
AcDb2dVertex
 10
2.724140356320327
 20
-0.5495838967846364
 30
0.0
  0
SEQEND
  5
1E0
330
1DA
100
AcDbEntity
  8
IUC
 62
   250
420
  2301728
370
    25
  0
SPLINE
  5
1E1
330
1F
100
AcDbEntity
  8
IUC
 62
   250
420
  2301728
370
    25
100
AcDbSpline
210
0.0
220
0.0
230
1.0
 70
     8
 71
     3
 72
    38
 73
    34
 74
     0
 42
0.0000000001
 43
0.0000000001
 12
1.0
 22
0.0
 32
0.0
 13
1.0
 23
0.0
 33
0.0
 40
0.0
 40
0.0
 40
0.0
 40
0.0
 40
1.0
 40
1.0
 40
1.0
 40
2.0
 40
2.0
 40
2.0
 40
3.0
 40
3.0
 40
3.0
 40
4.0
 40
4.0
 40
4.0
 40
5.0
 40
5.0
 40
5.0
 40
6.0
 40
6.0
 40
6.0
 40
7.0
 40
7.0
 40
7.0
 40
8.0
 40
8.0
 40
8.0
 40
9.0
 40
9.0
 40
9.0
 40
10.0
 40
10.0
 40
10.0
 40
11.0
 40
11.0
 40
11.0
 40
11.0
 10
2.630213969804218
 20
-0.5155466745624153
 30
0.0
 10
2.630213969804218
 20
-0.5155466745624153
 30
0.0
 10
2.630213969804218
 20
-0.5078494523401862
 30
0.0
 10
2.630213969804218
 20
-0.5078494523401862
 30
0.0
 10
2.630213969804218
 20
-0.5078494523401862
 30
0.0
 10
2.644443136111426
 20
-0.5003488967846326
 30
0.0
 10
2.644443136111426
 20
-0.5003488967846326
 30
0.0
 10
2.644443136111426
 20
-0.5003488967846326
 30
0.0
 10
2.753566744465843
 20
-0.5428497301179631
 30
0.0
 10
2.753566744465843
 20
-0.5428497301179631
 30
0.0
 10
2.757370911036408
 20
-0.5439211190068565
 30
0.0
 10
2.757175077708022
 20
-0.548987091229075
 30
0.0
 10
2.757175077708022
 20
-0.548987091229075
 30
0.0
 10
2.757175077708022
 20
-0.548987091229075
 30
0.0
 10
2.757052855488887
 20
-1.334197924562406
 30
0.0
 10
2.757052855488887
 20
-1.334197924562406
 30
0.0
 10
2.757052855488887
 20
-1.334197924562406
 30
0.0
 10
2.730813967262848
 20
-1.378061813451293
 30
0.0
 10
2.730813967262848
 20
-1.378061813451293
 30
0.0
 10
2.730813967262848
 20
-1.378061813451293
 30
0.0
 10
2.730813967262848
 20
-1.559838202340188
 30
0.0
 10
2.730813967262848
 20
-1.559838202340188
 30
0.0
 10
2.730000138888891
 20
-1.563656257895748
 30
0.0
 10
2.724215356318432
 20
-1.566389591229078
 30
0.0
 10
2.724215356318432
 20
-1.566389591229078
 30
0.0
 10
2.724215356318432
 20
-1.566389591229078
 30
0.0
 10
2.588608415299707
 20
-1.63354792456241
 30
0.0
 10
2.588608415299707
 20
-1.63354792456241
 30
0.0
 10
2.585427859824499
 20
-1.63469375789575
 30
0.0
 10
2.578802859991861
 20
-1.633825702340194
 30
0.0
 10
2.578802859991861
 20
-1.633825702340194
 30
0.0
 10
2.578802859991861
 20
-1.633825702340194
 30
0.0
 10
2.558240360511313
 20
-1.625620146784627
 30
0.0
 10
2.558240360511313
 20
-1.625620146784627
 30
0.0
  0
POLYLINE
  5
1E2
330
1F
100
AcDbEntity
  8
IUC
 62
   250
420
  2301728
370
    25
100
AcDb2dPolyline
 66
     1
 10
0.0
 20
0.0
 30
0.0
  0
VERTEX
  5
1E3
330
1E2
100
AcDbEntity
  8
IUC
 62
   250
420
  2301728
370
    25
100
AcDbVertex
100
AcDb2dVertex
 10
2.649183413769454
 20
-1.210588202340192
 30
0.0
  0
VERTEX
  5
293
330
1E2
100
AcDbEntity
  8
0
100
AcDbVertex
100
AcDb2dVertex
 10
2.649183413769454
 20
-1.210588202340192
 30
0.0
  0
SEQEND
  5
1E4
330
1E2
100
AcDbEntity
  8
IUC
 62
   250
420
  2301728
370
    25
  0
SPLINE
  5
1E5
330
1F
100
AcDbEntity
  8
IUC
 62
   250
420
  2301728
370
    15
100
AcDbSpline
210
0.0
220
0.0
230
1.0
 70
    11
 71
     3
 72
    17
 73
    13
 74
     0
 42
0.0000000001
 43
0.0000000001
 12
1.0
 22
0.0
 32
0.0
 13
1.0
 23
0.0
 33
0.0
 40
0.0
 40
0.0
 40
0.0
 40
0.0
 40
1.0
 40
1.0
 40
1.0
 40
2.0
 40
2.0
 40
2.0
 40
3.0
 40
3.0
 40
3.0
 40
4.0
 40
4.0
 40
4.0
 40
4.0
 10
2.621113970034091
 20
-1.488745146784633
 30
0.0
 10
2.620211192279144
 20
-1.49531736900686
 30
0.0
 10
2.616075081272508
 20
-1.499257646784637
 30
0.0
 10
2.611869525823193
 20
-1.49749375789573
 30
0.0
 10
2.607693137039809
 20
-1.495724313451294
 30
0.0
 10
2.605034803773631
 20
-1.488961813451296
 30
0.0
 10
2.605922303751211
 20
-1.482404869006852
 30
0.0
 10
2.606832025950464
 20
-1.475792369006841
 30
0.0
 10
2.610961192512807
 20
-1.471886813451293
 30
0.0
 10
2.615159803517852
 20
-1.47364236900685
 30
0.0
 10
2.619363970078325
 20
-1.475392369006853
 30
0.0
 10
2.622008414455952
 20
-1.482160424562405
 30
0.0
 10
2.621113970034091
 20
-1.488745146784633
 30
0.0
  0
SPLINE
  5
1E6
330
1F
100
AcDbEntity
  8
IUC
 62
   250
420
  2301728
370
    15
100
AcDbSpline
210
0.0
220
0.0
230
1.0
 70
    11
 71
     3
 72
    17
 73
    13
 74
     0
 42
0.0000000001
 43
0.0000000001
 12
1.0
 22
0.0
 32
0.0
 13
1.0
 23
0.0
 33
0.0
 40
0.0
 40
0.0
 40
0.0
 40
0.0
 40
1.0
 40
1.0
 40
1.0
 40
2.0
 40
2.0
 40
2.0
 40
3.0
 40
3.0
 40
3.0
 40
4.0
 40
4.0
 40
4.0
 40
4.0
 10
2.612704248024329
 20
-1.474945146784636
 30
0.0
 10
2.609794525875612
 20
-1.476409035673517
 30
0.0
 10
2.607279248161376
 20
-1.478111813451303
 30
0.0
 10
2.606580637067913
 20
-1.483204869006853
 30
0.0
 10
2.605976470416509
 20
-1.487571535673523
 30
0.0
 10
2.607237581495762
 20
-1.491729869006867
 30
0.0
 10
2.609361250000006
 20
-1.494760424562413
 30
0.0
 10
2.612264027777782
 20
-1.493302091229073
 30
0.0
 10
2.613843136884447
 20
-1.490339591229081
 30
0.0
 10
2.61425702576288
 20
-1.485171535673519
 30
0.0
 10
2.614529247978226
 20
-1.481786813451297
 30
0.0
 10
2.614311192428179
 20
-1.478382646784629
 30
0.0
 10
2.612704248024329
 20
-1.474945146784636
 30
0.0
  0
POLYLINE
  5
1E7
330
1F
100
AcDbEntity
  8
IUC
 62
   250
420
  2301728
370
    20
100
AcDb2dPolyline
 66
     1
 10
0.0
 20
0.0
 30
0.0
  0
VERTEX
  5
1E8
330
1E7
100
AcDbEntity
  8
IUC
 62
   250
420
  2301728
370
    20
100
AcDbVertex
100
AcDb2dVertex
 10
2.652336191467586
 20
-0.5909929245624046
 30
0.0
  0
VERTEX
  5
1E9
330
1E7
100
AcDbEntity
  8
IUC
 62
   250
420
  2301728
370
    20
100
AcDbVertex
100
AcDb2dVertex
 10
2.66003341349536
 20
-0.5940988967846326
 30
0.0
  0
SEQEND
  5
1EA
330
1E7
100
AcDbEntity
  8
IUC
 62
   250
420
  2301728
370
    20
  0
POLYLINE
  5
1EB
330
1F
100
AcDbEntity
  8
IUC
 62
   250
420
  2301728
370
    15
100
AcDb2dPolyline
 66
     1
 10
0.0
 20
0.0
 30
0.0
  0
VERTEX
  5
1EC
330
1EB
100
AcDbEntity
  8
IUC
 62
   250
420
  2301728
370
    15
100
AcDbVertex
100
AcDb2dVertex
 10
2.690123690512994
 20
-1.22917014678463
 30
0.0
  0
VERTEX
  5
1ED
330
1EB
100
AcDbEntity
  8
IUC
 62
   250
420
  2301728
370
    15
100
AcDbVertex
100
AcDb2dVertex
 10
2.690123690512994
 20
-1.256668757895745
 30
0.0
  0
VERTEX
  5
1EE
330
1EB
100
AcDbEntity
  8
IUC
 62
   250
420
  2301728
370
    15
100
AcDbVertex
100
AcDb2dVertex
 10
2.673705635372193
 20
-1.24065070234019
 30
0.0
  0
VERTEX
  5
1EF
330
1EB
100
AcDbEntity
  8
IUC
 62
   250
420
  2301728
370
    15
100
AcDbVertex
100
AcDb2dVertex
 10
2.690123690512994
 20
-1.22917014678463
 30
0.0
  0
SEQEND
  5
1F0
330
1EB
100
AcDbEntity
  8
IUC
 62
   250
420
  2301728
370
    15
  0
POLYLINE
  5
1F1
330
1F
100
AcDbEntity
  8
IUC
 62
   250
420
  2301728
370
    15
100
AcDb2dPolyline
 66
     1
 10
0.0
 20
0.0
 30
0.0
  0
VERTEX
  5
1F2
330
1F1
100
AcDbEntity
  8
IUC
 62
   250
420
  2301728
370
    15
100
AcDbVertex
100
AcDb2dVertex
 10
2.682433412929488
 20
-1.234635424562409
 30
0.0
  0
VERTEX
  5
1F3
330
1F1
100
AcDbEntity
  8
IUC
 62
   250
420
  2301728
370
    15
100
AcDbVertex
100
AcDb2dVertex
 10
2.682433412929488
 20
-1.248382646784636
 30
0.0
  0
SEQEND
  5
1F4
330
1F1
100
AcDbEntity
  8
IUC
 62
   250
420
  2301728
370
    15
  0
POLYLINE
  5
1F5
330
1F
100
AcDbEntity
  8
IUC
 62
   250
420
  2301728
370
    15
100
AcDb2dPolyline
 66
     1
 10
0.0
 20
0.0
 30
0.0
  0
VERTEX
  5
1F6
330
1F5
100
AcDbEntity
  8
IUC
 62
   250
420
  2301728
370
    15
100
AcDbVertex
100
AcDb2dVertex
 10
2.690123690512994
 20
-0.9736284801179711
 30
0.0
  0
VERTEX
  5
1F7
330
1F5
100
AcDbEntity
  8
IUC
 62
   250
420
  2301728
370
    15
100
AcDbVertex
100
AcDb2dVertex
 10
2.690123690512994
 20
-1.001128480117965
 30
0.0
  0
VERTEX
  5
1F8
330
1F5
100
AcDbEntity
  8
IUC
 62
   250
420
  2301728
370
    15
100
AcDbVertex
100
AcDb2dVertex
 10
2.673705635372193
 20
-0.9851104245624103
 30
0.0
  0
VERTEX
  5
1F9
330
1F5
100
AcDbEntity
  8
IUC
 62
   250
420
  2301728
370
    15
100
AcDbVertex
100
AcDb2dVertex
 10
2.690123690512994
 20
-0.9736284801179711
 30
0.0
  0
SEQEND
  5
1FA
330
1F5
100
AcDbEntity
  8
IUC
 62
   250
420
  2301728
370
    15
  0
POLYLINE
  5
1FB
330
1F
100
AcDbEntity
  8
IUC
 62
   250
420
  2301728
370
    15
100
AcDb2dPolyline
 66
     1
 10
0.0
 20
0.0
 30
0.0
  0
VERTEX
  5
1FC
330
1FB
100
AcDbEntity
  8
IUC
 62
   250
420
  2301728
370
    15
100
AcDbVertex
100
AcDb2dVertex
 10
2.682433412929488
 20
-0.9790812578957381
 30
0.0
  0
VERTEX
  5
1FD
330
1FB
100
AcDbEntity
  8
IUC
 62
   250
420
  2301728
370
    15
100
AcDbVertex
100
AcDb2dVertex
 10
2.682433412929488
 20
-0.9928284801179643
 30
0.0
  0
SEQEND
  5
1FE
330
1FB
100
AcDbEntity
  8
IUC
 62
   250
420
  2301728
370
    15
  0
POLYLINE
  5
1FF
330
1F
100
AcDbEntity
  8
IUC
 62
   250
420
  2301728
370
    15
100
AcDb2dPolyline
 66
     1
 10
0.0
 20
0.0
 30
0.0
  0
VERTEX
  5
200
330
1FF
100
AcDbEntity
  8
IUC
 62
   250
420
  2301728
370
    15
100
AcDbVertex
100
AcDb2dVertex
 10
2.690123690512994
 20
-1.099375702340189
 30
0.0
  0
VERTEX
  5
201
330
1FF
100
AcDbEntity
  8
IUC
 62
   250
420
  2301728
370
    15
100
AcDbVertex
100
AcDb2dVertex
 10
2.690123690512994
 20
-1.126874313451304
 30
0.0
  0
VERTEX
  5
202
330
1FF
100
AcDbEntity
  8
IUC
 62
   250
420
  2301728
370
    15
100
AcDbVertex
100
AcDb2dVertex
 10
2.673705635372193
 20
-1.110856257895749
 30
0.0
  0
VERTEX
  5
203
330
1FF
100
AcDbEntity
  8
IUC
 62
   250
420
  2301728
370
    15
100
AcDbVertex
100
AcDb2dVertex
 10
2.690123690512994
 20
-1.099375702340189
 30
0.0
  0
SEQEND
  5
204
330
1FF
100
AcDbEntity
  8
IUC
 62
   250
420
  2301728
370
    15
  0
POLYLINE
  5
205
330
1F
100
AcDbEntity
  8
IUC
 62
   250
420
  2301728
370
    15
100
AcDb2dPolyline
 66
     1
 10
0.0
 20
0.0
 30
0.0
  0
VERTEX
  5
206
330
205
100
AcDbEntity
  8
IUC
 62
   250
420
  2301728
370
    15
100
AcDbVertex
100
AcDb2dVertex
 10
2.682433412929488
 20
-1.104827091229077
 30
0.0
  0
VERTEX
  5
207
330
205
100
AcDbEntity
  8
IUC
 62
   250
420
  2301728
370
    15
100
AcDbVertex
100
AcDb2dVertex
 10
2.682433412929488
 20
-1.118574313451303
 30
0.0
  0
SEQEND
  5
208
330
205
100
AcDbEntity
  8
IUC
 62
   250
420
  2301728
370
    15
  0
POLYLINE
  5
209
330
1F
100
AcDbEntity
  8
IUC
 62
   250
420
  2301728
370
    15
100
AcDb2dPolyline
 66
     1
 10
0.0
 20
0.0
 30
0.0
  0
VERTEX
  5
20A
330
209
100
AcDbEntity
  8
IUC
 62
   250
420
  2301728
370
    15
100
AcDbVertex
100
AcDb2dVertex
 10
2.575669526737682
 20
-1.443295146784635
 30
0.0
  0
VERTEX
  5
20B
330
209
100
AcDbEntity
  8
IUC
 62
   250
420
  2301728
370
    15
100
AcDbVertex
100
AcDb2dVertex
 10
2.587490359772396
 20
-1.449920146784633
 30
0.0
  0
SEQEND
  5
20C
330
209
100
AcDbEntity
  8
IUC
 62
   250
420
  2301728
370
    15
  0
POLYLINE
  5
20D
330
1F
100
AcDbEntity
  8
IUC
 62
   250
420
  2301728
370
    15
100
AcDb2dPolyline
 66
     1
 10
0.0
 20
0.0
 30
0.0
  0
VERTEX
  5
20E
330
20D
100
AcDbEntity
  8
IUC
 62
   250
420
  2301728
370
    15
100
AcDbVertex
100
AcDb2dVertex
 10
2.651441747045737
 20
-1.266910424562411
 30
0.0
  0
VERTEX
  5
20F
330
20D
100
AcDbEntity
  8
IUC
 62
   250
420
  2301728
370
    15
100
AcDbVertex
100
AcDb2dVertex
 10
2.662061191221912
 20
-1.271989591229082
 30
0.0
  0
SEQEND
  5
210
330
20D
100
AcDbEntity
  8
IUC
 62
   250
420
  2301728
370
    15
  0
SPLINE
  5
211
330
1F
100
AcDbEntity
  8
IUC
 62
   250
420
  2301728
370
    25
100
AcDbSpline
210
0.0
220
0.0
230
1.0
 70
     8
 71
     3
 72
    20
 73
    16
 74
     0
 42
0.0000000001
 43
0.0000000001
 12
1.0
 22
0.0
 32
0.0
 13
1.0
 23
0.0
 33
0.0
 40
0.0
 40
0.0
 40
0.0
 40
0.0
 40
1.0
 40
1.0
 40
1.0
 40
2.0
 40
2.0
 40
2.0
 40
3.0
 40
3.0
 40
3.0
 40
4.0
 40
4.0
 40
4.0
 40
5.0
 40
5.0
 40
5.0
 40
5.0
 10
2.576184804502443
 20
-0.4955000078957457
 30
0.0
 10
2.576184804502443
 20
-0.4955000078957457
 30
0.0
 10
2.576184804502443
 20
-0.4751548690068527
 30
0.0
 10
2.576184804502443
 20
-0.4751548690068527
 30
0.0
 10
2.576184804502443
 20
-0.4751548690068527
 30
0.0
 10
2.488050084506691
 20
-0.440663202340185
 30
0.0
 10
2.479112584732472
 20
-0.4370895912290709
 30
0.0
 10
2.470173696069398
 20
-0.4335159801179694
 30
0.0
 10
2.459437585229504
 20
-0.4308298690068568
 30
0.0
 10
2.446030641123747
 20
-0.4361937578957445
 30
0.0
 10
2.432623697017991
 20
-0.4415590356735239
 30
0.0
 10
2.35906958333333
 20
-0.4684882023401921
 30
0.0
 10
2.35906958333333
 20
-0.4684882023401921
 30
0.0
 10
2.35906958333333
 20
-0.4684882023401921
 30
0.0
 10
2.358173698898756
 20
-0.4881554245624152
 30
0.0
 10
2.358173698898756
 20
-0.4881554245624152
 30
0.0
  0
POLYLINE
  5
212
330
1F
100
AcDbEntity
  8
IUC
 62
   250
420
  2301728
370
    15
100
AcDb2dPolyline
 66
     1
 10
0.0
 20
0.0
 30
0.0
  0
VERTEX
  5
213
330
212
100
AcDbEntity
  8
IUC
 62
   250
420
  2301728
370
    15
100
AcDbVertex
100
AcDb2dVertex
 10
2.576184804502443
 20
-0.4751548690068527
 30
0.0
  0
VERTEX
  5
214
330
212
100
AcDbEntity
  8
IUC
 62
   250
420
  2301728
370
    15
100
AcDbVertex
100
AcDb2dVertex
 10
2.555622305021908
 20
-0.4831979245624072
 30
0.0
  0
VERTEX
  5
215
330
212
100
AcDbEntity
  8
IUC
 62
   250
420
  2301728
370
    15
100
AcDbVertex
100
AcDb2dVertex
 10
2.460333472222222
 20
-0.447817369006859
 30
0.0
  0
VERTEX
  5
216
330
212
100
AcDbEntity
  8
IUC
 62
   250
420
  2301728
370
    15
100
AcDbVertex
100
AcDb2dVertex
 10
2.361111249999996
 20
-0.4856868134513029
 30
0.0
  0
SEQEND
  5
217
330
212
100
AcDbEntity
  8
IUC
 62
   250
420
  2301728
370
    15
  0
POLYLINE
  5
218
330
1F
100
AcDbEntity
  8
IUC
 62
   250
420
  2301728
370
    15
100
AcDb2dPolyline
 66
     1
 10
0.0
 20
0.0
 30
0.0
  0
VERTEX
  5
219
330
218
100
AcDbEntity
  8
IUC
 62
   250
420
  2301728
370
    15
100
AcDbVertex
100
AcDb2dVertex
 10
2.360412587731086
 20
-0.469593757895748
 30
0.0
  0
VERTEX
  5
21A
330
218
100
AcDbEntity
  8
IUC
 62
   250
420
  2301728
370
    15
100
AcDbVertex
100
AcDb2dVertex
 10
2.380377865004498
 20
-0.4768507023401929
 30
0.0
  0
SEQEND
  5
21B
330
218
100
AcDbEntity
  8
IUC
 62
   250
420
  2301728
370
    15
  0
INSERT
  5
21E
330
1F
100
AcDbEntity
  8
Nails
100
AcDbBlockReference
  2
block 6
 10
0.0
 20
0.0
 30
0.0
  0
INSERT
  5
225
330
1F
100
AcDbEntity
  8
Nails
100
AcDbBlockReference
  2
block 7
 10
0.0
 20
0.0
 30
0.0
  0
INSERT
  5
22C
330
1F
100
AcDbEntity
  8
Nails
100
AcDbBlockReference
  2
block 8
 10
0.0
 20
0.0
 30
0.0
  0
INSERT
  5
233
330
1F
100
AcDbEntity
  8
Nails
100
AcDbBlockReference
  2
block 9
 10
0.0
 20
0.0
 30
0.0
  0
INSERT
  5
23A
330
1F
100
AcDbEntity
  8
Nails
100
AcDbBlockReference
  2
block 10
 10
0.0
 20
0.0
 30
0.0
  0
INSERT
  5
241
330
1F
100
AcDbEntity
  8
Nails
100
AcDbBlockReference
  2
block 11
 10
0.0
 20
0.0
 30
0.0
  0
INSERT
  5
248
330
1F
100
AcDbEntity
  8
Nails
100
AcDbBlockReference
  2
block 12
 10
0.0
 20
0.0
 30
0.0
  0
INSERT
  5
24F
330
1F
100
AcDbEntity
  8
Nails
100
AcDbBlockReference
  2
block 13
 10
0.0
 20
0.0
 30
0.0
  0
INSERT
  5
256
330
1F
100
AcDbEntity
  8
Nails
100
AcDbBlockReference
  2
block 14
 10
0.0
 20
0.0
 30
0.0
  0
INSERT
  5
25D
330
1F
100
AcDbEntity
  8
Nails
100
AcDbBlockReference
  2
block 15
 10
0.0
 20
0.0
 30
0.0
  0
INSERT
  5
264
330
1F
100
AcDbEntity
  8
Nails
100
AcDbBlockReference
  2
block 16
 10
0.0
 20
0.0
 30
0.0
  0
INSERT
  5
26B
330
1F
100
AcDbEntity
  8
Nails
100
AcDbBlockReference
  2
block 17
 10
0.0
 20
0.0
 30
0.0
  0
POLYLINE
  5
271
330
1F
100
AcDbEntity
  8
Nails
 62
   250
420
  2301728
370
    20
100
AcDb2dPolyline
 66
     1
 10
0.0
 20
0.0
 30
0.0
  0
VERTEX
  5
272
330
271
100
AcDbEntity
  8
Nails
 62
   250
420
  2301728
370
    20
100
AcDbVertex
100
AcDb2dVertex
 10
5.151075017233021
 20
-1.537336813451298
 30
0.0
  0
VERTEX
  5
273
330
271
100
AcDbEntity
  8
Nails
 62
   250
420
  2301728
370
    20
100
AcDbVertex
100
AcDb2dVertex
 10
5.126891684510611
 20
-1.552554869006851
 30
0.0
  0
VERTEX
  5
274
330
271
100
AcDbEntity
  8
Nails
 62
   250
420
  2301728
370
    20
100
AcDbVertex
100
AcDb2dVertex
 10
5.126891684510611
 20
-1.571081257895748
 30
0.0
  0
SEQEND
  5
275
330
271
100
AcDbEntity
  8
Nails
 62
   250
420
  2301728
370
    20
  0
POLYLINE
  5
276
330
1F
100
AcDbEntity
  8
Nails
 62
   250
420
  2301728
370
    20
100
AcDb2dPolyline
 66
     1
 10
0.0
 20
0.0
 30
0.0
  0
VERTEX
  5
277
330
276
100
AcDbEntity
  8
Nails
 62
   250
420
  2301728
370
    20
100
AcDbVertex
100
AcDb2dVertex
 10
2.668612579945311
 20
-0.5750151467846333
 30
0.0
  0
VERTEX
  5
278
330
276
100
AcDbEntity
  8
Nails
 62
   250
420
  2301728
370
    20
100
AcDbVertex
100
AcDb2dVertex
 10
2.649080635994273
 20
-0.5843400078957377
 30
0.0
  0
VERTEX
  5
279
330
276
100
AcDbEntity
  8
Nails
 62
   250
420
  2301728
370
    20
100
AcDbVertex
100
AcDb2dVertex
 10
2.649080635994273
 20
-0.5993004245624054
 30
0.0
  0
SEQEND
  5
27A
330
276
100
AcDbEntity
  8
Nails
 62
   250
420
  2301728
370
    20
  0
INSERT
  5
27C
330
1F
100
AcDbEntity
  8
Nails
100
AcDbBlockReference
  2
block 18
 10
0.0
 20
0.0
 30
0.0
  0
MTEXT
  5
282
330
1F
100
AcDbEntity
  8
Nails
 62
   250
420
  2236191
100
AcDbMText
 10
2.467174842834462
 20
-2.704113986757066
 30
0.0
 40
0.118
 41
0.0
 46
0.0
 71
     7
 72
     1
  1
\fHelvetica Neue LT Std 57 Condensed|b0|i0|c0|p34;\W1;IUC / HUC / SAIX
 73
     1
 44
1.0
  0
POLYLINE
  5
283
330
1F
100
AcDbEntity
  8
Nails
 62
   250
420
  2236191
370
    18
100
AcDb2dPolyline
 66
     1
 10
0.0
 20
0.0
 30
0.0
  0
VERTEX
  5
284
330
283
100
AcDbEntity
  8
Nails
 62
   250
420
  2236191
370
    18
100
AcDbVertex
100
AcDb2dVertex
 10
3.57610315777505
 20
-2.65128264678463
 30
0.0
  0
VERTEX
  5
285
330
283
100
AcDbEntity
  8
Nails
 62
   250
420
  2236191
370
    18
100
AcDbVertex
100
AcDb2dVertex
 10
4.696526417604773
 20
-2.557660424562414
 30
0.0
  0
SEQEND
  5
286
330
283
100
AcDbEntity
  8
Nails
 62
   250
420
  2236191
370
    18
  0
POLYLINE
  5
287
330
1F
100
AcDbEntity
  8
Nails
 62
   250
420
  2236191
370
    18
100
AcDb2dPolyline
 66
     1
 10
0.0
 20
0.0
 30
0.0
  0
VERTEX
  5
288
330
287
100
AcDbEntity
  8
Nails
 62
   250
420
  2236191
370
    18
100
AcDbVertex
100
AcDb2dVertex
 10
5.035976409029545
 20
-0.5450062578957436
 30
0.0
  0
VERTEX
  5
289
330
287
100
AcDbEntity
  8
Nails
 62
   250
420
  2236191
370
    18
100
AcDbVertex
100
AcDb2dVertex
 10
4.440592307784022
 20
-0.9414286912235639
 30
0.0
  0
SEQEND
  5
28A
330
287
100
AcDbEntity
  8
Nails
 62
   250
420
  2236191
370
    18
  0
POLYLINE
  5
28B
330
1F
100
AcDbEntity
  8
Nails
 62
   250
420
  2236191
370
    18
100
AcDb2dPolyline
 66
     1
 10
0.0
 20
0.0
 30
0.0
  0
VERTEX
  5
28C
330
28B
100
AcDbEntity
  8
Nails
 62
   250
420
  2236191
370
    18
100
AcDbVertex
100
AcDb2dVertex
 10
2.871033154121859
 20
-2.493527091229073
 30
0.0
  0
VERTEX
  5
28D
330
28B
100
AcDbEntity
  8
Nails
 62
   250
420
  2236191
370
    18
100
AcDbVertex
100
AcDb2dVertex
 10
2.649080635994273
 20
-1.614850058275174
 30
0.0
  0
SEQEND
  5
28E
330
28B
100
AcDbEntity
  8
Nails
 62
   250
420
  2236191
370
    18
  0
ENDSEC
  0
SECTION
  2
OBJECTS
  0
DICTIONARY
  5
C
330
0
100
AcDbDictionary
281
     1
  3
ACAD_GROUP
350
D
  3
ACAD_LAYOUT
350
1A
  3
ACAD_MATERIAL
350
3B
  3
ACAD_MLEADERSTYLE
350
295
  3
ACAD_MLINESTYLE
350
17
  3
ACAD_PLOTSETTINGS
350
19
  3
ACAD_PLOTSTYLENAME
350
E
  3
ACAD_TABLESTYLE
350
294
  3
ACAD_VISUALSTYLE
350
2A
  0
SUN
  5
3F
330
29
100
AcDbSun
 90
        1
290
     0
 63
     7
421
 16777215
 40
1.0
291
     1
 91
  2455826
 92
 54000000
292
     0
 70
     2
 71
   256
280
     1
  0
DICTIONARY
  5
D
102
{ACAD_REACTORS
330
C
102
}
330
C
100
AcDbDictionary
281
     1
  0
DICTIONARY
  5
1A
102
{ACAD_REACTORS
330
C
102
}
330
C
100
AcDbDictionary
281
     1
  3
Layout1
350
1E
  3
Layout2
350
26
  3
Model
350
22
  0
DICTIONARY
  5
3B
102
{ACAD_REACTORS
330
C
102
}
330
C
100
AcDbDictionary
281
     1
  3
ByBlock
350
3D
  3
ByLayer
350
3C
  3
Global
350
3E
  0
DICTIONARY
  5
295
102
{ACAD_REACTORS
330
C
102
}
330
C
100
AcDbDictionary
281
     1
  0
DICTIONARY
  5
17
102
{ACAD_REACTORS
330
C
102
}
330
C
100
AcDbDictionary
281
     1
  3
Standard
350
18
  0
DICTIONARY
  5
19
102
{ACAD_REACTORS
330
C
102
}
330
C
100
AcDbDictionary
281
     1
  0
ACDBDICTIONARYWDFLT
  5
E
102
{ACAD_REACTORS
330
C
102
}
330
C
100
AcDbDictionary
281
     1
  3
Normal
350
F
100
AcDbDictionaryWithDefault
340
F
  0
DICTIONARY
  5
294
102
{ACAD_REACTORS
330
C
102
}
330
C
100
AcDbDictionary
281
     1
  0
DICTIONARY
  5
2A
102
{ACAD_REACTORS
330
C
102
}
330
C
100
AcDbDictionary
281
     1
  3
2dWireframe
350
2F
  3
3D Hidden
350
31
  3
3dWireframe
350
30
  3
Basic
350
32
  3
Brighten
350
36
  3
ColorChange
350
3A
  3
Conceptual
350
34
  3
Dim
350
35
  3
Facepattern
350
39
  3
Flat
350
2B
  3
FlatWithEdges
350
2C
  3
Gouraud
350
2D
  3
GouraudWithEdges
350
2E
  3
Linepattern
350
38
  3
Realistic
350
33
  3
Thicken
350
37
  0
LAYOUT
  5
1E
102
{ACAD_REACTORS
330
1A
102
}
330
1A
100
AcDbPlotSettings
  1

  2
none_device
  4

  6

 40
0.0
 41
0.0
 42
0.0
 43
0.0
 44
0.0
 45
0.0
 46
0.0
 47
0.0
 48
0.0
 49
0.0
140
0.0
141
0.0
142
1.0
143
1.0
 70
   688
 72
     0
 73
     0
 74
     5
  7

 75
    16
 76
     0
 77
     2
 78
   300
147
1.0
148
0.0
149
0.0
100
AcDbLayout
  1
Layout1
 70
     1
 71
     1
 10
0.0
 20
0.0
 11
12.0
 21
9.0
 12
0.0
 22
0.0
 32
0.0
 14
1.000000000000000E+20
 24
1.000000000000000E+20
 34
1.000000000000000E+20
 15
-1.000000000000000E+20
 25
-1.000000000000000E+20
 35
-1.000000000000000E+20
146
0.0
 13
0.0
 23
0.0
 33
0.0
 16
1.0
 26
0.0
 36
0.0
 17
0.0
 27
1.0
 37
0.0
 76
     0
330
1B
  0
LAYOUT
  5
26
102
{ACAD_REACTORS
330
1A
102
}
330
1A
100
AcDbPlotSettings
  1

  2
none_device
  4

  6

 40
0.0
 41
0.0
 42
0.0
 43
0.0
 44
0.0
 45
0.0
 46
0.0
 47
0.0
 48
0.0
 49
0.0
140
0.0
141
0.0
142
1.0
143
1.0
 70
   688
 72
     0
 73
     0
 74
     5
  7

 75
    16
 76
     0
 77
     2
 78
   300
147
1.0
148
0.0
149
0.0
100
AcDbLayout
  1
Layout2
 70
     1
 71
     2
 10
0.0
 20
0.0
 11
0.0
 21
0.0
 12
0.0
 22
0.0
 32
0.0
 14
0.0
 24
0.0
 34
0.0
 15
0.0
 25
0.0
 35
0.0
146
0.0
 13
0.0
 23
0.0
 33
0.0
 16
1.0
 26
0.0
 36
0.0
 17
0.0
 27
1.0
 37
0.0
 76
     0
330
23
  0
LAYOUT
  5
22
102
{ACAD_REACTORS
330
1A
102
}
330
1A
100
AcDbPlotSettings
  1

  2
none_device
  4

  6

 40
0.0
 41
0.0
 42
0.0
 43
0.0
 44
0.0
 45
0.0
 46
0.0
 47
0.0
 48
0.0
 49
0.0
140
0.0
141
0.0
142
1.0
143
1.0
 70
  1712
 72
     0
 73
     0
 74
     0
  7

 75
     0
 76
     0
 77
     2
 78
   300
147
1.0
148
0.0
149
0.0
100
AcDbLayout
  1
Model
 70
     1
 71
     0
 10
0.0
 20
0.0
 11
12.0
 21
9.0
 12
0.0
 22
0.0
 32
0.0
 14
1.000000000000000E+20
 24
1.000000000000000E+20
 34
1.000000000000000E+20
 15
-1.000000000000000E+20
 25
-1.000000000000000E+20
 35
-1.000000000000000E+20
146
0.0
 13
0.0
 23
0.0
 33
0.0
 16
1.0
 26
0.0
 36
0.0
 17
0.0
 27
1.0
 37
0.0
 76
     0
330
1F
331
29
  0
MATERIAL
  5
3D
102
{ACAD_REACTORS
330
3B
102
}
330
3B
100
AcDbMaterial
  1
ByBlock
 72
     1
 94
      127
  0
MATERIAL
  5
3C
102
{ACAD_REACTORS
330
3B
102
}
330
3B
100
AcDbMaterial
  1
ByLayer
 72
     1
 94
      127
  0
MATERIAL
  5
3E
102
{ACAD_REACTORS
330
3B
102
}
330
3B
100
AcDbMaterial
  1
Global
 72
     1
 94
      127
  0
MLINESTYLE
  5
18
102
{ACAD_REACTORS
330
17
102
}
330
17
100
AcDbMlineStyle
  2
Standard
 70
     0
  3

 62
   256
 51
90.0
 52
90.0
 71
     2
 49
0.5
 62
   256
  6
BYLAYER
 49
-0.5
 62
   256
  6
BYLAYER
  0
ACDBPLACEHOLDER
  5
F
102
{ACAD_REACTORS
330
E
102
}
330
E
  0
VISUALSTYLE
  5
2F
102
{ACAD_REACTORS
330
2A
102
}
330
2A
100
AcDbVisualStyle
  2
2dWireframe
 70
     4
177
     2
291
     0
 71
     0
176
     1
 72
     2
176
     1
 73
     0
176
     1
 90
        0
176
     1
 40
-0.6
176
     1
 41
-30.0
176
     1
 62
     5
 63
     7
421
 16777215
176
     1
 74
     1
176
     1
 91
        4
176
     1
 64
     7
176
     1
 65
   257
176
     1
 75
     1
176
     1
175
     1
176
     1
 42
1.0
176
     1
 92
        0
176
     1
 66
   257
176
     1
 43
1.0
176
     1
 76
     1
176
     1
 77
     6
176
     1
 78
     2
176
     1
 67
     7
176
     1
 79
     5
176
     1
170
     0
176
     1
171
     0
176
     1
290
     0
176
     1
 93
        1
176
     1
 44
0.0
176
     1
173
     0
176
     1
  0
VISUALSTYLE
  5
31
102
{ACAD_REACTORS
330
2A
102
}
330
2A
100
AcDbVisualStyle
  2
3D Hidden
 70
     6
177
     2
291
     0
 71
     1
176
     1
 72
     2
176
     1
 73
     2
176
     1
 90
        0
176
     1
 40
-0.6
176
     1
 41
-30.0
176
     1
 62
     5
 63
     7
421
 16777215
176
     1
 74
     2
176
     1
 91
        2
176
     1
 64
     7
176
     1
 65
   257
176
     1
 75
     2
176
     1
175
     1
176
     1
 42
40.0
176
     1
 92
        0
176
     1
 66
   257
176
     1
 43
1.0
176
     1
 76
     1
176
     1
 77
     6
176
     1
 78
     2
176
     1
 67
     7
176
     1
 79
     3
176
     1
170
     0
176
     1
171
     0
176
     1
290
     0
176
     1
 93
        1
176
     1
 44
0.0
176
     1
173
     0
176
     1
  0
VISUALSTYLE
  5
30
102
{ACAD_REACTORS
330
2A
102
}
330
2A
100
AcDbVisualStyle
  2
3dWireframe
 70
     5
177
     2
291
     0
 71
     0
176
     1
 72
     2
176
     1
 73
     0
176
     1
 90
        0
176
     1
 40
-0.6
176
     1
 41
-30.0
176
     1
 62
     5
 63
     7
421
 16777215
176
     1
 74
     1
176
     1
 91
        4
176
     1
 64
     7
176
     1
 65
   257
176
     1
 75
     1
176
     1
175
     1
176
     1
 42
1.0
176
     1
 92
        0
176
     1
 66
   257
176
     1
 43
1.0
176
     1
 76
     1
176
     1
 77
     6
176
     1
 78
     2
176
     1
 67
     7
176
     1
 79
     5
176
     1
170
     0
176
     1
171
     0
176
     1
290
     0
176
     1
 93
        1
176
     1
 44
0.0
176
     1
173
     0
176
     1
  0
VISUALSTYLE
  5
32
102
{ACAD_REACTORS
330
2A
102
}
330
2A
100
AcDbVisualStyle
  2
Basic
 70
     7
177
     2
291
     1
 71
     1
176
     1
 72
     0
176
     1
 73
     1
176
     1
 90
        0
176
     1
 40
-0.6
176
     1
 41
-30.0
176
     1
 62
     5
 63
     7
421
 16777215
176
     1
 74
     0
176
     1
 91
        4
176
     1
 64
     7
176
     1
 65
   257
176
     1
 75
     1
176
     1
175
     1
176
     1
 42
1.0
176
     1
 92
        8
176
     1
 66
     7
176
     1
 43
1.0
176
     1
 76
     1
176
     1
 77
     6
176
     1
 78
     2
176
     1
 67
     7
176
     1
 79
     5
176
     1
170
     0
176
     1
171
     0
176
     1
290
     0
176
     1
 93
        1
176
     1
 44
0.0
176
     1
173
     0
176
     1
  0
VISUALSTYLE
  5
36
102
{ACAD_REACTORS
330
2A
102
}
330
2A
100
AcDbVisualStyle
  2
Brighten
 70
    12
177
     2
291
     1
 71
     2
176
     1
 72
     2
176
     1
 73
     0
176
     1
 90
        0
176
     1
 40
-0.6
176
     1
 41
-30.0
176
     1
 62
     5
 63
     7
421
 16777215
176
     1
 74
     1
176
     1
 91
        4
176
     1
 64
     7
176
     1
 65
   257
176
     1
 75
     1
176
     1
175
     1
176
     1
 42
1.0
176
     1
 92
        8
176
     1
 66
     7
176
     1
 43
1.0
176
     1
 76
     1
176
     1
 77
     6
176
     1
 78
     2
176
     1
 67
     7
176
     1
 79
     5
176
     1
170
     0
176
     1
171
     0
176
     1
290
     0
176
     1
 93
        1
176
     1
 44
50.0
176
     1
173
     0
176
     1
  0
VISUALSTYLE
  5
3A
102
{ACAD_REACTORS
330
2A
102
}
330
2A
100
AcDbVisualStyle
  2
ColorChange
 70
    16
177
     2
291
     1
 71
     2
176
     1
 72
     2
176
     1
 73
     3
176
     1
 90
        0
176
     1
 40
-0.6
176
     1
 41
-30.0
176
     1
 62
     5
 63
     8
421
  8421504
176
     1
 74
     1
176
     1
 91
        4
176
     1
 64
     7
176
     1
 65
   257
176
     1
 75
     1
176
     1
175
     1
176
     1
 42
1.0
176
     1
 92
        8
176
     1
 66
     8
424
  8421504
176
     1
 43
1.0
176
     1
 76
     1
176
     1
 77
     6
176
     1
 78
     2
176
     1
 67
     7
176
     1
 79
     5
176
     1
170
     0
176
     1
171
     0
176
     1
290
     0
176
     1
 93
        1
176
     1
 44
0.0
176
     1
173
     0
176
     1
  0
VISUALSTYLE
  5
34
102
{ACAD_REACTORS
330
2A
102
}
330
2A
100
AcDbVisualStyle
  2
Conceptual
 70
     9
177
     2
291
     0
 71
     3
176
     1
 72
     2
176
     1
 73
     0
176
     1
 90
        0
176
     1
 40
-0.6
176
     1
 41
-30.0
176
     1
 62
     5
 63
     7
421
 16777215
176
     1
 74
     2
176
     1
 91
        2
176
     1
 64
     7
176
     1
 65
   257
176
     1
 75
     1
176
     1
175
     1
176
     1
 42
40.0
176
     1
 92
        8
176
     1
 66
     7
176
     1
 43
1.0
176
     1
 76
     1
176
     1
 77
     6
176
     1
 78
     2
176
     1
 67
     7
176
     1
 79
     3
176
     1
170
     0
176
     1
171
     0
176
     1
290
     0
176
     1
 93
        1
176
     1
 44
0.0
176
     1
173
     0
176
     1
  0
VISUALSTYLE
  5
35
102
{ACAD_REACTORS
330
2A
102
}
330
2A
100
AcDbVisualStyle
  2
Dim
 70
    11
177
     2
291
     1
 71
     2
176
     1
 72
     2
176
     1
 73
     0
176
     1
 90
        0
176
     1
 40
-0.6
176
     1
 41
-30.0
176
     1
 62
     5
 63
     7
421
 16777215
176
     1
 74
     1
176
     1
 91
        4
176
     1
 64
     7
176
     1
 65
   257
176
     1
 75
     1
176
     1
175
     1
176
     1
 42
1.0
176
     1
 92
        8
176
     1
 66
     7
176
     1
 43
1.0
176
     1
 76
     1
176
     1
 77
     6
176
     1
 78
     2
176
     1
 67
     7
176
     1
 79
     5
176
     1
170
     0
176
     1
171
     0
176
     1
290
     0
176
     1
 93
        1
176
     1
 44
-50.0
176
     1
173
     0
176
     1
  0
VISUALSTYLE
  5
39
102
{ACAD_REACTORS
330
2A
102
}
330
2A
100
AcDbVisualStyle
  2
Facepattern
 70
    15
177
     2
291
     1
 71
     2
176
     1
 72
     2
176
     1
 73
     0
176
     1
 90
        0
176
     1
 40
-0.6
176
     1
 41
-30.0
176
     1
 62
     5
 63
     7
421
 16777215
176
     1
 74
     1
176
     1
 91
        4
176
     1
 64
     7
176
     1
 65
   257
176
     1
 75
     1
176
     1
175
     1
176
     1
 42
1.0
176
     1
 92
        8
176
     1
 66
     7
176
     1
 43
1.0
176
     1
 76
     1
176
     1
 77
     6
176
     1
 78
     2
176
     1
 67
     7
176
     1
 79
     5
176
     1
170
     0
176
     1
171
     0
176
     1
290
     0
176
     1
 93
        1
176
     1
 44
0.0
176
     1
173
     0
176
     1
  0
VISUALSTYLE
  5
2B
102
{ACAD_REACTORS
330
2A
102
}
330
2A
100
AcDbVisualStyle
  2
Flat
 70
     0
177
     2
291
     1
 71
     2
176
     1
 72
     1
176
     1
 73
     1
176
     1
 90
        2
176
     1
 40
-0.6
176
     1
 41
30.0
176
     1
 62
     5
 63
     7
421
 16777215
176
     1
 74
     0
176
     1
 91
        4
176
     1
 64
     7
176
     1
 65
   257
176
     1
 75
     1
176
     1
175
     1
176
     1
 42
1.0
176
     1
 92
        8
176
     1
 66
     7
176
     1
 43
1.0
176
     1
 76
     1
176
     1
 77
     6
176
     1
 78
     2
176
     1
 67
     7
176
     1
 79
     5
176
     1
170
     0
176
     1
171
     0
176
     1
290
     0
176
     1
 93
       13
176
     1
 44
0.0
176
     1
173
     0
176
     1
  0
VISUALSTYLE
  5
2C
102
{ACAD_REACTORS
330
2A
102
}
330
2A
100
AcDbVisualStyle
  2
FlatWithEdges
 70
     1
177
     2
291
     1
 71
     2
176
     1
 72
     1
176
     1
 73
     1
176
     1
 90
        2
176
     1
 40
-0.6
176
     1
 41
30.0
176
     1
 62
     5
 63
     7
421
 16777215
176
     1
 74
     1
176
     1
 91
        4
176
     1
 64
     7
176
     1
 65
   257
176
     1
 75
     1
176
     1
175
     1
176
     1
 42
1.0
176
     1
 92
        0
176
     1
 66
   257
176
     1
 43
1.0
176
     1
 76
     1
176
     1
 77
     6
176
     1
 78
     2
176
     1
 67
     7
176
     1
 79
     5
176
     1
170
     0
176
     1
171
     0
176
     1
290
     0
176
     1
 93
       13
176
     1
 44
0.0
176
     1
173
     0
176
     1
  0
VISUALSTYLE
  5
2D
102
{ACAD_REACTORS
330
2A
102
}
330
2A
100
AcDbVisualStyle
  2
Gouraud
 70
     2
177
     2
291
     1
 71
     2
176
     1
 72
     2
176
     1
 73
     1
176
     1
 90
        2
176
     1
 40
-0.6
176
     1
 41
30.0
176
     1
 62
     5
 63
     7
421
 16777215
176
     1
 74
     0
176
     1
 91
        4
176
     1
 64
     7
176
     1
 65
   257
176
     1
 75
     1
176
     1
175
     1
176
     1
 42
1.0
176
     1
 92
        0
176
     1
 66
     7
176
     1
 43
1.0
176
     1
 76
     1
176
     1
 77
     6
176
     1
 78
     2
176
     1
 67
     7
176
     1
 79
     5
176
     1
170
     0
176
     1
171
     0
176
     1
290
     0
176
     1
 93
       13
176
     1
 44
0.0
176
     1
173
     0
176
     1
  0
VISUALSTYLE
  5
2E
102
{ACAD_REACTORS
330
2A
102
}
330
2A
100
AcDbVisualStyle
  2
GouraudWithEdges
 70
     3
177
     2
291
     1
 71
     2
176
     1
 72
     2
176
     1
 73
     1
176
     1
 90
        2
176
     1
 40
-0.6
176
     1
 41
30.0
176
     1
 62
     5
 63
     7
421
 16777215
176
     1
 74
     1
176
     1
 91
        4
176
     1
 64
     7
176
     1
 65
   257
176
     1
 75
     1
176
     1
175
     1
176
     1
 42
1.0
176
     1
 92
        0
176
     1
 66
   257
176
     1
 43
1.0
176
     1
 76
     1
176
     1
 77
     6
176
     1
 78
     2
176
     1
 67
     7
176
     1
 79
     5
176
     1
170
     0
176
     1
171
     0
176
     1
290
     0
176
     1
 93
       13
176
     1
 44
0.0
176
     1
173
     0
176
     1
  0
VISUALSTYLE
  5
38
102
{ACAD_REACTORS
330
2A
102
}
330
2A
100
AcDbVisualStyle
  2
Linepattern
 70
    14
177
     2
291
     1
 71
     2
176
     1
 72
     2
176
     1
 73
     0
176
     1
 90
        0
176
     1
 40
-0.6
176
     1
 41
-30.0
176
     1
 62
     5
 63
     7
421
 16777215
176
     1
 74
     1
176
     1
 91
        4
176
     1
 64
     7
176
     1
 65
   257
176
     1
 75
     7
176
     1
175
     7
176
     1
 42
1.0
176
     1
 92
        8
176
     1
 66
     7
176
     1
 43
1.0
176
     1
 76
     1
176
     1
 77
     6
176
     1
 78
     2
176
     1
 67
     7
176
     1
 79
     5
176
     1
170
     0
176
     1
171
     0
176
     1
290
     0
176
     1
 93
        1
176
     1
 44
0.0
176
     1
173
     0
176
     1
  0
VISUALSTYLE
  5
33
102
{ACAD_REACTORS
330
2A
102
}
330
2A
100
AcDbVisualStyle
  2
Realistic
 70
     8
177
     2
291
     0
 71
     2
176
     1
 72
     2
176
     1
 73
     0
176
     1
 90
        0
176
     1
 40
-0.6
176
     1
 41
-30.0
176
     1
 62
     5
 63
     7
421
 16777215
176
     1
 74
     1
176
     1
 91
        0
176
     1
 64
     7
176
     1
 65
   257
176
     1
 75
     1
176
     1
175
     1
176
     1
 42
1.0
176
     1
 92
        8
176
     1
 66
     8
424
  7895160
176
     1
 43
1.0
176
     1
 76
     1
176
     1
 77
     6
176
     1
 78
     2
176
     1
 67
     7
176
     1
 79
     5
176
     1
170
     0
176
     1
171
     0
176
     1
290
     0
176
     1
 93
       13
176
     1
 44
0.0
176
     1
173
     0
176
     1
  0
VISUALSTYLE
  5
37
102
{ACAD_REACTORS
330
2A
102
}
330
2A
100
AcDbVisualStyle
  2
Thicken
 70
    13
177
     2
291
     1
 71
     2
176
     1
 72
     2
176
     1
 73
     0
176
     1
 90
        0
176
     1
 40
-0.6
176
     1
 41
-30.0
176
     1
 62
     5
 63
     7
421
 16777215
176
     1
 74
     1
176
     1
 91
        4
176
     1
 64
     7
176
     1
 65
   257
176
     1
 75
     1
176
     1
175
     1
176
     1
 42
1.0
176
     1
 92
       12
176
     1
 66
     7
176
     1
 43
1.0
176
     1
 76
     1
176
     1
 77
     6
176
     1
 78
     2
176
     1
 67
     7
176
     1
 79
     5
176
     1
170
     0
176
     1
171
     0
176
     1
290
     0
176
     1
 93
        1
176
     1
 44
0.0
176
     1
173
     0
176
     1
  0
ENDSEC
  0
EOF
