  0
SECTION
  2
HEADER
  9
$ACADVER
  1
AC1024
  9
$ACADMAINTVER
 70
     6
  9
$DWGCODEPAGE
  3
ANSI_1252
  9
$INSBASE
 10
0.0
 20
0.0
 30
0.0
  9
$EXTMIN
 10
1.000000000000000E+20
 20
1.000000000000000E+20
 30
1.000000000000000E+20
  9
$EXTMAX
 10
-1.000000000000000E+20
 20
-1.000000000000000E+20
 30
-1.000000000000000E+20
  9
$LIMMIN
 10
0.0
 20
0.0
  9
$LIMMAX
 10
12.0
 20
9.0
  9
$ORTHOMODE
 70
     0
  9
$REGENMODE
 70
     1
  9
$FILLMODE
 70
     1
  9
$QTEXTMODE
 70
     0
  9
$MIRRTEXT
 70
     1
  9
$LTSCALE
 40
1.0
  9
$ATTMODE
 70
     1
  9
$TEXTSIZE
 40
0.2
  9
$TRACEWID
 40
0.05
  9
$TEXTSTYLE
  7
Standard
  9
$CLAYER
  8
0
  9
$CELTYPE
  6
ByLayer
  9
$CECOLOR
 62
   256
  9
$CELTSCALE
 40
1.0
  9
$DISPSILH
 70
     0
  9
$DIMSCALE
 40
1.0
  9
$DIMASZ
 40
0.18
  9
$DIMEXO
 40
0.0625
  9
$DIMDLI
 40
0.38
  9
$DIMRND
 40
0.0
  9
$DIMDLE
 40
0.0
  9
$DIMEXE
 40
0.18
  9
$DIMTP
 40
0.0
  9
$DIMTM
 40
0.0
  9
$DIMTXT
 40
0.18
  9
$DIMCEN
 40
0.09
  9
$DIMTSZ
 40
0.0
  9
$DIMTOL
 70
     0
  9
$DIMLIM
 70
     0
  9
$DIMTIH
 70
     1
  9
$DIMTOH
 70
     1
  9
$DIMSE1
 70
     0
  9
$DIMSE2
 70
     0
  9
$DIMTAD
 70
     0
  9
$DIMZIN
 70
     0
  9
$DIMBLK
  1

  9
$DIMASO
 70
     1
  9
$DIMSHO
 70
     1
  9
$DIMPOST
  1

  9
$DIMAPOST
  1

  9
$DIMALT
 70
     0
  9
$DIMALTD
 70
     2
  9
$DIMALTF
 40
25.4
  9
$DIMLFAC
 40
1.0
  9
$DIMTOFL
 70
     0
  9
$DIMTVP
 40
0.0
  9
$DIMTIX
 70
     0
  9
$DIMSOXD
 70
     0
  9
$DIMSAH
 70
     0
  9
$DIMBLK1
  1

  9
$DIMBLK2
  1

  9
$DIMSTYLE
  2
Standard
  9
$DIMCLRD
 70
     0
  9
$DIMCLRE
 70
     0
  9
$DIMCLRT
 70
     0
  9
$DIMTFAC
 40
1.0
  9
$DIMGAP
 40
0.09
  9
$DIMJUST
 70
     0
  9
$DIMSD1
 70
     0
  9
$DIMSD2
 70
     0
  9
$DIMTOLJ
 70
     1
  9
$DIMTZIN
 70
     0
  9
$DIMALTZ
 70
     0
  9
$DIMALTTZ
 70
     0
  9
$DIMUPT
 70
     0
  9
$DIMDEC
 70
     4
  9
$DIMTDEC
 70
     4
  9
$DIMALTU
 70
     2
  9
$DIMALTTD
 70
     2
  9
$DIMTXSTY
  7
Standard
  9
$DIMAUNIT
 70
     0
  9
$DIMADEC
 70
     0
  9
$DIMALTRND
 40
0.0
  9
$DIMAZIN
 70
     0
  9
$DIMDSEP
 70
    46
  9
$DIMATFIT
 70
     3
  9
$DIMFRAC
 70
     0
  9
$DIMLDRBLK
  1

  9
$DIMLUNIT
 70
     2
  9
$DIMLWD
 70
    -2
  9
$DIMLWE
 70
    -2
  9
$DIMTMOVE
 70
     0
  9
$DIMFXL
 40
1.0
  9
$DIMFXLON
 70
     0
  9
$DIMJOGANG
 40
0.7853981633974483
  9
$DIMTFILL
 70
     0
  9
$DIMTFILLCLR
 70
     0
  9
$DIMARCSYM
 70
     0
  9
$DIMLTYPE
  6

  9
$DIMLTEX1
  6

  9
$DIMLTEX2
  6

  9
$DIMTXTDIRECTION
 70
     0
  9
$LUNITS
 70
     2
  9
$LUPREC
 70
     4
  9
$SKETCHINC
 40
0.1
  9
$FILLETRAD
 40
0.5
  9
$AUNITS
 70
     0
  9
$AUPREC
 70
     0
  9
$MENU
  1
.
  9
$ELEVATION
 40
0.0
  9
$PELEVATION
 40
0.0
  9
$THICKNESS
 40
0.0
  9
$LIMCHECK
 70
     0
  9
$CHAMFERA
 40
0.5
  9
$CHAMFERB
 40
0.5
  9
$CHAMFERC
 40
1.0
  9
$CHAMFERD
 40
0.0
  9
$SKPOLY
 70
     0
  9
$TDCREATE
 40
2458787.642171991
  9
$TDUCREATE
 40
2458787.100505324
  9
$TDUPDATE
 40
2458787.642172164
  9
$TDUUPDATE
 40
2458787.100505498
  9
$TDINDWG
 40
0.0000000116
  9
$TDUSRTIMER
 40
0.0000000116
  9
$USRTIMER
 70
     1
  9
$ANGBASE
 50
0.0
  9
$ANGDIR
 70
     0
  9
$PDMODE
 70
     0
  9
$PDSIZE
 40
0.0
  9
$PLINEWID
 40
0.0
  9
$SPLFRAME
 70
     0
  9
$SPLINETYPE
 70
     6
  9
$SPLINESEGS
 70
     8
  9
$HANDSEED
  5
28A
  9
$SURFTAB1
 70
     6
  9
$SURFTAB2
 70
     6
  9
$SURFTYPE
 70
     6
  9
$SURFU
 70
     6
  9
$SURFV
 70
     6
  9
$UCSBASE
  2

  9
$UCSNAME
  2

  9
$UCSORG
 10
0.0
 20
0.0
 30
0.0
  9
$UCSXDIR
 10
1.0
 20
0.0
 30
0.0
  9
$UCSYDIR
 10
0.0
 20
1.0
 30
0.0
  9
$UCSORTHOREF
  2

  9
$UCSORTHOVIEW
 70
     0
  9
$UCSORGTOP
 10
0.0
 20
0.0
 30
0.0
  9
$UCSORGBOTTOM
 10
0.0
 20
0.0
 30
0.0
  9
$UCSORGLEFT
 10
0.0
 20
0.0
 30
0.0
  9
$UCSORGRIGHT
 10
0.0
 20
0.0
 30
0.0
  9
$UCSORGFRONT
 10
0.0
 20
0.0
 30
0.0
  9
$UCSORGBACK
 10
0.0
 20
0.0
 30
0.0
  9
$PUCSBASE
  2

  9
$PUCSNAME
  2

  9
$PUCSORG
 10
0.0
 20
0.0
 30
0.0
  9
$PUCSXDIR
 10
1.0
 20
0.0
 30
0.0
  9
$PUCSYDIR
 10
0.0
 20
1.0
 30
0.0
  9
$PUCSORTHOREF
  2

  9
$PUCSORTHOVIEW
 70
     0
  9
$PUCSORGTOP
 10
0.0
 20
0.0
 30
0.0
  9
$PUCSORGBOTTOM
 10
0.0
 20
0.0
 30
0.0
  9
$PUCSORGLEFT
 10
0.0
 20
0.0
 30
0.0
  9
$PUCSORGRIGHT
 10
0.0
 20
0.0
 30
0.0
  9
$PUCSORGFRONT
 10
0.0
 20
0.0
 30
0.0
  9
$PUCSORGBACK
 10
0.0
 20
0.0
 30
0.0
  9
$USERI1
 70
     0
  9
$USERI2
 70
     0
  9
$USERI3
 70
     0
  9
$USERI4
 70
     0
  9
$USERI5
 70
     0
  9
$USERR1
 40
0.0
  9
$USERR2
 40
0.0
  9
$USERR3
 40
0.0
  9
$USERR4
 40
0.0
  9
$USERR5
 40
0.0
  9
$WORLDVIEW
 70
     1
  9
$SHADEDGE
 70
     3
  9
$SHADEDIF
 70
    70
  9
$TILEMODE
 70
     1
  9
$MAXACTVP
 70
    64
  9
$PINSBASE
 10
0.0
 20
0.0
 30
0.0
  9
$PLIMCHECK
 70
     0
  9
$PEXTMIN
 10
1.000000000000000E+20
 20
1.000000000000000E+20
 30
1.000000000000000E+20
  9
$PEXTMAX
 10
-1.000000000000000E+20
 20
-1.000000000000000E+20
 30
-1.000000000000000E+20
  9
$PLIMMIN
 10
0.0
 20
0.0
  9
$PLIMMAX
 10
12.0
 20
9.0
  9
$UNITMODE
 70
     0
  9
$VISRETAIN
 70
     1
  9
$PLINEGEN
 70
     0
  9
$PSLTSCALE
 70
     1
  9
$TREEDEPTH
 70
  3020
  9
$CMLSTYLE
  2
Standard
  9
$CMLJUST
 70
     0
  9
$CMLSCALE
 40
1.0
  9
$PROXYGRAPHICS
 70
     1
  9
$MEASUREMENT
 70
     0
  9
$CELWEIGHT
370
    -1
  9
$ENDCAPS
280
     0
  9
$JOINSTYLE
280
     0
  9
$LWDISPLAY
290
     1
  9
$INSUNITS
 70
     1
  9
$HYPERLINKBASE
  1

  9
$STYLESHEET
  1

  9
$XEDIT
290
     1
  9
$CEPSNTYPE
380
     0
  9
$PSTYLEMODE
290
     1
  9
$FINGERPRINTGUID
  2
{81C12CDB-BAB9-4011-B717-457AB623F9D1}
  9
$VERSIONGUID
  2
{FAEB1C32-E019-11D5-929B-00C0DF256EC4}
  9
$EXTNAMES
290
     1
  9
$PSVPSCALE
 40
0.0
  9
$OLESTARTUP
290
     0
  9
$SORTENTS
280
   127
  9
$INDEXCTL
280
     0
  9
$HIDETEXT
280
     1
  9
$XCLIPFRAME
280
     2
  9
$HALOGAP
280
     0
  9
$OBSCOLOR
 70
   257
  9
$OBSLTYPE
280
     0
  9
$INTERSECTIONDISPLAY
280
     0
  9
$INTERSECTIONCOLOR
 70
   257
  9
$DIMASSOC
280
     2
  9
$PROJECTNAME
  1

  9
$CAMERADISPLAY
290
     0
  9
$LENSLENGTH
 40
50.0
  9
$CAMERAHEIGHT
 40
0.0
  9
$STEPSPERSEC
 40
2.0
  9
$STEPSIZE
 40
6.0
  9
$3DDWFPREC
 40
2.0
  9
$PSOLWIDTH
 40
0.25
  9
$PSOLHEIGHT
 40
4.0
  9
$LOFTANG1
 40
1.570796326794897
  9
$LOFTANG2
 40
1.570796326794897
  9
$LOFTMAG1
 40
0.0
  9
$LOFTMAG2
 40
0.0
  9
$LOFTPARAM
 70
     7
  9
$LOFTNORMALS
280
     1
  9
$LATITUDE
 40
37.795
  9
$LONGITUDE
 40
-122.394
  9
$NORTHDIRECTION
 40
0.0
  9
$TIMEZONE
 70
 -8000
  9
$LIGHTGLYPHDISPLAY
280
     1
  9
$TILEMODELIGHTSYNCH
280
     1
  9
$CMATERIAL
347
3C
  9
$SOLIDHIST
280
     1
  9
$SHOWHIST
280
     1
  9
$DWFFRAME
280
     2
  9
$DGNFRAME
280
     2
  9
$REALWORLDSCALE
290
     1
  9
$INTERFERECOLOR
 62
   256
  9
$CSHADOW
280
     0
  9
$SHADOWPLANELOCATION
 40
0.0
  0
ENDSEC
  0
SECTION
  2
CLASSES
  0
CLASS
  1
ACDBDICTIONARYWDFLT
  2
AcDbDictionaryWithDefault
  3
ObjectDBX Classes
 90
        0
 91
        4
280
     0
281
     0
  0
CLASS
  1
VISUALSTYLE
  2
AcDbVisualStyle
  3
ObjectDBX Classes
 90
     4095
 91
        4
280
     0
281
     0
  0
CLASS
  1
MATERIAL
  2
AcDbMaterial
  3
ObjectDBX Classes
 90
     1153
 91
        4
280
     0
281
     0
  0
CLASS
  1
SUN
  2
AcDbSun
  3
SCENEOE
 90
     1024
 91
        4
280
     0
281
     0
  0
ENDSEC
  0
SECTION
  2
TABLES
  0
TABLE
  2
VPORT
  5
8
330
0
100
AcDbSymbolTable
 70
     1
  0
VPORT
  5
29
330
8
100
AcDbSymbolTableRecord
100
AcDbViewportTableRecord
  2
*Active
 70
     0
 10
0.0
 20
0.0
 11
1.0
 21
1.0
 12
0.0
 22
0.0
 13
0.0
 23
0.0
 14
0.5
 24
0.5
 15
0.5
 25
0.5
 16
0.0
 26
0.0
 36
1.0
 17
4.465379748306127
 27
5.645827722892792
 37
0.0
 40
11.69291338582677
 41
0.7070707070707065
 42
50.0
 43
0.0
 44
0.0
 50
0.0
 51
0.0
 71
     0
 72
   100
 73
     1
 74
     3
 75
     0
 76
     0
 77
     0
 78
     0
281
     0
 65
     1
110
0.0
120
0.0
130
0.0
111
1.0
121
0.0
131
0.0
112
0.0
122
1.0
132
0.0
 79
     0
146
0.0
 60
     3
 61
     5
292
     1
282
     1
141
0.0
142
0.0
 63
   250
361
3F
  0
ENDTAB
  0
TABLE
  2
LTYPE
  5
5
330
0
100
AcDbSymbolTable
 70
     1
  0
LTYPE
  5
14
330
5
100
AcDbSymbolTableRecord
100
AcDbLinetypeTableRecord
  2
ByBlock
 70
     0
  3

 72
    65
 73
     0
 40
0.0
  0
LTYPE
  5
15
330
5
100
AcDbSymbolTableRecord
100
AcDbLinetypeTableRecord
  2
ByLayer
 70
     0
  3

 72
    65
 73
     0
 40
0.0
  0
LTYPE
  5
16
330
5
100
AcDbSymbolTableRecord
100
AcDbLinetypeTableRecord
  2
Continuous
 70
     0
  3
Solid line
 72
    65
 73
     0
 40
0.0
  0
ENDTAB
  0
TABLE
  2
LAYER
  5
2
330
0
100
AcDbSymbolTable
 70
     3
  0
LAYER
  5
10
330
2
100
AcDbSymbolTableRecord
100
AcDbLayerTableRecord
  2
0
 70
     0
 62
     7
  6
Continuous
370
    -3
390
F
347
3E
  0
LAYER
  5
40
330
2
100
AcDbSymbolTableRecord
100
AcDbLayerTableRecord
  2
IUSE
 70
     0
 62
     7
  6
Continuous
370
    -3
390
F
347
3E
  0
LAYER
  5
268
330
2
100
AcDbSymbolTableRecord
100
AcDbLayerTableRecord
  2
callouts
 70
     0
 62
     7
  6
Continuous
370
    -3
390
F
347
3E
  0
ENDTAB
  0
TABLE
  2
STYLE
  5
3
330
0
100
AcDbSymbolTable
 70
     1
  0
STYLE
  5
11
330
3
100
AcDbSymbolTableRecord
100
AcDbTextStyleTableRecord
  2
Standard
 70
     0
 40
0.0
 41
1.0
 50
0.0
 71
     0
 42
0.2
  3
txt
  4

  0
ENDTAB
  0
TABLE
  2
VIEW
  5
6
330
0
100
AcDbSymbolTable
 70
     0
  0
ENDTAB
  0
TABLE
  2
UCS
  5
7
330
0
100
AcDbSymbolTable
 70
     0
  0
ENDTAB
  0
TABLE
  2
APPID
  5
9
330
0
100
AcDbSymbolTable
 70
     1
  0
APPID
  5
12
330
9
100
AcDbSymbolTableRecord
100
AcDbRegAppTableRecord
  2
ACAD
 70
     0
  0
ENDTAB
  0
TABLE
  2
DIMSTYLE
  5
A
330
0
100
AcDbSymbolTable
 70
     1
100
AcDbDimStyleTable
  0
DIMSTYLE
105
27
330
A
100
AcDbSymbolTableRecord
100
AcDbDimStyleTableRecord
  2
Standard
 70
     0
178
     0
340
11
  0
ENDTAB
  0
TABLE
  2
BLOCK_RECORD
  5
1
330
0
100
AcDbSymbolTable
 70
    15
  0
BLOCK_RECORD
  5
1F
330
1
100
AcDbSymbolTableRecord
100
AcDbBlockTableRecord
  2
*Model_Space
340
22
 70
     0
280
     1
281
     0
  0
BLOCK_RECORD
  5
1B
330
1
100
AcDbSymbolTableRecord
100
AcDbBlockTableRecord
  2
*Paper_Space
340
1E
 70
     0
280
     1
281
     0
  0
BLOCK_RECORD
  5
23
330
1
100
AcDbSymbolTableRecord
100
AcDbBlockTableRecord
  2
*Paper_Space0
340
26
 70
     0
280
     1
281
     0
  0
BLOCK_RECORD
  5
7F
330
1
100
AcDbSymbolTableRecord
100
AcDbBlockTableRecord
  2
block 2
340
0
102
{BLKREFS
331
80
102
}
 70
     0
280
     1
281
     0
  0
BLOCK_RECORD
  5
13F
330
1
100
AcDbSymbolTableRecord
100
AcDbBlockTableRecord
  2
block 3
340
0
102
{BLKREFS
331
140
102
}
 70
     0
280
     1
281
     0
  0
BLOCK_RECORD
  5
143
330
1
100
AcDbSymbolTableRecord
100
AcDbBlockTableRecord
  2
block 4
340
0
102
{BLKREFS
331
144
102
}
 70
     0
280
     1
281
     0
  0
BLOCK_RECORD
  5
1F5
330
1
100
AcDbSymbolTableRecord
100
AcDbBlockTableRecord
  2
block 5
340
0
102
{BLKREFS
331
1F6
102
}
 70
     0
280
     1
281
     0
  0
BLOCK_RECORD
  5
205
330
1
100
AcDbSymbolTableRecord
100
AcDbBlockTableRecord
  2
block 6
340
0
102
{BLKREFS
331
206
102
}
 70
     0
280
     1
281
     0
  0
BLOCK_RECORD
  5
209
330
1
100
AcDbSymbolTableRecord
100
AcDbBlockTableRecord
  2
block 7
340
0
102
{BLKREFS
331
20A
102
}
 70
     0
280
     1
281
     0
  0
BLOCK_RECORD
  5
22A
330
1
100
AcDbSymbolTableRecord
100
AcDbBlockTableRecord
  2
block 8
340
0
102
{BLKREFS
331
22B
102
}
 70
     0
280
     1
281
     0
  0
BLOCK_RECORD
  5
22E
330
1
100
AcDbSymbolTableRecord
100
AcDbBlockTableRecord
  2
block 9
340
0
102
{BLKREFS
331
22F
102
}
 70
     0
280
     1
281
     0
  0
BLOCK_RECORD
  5
233
330
1
100
AcDbSymbolTableRecord
100
AcDbBlockTableRecord
  2
block 10
340
0
102
{BLKREFS
331
234
102
}
 70
     0
280
     1
281
     0
  0
BLOCK_RECORD
  5
23B
330
1
100
AcDbSymbolTableRecord
100
AcDbBlockTableRecord
  2
block 11
340
0
102
{BLKREFS
331
23C
102
}
 70
     0
280
     1
281
     0
  0
BLOCK_RECORD
  5
243
330
1
100
AcDbSymbolTableRecord
100
AcDbBlockTableRecord
  2
block 12
340
0
102
{BLKREFS
331
244
102
}
 70
     0
280
     1
281
     0
  0
BLOCK_RECORD
  5
24B
330
1
100
AcDbSymbolTableRecord
100
AcDbBlockTableRecord
  2
block 13
340
0
102
{BLKREFS
331
24C
102
}
 70
     0
280
     1
281
     0
  0
BLOCK_RECORD
  5
253
330
1
100
AcDbSymbolTableRecord
100
AcDbBlockTableRecord
  2
block 14
340
0
102
{BLKREFS
331
254
102
}
 70
     0
280
     1
281
     0
  0
BLOCK_RECORD
  5
26C
330
1
100
AcDbSymbolTableRecord
100
AcDbBlockTableRecord
  2
block 15
340
0
102
{BLKREFS
331
26D
102
}
 70
     0
280
     1
281
     0
  0
ENDTAB
  0
ENDSEC
  0
SECTION
  2
BLOCKS
  0
BLOCK
  5
20
330
1F
100
AcDbEntity
  8
0
100
AcDbBlockBegin
  2
*Model_Space
 70
     0
 10
0.0
 20
0.0
 30
0.0
  3
*Model_Space
  1

  0
ENDBLK
  5
21
330
1F
100
AcDbEntity
  8
0
100
AcDbBlockEnd
  0
BLOCK
  5
1C
330
1B
100
AcDbEntity
 67
     1
  8
0
100
AcDbBlockBegin
  2
*Paper_Space
 70
     0
 10
0.0
 20
0.0
 30
0.0
  3
*Paper_Space
  1

  0
ENDBLK
  5
1D
330
1B
100
AcDbEntity
 67
     1
  8
0
100
AcDbBlockEnd
  0
BLOCK
  5
24
330
23
100
AcDbEntity
  8
0
100
AcDbBlockBegin
  2
*Paper_Space0
 70
     0
 10
0.0
 20
0.0
 30
0.0
  3
*Paper_Space0
  1

  0
ENDBLK
  5
25
330
23
100
AcDbEntity
  8
0
100
AcDbBlockEnd
  0
BLOCK
  5
81
330
7F
100
AcDbEntity
  8
0
100
AcDbBlockBegin
  2
block 2
 70
     0
 10
0.0
 20
0.0
 30
0.0
  3
block 2
  1

  0
POLYLINE
  5
83
330
7F
100
AcDbEntity
  8
IUSE
370
     0
100
AcDb2dPolyline
 66
     1
 10
0.0
 20
0.0
 30
0.0
  0
VERTEX
  5
84
330
83
100
AcDbEntity
  8
IUSE
370
     0
100
AcDbVertex
100
AcDb2dVertex
 10
4.252537476721449
 20
6.31880678482753
 30
0.0
  0
VERTEX
  5
85
330
83
100
AcDbEntity
  8
IUSE
370
     0
100
AcDbVertex
100
AcDb2dVertex
 10
4.327786085929524
 20
6.272487341549827
 30
0.0
  0
VERTEX
  5
86
330
83
100
AcDbEntity
  8
IUSE
370
     0
100
AcDbVertex
100
AcDb2dVertex
 10
4.327786085883519
 20
5.247802645213318
 30
0.0
  0
VERTEX
  5
87
330
83
100
AcDbEntity
  8
IUSE
370
     0
100
AcDbVertex
100
AcDb2dVertex
 10
4.252537476672059
 20
5.218872090391995
 30
0.0
  0
VERTEX
  5
88
330
83
100
AcDbEntity
  8
IUSE
370
     0
100
AcDbVertex
100
AcDb2dVertex
 10
4.252537476664783
 20
5.056776261153547
 30
0.0
  0
VERTEX
  5
89
330
83
100
AcDbEntity
  8
IUSE
370
     0
100
AcDbVertex
100
AcDb2dVertex
 10
5.194987452824813
 20
4.351237390045753
 30
0.0
  0
VERTEX
  5
8A
330
83
100
AcDbEntity
  8
IUSE
370
     0
100
AcDbVertex
100
AcDb2dVertex
 10
5.442533279909538
 20
4.460977665040142
 30
0.0
  0
VERTEX
  5
8B
330
83
100
AcDbEntity
  8
IUSE
370
     0
100
AcDbVertex
100
AcDb2dVertex
 10
5.442533279918583
 20
4.662055555511693
 30
0.0
  0
VERTEX
  5
8C
330
83
100
AcDbEntity
  8
IUSE
370
     0
100
AcDbVertex
100
AcDb2dVertex
 10
5.363472170807123
 20
4.7160096030455
 30
0.0
  0
VERTEX
  5
8D
330
83
100
AcDbEntity
  8
IUSE
370
     0
100
AcDbVertex
100
AcDb2dVertex
 10
5.363472170824202
 20
5.096259593439577
 30
0.0
  0
VERTEX
  5
8E
330
83
100
AcDbEntity
  8
IUSE
370
     0
100
AcDbVertex
100
AcDb2dVertex
 10
5.41156800294473
 20
5.145426258862017
 30
0.0
  0
VERTEX
  5
8F
330
83
100
AcDbEntity
  8
IUSE
370
     0
100
AcDbVertex
100
AcDb2dVertex
 10
5.286093006120482
 20
5.27863181105815
 30
0.0
  0
VERTEX
  5
90
330
83
100
AcDbEntity
  8
IUSE
370
     0
100
AcDbVertex
100
AcDb2dVertex
 10
5.36347217083557
 20
5.349447087043523
 30
0.0
  0
VERTEX
  5
91
330
83
100
AcDbEntity
  8
IUSE
370
     0
100
AcDbVertex
100
AcDb2dVertex
 10
5.363472170857727
 20
5.842813741246673
 30
0.0
  0
VERTEX
  5
92
330
83
100
AcDbEntity
  8
IUSE
370
     0
100
AcDbVertex
100
AcDb2dVertex
 10
5.442533279972647
 20
5.867051240630846
 30
0.0
  0
VERTEX
  5
93
330
83
100
AcDbEntity
  8
IUSE
370
     0
100
AcDbVertex
100
AcDb2dVertex
 10
5.44253327998154
 20
6.064391513423389
 30
0.0
  0
VERTEX
  5
94
330
83
100
AcDbEntity
  8
IUSE
370
     0
100
AcDbVertex
100
AcDb2dVertex
 10
4.471056915655784
 20
6.545030390213924
 30
0.0
  0
VERTEX
  5
95
330
83
100
AcDbEntity
  8
IUSE
370
     0
100
AcDbVertex
100
AcDb2dVertex
 10
4.252537476729054
 20
6.488517891651377
 30
0.0
  0
VERTEX
  5
96
330
83
100
AcDbEntity
  8
IUSE
370
     0
100
AcDbVertex
100
AcDb2dVertex
 10
4.252537476721449
 20
6.31880678482753
 30
0.0
  0
SEQEND
  5
98
330
83
100
AcDbEntity
  8
IUSE
370
     0
  0
HATCH
  5
97
330
7F
100
AcDbEntity
  8
IUSE
 62
    43
420
 15510365
100
AcDbHatch
 10
0.0
 20
0.0
 30
0.0
210
0.0
220
0.0
230
1.0
  2
SOLID
 70
     1
 71
     0
 91
        1
 92
        1
 93
       18
 72
     1
 10
4.252537476721449
 20
6.31880678482753
 11
4.327786085929524
 21
6.272487341549827
 72
     1
 10
4.327786085929524
 20
6.272487341549827
 11
4.327786085883519
 21
5.247802645213318
 72
     1
 10
4.327786085883519
 20
5.247802645213318
 11
4.252537476672059
 21
5.218872090391995
 72
     1
 10
4.252537476672059
 20
5.218872090391995
 11
4.252537476664783
 21
5.056776261153547
 72
     1
 10
4.252537476664783
 20
5.056776261153547
 11
5.194987452824813
 21
4.351237390045753
 72
     1
 10
5.194987452824813
 20
4.351237390045753
 11
5.442533279909538
 21
4.460977665040142
 72
     1
 10
5.442533279909538
 20
4.460977665040142
 11
5.442533279918583
 21
4.662055555511693
 72
     1
 10
5.442533279918583
 20
4.662055555511693
 11
5.363472170807123
 21
4.7160096030455
 72
     1
 10
5.363472170807123
 20
4.7160096030455
 11
5.363472170824202
 21
5.096259593439577
 72
     1
 10
5.363472170824202
 20
5.096259593439577
 11
5.41156800294473
 21
5.145426258862017
 72
     1
 10
5.41156800294473
 20
5.145426258862017
 11
5.286093006120482
 21
5.27863181105815
 72
     1
 10
5.286093006120482
 20
5.27863181105815
 11
5.36347217083557
 21
5.349447087043523
 72
     1
 10
5.36347217083557
 20
5.349447087043523
 11
5.363472170857727
 21
5.842813741246673
 72
     1
 10
5.363472170857727
 20
5.842813741246673
 11
5.442533279972647
 21
5.867051240630846
 72
     1
 10
5.442533279972647
 20
5.867051240630846
 11
5.44253327998154
 21
6.064391513423389
 72
     1
 10
5.44253327998154
 20
6.064391513423389
 11
4.471056915655784
 21
6.545030390213924
 72
     1
 10
4.471056915655784
 20
6.545030390213924
 11
4.252537476729054
 21
6.488517891651377
 72
     1
 10
4.252537476729054
 20
6.488517891651377
 11
4.252537476721449
 21
6.31880678482753
 97
        0
 75
     2
 76
     1
 98
        0
  0
POLYLINE
  5
99
330
7F
100
AcDbEntity
  8
IUSE
 62
   250
420
  2301728
370
    25
100
AcDb2dPolyline
 66
     1
 10
0.0
 20
0.0
 30
0.0
  0
VERTEX
  5
9A
330
99
100
AcDbEntity
  8
IUSE
 62
   250
420
  2301728
370
    25
100
AcDbVertex
100
AcDb2dVertex
 10
5.191555508531691
 20
5.790920687009778
 30
0.0
  0
VERTEX
  5
9B
330
99
100
AcDbEntity
  8
IUSE
 62
   250
420
  2301728
370
    25
100
AcDbVertex
100
AcDb2dVertex
 10
5.287815228323425
 20
5.818488741864585
 30
0.0
  0
SEQEND
  5
9C
330
99
100
AcDbEntity
  8
IUSE
 62
   250
420
  2301728
370
    25
  0
POLYLINE
  5
9D
330
7F
100
AcDbEntity
  8
IUSE
 62
   250
420
  2301728
370
    25
100
AcDb2dPolyline
 66
     1
 10
0.0
 20
0.0
 30
0.0
  0
VERTEX
  5
9E
330
9D
100
AcDbEntity
  8
IUSE
 62
   250
420
  2301728
370
    25
100
AcDbVertex
100
AcDb2dVertex
 10
4.252537476721449
 20
6.31880678482753
 30
0.0
  0
VERTEX
  5
9F
330
9D
100
AcDbEntity
  8
IUSE
 62
   250
420
  2301728
370
    25
100
AcDbVertex
100
AcDb2dVertex
 10
4.327786085929524
 20
6.272487341549827
 30
0.0
  0
VERTEX
  5
A0
330
9D
100
AcDbEntity
  8
IUSE
 62
   250
420
  2301728
370
    25
100
AcDbVertex
100
AcDb2dVertex
 10
4.327786085883519
 20
5.247802645213318
 30
0.0
  0
VERTEX
  5
A1
330
9D
100
AcDbEntity
  8
IUSE
 62
   250
420
  2301728
370
    25
100
AcDbVertex
100
AcDb2dVertex
 10
4.252537476672059
 20
5.218872090391995
 30
0.0
  0
VERTEX
  5
A2
330
9D
100
AcDbEntity
  8
IUSE
 62
   250
420
  2301728
370
    25
100
AcDbVertex
100
AcDb2dVertex
 10
4.252537476664783
 20
5.056776261153547
 30
0.0
  0
VERTEX
  5
A3
330
9D
100
AcDbEntity
  8
IUSE
 62
   250
420
  2301728
370
    25
100
AcDbVertex
100
AcDb2dVertex
 10
5.194987452824813
 20
4.351237390045753
 30
0.0
  0
VERTEX
  5
A4
330
9D
100
AcDbEntity
  8
IUSE
 62
   250
420
  2301728
370
    25
100
AcDbVertex
100
AcDb2dVertex
 10
5.442533279909538
 20
4.460977665040142
 30
0.0
  0
VERTEX
  5
A5
330
9D
100
AcDbEntity
  8
IUSE
 62
   250
420
  2301728
370
    25
100
AcDbVertex
100
AcDb2dVertex
 10
5.442533279918583
 20
4.662055555511693
 30
0.0
  0
VERTEX
  5
A6
330
9D
100
AcDbEntity
  8
IUSE
 62
   250
420
  2301728
370
    25
100
AcDbVertex
100
AcDb2dVertex
 10
5.363472170807123
 20
4.7160096030455
 30
0.0
  0
VERTEX
  5
A7
330
9D
100
AcDbEntity
  8
IUSE
 62
   250
420
  2301728
370
    25
100
AcDbVertex
100
AcDb2dVertex
 10
5.363472170824202
 20
5.096259593439577
 30
0.0
  0
VERTEX
  5
A8
330
9D
100
AcDbEntity
  8
IUSE
 62
   250
420
  2301728
370
    25
100
AcDbVertex
100
AcDb2dVertex
 10
5.41156800294473
 20
5.145426258862017
 30
0.0
  0
VERTEX
  5
A9
330
9D
100
AcDbEntity
  8
IUSE
 62
   250
420
  2301728
370
    25
100
AcDbVertex
100
AcDb2dVertex
 10
5.286093006120482
 20
5.27863181105815
 30
0.0
  0
VERTEX
  5
AA
330
9D
100
AcDbEntity
  8
IUSE
 62
   250
420
  2301728
370
    25
100
AcDbVertex
100
AcDb2dVertex
 10
5.36347217083557
 20
5.349447087043523
 30
0.0
  0
VERTEX
  5
AB
330
9D
100
AcDbEntity
  8
IUSE
 62
   250
420
  2301728
370
    25
100
AcDbVertex
100
AcDb2dVertex
 10
5.363472170857727
 20
5.842813741246673
 30
0.0
  0
VERTEX
  5
AC
330
9D
100
AcDbEntity
  8
IUSE
 62
   250
420
  2301728
370
    25
100
AcDbVertex
100
AcDb2dVertex
 10
5.442533279972647
 20
5.867051240630846
 30
0.0
  0
VERTEX
  5
AD
330
9D
100
AcDbEntity
  8
IUSE
 62
   250
420
  2301728
370
    25
100
AcDbVertex
100
AcDb2dVertex
 10
5.44253327998154
 20
6.064391513423389
 30
0.0
  0
VERTEX
  5
AE
330
9D
100
AcDbEntity
  8
IUSE
 62
   250
420
  2301728
370
    25
100
AcDbVertex
100
AcDb2dVertex
 10
4.471056915655784
 20
6.545030390213924
 30
0.0
  0
VERTEX
  5
AF
330
9D
100
AcDbEntity
  8
IUSE
 62
   250
420
  2301728
370
    25
100
AcDbVertex
100
AcDb2dVertex
 10
4.252537476729054
 20
6.488517891651377
 30
0.0
  0
VERTEX
  5
B0
330
9D
100
AcDbEntity
  8
IUSE
 62
   250
420
  2301728
370
    25
100
AcDbVertex
100
AcDb2dVertex
 10
4.252537476721449
 20
6.31880678482753
 30
0.0
  0
SEQEND
  5
B1
330
9D
100
AcDbEntity
  8
IUSE
 62
   250
420
  2301728
370
    25
  0
POLYLINE
  5
B2
330
7F
100
AcDbEntity
  8
IUSE
 62
   250
420
  2301728
370
    18
100
AcDb2dPolyline
 66
     1
 10
0.0
 20
0.0
 30
0.0
  0
VERTEX
  5
B3
330
B2
100
AcDbEntity
  8
IUSE
 62
   250
420
  2301728
370
    18
100
AcDbVertex
100
AcDb2dVertex
 10
5.44253327998154
 20
6.064391513423389
 30
0.0
  0
VERTEX
  5
B4
330
B2
100
AcDbEntity
  8
IUSE
 62
   250
420
  2301728
370
    18
100
AcDbVertex
100
AcDb2dVertex
 10
5.19155550854071
 20
5.991984570819366
 30
0.0
  0
VERTEX
  5
B5
330
B2
100
AcDbEntity
  8
IUSE
 62
   250
420
  2301728
370
    18
100
AcDbVertex
100
AcDb2dVertex
 10
4.252537476729054
 20
6.488517891651377
 30
0.0
  0
SEQEND
  5
B6
330
B2
100
AcDbEntity
  8
IUSE
 62
   250
420
  2301728
370
    18
  0
POLYLINE
  5
B7
330
7F
100
AcDbEntity
  8
IUSE
 62
   250
420
  2301728
370
    18
100
AcDb2dPolyline
 66
     1
 10
0.0
 20
0.0
 30
0.0
  0
VERTEX
  5
B8
330
B7
100
AcDbEntity
  8
IUSE
 62
   250
420
  2301728
370
    18
100
AcDbVertex
100
AcDb2dVertex
 10
5.289226339344193
 20
4.600097222185266
 30
0.0
  0
VERTEX
  5
B9
330
B7
100
AcDbEntity
  8
IUSE
 62
   250
420
  2301728
370
    18
100
AcDbVertex
100
AcDb2dVertex
 10
5.198433286080621
 20
4.563408218019049
 30
0.0
  0
VERTEX
  5
BA
330
B7
100
AcDbEntity
  8
IUSE
 62
   250
420
  2301728
370
    18
100
AcDbVertex
100
AcDb2dVertex
 10
4.255073587719102
 20
5.218858201503331
 30
0.0
  0
SEQEND
  5
BB
330
B7
100
AcDbEntity
  8
IUSE
 62
   250
420
  2301728
370
    18
  0
POLYLINE
  5
BC
330
7F
100
AcDbEntity
  8
IUSE
 62
   250
420
  2301728
370
    18
100
AcDb2dPolyline
 66
     1
 10
0.0
 20
0.0
 30
0.0
  0
VERTEX
  5
BD
330
BC
100
AcDbEntity
  8
IUSE
 62
   250
420
  2301728
370
    18
100
AcDbVertex
100
AcDb2dVertex
 10
5.442533279918583
 20
4.662055555511693
 30
0.0
  0
VERTEX
  5
BE
330
BC
100
AcDbEntity
  8
IUSE
 62
   250
420
  2301728
370
    18
100
AcDbVertex
100
AcDb2dVertex
 10
5.362265226389304
 20
4.62961111107087
 30
0.0
  0
SEQEND
  5
BF
330
BC
100
AcDbEntity
  8
IUSE
 62
   250
420
  2301728
370
    18
  0
POLYLINE
  5
C0
330
7F
100
AcDbEntity
  8
IUSE
 62
   250
420
  2301728
370
    18
100
AcDb2dPolyline
 66
     1
 10
0.0
 20
0.0
 30
0.0
  0
VERTEX
  5
C1
330
C0
100
AcDbEntity
  8
IUSE
 62
   250
420
  2301728
370
    18
100
AcDbVertex
100
AcDb2dVertex
 10
5.287815228301193
 20
5.323283198818975
 30
0.0
  0
VERTEX
  5
C2
330
C0
100
AcDbEntity
  8
IUSE
 62
   250
420
  2301728
370
    18
100
AcDbVertex
100
AcDb2dVertex
 10
5.213894396832075
 20
5.252373478391392
 30
0.0
  0
VERTEX
  5
C3
330
C0
100
AcDbEntity
  8
IUSE
 62
   250
420
  2301728
370
    18
100
AcDbVertex
100
AcDb2dVertex
 10
5.344523560192859
 20
5.120917926150822
 30
0.0
  0
VERTEX
  5
C4
330
C0
100
AcDbEntity
  8
IUSE
 62
   250
420
  2301728
370
    18
100
AcDbVertex
100
AcDb2dVertex
 10
5.288222172723914
 20
5.06820959415154
 30
0.0
  0
VERTEX
  5
C5
330
C0
100
AcDbEntity
  8
IUSE
 62
   250
420
  2301728
370
    18
100
AcDbVertex
100
AcDb2dVertex
 10
5.289266617117341
 20
4.519544330234162
 30
0.0
  0
VERTEX
  5
C6
330
C0
100
AcDbEntity
  8
IUSE
 62
   250
420
  2301728
370
    18
100
AcDbVertex
100
AcDb2dVertex
 10
5.361451247331565
 20
4.549208333293109
 30
0.0
  0
VERTEX
  5
C7
330
C0
100
AcDbEntity
  8
IUSE
 62
   250
420
  2301728
370
    18
100
AcDbVertex
100
AcDb2dVertex
 10
5.361451247355969
 20
5.092569444404236
 30
0.0
  0
VERTEX
  5
C8
330
C0
100
AcDbEntity
  8
IUSE
 62
   250
420
  2301728
370
    18
100
AcDbVertex
100
AcDb2dVertex
 10
5.41156800294473
 20
5.145426258862017
 30
0.0
  0
VERTEX
  5
C9
330
C0
100
AcDbEntity
  8
IUSE
 62
   250
420
  2301728
370
    18
100
AcDbVertex
100
AcDb2dVertex
 10
5.284370783941768
 20
5.278685977723525
 30
0.0
  0
VERTEX
  5
CA
330
C0
100
AcDbEntity
  8
IUSE
 62
   250
420
  2301728
370
    18
100
AcDbVertex
100
AcDb2dVertex
 10
5.361451247367591
 20
5.351359586995285
 30
0.0
  0
VERTEX
  5
CB
330
C0
100
AcDbEntity
  8
IUSE
 62
   250
420
  2301728
370
    18
100
AcDbVertex
100
AcDb2dVertex
 10
5.361451247392854
 20
5.914320683884802
 30
0.0
  0
VERTEX
  5
CC
330
C0
100
AcDbEntity
  8
IUSE
 62
   250
420
  2301728
370
    18
100
AcDbVertex
100
AcDb2dVertex
 10
5.286811061685411
 20
5.891492906687075
 30
0.0
  0
VERTEX
  5
CD
330
C0
100
AcDbEntity
  8
IUSE
 62
   250
420
  2301728
370
    18
100
AcDbVertex
100
AcDb2dVertex
 10
5.287815228301193
 20
5.323283198818975
 30
0.0
  0
SEQEND
  5
CE
330
C0
100
AcDbEntity
  8
IUSE
 62
   250
420
  2301728
370
    18
  0
POLYLINE
  5
CF
330
7F
100
AcDbEntity
  8
IUSE
 62
   250
420
  2301728
370
    18
100
AcDb2dPolyline
 66
     1
 10
0.0
 20
0.0
 30
0.0
  0
VERTEX
  5
D0
330
CF
100
AcDbEntity
  8
IUSE
 62
   250
420
  2301728
370
    18
100
AcDbVertex
100
AcDb2dVertex
 10
5.408745780793853
 20
5.146280425507231
 30
0.0
  0
VERTEX
  5
D1
330
CF
100
AcDbEntity
  8
IUSE
 62
   250
420
  2301728
370
    18
100
AcDbVertex
100
AcDb2dVertex
 10
5.342815226902631
 20
5.119072092864195
 30
0.0
  0
SEQEND
  5
D2
330
CF
100
AcDbEntity
  8
IUSE
 62
   250
420
  2301728
370
    18
  0
POLYLINE
  5
D3
330
7F
100
AcDbEntity
  8
IUSE
 62
   250
420
  2301728
370
    18
100
AcDb2dPolyline
 66
     1
 10
0.0
 20
0.0
 30
0.0
  0
VERTEX
  5
D4
330
D3
100
AcDbEntity
  8
IUSE
 62
   250
420
  2301728
370
    18
100
AcDbVertex
100
AcDb2dVertex
 10
5.363430504158587
 20
5.096259593439577
 30
0.0
  0
VERTEX
  5
D5
330
D3
100
AcDbEntity
  8
IUSE
 62
   250
420
  2301728
370
    18
100
AcDbVertex
100
AcDb2dVertex
 10
5.287815228289749
 20
5.068209594151565
 30
0.0
  0
SEQEND
  5
D6
330
D3
100
AcDbEntity
  8
IUSE
 62
   250
420
  2301728
370
    18
  0
POLYLINE
  5
D7
330
7F
100
AcDbEntity
  8
IUSE
 62
   250
420
  2301728
370
    13
100
AcDb2dPolyline
 66
     1
 10
0.0
 20
0.0
 30
0.0
  0
VERTEX
  5
D8
330
D7
100
AcDbEntity
  8
IUSE
 62
   250
420
  2301728
370
    13
100
AcDbVertex
100
AcDb2dVertex
 10
5.343533282475416
 20
5.907348461839521
 30
0.0
  0
VERTEX
  5
D9
330
D7
100
AcDbEntity
  8
IUSE
 62
   250
420
  2301728
370
    13
100
AcDbVertex
100
AcDb2dVertex
 10
5.344497171314767
 20
5.346177642682505
 30
0.0
  0
VERTEX
  5
DA
330
D7
100
AcDbEntity
  8
IUSE
 62
   250
420
  2301728
370
    13
100
AcDbVertex
100
AcDb2dVertex
 10
5.268908284332156
 20
5.27345125563425
 30
0.0
  0
VERTEX
  5
DB
330
D7
100
AcDbEntity
  8
IUSE
 62
   250
420
  2301728
370
    13
100
AcDbVertex
100
AcDb2dVertex
 10
5.39609161444658
 20
5.140191536772742
 30
0.0
  0
VERTEX
  5
DC
330
D7
100
AcDbEntity
  8
IUSE
 62
   250
420
  2301728
370
    13
100
AcDbVertex
100
AcDb2dVertex
 10
5.344944393514248
 20
5.091105426903924
 30
0.0
  0
VERTEX
  5
DD
330
D7
100
AcDbEntity
  8
IUSE
 62
   250
420
  2301728
370
    13
100
AcDbVertex
100
AcDb2dVertex
 10
5.345988837907649
 20
4.541951274110033
 30
0.0
  0
SEQEND
  5
DE
330
D7
100
AcDbEntity
  8
IUSE
 62
   250
420
  2301728
370
    13
  0
POLYLINE
  5
DF
330
7F
100
AcDbEntity
  8
IUSE
 62
   250
420
  2301728
370
    25
100
AcDb2dPolyline
 66
     1
 10
0.0
 20
0.0
 30
0.0
  0
VERTEX
  5
E0
330
DF
100
AcDbEntity
  8
IUSE
 62
   250
420
  2301728
370
    25
100
AcDbVertex
100
AcDb2dVertex
 10
5.191555508531691
 20
5.790920687009778
 30
0.0
  0
VERTEX
  5
E1
330
DF
100
AcDbEntity
  8
IUSE
 62
   250
420
  2301728
370
    25
100
AcDbVertex
100
AcDb2dVertex
 10
4.254490254449845
 20
6.31815539595502
 30
0.0
  0
SEQEND
  5
E2
330
DF
100
AcDbEntity
  8
IUSE
 62
   250
420
  2301728
370
    25
  0
POLYLINE
  5
E3
330
7F
100
AcDbEntity
  8
IUSE
 62
   250
420
  2301728
370
    18
100
AcDb2dPolyline
 66
     1
 10
0.0
 20
0.0
 30
0.0
  0
VERTEX
  5
E4
330
E3
100
AcDbEntity
  8
IUSE
 62
   250
420
  2301728
370
    18
100
AcDbVertex
100
AcDb2dVertex
 10
5.193279119599285
 20
5.790885964788357
 30
0.0
  0
VERTEX
  5
E5
330
E3
100
AcDbEntity
  8
IUSE
 62
   250
420
  2301728
370
    18
100
AcDbVertex
100
AcDb2dVertex
 10
5.193279119608278
 20
5.991942904153675
 30
0.0
  0
SEQEND
  5
E6
330
E3
100
AcDbEntity
  8
IUSE
 62
   250
420
  2301728
370
    18
  0
POLYLINE
  5
E7
330
7F
100
AcDbEntity
  8
IUSE
 62
   250
420
  2301728
370
    18
100
AcDb2dPolyline
 66
     1
 10
0.0
 20
0.0
 30
0.0
  0
VERTEX
  5
E8
330
E7
100
AcDbEntity
  8
IUSE
 62
   250
420
  2301728
370
    18
100
AcDbVertex
100
AcDb2dVertex
 10
5.193279119534711
 20
4.353162389997199
 30
0.0
  0
VERTEX
  5
E9
330
E7
100
AcDbEntity
  8
IUSE
 62
   250
420
  2301728
370
    18
100
AcDbVertex
100
AcDb2dVertex
 10
5.193279119544159
 20
4.563544329126949
 30
0.0
  0
SEQEND
  5
EA
330
E7
100
AcDbEntity
  8
IUSE
 62
   250
420
  2301728
370
    18
  0
POLYLINE
  5
EB
330
7F
100
AcDbEntity
  8
IUSE
 62
   250
420
  2301728
370
    18
100
AcDb2dPolyline
 66
     1
 10
0.0
 20
0.0
 30
0.0
  0
VERTEX
  5
EC
330
EB
100
AcDbEntity
  8
IUSE
 62
   250
420
  2301728
370
    18
100
AcDbVertex
100
AcDb2dVertex
 10
5.363119393067032
 20
5.356622086862267
 30
0.0
  0
VERTEX
  5
ED
330
EB
100
AcDbEntity
  8
IUSE
 62
   250
420
  2301728
370
    18
100
AcDbVertex
100
AcDb2dVertex
 10
5.287815228301193
 20
5.323283198818975
 30
0.0
  0
SEQEND
  5
EE
330
EB
100
AcDbEntity
  8
IUSE
 62
   250
420
  2301728
370
    18
  0
POLYLINE
  5
EF
330
7F
100
AcDbEntity
  8
IUSE
 62
   250
420
  2301728
370
    18
100
AcDb2dPolyline
 66
     1
 10
0.0
 20
0.0
 30
0.0
  0
VERTEX
  5
F0
330
EF
100
AcDbEntity
  8
IUSE
 62
   250
420
  2301728
370
    18
100
AcDbVertex
100
AcDb2dVertex
 10
5.28952356158945
 20
5.280422088790551
 30
0.0
  0
VERTEX
  5
F1
330
EF
100
AcDbEntity
  8
IUSE
 62
   250
420
  2301728
370
    18
100
AcDbVertex
100
AcDb2dVertex
 10
5.217340136252106
 20
5.254163756123792
 30
0.0
  0
SEQEND
  5
F2
330
EF
100
AcDbEntity
  8
IUSE
 62
   250
420
  2301728
370
    18
  0
POLYLINE
  5
F3
330
7F
100
AcDbEntity
  8
IUSE
 62
   250
420
  2301728
370
    13
100
AcDb2dPolyline
 66
     1
 10
0.0
 20
0.0
 30
0.0
  0
VERTEX
  5
F4
330
F3
100
AcDbEntity
  8
IUSE
 62
   250
420
  2301728
370
    13
100
AcDbVertex
100
AcDb2dVertex
 10
5.305719394541332
 20
5.897054017656829
 30
0.0
  0
VERTEX
  5
F5
330
F3
100
AcDbEntity
  8
IUSE
 62
   250
420
  2301728
370
    13
100
AcDbVertex
100
AcDb2dVertex
 10
5.306709672268728
 20
5.332044309707903
 30
0.0
  0
VERTEX
  5
F6
330
F3
100
AcDbEntity
  8
IUSE
 62
   250
420
  2301728
370
    13
100
AcDbVertex
100
AcDb2dVertex
 10
5.231079118620502
 20
5.259426255990244
 30
0.0
  0
VERTEX
  5
F7
330
F3
100
AcDbEntity
  8
IUSE
 62
   250
420
  2301728
370
    13
100
AcDbVertex
100
AcDb2dVertex
 10
5.361708281981211
 20
5.126098481574748
 30
0.0
  0
VERTEX
  5
F8
330
F3
100
AcDbEntity
  8
IUSE
 62
   250
420
  2301728
370
    13
100
AcDbVertex
100
AcDb2dVertex
 10
5.307129116691057
 20
5.075262371750315
 30
0.0
  0
VERTEX
  5
F9
330
F3
100
AcDbEntity
  8
IUSE
 62
   250
420
  2301728
370
    13
100
AcDbVertex
100
AcDb2dVertex
 10
5.308173469552685
 20
4.524684607881252
 30
0.0
  0
SEQEND
  5
FA
330
F3
100
AcDbEntity
  8
IUSE
 62
   250
420
  2301728
370
    13
  0
POLYLINE
  5
FB
330
7F
100
AcDbEntity
  8
IUSE
 62
   250
420
  2301728
370
    13
100
AcDb2dPolyline
 66
     1
 10
0.0
 20
0.0
 30
0.0
  0
VERTEX
  5
FC
330
FB
100
AcDbEntity
  8
IUSE
 62
   250
420
  2301728
370
    13
100
AcDbVertex
100
AcDb2dVertex
 10
5.324626338508375
 20
5.902201239748175
 30
0.0
  0
VERTEX
  5
FD
330
FB
100
AcDbEntity
  8
IUSE
 62
   250
420
  2301728
370
    13
100
AcDbVertex
100
AcDb2dVertex
 10
5.325602727347258
 20
5.337306809574127
 30
0.0
  0
VERTEX
  5
FE
330
FB
100
AcDbEntity
  8
IUSE
 62
   250
420
  2301728
370
    13
100
AcDbVertex
100
AcDb2dVertex
 10
5.251723562543803
 20
5.26826931132147
 30
0.0
  0
VERTEX
  5
FF
330
FB
100
AcDbEntity
  8
IUSE
 62
   250
420
  2301728
370
    13
100
AcDbVertex
100
AcDb2dVertex
 10
5.377184670479437
 20
5.133179036950726
 30
0.0
  0
VERTEX
  5
100
330
FB
100
AcDbEntity
  8
IUSE
 62
   250
420
  2301728
370
    13
100
AcDbVertex
100
AcDb2dVertex
 10
5.326049949546611
 20
5.08036237162062
 30
0.0
  0
VERTEX
  5
101
330
FB
100
AcDbEntity
  8
IUSE
 62
   250
420
  2301728
370
    13
100
AcDbVertex
100
AcDb2dVertex
 10
5.327081893940456
 20
4.533541666628
 30
0.0
  0
SEQEND
  5
102
330
FB
100
AcDbEntity
  8
IUSE
 62
   250
420
  2301728
370
    13
  0
POLYLINE
  5
103
330
7F
100
AcDbEntity
  8
IUSE
 62
   250
420
  2301728
370
    18
100
AcDb2dPolyline
 66
     1
 10
0.0
 20
0.0
 30
0.0
  0
VERTEX
  5
104
330
103
100
AcDbEntity
  8
IUSE
 62
   250
420
  2301728
370
    18
100
AcDbVertex
100
AcDb2dVertex
 10
5.289523561558932
 20
4.600423494857649
 30
0.0
  0
VERTEX
  5
105
330
103
100
AcDbEntity
  8
IUSE
 62
   250
420
  2301728
370
    18
100
AcDbVertex
100
AcDb2dVertex
 10
4.343872196588513
 20
5.253024867302909
 30
0.0
  0
SEQEND
  5
106
330
103
100
AcDbEntity
  8
IUSE
 62
   250
420
  2301728
370
    18
  0
ENDBLK
  5
82
330
7F
100
AcDbEntity
  8
0
100
AcDbBlockEnd
  0
BLOCK
  5
141
330
13F
100
AcDbEntity
  8
0
100
AcDbBlockBegin
  2
block 3
 70
     0
 10
0.0
 20
0.0
 30
0.0
  3
block 3
  1

  0
INSERT
  5
144
330
13F
100
AcDbEntity
  8
IUSE
100
AcDbBlockReference
  2
block 4
 10
0.0
 20
0.0
 30
0.0
  0
SPLINE
  5
178
330
13F
100
AcDbEntity
  8
IUSE
 62
     7
420
 16777215
370
    18
100
AcDbSpline
210
0.0
220
0.0
230
1.0
 70
    11
 71
     3
 72
    23
 73
    19
 74
     0
 42
0.0000000001
 43
0.0000000001
 12
1.0
 22
0.0
 32
0.0
 13
1.0
 23
0.0
 33
0.0
 40
0.0
 40
0.0
 40
0.0
 40
0.0
 40
1.0
 40
1.0
 40
1.0
 40
2.0
 40
2.0
 40
2.0
 40
3.0
 40
3.0
 40
3.0
 40
4.0
 40
4.0
 40
4.0
 40
5.0
 40
5.0
 40
5.0
 40
6.0
 40
6.0
 40
6.0
 40
6.0
 10
4.520205508712807
 20
5.705464859717595
 30
0.0
 10
4.529695074859116
 20
5.707227371809343
 30
0.0
 10
4.535516102556736
 20
5.717924304329673
 30
0.0
 10
4.533225091414957
 20
5.729372907540411
 30
0.0
 10
4.53093534322127
 20
5.740814918793186
 30
0.0
 10
4.521385416755694
 20
5.748671290322654
 30
0.0
 10
4.511909836854859
 20
5.746913736705866
 30
0.0
 10
4.511909836854859
 20
5.746913736705866
 30
0.0
 10
4.503493802232065
 20
5.745209781948587
 30
0.0
 10
4.503493802232065
 20
5.745209781948587
 30
0.0
 10
4.494018250609618
 20
5.743453705605892
 30
0.0
 10
4.48819707157928
 20
5.732748867395988
 30
0.0
 10
4.490474193873297
 20
5.721300393812334
 30
0.0
 10
4.492765442112664
 20
5.709858353844829
 30
0.0
 10
4.502313896810998
 20
5.702003488304184
 30
0.0
 10
4.511803334674166
 20
5.7037592988288
 30
0.0
 10
4.511803334674166
 20
5.7037592988288
 30
0.0
 10
4.520205508712807
 20
5.705464859717595
 30
0.0
 10
4.520205508712807
 20
5.705464859717595
 30
0.0
  0
HATCH
  5
179
330
13F
100
AcDbEntity
  8
IUSE
 62
   254
420
 13358815
100
AcDbHatch
 10
0.0
 20
0.0
 30
0.0
210
0.0
220
0.0
230
1.0
  2
SOLID
 70
     1
 71
     0
 91
        1
 92
        1
 93
        1
 72
     4
 94
        3
 73
     0
 74
     1
 95
       23
 96
       19
 40
0.0
 40
0.0
 40
0.0
 40
0.0
 40
1.0
 40
1.0
 40
1.0
 40
2.0
 40
2.0
 40
2.0
 40
3.0
 40
3.0
 40
3.0
 40
4.0
 40
4.0
 40
4.0
 40
5.0
 40
5.0
 40
5.0
 40
6.0
 40
6.0
 40
6.0
 40
6.0
 10
4.520205508712807
 20
5.705464859717595
 10
4.529695074859116
 20
5.707227371809343
 10
4.535516102556736
 20
5.717924304329673
 10
4.533225091414957
 20
5.729372907540411
 10
4.53093534322127
 20
5.740814918793186
 10
4.521385416755694
 20
5.748671290322654
 10
4.511909836854859
 20
5.746913736705866
 10
4.511909836854859
 20
5.746913736705866
 10
4.503493802232065
 20
5.745209781948587
 10
4.503493802232065
 20
5.745209781948587
 10
4.494018250609618
 20
5.743453705605892
 10
4.48819707157928
 20
5.732748867395988
 10
4.490474193873297
 20
5.721300393812334
 10
4.492765442112664
 20
5.709858353844829
 10
4.502313896810998
 20
5.702003488304184
 10
4.511803334674166
 20
5.7037592988288
 10
4.511803334674166
 20
5.7037592988288
 10
4.520205508712807
 20
5.705464859717595
 10
4.520205508712807
 20
5.705464859717595
 97
        0
 97
        0
 75
     2
 76
     1
 98
        0
  0
SPLINE
  5
17A
330
13F
100
AcDbEntity
  8
IUSE
 62
     7
420
 16777215
370
    13
100
AcDbSpline
210
0.0
220
0.0
230
1.0
 70
    11
 71
     3
 72
    17
 73
    13
 74
     0
 42
0.0000000001
 43
0.0000000001
 12
1.0
 22
0.0
 32
0.0
 13
1.0
 23
0.0
 33
0.0
 40
0.0
 40
0.0
 40
0.0
 40
0.0
 40
1.0
 40
1.0
 40
1.0
 40
2.0
 40
2.0
 40
2.0
 40
3.0
 40
3.0
 40
3.0
 40
4.0
 40
4.0
 40
4.0
 40
4.0
 10
4.511572823078268
 20
5.703763711409414
 30
0.0
 10
4.521062501362747
 20
5.705526221354552
 30
0.0
 10
4.526895937588455
 20
5.716224120907605
 30
0.0
 10
4.524606317677757
 20
5.727672833727575
 30
0.0
 10
4.522301294619283
 20
5.739115137380268
 30
0.0
 10
4.512766614740131
 20
5.746969739235712
 30
0.0
 10
4.503277288546845
 20
5.745213926573443
 30
0.0
 10
4.493787739013694
 20
5.743458118186519
 30
0.0
 10
4.48796667127269
 20
5.732753277846237
 30
0.0
 10
4.490257568518119
 20
5.721304540574831
 30
0.0
 10
4.492548705335897
 20
5.709862502740255
 30
0.0
 10
4.502083385215074
 20
5.702007900884811
 30
0.0
 10
4.511572823078268
 20
5.703763711409414
 30
0.0
  0
SPLINE
  5
17B
330
13F
100
AcDbEntity
  8
IUSE
 62
     7
420
 16777215
370
    18
100
AcDbSpline
210
0.0
220
0.0
230
1.0
 70
    11
 71
     3
 72
    23
 73
    19
 74
     0
 42
0.0000000001
 43
0.0000000001
 12
1.0
 22
0.0
 32
0.0
 13
1.0
 23
0.0
 33
0.0
 40
0.0
 40
0.0
 40
0.0
 40
0.0
 40
1.0
 40
1.0
 40
1.0
 40
2.0
 40
2.0
 40
2.0
 40
3.0
 40
3.0
 40
3.0
 40
4.0
 40
4.0
 40
4.0
 40
5.0
 40
5.0
 40
5.0
 40
6.0
 40
6.0
 40
6.0
 40
6.0
 10
4.51237734210392
 20
5.296517806940907
 30
0.0
 10
4.521867036533295
 20
5.298287020599824
 30
0.0
 10
4.527687958997427
 20
5.308978455675388
 30
0.0
 10
4.52539720702887
 20
5.320440598211538
 30
0.0
 10
4.523107332972333
 20
5.33187603433334
 30
0.0
 10
4.513557375808103
 20
5.339730802152492
 30
0.0
 10
4.504081824185605
 20
5.337974725809797
 30
0.0
 10
4.504081824185605
 20
5.337974725809797
 30
0.0
 10
4.495665661279796
 20
5.336264069485373
 30
0.0
 10
4.495665661279796
 20
5.336264069485373
 30
0.0
 10
4.486190340566812
 20
5.334520055963568
 30
0.0
 10
4.480369187193142
 20
5.323816558067088
 30
0.0
 10
4.482646052921003
 20
5.312354681349107
 30
0.0
 10
4.484937429443461
 20
5.300919342948797
 30
0.0
 10
4.494485858485127
 20
5.293063137094729
 30
0.0
 10
4.503975324407141
 20
5.29482041342395
 30
0.0
 10
4.503975324407141
 20
5.29482041342395
 30
0.0
 10
4.51237734210392
 20
5.296517806940907
 30
0.0
 10
4.51237734210392
 20
5.296517806940907
 30
0.0
  0
HATCH
  5
17C
330
13F
100
AcDbEntity
  8
IUSE
 62
   254
420
 13358815
100
AcDbHatch
 10
0.0
 20
0.0
 30
0.0
210
0.0
220
0.0
230
1.0
  2
SOLID
 70
     1
 71
     0
 91
        1
 92
        1
 93
        1
 72
     4
 94
        3
 73
     0
 74
     1
 95
       23
 96
       19
 40
0.0
 40
0.0
 40
0.0
 40
0.0
 40
1.0
 40
1.0
 40
1.0
 40
2.0
 40
2.0
 40
2.0
 40
3.0
 40
3.0
 40
3.0
 40
4.0
 40
4.0
 40
4.0
 40
5.0
 40
5.0
 40
5.0
 40
6.0
 40
6.0
 40
6.0
 40
6.0
 10
4.51237734210392
 20
5.296517806940907
 10
4.521867036533295
 20
5.298287020599824
 10
4.527687958997427
 20
5.308978455675388
 10
4.52539720702887
 20
5.320440598211538
 10
4.523107332972333
 20
5.33187603433334
 10
4.513557375808103
 20
5.339730802152492
 10
4.504081824185605
 20
5.337974725809797
 10
4.504081824185605
 20
5.337974725809797
 10
4.495665661279796
 20
5.336264069485373
 10
4.495665661279796
 20
5.336264069485373
 10
4.486190340566812
 20
5.334520055963568
 10
4.480369187193142
 20
5.323816558067088
 10
4.482646052921003
 20
5.312354681349107
 10
4.484937429443461
 20
5.300919342948797
 10
4.494485858485127
 20
5.293063137094729
 10
4.503975324407141
 20
5.29482041342395
 10
4.503975324407141
 20
5.29482041342395
 10
4.51237734210392
 20
5.296517806940907
 10
4.51237734210392
 20
5.296517806940907
 97
        0
 97
        0
 75
     2
 76
     1
 98
        0
  0
SPLINE
  5
17D
330
13F
100
AcDbEntity
  8
IUSE
 62
     7
420
 16777215
370
    13
100
AcDbSpline
210
0.0
220
0.0
230
1.0
 70
    11
 71
     3
 72
    17
 73
    13
 74
     0
 42
0.0000000001
 43
0.0000000001
 12
1.0
 22
0.0
 32
0.0
 13
1.0
 23
0.0
 33
0.0
 40
0.0
 40
0.0
 40
0.0
 40
0.0
 40
1.0
 40
1.0
 40
1.0
 40
2.0
 40
2.0
 40
2.0
 40
3.0
 40
3.0
 40
3.0
 40
4.0
 40
4.0
 40
4.0
 40
4.0
 10
4.503744812811267
 20
5.294824826004565
 30
0.0
 10
4.51323461697661
 20
5.296593912025704
 30
0.0
 10
4.519067899262583
 20
5.307283769698087
 30
0.0
 10
4.516778279351962
 20
5.318732482518069
 30
0.0
 10
4.514473128010372
 20
5.33016808460363
 30
0.0
 10
4.504938730353943
 20
5.338037429906813
 30
0.0
 10
4.495449147594526
 20
5.336268214110229
 30
0.0
 10
4.485959828970938
 20
5.334524468544183
 30
0.0
 10
4.480138786886553
 20
5.323820968517339
 30
0.0
 10
4.482429427565825
 20
5.312358828111605
 30
0.0
 10
4.484720692666693
 20
5.300923491844186
 30
0.0
 10
4.494255346889278
 20
5.293067549675318
 30
0.0
 10
4.503744812811267
 20
5.294824826004565
 30
0.0
  0
ENDBLK
  5
142
330
13F
100
AcDbEntity
  8
0
100
AcDbBlockEnd
  0
BLOCK
  5
145
330
143
100
AcDbEntity
  8
0
100
AcDbBlockBegin
  2
block 4
 70
     0
 10
0.0
 20
0.0
 30
0.0
  3
block 4
  1

  0
POLYLINE
  5
147
330
143
100
AcDbEntity
  8
IUSE
 62
     7
420
 16777215
370
    18
100
AcDb2dPolyline
 66
     1
 10
0.0
 20
0.0
 30
0.0
  0
VERTEX
  5
148
330
147
100
AcDbEntity
  8
IUSE
 62
     7
420
 16777215
370
    18
100
AcDbVertex
100
AcDb2dVertex
 10
4.699184001280653
 20
5.008804695768327
 30
0.0
  0
VERTEX
  5
149
330
147
100
AcDbEntity
  8
IUSE
 62
     7
420
 16777215
370
    18
100
AcDbVertex
100
AcDb2dVertex
 10
4.612356503119523
 20
4.973189802487872
 30
0.0
  0
VERTEX
  5
14A
330
147
100
AcDbEntity
  8
IUSE
 62
     7
420
 16777215
370
    18
100
AcDbVertex
100
AcDb2dVertex
 10
4.262280834737011
 20
5.217871453188081
 30
0.0
  0
VERTEX
  5
14B
330
147
100
AcDbEntity
  8
IUSE
 62
     7
420
 16777215
370
    18
100
AcDbVertex
100
AcDb2dVertex
 10
4.269646123938982
 20
6.266748320479311
 30
0.0
  0
VERTEX
  5
14C
330
147
100
AcDbEntity
  8
IUSE
 62
     7
420
 16777215
370
    18
100
AcDbVertex
100
AcDb2dVertex
 10
4.345857122800782
 20
6.266748320479311
 30
0.0
  0
VERTEX
  5
14D
330
147
100
AcDbEntity
  8
IUSE
 62
     7
420
 16777215
370
    18
100
AcDbVertex
100
AcDb2dVertex
 10
4.711573193662212
 20
6.062494363367287
 30
0.0
  0
VERTEX
  5
14E
330
147
100
AcDbEntity
  8
IUSE
 62
     7
420
 16777215
370
    18
100
AcDbVertex
100
AcDb2dVertex
 10
4.699184001280653
 20
5.008804695768327
 30
0.0
  0
SEQEND
  5
150
330
147
100
AcDbEntity
  8
IUSE
 62
     7
420
 16777215
370
    18
  0
HATCH
  5
14F
330
143
100
AcDbEntity
  8
IUSE
 62
    43
420
 15510365
100
AcDbHatch
 10
0.0
 20
0.0
 30
0.0
210
0.0
220
0.0
230
1.0
  2
SOLID
 70
     1
 71
     0
 91
        1
 92
        1
 93
        6
 72
     1
 10
4.699184001280653
 20
5.008804695768327
 11
4.612356503119523
 21
4.973189802487872
 72
     1
 10
4.612356503119523
 20
4.973189802487872
 11
4.262280834737011
 21
5.217871453188081
 72
     1
 10
4.262280834737011
 20
5.217871453188081
 11
4.269646123938982
 21
6.266748320479311
 72
     1
 10
4.269646123938982
 20
6.266748320479311
 11
4.345857122800782
 21
6.266748320479311
 72
     1
 10
4.345857122800782
 20
6.266748320479311
 11
4.711573193662212
 21
6.062494363367287
 72
     1
 10
4.711573193662212
 20
6.062494363367287
 11
4.699184001280653
 21
5.008804695768327
 97
        0
 75
     2
 76
     1
 98
        0
  0
POLYLINE
  5
151
330
143
100
AcDbEntity
  8
IUSE
 62
     7
420
 16777215
370
    13
100
AcDb2dPolyline
 66
     1
 10
0.0
 20
0.0
 30
0.0
  0
VERTEX
  5
152
330
151
100
AcDbEntity
  8
IUSE
 62
     7
420
 16777215
370
    13
100
AcDbVertex
100
AcDb2dVertex
 10
4.269646123938982
 20
6.266748320479311
 30
0.0
  0
VERTEX
  5
153
330
151
100
AcDbEntity
  8
IUSE
 62
     7
420
 16777215
370
    13
100
AcDbVertex
100
AcDb2dVertex
 10
4.611192283510364
 20
6.07921394832945
 30
0.0
  0
VERTEX
  5
154
330
151
100
AcDbEntity
  8
IUSE
 62
     7
420
 16777215
370
    13
100
AcDbVertex
100
AcDb2dVertex
 10
4.612356503119523
 20
4.973189802487872
 30
0.0
  0
SEQEND
  5
155
330
151
100
AcDbEntity
  8
IUSE
 62
     7
420
 16777215
370
    13
  0
POLYLINE
  5
156
330
143
100
AcDbEntity
  8
IUSE
 62
     7
420
 16777215
370
     5
100
AcDb2dPolyline
 66
     1
 10
0.0
 20
0.0
 30
0.0
  0
VERTEX
  5
157
330
156
100
AcDbEntity
  8
IUSE
 62
     7
420
 16777215
370
     5
100
AcDbVertex
100
AcDb2dVertex
 10
4.608397882247218
 20
5.008895279938289
 30
0.0
  0
VERTEX
  5
286
330
156
100
AcDbEntity
  8
0
100
AcDbVertex
100
AcDb2dVertex
 10
4.608397882247218
 20
5.008895279938289
 30
0.0
  0
SEQEND
  5
158
330
156
100
AcDbEntity
  8
IUSE
 62
     7
420
 16777215
370
     5
  0
POLYLINE
  5
159
330
143
100
AcDbEntity
  8
IUSE
 62
     7
420
 16777215
370
     5
100
AcDb2dPolyline
 66
     1
 10
0.0
 20
0.0
 30
0.0
  0
VERTEX
  5
15A
330
159
100
AcDbEntity
  8
IUSE
 62
     7
420
 16777215
370
     5
100
AcDbVertex
100
AcDb2dVertex
 10
4.628697067928063
 20
6.083518531015494
 30
0.0
  0
VERTEX
  5
15B
330
159
100
AcDbEntity
  8
IUSE
 62
     7
420
 16777215
370
     5
100
AcDbVertex
100
AcDb2dVertex
 10
4.629858262014623
 20
4.980368671952848
 30
0.0
  0
SEQEND
  5
15C
330
159
100
AcDbEntity
  8
IUSE
 62
     7
420
 16777215
370
     5
  0
POLYLINE
  5
15D
330
143
100
AcDbEntity
  8
IUSE
 62
     7
420
 16777215
370
     5
100
AcDb2dPolyline
 66
     1
 10
0.0
 20
0.0
 30
0.0
  0
VERTEX
  5
15E
330
15D
100
AcDbEntity
  8
IUSE
 62
     7
420
 16777215
370
     5
100
AcDbVertex
100
AcDb2dVertex
 10
4.644629471328876
 20
6.086873522445962
 30
0.0
  0
VERTEX
  5
15F
330
15D
100
AcDbEntity
  8
IUSE
 62
     7
420
 16777215
370
     5
100
AcDbVertex
100
AcDb2dVertex
 10
4.645787319370306
 20
4.986902450879976
 30
0.0
  0
SEQEND
  5
160
330
15D
100
AcDbEntity
  8
IUSE
 62
     7
420
 16777215
370
     5
  0
POLYLINE
  5
161
330
143
100
AcDbEntity
  8
IUSE
 62
     7
420
 16777215
370
     5
100
AcDb2dPolyline
 66
     1
 10
0.0
 20
0.0
 30
0.0
  0
VERTEX
  5
162
330
161
100
AcDbEntity
  8
IUSE
 62
     7
420
 16777215
370
     5
100
AcDbVertex
100
AcDb2dVertex
 10
4.661050766492912
 20
6.090331463044524
 30
0.0
  0
VERTEX
  5
163
330
161
100
AcDbEntity
  8
IUSE
 62
     7
420
 16777215
370
     5
100
AcDbVertex
100
AcDb2dVertex
 10
4.662205165814511
 20
4.993636721259614
 30
0.0
  0
SEQEND
  5
164
330
161
100
AcDbEntity
  8
IUSE
 62
     7
420
 16777215
370
     5
  0
POLYLINE
  5
165
330
143
100
AcDbEntity
  8
IUSE
 62
     7
420
 16777215
370
     5
100
AcDb2dPolyline
 66
     1
 10
0.0
 20
0.0
 30
0.0
  0
VERTEX
  5
166
330
165
100
AcDbEntity
  8
IUSE
 62
     7
420
 16777215
370
     5
100
AcDbVertex
100
AcDb2dVertex
 10
4.678601199983151
 20
6.08126329890466
 30
0.0
  0
VERTEX
  5
167
330
165
100
AcDbEntity
  8
IUSE
 62
     7
420
 16777215
370
     5
100
AcDbVertex
100
AcDb2dVertex
 10
4.676198838015327
 20
4.999376644124949
 30
0.0
  0
SEQEND
  5
168
330
165
100
AcDbEntity
  8
IUSE
 62
     7
420
 16777215
370
     5
  0
POLYLINE
  5
169
330
143
100
AcDbEntity
  8
IUSE
 62
     7
420
 16777215
370
     5
100
AcDb2dPolyline
 66
     1
 10
0.0
 20
0.0
 30
0.0
  0
VERTEX
  5
16A
330
169
100
AcDbEntity
  8
IUSE
 62
     7
420
 16777215
370
     5
100
AcDbVertex
100
AcDb2dVertex
 10
4.695895832653883
 20
6.070781759388461
 30
0.0
  0
VERTEX
  5
16B
330
169
100
AcDbEntity
  8
IUSE
 62
     7
420
 16777215
370
     5
100
AcDbVertex
100
AcDb2dVertex
 10
4.688171256556339
 20
5.004287489394907
 30
0.0
  0
SEQEND
  5
16C
330
169
100
AcDbEntity
  8
IUSE
 62
     7
420
 16777215
370
     5
  0
POLYLINE
  5
16D
330
143
100
AcDbEntity
  8
IUSE
 62
     7
420
 16777215
370
    13
100
AcDb2dPolyline
 66
     1
 10
0.0
 20
0.0
 30
0.0
  0
VERTEX
  5
16E
330
16D
100
AcDbEntity
  8
IUSE
 62
     7
420
 16777215
370
    13
100
AcDbVertex
100
AcDb2dVertex
 10
4.612046833166712
 20
6.080012381093575
 30
0.0
  0
VERTEX
  5
16F
330
16D
100
AcDbEntity
  8
IUSE
 62
     7
420
 16777215
370
    13
100
AcDbVertex
100
AcDb2dVertex
 10
4.661050766492912
 20
6.090331463044524
 30
0.0
  0
SEQEND
  5
170
330
16D
100
AcDbEntity
  8
IUSE
 62
     7
420
 16777215
370
    13
  0
SPLINE
  5
171
330
143
100
AcDbEntity
  8
IUSE
 62
     7
420
 16777215
370
     5
100
AcDbSpline
210
0.0
220
0.0
230
1.0
 70
     8
 71
     3
 72
    11
 73
     7
 74
     0
 42
0.0000000001
 43
0.0000000001
 12
1.0
 22
0.0
 32
0.0
 13
1.0
 23
0.0
 33
0.0
 40
0.0
 40
0.0
 40
0.0
 40
0.0
 40
1.0
 40
1.0
 40
1.0
 40
2.0
 40
2.0
 40
2.0
 40
2.0
 10
4.608373109062945
 20
5.990904701868632
 30
0.0
 10
4.565024656912328
 20
5.987754993991049
 30
0.0
 10
4.532933204783982
 20
5.961439586248805
 30
0.0
 10
4.503771663938576
 20
5.946082462402071
 30
0.0
 10
4.474622492426786
 20
5.930718397751889
 30
0.0
 10
4.34668256208071
 20
5.849590136184272
 30
0.0
 10
4.329811958385158
 20
5.830018224456757
 30
0.0
  0
SPLINE
  5
172
330
143
100
AcDbEntity
  8
IUSE
 62
     7
420
 16777215
370
     5
100
AcDbSpline
210
0.0
220
0.0
230
1.0
 70
     8
 71
     3
 72
    32
 73
    28
 74
     0
 42
0.0000000001
 43
0.0000000001
 12
1.0
 22
0.0
 32
0.0
 13
1.0
 23
0.0
 33
0.0
 40
0.0
 40
0.0
 40
0.0
 40
0.0
 40
1.0
 40
1.0
 40
1.0
 40
2.0
 40
2.0
 40
2.0
 40
3.0
 40
3.0
 40
3.0
 40
4.0
 40
4.0
 40
4.0
 40
5.0
 40
5.0
 40
5.0
 40
6.0
 40
6.0
 40
6.0
 40
7.0
 40
7.0
 40
7.0
 40
8.0
 40
8.0
 40
8.0
 40
9.0
 40
9.0
 40
9.0
 40
9.0
 10
4.608533384070015
 20
5.838641308943238
 30
0.0
 10
4.564932348562327
 20
5.821570839922414
 30
0.0
 10
4.52790268487398
 20
5.806335211468295
 30
0.0
 10
4.500954080194813
 20
5.79889058139775
 30
0.0
 10
4.474019469674431
 20
5.791451323200918
 30
0.0
 10
4.438482571179646
 20
5.766264650415425
 30
0.0
 10
4.438254073371253
 20
5.754327818972544
 30
0.0
 10
4.438025703845899
 20
5.742397689096846
 30
0.0
 10
4.431118669983864
 20
5.70472055937695
 30
0.0
 10
4.424492255611463
 20
5.68097169894448
 30
0.0
 10
4.417851709918876
 20
5.657221768217002
 30
0.0
 10
4.41724249360843
 20
5.625396025727569
 30
0.0
 10
4.433504163216311
 20
5.613156938413391
 30
0.0
 10
4.449765322241445
 20
5.600891178024717
 30
0.0
 10
4.455516396694722
 20
5.578900364799349
 30
0.0
 10
4.459334438722256
 20
5.56290522349026
 30
0.0
 10
4.463152591294046
 20
5.54691008006513
 30
0.0
 10
4.479362277105641
 20
5.532681024605608
 30
0.0
 10
4.48730197478196
 20
5.516606852747373
 30
0.0
 10
4.495242843346836
 20
5.500532920739172
 30
0.0
 10
4.517307209144999
 20
5.468279851203079
 30
0.0
 10
4.525095860779098
 20
5.44424821564563
 30
0.0
 10
4.532869470944105
 20
5.420229065186933
 30
0.0
 10
4.547008136637411
 20
5.40404989714711
 30
0.0
 10
4.563331553248645
 20
5.395762191384013
 30
0.0
 10
4.579655511104116
 20
5.387502760473404
 30
0.0
 10
4.605461481605188
 20
5.367271377294679
 30
0.0
 10
4.605461481605188
 20
5.367271377294679
 30
0.0
  0
SPLINE
  5
173
330
143
100
AcDbEntity
  8
IUSE
 62
     7
420
 16777215
370
     5
100
AcDbSpline
210
0.0
220
0.0
230
1.0
 70
     8
 71
     3
 72
    20
 73
    16
 74
     0
 42
0.0000000001
 43
0.0000000001
 12
1.0
 22
0.0
 32
0.0
 13
1.0
 23
0.0
 33
0.0
 40
0.0
 40
0.0
 40
0.0
 40
0.0
 40
1.0
 40
1.0
 40
1.0
 40
2.0
 40
2.0
 40
2.0
 40
3.0
 40
3.0
 40
3.0
 40
4.0
 40
4.0
 40
4.0
 40
5.0
 40
5.0
 40
5.0
 40
5.0
 10
4.608132417497447
 20
5.53047964847249
 30
0.0
 10
4.585853553627809
 20
5.550795617770897
 30
0.0
 10
4.554010702758988
 20
5.555135683320651
 30
0.0
 10
4.55217683725492
 20
5.567098585618484
 30
0.0
 10
4.550358528838387
 20
5.579075938964226
 30
0.0
 10
4.5588935760075
 20
5.594834610598708
 30
0.0
 10
4.551005693838053
 20
5.61288413856841
 30
0.0
 10
4.543088930238152
 20
5.630948835110429
 30
0.0
 10
4.529131877143805
 20
5.655091581628843
 30
0.0
 10
4.541917871309175
 20
5.676732913199607
 30
0.0
 10
4.554689774358571
 20
5.698375584907972
 30
0.0
 10
4.550796838526063
 20
5.710391447174098
 30
0.0
 10
4.56743896746626
 20
5.718027731763944
 30
0.0
 10
4.584081204247695
 20
5.725669650025869
 30
0.0
 10
4.609311529498099
 20
5.741934371010453
 30
0.0
 10
4.609311529498099
 20
5.741934371010453
 30
0.0
  0
SPLINE
  5
174
330
143
100
AcDbEntity
  8
IUSE
 62
     7
420
 16777215
370
     5
100
AcDbSpline
210
0.0
220
0.0
230
1.0
 70
     8
 71
     3
 72
    20
 73
    16
 74
     0
 42
0.0000000001
 43
0.0000000001
 12
1.0
 22
0.0
 32
0.0
 13
1.0
 23
0.0
 33
0.0
 40
0.0
 40
0.0
 40
0.0
 40
0.0
 40
1.0
 40
1.0
 40
1.0
 40
2.0
 40
2.0
 40
2.0
 40
3.0
 40
3.0
 40
3.0
 40
4.0
 40
4.0
 40
4.0
 40
5.0
 40
5.0
 40
5.0
 40
5.0
 10
4.324621026187161
 20
5.48433740384472
 30
0.0
 10
4.328209523236006
 20
5.45641751837939
 30
0.0
 10
4.4036663230239
 20
5.34708498822743
 30
0.0
 10
4.4096991878848
 20
5.339022555118163
 30
0.0
 10
4.415730381898912
 20
5.330945405142907
 30
0.0
 10
4.43374784076607
 20
5.302737245258564
 30
0.0
 10
4.452095551129812
 20
5.2924346971807
 30
0.0
 10
4.470456010875195
 20
5.282145062189152
 30
0.0
 10
4.498994449169382
 20
5.265676709364521
 30
0.0
 10
4.511096325894161
 20
5.251512748281609
 30
0.0
 10
4.523197070560955
 20
5.237362216914915
 30
0.0
 10
4.556010682700389
 20
5.228773723864302
 30
0.0
 10
4.564142083533296
 20
5.222647465349155
 30
0.0
 10
4.572272095742088
 20
5.216521233415809
 30
0.0
 10
4.603769182459094
 20
5.197402795560517
 30
0.0
 10
4.603769182459094
 20
5.197402795560517
 30
0.0
  0
SPLINE
  5
175
330
143
100
AcDbEntity
  8
IUSE
 62
     7
420
 16777215
370
     5
100
AcDbSpline
210
0.0
220
0.0
230
1.0
 70
     8
 71
     3
 72
    14
 73
    10
 74
     0
 42
0.0000000001
 43
0.0000000001
 12
1.0
 22
0.0
 32
0.0
 13
1.0
 23
0.0
 33
0.0
 40
0.0
 40
0.0
 40
0.0
 40
0.0
 40
1.0
 40
1.0
 40
1.0
 40
2.0
 40
2.0
 40
2.0
 40
3.0
 40
3.0
 40
3.0
 40
3.0
 10
4.373512950104719
 20
5.247123399442166
 30
0.0
 10
4.393592625429593
 20
5.218875763468329
 30
0.0
 10
4.441579499877308
 20
5.173260022784486
 30
0.0
 10
4.463972469596607
 20
5.158899063900258
 30
0.0
 10
4.486366853596564
 20
5.144539418747652
 30
0.0
 10
4.522973246761492
 20
5.117977240407021
 30
0.0
 10
4.535113223558684
 20
5.10580364477361
 30
0.0
 10
4.547251811731914
 20
5.093630075721927
 30
0.0
 10
4.603940145628459
 20
5.034985505982427
 30
0.0
 10
4.603940145628459
 20
5.034985505982427
 30
0.0
  0
SPLINE
  5
176
330
143
100
AcDbEntity
  8
IUSE
 62
     7
420
 16777215
370
     5
100
AcDbSpline
210
0.0
220
0.0
230
1.0
 70
     8
 71
     3
 72
    11
 73
     7
 74
     0
 42
0.0000000001
 43
0.0000000001
 12
1.0
 22
0.0
 32
0.0
 13
1.0
 23
0.0
 33
0.0
 40
0.0
 40
0.0
 40
0.0
 40
0.0
 40
1.0
 40
1.0
 40
1.0
 40
2.0
 40
2.0
 40
2.0
 40
2.0
 10
4.538764910546257
 20
6.11681287328775
 30
0.0
 10
4.499537868983528
 20
6.113582930281685
 30
0.0
 10
4.506893689069632
 20
6.109178502613834
 30
0.0
 10
4.481943619541223
 20
6.097720268405939
 30
0.0
 10
4.456994836010355
 20
6.086256646362522
 30
0.0
 10
4.342283051693913
 20
6.037651289302503
 30
0.0
 10
4.32960990479152
 20
6.021971831464776
 30
0.0
  0
SPLINE
  5
177
330
143
100
AcDbEntity
  8
IUSE
 62
     7
420
 16777215
370
     5
100
AcDbSpline
210
0.0
220
0.0
230
1.0
 70
     8
 71
     3
 72
     8
 73
     4
 74
     0
 42
0.0000000001
 43
0.0000000001
 12
1.0
 22
0.0
 32
0.0
 13
1.0
 23
0.0
 33
0.0
 40
0.0
 40
0.0
 40
0.0
 40
0.0
 40
1.0
 40
1.0
 40
1.0
 40
1.0
 10
4.433782361769141
 20
6.166291151501733
 30
0.0
 10
4.419314984913955
 20
6.164578340064003
 30
0.0
 10
4.329517146647756
 20
6.110093304358139
 30
0.0
 10
4.329517146647756
 20
6.110093304358139
 30
0.0
  0
ENDBLK
  5
146
330
143
100
AcDbEntity
  8
0
100
AcDbBlockEnd
  0
BLOCK
  5
1F7
330
1F5
100
AcDbEntity
  8
0
100
AcDbBlockBegin
  2
block 5
 70
     0
 10
0.0
 20
0.0
 30
0.0
  3
block 5
  1

  0
POLYLINE
  5
1F9
330
1F5
100
AcDbEntity
  8
IUSE
370
     0
100
AcDb2dPolyline
 66
     1
 10
0.0
 20
0.0
 30
0.0
  0
VERTEX
  5
1FA
330
1F9
100
AcDbEntity
  8
IUSE
370
     0
100
AcDbVertex
100
AcDb2dVertex
 10
4.329454141387562
 20
5.038845706047494
 30
0.0
  0
VERTEX
  5
1FB
330
1F9
100
AcDbEntity
  8
IUSE
370
     0
100
AcDbVertex
100
AcDb2dVertex
 10
4.322727752669026
 20
5.048611111117528
 30
0.0
  0
VERTEX
  5
1FC
330
1F9
100
AcDbEntity
  8
IUSE
370
     0
100
AcDbVertex
100
AcDb2dVertex
 10
4.322509697119004
 20
5.049262372451317
 30
0.0
  0
VERTEX
  5
1FD
330
1F9
100
AcDbEntity
  8
IUSE
370
     0
100
AcDbVertex
100
AcDb2dVertex
 10
4.330756802909491
 20
5.04752626138371
 30
0.0
  0
VERTEX
  5
1FE
330
1F9
100
AcDbEntity
  8
IUSE
370
     0
100
AcDbVertex
100
AcDb2dVertex
 10
4.339002752257354
 20
5.036458333339017
 30
0.0
  0
VERTEX
  5
1FF
330
1F9
100
AcDbEntity
  8
IUSE
370
     0
100
AcDbVertex
100
AcDb2dVertex
 10
4.329454141387562
 20
5.038845706047494
 30
0.0
  0
SEQEND
  5
201
330
1F9
100
AcDbEntity
  8
IUSE
370
     0
  0
HATCH
  5
200
330
1F5
100
AcDbEntity
  8
IUSE
 62
    43
420
 15510365
100
AcDbHatch
 10
0.0
 20
0.0
 30
0.0
210
0.0
220
0.0
230
1.0
  2
SOLID
 70
     1
 71
     0
 91
        1
 92
        1
 93
        5
 72
     1
 10
4.329454141387562
 20
5.038845706047494
 11
4.322727752669026
 21
5.048611111117528
 72
     1
 10
4.322727752669026
 20
5.048611111117528
 11
4.322509697119004
 21
5.049262372451317
 72
     1
 10
4.322509697119004
 20
5.049262372451317
 11
4.330756802909491
 21
5.04752626138371
 72
     1
 10
4.330756802909491
 20
5.04752626138371
 11
4.339002752257354
 21
5.036458333339017
 72
     1
 10
4.339002752257354
 20
5.036458333339017
 11
4.329454141387562
 21
5.038845706047494
 97
        0
 75
     2
 76
     1
 98
        0
  0
ENDBLK
  5
1F8
330
1F5
100
AcDbEntity
  8
0
100
AcDbBlockEnd
  0
BLOCK
  5
207
330
205
100
AcDbEntity
  8
0
100
AcDbBlockBegin
  2
block 6
 70
     0
 10
0.0
 20
0.0
 30
0.0
  3
block 6
  1

  0
INSERT
  5
20A
330
205
100
AcDbEntity
  8
IUSE
100
AcDbBlockReference
  2
block 7
 10
0.0
 20
0.0
 30
0.0
  0
POLYLINE
  5
21B
330
205
100
AcDbEntity
  8
IUSE
 62
   250
420
  2301728
370
     9
100
AcDb2dPolyline
 66
     1
 10
0.0
 20
0.0
 30
0.0
  0
VERTEX
  5
21C
330
21B
100
AcDbEntity
  8
IUSE
 62
   250
420
  2301728
370
     9
100
AcDbVertex
100
AcDb2dVertex
 10
4.38837358434585
 20
5.089788760313468
 30
0.0
  0
VERTEX
  5
21D
330
21B
100
AcDbEntity
  8
IUSE
 62
   250
420
  2301728
370
     9
100
AcDbVertex
100
AcDb2dVertex
 10
4.380398584547215
 20
5.087130427047668
 30
0.0
  0
SEQEND
  5
21E
330
21B
100
AcDbEntity
  8
IUSE
 62
   250
420
  2301728
370
     9
  0
ENDBLK
  5
208
330
205
100
AcDbEntity
  8
0
100
AcDbBlockEnd
  0
BLOCK
  5
20B
330
209
100
AcDbEntity
  8
0
100
AcDbBlockBegin
  2
block 7
 70
     0
 10
0.0
 20
0.0
 30
0.0
  3
block 7
  1

  0
POLYLINE
  5
20D
330
209
100
AcDbEntity
  8
IUSE
370
     0
100
AcDb2dPolyline
 66
     1
 10
0.0
 20
0.0
 30
0.0
  0
VERTEX
  5
20E
330
20D
100
AcDbEntity
  8
IUSE
370
     0
100
AcDbVertex
100
AcDb2dVertex
 10
4.408420806061384
 20
5.084187371565197
 30
0.0
  0
VERTEX
  5
20F
330
20D
100
AcDbEntity
  8
IUSE
370
     0
100
AcDbVertex
100
AcDb2dVertex
 10
4.390137473190129
 20
5.088310982572946
 30
0.0
  0
VERTEX
  5
210
330
20D
100
AcDbEntity
  8
IUSE
370
     0
100
AcDbVertex
100
AcDb2dVertex
 10
4.387777751027872
 20
5.096570704586611
 30
0.0
  0
VERTEX
  5
211
330
20D
100
AcDbEntity
  8
IUSE
370
     0
100
AcDbVertex
100
AcDb2dVertex
 10
4.39367775087918
 20
5.104234593281641
 30
0.0
  0
VERTEX
  5
212
330
20D
100
AcDbEntity
  8
IUSE
370
     0
100
AcDbVertex
100
AcDb2dVertex
 10
4.404297195054975
 20
5.095974871267597
 30
0.0
  0
VERTEX
  5
213
330
20D
100
AcDbEntity
  8
IUSE
370
     0
100
AcDbVertex
100
AcDb2dVertex
 10
4.408420806061384
 20
5.084187371565197
 30
0.0
  0
SEQEND
  5
215
330
20D
100
AcDbEntity
  8
IUSE
370
     0
  0
HATCH
  5
214
330
209
100
AcDbEntity
  8
IUSE
 62
    43
420
 15510365
100
AcDbHatch
 10
0.0
 20
0.0
 30
0.0
210
0.0
220
0.0
230
1.0
  2
SOLID
 70
     1
 71
     0
 91
        1
 92
        1
 93
        5
 72
     1
 10
4.408420806061384
 20
5.084187371565197
 11
4.390137473190129
 21
5.088310982572946
 72
     1
 10
4.390137473190129
 20
5.088310982572946
 11
4.387777751027872
 21
5.096570704586611
 72
     1
 10
4.387777751027872
 20
5.096570704586611
 11
4.39367775087918
 21
5.104234593281641
 72
     1
 10
4.39367775087918
 20
5.104234593281641
 11
4.404297195054975
 21
5.095974871267597
 72
     1
 10
4.404297195054975
 20
5.095974871267597
 11
4.408420806061384
 21
5.084187371565197
 97
        0
 75
     2
 76
     1
 98
        0
  0
SPLINE
  5
216
330
209
100
AcDbEntity
  8
IUSE
 62
   250
420
  2301728
370
     9
100
AcDbSpline
210
0.0
220
0.0
230
1.0
 70
     8
 71
     3
 72
    14
 73
    10
 74
     0
 42
0.0000000001
 43
0.0000000001
 12
1.0
 22
0.0
 32
0.0
 13
1.0
 23
0.0
 33
0.0
 40
0.0
 40
0.0
 40
0.0
 40
0.0
 40
1.0
 40
1.0
 40
1.0
 40
2.0
 40
2.0
 40
2.0
 40
3.0
 40
3.0
 40
3.0
 40
3.0
 10
4.411079139327285
 20
5.077691538395836
 30
0.0
 10
4.410197194905852
 20
5.093912371319448
 30
0.0
 10
4.398424972981426
 20
5.103204037751917
 30
0.0
 10
4.394261084197751
 20
5.103651259963018
 30
0.0
 10
4.391873584258089
 20
5.103922093289611
 30
0.0
 10
4.38599997329498
 20
5.096001260156653
 30
0.0
 10
4.388956917664548
 20
5.091552649157771
 30
0.0
 10
4.388956917664548
 20
5.091552649157771
 30
0.0
 10
4.39043608429352
 20
5.084486111114503
 30
0.0
 10
4.40901802826852
 20
5.083888888891452
 30
0.0
  0
SPLINE
  5
217
330
209
100
AcDbEntity
  8
IUSE
 62
   250
420
  2301728
370
     9
100
AcDbSpline
210
0.0
220
0.0
230
1.0
 70
     8
 71
     3
 72
    11
 73
     7
 74
     0
 42
0.0000000001
 43
0.0000000001
 12
1.0
 22
0.0
 32
0.0
 13
1.0
 23
0.0
 33
0.0
 40
0.0
 40
0.0
 40
0.0
 40
0.0
 40
1.0
 40
1.0
 40
1.0
 40
2.0
 40
2.0
 40
2.0
 40
2.0
 10
4.409559694921174
 20
5.07683598286197
 30
0.0
 10
4.390436084293065
 20
5.074449871811995
 30
0.0
 10
4.382473584494568
 20
5.082410982722346
 30
0.0
 10
4.380697195650959
 20
5.091267926943121
 30
0.0
 10
4.380697195650959
 20
5.091267926943121
 30
0.0
 10
4.379815251228491
 20
5.084770704885083
 30
0.0
 10
4.379815251228491
 20
5.084770704885083
 30
0.0
  0
SPLINE
  5
218
330
209
100
AcDbEntity
  8
IUSE
 62
   250
420
  2301728
370
     9
100
AcDbSpline
210
0.0
220
0.0
230
1.0
 70
     8
 71
     3
 72
     8
 73
     4
 74
     0
 42
0.0000000001
 43
0.0000000001
 12
1.0
 22
0.0
 32
0.0
 13
1.0
 23
0.0
 33
0.0
 40
0.0
 40
0.0
 40
0.0
 40
0.0
 40
1.0
 40
1.0
 40
1.0
 40
1.0
 10
4.411377750430599
 20
5.072088760759597
 30
0.0
 10
4.408719417163967
 20
5.06176792768709
 30
0.0
 10
4.403998583949816
 20
5.060288761058018
 30
0.0
 10
4.398695806305946
 20
5.059406816636081
 30
0.0
  0
SPLINE
  5
219
330
209
100
AcDbEntity
  8
IUSE
 62
   250
420
  2301728
370
     9
100
AcDbSpline
210
0.0
220
0.0
230
1.0
 70
     8
 71
     3
 72
    11
 73
     7
 74
     0
 42
0.0000000001
 43
0.0000000001
 12
1.0
 22
0.0
 32
0.0
 13
1.0
 23
0.0
 33
0.0
 40
0.0
 40
0.0
 40
0.0
 40
0.0
 40
1.0
 40
1.0
 40
1.0
 40
2.0
 40
2.0
 40
2.0
 40
2.0
 10
4.380548469577914
 20
5.086683204836718
 30
0.0
 10
4.380548469577914
 20
5.086683204836718
 30
0.0
 10
4.380452751213119
 20
5.100694444448284
 30
0.0
 10
4.387438862147873
 20
5.103787371070994
 30
0.0
 10
4.394247195309364
 20
5.106784593217197
 30
0.0
 10
4.402669417318596
 20
5.101724871122415
 30
0.0
 10
4.408881802911234
 20
5.085991538186262
 30
0.0
  0
SPLINE
  5
21A
330
209
100
AcDbEntity
  8
IUSE
 62
   250
420
  2301728
370
     9
100
AcDbSpline
210
0.0
220
0.0
230
1.0
 70
     8
 71
     3
 72
     8
 73
     4
 74
     0
 42
0.0000000001
 43
0.0000000001
 12
1.0
 22
0.0
 32
0.0
 13
1.0
 23
0.0
 33
0.0
 40
0.0
 40
0.0
 40
0.0
 40
0.0
 40
1.0
 40
1.0
 40
1.0
 40
1.0
 10
4.393379139773616
 20
5.059705427739901
 30
0.0
 10
4.388062358465681
 20
5.061184594369428
 30
0.0
 10
4.377754140168538
 20
5.064426260954658
 30
0.0
 10
4.379516640124923
 20
5.084770704885083
 30
0.0
  0
ENDBLK
  5
20C
330
209
100
AcDbEntity
  8
0
100
AcDbBlockEnd
  0
BLOCK
  5
22C
330
22A
100
AcDbEntity
  8
0
100
AcDbBlockBegin
  2
block 8
 70
     0
 10
0.0
 20
0.0
 30
0.0
  3
block 8
  1

  0
INSERT
  5
22F
330
22A
100
AcDbEntity
  8
IUSE
100
AcDbBlockReference
  2
block 9
 10
0.0
 20
0.0
 30
0.0
  0
INSERT
  5
234
330
22A
100
AcDbEntity
  8
IUSE
100
AcDbBlockReference
  2
block 10
 10
0.0
 20
0.0
 30
0.0
  0
INSERT
  5
23C
330
22A
100
AcDbEntity
  8
IUSE
100
AcDbBlockReference
  2
block 11
 10
0.0
 20
0.0
 30
0.0
  0
INSERT
  5
244
330
22A
100
AcDbEntity
  8
IUSE
100
AcDbBlockReference
  2
block 12
 10
0.0
 20
0.0
 30
0.0
  0
INSERT
  5
24C
330
22A
100
AcDbEntity
  8
IUSE
100
AcDbBlockReference
  2
block 13
 10
0.0
 20
0.0
 30
0.0
  0
INSERT
  5
254
330
22A
100
AcDbEntity
  8
IUSE
100
AcDbBlockReference
  2
block 14
 10
0.0
 20
0.0
 30
0.0
  0
ENDBLK
  5
22D
330
22A
100
AcDbEntity
  8
0
100
AcDbBlockEnd
  0
BLOCK
  5
230
330
22E
100
AcDbEntity
  8
0
100
AcDbBlockBegin
  2
block 9
 70
     0
 10
0.0
 20
0.0
 30
0.0
  3
block 9
  1

  0
SPLINE
  5
232
330
22E
100
AcDbEntity
  8
IUSE
 62
   250
420
  2301728
370
     9
100
AcDbSpline
210
0.0
220
0.0
230
1.0
 70
     8
 71
     3
 72
    11
 73
     7
 74
     0
 42
0.0000000001
 43
0.0000000001
 12
1.0
 22
0.0
 32
0.0
 13
1.0
 23
0.0
 33
0.0
 40
0.0
 40
0.0
 40
0.0
 40
0.0
 40
1.0
 40
1.0
 40
1.0
 40
2.0
 40
2.0
 40
2.0
 40
2.0
 10
4.342013863292348
 20
5.035399872800654
 30
0.0
 10
4.337158307859176
 20
5.029541666672432
 30
0.0
 10
4.327148585889745
 20
5.027452650779852
 30
0.0
 10
4.321506802909122
 20
5.038845706047848
 30
0.0
 10
4.318820808323102
 20
5.044270705910927
 30
0.0
 10
4.319187358465115
 20
5.048977650236439
 30
0.0
 10
4.318563863885426
 20
5.050631816861343
 30
0.0
  0
ENDBLK
  5
231
330
22E
100
AcDbEntity
  8
0
100
AcDbBlockEnd
  0
BLOCK
  5
235
330
233
100
AcDbEntity
  8
0
100
AcDbBlockBegin
  2
block 10
 70
     0
 10
0.0
 20
0.0
 30
0.0
  3
block 10
  1

  0
POLYLINE
  5
237
330
233
100
AcDbEntity
  8
IUSE
 62
   250
420
  2301728
370
     9
100
AcDb2dPolyline
 66
     1
 10
0.0
 20
0.0
 30
0.0
  0
VERTEX
  5
238
330
237
100
AcDbEntity
  8
IUSE
 62
   250
420
  2301728
370
     9
100
AcDbVertex
100
AcDb2dVertex
 10
4.330281919144833
 20
5.047742928044928
 30
0.0
  0
VERTEX
  5
239
330
237
100
AcDbEntity
  8
IUSE
 62
   250
420
  2301728
370
     9
100
AcDbVertex
100
AcDb2dVertex
 10
4.318563863885426
 20
5.050631816861343
 30
0.0
  0
SEQEND
  5
23A
330
237
100
AcDbEntity
  8
IUSE
 62
   250
420
  2301728
370
     9
  0
ENDBLK
  5
236
330
233
100
AcDbEntity
  8
0
100
AcDbBlockEnd
  0
BLOCK
  5
23D
330
23B
100
AcDbEntity
  8
0
100
AcDbBlockBegin
  2
block 11
 70
     0
 10
0.0
 20
0.0
 30
0.0
  3
block 11
  1

  0
POLYLINE
  5
23F
330
23B
100
AcDbEntity
  8
IUSE
 62
   250
420
  2301728
370
     9
100
AcDb2dPolyline
 66
     1
 10
0.0
 20
0.0
 30
0.0
  0
VERTEX
  5
240
330
23F
100
AcDbEntity
  8
IUSE
 62
   250
420
  2301728
370
     9
100
AcDbVertex
100
AcDb2dVertex
 10
4.318563863885426
 20
5.050631816861343
 30
0.0
  0
VERTEX
  5
241
330
23F
100
AcDbEntity
  8
IUSE
 62
   250
420
  2301728
370
     9
100
AcDbVertex
100
AcDb2dVertex
 10
4.330281919145465
 20
5.062092927682417
 30
0.0
  0
SEQEND
  5
242
330
23F
100
AcDbEntity
  8
IUSE
 62
   250
420
  2301728
370
     9
  0
ENDBLK
  5
23E
330
23B
100
AcDbEntity
  8
0
100
AcDbBlockEnd
  0
BLOCK
  5
245
330
243
100
AcDbEntity
  8
0
100
AcDbBlockBegin
  2
block 12
 70
     0
 10
0.0
 20
0.0
 30
0.0
  3
block 12
  1

  0
POLYLINE
  5
247
330
243
100
AcDbEntity
  8
IUSE
 62
   250
420
  2301728
370
     9
100
AcDb2dPolyline
 66
     1
 10
0.0
 20
0.0
 30
0.0
  0
VERTEX
  5
248
330
247
100
AcDbEntity
  8
IUSE
 62
   250
420
  2301728
370
     9
100
AcDbVertex
100
AcDb2dVertex
 10
4.330281919144858
 20
5.048394316917362
 30
0.0
  0
VERTEX
  5
249
330
247
100
AcDbEntity
  8
IUSE
 62
   250
420
  2301728
370
     9
100
AcDbVertex
100
AcDb2dVertex
 10
4.342013863292348
 20
5.035399872800654
 30
0.0
  0
SEQEND
  5
24A
330
247
100
AcDbEntity
  8
IUSE
 62
   250
420
  2301728
370
     9
  0
ENDBLK
  5
246
330
243
100
AcDbEntity
  8
0
100
AcDbBlockEnd
  0
BLOCK
  5
24D
330
24B
100
AcDbEntity
  8
0
100
AcDbBlockBegin
  2
block 13
 70
     0
 10
0.0
 20
0.0
 30
0.0
  3
block 13
  1

  0
POLYLINE
  5
24F
330
24B
100
AcDbEntity
  8
IUSE
 62
   250
420
  2301728
370
     9
100
AcDb2dPolyline
 66
     1
 10
0.0
 20
0.0
 30
0.0
  0
VERTEX
  5
250
330
24F
100
AcDbEntity
  8
IUSE
 62
   250
420
  2301728
370
     9
100
AcDbVertex
100
AcDb2dVertex
 10
4.330281919145465
 20
5.062092927682417
 30
0.0
  0
VERTEX
  5
251
330
24F
100
AcDbEntity
  8
IUSE
 62
   250
420
  2301728
370
     9
100
AcDbVertex
100
AcDb2dVertex
 10
4.342013863292348
 20
5.035399872800654
 30
0.0
  0
SEQEND
  5
252
330
24F
100
AcDbEntity
  8
IUSE
 62
   250
420
  2301728
370
     9
  0
ENDBLK
  5
24E
330
24B
100
AcDbEntity
  8
0
100
AcDbBlockEnd
  0
BLOCK
  5
255
330
253
100
AcDbEntity
  8
0
100
AcDbBlockBegin
  2
block 14
 70
     0
 10
0.0
 20
0.0
 30
0.0
  3
block 14
  1

  0
POLYLINE
  5
257
330
253
100
AcDbEntity
  8
IUSE
 62
   250
420
  2301728
370
     9
100
AcDb2dPolyline
 66
     1
 10
0.0
 20
0.0
 30
0.0
  0
VERTEX
  5
258
330
257
100
AcDbEntity
  8
IUSE
 62
   250
420
  2301728
370
     9
100
AcDbVertex
100
AcDb2dVertex
 10
4.330281919144833
 20
5.047959594706122
 30
0.0
  0
VERTEX
  5
259
330
257
100
AcDbEntity
  8
IUSE
 62
   250
420
  2301728
370
     9
100
AcDbVertex
100
AcDb2dVertex
 10
4.330281919145465
 20
5.062092927682417
 30
0.0
  0
SEQEND
  5
25A
330
257
100
AcDbEntity
  8
IUSE
 62
   250
420
  2301728
370
     9
  0
ENDBLK
  5
256
330
253
100
AcDbEntity
  8
0
100
AcDbBlockEnd
  0
BLOCK
  5
26E
330
26C
100
AcDbEntity
  8
0
100
AcDbBlockBegin
  2
block 15
 70
     0
 10
0.0
 20
0.0
 30
0.0
  3
block 15
  1

  0
POLYLINE
  5
270
330
26C
100
AcDbEntity
  8
callouts
 62
   250
420
  2301728
370
    18
100
AcDb2dPolyline
 66
     1
 10
0.0
 20
0.0
 30
0.0
  0
VERTEX
  5
271
330
270
100
AcDbEntity
  8
callouts
 62
   250
420
  2301728
370
    18
100
AcDbVertex
100
AcDb2dVertex
 10
4.51291714509883
 20
5.031414791708711
 30
0.0
  0
VERTEX
  5
272
330
270
100
AcDbEntity
  8
callouts
 62
   250
420
  2301728
370
    18
100
AcDbVertex
100
AcDb2dVertex
 10
4.406912412218491
 20
4.632098756989181
 30
0.0
  0
SEQEND
  5
273
330
270
100
AcDbEntity
  8
callouts
 62
   250
420
  2301728
370
    18
  0
POLYLINE
  5
274
330
26C
100
AcDbEntity
  8
callouts
370
     0
100
AcDb2dPolyline
 66
     1
 10
0.0
 20
0.0
 30
0.0
  0
VERTEX
  5
275
330
274
100
AcDbEntity
  8
callouts
370
     0
100
AcDbVertex
100
AcDb2dVertex
 10
4.535009752431379
 20
4.987108307229113
 30
0.0
  0
VERTEX
  5
276
330
274
100
AcDbEntity
  8
callouts
370
     0
100
AcDbVertex
100
AcDb2dVertex
 10
4.525352309751396
 20
5.091017205384333
 30
0.0
  0
VERTEX
  5
277
330
274
100
AcDbEntity
  8
callouts
370
     0
100
AcDbVertex
100
AcDb2dVertex
 10
4.472693767109604
 20
5.004678540266948
 30
0.0
  0
VERTEX
  5
278
330
274
100
AcDbEntity
  8
callouts
370
     0
100
AcDbVertex
100
AcDb2dVertex
 10
4.535009752431379
 20
4.987108307229113
 30
0.0
  0
SEQEND
  5
27A
330
274
100
AcDbEntity
  8
callouts
370
     0
  0
HATCH
  5
279
330
26C
100
AcDbEntity
  8
callouts
 62
   250
420
  2301728
100
AcDbHatch
 10
0.0
 20
0.0
 30
0.0
210
0.0
220
0.0
230
1.0
  2
SOLID
 70
     1
 71
     0
 91
        1
 92
        1
 93
        3
 72
     1
 10
4.535009752431379
 20
4.987108307229113
 11
4.525352309751396
 21
5.091017205384333
 72
     1
 10
4.525352309751396
 20
5.091017205384333
 11
4.472693767109604
 21
5.004678540266948
 72
     1
 10
4.472693767109604
 20
5.004678540266948
 11
4.535009752431379
 21
4.987108307229113
 97
        0
 75
     2
 76
     1
 98
        0
  0
ENDBLK
  5
26F
330
26C
100
AcDbEntity
  8
0
100
AcDbBlockEnd
  0
ENDSEC
  0
SECTION
  2
ENTITIES
  0
POLYLINE
  5
41
330
1F
100
AcDbEntity
  8
IUSE
370
     0
100
AcDb2dPolyline
 66
     1
 10
0.0
 20
0.0
 30
0.0
  0
VERTEX
  5
42
330
41
100
AcDbEntity
  8
IUSE
370
     0
100
AcDbVertex
100
AcDb2dVertex
 10
3.410796394165484
 20
4.760914605741997
 30
0.0
  0
VERTEX
  5
43
330
41
100
AcDbEntity
  8
IUSE
370
     0
100
AcDbVertex
100
AcDb2dVertex
 10
5.558933277017736
 20
5.545891526516571
 30
0.0
  0
VERTEX
  5
44
330
41
100
AcDbEntity
  8
IUSE
370
     0
100
AcDbVertex
100
AcDb2dVertex
 10
5.558933277043429
 20
6.118055555506468
 30
0.0
  0
VERTEX
  5
45
330
41
100
AcDbEntity
  8
IUSE
370
     0
100
AcDbVertex
100
AcDb2dVertex
 10
5.518256802958351
 20
6.135416666619411
 30
0.0
  0
VERTEX
  5
46
330
41
100
AcDbEntity
  8
IUSE
370
     0
100
AcDbVertex
100
AcDb2dVertex
 10
5.601590136295575
 20
6.222222222171227
 30
0.0
  0
VERTEX
  5
47
330
41
100
AcDbEntity
  8
IUSE
370
     0
100
AcDbVertex
100
AcDb2dVertex
 10
5.558933277049037
 20
6.243055555506468
 30
0.0
  0
VERTEX
  5
48
330
41
100
AcDbEntity
  8
IUSE
370
     0
100
AcDbVertex
100
AcDb2dVertex
 10
5.558933277075539
 20
6.833156771775293
 30
0.0
  0
VERTEX
  5
49
330
41
100
AcDbEntity
  8
IUSE
370
     0
100
AcDbVertex
100
AcDb2dVertex
 10
5.271729025216725
 20
6.940972222186032
 30
0.0
  0
VERTEX
  5
4A
330
41
100
AcDbEntity
  8
IUSE
370
     0
100
AcDbVertex
100
AcDb2dVertex
 10
3.174283826463807
 20
6.417376226813239
 30
0.0
  0
VERTEX
  5
4B
330
41
100
AcDbEntity
  8
IUSE
370
     0
100
AcDbVertex
100
AcDb2dVertex
 10
3.174283826433616
 20
5.744525001414963
 30
0.0
  0
VERTEX
  5
4C
330
41
100
AcDbEntity
  8
IUSE
370
     0
100
AcDbVertex
100
AcDb2dVertex
 10
3.216331187732774
 20
5.712529022395074
 30
0.0
  0
VERTEX
  5
4D
330
41
100
AcDbEntity
  8
IUSE
370
     0
100
AcDbVertex
100
AcDb2dVertex
 10
3.12015202349178
 20
5.623437357983359
 30
0.0
  0
VERTEX
  5
4E
330
41
100
AcDbEntity
  8
IUSE
370
     0
100
AcDbVertex
100
AcDb2dVertex
 10
3.174283826426265
 20
5.580848470167931
 30
0.0
  0
VERTEX
  5
4F
330
41
100
AcDbEntity
  8
IUSE
370
     0
100
AcDbVertex
100
AcDb2dVertex
 10
3.174283826398449
 20
4.961517930257969
 30
0.0
  0
VERTEX
  5
50
330
41
100
AcDbEntity
  8
IUSE
370
     0
100
AcDbVertex
100
AcDb2dVertex
 10
3.410796394165484
 20
4.760914605741997
 30
0.0
  0
SEQEND
  5
52
330
41
100
AcDbEntity
  8
IUSE
370
     0
  0
HATCH
  5
51
330
1F
100
AcDbEntity
  8
IUSE
 62
    43
420
 15510365
100
AcDbHatch
 10
0.0
 20
0.0
 30
0.0
210
0.0
220
0.0
230
1.0
  2
SOLID
 70
     1
 71
     0
 91
        1
 92
        1
 93
       14
 72
     1
 10
3.410796394165484
 20
4.760914605741997
 11
5.558933277017736
 21
5.545891526516571
 72
     1
 10
5.558933277017736
 20
5.545891526516571
 11
5.558933277043429
 21
6.118055555506468
 72
     1
 10
5.558933277043429
 20
6.118055555506468
 11
5.518256802958351
 21
6.135416666619411
 72
     1
 10
5.518256802958351
 20
6.135416666619411
 11
5.601590136295575
 21
6.222222222171227
 72
     1
 10
5.601590136295575
 20
6.222222222171227
 11
5.558933277049037
 21
6.243055555506468
 72
     1
 10
5.558933277049037
 20
6.243055555506468
 11
5.558933277075539
 21
6.833156771775293
 72
     1
 10
5.558933277075539
 20
6.833156771775293
 11
5.271729025216725
 21
6.940972222186032
 72
     1
 10
5.271729025216725
 20
6.940972222186032
 11
3.174283826463807
 21
6.417376226813239
 72
     1
 10
3.174283826463807
 20
6.417376226813239
 11
3.174283826433616
 21
5.744525001414963
 72
     1
 10
3.174283826433616
 20
5.744525001414963
 11
3.216331187732774
 21
5.712529022395074
 72
     1
 10
3.216331187732774
 20
5.712529022395074
 11
3.12015202349178
 21
5.623437357983359
 72
     1
 10
3.12015202349178
 20
5.623437357983359
 11
3.174283826426265
 21
5.580848470167931
 72
     1
 10
3.174283826426265
 20
5.580848470167931
 11
3.174283826398449
 21
4.961517930257969
 72
     1
 10
3.174283826398449
 20
4.961517930257969
 11
3.410796394165484
 21
4.760914605741997
 97
        0
 75
     2
 76
     1
 98
        0
  0
POLYLINE
  5
53
330
1F
100
AcDbEntity
  8
IUSE
 62
   250
420
  2301728
370
    25
100
AcDb2dPolyline
 66
     1
 10
0.0
 20
0.0
 30
0.0
  0
VERTEX
  5
54
330
53
100
AcDbEntity
  8
IUSE
 62
   250
420
  2301728
370
    25
100
AcDbVertex
100
AcDb2dVertex
 10
3.410796394165484
 20
4.760914605741997
 30
0.0
  0
VERTEX
  5
55
330
53
100
AcDbEntity
  8
IUSE
 62
   250
420
  2301728
370
    25
100
AcDbVertex
100
AcDb2dVertex
 10
5.558933277017736
 20
5.545891526516571
 30
0.0
  0
VERTEX
  5
56
330
53
100
AcDbEntity
  8
IUSE
 62
   250
420
  2301728
370
    25
100
AcDbVertex
100
AcDb2dVertex
 10
5.558933277043429
 20
6.118055555506468
 30
0.0
  0
VERTEX
  5
57
330
53
100
AcDbEntity
  8
IUSE
 62
   250
420
  2301728
370
    25
100
AcDbVertex
100
AcDb2dVertex
 10
5.518256802958351
 20
6.135416666619411
 30
0.0
  0
VERTEX
  5
58
330
53
100
AcDbEntity
  8
IUSE
 62
   250
420
  2301728
370
    25
100
AcDbVertex
100
AcDb2dVertex
 10
5.601590136295575
 20
6.222222222171227
 30
0.0
  0
VERTEX
  5
59
330
53
100
AcDbEntity
  8
IUSE
 62
   250
420
  2301728
370
    25
100
AcDbVertex
100
AcDb2dVertex
 10
5.558933277049037
 20
6.243055555506468
 30
0.0
  0
VERTEX
  5
5A
330
53
100
AcDbEntity
  8
IUSE
 62
   250
420
  2301728
370
    25
100
AcDbVertex
100
AcDb2dVertex
 10
5.558933277075539
 20
6.833156771775293
 30
0.0
  0
VERTEX
  5
5B
330
53
100
AcDbEntity
  8
IUSE
 62
   250
420
  2301728
370
    25
100
AcDbVertex
100
AcDb2dVertex
 10
5.271729025216725
 20
6.940972222186032
 30
0.0
  0
VERTEX
  5
5C
330
53
100
AcDbEntity
  8
IUSE
 62
   250
420
  2301728
370
    25
100
AcDbVertex
100
AcDb2dVertex
 10
3.174283826463807
 20
6.417376226813239
 30
0.0
  0
VERTEX
  5
5D
330
53
100
AcDbEntity
  8
IUSE
 62
   250
420
  2301728
370
    25
100
AcDbVertex
100
AcDb2dVertex
 10
3.174283826433616
 20
5.744525001414963
 30
0.0
  0
VERTEX
  5
5E
330
53
100
AcDbEntity
  8
IUSE
 62
   250
420
  2301728
370
    25
100
AcDbVertex
100
AcDb2dVertex
 10
3.216331187732774
 20
5.712529022395074
 30
0.0
  0
VERTEX
  5
5F
330
53
100
AcDbEntity
  8
IUSE
 62
   250
420
  2301728
370
    25
100
AcDbVertex
100
AcDb2dVertex
 10
3.12015202349178
 20
5.623437357983359
 30
0.0
  0
VERTEX
  5
60
330
53
100
AcDbEntity
  8
IUSE
 62
   250
420
  2301728
370
    25
100
AcDbVertex
100
AcDb2dVertex
 10
3.174283826426265
 20
5.580848470167931
 30
0.0
  0
VERTEX
  5
61
330
53
100
AcDbEntity
  8
IUSE
 62
   250
420
  2301728
370
    25
100
AcDbVertex
100
AcDb2dVertex
 10
3.174283826398449
 20
4.961517930257969
 30
0.0
  0
VERTEX
  5
62
330
53
100
AcDbEntity
  8
IUSE
 62
   250
420
  2301728
370
    25
100
AcDbVertex
100
AcDb2dVertex
 10
3.410796394165484
 20
4.760914605741997
 30
0.0
  0
SEQEND
  5
63
330
53
100
AcDbEntity
  8
IUSE
 62
   250
420
  2301728
370
    25
  0
POLYLINE
  5
64
330
1F
100
AcDbEntity
  8
IUSE
 62
   250
420
  2301728
370
    18
100
AcDb2dPolyline
 66
     1
 10
0.0
 20
0.0
 30
0.0
  0
VERTEX
  5
65
330
64
100
AcDbEntity
  8
IUSE
 62
   250
420
  2301728
370
    18
100
AcDbVertex
100
AcDb2dVertex
 10
3.410863060830492
 20
4.76120071684588
 30
0.0
  0
VERTEX
  5
66
330
64
100
AcDbEntity
  8
IUSE
 62
   250
420
  2301728
370
    18
100
AcDbVertex
100
AcDb2dVertex
 10
3.410842293916933
 20
5.419133196464801
 30
0.0
  0
VERTEX
  5
67
330
64
100
AcDbEntity
  8
IUSE
 62
   250
420
  2301728
370
    18
100
AcDbVertex
100
AcDb2dVertex
 10
3.358570073015976
 20
5.435937362709309
 30
0.0
  0
VERTEX
  5
68
330
64
100
AcDbEntity
  8
IUSE
 62
   250
420
  2301728
370
    18
100
AcDbVertex
100
AcDb2dVertex
 10
3.463089381979999
 20
5.540484582285747
 30
0.0
  0
VERTEX
  5
69
330
64
100
AcDbEntity
  8
IUSE
 62
   250
420
  2301728
370
    18
100
AcDbVertex
100
AcDb2dVertex
 10
3.415847849352303
 20
5.558556804053548
 30
0.0
  0
VERTEX
  5
6A
330
64
100
AcDbEntity
  8
IUSE
 62
   250
420
  2301728
370
    18
100
AcDbVertex
100
AcDb2dVertex
 10
3.415847849384565
 20
6.277233334737452
 30
0.0
  0
SEQEND
  5
6B
330
64
100
AcDbEntity
  8
IUSE
 62
   250
420
  2301728
370
    18
  0
POLYLINE
  5
6C
330
1F
100
AcDbEntity
  8
IUSE
 62
   250
420
  2301728
370
    18
100
AcDb2dPolyline
 66
     1
 10
0.0
 20
0.0
 30
0.0
  0
VERTEX
  5
6D
330
6C
100
AcDbEntity
  8
IUSE
 62
   250
420
  2301728
370
    18
100
AcDbVertex
100
AcDb2dVertex
 10
5.55750966600029
 20
6.831272049600758
 30
0.0
  0
VERTEX
  5
6E
330
6C
100
AcDbEntity
  8
IUSE
 62
   250
420
  2301728
370
    18
100
AcDbVertex
100
AcDb2dVertex
 10
3.415304793842703
 20
6.276412341474573
 30
0.0
  0
VERTEX
  5
6F
330
6C
100
AcDbEntity
  8
IUSE
 62
   250
420
  2301728
370
    18
100
AcDbVertex
100
AcDb2dVertex
 10
3.17435202215822
 20
6.417275001414964
 30
0.0
  0
SEQEND
  5
70
330
6C
100
AcDbEntity
  8
IUSE
 62
   250
420
  2301728
370
    18
  0
POLYLINE
  5
71
330
1F
100
AcDbEntity
  8
IUSE
 62
   250
420
  2301728
370
    25
100
AcDb2dPolyline
 66
     1
 10
0.0
 20
0.0
 30
0.0
  0
VERTEX
  5
72
330
71
100
AcDbEntity
  8
IUSE
 62
   250
420
  2301728
370
    25
100
AcDbVertex
100
AcDb2dVertex
 10
3.216331187732774
 20
5.712529022395074
 30
0.0
  0
VERTEX
  5
73
330
71
100
AcDbEntity
  8
IUSE
 62
   250
420
  2301728
370
    25
100
AcDbVertex
100
AcDb2dVertex
 10
3.415304793810467
 20
5.558542915165035
 30
0.0
  0
VERTEX
  5
74
330
71
100
AcDbEntity
  8
IUSE
 62
   250
420
  2301728
370
    25
100
AcDbVertex
100
AcDb2dVertex
 10
3.463089381979999
 20
5.540484582285747
 30
0.0
  0
SEQEND
  5
75
330
71
100
AcDbEntity
  8
IUSE
 62
   250
420
  2301728
370
    25
  0
POLYLINE
  5
76
330
1F
100
AcDbEntity
  8
IUSE
 62
   250
420
  2301728
370
    25
100
AcDb2dPolyline
 66
     1
 10
0.0
 20
0.0
 30
0.0
  0
VERTEX
  5
77
330
76
100
AcDbEntity
  8
IUSE
 62
   250
420
  2301728
370
    25
100
AcDbVertex
100
AcDb2dVertex
 10
3.174894937537349
 20
5.580292914626372
 30
0.0
  0
VERTEX
  5
78
330
76
100
AcDbEntity
  8
IUSE
 62
   250
420
  2301728
370
    25
100
AcDbVertex
100
AcDb2dVertex
 10
3.358502017462165
 20
5.436222084924339
 30
0.0
  0
VERTEX
  5
79
330
76
100
AcDbEntity
  8
IUSE
 62
   250
420
  2301728
370
    25
100
AcDbVertex
100
AcDb2dVertex
 10
3.410842293916933
 20
5.419133196464801
 30
0.0
  0
SEQEND
  5
7A
330
76
100
AcDbEntity
  8
IUSE
 62
   250
420
  2301728
370
    25
  0
POLYLINE
  5
7B
330
1F
100
AcDbEntity
  8
IUSE
 62
   250
420
  2301728
370
    25
100
AcDb2dPolyline
 66
     1
 10
0.0
 20
0.0
 30
0.0
  0
VERTEX
  5
7C
330
7B
100
AcDbEntity
  8
IUSE
 62
   250
420
  2301728
370
    25
100
AcDbVertex
100
AcDb2dVertex
 10
4.278238864968923
 20
6.494045669288349
 30
0.0
  0
VERTEX
  5
287
330
7B
100
AcDbEntity
  8
0
100
AcDbVertex
100
AcDb2dVertex
 10
4.278238864968923
 20
6.494045669288349
 30
0.0
  0
SEQEND
  5
7D
330
7B
100
AcDbEntity
  8
IUSE
 62
   250
420
  2301728
370
    25
  0
SPLINE
  5
7E
330
1F
100
AcDbEntity
  8
IUSE
 62
   250
420
  2301728
370
     9
100
AcDbSpline
210
0.0
220
0.0
230
1.0
 70
     8
 71
     3
 72
    26
 73
    22
 74
     0
 42
0.0000000001
 43
0.0000000001
 12
1.0
 22
0.0
 32
0.0
 13
1.0
 23
0.0
 33
0.0
 40
0.0
 40
0.0
 40
0.0
 40
0.0
 40
1.0
 40
1.0
 40
1.0
 40
2.0
 40
2.0
 40
2.0
 40
3.0
 40
3.0
 40
3.0
 40
4.0
 40
4.0
 40
4.0
 40
5.0
 40
5.0
 40
5.0
 40
6.0
 40
6.0
 40
6.0
 40
7.0
 40
7.0
 40
7.0
 40
7.0
 10
5.309923469587425
 20
5.29802777773989
 30
0.0
 10
5.309923469587425
 20
5.29802777773989
 30
0.0
 10
5.282145691809799
 20
5.301499999963349
 30
0.0
 10
5.254367914031718
 20
5.294555555520143
 30
0.0
 10
5.226590136253612
 20
5.287611111076962
 30
0.0
 10
5.212701247365354
 20
5.301499999966482
 30
0.0
 10
5.191867914031869
 20
5.298027777745195
 30
0.0
 10
5.171034580698384
 20
5.294555555523908
 30
0.0
 10
5.160617914031389
 20
5.287611111079918
 30
0.0
 10
5.16409013625298
 20
5.273722222190877
 30
0.0
 10
5.167562358474596
 20
5.259833333301836
 30
0.0
 10
5.150201247362853
 20
5.245944444413731
 30
0.0
 10
5.16061791402904
 20
5.235527777746584
 30
0.0
 10
5.171034580695252
 20
5.225111111079463
 30
0.0
 10
5.181451247361767
 20
5.22163888885676
 30
0.0
 10
5.191867914026564
 20
5.179972222189639
 30
0.0
 10
5.202284580691361
 20
5.138305555522493
 30
0.0
 10
5.212701247356916
 20
5.113999999966482
 30
0.0
 10
5.233534580689644
 20
5.100111111076633
 30
0.0
 10
5.243869396067717
 20
5.093220704632813
 30
0.0
 10
5.2670221732599
 20
5.077785982799469
 30
0.0
 10
5.287733283847198
 20
5.063977649814029
 30
0.0
  0
INSERT
  5
80
330
1F
100
AcDbEntity
  8
IUSE
100
AcDbBlockReference
  2
block 2
 10
0.0
 20
0.0
 30
0.0
  0
POLYLINE
  5
107
330
1F
100
AcDbEntity
  8
IUSE
 62
   250
420
  2301728
370
    13
100
AcDb2dPolyline
 66
     1
 10
0.0
 20
0.0
 30
0.0
  0
VERTEX
  5
108
330
107
100
AcDbEntity
  8
IUSE
 62
   250
420
  2301728
370
    13
100
AcDbVertex
100
AcDb2dVertex
 10
5.440999946685578
 20
6.03472222217844
 30
0.0
  0
VERTEX
  5
109
330
107
100
AcDbEntity
  8
IUSE
 62
   250
420
  2301728
370
    13
100
AcDbVertex
100
AcDb2dVertex
 10
5.193604025172741
 20
5.960937349381374
 30
0.0
  0
SEQEND
  5
10A
330
107
100
AcDbEntity
  8
IUSE
 62
   250
420
  2301728
370
    13
  0
POLYLINE
  5
10B
330
1F
100
AcDbEntity
  8
IUSE
 62
   250
420
  2301728
370
    13
100
AcDb2dPolyline
 66
     1
 10
0.0
 20
0.0
 30
0.0
  0
VERTEX
  5
10C
330
10B
100
AcDbEntity
  8
IUSE
 62
   250
420
  2301728
370
    13
100
AcDbVertex
100
AcDb2dVertex
 10
5.440999946684365
 20
6.006944444400662
 30
0.0
  0
VERTEX
  5
10D
330
10B
100
AcDbEntity
  8
IUSE
 62
   250
420
  2301728
370
    13
100
AcDbVertex
100
AcDb2dVertex
 10
5.193604025171478
 20
5.933159572305322
 30
0.0
  0
SEQEND
  5
10E
330
10B
100
AcDbEntity
  8
IUSE
 62
   250
420
  2301728
370
    13
  0
POLYLINE
  5
10F
330
1F
100
AcDbEntity
  8
IUSE
 62
   250
420
  2301728
370
    13
100
AcDb2dPolyline
 66
     1
 10
0.0
 20
0.0
 30
0.0
  0
VERTEX
  5
110
330
10F
100
AcDbEntity
  8
IUSE
 62
   250
420
  2301728
370
    13
100
AcDbVertex
100
AcDb2dVertex
 10
5.440999946683101
 20
5.979166666622884
 30
0.0
  0
VERTEX
  5
111
330
10F
100
AcDbEntity
  8
IUSE
 62
   250
420
  2301728
370
    13
100
AcDbVertex
100
AcDb2dVertex
 10
5.19360402517024
 20
5.905381795229257
 30
0.0
  0
SEQEND
  5
112
330
10F
100
AcDbEntity
  8
IUSE
 62
   250
420
  2301728
370
    13
  0
POLYLINE
  5
113
330
1F
100
AcDbEntity
  8
IUSE
 62
   250
420
  2301728
370
    13
100
AcDb2dPolyline
 66
     1
 10
0.0
 20
0.0
 30
0.0
  0
VERTEX
  5
114
330
113
100
AcDbEntity
  8
IUSE
 62
   250
420
  2301728
370
    13
100
AcDbVertex
100
AcDb2dVertex
 10
5.440999946681838
 20
5.951388888845107
 30
0.0
  0
VERTEX
  5
115
330
113
100
AcDbEntity
  8
IUSE
 62
   250
420
  2301728
370
    13
100
AcDbVertex
100
AcDb2dVertex
 10
5.193604025169003
 20
5.877604018153217
 30
0.0
  0
SEQEND
  5
116
330
113
100
AcDbEntity
  8
IUSE
 62
   250
420
  2301728
370
    13
  0
POLYLINE
  5
117
330
1F
100
AcDbEntity
  8
IUSE
 62
   250
420
  2301728
370
    13
100
AcDb2dPolyline
 66
     1
 10
0.0
 20
0.0
 30
0.0
  0
VERTEX
  5
118
330
117
100
AcDbEntity
  8
IUSE
 62
   250
420
  2301728
370
    13
100
AcDbVertex
100
AcDb2dVertex
 10
5.286323561697094
 20
5.877474851485658
 30
0.0
  0
VERTEX
  5
119
330
117
100
AcDbEntity
  8
IUSE
 62
   250
420
  2301728
370
    13
100
AcDbVertex
100
AcDb2dVertex
 10
5.193604025167739
 20
5.849826241077166
 30
0.0
  0
SEQEND
  5
11A
330
117
100
AcDbEntity
  8
IUSE
 62
   250
420
  2301728
370
    13
  0
POLYLINE
  5
11B
330
1F
100
AcDbEntity
  8
IUSE
 62
   250
420
  2301728
370
    13
100
AcDb2dPolyline
 66
     1
 10
0.0
 20
0.0
 30
0.0
  0
VERTEX
  5
11C
330
11B
100
AcDbEntity
  8
IUSE
 62
   250
420
  2301728
370
    13
100
AcDbVertex
100
AcDb2dVertex
 10
5.4409999466806
 20
5.923611111067329
 30
0.0
  0
VERTEX
  5
11D
330
11B
100
AcDbEntity
  8
IUSE
 62
   250
420
  2301728
370
    13
100
AcDbVertex
100
AcDb2dVertex
 10
5.361247170916486
 20
5.899827628695385
 30
0.0
  0
SEQEND
  5
11E
330
11B
100
AcDbEntity
  8
IUSE
 62
   250
420
  2301728
370
    13
  0
POLYLINE
  5
11F
330
1F
100
AcDbEntity
  8
IUSE
 62
   250
420
  2301728
370
    13
100
AcDb2dPolyline
 66
     1
 10
0.0
 20
0.0
 30
0.0
  0
VERTEX
  5
120
330
11F
100
AcDbEntity
  8
IUSE
 62
   250
420
  2301728
370
    13
100
AcDbVertex
100
AcDb2dVertex
 10
5.287313839448617
 20
5.849995685513123
 30
0.0
  0
VERTEX
  5
121
330
11F
100
AcDbEntity
  8
IUSE
 62
   250
420
  2301728
370
    13
100
AcDbVertex
100
AcDb2dVertex
 10
5.193604025166476
 20
5.822048464001114
 30
0.0
  0
SEQEND
  5
122
330
11F
100
AcDbEntity
  8
IUSE
 62
   250
420
  2301728
370
    13
  0
POLYLINE
  5
123
330
1F
100
AcDbEntity
  8
IUSE
 62
   250
420
  2301728
370
    13
100
AcDb2dPolyline
 66
     1
 10
0.0
 20
0.0
 30
0.0
  0
VERTEX
  5
124
330
123
100
AcDbEntity
  8
IUSE
 62
   250
420
  2301728
370
    13
100
AcDbVertex
100
AcDb2dVertex
 10
5.440999946679363
 20
5.895833333289551
 30
0.0
  0
VERTEX
  5
125
330
123
100
AcDbEntity
  8
IUSE
 62
   250
420
  2301728
370
    13
100
AcDbVertex
100
AcDb2dVertex
 10
5.361545782018816
 20
5.872137351617109
 30
0.0
  0
SEQEND
  5
126
330
123
100
AcDbEntity
  8
IUSE
 62
   250
420
  2301728
370
    13
  0
POLYLINE
  5
127
330
1F
100
AcDbEntity
  8
IUSE
 62
   250
420
  2301728
370
    13
100
AcDb2dPolyline
 66
     1
 10
0.0
 20
0.0
 30
0.0
  0
VERTEX
  5
128
330
127
100
AcDbEntity
  8
IUSE
 62
   250
420
  2301728
370
    13
100
AcDbVertex
100
AcDb2dVertex
 10
5.288643006024055
 20
4.565497106851126
 30
0.0
  0
VERTEX
  5
129
330
127
100
AcDbEntity
  8
IUSE
 62
   250
420
  2301728
370
    13
100
AcDbVertex
100
AcDb2dVertex
 10
5.192736064000655
 20
4.526204052292491
 30
0.0
  0
SEQEND
  5
12A
330
127
100
AcDbEntity
  8
IUSE
 62
   250
420
  2301728
370
    13
  0
POLYLINE
  5
12B
330
1F
100
AcDbEntity
  8
IUSE
 62
   250
420
  2301728
370
    13
100
AcDb2dPolyline
 66
     1
 10
0.0
 20
0.0
 30
0.0
  0
VERTEX
  5
12C
330
12B
100
AcDbEntity
  8
IUSE
 62
   250
420
  2301728
370
    13
100
AcDbVertex
100
AcDb2dVertex
 10
5.442736057689722
 20
4.628634605249216
 30
0.0
  0
VERTEX
  5
12D
330
12B
100
AcDbEntity
  8
IUSE
 62
   250
420
  2301728
370
    13
100
AcDbVertex
100
AcDb2dVertex
 10
5.362630504156337
 20
4.595810994970886
 30
0.0
  0
SEQEND
  5
12E
330
12B
100
AcDbEntity
  8
IUSE
 62
   250
420
  2301728
370
    13
  0
POLYLINE
  5
12F
330
1F
100
AcDbEntity
  8
IUSE
 62
   250
420
  2301728
370
    13
100
AcDb2dPolyline
 66
     1
 10
0.0
 20
0.0
 30
0.0
  0
VERTEX
  5
130
330
12F
100
AcDbEntity
  8
IUSE
 62
   250
420
  2301728
370
    13
100
AcDbVertex
100
AcDb2dVertex
 10
5.289144394899014
 20
4.537935996436241
 30
0.0
  0
VERTEX
  5
131
330
12F
100
AcDbEntity
  8
IUSE
 62
   250
420
  2301728
370
    13
100
AcDbVertex
100
AcDb2dVertex
 10
5.192736063999392
 20
4.498426275216439
 30
0.0
  0
SEQEND
  5
132
330
12F
100
AcDbEntity
  8
IUSE
 62
   250
420
  2301728
370
    13
  0
POLYLINE
  5
133
330
1F
100
AcDbEntity
  8
IUSE
 62
   250
420
  2301728
370
    13
100
AcDb2dPolyline
 66
     1
 10
0.0
 20
0.0
 30
0.0
  0
VERTEX
  5
134
330
133
100
AcDbEntity
  8
IUSE
 62
   250
420
  2301728
370
    13
100
AcDbVertex
100
AcDb2dVertex
 10
5.442736057688458
 20
4.600856828173164
 30
0.0
  0
VERTEX
  5
135
330
133
100
AcDbEntity
  8
IUSE
 62
   250
420
  2301728
370
    13
100
AcDbVertex
100
AcDb2dVertex
 10
5.361924948617343
 20
4.56774849567983
 30
0.0
  0
SEQEND
  5
136
330
133
100
AcDbEntity
  8
IUSE
 62
   250
420
  2301728
370
    13
  0
POLYLINE
  5
137
330
1F
100
AcDbEntity
  8
IUSE
 62
   250
420
  2301728
370
    13
100
AcDb2dPolyline
 66
     1
 10
0.0
 20
0.0
 30
0.0
  0
VERTEX
  5
138
330
137
100
AcDbEntity
  8
IUSE
 62
   250
420
  2301728
370
    13
100
AcDbVertex
100
AcDb2dVertex
 10
5.442736057687221
 20
4.573079051097111
 30
0.0
  0
VERTEX
  5
139
330
137
100
AcDbEntity
  8
IUSE
 62
   250
420
  2301728
370
    13
100
AcDbVertex
100
AcDb2dVertex
 10
5.192736063998027
 20
4.467759609324477
 30
0.0
  0
SEQEND
  5
13A
330
137
100
AcDbEntity
  8
IUSE
 62
   250
420
  2301728
370
    13
  0
POLYLINE
  5
13B
330
1F
100
AcDbEntity
  8
IUSE
 62
   250
420
  2301728
370
    13
100
AcDb2dPolyline
 66
     1
 10
0.0
 20
0.0
 30
0.0
  0
VERTEX
  5
13C
330
13B
100
AcDbEntity
  8
IUSE
 62
   250
420
  2301728
370
    13
100
AcDbVertex
100
AcDb2dVertex
 10
5.442736057685983
 20
4.545301274021059
 30
0.0
  0
VERTEX
  5
13D
330
13B
100
AcDbEntity
  8
IUSE
 62
   250
420
  2301728
370
    13
100
AcDbVertex
100
AcDb2dVertex
 10
5.192736063996764
 20
4.439981832248425
 30
0.0
  0
SEQEND
  5
13E
330
13B
100
AcDbEntity
  8
IUSE
 62
   250
420
  2301728
370
    13
  0
INSERT
  5
140
330
1F
100
AcDbEntity
  8
IUSE
100
AcDbBlockReference
  2
block 3
 10
0.0
 20
0.0
 30
0.0
  0
POLYLINE
  5
17E
330
1F
100
AcDbEntity
  8
IUSE
 62
   250
420
  2301728
370
    13
100
AcDb2dPolyline
 66
     1
 10
0.0
 20
0.0
 30
0.0
  0
VERTEX
  5
17F
330
17E
100
AcDbEntity
  8
IUSE
 62
   250
420
  2301728
370
    13
100
AcDbVertex
100
AcDb2dVertex
 10
5.44273605768472
 20
4.517523496945008
 30
0.0
  0
VERTEX
  5
180
330
17E
100
AcDbEntity
  8
IUSE
 62
   250
420
  2301728
370
    13
100
AcDbVertex
100
AcDb2dVertex
 10
5.192736063995552
 20
4.412204055172373
 30
0.0
  0
SEQEND
  5
181
330
17E
100
AcDbEntity
  8
IUSE
 62
   250
420
  2301728
370
    13
  0
POLYLINE
  5
182
330
1F
100
AcDbEntity
  8
IUSE
 62
   250
420
  2301728
370
    13
100
AcDb2dPolyline
 66
     1
 10
0.0
 20
0.0
 30
0.0
  0
VERTEX
  5
183
330
182
100
AcDbEntity
  8
IUSE
 62
   250
420
  2301728
370
    13
100
AcDbVertex
100
AcDb2dVertex
 10
5.442736057683482
 20
4.489745719868956
 30
0.0
  0
VERTEX
  5
184
330
182
100
AcDbEntity
  8
IUSE
 62
   250
420
  2301728
370
    13
100
AcDbVertex
100
AcDb2dVertex
 10
5.192736063994289
 20
4.384426278096321
 30
0.0
  0
SEQEND
  5
185
330
182
100
AcDbEntity
  8
IUSE
 62
   250
420
  2301728
370
    13
  0
SPLINE
  5
186
330
1F
100
AcDbEntity
  8
IUSE
370
     0
100
AcDbSpline
210
0.0
220
0.0
230
1.0
 70
    11
 71
     3
 72
    86
 73
    82
 74
     0
 42
0.0000000001
 43
0.0000000001
 12
1.0
 22
0.0
 32
0.0
 13
1.0
 23
0.0
 33
0.0
 40
0.0
 40
0.0
 40
0.0
 40
0.0
 40
1.0
 40
1.0
 40
1.0
 40
2.0
 40
2.0
 40
2.0
 40
3.0
 40
3.0
 40
3.0
 40
4.0
 40
4.0
 40
4.0
 40
5.0
 40
5.0
 40
5.0
 40
6.0
 40
6.0
 40
6.0
 40
7.0
 40
7.0
 40
7.0
 40
8.0
 40
8.0
 40
8.0
 40
9.0
 40
9.0
 40
9.0
 40
10.0
 40
10.0
 40
10.0
 40
11.0
 40
11.0
 40
11.0
 40
12.0
 40
12.0
 40
12.0
 40
13.0
 40
13.0
 40
13.0
 40
14.0
 40
14.0
 40
14.0
 40
15.0
 40
15.0
 40
15.0
 40
16.0
 40
16.0
 40
16.0
 40
17.0
 40
17.0
 40
17.0
 40
18.0
 40
18.0
 40
18.0
 40
19.0
 40
19.0
 40
19.0
 40
20.0
 40
20.0
 40
20.0
 40
21.0
 40
21.0
 40
21.0
 40
22.0
 40
22.0
 40
22.0
 40
23.0
 40
23.0
 40
23.0
 40
24.0
 40
24.0
 40
24.0
 40
25.0
 40
25.0
 40
25.0
 40
26.0
 40
26.0
 40
26.0
 40
27.0
 40
27.0
 40
27.0
 40
27.0
 10
4.438518027515758
 20
4.91624570913973
 30
0.0
 10
4.438518027515758
 20
4.91624570913973
 30
0.0
 10
4.443698582949133
 20
5.109767926472942
 30
0.0
 10
4.443698582949133
 20
5.109767926472942
 30
0.0
 10
4.443698582949133
 20
5.109767926472942
 30
0.0
 10
4.355238862978821
 20
5.49349569456092
 30
0.0
 10
4.355238862978821
 20
5.49349569456092
 30
0.0
 10
4.355238862978821
 20
5.49349569456092
 30
0.0
 10
4.355238863000598
 20
5.978420682310684
 30
0.0
 10
4.355238863002569
 20
6.022806792300533
 30
0.0
 10
4.355238863004565
 20
6.067213735623138
 30
0.0
 10
4.356947196293453
 20
6.038384569684681
 30
0.0
 10
4.352959696395475
 20
6.066765124523473
 30
0.0
 10
4.347195807654038
 20
6.107822067930972
 30
0.0
 10
4.334052752436492
 20
6.241373453446663
 30
0.0
 10
4.320963863882778
 20
6.342284562009127
 30
0.0
 10
4.320815252775471
 20
6.343370673092825
 30
0.0
 10
4.31650136399594
 20
6.35156944445114
 30
0.0
 10
4.315294419582137
 20
6.354952617244925
 30
0.0
 10
4.306641642024033
 20
6.379265116631144
 30
0.0
 10
4.256483309962328
 20
6.479973447422607
 30
0.0
 10
4.256483309962328
 20
6.479973447422607
 30
0.0
 10
4.256483309962328
 20
6.479973447422607
 30
0.0
 10
4.242106921436894
 20
6.486131780601012
 30
0.0
 10
4.242106921436894
 20
6.486131780601012
 30
0.0
 10
4.242106921436894
 20
6.486131780601012
 30
0.0
 10
4.144423469639529
 20
6.458822059073074
 30
0.0
 10
4.144423469639529
 20
6.458822059073074
 30
0.0
 10
4.144423469639529
 20
6.458822059073074
 30
0.0
 10
4.141304146204523
 20
6.46189983677324
 30
0.0
 10
4.135362479688107
 20
6.465602614457755
 30
0.0
 10
4.12942220206057
 20
6.469305555570649
 30
0.0
 10
4.088162480881238
 20
6.482029002933788
 30
0.0
 10
4.088162480881238
 20
6.482029002933788
 30
0.0
 10
4.088162480881238
 20
6.482029002933788
 30
0.0
 10
4.024549982487567
 20
6.467658169966348
 30
0.0
 10
4.024549982487567
 20
6.467658169966348
 30
0.0
 10
4.024549982487567
 20
6.467658169966348
 30
0.0
 10
4.021715136306132
 20
6.457309559116791
 30
0.0
 10
4.021715136306132
 20
6.457309559116791
 30
0.0
 10
4.021715136306132
 20
6.457309559116791
 30
0.0
 10
4.067641648064485
 20
6.441995670612704
 30
0.0
 10
4.067641648064485
 20
6.441995670612704
 30
0.0
 10
4.067641648064485
 20
6.441995670612704
 30
0.0
 10
4.063829148119541
 20
5.522875000018037
 30
0.0
 10
4.063829148119541
 20
5.522875000018037
 30
0.0
 10
4.063829148119541
 20
5.522875000018037
 30
0.0
 10
4.234090136252285
 20
5.257988756071326
 30
0.0
 10
4.240072199210064
 20
5.238430555565679
 30
0.0
 10
4.246054143502508
 20
5.218898479280496
 30
0.0
 10
4.264391643037773
 20
5.185505424567711
 30
0.0
 10
4.268948587365685
 20
5.154405425353161
 30
0.0
 10
4.274293031673475
 20
5.117960981829128
 30
0.0
 10
4.269680531786459
 20
5.03889987271547
 30
0.0
 10
4.269680531786181
 20
5.032755428426248
 30
0.0
 10
4.269680531785676
 20
5.021388888897692
 30
0.0
 10
4.292752753424262
 20
5.004137373592609
 30
0.0
 10
4.292752753424262
 20
5.004137373592609
 30
0.0
 10
4.292752753424262
 20
5.004137373592609
 30
0.0
 10
4.292752753423707
 20
4.991441540579999
 30
0.0
 10
4.300402753230173
 20
4.985581818505478
 30
0.0
 10
4.307347197498959
 20
4.980265151972794
 30
0.0
 10
4.314969419528678
 20
4.981730429713227
 30
0.0
 10
4.314969419528678
 20
4.981730429713227
 30
0.0
 10
4.314969419528678
 20
4.981730429713227
 30
0.0
 10
4.350343029744812
 20
4.950913763823463
 30
0.0
 10
4.350343029744812
 20
4.950913763823463
 30
0.0
 10
4.350343029744812
 20
4.950913763823463
 30
0.0
 10
4.351454140827425
 20
4.941691541834163
 30
0.0
 10
4.357734696224043
 20
4.935641541986721
 30
0.0
 10
4.362847196094688
 20
4.930677653223003
 30
0.0
 10
4.37024025146363
 20
4.934176264245403
 30
0.0
 10
4.37024025146363
 20
4.934176264245403
 30
0.0
 10
4.37024025146363
 20
4.934176264245403
 30
0.0
 10
4.419936083539698
 20
4.893147098612972
 30
0.0
 10
4.419936083539698
 20
4.893147098612972
 30
0.0
 10
4.419936083539698
 20
4.893147098612972
 30
0.0
 10
4.452813860487216
 20
4.900079042880836
 30
0.0
 10
4.452813860487216
 20
4.900079042880836
 30
0.0
 10
4.452813860487216
 20
4.900079042880836
 30
0.0
 10
4.438518027515758
 20
4.91624570913973
 30
0.0
 10
4.438518027515758
 20
4.91624570913973
 30
0.0
  0
HATCH
  5
187
330
1F
100
AcDbEntity
  8
IUSE
 62
   254
420
 13358815
100
AcDbHatch
 10
0.0
 20
0.0
 30
0.0
210
0.0
220
0.0
230
1.0
  2
SOLID
 70
     1
 71
     0
 91
        1
 92
        1
 93
        1
 72
     4
 94
        3
 73
     0
 74
     1
 95
       86
 96
       82
 40
0.0
 40
0.0
 40
0.0
 40
0.0
 40
1.0
 40
1.0
 40
1.0
 40
2.0
 40
2.0
 40
2.0
 40
3.0
 40
3.0
 40
3.0
 40
4.0
 40
4.0
 40
4.0
 40
5.0
 40
5.0
 40
5.0
 40
6.0
 40
6.0
 40
6.0
 40
7.0
 40
7.0
 40
7.0
 40
8.0
 40
8.0
 40
8.0
 40
9.0
 40
9.0
 40
9.0
 40
10.0
 40
10.0
 40
10.0
 40
11.0
 40
11.0
 40
11.0
 40
12.0
 40
12.0
 40
12.0
 40
13.0
 40
13.0
 40
13.0
 40
14.0
 40
14.0
 40
14.0
 40
15.0
 40
15.0
 40
15.0
 40
16.0
 40
16.0
 40
16.0
 40
17.0
 40
17.0
 40
17.0
 40
18.0
 40
18.0
 40
18.0
 40
19.0
 40
19.0
 40
19.0
 40
20.0
 40
20.0
 40
20.0
 40
21.0
 40
21.0
 40
21.0
 40
22.0
 40
22.0
 40
22.0
 40
23.0
 40
23.0
 40
23.0
 40
24.0
 40
24.0
 40
24.0
 40
25.0
 40
25.0
 40
25.0
 40
26.0
 40
26.0
 40
26.0
 40
27.0
 40
27.0
 40
27.0
 40
27.0
 10
4.438518027515758
 20
4.91624570913973
 10
4.438518027515758
 20
4.91624570913973
 10
4.443698582949133
 20
5.109767926472942
 10
4.443698582949133
 20
5.109767926472942
 10
4.443698582949133
 20
5.109767926472942
 10
4.355238862978821
 20
5.49349569456092
 10
4.355238862978821
 20
5.49349569456092
 10
4.355238862978821
 20
5.49349569456092
 10
4.355238863000598
 20
5.978420682310684
 10
4.355238863002569
 20
6.022806792300533
 10
4.355238863004565
 20
6.067213735623138
 10
4.356947196293453
 20
6.038384569684681
 10
4.352959696395475
 20
6.066765124523473
 10
4.347195807654038
 20
6.107822067930972
 10
4.334052752436492
 20
6.241373453446663
 10
4.320963863882778
 20
6.342284562009127
 10
4.320815252775471
 20
6.343370673092825
 10
4.31650136399594
 20
6.35156944445114
 10
4.315294419582137
 20
6.354952617244925
 10
4.306641642024033
 20
6.379265116631144
 10
4.256483309962328
 20
6.479973447422607
 10
4.256483309962328
 20
6.479973447422607
 10
4.256483309962328
 20
6.479973447422607
 10
4.242106921436894
 20
6.486131780601012
 10
4.242106921436894
 20
6.486131780601012
 10
4.242106921436894
 20
6.486131780601012
 10
4.144423469639529
 20
6.458822059073074
 10
4.144423469639529
 20
6.458822059073074
 10
4.144423469639529
 20
6.458822059073074
 10
4.141304146204523
 20
6.46189983677324
 10
4.135362479688107
 20
6.465602614457755
 10
4.12942220206057
 20
6.469305555570649
 10
4.088162480881238
 20
6.482029002933788
 10
4.088162480881238
 20
6.482029002933788
 10
4.088162480881238
 20
6.482029002933788
 10
4.024549982487567
 20
6.467658169966348
 10
4.024549982487567
 20
6.467658169966348
 10
4.024549982487567
 20
6.467658169966348
 10
4.021715136306132
 20
6.457309559116791
 10
4.021715136306132
 20
6.457309559116791
 10
4.021715136306132
 20
6.457309559116791
 10
4.067641648064485
 20
6.441995670612704
 10
4.067641648064485
 20
6.441995670612704
 10
4.067641648064485
 20
6.441995670612704
 10
4.063829148119541
 20
5.522875000018037
 10
4.063829148119541
 20
5.522875000018037
 10
4.063829148119541
 20
5.522875000018037
 10
4.234090136252285
 20
5.257988756071326
 10
4.240072199210064
 20
5.238430555565679
 10
4.246054143502508
 20
5.218898479280496
 10
4.264391643037773
 20
5.185505424567711
 10
4.268948587365685
 20
5.154405425353161
 10
4.274293031673475
 20
5.117960981829128
 10
4.269680531786459
 20
5.03889987271547
 10
4.269680531786181
 20
5.032755428426248
 10
4.269680531785676
 20
5.021388888897692
 10
4.292752753424262
 20
5.004137373592609
 10
4.292752753424262
 20
5.004137373592609
 10
4.292752753424262
 20
5.004137373592609
 10
4.292752753423707
 20
4.991441540579999
 10
4.300402753230173
 20
4.985581818505478
 10
4.307347197498959
 20
4.980265151972794
 10
4.314969419528678
 20
4.981730429713227
 10
4.314969419528678
 20
4.981730429713227
 10
4.314969419528678
 20
4.981730429713227
 10
4.350343029744812
 20
4.950913763823463
 10
4.350343029744812
 20
4.950913763823463
 10
4.350343029744812
 20
4.950913763823463
 10
4.351454140827425
 20
4.941691541834163
 10
4.357734696224043
 20
4.935641541986721
 10
4.362847196094688
 20
4.930677653223003
 10
4.37024025146363
 20
4.934176264245403
 10
4.37024025146363
 20
4.934176264245403
 10
4.37024025146363
 20
4.934176264245403
 10
4.419936083539698
 20
4.893147098612972
 10
4.419936083539698
 20
4.893147098612972
 10
4.419936083539698
 20
4.893147098612972
 10
4.452813860487216
 20
4.900079042880836
 10
4.452813860487216
 20
4.900079042880836
 10
4.452813860487216
 20
4.900079042880836
 10
4.438518027515758
 20
4.91624570913973
 10
4.438518027515758
 20
4.91624570913973
 97
        0
 97
        0
 75
     2
 76
     1
 98
        0
  0
SPLINE
  5
188
330
1F
100
AcDbEntity
  8
IUSE
370
     0
100
AcDbSpline
210
0.0
220
0.0
230
1.0
 70
    11
 71
     3
 72
    32
 73
    28
 74
     0
 42
0.0000000001
 43
0.0000000001
 12
1.0
 22
0.0
 32
0.0
 13
1.0
 23
0.0
 33
0.0
 40
0.0
 40
0.0
 40
0.0
 40
0.0
 40
1.0
 40
1.0
 40
1.0
 40
2.0
 40
2.0
 40
2.0
 40
3.0
 40
3.0
 40
3.0
 40
4.0
 40
4.0
 40
4.0
 40
5.0
 40
5.0
 40
5.0
 40
6.0
 40
6.0
 40
6.0
 40
7.0
 40
7.0
 40
7.0
 40
8.0
 40
8.0
 40
8.0
 40
9.0
 40
9.0
 40
9.0
 40
9.0
 10
4.66493052186484
 20
6.447130392678395
 30
0.0
 10
4.667941632900693
 20
6.465115114446158
 30
0.0
 10
4.66525680297837
 20
6.581549833727118
 30
0.0
 10
4.66525680297837
 20
6.581549833727118
 30
0.0
 10
4.66525680297837
 20
6.581549833727118
 30
0.0
 10
4.66909579954419
 20
6.598767888847507
 30
0.0
 10
4.657742914090451
 20
6.603122055404697
 30
0.0
 10
4.644315244615073
 20
6.608248444164714
 30
0.0
 10
4.606431912238981
 20
6.613383166258902
 30
0.0
 10
4.606431912238981
 20
6.613383166258902
 30
0.0
 10
4.606431912238981
 20
6.613383166258902
 30
0.0
 10
4.548963858134635
 20
6.601067888794811
 30
0.0
 10
4.548963858134635
 20
6.601067888794811
 30
0.0
 10
4.548963858134635
 20
6.601067888794811
 30
0.0
 10
4.547933302604608
 20
6.589783166857715
 30
0.0
 10
4.547933302604608
 20
6.589783166857715
 30
0.0
 10
4.547933302604608
 20
6.589783166857715
 30
0.0
 10
4.575643024126546
 20
6.583624999995057
 30
0.0
 10
4.575643024126546
 20
6.583624999995057
 30
0.0
 10
4.575643024126546
 20
6.583624999995057
 30
0.0
 10
4.579752746244594
 20
6.575412333886005
 30
0.0
 10
4.579752746244594
 20
6.575412333886005
 30
0.0
 10
4.579752746244594
 20
6.575412333886005
 30
0.0
 10
4.470961082324922
 20
6.546677612394546
 30
0.0
 10
4.470961082324922
 20
6.546677612394546
 30
0.0
 10
4.470961082324922
 20
6.546677612394546
 30
0.0
 10
4.66493052186484
 20
6.447130392678395
 30
0.0
 10
4.66493052186484
 20
6.447130392678395
 30
0.0
  0
HATCH
  5
189
330
1F
100
AcDbEntity
  8
IUSE
 62
   254
420
 13358815
100
AcDbHatch
 10
0.0
 20
0.0
 30
0.0
210
0.0
220
0.0
230
1.0
  2
SOLID
 70
     1
 71
     0
 91
        1
 92
        1
 93
        1
 72
     4
 94
        3
 73
     0
 74
     1
 95
       32
 96
       28
 40
0.0
 40
0.0
 40
0.0
 40
0.0
 40
1.0
 40
1.0
 40
1.0
 40
2.0
 40
2.0
 40
2.0
 40
3.0
 40
3.0
 40
3.0
 40
4.0
 40
4.0
 40
4.0
 40
5.0
 40
5.0
 40
5.0
 40
6.0
 40
6.0
 40
6.0
 40
7.0
 40
7.0
 40
7.0
 40
8.0
 40
8.0
 40
8.0
 40
9.0
 40
9.0
 40
9.0
 40
9.0
 10
4.66493052186484
 20
6.447130392678395
 10
4.667941632900693
 20
6.465115114446158
 10
4.66525680297837
 20
6.581549833727118
 10
4.66525680297837
 20
6.581549833727118
 10
4.66525680297837
 20
6.581549833727118
 10
4.66909579954419
 20
6.598767888847507
 10
4.657742914090451
 20
6.603122055404697
 10
4.644315244615073
 20
6.608248444164714
 10
4.606431912238981
 20
6.613383166258902
 10
4.606431912238981
 20
6.613383166258902
 10
4.606431912238981
 20
6.613383166258902
 10
4.548963858134635
 20
6.601067888794811
 10
4.548963858134635
 20
6.601067888794811
 10
4.548963858134635
 20
6.601067888794811
 10
4.547933302604608
 20
6.589783166857715
 10
4.547933302604608
 20
6.589783166857715
 10
4.547933302604608
 20
6.589783166857715
 10
4.575643024126546
 20
6.583624999995057
 10
4.575643024126546
 20
6.583624999995057
 10
4.575643024126546
 20
6.583624999995057
 10
4.579752746244594
 20
6.575412333886005
 10
4.579752746244594
 20
6.575412333886005
 10
4.579752746244594
 20
6.575412333886005
 10
4.470961082324922
 20
6.546677612394546
 10
4.470961082324922
 20
6.546677612394546
 10
4.470961082324922
 20
6.546677612394546
 10
4.66493052186484
 20
6.447130392678395
 10
4.66493052186484
 20
6.447130392678395
 97
        0
 97
        0
 75
     2
 76
     1
 98
        0
  0
SPLINE
  5
18A
330
1F
100
AcDbEntity
  8
IUSE
370
     0
100
AcDbSpline
210
0.0
220
0.0
230
1.0
 70
    11
 71
     3
 72
    14
 73
    10
 74
     0
 42
0.0000000001
 43
0.0000000001
 12
1.0
 22
0.0
 32
0.0
 13
1.0
 23
0.0
 33
0.0
 40
0.0
 40
0.0
 40
0.0
 40
0.0
 40
1.0
 40
1.0
 40
1.0
 40
2.0
 40
2.0
 40
2.0
 40
3.0
 40
3.0
 40
3.0
 40
3.0
 10
4.31213469740131
 20
5.499091527754823
 30
0.0
 10
4.311198586313645
 20
5.494873472305863
 30
0.0
 10
4.284587475875343
 20
5.507215138661953
 30
0.0
 10
4.284587475875343
 20
5.507215138661953
 30
0.0
 10
4.284587475875343
 20
5.507215138661953
 30
0.0
 10
4.296644420015986
 20
5.524305555563147
 30
0.0
 10
4.299018031067084
 20
5.523355416031336
 30
0.0
 10
4.299018031067084
 20
5.523355416031336
 30
0.0
 10
4.313070808488949
 20
5.503309583203771
 30
0.0
 10
4.31213469740131
 20
5.499091527754823
 30
0.0
  0
HATCH
  5
18B
330
1F
100
AcDbEntity
  8
IUSE
 62
    43
420
 15510365
100
AcDbHatch
 10
0.0
 20
0.0
 30
0.0
210
0.0
220
0.0
230
1.0
  2
SOLID
 70
     1
 71
     0
 91
        1
 92
        1
 93
        1
 72
     4
 94
        3
 73
     0
 74
     1
 95
       14
 96
       10
 40
0.0
 40
0.0
 40
0.0
 40
0.0
 40
1.0
 40
1.0
 40
1.0
 40
2.0
 40
2.0
 40
2.0
 40
3.0
 40
3.0
 40
3.0
 40
3.0
 10
4.31213469740131
 20
5.499091527754823
 10
4.311198586313645
 20
5.494873472305863
 10
4.284587475875343
 20
5.507215138661953
 10
4.284587475875343
 20
5.507215138661953
 10
4.284587475875343
 20
5.507215138661953
 10
4.296644420015986
 20
5.524305555563147
 10
4.299018031067084
 20
5.523355416031336
 10
4.299018031067084
 20
5.523355416031336
 10
4.313070808488949
 20
5.503309583203771
 10
4.31213469740131
 20
5.499091527754823
 97
        0
 97
        0
 75
     2
 76
     1
 98
        0
  0
SPLINE
  5
18C
330
1F
100
AcDbEntity
  8
IUSE
370
     0
100
AcDbSpline
210
0.0
220
0.0
230
1.0
 70
    11
 71
     3
 72
    14
 73
    10
 74
     0
 42
0.0000000001
 43
0.0000000001
 12
1.0
 22
0.0
 32
0.0
 13
1.0
 23
0.0
 33
0.0
 40
0.0
 40
0.0
 40
0.0
 40
0.0
 40
1.0
 40
1.0
 40
1.0
 40
2.0
 40
2.0
 40
2.0
 40
3.0
 40
3.0
 40
3.0
 40
3.0
 10
4.297418031132135
 20
6.072041666674219
 30
0.0
 10
4.293145691844352
 20
6.071349846632554
 30
0.0
 10
4.294867914067885
 20
6.100660957003115
 30
0.0
 10
4.294867914067885
 20
6.100660957003115
 30
0.0
 10
4.294867914067885
 20
6.100660957003115
 30
0.0
 10
4.310222197476151
 20
6.090331790596704
 30
0.0
 10
4.310222197476049
 20
6.087767901772584
 30
0.0
 10
4.310222197476049
 20
6.087767901772584
 30
0.0
 10
4.301690253246457
 20
6.07273317993055
 30
0.0
 10
4.297418031132135
 20
6.072041666674219
 30
0.0
  0
HATCH
  5
18D
330
1F
100
AcDbEntity
  8
IUSE
 62
    43
420
 15510365
100
AcDbHatch
 10
0.0
 20
0.0
 30
0.0
210
0.0
220
0.0
230
1.0
  2
SOLID
 70
     1
 71
     0
 91
        1
 92
        1
 93
        1
 72
     4
 94
        3
 73
     0
 74
     1
 95
       14
 96
       10
 40
0.0
 40
0.0
 40
0.0
 40
0.0
 40
1.0
 40
1.0
 40
1.0
 40
2.0
 40
2.0
 40
2.0
 40
3.0
 40
3.0
 40
3.0
 40
3.0
 10
4.297418031132135
 20
6.072041666674219
 10
4.293145691844352
 20
6.071349846632554
 10
4.294867914067885
 20
6.100660957003115
 10
4.294867914067885
 20
6.100660957003115
 10
4.294867914067885
 20
6.100660957003115
 10
4.310222197476151
 20
6.090331790596704
 10
4.310222197476049
 20
6.087767901772584
 10
4.310222197476049
 20
6.087767901772584
 10
4.301690253246457
 20
6.07273317993055
 10
4.297418031132135
 20
6.072041666674219
 97
        0
 97
        0
 75
     2
 76
     1
 98
        0
  0
SPLINE
  5
18E
330
1F
100
AcDbEntity
  8
IUSE
370
     0
100
AcDbSpline
210
0.0
220
0.0
230
1.0
 70
    11
 71
     3
 72
    14
 73
    10
 74
     0
 42
0.0000000001
 43
0.0000000001
 12
1.0
 22
0.0
 32
0.0
 13
1.0
 23
0.0
 33
0.0
 40
0.0
 40
0.0
 40
0.0
 40
0.0
 40
1.0
 40
1.0
 40
1.0
 40
2.0
 40
2.0
 40
2.0
 40
3.0
 40
3.0
 40
3.0
 40
3.0
 10
4.191298469593473
 20
5.432644307216631
 30
0.0
 10
4.191597200443109
 20
5.427327640684249
 30
0.0
 10
4.214409580704644
 20
5.434692918274954
 30
0.0
 10
4.214409580704644
 20
5.434692918274954
 30
0.0
 10
4.214409580704644
 20
5.434692918274954
 30
0.0
 10
4.200969422429782
 20
5.454209584449169
 30
0.0
 10
4.198961089147158
 20
5.453734584461269
 30
0.0
 10
4.198961089147158
 20
5.453734584461269
 30
0.0
 10
4.19102775601353
 20
5.437988751526063
 30
0.0
 10
4.191298469593473
 20
5.432644307216631
 30
0.0
  0
HATCH
  5
18F
330
1F
100
AcDbEntity
  8
IUSE
 62
    43
420
 15510365
100
AcDbHatch
 10
0.0
 20
0.0
 30
0.0
210
0.0
220
0.0
230
1.0
  2
SOLID
 70
     1
 71
     0
 91
        1
 92
        1
 93
        1
 72
     4
 94
        3
 73
     0
 74
     1
 95
       14
 96
       10
 40
0.0
 40
0.0
 40
0.0
 40
0.0
 40
1.0
 40
1.0
 40
1.0
 40
2.0
 40
2.0
 40
2.0
 40
3.0
 40
3.0
 40
3.0
 40
3.0
 10
4.191298469593473
 20
5.432644307216631
 10
4.191597200443109
 20
5.427327640684249
 10
4.214409580704644
 20
5.434692918274954
 10
4.214409580704644
 20
5.434692918274954
 10
4.214409580704644
 20
5.434692918274954
 10
4.200969422429782
 20
5.454209584449169
 10
4.198961089147158
 20
5.453734584461269
 10
4.198961089147158
 20
5.453734584461269
 10
4.19102775601353
 20
5.437988751526063
 10
4.191298469593473
 20
5.432644307216631
 97
        0
 97
        0
 75
     2
 76
     1
 98
        0
  0
SPLINE
  5
190
330
1F
100
AcDbEntity
  8
IUSE
370
     0
100
AcDbSpline
210
0.0
220
0.0
230
1.0
 70
    11
 71
     3
 72
    14
 73
    10
 74
     0
 42
0.0000000001
 43
0.0000000001
 12
1.0
 22
0.0
 32
0.0
 13
1.0
 23
0.0
 33
0.0
 40
0.0
 40
0.0
 40
0.0
 40
0.0
 40
1.0
 40
1.0
 40
1.0
 40
2.0
 40
2.0
 40
2.0
 40
3.0
 40
3.0
 40
3.0
 40
3.0
 10
4.591444412611988
 20
6.488267891642484
 30
0.0
 10
4.588651357126637
 20
6.480705391833642
 30
0.0
 10
4.577569412962399
 20
6.486435947244924
 30
0.0
 10
4.579672190687309
 20
6.491712336000445
 30
0.0
 10
4.582940246160661
 20
6.499931780237084
 30
0.0
 10
4.591947190377722
 20
6.503363724594426
 30
0.0
 10
4.591947190377722
 20
6.503363724594426
 30
0.0
 10
4.591947190377722
 20
6.503363724594426
 30
0.0
 10
4.594238856986167
 20
6.495842891450984
 30
0.0
 10
4.591444412611988
 20
6.488267891642484
 30
0.0
  0
HATCH
  5
191
330
1F
100
AcDbEntity
  8
IUSE
 62
    43
420
 15510365
100
AcDbHatch
 10
0.0
 20
0.0
 30
0.0
210
0.0
220
0.0
230
1.0
  2
SOLID
 70
     1
 71
     0
 91
        1
 92
        1
 93
        1
 72
     4
 94
        3
 73
     0
 74
     1
 95
       14
 96
       10
 40
0.0
 40
0.0
 40
0.0
 40
0.0
 40
1.0
 40
1.0
 40
1.0
 40
2.0
 40
2.0
 40
2.0
 40
3.0
 40
3.0
 40
3.0
 40
3.0
 10
4.591444412611988
 20
6.488267891642484
 10
4.588651357126637
 20
6.480705391833642
 10
4.577569412962399
 20
6.486435947244924
 10
4.579672190687309
 20
6.491712336000445
 10
4.582940246160661
 20
6.499931780237084
 10
4.591947190377722
 20
6.503363724594426
 10
4.591947190377722
 20
6.503363724594426
 10
4.591947190377722
 20
6.503363724594426
 10
4.594238856986167
 20
6.495842891450984
 10
4.591444412611988
 20
6.488267891642484
 97
        0
 97
        0
 75
     2
 76
     1
 98
        0
  0
SPLINE
  5
192
330
1F
100
AcDbEntity
  8
IUSE
370
     0
100
AcDbSpline
210
0.0
220
0.0
230
1.0
 70
    11
 71
     3
 72
    17
 73
    13
 74
     0
 42
0.0000000001
 43
0.0000000001
 12
1.0
 22
0.0
 32
0.0
 13
1.0
 23
0.0
 33
0.0
 40
0.0
 40
0.0
 40
0.0
 40
0.0
 40
1.0
 40
1.0
 40
1.0
 40
2.0
 40
2.0
 40
2.0
 40
3.0
 40
3.0
 40
3.0
 40
4.0
 40
4.0
 40
4.0
 40
4.0
 10
4.159627756847814
 20
6.351997061771018
 30
0.0
 10
4.15683331247361
 20
6.344415117518237
 30
0.0
 10
4.14997081264687
 20
6.342284562016807
 30
0.0
 10
4.14997081264687
 20
6.342284562016807
 30
0.0
 10
4.14997081264687
 20
6.342284562016807
 30
0.0
 10
4.145724979421149
 20
6.350151228484934
 30
0.0
 10
4.147855534923135
 20
6.355420672796172
 30
0.0
 10
4.151109701507949
 20
6.363647061477094
 30
0.0
 10
4.160129145724694
 20
6.367079005834436
 30
0.0
 10
4.160129145724694
 20
6.367079005834436
 30
0.0
 10
4.160129145724694
 20
6.367079005834436
 30
0.0
 10
4.162422201221994
 20
6.359558172690994
 30
0.0
 10
4.159627756847814
 20
6.351997061771018
 30
0.0
  0
HATCH
  5
193
330
1F
100
AcDbEntity
  8
IUSE
 62
    43
420
 15510365
100
AcDbHatch
 10
0.0
 20
0.0
 30
0.0
210
0.0
220
0.0
230
1.0
  2
SOLID
 70
     1
 71
     0
 91
        1
 92
        1
 93
        1
 72
     4
 94
        3
 73
     0
 74
     1
 95
       17
 96
       13
 40
0.0
 40
0.0
 40
0.0
 40
0.0
 40
1.0
 40
1.0
 40
1.0
 40
2.0
 40
2.0
 40
2.0
 40
3.0
 40
3.0
 40
3.0
 40
4.0
 40
4.0
 40
4.0
 40
4.0
 10
4.159627756847814
 20
6.351997061771018
 10
4.15683331247361
 20
6.344415117518237
 10
4.14997081264687
 20
6.342284562016807
 10
4.14997081264687
 20
6.342284562016807
 10
4.14997081264687
 20
6.342284562016807
 10
4.145724979421149
 20
6.350151228484934
 10
4.147855534923135
 20
6.355420672796172
 10
4.151109701507949
 20
6.363647061477094
 10
4.160129145724694
 20
6.367079005834436
 10
4.160129145724694
 20
6.367079005834436
 10
4.160129145724694
 20
6.367079005834436
 10
4.162422201221994
 20
6.359558172690994
 10
4.159627756847814
 20
6.351997061771018
 97
        0
 97
        0
 75
     2
 76
     1
 98
        0
  0
SPLINE
  5
194
330
1F
100
AcDbEntity
  8
IUSE
370
     0
100
AcDbSpline
210
0.0
220
0.0
230
1.0
 70
    11
 71
     3
 72
    17
 73
    13
 74
     0
 42
0.0000000001
 43
0.0000000001
 12
1.0
 22
0.0
 32
0.0
 13
1.0
 23
0.0
 33
0.0
 40
0.0
 40
0.0
 40
0.0
 40
0.0
 40
1.0
 40
1.0
 40
1.0
 40
2.0
 40
2.0
 40
2.0
 40
3.0
 40
3.0
 40
3.0
 40
4.0
 40
4.0
 40
4.0
 40
4.0
 10
4.249933310096645
 20
5.786309576057432
 30
0.0
 10
4.262194420898115
 20
5.788295687117814
 30
0.0
 10
4.272136087313052
 20
5.77553318743978
 30
0.0
 10
4.272136087312346
 20
5.759501243400349
 30
0.0
 10
4.272136087311613
 20
5.743469299360893
 30
0.0
 10
4.265977754133195
 20
5.728630410847144
 30
0.0
 10
4.249933310093992
 20
5.726880410892073
 30
0.0
 10
4.234402754930695
 20
5.725192910935397
 30
0.0
 10
4.227742914051532
 20
5.736287355099876
 30
0.0
 10
4.227742914052265
 20
5.752319444455136
 30
0.0
 10
4.227742914052972
 20
5.768351243178775
 30
0.0
 10
4.237658310406661
 20
5.784329020552478
 30
0.0
 10
4.249933310096645
 20
5.786309576057432
 30
0.0
  0
HATCH
  5
195
330
1F
100
AcDbEntity
  8
IUSE
 62
    43
420
 15510365
100
AcDbHatch
 10
0.0
 20
0.0
 30
0.0
210
0.0
220
0.0
230
1.0
  2
SOLID
 70
     1
 71
     0
 91
        1
 92
        1
 93
        1
 72
     4
 94
        3
 73
     0
 74
     1
 95
       17
 96
       13
 40
0.0
 40
0.0
 40
0.0
 40
0.0
 40
1.0
 40
1.0
 40
1.0
 40
2.0
 40
2.0
 40
2.0
 40
3.0
 40
3.0
 40
3.0
 40
4.0
 40
4.0
 40
4.0
 40
4.0
 10
4.249933310096645
 20
5.786309576057432
 10
4.262194420898115
 20
5.788295687117814
 10
4.272136087313052
 20
5.77553318743978
 10
4.272136087312346
 20
5.759501243400349
 10
4.272136087311613
 20
5.743469299360893
 10
4.265977754133195
 20
5.728630410847144
 10
4.249933310093992
 20
5.726880410892073
 10
4.234402754930695
 20
5.725192910935397
 10
4.227742914051532
 20
5.736287355099876
 10
4.227742914052265
 20
5.752319444455136
 10
4.227742914052972
 20
5.768351243178775
 10
4.237658310406661
 20
5.784329020552478
 10
4.249933310096645
 20
5.786309576057432
 97
        0
 97
        0
 75
     2
 76
     1
 98
        0
  0
POLYLINE
  5
196
330
1F
100
AcDbEntity
  8
IUSE
 62
   250
420
  2301728
370
     9
100
AcDb2dPolyline
 66
     1
 10
0.0
 20
0.0
 30
0.0
  0
VERTEX
  5
197
330
196
100
AcDbEntity
  8
IUSE
 62
   250
420
  2301728
370
     9
100
AcDbVertex
100
AcDb2dVertex
 10
4.299629142199365
 20
6.339035950981042
 30
0.0
  0
VERTEX
  5
198
330
196
100
AcDbEntity
  8
IUSE
 62
   250
420
  2301728
370
     9
100
AcDbVertex
100
AcDb2dVertex
 10
4.259386087661142
 20
6.354587339478876
 30
0.0
  0
SEQEND
  5
199
330
196
100
AcDbEntity
  8
IUSE
 62
   250
420
  2301728
370
     9
  0
SPLINE
  5
19A
330
1F
100
AcDbEntity
  8
IUSE
 62
   250
420
  2301728
370
     9
100
AcDbSpline
210
0.0
220
0.0
230
1.0
 70
     8
 71
     3
 72
    17
 73
    13
 74
     0
 42
0.0000000001
 43
0.0000000001
 12
1.0
 22
0.0
 32
0.0
 13
1.0
 23
0.0
 33
0.0
 40
0.0
 40
0.0
 40
0.0
 40
0.0
 40
1.0
 40
1.0
 40
1.0
 40
2.0
 40
2.0
 40
2.0
 40
3.0
 40
3.0
 40
3.0
 40
4.0
 40
4.0
 40
4.0
 40
4.0
 10
4.296305531161553
 20
6.101155401435019
 30
0.0
 10
4.289904142434554
 20
6.10525817910943
 30
0.0
 10
4.285604025179079
 20
6.102538734733874
 30
0.0
 10
4.285604025178801
 20
6.09611651267389
 30
0.0
 10
4.285604025178499
 20
6.089687346169638
 30
0.0
 10
4.285279142550154
 20
6.077459568700773
 30
0.0
 10
4.285279142549976
 20
6.073629013241985
 30
0.0
 10
4.285279142549598
 20
6.065565124556807
 30
0.0
 10
4.29021664242479
 20
6.063408180166637
 30
0.0
 10
4.293729025177501
 20
6.066894291189517
 30
0.0
 10
4.295369420072626
 20
6.068515124481842
 30
0.0
 10
4.2968208089249
 20
6.069945680001195
 30
0.0
 10
4.298095808892766
 20
6.071267902189953
 30
0.0
  0
SPLINE
  5
19B
330
1F
100
AcDbEntity
  8
IUSE
 62
   250
420
  2301728
370
    18
100
AcDbSpline
210
0.0
220
0.0
230
1.0
 70
    11
 71
     3
 72
    26
 73
    22
 74
     0
 42
0.0000000001
 43
0.0000000001
 12
1.0
 22
0.0
 32
0.0
 13
1.0
 23
0.0
 33
0.0
 40
0.0
 40
0.0
 40
0.0
 40
0.0
 40
1.0
 40
1.0
 40
1.0
 40
2.0
 40
2.0
 40
2.0
 40
3.0
 40
3.0
 40
3.0
 40
4.0
 40
4.0
 40
4.0
 40
5.0
 40
5.0
 40
5.0
 40
6.0
 40
6.0
 40
6.0
 40
7.0
 40
7.0
 40
7.0
 40
7.0
 10
4.308159580734102
 20
6.09043317948312
 30
0.0
 10
4.31069719746405
 20
6.08797222222918
 30
0.0
 10
4.310099975256763
 20
6.084690124072558
 30
0.0
 10
4.306248586464991
 20
6.080545679732987
 30
0.0
 10
4.303358308760102
 20
6.077426235367473
 30
0.0
 10
4.300808308824369
 20
6.074565124328753
 30
0.0
 10
4.296848586702001
 20
6.070529013319793
 30
0.0
 10
4.295302753407794
 20
6.071919291062512
 30
0.0
 10
4.294258308989836
 20
6.074327624335043
 30
0.0
 10
4.294258308989988
 20
6.077901235355878
 30
0.0
 10
4.294258308990164
 20
6.081745679703204
 30
0.0
 10
4.294569420093972
 20
6.093987346060607
 30
0.0
 10
4.29456942009425
 20
6.100395679232052
 30
0.0
 10
4.294569420094275
 20
6.100863734775784
 30
0.0
 10
4.294611086759915
 20
6.101230401433187
 30
0.0
 10
4.294651364536699
 20
6.101670679199843
 30
0.0
 10
4.294799975644032
 20
6.101583333341005
 30
0.0
 10
4.294895691845694
 20
6.101562345869234
 30
0.0
 10
4.295018031194078
 20
6.101487345871129
 30
0.0
 10
4.297824975567538
 20
6.099670679250241
 30
0.0
 10
4.305597197593114
 20
6.092929012753516
 30
0.0
 10
4.308159580734102
 20
6.09043317948312
 30
0.0
  0
SPLINE
  5
19C
330
1F
100
AcDbEntity
  8
IUSE
 62
   250
420
  2301728
370
     9
100
AcDbSpline
210
0.0
220
0.0
230
1.0
 70
     8
 71
     3
 72
    17
 73
    13
 74
     0
 42
0.0000000001
 43
0.0000000001
 12
1.0
 22
0.0
 32
0.0
 13
1.0
 23
0.0
 33
0.0
 40
0.0
 40
0.0
 40
0.0
 40
0.0
 40
1.0
 40
1.0
 40
1.0
 40
2.0
 40
2.0
 40
2.0
 40
3.0
 40
3.0
 40
3.0
 40
4.0
 40
4.0
 40
4.0
 40
4.0
 10
4.190647200467335
 20
5.431992918344222
 30
0.0
 10
4.186984700559454
 20
5.423055555568049
 30
0.0
 10
4.189670811602456
 20
5.417887363145054
 30
0.0
 10
4.194756802926197
 20
5.419026252004945
 30
0.0
 10
4.199829144679294
 20
5.420152777789705
 30
0.0
 10
4.207370811155467
 20
5.421183196394319
 30
0.0
 10
4.210422199967322
 20
5.421847222233686
 30
0.0
 10
4.216797199806327
 20
5.423312363006769
 30
0.0
 10
4.219224977523102
 20
5.430745696152219
 30
0.0
 10
4.216688866476235
 20
5.434651251609239
 30
0.0
 10
4.215522199839117
 20
5.436441529341841
 30
0.0
 10
4.214234699871718
 20
5.437879029305577
 30
0.0
 10
4.213134699899557
 20
5.439005418166062
 30
0.0
  0
SPLINE
  5
19D
330
1F
100
AcDbEntity
  8
IUSE
 62
   250
420
  2301728
370
    18
100
AcDbSpline
210
0.0
220
0.0
230
1.0
 70
    11
 71
     3
 72
    26
 73
    22
 74
     0
 42
0.0000000001
 43
0.0000000001
 12
1.0
 22
0.0
 32
0.0
 13
1.0
 23
0.0
 33
0.0
 40
0.0
 40
0.0
 40
0.0
 40
0.0
 40
1.0
 40
1.0
 40
1.0
 40
2.0
 40
2.0
 40
2.0
 40
3.0
 40
3.0
 40
3.0
 40
4.0
 40
4.0
 40
4.0
 40
5.0
 40
5.0
 40
5.0
 40
6.0
 40
6.0
 40
6.0
 40
7.0
 40
7.0
 40
7.0
 40
7.0
 10
4.196302755880853
 20
5.450710973426667
 30
0.0
 10
4.198405533605662
 20
5.454427639999342
 30
0.0
 10
4.202256802927624
 20
5.451320695633209
 30
0.0
 10
4.205295811209061
 20
5.44713041796116
 30
0.0
 10
4.207547200040937
 20
5.443983195818342
 30
0.0
 10
4.210694422183552
 20
5.4415416666781
 30
0.0
 10
4.213623588776019
 20
5.437174862656724
 30
0.0
 10
4.212430533250502
 20
5.434990140489743
 30
0.0
 10
4.210436088856365
 20
5.433213751645831
 30
0.0
 10
4.207629144482805
 20
5.4325901405506
 30
0.0
 10
4.204576247371202
 20
5.431884585012995
 30
0.0
 10
4.196398589210895
 20
5.430976251702987
 30
0.0
 10
4.191312358482214
 20
5.429835973954241
 30
0.0
 10
4.190945811570802
 20
5.429741529512183
 30
0.0
 10
4.190633311578696
 20
5.429781807288969
 30
0.0
 10
4.190322200475444
 20
5.429741529512208
 30
0.0
 10
4.190376367140756
 20
5.42993180728518
 30
0.0
 10
4.190402756028978
 20
5.430026251727238
 30
0.0
 10
4.190484700471353
 20
5.430230418388747
 30
0.0
 10
4.192098589319635
 20
5.43416375162264
 30
0.0
 10
4.194147200379575
 20
5.447008195742531
 30
0.0
 10
4.196302755880853
 20
5.450710973426667
 30
0.0
  0
SPLINE
  5
19E
330
1F
100
AcDbEntity
  8
IUSE
 62
   250
420
  2301728
370
     9
100
AcDbSpline
210
0.0
220
0.0
230
1.0
 70
     8
 71
     3
 72
    17
 73
    13
 74
     0
 42
0.0000000001
 43
0.0000000001
 12
1.0
 22
0.0
 32
0.0
 13
1.0
 23
0.0
 33
0.0
 40
0.0
 40
0.0
 40
0.0
 40
0.0
 40
1.0
 40
1.0
 40
1.0
 40
2.0
 40
2.0
 40
2.0
 40
3.0
 40
3.0
 40
3.0
 40
4.0
 40
4.0
 40
4.0
 40
4.0
 10
4.284370809214225
 20
5.508883194175395
 30
0.0
 10
4.2782263649248
 20
5.504422083177233
 30
0.0
 10
4.279162476012035
 20
5.499416666675036
 30
0.0
 10
4.285129142527871
 20
5.497083333341442
 30
0.0
 10
4.291138864598174
 20
5.494709583422011
 30
0.0
 10
4.302341642092718
 20
5.48990819465391
 30
0.0
 10
4.305949975334847
 20
5.488498472467149
 30
0.0
 10
4.313423469595843
 20
5.48555555556239
 30
0.0
 10
4.317736086148241
 20
5.489162361338736
 30
0.0
 10
4.315809697308219
 20
5.493720694557005
 30
0.0
 10
4.314915252886471
 20
5.495822083392846
 30
0.0
 10
4.313598586253167
 20
5.497870694452268
 30
0.0
 10
4.312840136263124
 20
5.49957902774247
 30
0.0
  0
SPLINE
  5
19F
330
1F
100
AcDbEntity
  8
IUSE
 62
   250
420
  2301728
370
    18
100
AcDbSpline
210
0.0
220
0.0
230
1.0
 70
    11
 71
     3
 72
    26
 73
    22
 74
     0
 42
0.0000000001
 43
0.0000000001
 12
1.0
 22
0.0
 32
0.0
 13
1.0
 23
0.0
 33
0.0
 40
0.0
 40
0.0
 40
0.0
 40
0.0
 40
1.0
 40
1.0
 40
1.0
 40
2.0
 40
2.0
 40
2.0
 40
3.0
 40
3.0
 40
3.0
 40
4.0
 40
4.0
 40
4.0
 40
5.0
 40
5.0
 40
5.0
 40
6.0
 40
6.0
 40
6.0
 40
7.0
 40
7.0
 40
7.0
 40
7.0
 10
4.295533308932843
 20
5.522529027163487
 30
0.0
 10
4.29873330885208
 20
5.524006804903782
 30
0.0
 10
4.301595808779691
 20
5.522230416059642
 30
0.0
 10
4.304063864272671
 20
5.51709013841163
 30
0.0
 10
4.305867914041528
 20
5.513279027396695
 30
0.0
 10
4.310763864102784
 20
5.503281805426809
 30
0.0
 10
4.313070808488722
 20
5.498115138890549
 30
0.0
 10
4.311224975201968
 20
5.497219305579935
 30
0.0
 10
4.308580530824328
 20
5.497111111118165
 30
0.0
 10
4.305258308686108
 20
5.498426249994155
 30
0.0
 10
4.301649975443979
 20
5.499823472181244
 30
0.0
 10
4.290433309060896
 20
5.504598472061123
 30
0.0
 10
4.284465136263457
 20
5.506944444452579
 30
0.0
 10
4.284004142556745
 20
5.507134583108457
 30
0.0
 10
4.28369164256464
 20
5.507337360881125
 30
0.0
 10
4.283298469596831
 20
5.507500000008185
 30
0.0
 10
4.283406920349636
 20
5.507622083096167
 30
0.0
 10
4.283447198126396
 20
5.507676249761466
 30
0.0
 10
4.283583309234069
 20
5.507812360869125
 30
0.0
 10
4.286323586942722
 20
5.509724860820698
 30
0.0
 10
4.292304142347701
 20
5.521063749422865
 30
0.0
 10
4.295533308932843
 20
5.522529027163487
 30
0.0
  0
SPLINE
  5
1A0
330
1F
100
AcDbEntity
  8
IUSE
370
     0
100
AcDbSpline
210
0.0
220
0.0
230
1.0
 70
    11
 71
     3
 72
    14
 73
    10
 74
     0
 42
0.0000000001
 43
0.0000000001
 12
1.0
 22
0.0
 32
0.0
 13
1.0
 23
0.0
 33
0.0
 40
0.0
 40
0.0
 40
0.0
 40
0.0
 40
1.0
 40
1.0
 40
1.0
 40
2.0
 40
2.0
 40
2.0
 40
3.0
 40
3.0
 40
3.0
 40
3.0
 10
4.312134697412122
 20
5.739827632784428
 30
0.0
 10
4.311198586324458
 20
5.735609577335468
 30
0.0
 10
4.284587475886156
 20
5.747951243691571
 30
0.0
 10
4.284587475886156
 20
5.747951243691571
 30
0.0
 10
4.284587475886156
 20
5.747951243691571
 30
0.0
 10
4.296644420026774
 20
5.765041666674253
 30
0.0
 10
4.299018031077897
 20
5.764091521060942
 30
0.0
 10
4.299018031077897
 20
5.764091521060942
 30
0.0
 10
4.313070808499762
 20
5.744045688233377
 30
0.0
 10
4.312134697412122
 20
5.739827632784428
 30
0.0
  0
HATCH
  5
1A1
330
1F
100
AcDbEntity
  8
IUSE
 62
    43
420
 15510365
100
AcDbHatch
 10
0.0
 20
0.0
 30
0.0
210
0.0
220
0.0
230
1.0
  2
SOLID
 70
     1
 71
     0
 91
        1
 92
        1
 93
        1
 72
     4
 94
        3
 73
     0
 74
     1
 95
       14
 96
       10
 40
0.0
 40
0.0
 40
0.0
 40
0.0
 40
1.0
 40
1.0
 40
1.0
 40
2.0
 40
2.0
 40
2.0
 40
3.0
 40
3.0
 40
3.0
 40
3.0
 10
4.312134697412122
 20
5.739827632784428
 10
4.311198586324458
 20
5.735609577335468
 10
4.284587475886156
 20
5.747951243691571
 10
4.284587475886156
 20
5.747951243691571
 10
4.284587475886156
 20
5.747951243691571
 10
4.296644420026774
 20
5.765041666674253
 10
4.299018031077897
 20
5.764091521060942
 10
4.299018031077897
 20
5.764091521060942
 10
4.313070808499762
 20
5.744045688233377
 10
4.312134697412122
 20
5.739827632784428
 97
        0
 97
        0
 75
     2
 76
     1
 98
        0
  0
SPLINE
  5
1A2
330
1F
100
AcDbEntity
  8
IUSE
 62
   250
420
  2301728
370
     9
100
AcDbSpline
210
0.0
220
0.0
230
1.0
 70
     8
 71
     3
 72
    17
 73
    13
 74
     0
 42
0.0000000001
 43
0.0000000001
 12
1.0
 22
0.0
 32
0.0
 13
1.0
 23
0.0
 33
0.0
 40
0.0
 40
0.0
 40
0.0
 40
0.0
 40
1.0
 40
1.0
 40
1.0
 40
2.0
 40
2.0
 40
2.0
 40
3.0
 40
3.0
 40
3.0
 40
4.0
 40
4.0
 40
4.0
 40
4.0
 10
4.284370809225038
 20
5.749620688093842
 30
0.0
 10
4.278226364935613
 20
5.745158188206839
 30
0.0
 10
4.279162476022849
 20
5.740152777786155
 30
0.0
 10
4.285129142538683
 20
5.737819444452561
 30
0.0
 10
4.291138864608986
 20
5.735445688451628
 30
0.0
 10
4.302341642103531
 20
5.730644299683528
 30
0.0
 10
4.305949975345659
 20
5.729234577496754
 30
0.0
 10
4.313423469606656
 20
5.726291666673496
 30
0.0
 10
4.317736086159053
 20
5.729898466368341
 30
0.0
 10
4.315809697319032
 20
5.73445679958661
 30
0.0
 10
4.314915252897284
 20
5.736558188422464
 30
0.0
 10
4.313598586263955
 20
5.738606799481873
 30
0.0
 10
4.312840136273912
 20
5.740315132772063
 30
0.0
  0
SPLINE
  5
1A3
330
1F
100
AcDbEntity
  8
IUSE
 62
   250
420
  2301728
370
    18
100
AcDbSpline
210
0.0
220
0.0
230
1.0
 70
    11
 71
     3
 72
    26
 73
    22
 74
     0
 42
0.0000000001
 43
0.0000000001
 12
1.0
 22
0.0
 32
0.0
 13
1.0
 23
0.0
 33
0.0
 40
0.0
 40
0.0
 40
0.0
 40
0.0
 40
1.0
 40
1.0
 40
1.0
 40
2.0
 40
2.0
 40
2.0
 40
3.0
 40
3.0
 40
3.0
 40
4.0
 40
4.0
 40
4.0
 40
5.0
 40
5.0
 40
5.0
 40
6.0
 40
6.0
 40
6.0
 40
7.0
 40
7.0
 40
7.0
 40
7.0
 10
4.295533308943655
 20
5.763265132193093
 30
0.0
 10
4.298733308862893
 20
5.764742909933387
 30
0.0
 10
4.301595808790504
 20
5.762966521089248
 30
0.0
 10
4.304063864283484
 20
5.757826243441223
 30
0.0
 10
4.305867914052341
 20
5.7540151324263
 30
0.0
 10
4.310763864113596
 20
5.744017910456415
 30
0.0
 10
4.313070808499535
 20
5.738851243920155
 30
0.0
 10
4.311224975212781
 20
5.737955410609541
 30
0.0
 10
4.30858053083514
 20
5.737847222229283
 30
0.0
 10
4.305258308696895
 20
5.73916235502376
 30
0.0
 10
4.301649975454792
 20
5.74055957721085
 30
0.0
 10
4.290433309071684
 20
5.745334577090741
 30
0.0
 10
4.28446513627427
 20
5.747680555563685
 30
0.0
 10
4.284004142567558
 20
5.747870688138063
 30
0.0
 10
4.283691642575453
 20
5.74807346591073
 30
0.0
 10
4.283298469607644
 20
5.748236111119291
 30
0.0
 10
4.283406920360449
 20
5.748358188125772
 30
0.0
 10
4.283447198137209
 20
5.748412354791071
 30
0.0
 10
4.283583309244881
 20
5.748548465898731
 30
0.0
 10
4.286323586953535
 20
5.750460965850303
 30
0.0
 10
4.292304142358514
 20
5.76179985445247
 30
0.0
 10
4.295533308943655
 20
5.763265132193093
 30
0.0
  0
SPLINE
  5
1A4
330
1F
100
AcDbEntity
  8
IUSE
370
     0
100
AcDbSpline
210
0.0
220
0.0
230
1.0
 70
    11
 71
     3
 72
    14
 73
    10
 74
     0
 42
0.0000000001
 43
0.0000000001
 12
1.0
 22
0.0
 32
0.0
 13
1.0
 23
0.0
 33
0.0
 40
0.0
 40
0.0
 40
0.0
 40
0.0
 40
1.0
 40
1.0
 40
1.0
 40
2.0
 40
2.0
 40
2.0
 40
3.0
 40
3.0
 40
3.0
 40
3.0
 10
4.312134697406893
 20
5.623345691282566
 30
0.0
 10
4.311198586319228
 20
5.619126246944751
 30
0.0
 10
4.284587475880926
 20
5.631469302189695
 30
0.0
 10
4.284587475880926
 20
5.631469302189695
 30
0.0
 10
4.284587475880926
 20
5.631469302189695
 30
0.0
 10
4.296644420021544
 20
5.648559579535193
 30
0.0
 10
4.299018031072667
 20
5.647609579559078
 30
0.0
 10
4.299018031072667
 20
5.647609579559078
 30
0.0
 10
4.313070808494532
 20
5.627563746731513
 30
0.0
 10
4.312134697406893
 20
5.623345691282566
 30
0.0
  0
HATCH
  5
1A5
330
1F
100
AcDbEntity
  8
IUSE
 62
    43
420
 15510365
100
AcDbHatch
 10
0.0
 20
0.0
 30
0.0
210
0.0
220
0.0
230
1.0
  2
SOLID
 70
     1
 71
     0
 91
        1
 92
        1
 93
        1
 72
     4
 94
        3
 73
     0
 74
     1
 95
       14
 96
       10
 40
0.0
 40
0.0
 40
0.0
 40
0.0
 40
1.0
 40
1.0
 40
1.0
 40
2.0
 40
2.0
 40
2.0
 40
3.0
 40
3.0
 40
3.0
 40
3.0
 10
4.312134697406893
 20
5.623345691282566
 10
4.311198586319228
 20
5.619126246944751
 10
4.284587475880926
 20
5.631469302189695
 10
4.284587475880926
 20
5.631469302189695
 10
4.284587475880926
 20
5.631469302189695
 10
4.296644420021544
 20
5.648559579535193
 10
4.299018031072667
 20
5.647609579559078
 10
4.299018031072667
 20
5.647609579559078
 10
4.313070808494532
 20
5.627563746731513
 10
4.312134697406893
 20
5.623345691282566
 97
        0
 97
        0
 75
     2
 76
     1
 98
        0
  0
SPLINE
  5
1A6
330
1F
100
AcDbEntity
  8
IUSE
 62
   250
420
  2301728
370
     9
100
AcDbSpline
210
0.0
220
0.0
230
1.0
 70
     8
 71
     3
 72
    17
 73
    13
 74
     0
 42
0.0000000001
 43
0.0000000001
 12
1.0
 22
0.0
 32
0.0
 13
1.0
 23
0.0
 33
0.0
 40
0.0
 40
0.0
 40
0.0
 40
0.0
 40
1.0
 40
1.0
 40
1.0
 40
2.0
 40
2.0
 40
2.0
 40
3.0
 40
3.0
 40
3.0
 40
4.0
 40
4.0
 40
4.0
 40
4.0
 10
4.284370809219809
 20
5.633137357703125
 30
0.0
 10
4.278226364930384
 20
5.628674857816122
 30
0.0
 10
4.279162476017619
 20
5.623670691275834
 30
0.0
 10
4.285129142533454
 20
5.621337358001179
 30
0.0
 10
4.291138864603757
 20
5.618963746949754
 30
0.0
 10
4.302341642098301
 20
5.614162358181678
 30
0.0
 10
4.30594997534043
 20
5.612752635994891
 30
0.0
 10
4.313423469601426
 20
5.609809580513343
 30
0.0
 10
4.317736086153824
 20
5.613416666673339
 30
0.0
 10
4.315809697313802
 20
5.617973469195893
 30
0.0
 10
4.314915252892054
 20
5.620076246920588
 30
0.0
 10
4.313598586258725
 20
5.622125000006829
 30
0.0
 10
4.312840136268682
 20
5.623833333340195
 30
0.0
  0
SPLINE
  5
1A7
330
1F
100
AcDbEntity
  8
IUSE
 62
   250
420
  2301728
370
    18
100
AcDbSpline
210
0.0
220
0.0
230
1.0
 70
    11
 71
     3
 72
    26
 73
    22
 74
     0
 42
0.0000000001
 43
0.0000000001
 12
1.0
 22
0.0
 32
0.0
 13
1.0
 23
0.0
 33
0.0
 40
0.0
 40
0.0
 40
0.0
 40
0.0
 40
1.0
 40
1.0
 40
1.0
 40
2.0
 40
2.0
 40
2.0
 40
3.0
 40
3.0
 40
3.0
 40
4.0
 40
4.0
 40
4.0
 40
5.0
 40
5.0
 40
5.0
 40
6.0
 40
6.0
 40
6.0
 40
7.0
 40
7.0
 40
7.0
 40
7.0
 10
4.295533308938426
 20
5.646783190691255
 30
0.0
 10
4.298733308857663
 20
5.648260968431524
 30
0.0
 10
4.301595808785274
 20
5.646484579587384
 30
0.0
 10
4.304063864278254
 20
5.64134430193936
 30
0.0
 10
4.305867914047111
 20
5.637531802035583
 30
0.0
 10
4.310763864108367
 20
5.627535968954551
 30
0.0
 10
4.313070808494305
 20
5.622367913529438
 30
0.0
 10
4.311224975207551
 20
5.62147346910769
 30
0.0
 10
4.308580530829911
 20
5.621365135777195
 30
0.0
 10
4.305258308691665
 20
5.62268055556275
 30
0.0
 10
4.301649975449562
 20
5.624077635708987
 30
0.0
 10
4.290433309066454
 20
5.628851246700012
 30
0.0
 10
4.28446513626904
 20
5.631198468863204
 30
0.0
 10
4.284004142562329
 20
5.631388888897074
 30
0.0
 10
4.283691642570223
 20
5.63159152440888
 30
0.0
 10
4.283298469602414
 20
5.631754024404787
 30
0.0
 10
4.283406920355219
 20
5.631876246623922
 30
0.0
 10
4.283447198131979
 20
5.631930555563738
 30
0.0
 10
4.283583309239652
 20
5.632066524396881
 30
0.0
 10
4.286323586948305
 20
5.633979024348453
 30
0.0
 10
4.292304142353284
 20
5.645317912950619
 30
0.0
 10
4.295533308938426
 20
5.646783190691255
 30
0.0
  0
SPLINE
  5
1A8
330
1F
100
AcDbEntity
  8
IUSE
 62
   250
420
  2301728
370
    13
100
AcDbSpline
210
0.0
220
0.0
230
1.0
 70
     8
 71
     3
 72
    11
 73
     7
 74
     0
 42
0.0000000001
 43
0.0000000001
 12
1.0
 22
0.0
 32
0.0
 13
1.0
 23
0.0
 33
0.0
 40
0.0
 40
0.0
 40
0.0
 40
0.0
 40
1.0
 40
1.0
 40
1.0
 40
2.0
 40
2.0
 40
2.0
 40
2.0
 10
4.43865413862328
 20
4.913140153662627
 30
0.0
 10
4.43865413862328
 20
4.913140153662627
 30
0.0
 10
4.428223583331045
 20
4.908772098217898
 30
0.0
 10
4.428223583331045
 20
4.908772098217898
 30
0.0
 10
4.428223583331045
 20
4.908772098217898
 30
0.0
 10
4.41223191706821
 20
4.90549015385707
 30
0.0
 10
4.421156916842139
 20
4.891817931979833
 30
0.0
  0
POLYLINE
  5
1A9
330
1F
100
AcDbEntity
  8
IUSE
 62
   250
420
  2301728
370
    18
100
AcDb2dPolyline
 66
     1
 10
0.0
 20
0.0
 30
0.0
  0
VERTEX
  5
1AA
330
1A9
100
AcDbEntity
  8
IUSE
 62
   250
420
  2301728
370
    18
100
AcDbVertex
100
AcDb2dVertex
 10
4.076986092272414
 20
6.431470670878171
 30
0.0
  0
VERTEX
  5
1AB
330
1A9
100
AcDbEntity
  8
IUSE
 62
   250
420
  2301728
370
    18
100
AcDbVertex
100
AcDb2dVertex
 10
4.077406925554316
 20
5.522724860501663
 30
0.0
  0
VERTEX
  5
1AC
330
1A9
100
AcDbEntity
  8
IUSE
 62
   250
420
  2301728
370
    18
100
AcDbVertex
100
AcDb2dVertex
 10
4.247938865678407
 20
5.247626256332473
 30
0.0
  0
VERTEX
  5
1AD
330
1A9
100
AcDbEntity
  8
IUSE
 62
   250
420
  2301728
370
    18
100
AcDbVertex
100
AcDb2dVertex
 10
4.247938865676866
 20
5.213487368306005
 30
0.0
  0
SEQEND
  5
1AE
330
1A9
100
AcDbEntity
  8
IUSE
 62
   250
420
  2301728
370
    18
  0
POLYLINE
  5
1AF
330
1F
100
AcDbEntity
  8
IUSE
 62
   250
420
  2301728
370
    18
100
AcDb2dPolyline
 66
     1
 10
0.0
 20
0.0
 30
0.0
  0
VERTEX
  5
1B0
330
1AF
100
AcDbEntity
  8
IUSE
 62
   250
420
  2301728
370
    18
100
AcDbVertex
100
AcDb2dVertex
 10
4.25344581003896
 20
6.477592891927316
 30
0.0
  0
VERTEX
  5
1B1
330
1AF
100
AcDbEntity
  8
IUSE
 62
   250
420
  2301728
370
    18
100
AcDbVertex
100
AcDb2dVertex
 10
4.145426368321877
 20
6.44544150385549
 30
0.0
  0
SEQEND
  5
1B2
330
1AF
100
AcDbEntity
  8
IUSE
 62
   250
420
  2301728
370
    18
  0
SPLINE
  5
1B3
330
1F
100
AcDbEntity
  8
IUSE
 62
   250
420
  2301728
370
    18
100
AcDbSpline
210
0.0
220
0.0
230
1.0
 70
     8
 71
     3
 72
     8
 73
     4
 74
     0
 42
0.0000000001
 43
0.0000000001
 12
1.0
 22
0.0
 32
0.0
 13
1.0
 23
0.0
 33
0.0
 40
0.0
 40
0.0
 40
0.0
 40
0.0
 40
1.0
 40
1.0
 40
1.0
 40
1.0
 10
4.426772194478846
 20
4.909329042648324
 30
0.0
 10
4.442749971853269
 20
4.915459598048301
 30
0.0
 10
4.449341638352987
 20
4.905856820512806
 30
0.0
 10
4.449341638352987
 20
4.905856820512806
 30
0.0
  0
POLYLINE
  5
1B4
330
1F
100
AcDbEntity
  8
IUSE
 62
   250
420
  2301728
370
     9
100
AcDb2dPolyline
 66
     1
 10
0.0
 20
0.0
 30
0.0
  0
VERTEX
  5
1B5
330
1B4
100
AcDbEntity
  8
IUSE
 62
   250
420
  2301728
370
     9
100
AcDbVertex
100
AcDb2dVertex
 10
4.249756802972595
 20
6.453260948097724
 30
0.0
  0
VERTEX
  5
1B6
330
1B4
100
AcDbEntity
  8
IUSE
 62
   250
420
  2301728
370
     9
100
AcDbVertex
100
AcDb2dVertex
 10
4.24975680297166
 20
6.432263888898584
 30
0.0
  0
SEQEND
  5
1B7
330
1B4
100
AcDbEntity
  8
IUSE
 62
   250
420
  2301728
370
     9
  0
POLYLINE
  5
1B8
330
1F
100
AcDbEntity
  8
IUSE
 62
   250
420
  2301728
370
     9
100
AcDb2dPolyline
 66
     1
 10
0.0
 20
0.0
 30
0.0
  0
VERTEX
  5
1B9
330
1B8
100
AcDbEntity
  8
IUSE
 62
   250
420
  2301728
370
     9
100
AcDbVertex
100
AcDb2dVertex
 10
4.249756802939398
 20
5.713527777787476
 30
0.0
  0
VERTEX
  5
1BA
330
1B8
100
AcDbEntity
  8
IUSE
 62
   250
420
  2301728
370
     9
100
AcDbVertex
100
AcDb2dVertex
 10
4.249756802938641
 20
5.696810967207258
 30
0.0
  0
SEQEND
  5
1BB
330
1B8
100
AcDbEntity
  8
IUSE
 62
   250
420
  2301728
370
     9
  0
POLYLINE
  5
1BC
330
1F
100
AcDbEntity
  8
IUSE
 62
   250
420
  2301728
370
     9
100
AcDb2dPolyline
 66
     1
 10
0.0
 20
0.0
 30
0.0
  0
VERTEX
  5
1BD
330
1BC
100
AcDbEntity
  8
IUSE
 62
   250
420
  2301728
370
     9
100
AcDbVertex
100
AcDb2dVertex
 10
4.249756802938287
 20
5.688842911852993
 30
0.0
  0
VERTEX
  5
1BE
330
1BC
100
AcDbEntity
  8
IUSE
 62
   250
420
  2301728
370
     9
100
AcDbVertex
100
AcDb2dVertex
 10
4.24975680292093
 20
5.302083333343035
 30
0.0
  0
SEQEND
  5
1BF
330
1BC
100
AcDbEntity
  8
IUSE
 62
   250
420
  2301728
370
     9
  0
POLYLINE
  5
1C0
330
1F
100
AcDbEntity
  8
IUSE
 62
   250
420
  2301728
370
     9
100
AcDb2dPolyline
 66
     1
 10
0.0
 20
0.0
 30
0.0
  0
VERTEX
  5
1C1
330
1C0
100
AcDbEntity
  8
IUSE
 62
   250
420
  2301728
370
     9
100
AcDbVertex
100
AcDb2dVertex
 10
4.24975680297118
 20
6.421385948902954
 30
0.0
  0
VERTEX
  5
1C2
330
1C0
100
AcDbEntity
  8
IUSE
 62
   250
420
  2301728
370
     9
100
AcDbVertex
100
AcDb2dVertex
 10
4.249756802943365
 20
5.801880408997426
 30
0.0
  0
SEQEND
  5
1C3
330
1C0
100
AcDbEntity
  8
IUSE
 62
   250
420
  2301728
370
     9
  0
POLYLINE
  5
1C4
330
1F
100
AcDbEntity
  8
IUSE
 62
   250
420
  2301728
370
     9
100
AcDb2dPolyline
 66
     1
 10
0.0
 20
0.0
 30
0.0
  0
VERTEX
  5
1C5
330
1C4
100
AcDbEntity
  8
IUSE
 62
   250
420
  2301728
370
     9
100
AcDbVertex
100
AcDb2dVertex
 10
4.249756802920349
 20
5.289102644173505
 30
0.0
  0
VERTEX
  5
1C6
330
1C4
100
AcDbEntity
  8
IUSE
 62
   250
420
  2301728
370
     9
100
AcDbVertex
100
AcDb2dVertex
 10
4.249756802919515
 20
5.270656811306152
 30
0.0
  0
SEQEND
  5
1C7
330
1C4
100
AcDbEntity
  8
IUSE
 62
   250
420
  2301728
370
     9
  0
SPLINE
  5
1C8
330
1F
100
AcDbEntity
  8
IUSE
 62
   250
420
  2301728
370
    18
100
AcDbSpline
210
0.0
220
0.0
230
1.0
 70
     8
 71
     3
 72
    29
 73
    25
 74
     0
 42
0.0000000001
 43
0.0000000001
 12
1.0
 22
0.0
 32
0.0
 13
1.0
 23
0.0
 33
0.0
 40
0.0
 40
0.0
 40
0.0
 40
0.0
 40
1.0
 40
1.0
 40
1.0
 40
2.0
 40
2.0
 40
2.0
 40
3.0
 40
3.0
 40
3.0
 40
4.0
 40
4.0
 40
4.0
 40
5.0
 40
5.0
 40
5.0
 40
6.0
 40
6.0
 40
6.0
 40
7.0
 40
7.0
 40
7.0
 40
8.0
 40
8.0
 40
8.0
 40
8.0
 10
4.426445805598101
 20
4.907199876035469
 30
0.0
 10
4.426445805598101
 20
4.907199876035469
 30
0.0
 10
4.425320805635313
 20
5.103204037750705
 30
0.0
 10
4.425320805635313
 20
5.103204037750705
 30
0.0
 10
4.425320805635313
 20
5.103204037750705
 30
0.0
 10
4.341702752209358
 20
5.486755416954022
 30
0.0
 10
4.341702752209358
 20
5.486755416954022
 30
0.0
 10
4.341702752209358
 20
5.486755416954022
 30
0.0
 10
4.341702752231059
 20
5.970309571405083
 30
0.0
 10
4.341702752233055
 20
6.014716514727714
 30
0.0
 10
4.341702752235051
 20
6.059109569161806
 30
0.0
 10
4.341376363353094
 20
6.029669292127765
 30
0.0
 10
4.340902752255261
 20
6.058912346944604
 30
0.0
 10
4.334961085740537
 20
6.100097222228101
 30
0.0
 10
4.321791641634895
 20
6.236402777784241
 30
0.0
 10
4.308716641969795
 20
6.338859562096204
 30
0.0
 10
4.308512475308362
 20
6.340480395388605
 30
0.0
 10
4.305555530938944
 20
6.347913728534283
 30
0.0
 10
4.303237475442225
 20
6.353888888896171
 30
0.0
 10
4.289876364670186
 20
6.388326227514085
 30
0.0
 10
4.254761087782728
 20
6.460435947916241
 30
0.0
 10
4.254069421133661
 20
6.463270670066877
 30
0.0
 10
4.254069421133661
 20
6.463270670066877
 30
0.0
 10
4.249905532350112
 20
6.466477614430497
 30
0.0
 10
4.251343032314304
 20
6.477919280808059
 30
0.0
  0
SPLINE
  5
1C9
330
1F
100
AcDbEntity
  8
IUSE
 62
   250
420
  2301728
370
    18
100
AcDbSpline
210
0.0
220
0.0
230
1.0
 70
     8
 71
     3
 72
    11
 73
     7
 74
     0
 42
0.0000000001
 43
0.0000000001
 12
1.0
 22
0.0
 32
0.0
 13
1.0
 23
0.0
 33
0.0
 40
0.0
 40
0.0
 40
0.0
 40
0.0
 40
1.0
 40
1.0
 40
1.0
 40
2.0
 40
2.0
 40
2.0
 40
2.0
 10
4.293891642284381
 20
5.00389292915429
 30
0.0
 10
4.293891642284381
 20
5.00389292915429
 30
0.0
 10
4.293891642303757
 20
5.435750000007702
 30
0.0
 10
4.293891642304035
 20
5.441934584755093
 30
0.0
 10
4.293891642304667
 20
5.455742917739599
 30
0.0
 10
4.302423469594739
 20
5.461276250932769
 30
0.0
 10
4.308756802927822
 20
5.455729028850404
 30
0.0
  0
SPLINE
  5
1CA
330
1F
100
AcDbEntity
  8
IUSE
 62
   250
420
  2301728
370
     9
100
AcDbSpline
210
0.0
220
0.0
230
1.0
 70
    24
 71
     3
 72
     8
 73
     4
 74
     0
 42
0.0000000001
 43
0.0000000001
 12
1.0
 22
0.0
 32
0.0
 13
1.0
 23
0.0
 33
0.0
 40
0.0
 40
0.0
 40
0.0
 40
0.0
 40
1.0
 40
1.0
 40
1.0
 40
1.0
 10
4.312636086274298
 20
5.427205418459683
 30
0.0
 10
4.312636086273667
 20
5.413085974371925
 30
0.0
 10
4.312636086255452
 20
5.007419317953261
 30
0.0
 10
4.312636086255452
 20
5.007419317953261
 30
0.0
  0
SPLINE
  5
1CB
330
1F
100
AcDbEntity
  8
IUSE
 62
   250
420
  2301728
370
    18
100
AcDbSpline
210
0.0
220
0.0
230
1.0
 70
     8
 71
     3
 72
    11
 73
     7
 74
     0
 42
0.0000000001
 43
0.0000000001
 12
1.0
 22
0.0
 32
0.0
 13
1.0
 23
0.0
 33
0.0
 40
0.0
 40
0.0
 40
0.0
 40
0.0
 40
1.0
 40
1.0
 40
1.0
 40
2.0
 40
2.0
 40
2.0
 40
2.0
 10
4.350343029744661
 20
4.947523486131331
 30
0.0
 10
4.350343029744661
 20
4.947523486131331
 30
0.0
 10
4.350343029758784
 20
5.262451255953364
 30
0.0
 10
4.350343029759062
 20
5.268635978019347
 30
0.0
 10
4.350343029759693
 20
5.282442922114998
 30
0.0
 10
4.358873585100001
 20
5.287977644197023
 30
0.0
 10
4.365208307161942
 20
5.282430555560065
 30
0.0
  0
SPLINE
  5
1CC
330
1F
100
AcDbEntity
  8
IUSE
 62
   250
420
  2301728
370
     9
100
AcDbSpline
210
0.0
220
0.0
230
1.0
 70
    24
 71
     3
 72
     8
 73
     4
 74
     0
 42
0.0000000001
 43
0.0000000001
 12
1.0
 22
0.0
 32
0.0
 13
1.0
 23
0.0
 33
0.0
 40
0.0
 40
0.0
 40
0.0
 40
0.0
 40
1.0
 40
1.0
 40
1.0
 40
1.0
 10
4.369087473729325
 20
5.253906811723937
 30
0.0
 10
4.369087473728692
 20
5.239785978747325
 30
0.0
 10
4.369087473716364
 20
4.964938763468328
 30
0.0
 10
4.369087473716364
 20
4.964938763468328
 30
0.0
  0
SPLINE
  5
1CD
330
1F
100
AcDbEntity
  8
IUSE
 62
   250
420
  2301728
370
     9
100
AcDbSpline
210
0.0
220
0.0
230
1.0
 70
     8
 71
     3
 72
     8
 73
     4
 74
     0
 42
0.0000000001
 43
0.0000000001
 12
1.0
 22
0.0
 32
0.0
 13
1.0
 23
0.0
 33
0.0
 40
0.0
 40
0.0
 40
0.0
 40
0.0
 40
1.0
 40
1.0
 40
1.0
 40
1.0
 10
4.316298469573363
 20
4.984659596305846
 30
0.0
 10
4.316298469573363
 20
4.984659596305846
 30
0.0
 10
4.313043030688757
 20
4.98807765177518
 30
0.0
 10
4.313313864015602
 20
4.996269318234908
 30
0.0
  0
SPLINE
  5
1CE
330
1F
100
AcDbEntity
  8
IUSE
 62
   250
420
  2301728
370
     9
100
AcDbSpline
210
0.0
220
0.0
230
1.0
 70
     8
 71
     3
 72
     8
 73
     4
 74
     0
 42
0.0000000001
 43
0.0000000001
 12
1.0
 22
0.0
 32
0.0
 13
1.0
 23
0.0
 33
0.0
 40
0.0
 40
0.0
 40
0.0
 40
0.0
 40
1.0
 40
1.0
 40
1.0
 40
1.0
 10
4.370226362575194
 20
4.936699875292763
 30
0.0
 10
4.370226362575194
 20
4.936699875292763
 30
0.0
 10
4.366970807102032
 20
4.94014431965032
 30
0.0
 10
4.367255529317441
 20
4.948337374998901
 30
0.0
  0
SPLINE
  5
1CF
330
1F
100
AcDbEntity
  8
IUSE
 62
   250
420
  2301728
370
    13
100
AcDbSpline
210
0.0
220
0.0
230
1.0
 70
    11
 71
     3
 72
    17
 73
    13
 74
     0
 42
0.0000000001
 43
0.0000000001
 12
1.0
 22
0.0
 32
0.0
 13
1.0
 23
0.0
 33
0.0
 40
0.0
 40
0.0
 40
0.0
 40
0.0
 40
1.0
 40
1.0
 40
1.0
 40
2.0
 40
2.0
 40
2.0
 40
3.0
 40
3.0
 40
3.0
 40
4.0
 40
4.0
 40
4.0
 40
4.0
 10
4.227552755104751
 20
5.748073465913245
 30
0.0
 10
4.227552755104019
 20
5.731730410770549
 30
0.0
 10
4.237129143750709
 20
5.725266522044522
 30
0.0
 10
4.250326247384489
 20
5.727397077545675
 30
0.0
 10
4.263523587528551
 20
5.729533188602241
 30
0.0
 10
4.270833309566569
 20
5.739413743907853
 30
0.0
 10
4.270833309567302
 20
5.755770687939085
 30
0.0
 10
4.270833309568035
 20
5.772108187526365
 30
0.0
 10
4.263523587531229
 20
5.788737353773272
 30
0.0
 10
4.250326247387142
 20
5.786606798272133
 30
0.0
 10
4.237129143753362
 20
5.784470687215566
 30
0.0
 10
4.227552755105484
 20
5.764431798833331
 30
0.0
 10
4.227552755104751
 20
5.748073465913245
 30
0.0
  0
SPLINE
  5
1D0
330
1F
100
AcDbEntity
  8
IUSE
 62
   250
420
  2301728
370
    18
100
AcDbSpline
210
0.0
220
0.0
230
1.0
 70
     8
 71
     3
 72
    11
 73
     7
 74
     0
 42
0.0000000001
 43
0.0000000001
 12
1.0
 22
0.0
 32
0.0
 13
1.0
 23
0.0
 33
0.0
 40
0.0
 40
0.0
 40
0.0
 40
0.0
 40
1.0
 40
1.0
 40
1.0
 40
2.0
 40
2.0
 40
2.0
 40
2.0
 10
4.549995802552454
 20
6.588751222439239
 30
0.0
 10
4.549995802552454
 20
6.588751222439239
 30
0.0
 10
4.567098579898079
 20
6.586297055833825
 30
0.0
 10
4.572170801992089
 20
6.58457483365487
 30
0.0
 10
4.577244412974955
 20
6.582858167031342
 30
0.0
 10
4.579698579579422
 20
6.578416666661546
 30
0.0
 10
4.580879135104927
 20
6.573370667270852
 30
0.0
  0
SPLINE
  5
1D1
330
1F
100
AcDbEntity
  8
IUSE
 62
   250
420
  2301728
370
     9
100
AcDbSpline
210
0.0
220
0.0
230
1.0
 70
    11
 71
     3
 72
    11
 73
     7
 74
     0
 42
0.0000000001
 43
0.0000000001
 12
1.0
 22
0.0
 32
0.0
 13
1.0
 23
0.0
 33
0.0
 40
0.0
 40
0.0
 40
0.0
 40
0.0
 40
1.0
 40
1.0
 40
1.0
 40
2.0
 40
2.0
 40
2.0
 40
2.0
 10
4.147515257153676
 20
6.349595672943337
 30
0.0
 10
4.147515257152741
 20
6.328572062363352
 30
0.0
 10
4.169543034374379
 20
6.335897062177296
 30
0.0
 10
4.169556923263776
 20
6.354926228363246
 30
0.0
 10
4.169556923264736
 20
6.376477616707714
 30
0.0
 10
4.147515257154408
 20
6.365769283645881
 30
0.0
 10
4.147515257153676
 20
6.349595672943337
 30
0.0
  0
SPLINE
  5
1D2
330
1F
100
AcDbEntity
  8
IUSE
 62
   250
420
  2301728
370
    18
100
AcDbSpline
210
0.0
220
0.0
230
1.0
 70
    11
 71
     3
 72
    17
 73
    13
 74
     0
 42
0.0000000001
 43
0.0000000001
 12
1.0
 22
0.0
 32
0.0
 13
1.0
 23
0.0
 33
0.0
 40
0.0
 40
0.0
 40
0.0
 40
0.0
 40
1.0
 40
1.0
 40
1.0
 40
2.0
 40
2.0
 40
2.0
 40
3.0
 40
3.0
 40
3.0
 40
4.0
 40
4.0
 40
4.0
 40
4.0
 10
4.159587479071661
 20
6.365641505870776
 30
0.0
 10
4.160116645724884
 20
6.364060950355123
 30
0.0
 10
4.160766645708387
 20
6.362181783735902
 30
0.0
 10
4.160387479051173
 20
6.359822061573304
 30
0.0
 10
4.159072201306218
 20
6.350565117362773
 30
0.0
 10
4.156223590266841
 20
6.345547061934111
 30
0.0
 10
4.149970812646908
 20
6.342834562002913
 30
0.0
 10
4.149238868221042
 20
6.344685950845069
 30
0.0
 10
4.148274979356655
 20
6.348252617421685
 30
0.0
 10
4.148274979356781
 20
6.351101228460821
 30
0.0
 10
4.148274979357085
 20
6.358031783841296
 30
0.0
 10
4.153687358524191
 20
6.364467894789577
 30
0.0
 10
4.159587479071661
 20
6.365641505870776
 30
0.0
  0
SPLINE
  5
1D3
330
1F
100
AcDbEntity
  8
IUSE
370
     0
100
AcDbSpline
210
0.0
220
0.0
230
1.0
 70
    11
 71
     3
 72
    17
 73
    13
 74
     0
 42
0.0000000001
 43
0.0000000001
 12
1.0
 22
0.0
 32
0.0
 13
1.0
 23
0.0
 33
0.0
 40
0.0
 40
0.0
 40
0.0
 40
0.0
 40
1.0
 40
1.0
 40
1.0
 40
2.0
 40
2.0
 40
2.0
 40
3.0
 40
3.0
 40
3.0
 40
4.0
 40
4.0
 40
4.0
 40
4.0
 10
4.159627756839856
 20
6.174858177357047
 30
0.0
 10
4.156833312465652
 20
6.167276233104253
 30
0.0
 10
4.149970812638912
 20
6.165147066491676
 30
0.0
 10
4.149970812638912
 20
6.165147066491676
 30
0.0
 10
4.149970812638912
 20
6.165147066491676
 30
0.0
 10
4.145724979413191
 20
6.173013888903243
 30
0.0
 10
4.147855534915177
 20
6.178283177271042
 30
0.0
 10
4.15110970149999
 20
6.186509565951964
 30
0.0
 10
4.160129145716761
 20
6.189941510309305
 30
0.0
 10
4.160129145716761
 20
6.189941510309305
 30
0.0
 10
4.160129145716761
 20
6.189941510309305
 30
0.0
 10
4.162422201214036
 20
6.182420677165863
 30
0.0
 10
4.159627756839856
 20
6.174858177357047
 30
0.0
  0
HATCH
  5
1D4
330
1F
100
AcDbEntity
  8
IUSE
 62
    43
420
 15510365
100
AcDbHatch
 10
0.0
 20
0.0
 30
0.0
210
0.0
220
0.0
230
1.0
  2
SOLID
 70
     1
 71
     0
 91
        1
 92
        1
 93
        1
 72
     4
 94
        3
 73
     0
 74
     1
 95
       17
 96
       13
 40
0.0
 40
0.0
 40
0.0
 40
0.0
 40
1.0
 40
1.0
 40
1.0
 40
2.0
 40
2.0
 40
2.0
 40
3.0
 40
3.0
 40
3.0
 40
4.0
 40
4.0
 40
4.0
 40
4.0
 10
4.159627756839856
 20
6.174858177357047
 10
4.156833312465652
 20
6.167276233104253
 10
4.149970812638912
 20
6.165147066491676
 10
4.149970812638912
 20
6.165147066491676
 10
4.149970812638912
 20
6.165147066491676
 10
4.145724979413191
 20
6.173013888903243
 10
4.147855534915177
 20
6.178283177271042
 10
4.15110970149999
 20
6.186509565951964
 10
4.160129145716761
 20
6.189941510309305
 10
4.160129145716761
 20
6.189941510309305
 10
4.160129145716761
 20
6.189941510309305
 10
4.162422201214036
 20
6.182420677165863
 10
4.159627756839856
 20
6.174858177357047
 97
        0
 97
        0
 75
     2
 76
     1
 98
        0
  0
SPLINE
  5
1D5
330
1F
100
AcDbEntity
  8
IUSE
 62
   250
420
  2301728
370
     9
100
AcDbSpline
210
0.0
220
0.0
230
1.0
 70
    11
 71
     3
 72
    11
 73
     7
 74
     0
 42
0.0000000001
 43
0.0000000001
 12
1.0
 22
0.0
 32
0.0
 13
1.0
 23
0.0
 33
0.0
 40
0.0
 40
0.0
 40
0.0
 40
0.0
 40
1.0
 40
1.0
 40
1.0
 40
2.0
 40
2.0
 40
2.0
 40
2.0
 10
4.147515257145717
 20
6.172458333347625
 30
0.0
 10
4.147515257144783
 20
6.151434566838197
 30
0.0
 10
4.169543034366421
 20
6.158759566652166
 30
0.0
 10
4.169556923255818
 20
6.177788732838116
 30
0.0
 10
4.169556923256778
 20
6.199340121182571
 30
0.0
 10
4.14751525714645
 20
6.188631788120738
 30
0.0
 10
4.147515257145717
 20
6.172458333347625
 30
0.0
  0
SPLINE
  5
1D6
330
1F
100
AcDbEntity
  8
IUSE
 62
   250
420
  2301728
370
    18
100
AcDbSpline
210
0.0
220
0.0
230
1.0
 70
    11
 71
     3
 72
    17
 73
    13
 74
     0
 42
0.0000000001
 43
0.0000000001
 12
1.0
 22
0.0
 32
0.0
 13
1.0
 23
0.0
 33
0.0
 40
0.0
 40
0.0
 40
0.0
 40
0.0
 40
1.0
 40
1.0
 40
1.0
 40
2.0
 40
2.0
 40
2.0
 40
3.0
 40
3.0
 40
3.0
 40
4.0
 40
4.0
 40
4.0
 40
4.0
 10
4.159587479063703
 20
6.188504010345645
 30
0.0
 10
4.160116645716926
 20
6.186923454830005
 30
0.0
 10
4.160766645700429
 20
6.185044288210772
 30
0.0
 10
4.16038747904324
 20
6.182684566048199
 30
0.0
 10
4.15907220129826
 20
6.173427621837643
 30
0.0
 10
4.156223590258883
 20
6.168409566408981
 30
0.0
 10
4.14997081263895
 20
6.165697066477782
 30
0.0
 10
4.149238868213084
 20
6.167548455319939
 30
0.0
 10
4.148274979348697
 20
6.171115121896542
 30
0.0
 10
4.148274979348823
 20
6.17396373293569
 30
0.0
 10
4.148274979349127
 20
6.180894288316166
 30
0.0
 10
4.153687358516233
 20
6.187330399264448
 30
0.0
 10
4.159587479063703
 20
6.188504010345645
 30
0.0
  0
SPLINE
  5
1D7
330
1F
100
AcDbEntity
  8
IUSE
370
     0
100
AcDbSpline
210
0.0
220
0.0
230
1.0
 70
    11
 71
     3
 72
    17
 73
    13
 74
     0
 42
0.0000000001
 43
0.0000000001
 12
1.0
 22
0.0
 32
0.0
 13
1.0
 23
0.0
 33
0.0
 40
0.0
 40
0.0
 40
0.0
 40
0.0
 40
1.0
 40
1.0
 40
1.0
 40
2.0
 40
2.0
 40
2.0
 40
3.0
 40
3.0
 40
3.0
 40
4.0
 40
4.0
 40
4.0
 40
4.0
 10
4.159627756831898
 20
5.997720681831904
 30
0.0
 10
4.156833312457694
 20
5.990138888902758
 30
0.0
 10
4.149970812630979
 20
5.988009570966546
 30
0.0
 10
4.149970812630979
 20
5.988009570966546
 30
0.0
 10
4.149970812630979
 20
5.988009570966546
 30
0.0
 10
4.145724979405259
 20
5.995876237434686
 30
0.0
 10
4.147855534907219
 20
6.001145681745911
 30
0.0
 10
4.151109701492057
 20
6.009372070426833
 30
0.0
 10
4.160129145708803
 20
6.012804014784175
 30
0.0
 10
4.160129145708803
 20
6.012804014784175
 30
0.0
 10
4.160129145708803
 20
6.012804014784175
 30
0.0
 10
4.162422201206078
 20
6.005283181640733
 30
0.0
 10
4.159627756831898
 20
5.997720681831904
 30
0.0
  0
HATCH
  5
1D8
330
1F
100
AcDbEntity
  8
IUSE
 62
    43
420
 15510365
100
AcDbHatch
 10
0.0
 20
0.0
 30
0.0
210
0.0
220
0.0
230
1.0
  2
SOLID
 70
     1
 71
     0
 91
        1
 92
        1
 93
        1
 72
     4
 94
        3
 73
     0
 74
     1
 95
       17
 96
       13
 40
0.0
 40
0.0
 40
0.0
 40
0.0
 40
1.0
 40
1.0
 40
1.0
 40
2.0
 40
2.0
 40
2.0
 40
3.0
 40
3.0
 40
3.0
 40
4.0
 40
4.0
 40
4.0
 40
4.0
 10
4.159627756831898
 20
5.997720681831904
 10
4.156833312457694
 20
5.990138888902758
 10
4.149970812630979
 20
5.988009570966546
 10
4.149970812630979
 20
5.988009570966546
 10
4.149970812630979
 20
5.988009570966546
 10
4.145724979405259
 20
5.995876237434686
 10
4.147855534907219
 20
6.001145681745911
 10
4.151109701492057
 20
6.009372070426833
 10
4.160129145708803
 20
6.012804014784175
 10
4.160129145708803
 20
6.012804014784175
 10
4.160129145708803
 20
6.012804014784175
 10
4.162422201206078
 20
6.005283181640733
 10
4.159627756831898
 20
5.997720681831904
 97
        0
 97
        0
 75
     2
 76
     1
 98
        0
  0
SPLINE
  5
1D9
330
1F
100
AcDbEntity
  8
IUSE
 62
   250
420
  2301728
370
     9
100
AcDbSpline
210
0.0
220
0.0
230
1.0
 70
    11
 71
     3
 72
    11
 73
     7
 74
     0
 42
0.0000000001
 43
0.0000000001
 12
1.0
 22
0.0
 32
0.0
 13
1.0
 23
0.0
 33
0.0
 40
0.0
 40
0.0
 40
0.0
 40
0.0
 40
1.0
 40
1.0
 40
1.0
 40
2.0
 40
2.0
 40
2.0
 40
2.0
 10
4.147515257137798
 20
5.995320681893089
 30
0.0
 10
4.147515257136825
 20
5.974297071313067
 30
0.0
 10
4.169543034358463
 20
5.981622071127036
 30
0.0
 10
4.16955692324786
 20
6.000651237312986
 30
0.0
 10
4.16955692324882
 20
6.022202625657441
 30
0.0
 10
4.147515257138492
 20
6.011494292595608
 30
0.0
 10
4.147515257137798
 20
5.995320681893089
 30
0.0
  0
SPLINE
  5
1DA
330
1F
100
AcDbEntity
  8
IUSE
 62
   250
420
  2301728
370
    18
100
AcDbSpline
210
0.0
220
0.0
230
1.0
 70
    11
 71
     3
 72
    17
 73
    13
 74
     0
 42
0.0000000001
 43
0.0000000001
 12
1.0
 22
0.0
 32
0.0
 13
1.0
 23
0.0
 33
0.0
 40
0.0
 40
0.0
 40
0.0
 40
0.0
 40
1.0
 40
1.0
 40
1.0
 40
2.0
 40
2.0
 40
2.0
 40
3.0
 40
3.0
 40
3.0
 40
4.0
 40
4.0
 40
4.0
 40
4.0
 10
4.159587479055745
 20
6.011366514820515
 30
0.0
 10
4.160116645708968
 20
6.009785959304862
 30
0.0
 10
4.160766645692471
 20
6.007906792685642
 30
0.0
 10
4.160387479035282
 20
6.005547070523044
 30
0.0
 10
4.159072201290302
 20
5.996290126312513
 30
0.0
 10
4.156223590250925
 20
5.99127207088385
 30
0.0
 10
4.149970812631005
 20
5.988559570952664
 30
0.0
 10
4.149238868205126
 20
5.990410959794809
 30
0.0
 10
4.148274979340739
 20
5.993977626371412
 30
0.0
 10
4.148274979340865
 20
5.99682623741056
 30
0.0
 10
4.148274979341194
 20
6.003756792791036
 30
0.0
 10
4.153687358508275
 20
6.010192903739317
 30
0.0
 10
4.159587479055745
 20
6.011366514820515
 30
0.0
  0
SPLINE
  5
1DB
330
1F
100
AcDbEntity
  8
IUSE
370
     0
100
AcDbSpline
210
0.0
220
0.0
230
1.0
 70
    11
 71
     3
 72
    17
 73
    13
 74
     0
 42
0.0000000001
 43
0.0000000001
 12
1.0
 22
0.0
 32
0.0
 13
1.0
 23
0.0
 33
0.0
 40
0.0
 40
0.0
 40
0.0
 40
0.0
 40
1.0
 40
1.0
 40
1.0
 40
2.0
 40
2.0
 40
2.0
 40
3.0
 40
3.0
 40
3.0
 40
4.0
 40
4.0
 40
4.0
 40
4.0
 10
4.15962775682394
 20
5.820583333347082
 30
0.0
 10
4.156833312449761
 20
5.813001242053992
 30
0.0
 10
4.149970812623021
 20
5.810872075441428
 30
0.0
 10
4.149970812623021
 20
5.810872075441428
 30
0.0
 10
4.149970812623021
 20
5.810872075441428
 30
0.0
 10
4.145724979397301
 20
5.818738741909542
 30
0.0
 10
4.147855534899261
 20
5.824008186220781
 30
0.0
 10
4.151109701484099
 20
5.832234574901703
 30
0.0
 10
4.160129145700845
 20
5.83566666668038
 30
0.0
 10
4.160129145700845
 20
5.83566666668038
 30
0.0
 10
4.160129145700845
 20
5.83566666668038
 30
0.0
 10
4.162422201198145
 20
5.828145686115603
 30
0.0
 10
4.15962775682394
 20
5.820583333347082
 30
0.0
  0
HATCH
  5
1DC
330
1F
100
AcDbEntity
  8
IUSE
 62
    43
420
 15510365
100
AcDbHatch
 10
0.0
 20
0.0
 30
0.0
210
0.0
220
0.0
230
1.0
  2
SOLID
 70
     1
 71
     0
 91
        1
 92
        1
 93
        1
 72
     4
 94
        3
 73
     0
 74
     1
 95
       17
 96
       13
 40
0.0
 40
0.0
 40
0.0
 40
0.0
 40
1.0
 40
1.0
 40
1.0
 40
2.0
 40
2.0
 40
2.0
 40
3.0
 40
3.0
 40
3.0
 40
4.0
 40
4.0
 40
4.0
 40
4.0
 10
4.15962775682394
 20
5.820583333347082
 10
4.156833312449761
 20
5.813001242053992
 10
4.149970812623021
 20
5.810872075441428
 10
4.149970812623021
 20
5.810872075441428
 10
4.149970812623021
 20
5.810872075441428
 10
4.145724979397301
 20
5.818738741909542
 10
4.147855534899261
 20
5.824008186220781
 10
4.151109701484099
 20
5.832234574901703
 10
4.160129145700845
 20
5.83566666668038
 10
4.160129145700845
 20
5.83566666668038
 10
4.160129145700845
 20
5.83566666668038
 10
4.162422201198145
 20
5.828145686115603
 10
4.15962775682394
 20
5.820583333347082
 97
        0
 97
        0
 75
     2
 76
     1
 98
        0
  0
SPLINE
  5
1DD
330
1F
100
AcDbEntity
  8
IUSE
 62
   250
420
  2301728
370
     9
100
AcDbSpline
210
0.0
220
0.0
230
1.0
 70
    11
 71
     3
 72
    11
 73
     7
 74
     0
 42
0.0000000001
 43
0.0000000001
 12
1.0
 22
0.0
 32
0.0
 13
1.0
 23
0.0
 33
0.0
 40
0.0
 40
0.0
 40
0.0
 40
0.0
 40
1.0
 40
1.0
 40
1.0
 40
2.0
 40
2.0
 40
2.0
 40
2.0
 10
4.147515257129827
 20
5.818183186367959
 30
0.0
 10
4.147515257128867
 20
5.797159575787936
 30
0.0
 10
4.16954303435053
 20
5.804484575601905
 30
0.0
 10
4.169556923239901
 20
5.823513888902185
 30
0.0
 10
4.169556923240886
 20
5.84506513013231
 30
0.0
 10
4.147515257130559
 20
5.834356797070478
 30
0.0
 10
4.147515257129827
 20
5.818183186367959
 30
0.0
  0
SPLINE
  5
1DE
330
1F
100
AcDbEntity
  8
IUSE
 62
   250
420
  2301728
370
    18
100
AcDbSpline
210
0.0
220
0.0
230
1.0
 70
    11
 71
     3
 72
    17
 73
    13
 74
     0
 42
0.0000000001
 43
0.0000000001
 12
1.0
 22
0.0
 32
0.0
 13
1.0
 23
0.0
 33
0.0
 40
0.0
 40
0.0
 40
0.0
 40
0.0
 40
1.0
 40
1.0
 40
1.0
 40
2.0
 40
2.0
 40
2.0
 40
3.0
 40
3.0
 40
3.0
 40
4.0
 40
4.0
 40
4.0
 40
4.0
 10
4.159587479047786
 20
5.834229019295385
 30
0.0
 10
4.160116645701047
 20
5.832648463779732
 30
0.0
 10
4.160766645684513
 20
5.830769297160511
 30
0.0
 10
4.160387479027324
 20
5.828409574997914
 30
0.0
 10
4.159072201282369
 20
5.81915277779155
 30
0.0
 10
4.156223590242992
 20
5.81413457535872
 30
0.0
 10
4.149970812623047
 20
5.811422075427521
 30
0.0
 10
4.149238868197168
 20
5.813273464269678
 30
0.0
 10
4.148274979332781
 20
5.816840130846281
 30
0.0
 10
4.148274979332933
 20
5.81968874188543
 30
0.0
 10
4.148274979333236
 20
5.826619297265905
 30
0.0
 10
4.153687358500317
 20
5.833055555569558
 30
0.0
 10
4.159587479047786
 20
5.834229019295385
 30
0.0
  0
SPLINE
  5
1DF
330
1F
100
AcDbEntity
  8
IUSE
370
     0
100
AcDbSpline
210
0.0
220
0.0
230
1.0
 70
    11
 71
     3
 72
    17
 73
    13
 74
     0
 42
0.0000000001
 43
0.0000000001
 12
1.0
 22
0.0
 32
0.0
 13
1.0
 23
0.0
 33
0.0
 40
0.0
 40
0.0
 40
0.0
 40
0.0
 40
1.0
 40
1.0
 40
1.0
 40
2.0
 40
2.0
 40
2.0
 40
3.0
 40
3.0
 40
3.0
 40
4.0
 40
4.0
 40
4.0
 40
4.0
 10
4.159627756815982
 20
5.643445690781643
 30
0.0
 10
4.156833312441803
 20
5.635863746528861
 30
0.0
 10
4.149970812615063
 20
5.633734579916285
 30
0.0
 10
4.149970812615063
 20
5.633734579916285
 30
0.0
 10
4.149970812615063
 20
5.633734579916285
 30
0.0
 10
4.145724979389342
 20
5.641601246384412
 30
0.0
 10
4.147855534891303
 20
5.646870690695651
 30
0.0
 10
4.151109701476141
 20
5.65509722223635
 30
0.0
 10
4.160129145692887
 20
5.658529023733914
 30
0.0
 10
4.160129145692887
 20
5.658529023733914
 30
0.0
 10
4.160129145692887
 20
5.658529023733914
 30
0.0
 10
4.162422201190187
 20
5.651008190590472
 30
0.0
 10
4.159627756815982
 20
5.643445690781643
 30
0.0
  0
HATCH
  5
1E0
330
1F
100
AcDbEntity
  8
IUSE
 62
    43
420
 15510365
100
AcDbHatch
 10
0.0
 20
0.0
 30
0.0
210
0.0
220
0.0
230
1.0
  2
SOLID
 70
     1
 71
     0
 91
        1
 92
        1
 93
        1
 72
     4
 94
        3
 73
     0
 74
     1
 95
       17
 96
       13
 40
0.0
 40
0.0
 40
0.0
 40
0.0
 40
1.0
 40
1.0
 40
1.0
 40
2.0
 40
2.0
 40
2.0
 40
3.0
 40
3.0
 40
3.0
 40
4.0
 40
4.0
 40
4.0
 40
4.0
 10
4.159627756815982
 20
5.643445690781643
 10
4.156833312441803
 20
5.635863746528861
 10
4.149970812615063
 20
5.633734579916285
 10
4.149970812615063
 20
5.633734579916285
 10
4.149970812615063
 20
5.633734579916285
 10
4.145724979389342
 20
5.641601246384412
 10
4.147855534891303
 20
5.646870690695651
 10
4.151109701476141
 20
5.65509722223635
 10
4.160129145692887
 20
5.658529023733914
 10
4.160129145692887
 20
5.658529023733914
 10
4.160129145692887
 20
5.658529023733914
 10
4.162422201190187
 20
5.651008190590472
 10
4.159627756815982
 20
5.643445690781643
 97
        0
 97
        0
 75
     2
 76
     1
 98
        0
  0
SPLINE
  5
1E1
330
1F
100
AcDbEntity
  8
IUSE
 62
   250
420
  2301728
370
     9
100
AcDbSpline
210
0.0
220
0.0
230
1.0
 70
    11
 71
     3
 72
    11
 73
     7
 74
     0
 42
0.0000000001
 43
0.0000000001
 12
1.0
 22
0.0
 32
0.0
 13
1.0
 23
0.0
 33
0.0
 40
0.0
 40
0.0
 40
0.0
 40
0.0
 40
1.0
 40
1.0
 40
1.0
 40
2.0
 40
2.0
 40
2.0
 40
2.0
 10
4.147515257121869
 20
5.641045690842816
 30
0.0
 10
4.147515257120934
 20
5.620022080262806
 30
0.0
 10
4.169543034342571
 20
5.627345691187921
 30
0.0
 10
4.169556923231968
 20
5.646376246262737
 30
0.0
 10
4.169556923232928
 20
5.66792763460718
 30
0.0
 10
4.147515257122601
 20
5.657219301545347
 30
0.0
 10
4.147515257121869
 20
5.641045690842816
 30
0.0
  0
SPLINE
  5
1E2
330
1F
100
AcDbEntity
  8
IUSE
 62
   250
420
  2301728
370
    18
100
AcDbSpline
210
0.0
220
0.0
230
1.0
 70
    11
 71
     3
 72
    17
 73
    13
 74
     0
 42
0.0000000001
 43
0.0000000001
 12
1.0
 22
0.0
 32
0.0
 13
1.0
 23
0.0
 33
0.0
 40
0.0
 40
0.0
 40
0.0
 40
0.0
 40
1.0
 40
1.0
 40
1.0
 40
2.0
 40
2.0
 40
2.0
 40
3.0
 40
3.0
 40
3.0
 40
4.0
 40
4.0
 40
4.0
 40
4.0
 10
4.159587479039853
 20
5.6570901348814
 30
0.0
 10
4.160116645693076
 20
5.655510968254601
 30
0.0
 10
4.160766645676555
 20
5.653631801635381
 30
0.0
 10
4.160387479019366
 20
5.651272079472784
 30
0.0
 10
4.159072201274411
 20
5.642015135262252
 30
0.0
 10
4.156223590235034
 20
5.63699707983359
 30
0.0
 10
4.149970812615089
 20
5.634284579902391
 30
0.0
 10
4.14923886818921
 20
5.636135968744535
 30
0.0
 10
4.148274979324848
 20
5.639702635321151
 30
0.0
 10
4.148274979324975
 20
5.642551246360299
 30
0.0
 10
4.148274979325278
 20
5.649481801740775
 30
0.0
 10
4.153687358492359
 20
5.655917912689056
 30
0.0
 10
4.159587479039853
 20
5.6570901348814
 30
0.0
  0
SPLINE
  5
1E3
330
1F
100
AcDbEntity
  8
IUSE
370
     0
100
AcDbSpline
210
0.0
220
0.0
230
1.0
 70
    11
 71
     3
 72
    17
 73
    13
 74
     0
 42
0.0000000001
 43
0.0000000001
 12
1.0
 22
0.0
 32
0.0
 13
1.0
 23
0.0
 33
0.0
 40
0.0
 40
0.0
 40
0.0
 40
0.0
 40
1.0
 40
1.0
 40
1.0
 40
2.0
 40
2.0
 40
2.0
 40
3.0
 40
3.0
 40
3.0
 40
4.0
 40
4.0
 40
4.0
 40
4.0
 10
4.15962775680805
 20
5.466308195256513
 30
0.0
 10
4.156833312433845
 20
5.458726251003731
 30
0.0
 10
4.149970812607105
 20
5.456597222236395
 30
0.0
 10
4.149970812607105
 20
5.456597222236395
 30
0.0
 10
4.149970812607105
 20
5.456597222236395
 30
0.0
 10
4.145724979381384
 20
5.464463750859295
 30
0.0
 10
4.14785553488337
 20
5.469726250726252
 30
0.0
 10
4.151109701468183
 20
5.477959583851442
 30
0.0
 10
4.160129145684929
 20
5.481391528208784
 30
0.0
 10
4.160129145684929
 20
5.481391528208784
 30
0.0
 10
4.160129145684929
 20
5.481391528208784
 30
0.0
 10
4.162422201182241
 20
5.473876250620757
 30
0.0
 10
4.15962775680805
 20
5.466308195256513
 30
0.0
  0
HATCH
  5
1E4
330
1F
100
AcDbEntity
  8
IUSE
 62
    43
420
 15510365
100
AcDbHatch
 10
0.0
 20
0.0
 30
0.0
210
0.0
220
0.0
230
1.0
  2
SOLID
 70
     1
 71
     0
 91
        1
 92
        1
 93
        1
 72
     4
 94
        3
 73
     0
 74
     1
 95
       17
 96
       13
 40
0.0
 40
0.0
 40
0.0
 40
0.0
 40
1.0
 40
1.0
 40
1.0
 40
2.0
 40
2.0
 40
2.0
 40
3.0
 40
3.0
 40
3.0
 40
4.0
 40
4.0
 40
4.0
 40
4.0
 10
4.15962775680805
 20
5.466308195256513
 10
4.156833312433845
 20
5.458726251003731
 10
4.149970812607105
 20
5.456597222236395
 10
4.149970812607105
 20
5.456597222236395
 10
4.149970812607105
 20
5.456597222236395
 10
4.145724979381384
 20
5.464463750859295
 10
4.14785553488337
 20
5.469726250726252
 10
4.151109701468183
 20
5.477959583851442
 10
4.160129145684929
 20
5.481391528208784
 10
4.160129145684929
 20
5.481391528208784
 10
4.160129145684929
 20
5.481391528208784
 10
4.162422201182241
 20
5.473876250620757
 10
4.15962775680805
 20
5.466308195256513
 97
        0
 97
        0
 75
     2
 76
     1
 98
        0
  0
SPLINE
  5
1E5
330
1F
100
AcDbEntity
  8
IUSE
 62
   250
420
  2301728
370
     9
100
AcDbSpline
210
0.0
220
0.0
230
1.0
 70
    11
 71
     3
 72
    11
 73
     7
 74
     0
 42
0.0000000001
 43
0.0000000001
 12
1.0
 22
0.0
 32
0.0
 13
1.0
 23
0.0
 33
0.0
 40
0.0
 40
0.0
 40
0.0
 40
0.0
 40
1.0
 40
1.0
 40
1.0
 40
2.0
 40
2.0
 40
2.0
 40
2.0
 10
4.147515257113911
 20
5.463908195317672
 30
0.0
 10
4.147515257112976
 20
5.442884584737663
 30
0.0
 10
4.169543034334613
 20
5.450208333346634
 30
0.0
 10
4.16955692322401
 20
5.469238750737582
 30
0.0
 10
4.16955692322497
 20
5.490790139082049
 30
0.0
 10
4.147515257114643
 20
5.480088750464473
 30
0.0
 10
4.147515257113911
 20
5.463908195317672
 30
0.0
  0
SPLINE
  5
1E6
330
1F
100
AcDbEntity
  8
IUSE
 62
   250
420
  2301728
370
    18
100
AcDbSpline
210
0.0
220
0.0
230
1.0
 70
    11
 71
     3
 72
    17
 73
    13
 74
     0
 42
0.0000000001
 43
0.0000000001
 12
1.0
 22
0.0
 32
0.0
 13
1.0
 23
0.0
 33
0.0
 40
0.0
 40
0.0
 40
0.0
 40
0.0
 40
1.0
 40
1.0
 40
1.0
 40
2.0
 40
2.0
 40
2.0
 40
3.0
 40
3.0
 40
3.0
 40
4.0
 40
4.0
 40
4.0
 40
4.0
 10
4.159587479031908
 20
5.47995263935627
 30
0.0
 10
4.160116645685118
 20
5.47838041717374
 30
0.0
 10
4.160766645668622
 20
5.476494306110251
 30
0.0
 10
4.160387479011407
 20
5.474134583947666
 30
0.0
 10
4.159072201266452
 20
5.464870695292853
 30
0.0
 10
4.156223590227088
 20
5.45985263986419
 30
0.0
 10
4.149970812607131
 20
5.457140139932991
 30
0.0
 10
4.149238868181278
 20
5.458998473219404
 30
0.0
 10
4.14827497931689
 20
5.462565139796021
 30
0.0
 10
4.148274979317017
 20
5.465413750835169
 30
0.0
 10
4.148274979317319
 20
5.472344306215644
 30
0.0
 10
4.153687358484427
 20
5.478787361608182
 30
0.0
 10
4.159587479031908
 20
5.47995263935627
 30
0.0
  0
SPLINE
  5
1E7
330
1F
100
AcDbEntity
  8
IUSE
 62
   250
420
  2301728
370
     9
100
AcDbSpline
210
0.0
220
0.0
230
1.0
 70
    11
 71
     3
 72
    14
 73
    10
 74
     0
 42
0.0000000001
 43
0.0000000001
 12
1.0
 22
0.0
 32
0.0
 13
1.0
 23
0.0
 33
0.0
 40
0.0
 40
0.0
 40
0.0
 40
0.0
 40
1.0
 40
1.0
 40
1.0
 40
2.0
 40
2.0
 40
2.0
 40
3.0
 40
3.0
 40
3.0
 40
3.0
 10
4.580322190670889
 20
6.491909558217647
 30
0.0
 10
4.579604025196482
 20
6.489935947156432
 30
0.0
 10
4.599094412418404
 20
6.481404002926638
 30
0.0
 10
4.599094412418404
 20
6.481404002926638
 30
0.0
 10
4.599094412418404
 20
6.481404002926638
 30
0.0
 10
4.601211079031878
 20
6.487277777771673
 30
0.0
 10
4.601211079032029
 20
6.490919280463938
 30
0.0
 10
4.601223579032598
 20
6.510531779968485
 30
0.0
 10
4.584812358530447
 20
6.504367891236054
 30
0.0
 10
4.580322190670889
 20
6.491909558217647
 30
0.0
  0
SPLINE
  5
1E8
330
1F
100
AcDbEntity
  8
IUSE
 62
   250
420
  2301728
370
    18
100
AcDbSpline
210
0.0
220
0.0
230
1.0
 70
    11
 71
     3
 72
    17
 73
    13
 74
     0
 42
0.0000000001
 43
0.0000000001
 12
1.0
 22
0.0
 32
0.0
 13
1.0
 23
0.0
 33
0.0
 40
0.0
 40
0.0
 40
0.0
 40
0.0
 40
1.0
 40
1.0
 40
1.0
 40
2.0
 40
2.0
 40
2.0
 40
3.0
 40
3.0
 40
3.0
 40
4.0
 40
4.0
 40
4.0
 40
4.0
 10
4.591824968158486
 20
6.501084557985349
 30
0.0
 10
4.592366634811419
 20
6.499510946913965
 30
0.0
 10
4.592543023695776
 20
6.498195669169402
 30
0.0
 10
4.592190245926809
 20
6.495842891451073
 30
0.0
 10
4.59171663482751
 20
6.492512335979679
 30
0.0
 10
4.590604025196449
 20
6.489230391618194
 30
0.0
 10
4.58878607934576
 20
6.487413724997509
 30
0.0
 10
4.588352746023348
 20
6.486979002786281
 30
0.0
 10
4.581015246208759
 20
6.487983169427921
 30
0.0
 10
4.581190246204415
 20
6.489799836048682
 30
0.0
 10
4.581841635077151
 20
6.496310946995272
 30
0.0
 10
4.586630523845188
 20
6.499002613593726
 30
0.0
 10
4.591824968158486
 20
6.501084557985349
 30
0.0
  0
POLYLINE
  5
1E9
330
1F
100
AcDbEntity
  8
IUSE
 62
   250
420
  2301728
370
     9
100
AcDb2dPolyline
 66
     1
 10
0.0
 20
0.0
 30
0.0
  0
VERTEX
  5
1EA
330
1E9
100
AcDbEntity
  8
IUSE
 62
   250
420
  2301728
370
     9
100
AcDbVertex
100
AcDb2dVertex
 10
4.354370807470787
 20
6.063455402384812
 30
0.0
  0
VERTEX
  5
1EB
330
1E9
100
AcDbEntity
  8
IUSE
 62
   250
420
  2301728
370
     9
100
AcDbVertex
100
AcDb2dVertex
 10
4.343547196632926
 20
6.059712346924268
 30
0.0
  0
SEQEND
  5
1EC
330
1E9
100
AcDbEntity
  8
IUSE
 62
   250
420
  2301728
370
     9
  0
POLYLINE
  5
1ED
330
1F
100
AcDbEntity
  8
IUSE
 62
   250
420
  2301728
370
     9
100
AcDb2dPolyline
 66
     1
 10
0.0
 20
0.0
 30
0.0
  0
VERTEX
  5
1EE
330
1ED
100
AcDbEntity
  8
IUSE
 62
   250
420
  2301728
370
     9
100
AcDbVertex
100
AcDb2dVertex
 10
4.354370807445068
 20
5.49079013907375
 30
0.0
  0
VERTEX
  5
1EF
330
1ED
100
AcDbEntity
  8
IUSE
 62
   250
420
  2301728
370
     9
100
AcDbVertex
100
AcDb2dVertex
 10
4.343547196607207
 20
5.487054028057501
 30
0.0
  0
SEQEND
  5
1F0
330
1ED
100
AcDbEntity
  8
IUSE
 62
   250
420
  2301728
370
     9
  0
POLYLINE
  5
1F1
330
1F
100
AcDbEntity
  8
IUSE
 62
   250
420
  2301728
370
     9
100
AcDb2dPolyline
 66
     1
 10
0.0
 20
0.0
 30
0.0
  0
VERTEX
  5
1F2
330
1F1
100
AcDbEntity
  8
IUSE
 62
   250
420
  2301728
370
     9
100
AcDbVertex
100
AcDb2dVertex
 10
4.077406925554239
 20
5.521348471647545
 30
0.0
  0
VERTEX
  5
1F3
330
1F1
100
AcDbEntity
  8
IUSE
 62
   250
420
  2301728
370
     9
100
AcDbVertex
100
AcDb2dVertex
 10
4.063829148119718
 20
5.526570693738449
 30
0.0
  0
SEQEND
  5
1F4
330
1F1
100
AcDbEntity
  8
IUSE
 62
   250
420
  2301728
370
     9
  0
INSERT
  5
1F6
330
1F
100
AcDbEntity
  8
IUSE
100
AcDbBlockReference
  2
block 5
 10
0.0
 20
0.0
 30
0.0
  0
SPLINE
  5
202
330
1F
100
AcDbEntity
  8
IUSE
 62
   250
420
  2301728
370
    20
100
AcDbSpline
210
0.0
220
0.0
230
1.0
 70
     8
 71
     3
 72
    71
 73
    67
 74
     0
 42
0.0000000001
 43
0.0000000001
 12
1.0
 22
0.0
 32
0.0
 13
1.0
 23
0.0
 33
0.0
 40
0.0
 40
0.0
 40
0.0
 40
0.0
 40
1.0
 40
1.0
 40
1.0
 40
2.0
 40
2.0
 40
2.0
 40
3.0
 40
3.0
 40
3.0
 40
4.0
 40
4.0
 40
4.0
 40
5.0
 40
5.0
 40
5.0
 40
6.0
 40
6.0
 40
6.0
 40
7.0
 40
7.0
 40
7.0
 40
8.0
 40
8.0
 40
8.0
 40
9.0
 40
9.0
 40
9.0
 40
10.0
 40
10.0
 40
10.0
 40
11.0
 40
11.0
 40
11.0
 40
12.0
 40
12.0
 40
12.0
 40
13.0
 40
13.0
 40
13.0
 40
14.0
 40
14.0
 40
14.0
 40
15.0
 40
15.0
 40
15.0
 40
16.0
 40
16.0
 40
16.0
 40
17.0
 40
17.0
 40
17.0
 40
18.0
 40
18.0
 40
18.0
 40
19.0
 40
19.0
 40
19.0
 40
20.0
 40
20.0
 40
20.0
 40
21.0
 40
21.0
 40
21.0
 40
22.0
 40
22.0
 40
22.0
 40
22.0
 10
4.066244425877547
 20
6.440904003973678
 30
0.0
 10
4.066244425877547
 20
6.440904003973678
 30
0.0
 10
4.063829148119541
 20
5.522875000018037
 30
0.0
 10
4.063829148119541
 20
5.522875000018037
 30
0.0
 10
4.063829148119541
 20
5.522875000018037
 30
0.0
 10
4.234090136252285
 20
5.257988756071326
 30
0.0
 10
4.240072199210064
 20
5.238430555565679
 30
0.0
 10
4.246054143502508
 20
5.218898479280496
 30
0.0
 10
4.270263865110135
 20
5.151787369863667
 30
0.0
 10
4.270263865110135
 20
5.151787369863667
 30
0.0
 10
4.270263865110135
 20
5.151787369863667
 30
0.0
 10
4.269680531787066
 20
5.052395705707871
 30
0.0
 10
4.269680531786181
 20
5.032755428426248
 30
0.0
 10
4.269680531785676
 20
5.021388888897692
 30
0.0
 10
4.292752753424262
 20
5.004137373592609
 30
0.0
 10
4.292752753424262
 20
5.004137373592609
 30
0.0
 10
4.292752753424262
 20
5.004137373592609
 30
0.0
 10
4.292752753423707
 20
4.991441540579999
 30
0.0
 10
4.300402753230173
 20
4.985581818505478
 30
0.0
 10
4.307347197498959
 20
4.980265151972794
 30
0.0
 10
4.314969419528678
 20
4.981730429713227
 30
0.0
 10
4.314969419528678
 20
4.981730429713227
 30
0.0
 10
4.314969419528678
 20
4.981730429713227
 30
0.0
 10
4.350343029744812
 20
4.950913763823463
 30
0.0
 10
4.350343029744812
 20
4.950913763823463
 30
0.0
 10
4.350343029744812
 20
4.950913763823463
 30
0.0
 10
4.351454140827425
 20
4.941691541834163
 30
0.0
 10
4.357734696224043
 20
4.935641541986721
 30
0.0
 10
4.362847196094688
 20
4.930677653223003
 30
0.0
 10
4.37024025146363
 20
4.934176264245403
 30
0.0
 10
4.37024025146363
 20
4.934176264245403
 30
0.0
 10
4.37024025146363
 20
4.934176264245403
 30
0.0
 10
4.419936083539698
 20
4.893147098612972
 30
0.0
 10
4.419936083539698
 20
4.893147098612972
 30
0.0
 10
4.419936083539698
 20
4.893147098612972
 30
0.0
 10
4.4557027493032
 20
4.901815153947963
 30
0.0
 10
4.4557027493032
 20
4.901815153947963
 30
0.0
 10
4.4557027493032
 20
4.901815153947963
 30
0.0
 10
4.442383305195739
 20
4.91314015366245
 30
0.0
 10
4.442383305195739
 20
4.91314015366245
 30
0.0
 10
4.442383305195739
 20
4.91314015366245
 30
0.0
 10
4.442383305204632
 20
5.111192926436994
 30
0.0
 10
4.442383305204632
 20
5.111192926436994
 30
0.0
 10
4.442383305204632
 20
5.111192926436994
 30
0.0
 10
4.355238862978821
 20
5.49349569456092
 30
0.0
 10
4.355238862978821
 20
5.49349569456092
 30
0.0
 10
4.355238862978821
 20
5.49349569456092
 30
0.0
 10
4.355238863000598
 20
5.978420682310684
 30
0.0
 10
4.355238863002569
 20
6.022806792300533
 30
0.0
 10
4.355238863004565
 20
6.067213735623138
 30
0.0
 10
4.35461525190764
 20
6.032280403172321
 30
0.0
 10
4.354058307478605
 20
6.062005402421429
 30
0.0
 10
4.347915252080106
 20
6.103345679155141
 30
0.0
 10
4.333483308006357
 20
6.239915120150195
 30
0.0
 10
4.320963863882727
 20
6.341213728702844
 30
0.0
 10
4.320773586109832
 20
6.342733173108917
 30
0.0
 10
4.316813863988222
 20
6.35557761722906
 30
0.0
 10
4.31503747514436
 20
6.359292894913071
 30
0.0
 10
4.301433308822652
 20
6.387729005306432
 30
0.0
 10
4.258911087678724
 20
6.478616503012327
 30
0.0
 10
4.258911087678724
 20
6.478616503012327
 30
0.0
 10
4.258911087678724
 20
6.478616503012327
 30
0.0
 10
4.242106921436845
 20
6.485099836182636
 30
0.0
 10
4.242106921436845
 20
6.485099836182636
 30
0.0
 10
4.242106921436845
 20
6.485099836182636
 30
0.0
 10
4.14439569186167
 20
6.456834559123283
 30
0.0
 10
4.14439569186167
 20
6.456834559123283
 30
0.0
  0
SPLINE
  5
203
330
1F
100
AcDbEntity
  8
IUSE
 62
   250
420
  2301728
370
    20
100
AcDbSpline
210
0.0
220
0.0
230
1.0
 70
     8
 71
     3
 72
    26
 73
    22
 74
     0
 42
0.0000000001
 43
0.0000000001
 12
1.0
 22
0.0
 32
0.0
 13
1.0
 23
0.0
 33
0.0
 40
0.0
 40
0.0
 40
0.0
 40
0.0
 40
1.0
 40
1.0
 40
1.0
 40
2.0
 40
2.0
 40
2.0
 40
3.0
 40
3.0
 40
3.0
 40
4.0
 40
4.0
 40
4.0
 40
5.0
 40
5.0
 40
5.0
 40
6.0
 40
6.0
 40
6.0
 40
7.0
 40
7.0
 40
7.0
 40
7.0
 10
4.57769163518545
 20
6.573356778382453
 30
0.0
 10
4.57769163518545
 20
6.573356778382453
 30
0.0
 10
4.470961082324922
 20
6.546677612394546
 30
0.0
 10
4.470961082324922
 20
6.546677612394546
 30
0.0
 10
4.470961082324922
 20
6.546677612394546
 30
0.0
 10
4.664673469639082
 20
6.449184559293181
 30
0.0
 10
4.664673469639082
 20
6.449184559293181
 30
0.0
 10
4.664673469639082
 20
6.449184559293181
 30
0.0
 10
4.664673469644968
 20
6.580138888879964
 30
0.0
 10
4.664673469644968
 20
6.580138888879964
 30
0.0
 10
4.664673469644968
 20
6.580138888879964
 30
0.0
 10
4.667522188472806
 20
6.597967888867806
 30
0.0
 10
4.65715958075705
 20
6.601710944329271
 30
0.0
 10
4.643609689077266
 20
6.606587333095578
 30
0.0
 10
4.609511078827912
 20
6.614406777344016
 30
0.0
 10
4.609511078827912
 20
6.614406777344016
 30
0.0
 10
4.609511078827912
 20
6.614406777344016
 30
0.0
 10
4.547933302605113
 20
6.601067888794861
 30
0.0
 10
4.547933302605113
 20
6.601067888794861
 30
0.0
 10
4.547933302605113
 20
6.601067888794861
 30
0.0
 10
4.54896385813418
 20
6.590806777942917
 30
0.0
 10
4.54896385813418
 20
6.590806777942917
 30
0.0
  0
SPLINE
  5
204
330
1F
100
AcDbEntity
  8
IUSE
 62
   250
420
  2301728
370
    20
100
AcDbSpline
210
0.0
220
0.0
230
1.0
 70
     8
 71
     3
 72
    20
 73
    16
 74
     0
 42
0.0000000001
 43
0.0000000001
 12
1.0
 22
0.0
 32
0.0
 13
1.0
 23
0.0
 33
0.0
 40
0.0
 40
0.0
 40
0.0
 40
0.0
 40
1.0
 40
1.0
 40
1.0
 40
2.0
 40
2.0
 40
2.0
 40
3.0
 40
3.0
 40
3.0
 40
4.0
 40
4.0
 40
4.0
 40
5.0
 40
5.0
 40
5.0
 40
5.0
 10
4.143976368358557
 20
6.446533170494641
 30
0.0
 10
4.143976368358557
 20
6.446533170494641
 30
0.0
 10
4.146823590509509
 20
6.461262336789091
 30
0.0
 10
4.13646109077144
 20
6.465006781139436
 30
0.0
 10
4.122898591114297
 20
6.469881781016877
 30
0.0
 10
4.087145691862739
 20
6.480997058515463
 30
0.0
 10
4.087145691862739
 20
6.480997058515463
 30
0.0
 10
4.087145691862739
 20
6.480997058515463
 30
0.0
 10
4.02558053801719
 20
6.469692892137131
 30
0.0
 10
4.02558053801719
 20
6.469692892137131
 30
0.0
 10
4.02558053801719
 20
6.469692892137131
 30
0.0
 10
4.025580538016635
 20
6.457390114670134
 30
0.0
 10
4.025580538016635
 20
6.457390114670134
 30
0.0
 10
4.025580538016635
 20
6.457390114670134
 30
0.0
 10
4.057712481648801
 20
6.444994281648506
 30
0.0
 10
4.063544425945818
 20
6.443026226142402
 30
0.0
  0
INSERT
  5
206
330
1F
100
AcDbEntity
  8
IUSE
100
AcDbBlockReference
  2
block 6
 10
0.0
 20
0.0
 30
0.0
  0
POLYLINE
  5
21F
330
1F
100
AcDbEntity
  8
IUSE
 62
     7
420
 16777215
370
    13
100
AcDb2dPolyline
 66
     1
 10
0.0
 20
0.0
 30
0.0
  0
VERTEX
  5
220
330
21F
100
AcDbEntity
  8
IUSE
 62
     7
420
 16777215
370
    13
100
AcDbVertex
100
AcDb2dVertex
 10
4.138822201803148
 20
6.024881792257802
 30
0.0
  0
VERTEX
  5
221
330
21F
100
AcDbEntity
  8
IUSE
 62
     7
420
 16777215
370
    13
100
AcDbVertex
100
AcDb2dVertex
 10
4.128906924275421
 20
6.014980403619486
 30
0.0
  0
SEQEND
  5
222
330
21F
100
AcDbEntity
  8
IUSE
 62
     7
420
 16777215
370
    13
  0
SPLINE
  5
223
330
1F
100
AcDbEntity
  8
IUSE
 62
     7
420
 16777215
370
    15
100
AcDbSpline
210
0.0
220
0.0
230
1.0
 70
     8
 71
     3
 72
    14
 73
    10
 74
     0
 42
0.0000000001
 43
0.0000000001
 12
1.0
 22
0.0
 32
0.0
 13
1.0
 23
0.0
 33
0.0
 40
0.0
 40
0.0
 40
0.0
 40
0.0
 40
1.0
 40
1.0
 40
1.0
 40
2.0
 40
2.0
 40
2.0
 40
3.0
 40
3.0
 40
3.0
 40
3.0
 10
4.104791647111394
 20
6.116224845507355
 30
0.0
 10
4.106798469623805
 20
6.108574845700534
 30
0.0
 10
4.120579146710371
 20
6.067640124511791
 30
0.0
 10
4.122383313331158
 20
6.060669291354467
 30
0.0
 10
4.124187358510223
 20
6.053690124864033
 30
0.0
 10
4.126208313233974
 20
6.04851651388353
 30
0.0
 10
4.121704146680864
 20
6.043341514014464
 30
0.0
 10
4.117201247398421
 20
6.038160958589982
 30
0.0
 10
4.110908313619575
 20
6.028259569951501
 30
0.0
 10
4.105958313744546
 20
6.026462347774908
 30
0.0
  0
POLYLINE
  5
224
330
1F
100
AcDbEntity
  8
IUSE
 62
     7
420
 16777215
370
    15
100
AcDb2dPolyline
 66
     1
 10
0.0
 20
0.0
 30
0.0
  0
VERTEX
  5
225
330
224
100
AcDbEntity
  8
IUSE
 62
     7
420
 16777215
370
    15
100
AcDbVertex
100
AcDb2dVertex
 10
4.104818035994463
 20
6.001926237283682
 30
0.0
  0
VERTEX
  5
226
330
224
100
AcDbEntity
  8
IUSE
 62
     7
420
 16777215
370
    15
100
AcDbVertex
100
AcDb2dVertex
 10
4.105279147100065
 20
6.138535956054839
 30
0.0
  0
SEQEND
  5
227
330
224
100
AcDbEntity
  8
IUSE
 62
     7
420
 16777215
370
    15
  0
SPLINE
  5
228
330
1F
100
AcDbEntity
  8
IUSE
 62
     7
420
 16777215
370
    15
100
AcDbSpline
210
0.0
220
0.0
230
1.0
 70
     8
 71
     3
 72
    26
 73
    22
 74
     0
 42
0.0000000001
 43
0.0000000001
 12
1.0
 22
0.0
 32
0.0
 13
1.0
 23
0.0
 33
0.0
 40
0.0
 40
0.0
 40
0.0
 40
0.0
 40
1.0
 40
1.0
 40
1.0
 40
2.0
 40
2.0
 40
2.0
 40
3.0
 40
3.0
 40
3.0
 40
4.0
 40
4.0
 40
4.0
 40
5.0
 40
5.0
 40
5.0
 40
6.0
 40
6.0
 40
6.0
 40
7.0
 40
7.0
 40
7.0
 40
7.0
 10
4.137912479609061
 20
6.139662344913796
 30
0.0
 10
4.134318035254978
 20
6.129306789620007
 30
0.0
 10
4.136109701876269
 20
6.12706095634332
 30
0.0
 10
4.13791247960805
 20
6.11715401214907
 30
0.0
 10
4.139730535117248
 20
6.107252623510235
 30
0.0
 10
4.14826247934444
 20
6.069444444458693
 30
0.0
 10
4.149617914066186
 20
6.062241513535747
 30
0.0
 10
4.150974979275285
 20
6.055040124828742
 30
0.0
 10
4.155030534727808
 20
6.042433180702574
 30
0.0
 10
4.145562358509273
 20
6.032538736508513
 30
0.0
 10
4.13610970187157
 20
6.022637347870171
 30
0.0
 10
4.139269424014072
 20
6.024881792257777
 30
0.0
 10
4.139269424014072
 20
6.024881792257777
 30
0.0
 10
4.139269424014072
 20
6.024881792257777
 30
0.0
 10
4.138822201802315
 20
6.00598179273527
 30
0.0
 10
4.138822201802137
 20
6.002380403937346
 30
0.0
 10
4.138822201801986
 20
5.998779015139436
 30
0.0
 10
4.128906924274209
 20
5.988423459845927
 30
0.0
 10
4.12620831323122
 20
5.987073459880157
 30
0.0
 10
4.123508313299377
 20
5.98572484880324
 30
0.0
 10
4.120362480045388
 20
5.983024848871574
 30
0.0
 10
4.114502757971524
 20
5.990220682023391
 30
0.0
  0
SPLINE
  5
229
330
1F
100
AcDbEntity
  8
IUSE
 62
     7
420
 16777215
370
    15
100
AcDbSpline
210
0.0
220
0.0
230
1.0
 70
    11
 71
     3
 72
    38
 73
    34
 74
     0
 42
0.0000000001
 43
0.0000000001
 12
1.0
 22
0.0
 32
0.0
 13
1.0
 23
0.0
 33
0.0
 40
0.0
 40
0.0
 40
0.0
 40
0.0
 40
1.0
 40
1.0
 40
1.0
 40
2.0
 40
2.0
 40
2.0
 40
3.0
 40
3.0
 40
3.0
 40
4.0
 40
4.0
 40
4.0
 40
5.0
 40
5.0
 40
5.0
 40
6.0
 40
6.0
 40
6.0
 40
7.0
 40
7.0
 40
7.0
 40
8.0
 40
8.0
 40
8.0
 40
9.0
 40
9.0
 40
9.0
 40
10.0
 40
10.0
 40
10.0
 40
11.0
 40
11.0
 40
11.0
 40
11.0
 10
4.128906924275421
 20
6.014980403619486
 30
0.0
 10
4.128906924275421
 20
6.014980403619486
 30
0.0
 10
4.128690257613622
 20
6.00147762618283
 30
0.0
 10
4.128690257613622
 20
6.00147762618283
 30
0.0
 10
4.128690257613622
 20
6.00147762618283
 30
0.0
 10
4.118788868974485
 20
5.99315679306014
 30
0.0
 10
4.117431924564269
 20
5.992248459749817
 30
0.0
 10
4.116088869042616
 20
5.991347222237929
 30
0.0
 10
4.116088869042478
 20
5.98842345984652
 30
0.0
 10
4.112929146900241
 20
5.992031793088826
 30
0.0
 10
4.110256802952032
 20
5.995097222238175
 30
0.0
 10
4.104818035994463
 20
6.001477626183903
 30
0.0
 10
4.104818035994463
 20
6.001477626183903
 30
0.0
 10
4.104818035994463
 20
6.001477626183903
 30
0.0
 10
4.105495813758302
 20
6.072373457726219
 30
0.0
 10
4.105495813758631
 20
6.080023457532964
 30
0.0
 10
4.109551369211305
 20
6.070345679999491
 30
0.0
 10
4.112902758015076
 20
6.060269291365001
 30
0.0
 10
4.111992914065796
 20
6.054198458185068
 30
0.0
 10
4.11109859139343
 20
6.048116513894304
 30
0.0
 10
4.113837480213053
 20
6.046265125052072
 30
0.0
 10
4.105727758195522
 20
6.041984569604993
 30
0.0
 10
4.105727758195497
 20
6.041760958499544
 30
0.0
 10
4.105279147094456
 20
6.013630403654651
 30
0.0
 10
4.105279147094456
 20
6.013630403654651
 30
0.0
 10
4.105279147094456
 20
6.013630403654651
 30
0.0
 10
4.110908313618842
 20
6.011602625927846
 30
0.0
 10
4.110908313618842
 20
6.011602625927846
 30
0.0
 10
4.110908313618842
 20
6.011602625927846
 30
0.0
 10
4.116754146804498
 20
6.011738737035254
 30
0.0
 10
4.119683313397141
 20
6.011060959274472
 30
0.0
 10
4.122613868878615
 20
6.010388888904282
 30
0.0
 10
4.128906924275421
 20
6.014980403619486
 30
0.0
 10
4.128906924275421
 20
6.014980403619486
 30
0.0
  0
INSERT
  5
22B
330
1F
100
AcDbEntity
  8
IUSE
100
AcDbBlockReference
  2
block 8
 10
0.0
 20
0.0
 30
0.0
  0
SPLINE
  5
25B
330
1F
100
AcDbEntity
  8
IUSE
 62
   250
420
  2301728
370
     9
100
AcDbSpline
210
0.0
220
0.0
230
1.0
 70
     8
 71
     3
 72
     8
 73
     4
 74
     0
 42
0.0000000001
 43
0.0000000001
 12
1.0
 22
0.0
 32
0.0
 13
1.0
 23
0.0
 33
0.0
 40
0.0
 40
0.0
 40
0.0
 40
0.0
 40
1.0
 40
1.0
 40
1.0
 40
1.0
 10
4.340305530002271
 20
5.037760983852195
 30
0.0
 10
4.340305530002271
 20
5.037760983852195
 30
0.0
 10
4.328124974754322
 20
5.035387372801576
 30
0.0
 10
4.322509697119004
 20
5.048827650240077
 30
0.0
  0
SPLINE
  5
25C
330
1F
100
AcDbEntity
  8
IUSE
 62
   250
420
  2301728
370
    20
100
AcDbSpline
210
0.0
220
0.0
230
1.0
 70
     8
 71
     3
 72
    11
 73
     7
 74
     0
 42
0.0000000001
 43
0.0000000001
 12
1.0
 22
0.0
 32
0.0
 13
1.0
 23
0.0
 33
0.0
 40
0.0
 40
0.0
 40
0.0
 40
0.0
 40
1.0
 40
1.0
 40
1.0
 40
2.0
 40
2.0
 40
2.0
 40
2.0
 10
4.076877758941842
 20
6.431945670866171
 30
0.0
 10
4.076877758941842
 20
6.431945670866171
 30
0.0
 10
4.079726369981775
 20
6.449774837082322
 30
0.0
 10
4.06936387024373
 20
6.453517892543775
 30
0.0
 10
4.055799981697722
 20
6.458394281310082
 30
0.0
 10
4.026598593546977
 20
6.468681781051512
 30
0.0
 10
4.026598593546977
 20
6.468681781051512
 30
0.0
  0
SPLINE
  5
25D
330
1F
100
AcDbEntity
  8
IUSE
 62
   250
420
  2301728
370
    20
100
AcDbSpline
210
0.0
220
0.0
230
1.0
 70
     8
 71
     3
 72
     8
 73
     4
 74
     0
 42
0.0000000001
 43
0.0000000001
 12
1.0
 22
0.0
 32
0.0
 13
1.0
 23
0.0
 33
0.0
 40
0.0
 40
0.0
 40
0.0
 40
0.0
 40
1.0
 40
1.0
 40
1.0
 40
1.0
 10
4.090223591938107
 20
6.434000000016858
 30
0.0
 10
4.090223591938107
 20
6.434000000016858
 30
0.0
 10
4.099461091705481
 20
6.450208333349779
 30
0.0
 10
4.079956925531936
 20
6.459445670171324
 30
0.0
  0
SPLINE
  5
25E
330
1F
100
AcDbEntity
  8
IUSE
 62
   250
420
  2301728
370
    20
100
AcDbSpline
210
0.0
220
0.0
230
1.0
 70
     8
 71
     3
 72
    17
 73
    13
 74
     0
 42
0.0000000001
 43
0.0000000001
 12
1.0
 22
0.0
 32
0.0
 13
1.0
 23
0.0
 33
0.0
 40
0.0
 40
0.0
 40
0.0
 40
0.0
 40
1.0
 40
1.0
 40
1.0
 40
2.0
 40
2.0
 40
2.0
 40
3.0
 40
3.0
 40
3.0
 40
4.0
 40
4.0
 40
4.0
 40
4.0
 10
4.091159580749478
 20
6.432854004175915
 30
0.0
 10
4.091159580749478
 20
6.432854004175915
 30
0.0
 10
4.128201247416503
 20
6.44097222223738
 30
0.0
 10
4.128201247416503
 20
6.44097222223738
 30
0.0
 10
4.128201247416503
 20
6.44097222223738
 30
0.0
 10
4.137424979635713
 20
6.458420670194641
 30
0.0
 10
4.111762480284116
 20
6.461500000015891
 30
0.0
 10
4.111762480284116
 20
6.461500000015891
 30
0.0
 10
4.099461091706037
 20
6.462524836759333
 30
0.0
 10
4.099461091706037
 20
6.462524836759333
 30
0.0
 10
4.099461091706037
 20
6.462524836759333
 30
0.0
 10
4.083036092120866
 20
6.460469281256437
 30
0.0
 10
4.083036092120866
 20
6.460469281256437
 30
0.0
  0
SPLINE
  5
25F
330
1F
100
AcDbEntity
  8
IUSE
 62
   250
420
  2301728
370
    20
100
AcDbSpline
210
0.0
220
0.0
230
1.0
 70
     8
 71
     3
 72
    11
 73
     7
 74
     0
 42
0.0000000001
 43
0.0000000001
 12
1.0
 22
0.0
 32
0.0
 13
1.0
 23
0.0
 33
0.0
 40
0.0
 40
0.0
 40
0.0
 40
0.0
 40
1.0
 40
1.0
 40
1.0
 40
2.0
 40
2.0
 40
2.0
 40
2.0
 10
4.093302758527544
 20
6.446105392729956
 30
0.0
 10
4.093302758527544
 20
6.446105392729956
 30
0.0
 10
4.111776369172099
 20
6.449184559318003
 30
0.0
 10
4.111776369172099
 20
6.449184559318003
 30
0.0
 10
4.111776369172099
 20
6.449184559318003
 30
0.0
 10
4.109727758113195
 20
6.459445670169985
 30
0.0
 10
4.090223591939169
 20
6.457390114667241
 30
0.0
  0
SPLINE
  5
260
330
1F
100
AcDbEntity
  8
IUSE
 62
   250
420
  2301728
370
    20
100
AcDbSpline
210
0.0
220
0.0
230
1.0
 70
     8
 71
     3
 72
     8
 73
     4
 74
     0
 42
0.0000000001
 43
0.0000000001
 12
1.0
 22
0.0
 32
0.0
 13
1.0
 23
0.0
 33
0.0
 40
0.0
 40
0.0
 40
0.0
 40
0.0
 40
1.0
 40
1.0
 40
1.0
 40
1.0
 10
4.609605523267949
 20
6.569376222926027
 30
0.0
 10
4.609605523267949
 20
6.569376222926027
 30
0.0
 10
4.618843023035323
 20
6.585584555849486
 30
0.0
 10
4.599338856861777
 20
6.594820666728158
 30
0.0
  0
SPLINE
  5
261
330
1F
100
AcDbEntity
  8
IUSE
 62
   250
420
  2301728
370
    20
100
AcDbSpline
210
0.0
220
0.0
230
1.0
 70
     8
 71
     3
 72
    17
 73
    13
 74
     0
 42
0.0000000001
 43
0.0000000001
 12
1.0
 22
0.0
 32
0.0
 13
1.0
 23
0.0
 33
0.0
 40
0.0
 40
0.0
 40
0.0
 40
0.0
 40
1.0
 40
1.0
 40
1.0
 40
2.0
 40
2.0
 40
2.0
 40
3.0
 40
3.0
 40
3.0
 40
4.0
 40
4.0
 40
4.0
 40
4.0
 10
4.610541634355362
 20
6.568230389621602
 30
0.0
 10
4.610541634355362
 20
6.568230389621602
 30
0.0
 10
4.647583300086631
 20
6.576348444970411
 30
0.0
 10
4.647583300086631
 20
6.576348444970411
 30
0.0
 10
4.647583300086631
 20
6.576348444970411
 30
0.0
 10
4.656806910965517
 20
6.593797055640316
 30
0.0
 10
4.631144411613958
 20
6.596876222230346
 30
0.0
 10
4.631144411613958
 20
6.596876222230346
 30
0.0
 10
4.618843023035879
 20
6.597899833316155
 30
0.0
 10
4.618843023035879
 20
6.597899833316155
 30
0.0
 10
4.618843023035879
 20
6.597899833316155
 30
0.0
 10
4.602418023450708
 20
6.595845666702113
 30
0.0
 10
4.602418023450708
 20
6.595845666702113
 30
0.0
  0
SPLINE
  5
262
330
1F
100
AcDbEntity
  8
IUSE
 62
   250
420
  2301728
370
    20
100
AcDbSpline
210
0.0
220
0.0
230
1.0
 70
     8
 71
     3
 72
    11
 73
     7
 74
     0
 42
0.0000000001
 43
0.0000000001
 12
1.0
 22
0.0
 32
0.0
 13
1.0
 23
0.0
 33
0.0
 40
0.0
 40
0.0
 40
0.0
 40
0.0
 40
1.0
 40
1.0
 40
1.0
 40
2.0
 40
2.0
 40
2.0
 40
2.0
 10
4.61268468985736
 20
6.581481778175644
 30
0.0
 10
4.61268468985736
 20
6.581481778175644
 30
0.0
 10
4.63115830050194
 20
6.584560944763679
 30
0.0
 10
4.63115830050194
 20
6.584560944763679
 30
0.0
 10
4.63115830050194
 20
6.584560944763679
 30
0.0
 10
4.629109689443036
 20
6.594820666726807
 30
0.0
 10
4.609605523268985
 20
6.592766500112917
 30
0.0
  0
SPLINE
  5
263
330
1F
100
AcDbEntity
  8
IUSE
 62
   250
420
  2301728
370
    20
100
AcDbSpline
210
0.0
220
0.0
230
1.0
 70
     8
 71
     3
 72
    17
 73
    13
 74
     0
 42
0.0000000001
 43
0.0000000001
 12
1.0
 22
0.0
 32
0.0
 13
1.0
 23
0.0
 33
0.0
 40
0.0
 40
0.0
 40
0.0
 40
0.0
 40
1.0
 40
1.0
 40
1.0
 40
2.0
 40
2.0
 40
2.0
 40
3.0
 40
3.0
 40
3.0
 40
4.0
 40
4.0
 40
4.0
 40
4.0
 10
4.489448581857586
 20
6.539497057019566
 30
0.0
 10
4.489448581857586
 20
6.539497057019566
 30
0.0
 10
4.581815246191884
 20
6.562072056445104
 30
0.0
 10
4.581815246191884
 20
6.562072056445104
 30
0.0
 10
4.581815246191884
 20
6.562072056445104
 30
0.0
 10
4.594279134766035
 20
6.565151223033454
 30
0.0
 10
4.594279134766035
 20
6.565151223033454
 30
0.0
 10
4.594279134766389
 20
6.573113722832292
 30
0.0
 10
4.595229025200827
 20
6.587111111105324
 30
0.0
 10
4.584513857236112
 20
6.59073177794322
 30
0.0
 10
4.5794416351421
 20
6.592454000122163
 30
0.0
 10
4.548963858134584
 20
6.600042888820704
 30
0.0
 10
4.548963858134584
 20
6.600042888820704
 30
0.0
  0
POLYLINE
  5
264
330
1F
100
AcDbEntity
  8
IUSE
 62
     7
420
 16777215
370
    13
100
AcDb2dPolyline
 66
     1
 10
0.0
 20
0.0
 30
0.0
  0
VERTEX
  5
265
330
264
100
AcDbEntity
  8
IUSE
 62
     7
420
 16777215
370
    13
100
AcDbVertex
100
AcDb2dVertex
 10
4.138822201803148
 20
6.024881792257802
 30
0.0
  0
VERTEX
  5
266
330
264
100
AcDbEntity
  8
IUSE
 62
     7
420
 16777215
370
    13
100
AcDbVertex
100
AcDb2dVertex
 10
4.128906924275421
 20
6.014980403619486
 30
0.0
  0
SEQEND
  5
267
330
264
100
AcDbEntity
  8
IUSE
 62
     7
420
 16777215
370
    13
  0
MTEXT
  5
269
330
1F
100
AcDbEntity
  8
callouts
 62
   250
420
  2301728
100
AcDbMText
 10
3.680630683898926
 20
3.994257715013292
 30
0.0
 40
0.118
 41
0.0
 46
0.0
 71
     7
 72
     1
  1
\fHelvetica Neue LT Std 55 Roman|b0|i0|c0|p34;\W1;SIMPSON Strong-Tie\H0.068794;®\H0.118; ^C
 73
     1
 44
1.0
  0
MTEXT
  5
26A
330
1F
100
AcDbEntity
  8
callouts
 62
   250
420
  2301728
100
AcDbMText
 10
3.133267402648926
 20
3.79425228966607
 30
0.0
 40
0.118
 41
0.0
 46
0.0
 71
     7
 72
     1
  1
\fHelvetica Neue LT Std 55 Roman|b0|i0|c0|p34;\W1;IUSE Face Fix I-Joist Installation with 
 73
     1
 44
1.0
  0
MTEXT
  5
26B
330
1F
100
AcDbEntity
  8
callouts
 62
   250
420
  2301728
100
AcDbMText
 10
3.972744941711426
 20
3.594246864318848
 30
0.0
 40
0.118
 41
0.0
 46
0.0
 71
     7
 72
     1
  1
\fHelvetica Neue LT Std 55 Roman|b0|i0|c0|p34;\W1;Web Stiffeners
 73
     1
 44
1.0
  0
INSERT
  5
26D
330
1F
100
AcDbEntity
  8
callouts
100
AcDbBlockReference
  2
block 15
 10
0.0
 20
0.0
 30
0.0
  0
MTEXT
  5
27B
330
1F
100
AcDbEntity
  8
callouts
 62
   250
420
  2301728
100
AcDbMText
 10
3.715776867336697
 20
4.517529593573676
 30
0.0
 40
0.1081666666666666
 41
0.0
 46
0.0
 71
     7
 72
     1
  1
\fHelvetica Neue LT Std 57 Condensed|b0|i0|c0|p34;\W1;Web Stiffener
 73
     1
 44
1.0
  0
MTEXT
  5
27C
330
1F
100
AcDbEntity
  8
callouts
 62
   250
420
  2236191
100
AcDbMText
 10
3.36722977956136
 20
6.658473544650607
 30
0.0
 40
0.118
 41
0.0
 46
0.0
 71
     7
 72
     1
  1
\fHelvetica Neue LT Std 57 Condensed|b0|i0|c0|p34;\W1;IUSE
 73
     1
 44
1.0
  0
MTEXT
  5
27D
330
1F
100
AcDbEntity
  8
callouts
 62
   250
420
  2236191
100
AcDbMText
 10
4.191741943359375
 20
4.274941974216037
 30
0.0
 40
0.118
 41
0.0
 46
0.0
 71
     7
 72
     1
  1
\fHelvetica Neue LT Std 57 Condensed|b0|i0|c0|p34;\W1;I-Joist
 73
     1
 44
1.0
  0
POLYLINE
  5
27E
330
1F
100
AcDbEntity
  8
callouts
 62
   250
420
  2236191
370
    18
100
AcDb2dPolyline
 66
     1
 10
0.0
 20
0.0
 30
0.0
  0
VERTEX
  5
27F
330
27E
100
AcDbEntity
  8
callouts
 62
   250
420
  2236191
370
    18
100
AcDbVertex
100
AcDb2dVertex
 10
3.686797778315256
 20
6.713318506301119
 30
0.0
  0
VERTEX
  5
280
330
27E
100
AcDbEntity
  8
callouts
 62
   250
420
  2236191
370
    18
100
AcDbVertex
100
AcDb2dVertex
 10
4.035611662769952
 20
6.485580401191807
 30
0.0
  0
SEQEND
  5
281
330
27E
100
AcDbEntity
  8
callouts
 62
   250
420
  2236191
370
    18
  0
POLYLINE
  5
282
330
1F
100
AcDbEntity
  8
callouts
 62
   250
420
  2236191
370
    18
100
AcDb2dPolyline
 66
     1
 10
0.0
 20
0.0
 30
0.0
  0
VERTEX
  5
283
330
282
100
AcDbEntity
  8
callouts
 62
   250
420
  2236191
370
    18
100
AcDbVertex
100
AcDb2dVertex
 10
4.644261762067193
 20
4.355979519780577
 30
0.0
  0
VERTEX
  5
284
330
282
100
AcDbEntity
  8
callouts
 62
   250
420
  2236191
370
    18
100
AcDbVertex
100
AcDb2dVertex
 10
4.900038164996102
 20
4.560727199343571
 30
0.0
  0
SEQEND
  5
285
330
282
100
AcDbEntity
  8
callouts
 62
   250
420
  2236191
370
    18
  0
ENDSEC
  0
SECTION
  2
OBJECTS
  0
DICTIONARY
  5
C
330
0
100
AcDbDictionary
281
     1
  3
ACAD_GROUP
350
D
  3
ACAD_LAYOUT
350
1A
  3
ACAD_MATERIAL
350
3B
  3
ACAD_MLEADERSTYLE
350
289
  3
ACAD_MLINESTYLE
350
17
  3
ACAD_PLOTSETTINGS
350
19
  3
ACAD_PLOTSTYLENAME
350
E
  3
ACAD_TABLESTYLE
350
288
  3
ACAD_VISUALSTYLE
350
2A
  0
SUN
  5
3F
330
29
100
AcDbSun
 90
        1
290
     0
 63
     7
421
 16777215
 40
1.0
291
     1
 91
  2455826
 92
 54000000
292
     0
 70
     2
 71
   256
280
     1
  0
DICTIONARY
  5
D
102
{ACAD_REACTORS
330
C
102
}
330
C
100
AcDbDictionary
281
     1
  0
DICTIONARY
  5
1A
102
{ACAD_REACTORS
330
C
102
}
330
C
100
AcDbDictionary
281
     1
  3
Layout1
350
1E
  3
Layout2
350
26
  3
Model
350
22
  0
DICTIONARY
  5
3B
102
{ACAD_REACTORS
330
C
102
}
330
C
100
AcDbDictionary
281
     1
  3
ByBlock
350
3D
  3
ByLayer
350
3C
  3
Global
350
3E
  0
DICTIONARY
  5
289
102
{ACAD_REACTORS
330
C
102
}
330
C
100
AcDbDictionary
281
     1
  0
DICTIONARY
  5
17
102
{ACAD_REACTORS
330
C
102
}
330
C
100
AcDbDictionary
281
     1
  3
Standard
350
18
  0
DICTIONARY
  5
19
102
{ACAD_REACTORS
330
C
102
}
330
C
100
AcDbDictionary
281
     1
  0
ACDBDICTIONARYWDFLT
  5
E
102
{ACAD_REACTORS
330
C
102
}
330
C
100
AcDbDictionary
281
     1
  3
Normal
350
F
100
AcDbDictionaryWithDefault
340
F
  0
DICTIONARY
  5
288
102
{ACAD_REACTORS
330
C
102
}
330
C
100
AcDbDictionary
281
     1
  0
DICTIONARY
  5
2A
102
{ACAD_REACTORS
330
C
102
}
330
C
100
AcDbDictionary
281
     1
  3
2dWireframe
350
2F
  3
3D Hidden
350
31
  3
3dWireframe
350
30
  3
Basic
350
32
  3
Brighten
350
36
  3
ColorChange
350
3A
  3
Conceptual
350
34
  3
Dim
350
35
  3
Facepattern
350
39
  3
Flat
350
2B
  3
FlatWithEdges
350
2C
  3
Gouraud
350
2D
  3
GouraudWithEdges
350
2E
  3
Linepattern
350
38
  3
Realistic
350
33
  3
Thicken
350
37
  0
LAYOUT
  5
1E
102
{ACAD_REACTORS
330
1A
102
}
330
1A
100
AcDbPlotSettings
  1

  2
none_device
  4

  6

 40
0.0
 41
0.0
 42
0.0
 43
0.0
 44
0.0
 45
0.0
 46
0.0
 47
0.0
 48
0.0
 49
0.0
140
0.0
141
0.0
142
1.0
143
1.0
 70
   688
 72
     0
 73
     0
 74
     5
  7

 75
    16
 76
     0
 77
     2
 78
   300
147
1.0
148
0.0
149
0.0
100
AcDbLayout
  1
Layout1
 70
     1
 71
     1
 10
0.0
 20
0.0
 11
12.0
 21
9.0
 12
0.0
 22
0.0
 32
0.0
 14
1.000000000000000E+20
 24
1.000000000000000E+20
 34
1.000000000000000E+20
 15
-1.000000000000000E+20
 25
-1.000000000000000E+20
 35
-1.000000000000000E+20
146
0.0
 13
0.0
 23
0.0
 33
0.0
 16
1.0
 26
0.0
 36
0.0
 17
0.0
 27
1.0
 37
0.0
 76
     0
330
1B
  0
LAYOUT
  5
26
102
{ACAD_REACTORS
330
1A
102
}
330
1A
100
AcDbPlotSettings
  1

  2
none_device
  4

  6

 40
0.0
 41
0.0
 42
0.0
 43
0.0
 44
0.0
 45
0.0
 46
0.0
 47
0.0
 48
0.0
 49
0.0
140
0.0
141
0.0
142
1.0
143
1.0
 70
   688
 72
     0
 73
     0
 74
     5
  7

 75
    16
 76
     0
 77
     2
 78
   300
147
1.0
148
0.0
149
0.0
100
AcDbLayout
  1
Layout2
 70
     1
 71
     2
 10
0.0
 20
0.0
 11
0.0
 21
0.0
 12
0.0
 22
0.0
 32
0.0
 14
0.0
 24
0.0
 34
0.0
 15
0.0
 25
0.0
 35
0.0
146
0.0
 13
0.0
 23
0.0
 33
0.0
 16
1.0
 26
0.0
 36
0.0
 17
0.0
 27
1.0
 37
0.0
 76
     0
330
23
  0
LAYOUT
  5
22
102
{ACAD_REACTORS
330
1A
102
}
330
1A
100
AcDbPlotSettings
  1

  2
none_device
  4

  6

 40
0.0
 41
0.0
 42
0.0
 43
0.0
 44
0.0
 45
0.0
 46
0.0
 47
0.0
 48
0.0
 49
0.0
140
0.0
141
0.0
142
1.0
143
1.0
 70
  1712
 72
     0
 73
     0
 74
     0
  7

 75
     0
 76
     0
 77
     2
 78
   300
147
1.0
148
0.0
149
0.0
100
AcDbLayout
  1
Model
 70
     1
 71
     0
 10
0.0
 20
0.0
 11
12.0
 21
9.0
 12
0.0
 22
0.0
 32
0.0
 14
1.000000000000000E+20
 24
1.000000000000000E+20
 34
1.000000000000000E+20
 15
-1.000000000000000E+20
 25
-1.000000000000000E+20
 35
-1.000000000000000E+20
146
0.0
 13
0.0
 23
0.0
 33
0.0
 16
1.0
 26
0.0
 36
0.0
 17
0.0
 27
1.0
 37
0.0
 76
     0
330
1F
331
29
  0
MATERIAL
  5
3D
102
{ACAD_REACTORS
330
3B
102
}
330
3B
100
AcDbMaterial
  1
ByBlock
 72
     1
 94
      127
  0
MATERIAL
  5
3C
102
{ACAD_REACTORS
330
3B
102
}
330
3B
100
AcDbMaterial
  1
ByLayer
 72
     1
 94
      127
  0
MATERIAL
  5
3E
102
{ACAD_REACTORS
330
3B
102
}
330
3B
100
AcDbMaterial
  1
Global
 72
     1
 94
      127
  0
MLINESTYLE
  5
18
102
{ACAD_REACTORS
330
17
102
}
330
17
100
AcDbMlineStyle
  2
Standard
 70
     0
  3

 62
   256
 51
90.0
 52
90.0
 71
     2
 49
0.5
 62
   256
  6
BYLAYER
 49
-0.5
 62
   256
  6
BYLAYER
  0
ACDBPLACEHOLDER
  5
F
102
{ACAD_REACTORS
330
E
102
}
330
E
  0
VISUALSTYLE
  5
2F
102
{ACAD_REACTORS
330
2A
102
}
330
2A
100
AcDbVisualStyle
  2
2dWireframe
 70
     4
177
     2
291
     0
 71
     0
176
     1
 72
     2
176
     1
 73
     0
176
     1
 90
        0
176
     1
 40
-0.6
176
     1
 41
-30.0
176
     1
 62
     5
 63
     7
421
 16777215
176
     1
 74
     1
176
     1
 91
        4
176
     1
 64
     7
176
     1
 65
   257
176
     1
 75
     1
176
     1
175
     1
176
     1
 42
1.0
176
     1
 92
        0
176
     1
 66
   257
176
     1
 43
1.0
176
     1
 76
     1
176
     1
 77
     6
176
     1
 78
     2
176
     1
 67
     7
176
     1
 79
     5
176
     1
170
     0
176
     1
171
     0
176
     1
290
     0
176
     1
 93
        1
176
     1
 44
0.0
176
     1
173
     0
176
     1
  0
VISUALSTYLE
  5
31
102
{ACAD_REACTORS
330
2A
102
}
330
2A
100
AcDbVisualStyle
  2
3D Hidden
 70
     6
177
     2
291
     0
 71
     1
176
     1
 72
     2
176
     1
 73
     2
176
     1
 90
        0
176
     1
 40
-0.6
176
     1
 41
-30.0
176
     1
 62
     5
 63
     7
421
 16777215
176
     1
 74
     2
176
     1
 91
        2
176
     1
 64
     7
176
     1
 65
   257
176
     1
 75
     2
176
     1
175
     1
176
     1
 42
40.0
176
     1
 92
        0
176
     1
 66
   257
176
     1
 43
1.0
176
     1
 76
     1
176
     1
 77
     6
176
     1
 78
     2
176
     1
 67
     7
176
     1
 79
     3
176
     1
170
     0
176
     1
171
     0
176
     1
290
     0
176
     1
 93
        1
176
     1
 44
0.0
176
     1
173
     0
176
     1
  0
VISUALSTYLE
  5
30
102
{ACAD_REACTORS
330
2A
102
}
330
2A
100
AcDbVisualStyle
  2
3dWireframe
 70
     5
177
     2
291
     0
 71
     0
176
     1
 72
     2
176
     1
 73
     0
176
     1
 90
        0
176
     1
 40
-0.6
176
     1
 41
-30.0
176
     1
 62
     5
 63
     7
421
 16777215
176
     1
 74
     1
176
     1
 91
        4
176
     1
 64
     7
176
     1
 65
   257
176
     1
 75
     1
176
     1
175
     1
176
     1
 42
1.0
176
     1
 92
        0
176
     1
 66
   257
176
     1
 43
1.0
176
     1
 76
     1
176
     1
 77
     6
176
     1
 78
     2
176
     1
 67
     7
176
     1
 79
     5
176
     1
170
     0
176
     1
171
     0
176
     1
290
     0
176
     1
 93
        1
176
     1
 44
0.0
176
     1
173
     0
176
     1
  0
VISUALSTYLE
  5
32
102
{ACAD_REACTORS
330
2A
102
}
330
2A
100
AcDbVisualStyle
  2
Basic
 70
     7
177
     2
291
     1
 71
     1
176
     1
 72
     0
176
     1
 73
     1
176
     1
 90
        0
176
     1
 40
-0.6
176
     1
 41
-30.0
176
     1
 62
     5
 63
     7
421
 16777215
176
     1
 74
     0
176
     1
 91
        4
176
     1
 64
     7
176
     1
 65
   257
176
     1
 75
     1
176
     1
175
     1
176
     1
 42
1.0
176
     1
 92
        8
176
     1
 66
     7
176
     1
 43
1.0
176
     1
 76
     1
176
     1
 77
     6
176
     1
 78
     2
176
     1
 67
     7
176
     1
 79
     5
176
     1
170
     0
176
     1
171
     0
176
     1
290
     0
176
     1
 93
        1
176
     1
 44
0.0
176
     1
173
     0
176
     1
  0
VISUALSTYLE
  5
36
102
{ACAD_REACTORS
330
2A
102
}
330
2A
100
AcDbVisualStyle
  2
Brighten
 70
    12
177
     2
291
     1
 71
     2
176
     1
 72
     2
176
     1
 73
     0
176
     1
 90
        0
176
     1
 40
-0.6
176
     1
 41
-30.0
176
     1
 62
     5
 63
     7
421
 16777215
176
     1
 74
     1
176
     1
 91
        4
176
     1
 64
     7
176
     1
 65
   257
176
     1
 75
     1
176
     1
175
     1
176
     1
 42
1.0
176
     1
 92
        8
176
     1
 66
     7
176
     1
 43
1.0
176
     1
 76
     1
176
     1
 77
     6
176
     1
 78
     2
176
     1
 67
     7
176
     1
 79
     5
176
     1
170
     0
176
     1
171
     0
176
     1
290
     0
176
     1
 93
        1
176
     1
 44
50.0
176
     1
173
     0
176
     1
  0
VISUALSTYLE
  5
3A
102
{ACAD_REACTORS
330
2A
102
}
330
2A
100
AcDbVisualStyle
  2
ColorChange
 70
    16
177
     2
291
     1
 71
     2
176
     1
 72
     2
176
     1
 73
     3
176
     1
 90
        0
176
     1
 40
-0.6
176
     1
 41
-30.0
176
     1
 62
     5
 63
     8
421
  8421504
176
     1
 74
     1
176
     1
 91
        4
176
     1
 64
     7
176
     1
 65
   257
176
     1
 75
     1
176
     1
175
     1
176
     1
 42
1.0
176
     1
 92
        8
176
     1
 66
     8
424
  8421504
176
     1
 43
1.0
176
     1
 76
     1
176
     1
 77
     6
176
     1
 78
     2
176
     1
 67
     7
176
     1
 79
     5
176
     1
170
     0
176
     1
171
     0
176
     1
290
     0
176
     1
 93
        1
176
     1
 44
0.0
176
     1
173
     0
176
     1
  0
VISUALSTYLE
  5
34
102
{ACAD_REACTORS
330
2A
102
}
330
2A
100
AcDbVisualStyle
  2
Conceptual
 70
     9
177
     2
291
     0
 71
     3
176
     1
 72
     2
176
     1
 73
     0
176
     1
 90
        0
176
     1
 40
-0.6
176
     1
 41
-30.0
176
     1
 62
     5
 63
     7
421
 16777215
176
     1
 74
     2
176
     1
 91
        2
176
     1
 64
     7
176
     1
 65
   257
176
     1
 75
     1
176
     1
175
     1
176
     1
 42
40.0
176
     1
 92
        8
176
     1
 66
     7
176
     1
 43
1.0
176
     1
 76
     1
176
     1
 77
     6
176
     1
 78
     2
176
     1
 67
     7
176
     1
 79
     3
176
     1
170
     0
176
     1
171
     0
176
     1
290
     0
176
     1
 93
        1
176
     1
 44
0.0
176
     1
173
     0
176
     1
  0
VISUALSTYLE
  5
35
102
{ACAD_REACTORS
330
2A
102
}
330
2A
100
AcDbVisualStyle
  2
Dim
 70
    11
177
     2
291
     1
 71
     2
176
     1
 72
     2
176
     1
 73
     0
176
     1
 90
        0
176
     1
 40
-0.6
176
     1
 41
-30.0
176
     1
 62
     5
 63
     7
421
 16777215
176
     1
 74
     1
176
     1
 91
        4
176
     1
 64
     7
176
     1
 65
   257
176
     1
 75
     1
176
     1
175
     1
176
     1
 42
1.0
176
     1
 92
        8
176
     1
 66
     7
176
     1
 43
1.0
176
     1
 76
     1
176
     1
 77
     6
176
     1
 78
     2
176
     1
 67
     7
176
     1
 79
     5
176
     1
170
     0
176
     1
171
     0
176
     1
290
     0
176
     1
 93
        1
176
     1
 44
-50.0
176
     1
173
     0
176
     1
  0
VISUALSTYLE
  5
39
102
{ACAD_REACTORS
330
2A
102
}
330
2A
100
AcDbVisualStyle
  2
Facepattern
 70
    15
177
     2
291
     1
 71
     2
176
     1
 72
     2
176
     1
 73
     0
176
     1
 90
        0
176
     1
 40
-0.6
176
     1
 41
-30.0
176
     1
 62
     5
 63
     7
421
 16777215
176
     1
 74
     1
176
     1
 91
        4
176
     1
 64
     7
176
     1
 65
   257
176
     1
 75
     1
176
     1
175
     1
176
     1
 42
1.0
176
     1
 92
        8
176
     1
 66
     7
176
     1
 43
1.0
176
     1
 76
     1
176
     1
 77
     6
176
     1
 78
     2
176
     1
 67
     7
176
     1
 79
     5
176
     1
170
     0
176
     1
171
     0
176
     1
290
     0
176
     1
 93
        1
176
     1
 44
0.0
176
     1
173
     0
176
     1
  0
VISUALSTYLE
  5
2B
102
{ACAD_REACTORS
330
2A
102
}
330
2A
100
AcDbVisualStyle
  2
Flat
 70
     0
177
     2
291
     1
 71
     2
176
     1
 72
     1
176
     1
 73
     1
176
     1
 90
        2
176
     1
 40
-0.6
176
     1
 41
30.0
176
     1
 62
     5
 63
     7
421
 16777215
176
     1
 74
     0
176
     1
 91
        4
176
     1
 64
     7
176
     1
 65
   257
176
     1
 75
     1
176
     1
175
     1
176
     1
 42
1.0
176
     1
 92
        8
176
     1
 66
     7
176
     1
 43
1.0
176
     1
 76
     1
176
     1
 77
     6
176
     1
 78
     2
176
     1
 67
     7
176
     1
 79
     5
176
     1
170
     0
176
     1
171
     0
176
     1
290
     0
176
     1
 93
       13
176
     1
 44
0.0
176
     1
173
     0
176
     1
  0
VISUALSTYLE
  5
2C
102
{ACAD_REACTORS
330
2A
102
}
330
2A
100
AcDbVisualStyle
  2
FlatWithEdges
 70
     1
177
     2
291
     1
 71
     2
176
     1
 72
     1
176
     1
 73
     1
176
     1
 90
        2
176
     1
 40
-0.6
176
     1
 41
30.0
176
     1
 62
     5
 63
     7
421
 16777215
176
     1
 74
     1
176
     1
 91
        4
176
     1
 64
     7
176
     1
 65
   257
176
     1
 75
     1
176
     1
175
     1
176
     1
 42
1.0
176
     1
 92
        0
176
     1
 66
   257
176
     1
 43
1.0
176
     1
 76
     1
176
     1
 77
     6
176
     1
 78
     2
176
     1
 67
     7
176
     1
 79
     5
176
     1
170
     0
176
     1
171
     0
176
     1
290
     0
176
     1
 93
       13
176
     1
 44
0.0
176
     1
173
     0
176
     1
  0
VISUALSTYLE
  5
2D
102
{ACAD_REACTORS
330
2A
102
}
330
2A
100
AcDbVisualStyle
  2
Gouraud
 70
     2
177
     2
291
     1
 71
     2
176
     1
 72
     2
176
     1
 73
     1
176
     1
 90
        2
176
     1
 40
-0.6
176
     1
 41
30.0
176
     1
 62
     5
 63
     7
421
 16777215
176
     1
 74
     0
176
     1
 91
        4
176
     1
 64
     7
176
     1
 65
   257
176
     1
 75
     1
176
     1
175
     1
176
     1
 42
1.0
176
     1
 92
        0
176
     1
 66
     7
176
     1
 43
1.0
176
     1
 76
     1
176
     1
 77
     6
176
     1
 78
     2
176
     1
 67
     7
176
     1
 79
     5
176
     1
170
     0
176
     1
171
     0
176
     1
290
     0
176
     1
 93
       13
176
     1
 44
0.0
176
     1
173
     0
176
     1
  0
VISUALSTYLE
  5
2E
102
{ACAD_REACTORS
330
2A
102
}
330
2A
100
AcDbVisualStyle
  2
GouraudWithEdges
 70
     3
177
     2
291
     1
 71
     2
176
     1
 72
     2
176
     1
 73
     1
176
     1
 90
        2
176
     1
 40
-0.6
176
     1
 41
30.0
176
     1
 62
     5
 63
     7
421
 16777215
176
     1
 74
     1
176
     1
 91
        4
176
     1
 64
     7
176
     1
 65
   257
176
     1
 75
     1
176
     1
175
     1
176
     1
 42
1.0
176
     1
 92
        0
176
     1
 66
   257
176
     1
 43
1.0
176
     1
 76
     1
176
     1
 77
     6
176
     1
 78
     2
176
     1
 67
     7
176
     1
 79
     5
176
     1
170
     0
176
     1
171
     0
176
     1
290
     0
176
     1
 93
       13
176
     1
 44
0.0
176
     1
173
     0
176
     1
  0
VISUALSTYLE
  5
38
102
{ACAD_REACTORS
330
2A
102
}
330
2A
100
AcDbVisualStyle
  2
Linepattern
 70
    14
177
     2
291
     1
 71
     2
176
     1
 72
     2
176
     1
 73
     0
176
     1
 90
        0
176
     1
 40
-0.6
176
     1
 41
-30.0
176
     1
 62
     5
 63
     7
421
 16777215
176
     1
 74
     1
176
     1
 91
        4
176
     1
 64
     7
176
     1
 65
   257
176
     1
 75
     7
176
     1
175
     7
176
     1
 42
1.0
176
     1
 92
        8
176
     1
 66
     7
176
     1
 43
1.0
176
     1
 76
     1
176
     1
 77
     6
176
     1
 78
     2
176
     1
 67
     7
176
     1
 79
     5
176
     1
170
     0
176
     1
171
     0
176
     1
290
     0
176
     1
 93
        1
176
     1
 44
0.0
176
     1
173
     0
176
     1
  0
VISUALSTYLE
  5
33
102
{ACAD_REACTORS
330
2A
102
}
330
2A
100
AcDbVisualStyle
  2
Realistic
 70
     8
177
     2
291
     0
 71
     2
176
     1
 72
     2
176
     1
 73
     0
176
     1
 90
        0
176
     1
 40
-0.6
176
     1
 41
-30.0
176
     1
 62
     5
 63
     7
421
 16777215
176
     1
 74
     1
176
     1
 91
        0
176
     1
 64
     7
176
     1
 65
   257
176
     1
 75
     1
176
     1
175
     1
176
     1
 42
1.0
176
     1
 92
        8
176
     1
 66
     8
424
  7895160
176
     1
 43
1.0
176
     1
 76
     1
176
     1
 77
     6
176
     1
 78
     2
176
     1
 67
     7
176
     1
 79
     5
176
     1
170
     0
176
     1
171
     0
176
     1
290
     0
176
     1
 93
       13
176
     1
 44
0.0
176
     1
173
     0
176
     1
  0
VISUALSTYLE
  5
37
102
{ACAD_REACTORS
330
2A
102
}
330
2A
100
AcDbVisualStyle
  2
Thicken
 70
    13
177
     2
291
     1
 71
     2
176
     1
 72
     2
176
     1
 73
     0
176
     1
 90
        0
176
     1
 40
-0.6
176
     1
 41
-30.0
176
     1
 62
     5
 63
     7
421
 16777215
176
     1
 74
     1
176
     1
 91
        4
176
     1
 64
     7
176
     1
 65
   257
176
     1
 75
     1
176
     1
175
     1
176
     1
 42
1.0
176
     1
 92
       12
176
     1
 66
     7
176
     1
 43
1.0
176
     1
 76
     1
176
     1
 77
     6
176
     1
 78
     2
176
     1
 67
     7
176
     1
 79
     5
176
     1
170
     0
176
     1
171
     0
176
     1
290
     0
176
     1
 93
        1
176
     1
 44
0.0
176
     1
173
     0
176
     1
  0
ENDSEC
  0
EOF
