  0
SECTION
  2
HEADER
  9
$ACADVER
  1
AC1024
  9
$ACADMAINTVER
 70
     6
  9
$DWGCODEPAGE
  3
ANSI_1252
  9
$INSBASE
 10
0.0
 20
0.0
 30
0.0
  9
$EXTMIN
 10
1.000000000000000E+20
 20
1.000000000000000E+20
 30
1.000000000000000E+20
  9
$EXTMAX
 10
-1.000000000000000E+20
 20
-1.000000000000000E+20
 30
-1.000000000000000E+20
  9
$LIMMIN
 10
0.0
 20
0.0
  9
$LIMMAX
 10
12.0
 20
9.0
  9
$ORTHOMODE
 70
     0
  9
$REGENMODE
 70
     1
  9
$FILLMODE
 70
     1
  9
$QTEXTMODE
 70
     0
  9
$MIRRTEXT
 70
     1
  9
$LTSCALE
 40
1.0
  9
$ATTMODE
 70
     1
  9
$TEXTSIZE
 40
0.2
  9
$TRACEWID
 40
0.05
  9
$TEXTSTYLE
  7
Standard
  9
$CLAYER
  8
0
  9
$CELTYPE
  6
ByLayer
  9
$CECOLOR
 62
   256
  9
$CELTSCALE
 40
1.0
  9
$DISPSILH
 70
     0
  9
$DIMSCALE
 40
1.0
  9
$DIMASZ
 40
0.18
  9
$DIMEXO
 40
0.0625
  9
$DIMDLI
 40
0.38
  9
$DIMRND
 40
0.0
  9
$DIMDLE
 40
0.0
  9
$DIMEXE
 40
0.18
  9
$DIMTP
 40
0.0
  9
$DIMTM
 40
0.0
  9
$DIMTXT
 40
0.18
  9
$DIMCEN
 40
0.09
  9
$DIMTSZ
 40
0.0
  9
$DIMTOL
 70
     0
  9
$DIMLIM
 70
     0
  9
$DIMTIH
 70
     1
  9
$DIMTOH
 70
     1
  9
$DIMSE1
 70
     0
  9
$DIMSE2
 70
     0
  9
$DIMTAD
 70
     0
  9
$DIMZIN
 70
     0
  9
$DIMBLK
  1

  9
$DIMASO
 70
     1
  9
$DIMSHO
 70
     1
  9
$DIMPOST
  1

  9
$DIMAPOST
  1

  9
$DIMALT
 70
     0
  9
$DIMALTD
 70
     2
  9
$DIMALTF
 40
25.4
  9
$DIMLFAC
 40
1.0
  9
$DIMTOFL
 70
     0
  9
$DIMTVP
 40
0.0
  9
$DIMTIX
 70
     0
  9
$DIMSOXD
 70
     0
  9
$DIMSAH
 70
     0
  9
$DIMBLK1
  1

  9
$DIMBLK2
  1

  9
$DIMSTYLE
  2
Standard
  9
$DIMCLRD
 70
     0
  9
$DIMCLRE
 70
     0
  9
$DIMCLRT
 70
     0
  9
$DIMTFAC
 40
1.0
  9
$DIMGAP
 40
0.09
  9
$DIMJUST
 70
     0
  9
$DIMSD1
 70
     0
  9
$DIMSD2
 70
     0
  9
$DIMTOLJ
 70
     1
  9
$DIMTZIN
 70
     0
  9
$DIMALTZ
 70
     0
  9
$DIMALTTZ
 70
     0
  9
$DIMUPT
 70
     0
  9
$DIMDEC
 70
     4
  9
$DIMTDEC
 70
     4
  9
$DIMALTU
 70
     2
  9
$DIMALTTD
 70
     2
  9
$DIMTXSTY
  7
Standard
  9
$DIMAUNIT
 70
     0
  9
$DIMADEC
 70
     0
  9
$DIMALTRND
 40
0.0
  9
$DIMAZIN
 70
     0
  9
$DIMDSEP
 70
    46
  9
$DIMATFIT
 70
     3
  9
$DIMFRAC
 70
     0
  9
$DIMLDRBLK
  1

  9
$DIMLUNIT
 70
     2
  9
$DIMLWD
 70
    -2
  9
$DIMLWE
 70
    -2
  9
$DIMTMOVE
 70
     0
  9
$DIMFXL
 40
1.0
  9
$DIMFXLON
 70
     0
  9
$DIMJOGANG
 40
0.7853981633974483
  9
$DIMTFILL
 70
     0
  9
$DIMTFILLCLR
 70
     0
  9
$DIMARCSYM
 70
     0
  9
$DIMLTYPE
  6

  9
$DIMLTEX1
  6

  9
$DIMLTEX2
  6

  9
$DIMTXTDIRECTION
 70
     0
  9
$LUNITS
 70
     2
  9
$LUPREC
 70
     4
  9
$SKETCHINC
 40
0.1
  9
$FILLETRAD
 40
0.5
  9
$AUNITS
 70
     0
  9
$AUPREC
 70
     0
  9
$MENU
  1
.
  9
$ELEVATION
 40
0.0
  9
$PELEVATION
 40
0.0
  9
$THICKNESS
 40
0.0
  9
$LIMCHECK
 70
     0
  9
$CHAMFERA
 40
0.5
  9
$CHAMFERB
 40
0.5
  9
$CHAMFERC
 40
1.0
  9
$CHAMFERD
 40
0.0
  9
$SKPOLY
 70
     0
  9
$TDCREATE
 40
2458787.646025232
  9
$TDUCREATE
 40
2458787.104358565
  9
$TDUPDATE
 40
2458787.646025382
  9
$TDUUPDATE
 40
2458787.104358715
  9
$TDINDWG
 40
0.0000000116
  9
$TDUSRTIMER
 40
0.0000000116
  9
$USRTIMER
 70
     1
  9
$ANGBASE
 50
0.0
  9
$ANGDIR
 70
     0
  9
$PDMODE
 70
     0
  9
$PDSIZE
 40
0.0
  9
$PLINEWID
 40
0.0
  9
$SPLFRAME
 70
     0
  9
$SPLINETYPE
 70
     6
  9
$SPLINESEGS
 70
     8
  9
$HANDSEED
  5
197
  9
$SURFTAB1
 70
     6
  9
$SURFTAB2
 70
     6
  9
$SURFTYPE
 70
     6
  9
$SURFU
 70
     6
  9
$SURFV
 70
     6
  9
$UCSBASE
  2

  9
$UCSNAME
  2

  9
$UCSORG
 10
0.0
 20
0.0
 30
0.0
  9
$UCSXDIR
 10
1.0
 20
0.0
 30
0.0
  9
$UCSYDIR
 10
0.0
 20
1.0
 30
0.0
  9
$UCSORTHOREF
  2

  9
$UCSORTHOVIEW
 70
     0
  9
$UCSORGTOP
 10
0.0
 20
0.0
 30
0.0
  9
$UCSORGBOTTOM
 10
0.0
 20
0.0
 30
0.0
  9
$UCSORGLEFT
 10
0.0
 20
0.0
 30
0.0
  9
$UCSORGRIGHT
 10
0.0
 20
0.0
 30
0.0
  9
$UCSORGFRONT
 10
0.0
 20
0.0
 30
0.0
  9
$UCSORGBACK
 10
0.0
 20
0.0
 30
0.0
  9
$PUCSBASE
  2

  9
$PUCSNAME
  2

  9
$PUCSORG
 10
0.0
 20
0.0
 30
0.0
  9
$PUCSXDIR
 10
1.0
 20
0.0
 30
0.0
  9
$PUCSYDIR
 10
0.0
 20
1.0
 30
0.0
  9
$PUCSORTHOREF
  2

  9
$PUCSORTHOVIEW
 70
     0
  9
$PUCSORGTOP
 10
0.0
 20
0.0
 30
0.0
  9
$PUCSORGBOTTOM
 10
0.0
 20
0.0
 30
0.0
  9
$PUCSORGLEFT
 10
0.0
 20
0.0
 30
0.0
  9
$PUCSORGRIGHT
 10
0.0
 20
0.0
 30
0.0
  9
$PUCSORGFRONT
 10
0.0
 20
0.0
 30
0.0
  9
$PUCSORGBACK
 10
0.0
 20
0.0
 30
0.0
  9
$USERI1
 70
     0
  9
$USERI2
 70
     0
  9
$USERI3
 70
     0
  9
$USERI4
 70
     0
  9
$USERI5
 70
     0
  9
$USERR1
 40
0.0
  9
$USERR2
 40
0.0
  9
$USERR3
 40
0.0
  9
$USERR4
 40
0.0
  9
$USERR5
 40
0.0
  9
$WORLDVIEW
 70
     1
  9
$SHADEDGE
 70
     3
  9
$SHADEDIF
 70
    70
  9
$TILEMODE
 70
     1
  9
$MAXACTVP
 70
    64
  9
$PINSBASE
 10
0.0
 20
0.0
 30
0.0
  9
$PLIMCHECK
 70
     0
  9
$PEXTMIN
 10
1.000000000000000E+20
 20
1.000000000000000E+20
 30
1.000000000000000E+20
  9
$PEXTMAX
 10
-1.000000000000000E+20
 20
-1.000000000000000E+20
 30
-1.000000000000000E+20
  9
$PLIMMIN
 10
0.0
 20
0.0
  9
$PLIMMAX
 10
12.0
 20
9.0
  9
$UNITMODE
 70
     0
  9
$VISRETAIN
 70
     1
  9
$PLINEGEN
 70
     0
  9
$PSLTSCALE
 70
     1
  9
$TREEDEPTH
 70
  3020
  9
$CMLSTYLE
  2
Standard
  9
$CMLJUST
 70
     0
  9
$CMLSCALE
 40
1.0
  9
$PROXYGRAPHICS
 70
     1
  9
$MEASUREMENT
 70
     0
  9
$CELWEIGHT
370
    -1
  9
$ENDCAPS
280
     0
  9
$JOINSTYLE
280
     0
  9
$LWDISPLAY
290
     1
  9
$INSUNITS
 70
     0
  9
$HYPERLINKBASE
  1

  9
$STYLESHEET
  1

  9
$XEDIT
290
     1
  9
$CEPSNTYPE
380
     0
  9
$PSTYLEMODE
290
     1
  9
$FINGERPRINTGUID
  2
{ECE6FF4C-9E24-4FD0-9BB1-BB9E4C24A0BB}
  9
$VERSIONGUID
  2
{FAEB1C32-E019-11D5-929B-00C0DF256EC4}
  9
$EXTNAMES
290
     1
  9
$PSVPSCALE
 40
0.0
  9
$OLESTARTUP
290
     0
  9
$SORTENTS
280
   127
  9
$INDEXCTL
280
     0
  9
$HIDETEXT
280
     1
  9
$XCLIPFRAME
280
     2
  9
$HALOGAP
280
     0
  9
$OBSCOLOR
 70
   257
  9
$OBSLTYPE
280
     0
  9
$INTERSECTIONDISPLAY
280
     0
  9
$INTERSECTIONCOLOR
 70
   257
  9
$DIMASSOC
280
     2
  9
$PROJECTNAME
  1

  9
$CAMERADISPLAY
290
     0
  9
$LENSLENGTH
 40
50.0
  9
$CAMERAHEIGHT
 40
0.0
  9
$STEPSPERSEC
 40
2.0
  9
$STEPSIZE
 40
6.0
  9
$3DDWFPREC
 40
2.0
  9
$PSOLWIDTH
 40
0.25
  9
$PSOLHEIGHT
 40
4.0
  9
$LOFTANG1
 40
1.570796326794897
  9
$LOFTANG2
 40
1.570796326794897
  9
$LOFTMAG1
 40
0.0
  9
$LOFTMAG2
 40
0.0
  9
$LOFTPARAM
 70
     7
  9
$LOFTNORMALS
280
     1
  9
$LATITUDE
 40
37.795
  9
$LONGITUDE
 40
-122.394
  9
$NORTHDIRECTION
 40
0.0
  9
$TIMEZONE
 70
 -8000
  9
$LIGHTGLYPHDISPLAY
280
     1
  9
$TILEMODELIGHTSYNCH
280
     1
  9
$CMATERIAL
347
3C
  9
$SOLIDHIST
280
     1
  9
$SHOWHIST
280
     1
  9
$DWFFRAME
280
     2
  9
$DGNFRAME
280
     2
  9
$REALWORLDSCALE
290
     1
  9
$INTERFERECOLOR
 62
   256
  9
$CSHADOW
280
     0
  9
$SHADOWPLANELOCATION
 40
0.0
  0
ENDSEC
  0
SECTION
  2
CLASSES
  0
CLASS
  1
ACDBDICTIONARYWDFLT
  2
AcDbDictionaryWithDefault
  3
ObjectDBX Classes
 90
        0
 91
        4
280
     0
281
     0
  0
CLASS
  1
VISUALSTYLE
  2
AcDbVisualStyle
  3
ObjectDBX Classes
 90
     4095
 91
        4
280
     0
281
     0
  0
CLASS
  1
MATERIAL
  2
AcDbMaterial
  3
ObjectDBX Classes
 90
     1153
 91
        4
280
     0
281
     0
  0
CLASS
  1
SUN
  2
AcDbSun
  3
SCENEOE
 90
     1024
 91
        4
280
     0
281
     0
  0
ENDSEC
  0
SECTION
  2
TABLES
  0
TABLE
  2
VPORT
  5
8
330
0
100
AcDbSymbolTable
 70
     1
  0
VPORT
  5
29
330
8
100
AcDbSymbolTableRecord
100
AcDbViewportTableRecord
  2
*Active
 70
     0
 10
0.0
 20
0.0
 11
1.0
 21
1.0
 12
0.0
 22
0.0
 13
0.0
 23
0.0
 14
0.5
 24
0.5
 15
0.5
 25
0.5
 16
0.0
 26
0.0
 36
1.0
 17
316.4748420051728
 27
491.3559375873047
 37
0.0
 40
841.8897637795271
 41
0.7070707070707065
 42
50.0
 43
0.0
 44
0.0
 50
0.0
 51
0.0
 71
     0
 72
   100
 73
     1
 74
     3
 75
     0
 76
     0
 77
     0
 78
     0
281
     0
 65
     1
110
0.0
120
0.0
130
0.0
111
1.0
121
0.0
131
0.0
112
0.0
122
1.0
132
0.0
 79
     0
146
0.0
 60
     3
 61
     5
292
     1
282
     1
141
0.0
142
0.0
 63
   250
361
3F
  0
ENDTAB
  0
TABLE
  2
LTYPE
  5
5
330
0
100
AcDbSymbolTable
 70
     1
  0
LTYPE
  5
14
330
5
100
AcDbSymbolTableRecord
100
AcDbLinetypeTableRecord
  2
ByBlock
 70
     0
  3

 72
    65
 73
     0
 40
0.0
  0
LTYPE
  5
15
330
5
100
AcDbSymbolTableRecord
100
AcDbLinetypeTableRecord
  2
ByLayer
 70
     0
  3

 72
    65
 73
     0
 40
0.0
  0
LTYPE
  5
16
330
5
100
AcDbSymbolTableRecord
100
AcDbLinetypeTableRecord
  2
Continuous
 70
     0
  3
Solid line
 72
    65
 73
     0
 40
0.0
  0
ENDTAB
  0
TABLE
  2
LAYER
  5
2
330
0
100
AcDbSymbolTable
 70
     3
  0
LAYER
  5
10
330
2
100
AcDbSymbolTableRecord
100
AcDbLayerTableRecord
  2
0
 70
     0
 62
     7
  6
Continuous
370
    -3
390
F
347
3E
  0
LAYER
  5
40
330
2
100
AcDbSymbolTableRecord
100
AcDbLayerTableRecord
  2
Layer 1
 70
     0
 62
     7
  6
Continuous
370
    -3
390
F
347
3E
  0
LAYER
  5
16C
330
2
100
AcDbSymbolTableRecord
100
AcDbLayerTableRecord
  2
callout
 70
     0
 62
     7
  6
Continuous
370
    -3
390
F
347
3E
  0
ENDTAB
  0
TABLE
  2
STYLE
  5
3
330
0
100
AcDbSymbolTable
 70
     1
  0
STYLE
  5
11
330
3
100
AcDbSymbolTableRecord
100
AcDbTextStyleTableRecord
  2
Standard
 70
     0
 40
0.0
 41
1.0
 50
0.0
 71
     0
 42
0.2
  3
txt
  4

  0
ENDTAB
  0
TABLE
  2
VIEW
  5
6
330
0
100
AcDbSymbolTable
 70
     0
  0
ENDTAB
  0
TABLE
  2
UCS
  5
7
330
0
100
AcDbSymbolTable
 70
     0
  0
ENDTAB
  0
TABLE
  2
APPID
  5
9
330
0
100
AcDbSymbolTable
 70
     1
  0
APPID
  5
12
330
9
100
AcDbSymbolTableRecord
100
AcDbRegAppTableRecord
  2
ACAD
 70
     0
  0
ENDTAB
  0
TABLE
  2
DIMSTYLE
  5
A
330
0
100
AcDbSymbolTable
 70
     1
100
AcDbDimStyleTable
  0
DIMSTYLE
105
27
330
A
100
AcDbSymbolTableRecord
100
AcDbDimStyleTableRecord
  2
Standard
 70
     0
178
     0
340
11
  0
ENDTAB
  0
TABLE
  2
BLOCK_RECORD
  5
1
330
0
100
AcDbSymbolTable
 70
     3
  0
BLOCK_RECORD
  5
1F
330
1
100
AcDbSymbolTableRecord
100
AcDbBlockTableRecord
  2
*Model_Space
340
22
 70
     0
280
     1
281
     0
  0
BLOCK_RECORD
  5
1B
330
1
100
AcDbSymbolTableRecord
100
AcDbBlockTableRecord
  2
*Paper_Space
340
1E
 70
     0
280
     1
281
     0
  0
BLOCK_RECORD
  5
23
330
1
100
AcDbSymbolTableRecord
100
AcDbBlockTableRecord
  2
*Paper_Space0
340
26
 70
     0
280
     1
281
     0
  0
BLOCK_RECORD
  5
16D
330
1
100
AcDbSymbolTableRecord
100
AcDbBlockTableRecord
  2
block 2
340
0
102
{BLKREFS
331
16E
102
}
 70
     0
280
     1
281
     0
  0
BLOCK_RECORD
  5
173
330
1
100
AcDbSymbolTableRecord
100
AcDbBlockTableRecord
  2
block 3
340
0
102
{BLKREFS
331
174
102
}
 70
     0
280
     1
281
     0
  0
ENDTAB
  0
ENDSEC
  0
SECTION
  2
BLOCKS
  0
BLOCK
  5
20
330
1F
100
AcDbEntity
  8
0
100
AcDbBlockBegin
  2
*Model_Space
 70
     0
 10
0.0
 20
0.0
 30
0.0
  3
*Model_Space
  1

  0
ENDBLK
  5
21
330
1F
100
AcDbEntity
  8
0
100
AcDbBlockEnd
  0
BLOCK
  5
1C
330
1B
100
AcDbEntity
 67
     1
  8
0
100
AcDbBlockBegin
  2
*Paper_Space
 70
     0
 10
0.0
 20
0.0
 30
0.0
  3
*Paper_Space
  1

  0
ENDBLK
  5
1D
330
1B
100
AcDbEntity
 67
     1
  8
0
100
AcDbBlockEnd
  0
BLOCK
  5
24
330
23
100
AcDbEntity
  8
0
100
AcDbBlockBegin
  2
*Paper_Space0
 70
     0
 10
0.0
 20
0.0
 30
0.0
  3
*Paper_Space0
  1

  0
ENDBLK
  5
25
330
23
100
AcDbEntity
  8
0
100
AcDbBlockEnd
  0
BLOCK
  5
16F
330
16D
100
AcDbEntity
  8
0
100
AcDbBlockBegin
  2
block 2
 70
     0
 10
0.0
 20
0.0
 30
0.0
  3
block 2
  1

  0
MTEXT
  5
171
330
16D
100
AcDbEntity
  8
callout
 62
   250
420
  2301728
100
AcDbMText
 10
376.0404586791992
 20
454.4355945587158
 30
0.0
 40
8.495999999999999
 41
0.0
 46
0.0
 71
     7
 72
     1
  1
\fHelvetica Neue LT Std 57 Condensed|b0|i0|c0|p34;\W1;Post
 73
     1
 44
1.0
  0
MTEXT
  5
172
330
16D
100
AcDbEntity
  8
callout
 62
   250
420
  2301728
100
AcDbMText
 10
216.690185546875
 20
687.1704406738281
 30
0.0
 40
8.495999999999999
 41
0.0
 46
0.0
 71
     7
 72
     1
  1
\fHelvetica Neue LT Std 57 Condensed|b0|i0|c0|p34;\W1;Beam
 73
     1
 44
1.0
  0
INSERT
  5
174
330
16D
100
AcDbEntity
  8
callout
100
AcDbBlockReference
  2
block 3
 10
0.0
 20
0.0
 30
0.0
  0
POLYLINE
  5
182
330
16D
100
AcDbEntity
  8
callout
 62
   250
420
  2301728
370
    25
100
AcDb2dPolyline
 66
     1
 10
0.0
 20
0.0
 30
0.0
  0
VERTEX
  5
183
330
182
100
AcDbEntity
  8
callout
 62
   250
420
  2301728
370
    25
100
AcDbVertex
100
AcDb2dVertex
 10
285.9223401085683
 20
664.7487826841871
 30
0.0
  0
VERTEX
  5
184
330
182
100
AcDbEntity
  8
callout
 62
   250
420
  2301728
370
    25
100
AcDbVertex
100
AcDb2dVertex
 10
260.2499943937419
 20
689.4929260708213
 30
0.0
  0
VERTEX
  5
185
330
182
100
AcDbEntity
  8
callout
 62
   250
420
  2301728
370
    25
100
AcDbVertex
100
AcDb2dVertex
 10
245.256794772502
 20
689.4929260701465
 30
0.0
  0
SEQEND
  5
186
330
182
100
AcDbEntity
  8
callout
 62
   250
420
  2301728
370
    25
  0
POLYLINE
  5
187
330
16D
100
AcDbEntity
  8
callout
370
     0
100
AcDb2dPolyline
 66
     1
 10
0.0
 20
0.0
 30
0.0
  0
VERTEX
  5
188
330
187
100
AcDbEntity
  8
callout
370
     0
100
AcDbVertex
100
AcDb2dVertex
 10
285.8695937474449
 20
669.2563265831914
 30
0.0
  0
VERTEX
  5
189
330
187
100
AcDbEntity
  8
callout
370
     0
100
AcDbVertex
100
AcDb2dVertex
 10
281.581543855963
 20
664.9680266913301
 30
0.0
  0
VERTEX
  5
18A
330
187
100
AcDbEntity
  8
callout
370
     0
100
AcDbVertex
100
AcDb2dVertex
 10
289.7553401087425
 20
660.8688767952499
 30
0.0
  0
VERTEX
  5
18B
330
187
100
AcDbEntity
  8
callout
370
     0
100
AcDbVertex
100
AcDb2dVertex
 10
285.8695937474449
 20
669.2563265831914
 30
0.0
  0
SEQEND
  5
18D
330
187
100
AcDbEntity
  8
callout
370
     0
  0
HATCH
  5
18C
330
16D
100
AcDbEntity
  8
callout
 62
   250
420
  2301728
100
AcDbHatch
 10
0.0
 20
0.0
 30
0.0
210
0.0
220
0.0
230
1.0
  2
SOLID
 70
     1
 71
     0
 91
        1
 92
        1
 93
        3
 72
     1
 10
285.8695937474449
 20
669.2563265831914
 11
281.581543855963
 21
664.9680266913301
 72
     1
 10
281.581543855963
 20
664.9680266913301
 11
289.7553401087425
 21
660.8688767952499
 72
     1
 10
289.7553401087425
 20
660.8688767952499
 11
285.8695937474449
 21
669.2563265831914
 97
        0
 75
     2
 76
     1
 98
        0
  0
ENDBLK
  5
170
330
16D
100
AcDbEntity
  8
0
100
AcDbBlockEnd
  0
BLOCK
  5
175
330
173
100
AcDbEntity
  8
0
100
AcDbBlockBegin
  2
block 3
 70
     0
 10
0.0
 20
0.0
 30
0.0
  3
block 3
  1

  0
POLYLINE
  5
177
330
173
100
AcDbEntity
  8
callout
 62
   250
420
  2301728
370
    25
100
AcDb2dPolyline
 66
     1
 10
0.0
 20
0.0
 30
0.0
  0
VERTEX
  5
178
330
177
100
AcDbEntity
  8
callout
 62
   250
420
  2301728
370
    25
100
AcDbVertex
100
AcDb2dVertex
 10
373.0129990425976
 20
457.4890370805242
 30
0.0
  0
VERTEX
  5
179
330
177
100
AcDbEntity
  8
callout
 62
   250
420
  2301728
370
    25
100
AcDbVertex
100
AcDb2dVertex
 10
357.3474537076418
 20
457.4890370805242
 30
0.0
  0
SEQEND
  5
17A
330
177
100
AcDbEntity
  8
callout
 62
   250
420
  2301728
370
    25
  0
POLYLINE
  5
17B
330
173
100
AcDbEntity
  8
callout
370
     0
100
AcDb2dPolyline
 66
     1
 10
0.0
 20
0.0
 30
0.0
  0
VERTEX
  5
17C
330
17B
100
AcDbEntity
  8
callout
370
     0
100
AcDbVertex
100
AcDb2dVertex
 10
359.8259537076392
 20
460.5002797015914
 30
0.0
  0
VERTEX
  5
17D
330
17B
100
AcDbEntity
  8
callout
370
     0
100
AcDbVertex
100
AcDb2dVertex
 10
359.8259537076392
 20
454.4357798547944
 30
0.0
  0
VERTEX
  5
17E
330
17B
100
AcDbEntity
  8
callout
370
     0
100
AcDbVertex
100
AcDb2dVertex
 10
351.2224537076418
 20
457.4055370805254
 30
0.0
  0
VERTEX
  5
17F
330
17B
100
AcDbEntity
  8
callout
370
     0
100
AcDbVertex
100
AcDb2dVertex
 10
359.8259537076392
 20
460.5002797015914
 30
0.0
  0
SEQEND
  5
181
330
17B
100
AcDbEntity
  8
callout
370
     0
  0
HATCH
  5
180
330
173
100
AcDbEntity
  8
callout
 62
   250
420
  2301728
100
AcDbHatch
 10
0.0
 20
0.0
 30
0.0
210
0.0
220
0.0
230
1.0
  2
SOLID
 70
     1
 71
     0
 91
        1
 92
        1
 93
        3
 72
     1
 10
359.8259537076392
 20
460.5002797015914
 11
359.8259537076392
 21
454.4357798547944
 72
     1
 10
359.8259537076392
 20
454.4357798547944
 11
351.2224537076418
 21
457.4055370805254
 72
     1
 10
351.2224537076418
 20
457.4055370805254
 11
359.8259537076392
 21
460.5002797015914
 97
        0
 75
     2
 76
     1
 98
        0
  0
ENDBLK
  5
176
330
173
100
AcDbEntity
  8
0
100
AcDbBlockEnd
  0
ENDSEC
  0
SECTION
  2
ENTITIES
  0
POLYLINE
  5
41
330
1F
100
AcDbEntity
  8
Layer 1
 62
   250
420
  2301728
370
    50
100
AcDb2dPolyline
 66
     1
 10
0.0
 20
0.0
 30
0.0
  0
VERTEX
  5
42
330
41
100
AcDbEntity
  8
Layer 1
 62
   250
420
  2301728
370
    50
100
AcDbVertex
100
AcDb2dVertex
 10
215.0986214079603
 20
430.7525091656116
 30
0.0
  0
VERTEX
  5
43
330
41
100
AcDbEntity
  8
Layer 1
 62
   250
420
  2301728
370
    50
100
AcDbVertex
100
AcDb2dVertex
 10
215.0986214079603
 20
642.0297572378468
 30
0.0
  0
VERTEX
  5
44
330
41
100
AcDbEntity
  8
Layer 1
 62
   250
420
  2301728
370
    50
100
AcDbVertex
100
AcDb2dVertex
 10
386.1205796774448
 20
682.0029562846057
 30
0.0
  0
VERTEX
  5
45
330
41
100
AcDbEntity
  8
Layer 1
 62
   250
420
  2301728
370
    50
100
AcDbVertex
100
AcDb2dVertex
 10
430.6353936721116
 20
648.3646774595973
 30
0.0
  0
VERTEX
  5
46
330
41
100
AcDbEntity
  8
Layer 1
 62
   250
420
  2301728
370
    50
100
AcDbVertex
100
AcDb2dVertex
 10
430.6353936721116
 20
599.8813885730224
 30
0.0
  0
VERTEX
  5
47
330
41
100
AcDbEntity
  8
Layer 1
 62
   250
420
  2301728
370
    50
100
AcDbVertex
100
AcDb2dVertex
 10
437.7509368271312
 20
595.4924046372244
 30
0.0
  0
VERTEX
  5
48
330
41
100
AcDbEntity
  8
Layer 1
 62
   250
420
  2301728
370
    50
100
AcDbVertex
100
AcDb2dVertex
 10
427.0261543809538
 20
587.3863503088187
 30
0.0
  0
VERTEX
  5
49
330
41
100
AcDbEntity
  8
Layer 1
 62
   250
420
  2301728
370
    50
100
AcDbVertex
100
AcDb2dVertex
 10
430.6353936721116
 20
585.3183091612964
 30
0.0
  0
VERTEX
  5
4A
330
41
100
AcDbEntity
  8
Layer 1
 62
   250
420
  2301728
370
    50
100
AcDbVertex
100
AcDb2dVertex
 10
430.6353936721116
 20
533.0884166420201
 30
0.0
  0
VERTEX
  5
4B
330
41
100
AcDbEntity
  8
Layer 1
 62
   250
420
  2301728
370
    50
100
AcDbVertex
100
AcDb2dVertex
 10
349.7641576524748
 20
523.4513068337374
 30
0.0
  0
VERTEX
  5
4C
330
41
100
AcDbEntity
  8
Layer 1
 62
   250
420
  2301728
370
    50
100
AcDbVertex
100
AcDb2dVertex
 10
349.7641576524748
 20
427.7196028726694
 30
0.0
  0
VERTEX
  5
4D
330
41
100
AcDbEntity
  8
Layer 1
 62
   250
420
  2301728
370
    50
100
AcDbVertex
100
AcDb2dVertex
 10
318.4510601433321
 20
426.5943394814585
 30
0.0
  0
VERTEX
  5
4E
330
41
100
AcDbEntity
  8
Layer 1
 62
   250
420
  2301728
370
    50
100
AcDbVertex
100
AcDb2dVertex
 10
315.0134384502398
 20
418.4838709677424
 30
0.0
  0
VERTEX
  5
4F
330
41
100
AcDbEntity
  8
Layer 1
 62
   250
420
  2301728
370
    50
100
AcDbVertex
100
AcDb2dVertex
 10
253.72874148357
 20
422.4395072940961
 30
0.0
  0
VERTEX
  5
50
330
41
100
AcDbEntity
  8
Layer 1
 62
   250
420
  2301728
370
    50
100
AcDbVertex
100
AcDb2dVertex
 10
251.847810715708
 20
427.6407325538021
 30
0.0
  0
VERTEX
  5
51
330
41
100
AcDbEntity
  8
Layer 1
 62
   250
420
  2301728
370
    50
100
AcDbVertex
100
AcDb2dVertex
 10
215.0986214079603
 20
430.7525091656116
 30
0.0
  0
SEQEND
  5
53
330
41
100
AcDbEntity
  8
Layer 1
 62
   250
420
  2301728
370
    50
  0
HATCH
  5
52
330
1F
100
AcDbEntity
  8
Layer 1
 62
    43
420
 15510365
100
AcDbHatch
 10
0.0
 20
0.0
 30
0.0
210
0.0
220
0.0
230
1.0
  2
SOLID
 70
     1
 71
     0
 91
        1
 92
        1
 93
       15
 72
     1
 10
215.0986214079603
 20
430.7525091656116
 11
215.0986214079603
 21
642.0297572378468
 72
     1
 10
215.0986214079603
 20
642.0297572378468
 11
386.1205796774448
 21
682.0029562846057
 72
     1
 10
386.1205796774448
 20
682.0029562846057
 11
430.6353936721116
 21
648.3646774595973
 72
     1
 10
430.6353936721116
 20
648.3646774595973
 11
430.6353936721116
 21
599.8813885730224
 72
     1
 10
430.6353936721116
 20
599.8813885730224
 11
437.7509368271312
 21
595.4924046372244
 72
     1
 10
437.7509368271312
 20
595.4924046372244
 11
427.0261543809538
 21
587.3863503088187
 72
     1
 10
427.0261543809538
 20
587.3863503088187
 11
430.6353936721116
 21
585.3183091612964
 72
     1
 10
430.6353936721116
 20
585.3183091612964
 11
430.6353936721116
 21
533.0884166420201
 72
     1
 10
430.6353936721116
 20
533.0884166420201
 11
349.7641576524748
 21
523.4513068337374
 72
     1
 10
349.7641576524748
 20
523.4513068337374
 11
349.7641576524748
 21
427.7196028726694
 72
     1
 10
349.7641576524748
 20
427.7196028726694
 11
318.4510601433321
 21
426.5943394814585
 72
     1
 10
318.4510601433321
 20
426.5943394814585
 11
315.0134384502398
 21
418.4838709677424
 72
     1
 10
315.0134384502398
 20
418.4838709677424
 11
253.72874148357
 21
422.4395072940961
 72
     1
 10
253.72874148357
 20
422.4395072940961
 11
251.847810715708
 21
427.6407325538021
 72
     1
 10
251.847810715708
 20
427.6407325538021
 11
215.0986214079603
 21
430.7525091656116
 97
        0
 75
     2
 76
     1
 98
        0
  0
POLYLINE
  5
54
330
1F
100
AcDbEntity
  8
Layer 1
 62
   250
420
  2301728
370
    30
100
AcDb2dPolyline
 66
     1
 10
0.0
 20
0.0
 30
0.0
  0
VERTEX
  5
55
330
54
100
AcDbEntity
  8
Layer 1
 62
   250
420
  2301728
370
    30
100
AcDbVertex
100
AcDb2dVertex
 10
393.5447379050474
 20
622.812099408975
 30
0.0
  0
VERTEX
  5
56
330
54
100
AcDbEntity
  8
Layer 1
 62
   250
420
  2301728
370
    30
100
AcDbVertex
100
AcDb2dVertex
 10
430.5220944389966
 20
599.9644746773065
 30
0.0
  0
SEQEND
  5
57
330
54
100
AcDbEntity
  8
Layer 1
 62
   250
420
  2301728
370
    30
  0
POLYLINE
  5
58
330
1F
100
AcDbEntity
  8
Layer 1
 62
   250
420
  2301728
370
    30
100
AcDb2dPolyline
 66
     1
 10
0.0
 20
0.0
 30
0.0
  0
VERTEX
  5
59
330
58
100
AcDbEntity
  8
Layer 1
 62
   250
420
  2301728
370
    30
100
AcDbVertex
100
AcDb2dVertex
 10
386.1822199876096
 20
610.615480878666
 30
0.0
  0
VERTEX
  5
5A
330
58
100
AcDbEntity
  8
Layer 1
 62
   250
420
  2301728
370
    30
100
AcDbVertex
100
AcDb2dVertex
 10
426.9541347133909
 20
587.4137301718683
 30
0.0
  0
SEQEND
  5
5B
330
58
100
AcDbEntity
  8
Layer 1
 62
   250
420
  2301728
370
    30
  0
POLYLINE
  5
5C
330
1F
100
AcDbEntity
  8
Layer 1
 62
   250
420
  2301728
370
    30
100
AcDb2dPolyline
 66
     1
 10
0.0
 20
0.0
 30
0.0
  0
VERTEX
  5
5D
330
5C
100
AcDbEntity
  8
Layer 1
 62
   250
420
  2301728
370
    30
100
AcDbVertex
100
AcDb2dVertex
 10
386.1307522739644
 20
681.9833077512094
 30
0.0
  0
VERTEX
  5
5E
330
5C
100
AcDbEntity
  8
Layer 1
 62
   250
420
  2301728
370
    30
100
AcDbVertex
100
AcDb2dVertex
 10
386.1307522739644
 20
627.4290870728082
 30
0.0
  0
VERTEX
  5
5F
330
5C
100
AcDbEntity
  8
Layer 1
 62
   250
420
  2301728
370
    30
100
AcDbVertex
100
AcDb2dVertex
 10
393.5327931796965
 20
622.8189500602803
 30
0.0
  0
VERTEX
  5
60
330
5C
100
AcDbEntity
  8
Layer 1
 62
   250
420
  2301728
370
    30
100
AcDbVertex
100
AcDb2dVertex
 10
380.9263805955525
 20
613.6208323135734
 30
0.0
  0
VERTEX
  5
61
330
5C
100
AcDbEntity
  8
Layer 1
 62
   250
420
  2301728
370
    30
100
AcDbVertex
100
AcDb2dVertex
 10
386.1307522739644
 20
610.6196966640855
 30
0.0
  0
VERTEX
  5
62
330
5C
100
AcDbEntity
  8
Layer 1
 62
   250
420
  2301728
370
    30
100
AcDbVertex
100
AcDb2dVertex
 10
386.1307522739644
 20
552.9426580690397
 30
0.0
  0
SEQEND
  5
63
330
5C
100
AcDbEntity
  8
Layer 1
 62
   250
420
  2301728
370
    30
  0
POLYLINE
  5
64
330
1F
100
AcDbEntity
  8
Layer 1
 62
   250
420
  2301728
370
    30
100
AcDb2dPolyline
 66
     1
 10
0.0
 20
0.0
 30
0.0
  0
VERTEX
  5
65
330
64
100
AcDbEntity
  8
Layer 1
 62
   250
420
  2301728
370
    30
100
AcDbVertex
100
AcDb2dVertex
 10
290.9393714773269
 20
483.5329129974152
 30
0.0
  0
VERTEX
  5
66
330
64
100
AcDbEntity
  8
Layer 1
 62
   250
420
  2301728
370
    30
100
AcDbVertex
100
AcDb2dVertex
 10
290.9393714773269
 20
433.7063694819653
 30
0.0
  0
SEQEND
  5
67
330
64
100
AcDbEntity
  8
Layer 1
 62
   250
420
  2301728
370
    30
  0
POLYLINE
  5
68
330
1F
100
AcDbEntity
  8
Layer 1
 62
   250
420
  2301728
370
    30
100
AcDb2dPolyline
 66
     1
 10
0.0
 20
0.0
 30
0.0
  0
VERTEX
  5
69
330
68
100
AcDbEntity
  8
Layer 1
 62
   250
420
  2301728
370
    30
100
AcDbVertex
100
AcDb2dVertex
 10
290.9393714773269
 20
536.9600885754617
 30
0.0
  0
VERTEX
  5
6A
330
68
100
AcDbEntity
  8
Layer 1
 62
   250
420
  2301728
370
    30
100
AcDbVertex
100
AcDb2dVertex
 10
290.9393714773269
 20
530.2134266445328
 30
0.0
  0
SEQEND
  5
6B
330
68
100
AcDbEntity
  8
Layer 1
 62
   250
420
  2301728
370
    30
  0
POLYLINE
  5
6C
330
1F
100
AcDbEntity
  8
Layer 1
 62
   250
420
  2301728
370
    30
100
AcDb2dPolyline
 66
     1
 10
0.0
 20
0.0
 30
0.0
  0
VERTEX
  5
6D
330
6C
100
AcDbEntity
  8
Layer 1
 62
   250
420
  2301728
370
    30
100
AcDbVertex
100
AcDb2dVertex
 10
386.1411160797816
 20
552.9340508404784
 30
0.0
  0
VERTEX
  5
6E
330
6C
100
AcDbEntity
  8
Layer 1
 62
   250
420
  2301728
370
    30
100
AcDbVertex
100
AcDb2dVertex
 10
430.6079910668941
 20
533.0961455819534
 30
0.0
  0
SEQEND
  5
6F
330
6C
100
AcDbEntity
  8
Layer 1
 62
   250
420
  2301728
370
    30
  0
POLYLINE
  5
70
330
1F
100
AcDbEntity
  8
Layer 1
 62
   250
420
  2301728
370
    30
100
AcDb2dPolyline
 66
     1
 10
0.0
 20
0.0
 30
0.0
  0
VERTEX
  5
71
330
70
100
AcDbEntity
  8
Layer 1
 62
   250
420
  2301728
370
    30
100
AcDbVertex
100
AcDb2dVertex
 10
338.0943366417177
 20
546.7018903882963
 30
0.0
  0
VERTEX
  5
72
330
70
100
AcDbEntity
  8
Layer 1
 62
   250
420
  2301728
370
    30
100
AcDbVertex
100
AcDb2dVertex
 10
386.1411160797816
 20
552.958994237536
 30
0.0
  0
SEQEND
  5
73
330
70
100
AcDbEntity
  8
Layer 1
 62
   250
420
  2301728
370
    30
  0
POLYLINE
  5
74
330
1F
100
AcDbEntity
  8
Layer 1
 62
   250
420
  2301728
370
    30
100
AcDb2dPolyline
 66
     1
 10
0.0
 20
0.0
 30
0.0
  0
VERTEX
  5
75
330
74
100
AcDbEntity
  8
Layer 1
 62
   250
420
  2301728
370
    30
100
AcDbVertex
100
AcDb2dVertex
 10
215.1030128511038
 20
530.6775143559862
 30
0.0
  0
VERTEX
  5
76
330
74
100
AcDbEntity
  8
Layer 1
 62
   250
420
  2301728
370
    30
100
AcDbVertex
100
AcDb2dVertex
 10
228.6864491262759
 20
533.516494519693
 30
0.0
  0
SEQEND
  5
77
330
74
100
AcDbEntity
  8
Layer 1
 62
   250
420
  2301728
370
    30
  0
POLYLINE
  5
78
330
1F
100
AcDbEntity
  8
Layer 1
 62
   250
420
  2301728
370
    30
100
AcDb2dPolyline
 66
     1
 10
0.0
 20
0.0
 30
0.0
  0
VERTEX
  5
79
330
78
100
AcDbEntity
  8
Layer 1
 62
   250
420
  2301728
370
    30
100
AcDbVertex
100
AcDb2dVertex
 10
215.1063503478936
 20
430.7454828565824
 30
0.0
  0
VERTEX
  5
7A
330
78
100
AcDbEntity
  8
Layer 1
 62
   250
420
  2301728
370
    30
100
AcDbVertex
100
AcDb2dVertex
 10
243.3600291926423
 20
431.864071254211
 30
0.0
  0
VERTEX
  5
7B
330
78
100
AcDbEntity
  8
Layer 1
 62
   250
420
  2301728
370
    30
100
AcDbVertex
100
AcDb2dVertex
 10
247.7403939547412
 20
438.9725881002023
 30
0.0
  0
VERTEX
  5
7C
330
78
100
AcDbEntity
  8
Layer 1
 62
   250
420
  2301728
370
    30
100
AcDbVertex
100
AcDb2dVertex
 10
251.8513238703108
 20
427.620180599888
 30
0.0
  0
SEQEND
  5
7D
330
78
100
AcDbEntity
  8
Layer 1
 62
   250
420
  2301728
370
    30
  0
POLYLINE
  5
7E
330
1F
100
AcDbEntity
  8
Layer 1
 62
   250
420
  2301728
370
    30
100
AcDb2dPolyline
 66
     1
 10
0.0
 20
0.0
 30
0.0
  0
VERTEX
  5
7F
330
7E
100
AcDbEntity
  8
Layer 1
 62
   250
420
  2301728
370
    30
100
AcDbVertex
100
AcDb2dVertex
 10
349.7641576524748
 20
427.7333041752763
 30
0.0
  0
VERTEX
  5
80
330
7E
100
AcDbEntity
  8
Layer 1
 62
   250
420
  2301728
370
    30
100
AcDbVertex
100
AcDb2dVertex
 10
290.9497352831459
 20
433.7337720871828
 30
0.0
  0
VERTEX
  5
81
330
7E
100
AcDbEntity
  8
Layer 1
 62
   250
420
  2301728
370
    30
100
AcDbVertex
100
AcDb2dVertex
 10
259.2661756303778
 20
432.1075328621118
 30
0.0
  0
VERTEX
  5
82
330
7E
100
AcDbEntity
  8
Layer 1
 62
   250
420
  2301728
370
    30
100
AcDbVertex
100
AcDb2dVertex
 10
253.7468342293232
 20
422.4567217512194
 30
0.0
  0
SEQEND
  5
83
330
7E
100
AcDbEntity
  8
Layer 1
 62
   250
420
  2301728
370
    30
  0
POLYLINE
  5
84
330
1F
100
AcDbEntity
  8
Layer 1
 62
   250
420
  2301728
370
    30
100
AcDb2dPolyline
 66
     1
 10
0.0
 20
0.0
 30
0.0
  0
VERTEX
  5
85
330
84
100
AcDbEntity
  8
Layer 1
 62
   250
420
  2301728
370
    30
100
AcDbVertex
100
AcDb2dVertex
 10
243.3600291926423
 20
431.8572394160783
 30
0.0
  0
VERTEX
  5
86
330
84
100
AcDbEntity
  8
Layer 1
 62
   250
420
  2301728
370
    30
100
AcDbVertex
100
AcDb2dVertex
 10
250.6710674512942
 20
430.8382301357824
 30
0.0
  0
SEQEND
  5
87
330
84
100
AcDbEntity
  8
Layer 1
 62
   250
420
  2301728
370
    30
  0
SPLINE
  5
88
330
1F
100
AcDbEntity
  8
Layer 1
 62
   250
420
  2301728
370
    13
100
AcDbSpline
210
0.0
220
0.0
230
1.0
 70
     8
 71
     3
 72
    11
 73
     7
 74
     0
 42
0.0000000001
 43
0.0000000001
 12
1.0
 22
0.0
 32
0.0
 13
1.0
 23
0.0
 33
0.0
 40
0.0
 40
0.0
 40
0.0
 40
0.0
 40
1.0
 40
1.0
 40
1.0
 40
2.0
 40
2.0
 40
2.0
 40
2.0
 10
246.7401988642723
 20
431.4077124826908
 30
0.0
 10
246.7770869866808
 20
432.1556630789701
 30
0.0
 10
246.868077688624
 20
433.1300364837534
 30
0.0
 10
247.2034203293288
 20
433.3427579896452
 30
0.0
 10
247.8963780152144
 20
433.7715384982212
 30
0.0
 10
247.9178082577564
 20
435.4870118479776
 30
0.0
 10
248.7154699904258
 20
436.214234832617
 30
0.0
  0
SPLINE
  5
89
330
1F
100
AcDbEntity
  8
Layer 1
 62
   250
420
  2301728
370
    13
100
AcDbSpline
210
0.0
220
0.0
230
1.0
 70
     8
 71
     3
 72
     8
 73
     4
 74
     0
 42
0.0000000001
 43
0.0000000001
 12
1.0
 22
0.0
 32
0.0
 13
1.0
 23
0.0
 33
0.0
 40
0.0
 40
0.0
 40
0.0
 40
0.0
 40
1.0
 40
1.0
 40
1.0
 40
1.0
 10
249.2773990551259
 20
431.0748410923788
 30
0.0
 10
249.4188035243624
 20
431.3630954203472
 30
0.0
 10
249.8647984900626
 20
432.0629157997691
 30
0.0
 10
249.9891641598988
 20
432.6703402154426
 30
0.0
  0
SPLINE
  5
8A
330
1F
100
AcDbEntity
  8
Layer 1
 62
   250
420
  2301728
370
    13
100
AcDbSpline
210
0.0
220
0.0
230
1.0
 70
     8
 71
     3
 72
    14
 73
    10
 74
     0
 42
0.0000000001
 43
0.0000000001
 12
1.0
 22
0.0
 32
0.0
 13
1.0
 23
0.0
 33
0.0
 40
0.0
 40
0.0
 40
0.0
 40
0.0
 40
1.0
 40
1.0
 40
1.0
 40
2.0
 40
2.0
 40
2.0
 40
3.0
 40
3.0
 40
3.0
 40
3.0
 10
230.1865661042521
 20
429.5241346893836
 30
0.0
 10
231.4207372854298
 20
429.9531096207556
 30
0.0
 10
233.0392475705694
 20
430.7180802513631
 30
0.0
 10
234.8713576502278
 20
430.460760461021
 30
0.0
 10
236.7026012182187
 20
430.206916269407
 30
0.0
 10
239.0896022765901
 20
430.2104294239207
 30
0.0
 10
239.852835095011
 20
430.2892997427862
 30
0.0
 10
240.6180120242852
 20
430.3750207129569
 30
0.0
 10
244.4021945344284
 20
430.9650550137794
 30
0.0
 10
245.596842727311
 20
431.4832453047684
 30
0.0
  0
SPLINE
  5
8B
330
1F
100
AcDbEntity
  8
Layer 1
 62
   250
420
  2301728
370
    13
100
AcDbSpline
210
0.0
220
0.0
230
1.0
 70
     8
 71
     3
 72
    11
 73
     7
 74
     0
 42
0.0000000001
 43
0.0000000001
 12
1.0
 22
0.0
 32
0.0
 13
1.0
 23
0.0
 33
0.0
 40
0.0
 40
0.0
 40
0.0
 40
0.0
 40
1.0
 40
1.0
 40
1.0
 40
2.0
 40
2.0
 40
2.0
 40
2.0
 10
241.5948327613569
 20
428.5875276956394
 30
0.0
 10
242.8325170970502
 20
428.9683536450839
 30
0.0
 10
244.7916396937399
 20
429.6511352251064
 30
0.0
 10
245.855937872805
 20
429.7781357608301
 30
0.0
 10
246.9204236909009
 20
429.9084737933445
 30
0.0
 10
248.5354208215231
 20
430.1622992070643
 30
0.0
 10
249.6443480442358
 20
430.9308017572566
 30
0.0
  0
SPLINE
  5
8C
330
1F
100
AcDbEntity
  8
Layer 1
 62
   250
420
  2301728
370
    13
100
AcDbSpline
210
0.0
220
0.0
230
1.0
 70
     8
 71
     3
 72
     8
 73
     4
 74
     0
 42
0.0000000001
 43
0.0000000001
 12
1.0
 22
0.0
 32
0.0
 13
1.0
 23
0.0
 33
0.0
 40
0.0
 40
0.0
 40
0.0
 40
0.0
 40
1.0
 40
1.0
 40
1.0
 40
1.0
 10
248.1143692528804
 20
427.9528763324743
 30
0.0
 10
249.0534354547835
 20
428.1209994948113
 30
0.0
 10
250.6624602227312
 20
429.1364580886348
 30
0.0
 10
251.1762590705748
 20
429.435076222424
 30
0.0
  0
POLYLINE
  5
8D
330
1F
100
AcDbEntity
  8
Layer 1
 62
   250
420
  2301728
370
    30
100
AcDb2dPolyline
 66
     1
 10
0.0
 20
0.0
 30
0.0
  0
VERTEX
  5
8E
330
8D
100
AcDbEntity
  8
Layer 1
 62
   250
420
  2301728
370
    30
100
AcDbVertex
100
AcDb2dVertex
 10
259.2807552216163
 20
432.1006822108066
 30
0.0
  0
VERTEX
  5
8F
330
8D
100
AcDbEntity
  8
Layer 1
 62
   250
420
  2301728
370
    30
100
AcDbVertex
100
AcDb2dVertex
 10
318.4545732978477
 20
426.5943394814585
 30
0.0
  0
SEQEND
  5
90
330
8D
100
AcDbEntity
  8
Layer 1
 62
   250
420
  2301728
370
    30
  0
SPLINE
  5
91
330
1F
100
AcDbEntity
  8
Layer 1
 62
   250
420
  2301728
370
    13
100
AcDbSpline
210
0.0
220
0.0
230
1.0
 70
     8
 71
     3
 72
    11
 73
     7
 74
     0
 42
0.0000000001
 43
0.0000000001
 12
1.0
 22
0.0
 32
0.0
 13
1.0
 23
0.0
 33
0.0
 40
0.0
 40
0.0
 40
0.0
 40
0.0
 40
1.0
 40
1.0
 40
1.0
 40
2.0
 40
2.0
 40
2.0
 40
2.0
 10
262.6892177322316
 20
421.9113045127424
 30
0.0
 10
263.3565414323875
 20
423.3213090774034
 30
0.0
 10
264.2451938669992
 20
425.1739711109767
 30
0.0
 10
264.5418797658049
 20
426.1379807099383
 30
0.0
 10
264.8369847450795
 20
427.0986715050722
 30
0.0
 10
265.3541335904683
 20
430.4333390779084
 30
0.0
 10
266.1707538567625
 20
431.4728814989494
 30
0.0
  0
SPLINE
  5
92
330
1F
100
AcDbEntity
  8
Layer 1
 62
   250
420
  2301728
370
    13
100
AcDbSpline
210
0.0
220
0.0
230
1.0
 70
     8
 71
     3
 72
    11
 73
     7
 74
     0
 42
0.0000000001
 43
0.0000000001
 12
1.0
 22
0.0
 32
0.0
 13
1.0
 23
0.0
 33
0.0
 40
0.0
 40
0.0
 40
0.0
 40
0.0
 40
1.0
 40
1.0
 40
1.0
 40
2.0
 40
2.0
 40
2.0
 40
2.0
 10
268.9169867412702
 20
421.5612186653034
 30
0.0
 10
269.3578876329238
 20
422.8203332435405
 30
0.0
 10
269.7232557025009
 20
425.3522637026217
 30
0.0
 10
270.3099525065354
 20
425.7743692176191
 30
0.0
 10
271.6033203412944
 20
426.693761754238
 30
0.0
 10
272.2518486647932
 20
429.9221750959523
 30
0.0
 10
272.4215340278761
 20
430.8039768792596
 30
0.0
  0
SPLINE
  5
93
330
1F
100
AcDbEntity
  8
Layer 1
 62
   250
420
  2301728
370
    13
100
AcDbSpline
210
0.0
220
0.0
230
1.0
 70
     8
 71
     3
 72
    11
 73
     7
 74
     0
 42
0.0000000001
 43
0.0000000001
 12
1.0
 22
0.0
 32
0.0
 13
1.0
 23
0.0
 33
0.0
 40
0.0
 40
0.0
 40
0.0
 40
0.0
 40
1.0
 40
1.0
 40
1.0
 40
2.0
 40
2.0
 40
2.0
 40
2.0
 10
280.3055797330899
 20
430.1280459505406
 30
0.0
 10
279.7926591738751
 20
429.1433274845513
 30
0.0
 10
278.0309878422449
 20
427.2015882394062
 30
0.0
 10
278.0636601792357
 20
426.0454090884641
 30
0.0
 10
278.0961568585008
 20
424.8925674343118
 30
0.0
 10
277.3448687654318
 20
422.1308766699394
 30
0.0
 10
276.2607220583322
 20
421.0158014268254
 30
0.0
  0
SPLINE
  5
94
330
1F
100
AcDbEntity
  8
Layer 1
 62
   250
420
  2301728
370
    13
100
AcDbSpline
210
0.0
220
0.0
230
1.0
 70
     8
 71
     3
 72
    11
 73
     7
 74
     0
 42
0.0000000001
 43
0.0000000001
 12
1.0
 22
0.0
 32
0.0
 13
1.0
 23
0.0
 33
0.0
 40
0.0
 40
0.0
 40
0.0
 40
0.0
 40
1.0
 40
1.0
 40
1.0
 40
2.0
 40
2.0
 40
2.0
 40
2.0
 10
287.5481234238341
 20
429.4452643705181
 30
0.0
 10
286.7950787535083
 20
428.2204030488047
 30
0.0
 10
285.2991775609498
 20
427.2015882394062
 30
0.0
 10
284.8617898238108
 20
425.2632052356621
 30
0.0
 10
284.4191323549003
 20
423.3281597287069
 30
0.0
 10
284.3488692645969
 20
421.5956475795529
 30
0.0
 10
283.6335910053094
 20
420.5388907013903
 30
0.0
  0
SPLINE
  5
95
330
1F
100
AcDbEntity
  8
Layer 1
 62
   250
420
  2301728
370
    13
100
AcDbSpline
210
0.0
220
0.0
230
1.0
 70
     8
 71
     3
 72
    11
 73
     7
 74
     0
 42
0.0000000001
 43
0.0000000001
 12
1.0
 22
0.0
 32
0.0
 13
1.0
 23
0.0
 33
0.0
 40
0.0
 40
0.0
 40
0.0
 40
0.0
 40
1.0
 40
1.0
 40
1.0
 40
2.0
 40
2.0
 40
2.0
 40
2.0
 10
293.5605360610934
 20
428.8654182177897
 30
0.0
 10
292.9446932723376
 20
427.747005477886
 30
0.0
 10
291.4197953572757
 20
425.8428757306647
 30
0.0
 10
291.0767358188696
 20
424.8925674343118
 30
0.0
 10
290.7387703545101
 20
423.9422591379589
 30
0.0
 10
290.3630384791131
 20
421.2285229327172
 30
0.0
 10
289.9274073192328
 20
420.1408688120127
 30
0.0
  0
SPLINE
  5
96
330
1F
100
AcDbEntity
  8
Layer 1
 62
   250
420
  2301728
370
    13
100
AcDbSpline
210
0.0
220
0.0
230
1.0
 70
     8
 71
     3
 72
    11
 73
     7
 74
     0
 42
0.0000000001
 43
0.0000000001
 12
1.0
 22
0.0
 32
0.0
 13
1.0
 23
0.0
 33
0.0
 40
0.0
 40
0.0
 40
0.0
 40
0.0
 40
1.0
 40
1.0
 40
1.0
 40
2.0
 40
2.0
 40
2.0
 40
2.0
 10
303.418974603831
 20
427.9151099214369
 30
0.0
 10
302.4978254899552
 20
426.2512799430533
 30
0.0
 10
301.8563234754847
 20
425.0951007921112
 30
0.0
 10
301.7156216371523
 20
424.1103635815098
 30
0.0
 10
301.5817838660696
 20
423.1222888741204
 30
0.0
 10
300.8647356135789
 20
420.3707862578394
 30
0.0
 10
300.3570847861374
 20
419.4513937212196
 30
0.0
  0
SPLINE
  5
97
330
1F
100
AcDbEntity
  8
Layer 1
 62
   250
420
  2301728
370
    13
100
AcDbSpline
210
0.0
220
0.0
230
1.0
 70
     8
 71
     3
 72
    11
 73
     7
 74
     0
 42
0.0000000001
 43
0.0000000001
 12
1.0
 22
0.0
 32
0.0
 13
1.0
 23
0.0
 33
0.0
 40
0.0
 40
0.0
 40
0.0
 40
0.0
 40
1.0
 40
1.0
 40
1.0
 40
2.0
 40
2.0
 40
2.0
 40
2.0
 10
307.4947608146031
 20
427.506881366774
 30
0.0
 10
306.4706762734322
 20
426.182597772282
 30
0.0
 10
306.0007918570291
 20
425.6027516195527
 30
0.0
 10
305.6628263926705
 20
424.076110324987
 30
0.0
 10
305.324860928311
 20
422.5492933726964
 30
0.0
 10
305.2837570204829
 20
420.9780350157853
 30
0.0
 10
304.4019552371756
 20
419.1803538503755
 30
0.0
  0
SPLINE
  5
98
330
1F
100
AcDbEntity
  8
Layer 1
 62
   250
420
  2301728
370
    13
100
AcDbSpline
210
0.0
220
0.0
230
1.0
 70
     8
 71
     3
 72
     8
 73
     4
 74
     0
 42
0.0000000001
 43
0.0000000001
 12
1.0
 22
0.0
 32
0.0
 13
1.0
 23
0.0
 33
0.0
 40
0.0
 40
0.0
 40
0.0
 40
0.0
 40
1.0
 40
1.0
 40
1.0
 40
1.0
 10
313.5433589433687
 20
426.964801625084
 30
0.0
 10
313.2535236958665
 20
425.256178926631
 30
0.0
 10
311.0028212557245
 20
420.6864431910271
 30
0.0
 10
310.9308015881634
 20
418.7412095359787
 30
0.0
  0
SPLINE
  5
99
330
1F
100
AcDbEntity
  8
Layer 1
 62
   250
420
  2301728
370
    13
100
AcDbSpline
210
0.0
220
0.0
230
1.0
 70
     8
 71
     3
 72
    14
 73
    10
 74
     0
 42
0.0000000001
 43
0.0000000001
 12
1.0
 22
0.0
 32
0.0
 13
1.0
 23
0.0
 33
0.0
 40
0.0
 40
0.0
 40
0.0
 40
0.0
 40
1.0
 40
1.0
 40
1.0
 40
2.0
 40
2.0
 40
2.0
 40
3.0
 40
3.0
 40
3.0
 40
3.0
 10
270.1040816519453
 20
431.0852048981978
 30
0.0
 10
271.6136841471134
 20
431.1950097732388
 30
0.0
 10
276.0530818502048
 20
431.8057528892587
 30
0.0
 10
277.5249179343355
 20
431.7302200671829
 30
0.0
 10
278.9934165216746
 20
431.6582003996227
 30
0.0
 10
284.9835206277621
 20
431.5139854067747
 30
0.0
 10
286.8121175529068
 20
431.5139854067747
 30
0.0
 10
288.6373769812617
 20
431.5139854067747
 30
0.0
 10
295.7699589356835
 20
432.2722998088739
 30
0.0
 10
297.8490570994081
 20
432.9858214909054
 30
0.0
  0
SPLINE
  5
9A
330
1F
100
AcDbEntity
  8
Layer 1
 62
   250
420
  2301728
370
    13
100
AcDbSpline
210
0.0
220
0.0
230
1.0
 70
     8
 71
     3
 72
    11
 73
     7
 74
     0
 42
0.0000000001
 43
0.0000000001
 12
1.0
 22
0.0
 32
0.0
 13
1.0
 23
0.0
 33
0.0
 40
0.0
 40
0.0
 40
0.0
 40
0.0
 40
1.0
 40
1.0
 40
1.0
 40
2.0
 40
2.0
 40
2.0
 40
2.0
 10
281.4325997015567
 20
430.0456624771614
 30
0.0
 10
284.5494703874128
 20
429.7951745602286
 30
0.0
 10
288.311356242255
 20
430.0456624771614
 30
0.0
 10
291.0029595740507
 20
430.4059364726909
 30
0.0
 10
293.6926306708629
 20
430.7626973137067
 30
0.0
 10
301.3639682806261
 20
432.0938315595031
 30
0.0
 10
304.0520450474651
 20
432.3478326309496
 30
0.0
  0
SPLINE
  5
9B
330
1F
100
AcDbEntity
  8
Layer 1
 62
   250
420
  2301728
370
    13
100
AcDbSpline
210
0.0
220
0.0
230
1.0
 70
     8
 71
     3
 72
    11
 73
     7
 74
     0
 42
0.0000000001
 43
0.0000000001
 12
1.0
 22
0.0
 32
0.0
 13
1.0
 23
0.0
 33
0.0
 40
0.0
 40
0.0
 40
0.0
 40
0.0
 40
1.0
 40
1.0
 40
1.0
 40
2.0
 40
2.0
 40
2.0
 40
2.0
 10
291.1865218974681
 20
429.2223734631398
 30
0.0
 10
293.6926306708629
 20
429.6511352251064
 30
0.0
 10
297.2075417632896
 20
430.8004637247441
 30
0.0
 10
300.5439846063437
 20
430.5122093967739
 30
0.0
 10
303.8804274493987
 20
430.2241307265313
 30
0.0
 10
314.8866135722437
 20
430.5466383110233
 30
0.0
 10
315.6396720136436
 20
431.1950097732388
 30
0.0
  0
SPLINE
  5
9C
330
1F
100
AcDbEntity
  8
Layer 1
 62
   250
420
  2301728
370
    13
100
AcDbSpline
210
0.0
220
0.0
230
1.0
 70
     8
 71
     3
 72
    11
 73
     7
 74
     0
 42
0.0000000001
 43
0.0000000001
 12
1.0
 22
0.0
 32
0.0
 13
1.0
 23
0.0
 33
0.0
 40
0.0
 40
0.0
 40
0.0
 40
0.0
 40
1.0
 40
1.0
 40
1.0
 40
2.0
 40
2.0
 40
2.0
 40
2.0
 10
299.8269631414114
 20
428.3577673903483
 30
0.0
 10
303.02269077452
 20
428.3233384760988
 30
0.0
 10
308.5738262239374
 20
429.1879258022818
 30
0.0
 10
310.5464624842043
 20
429.2566079730532
 30
0.0
 10
312.519274402197
 20
429.3286276406143
 30
0.0
 10
324.3865346967086
 20
429.9736428095985
 30
0.0
 10
327.220245128643
 20
429.9736428095985
 30
0.0
  0
SPLINE
  5
9D
330
1F
100
AcDbEntity
  8
Layer 1
 62
   250
420
  2301728
370
    13
100
AcDbSpline
210
0.0
220
0.0
230
1.0
 70
     8
 71
     3
 72
    11
 73
     7
 74
     0
 42
0.0000000001
 43
0.0000000001
 12
1.0
 22
0.0
 32
0.0
 13
1.0
 23
0.0
 33
0.0
 40
0.0
 40
0.0
 40
0.0
 40
0.0
 40
1.0
 40
1.0
 40
1.0
 40
2.0
 40
2.0
 40
2.0
 40
2.0
 10
310.4024231490821
 20
427.3935821336599
 30
0.0
 10
313.4867971556741
 20
427.4657961611811
 30
0.0
 10
318.7256131686936
 20
428.0008308916058
 30
0.0
 10
320.6949119321689
 20
428.1828122954921
 30
0.0
 10
322.6675481924376
 20
428.3611048871371
 30
0.0
 10
328.9408125524478
 20
429.5824718100412
 30
0.0
 10
331.8416242356197
 20
429.5448623010234
 30
0.0
  0
SPLINE
  5
9E
330
1F
100
AcDbEntity
  8
Layer 1
 62
   250
420
  2301728
370
    13
100
AcDbSpline
210
0.0
220
0.0
230
1.0
 70
     8
 71
     3
 72
    11
 73
     7
 74
     0
 42
0.0000000001
 43
0.0000000001
 12
1.0
 22
0.0
 32
0.0
 13
1.0
 23
0.0
 33
0.0
 40
0.0
 40
0.0
 40
0.0
 40
0.0
 40
1.0
 40
1.0
 40
1.0
 40
2.0
 40
2.0
 40
2.0
 40
2.0
 10
327.5359020618325
 20
426.9270352140466
 30
0.0
 10
329.5480613103919
 20
427.2837960550605
 30
0.0
 10
333.0287191462958
 20
427.7882850434389
 30
0.0
 10
334.3530027407887
 20
427.9288112240456
 30
0.0
 10
335.6823804093274
 20
428.0763637136833
 30
0.0
 10
338.5162664989894
 20
428.4708909657365
 30
0.0
 10
339.7358580889304
 20
428.7213788826684
 30
0.0
  0
SPLINE
  5
9F
330
1F
100
AcDbEntity
  8
Layer 1
 62
   250
420
  2301728
370
    13
100
AcDbSpline
210
0.0
220
0.0
230
1.0
 70
     8
 71
     3
 72
    20
 73
    16
 74
     0
 42
0.0000000001
 43
0.0000000001
 12
1.0
 22
0.0
 32
0.0
 13
1.0
 23
0.0
 33
0.0
 40
0.0
 40
0.0
 40
0.0
 40
0.0
 40
1.0
 40
1.0
 40
1.0
 40
2.0
 40
2.0
 40
2.0
 40
3.0
 40
3.0
 40
3.0
 40
4.0
 40
4.0
 40
4.0
 40
5.0
 40
5.0
 40
5.0
 40
5.0
 10
386.1634246109534
 20
582.683443274921
 30
0.0
 10
386.6231208792651
 20
580.3531678850104
 30
0.0
 10
387.3315484872473
 20
576.9858092822224
 30
0.0
 10
387.4088378865818
 20
574.6544799459562
 30
0.0
 10
387.492802279492
 20
572.3250828446744
 30
0.0
 10
387.9955346906136
 20
565.8775660207111
 30
0.0
 10
388.1601259796498
 20
564.8373209687697
 30
0.0
 10
388.326473845942
 20
563.8002377558932
 30
0.0
 10
388.165235656923
 20
562.300999066545
 30
0.0
 10
389.283808451326
 20
561.3464749847735
 30
0.0
 10
390.4073152652782
 20
560.3908969566482
 30
0.0
 10
389.6337342813622
 20
561.1697633126605
 30
0.0
 10
391.3628932934025
 20
559.0580281601269
 30
0.0
 10
393.4453156322688
 20
556.5201033118356
 30
0.0
 10
394.9823207326535
 20
552.0736792997131
 30
0.0
 10
394.5672415266854
 20
549.1626794684453
 30
0.0
  0
SPLINE
  5
A0
330
1F
100
AcDbEntity
  8
Layer 1
 62
   250
420
  2301728
370
    13
100
AcDbSpline
210
0.0
220
0.0
230
1.0
 70
     8
 71
     3
 72
    38
 73
    34
 74
     0
 42
0.0000000001
 43
0.0000000001
 12
1.0
 22
0.0
 32
0.0
 13
1.0
 23
0.0
 33
0.0
 40
0.0
 40
0.0
 40
0.0
 40
0.0
 40
1.0
 40
1.0
 40
1.0
 40
2.0
 40
2.0
 40
2.0
 40
3.0
 40
3.0
 40
3.0
 40
4.0
 40
4.0
 40
4.0
 40
5.0
 40
5.0
 40
5.0
 40
6.0
 40
6.0
 40
6.0
 40
7.0
 40
7.0
 40
7.0
 40
8.0
 40
8.0
 40
8.0
 40
9.0
 40
9.0
 40
9.0
 40
10.0
 40
10.0
 40
10.0
 40
11.0
 40
11.0
 40
11.0
 40
11.0
 10
402.7170573709736
 20
545.7069650296007
 30
0.0
 10
403.2162766275796
 20
546.7482640278968
 30
0.0
 10
403.2197897820952
 20
548.7038614887642
 30
0.0
 10
403.4254849789577
 20
549.2852885610246
 30
0.0
 10
403.6331124108037
 20
549.8660130023818
 30
0.0
 10
404.0534773531399
 20
550.6190576727095
 30
0.0
 10
403.7205899582314
 20
551.2821655874468
 30
0.0
 10
403.3826244938718
 20
551.9442195558304
 30
0.0
 10
402.6810475371931
 20
554.272914026209
 30
0.0
 10
402.1356302987133
 20
555.2722308280481
 30
0.0
 10
401.5935505570233
 20
556.274006838049
 30
0.0
 10
400.3892571012548
 20
557.6488798575592
 30
0.0
 10
400.0152658910829
 20
558.7690491747207
 30
0.0
 10
399.6448037474602
 20
559.8892184918823
 30
0.0
 10
398.8076190264946
 20
563.7556206935496
 30
0.0
 10
398.6825507257563
 20
564.8373209687697
 30
0.0
 10
398.5589035526173
 20
565.9221830830538
 30
0.0
 10
397.9361810490082
 20
568.9568459532566
 30
0.0
 10
397.1060226370737
 20
570.1609796633302
 30
0.0
 10
396.2774451446712
 20
571.3686265279175
 30
0.0
 10
395.2310520723277
 20
572.7856797749364
 30
0.0
 10
394.8983563397433
 20
574.6544799459562
 30
0.0
 10
394.5672415266854
 20
576.5234781480249
 30
0.0
 10
393.4864195400969
 20
578.897667969376
 30
0.0
 10
392.7351314470252
 20
580.267271257113
 30
0.0
 10
391.9871808507469
 20
581.6379284912064
 30
0.0
 10
391.2358927576788
 20
583.4733760676554
 30
0.0
 10
390.8670115335863
 20
585.0103811680419
 30
0.0
 10
390.4930362354462
 20
586.5465079797987
 30
0.0
 10
389.9544696482717
 20
592.953623526837
 30
0.0
 10
390.1585839256022
 20
594.2822985644725
 30
0.0
 10
390.3662270162786
 20
595.6150137298027
 30
0.0
 10
390.7349169238169
 20
606.7146497627491
 30
0.0
 10
390.2358733249366
 20
608.3373758333064
 30
0.0
  0
SPLINE
  5
A1
330
1F
100
AcDbEntity
  8
Layer 1
 62
   250
420
  2301728
370
    13
100
AcDbSpline
210
0.0
220
0.0
230
1.0
 70
     8
 71
     3
 72
    32
 73
    28
 74
     0
 42
0.0000000001
 43
0.0000000001
 12
1.0
 22
0.0
 32
0.0
 13
1.0
 23
0.0
 33
0.0
 40
0.0
 40
0.0
 40
0.0
 40
0.0
 40
1.0
 40
1.0
 40
1.0
 40
2.0
 40
2.0
 40
2.0
 40
3.0
 40
3.0
 40
3.0
 40
4.0
 40
4.0
 40
4.0
 40
5.0
 40
5.0
 40
5.0
 40
6.0
 40
6.0
 40
6.0
 40
7.0
 40
7.0
 40
7.0
 40
8.0
 40
8.0
 40
8.0
 40
9.0
 40
9.0
 40
9.0
 40
9.0
 10
395.6067839477255
 20
605.1365639451124
 30
0.0
 10
395.6067839477255
 20
601.8111643482025
 30
0.0
 10
396.1866301004538
 20
597.069811014534
 30
0.0
 10
396.1042466270737
 20
595.4486658635087
 30
0.0
 10
396.0218631536936
 20
593.8268180815812
 30
0.0
 10
394.901709609936
 20
588.918941223892
 30
0.0
 10
396.3991759486216
 20
587.2953368647068
 30
0.0
 10
397.8933205639223
 20
585.6743673714091
 30
0.0
 10
400.1851269118924
 20
582.3463560991895
 30
0.0
 10
400.8455999607449
 20
581.1413441004879
 30
0.0
 10
401.5129236608991
 20
579.9336972358988
 30
0.0
 10
405.1323511001519
 20
572.613161514917
 30
0.0
 10
405.8374412113462
 20
571.5342717633084
 30
0.0
 10
406.5407908127163
 20
570.4543280653461
 30
0.0
 10
407.4208360409957
 20
567.712310966258
 30
0.0
 10
407.5425507552827
 20
566.2559327619956
 30
0.0
 10
407.6660381364909
 20
564.7977979804746
 30
0.0
 10
407.206341868181
 20
562.927921489776
 30
0.0
 10
407.7501781871306
 20
561.2640915113934
 30
0.0
 10
408.2922579288206
 20
559.601842452541
 30
0.0
 10
408.7537107743865
 20
557.5167852477898
 30
0.0
 10
408.7090937120447
 20
555.6066831378921
 30
0.0
 10
408.6627361934788
 20
553.6957027393655
 30
0.0
 10
408.4603623723706
 20
548.9508362511806
 30
0.0
 10
408.7090937120447
 20
547.6214585826419
 30
0.0
 10
408.9560846029108
 20
546.2919052563757
 30
0.0
 10
409.2887642070455
 20
544.170838217844
 30
0.0
 10
408.7897206081689
 20
542.8414605493035
 30
0.0
  0
SPLINE
  5
A2
330
1F
100
AcDbEntity
  8
Layer 1
 62
   250
420
  2301728
370
    13
100
AcDbSpline
210
0.0
220
0.0
230
1.0
 70
     8
 71
     3
 72
    35
 73
    31
 74
     0
 42
0.0000000001
 43
0.0000000001
 12
1.0
 22
0.0
 32
0.0
 13
1.0
 23
0.0
 33
0.0
 40
0.0
 40
0.0
 40
0.0
 40
0.0
 40
1.0
 40
1.0
 40
1.0
 40
2.0
 40
2.0
 40
2.0
 40
3.0
 40
3.0
 40
3.0
 40
4.0
 40
4.0
 40
4.0
 40
5.0
 40
5.0
 40
5.0
 40
6.0
 40
6.0
 40
6.0
 40
7.0
 40
7.0
 40
7.0
 40
8.0
 40
8.0
 40
8.0
 40
9.0
 40
9.0
 40
9.0
 40
10.0
 40
10.0
 40
10.0
 40
10.0
 10
417.5330839077906
 20
538.9448452188053
 30
0.0
 10
417.5741878156186
 20
540.6499547627418
 30
0.0
 10
417.3563722356794
 20
544.9205453913801
 30
0.0
 10
416.8984325446272
 20
546.7071601200687
 30
0.0
 10
416.442073773107
 20
548.4953557682893
 30
0.0
 10
416.4403171958493
 20
551.0719032897141
 30
0.0
 10
416.5244572464871
 20
552.7350306371955
 30
0.0
 10
416.6119347939148
 20
554.3999145619327
 30
0.0
 10
416.1898292789156
 20
556.5201033118356
 30
0.0
 10
415.6958797540847
 20
558.0613241976407
 30
0.0
 10
415.1966604974805
 20
559.601842452541
 30
0.0
 10
414.1160141686141
 20
561.217717871793
 30
0.0
 10
414.2395015498223
 20
563.0909318592803
 30
0.0
 10
414.3629889310305
 20
564.9650241353984
 30
0.0
 10
414.7369805036542
 20
568.7912229902813
 30
0.0
 10
414.3629889310305
 20
570.4543280653461
 30
0.0
 10
413.9856761361007
 20
572.1192119900843
 30
0.0
 10
413.0353678397478
 20
574.8166120268306
 30
0.0
 10
412.0780332343638
 20
576.6058616214059
 30
0.0
 10
411.1208742867057
 20
578.3975704241411
 30
0.0
 10
409.2441632804293
 20
581.3052327586201
 30
0.0
 10
408.582093176321
 20
582.7616109628834
 30
0.0
 10
407.9165260534228
 20
584.2204483753067
 30
0.0
 10
406.4652579887279
 20
588.0492598236624
 30
0.0
 10
405.7963373035182
 20
588.7945755540559
 30
0.0
 10
405.1290136033622
 20
589.5400669421742
 30
0.0
 10
403.7618855210167
 20
591.6644714774975
 30
0.0
 10
403.7205899582314
 20
593.4117388756149
 30
0.0
 10
403.6759728958896
 20
595.1570740387506
 30
0.0
 10
403.3980823737402
 20
600.2527290052749
 30
0.0
 10
403.065386641154
 20
600.9980678216971
 30
0.0
  0
SPLINE
  5
A3
330
1F
100
AcDbEntity
  8
Layer 1
 62
   250
420
  2301728
370
    13
100
AcDbSpline
210
0.0
220
0.0
230
1.0
 70
     8
 71
     3
 72
    20
 73
    16
 74
     0
 42
0.0000000001
 43
0.0000000001
 12
1.0
 22
0.0
 32
0.0
 13
1.0
 23
0.0
 33
0.0
 40
0.0
 40
0.0
 40
0.0
 40
0.0
 40
1.0
 40
1.0
 40
1.0
 40
2.0
 40
2.0
 40
2.0
 40
3.0
 40
3.0
 40
3.0
 40
4.0
 40
4.0
 40
4.0
 40
5.0
 40
5.0
 40
5.0
 40
5.0
 10
411.6388889199679
 20
595.542138721813
 30
0.0
 10
412.3972195374463
 20
593.4331691181578
 30
0.0
 10
413.1895953229632
 20
590.8926314305136
 30
0.0
 10
414.3046705660781
 20
588.9043616326544
 30
0.0
 10
415.4197458091912
 20
586.9145109152632
 30
0.0
 10
416.9636015608849
 20
579.5201989494626
 30
0.0
 10
417.7630198708084
 20
578.0501419489074
 30
0.0
 10
418.5571684489641
 20
576.5767024389297
 30
0.0
 10
420.3464180435367
 20
574.031773308142
 30
0.0
 10
420.3464180435367
 20
571.4474968467839
 30
0.0
 10
420.3464180435367
 20
568.8625177545237
 30
0.0
 10
420.353268694842
 20
558.3263917058093
 30
0.0
 10
420.7065163813422
 20
556.420681039057
 30
0.0
 10
421.0599397255683
 20
554.5112815600633
 30
0.0
 10
423.0842358425652
 20
538.2553886452042
 30
0.0
 10
423.3225868910631
 20
536.3863904431337
 30
0.0
  0
SPLINE
  5
A4
330
1F
100
AcDbEntity
  8
Layer 1
 62
   250
420
  2301728
370
    13
100
AcDbSpline
210
0.0
220
0.0
230
1.0
 70
     8
 71
     3
 72
    29
 73
    25
 74
     0
 42
0.0000000001
 43
0.0000000001
 12
1.0
 22
0.0
 32
0.0
 13
1.0
 23
0.0
 33
0.0
 40
0.0
 40
0.0
 40
0.0
 40
0.0
 40
1.0
 40
1.0
 40
1.0
 40
2.0
 40
2.0
 40
2.0
 40
3.0
 40
3.0
 40
3.0
 40
4.0
 40
4.0
 40
4.0
 40
5.0
 40
5.0
 40
5.0
 40
6.0
 40
6.0
 40
6.0
 40
7.0
 40
7.0
 40
7.0
 40
8.0
 40
8.0
 40
8.0
 40
8.0
 10
430.0109304570415
 20
533.3612130901238
 30
0.0
 10
429.8119269090676
 20
535.466822248789
 30
0.0
 10
429.2115121471143
 20
538.8882834311116
 30
0.0
 10
428.6146271949874
 20
541.1140424741952
 30
0.0
 10
428.0228363169063
 20
543.3389232286518
 30
0.0
 10
428.2612038507596
 20
546.3641005816626
 30
0.0
 10
427.8633391019175
 20
548.1498370217223
 30
0.0
 10
427.4652986953497
 20
549.9380326699429
 30
0.0
 10
425.7120754862935
 20
552.6011794501665
 30
0.0
 10
426.0689954332956
 20
554.7480681743864
 30
0.0
 10
426.4326069256167
 20
556.8958351872334
 30
0.0
 10
427.305801480361
 20
558.1291280797832
 30
0.0
 10
426.9077610737913
 20
559.5589819674569
 30
0.0
 10
426.5097206672235
 20
560.9904167746608
 30
0.0
 10
426.5097206672235
 20
563.5790846791624
 30
0.0
 10
425.4341684124047
 20
565.8837140411133
 30
0.0
 10
424.3638858893592
 20
568.1883434030633
 30
0.0
 10
423.4871781800994
 20
570.6155818575935
 30
0.0
 10
423.2865770572826
 20
572.5232247593285
 30
0.0
 10
423.0875568539996
 20
574.431592706871
 30
0.0
 10
422.2143622992535
 20
579.9182393560313
 30
0.0
 10
421.7358706542873
 20
582.1439983991168
 30
0.0
 10
421.2607165061108
 20
584.3706357308301
 30
0.0
 10
420.8231531112451
 20
589.9379316910172
 30
0.0
 10
419.9141243804461
 20
591.327384301766
 30
0.0
  0
SPLINE
  5
A5
330
1F
100
AcDbEntity
  8
Layer 1
 62
   250
420
  2301728
370
    13
100
AcDbSpline
210
0.0
220
0.0
230
1.0
 70
     8
 71
     3
 72
    14
 73
    10
 74
     0
 42
0.0000000001
 43
0.0000000001
 12
1.0
 22
0.0
 32
0.0
 13
1.0
 23
0.0
 33
0.0
 40
0.0
 40
0.0
 40
0.0
 40
0.0
 40
1.0
 40
1.0
 40
1.0
 40
2.0
 40
2.0
 40
2.0
 40
3.0
 40
3.0
 40
3.0
 40
3.0
 10
425.3930645045784
 20
588.1873495585123
 30
0.0
 10
425.6760491007735
 20
585.9213648389841
 30
0.0
 10
426.7516013555924
 20
584.4108613500293
 30
0.0
 10
426.7516013555924
 20
582.4638711177222
 30
0.0
 10
426.7516013555924
 20
580.514421677256
 30
0.0
 10
426.3142136184542
 20
578.2071574494194
 30
0.0
 10
427.305801480361
 20
575.8605458910115
 30
0.0
 10
428.2956327650099
 20
573.5164159325514
 30
0.0
 10
429.1772588905915
 20
564.1750913426604
 30
0.0
 10
430.6079910668941
 20
561.0710657481732
 30
0.0
  0
SPLINE
  5
A6
330
1F
100
AcDbEntity
  8
Layer 1
 62
   250
420
  2301728
370
    13
100
AcDbSpline
210
0.0
220
0.0
230
1.0
 70
     8
 71
     3
 72
    11
 73
     7
 74
     0
 42
0.0000000001
 43
0.0000000001
 12
1.0
 22
0.0
 32
0.0
 13
1.0
 23
0.0
 33
0.0
 40
0.0
 40
0.0
 40
0.0
 40
0.0
 40
1.0
 40
1.0
 40
1.0
 40
2.0
 40
2.0
 40
2.0
 40
2.0
 10
423.6879549606419
 20
589.2997671733374
 30
0.0
 10
425.471934823443
 20
590.3737385086233
 30
0.0
 10
427.1427911108567
 20
592.8789689933892
 30
0.0
 10
428.8136473982704
 20
592.9580149699814
 30
0.0
 10
430.4843280279601
 20
593.0377635774748
 30
0.0
 10
434.6186082614095
 20
595.5774229764902
 30
0.0
 10
435.6957414357603
 20
596.7713685384697
 30
0.0
  0
SPLINE
  5
A7
330
1F
100
AcDbEntity
  8
Layer 1
 62
   250
420
  2301728
370
    13
100
AcDbSpline
210
0.0
220
0.0
230
1.0
 70
     8
 71
     3
 72
    11
 73
     7
 74
     0
 42
0.0000000001
 43
0.0000000001
 12
1.0
 22
0.0
 32
0.0
 13
1.0
 23
0.0
 33
0.0
 40
0.0
 40
0.0
 40
0.0
 40
0.0
 40
1.0
 40
1.0
 40
1.0
 40
2.0
 40
2.0
 40
2.0
 40
2.0
 10
419.3994472439736
 20
591.7674069047898
 30
0.0
 10
420.3892785286243
 20
592.3609772279651
 30
0.0
 10
421.5746168620426
 20
594.0291757816558
 30
0.0
 10
423.8063482678008
 20
594.3474675807302
 30
0.0
 10
426.0345665190453
 20
594.6656066481355
 30
0.0
 10
431.0025183189464
 20
597.9635575231923
 30
0.0
 10
431.9956871003833
 20
599.0391097780112
 30
0.0
  0
SPLINE
  5
A8
330
1F
100
AcDbEntity
  8
Layer 1
 62
   250
420
  2301728
370
    13
100
AcDbSpline
210
0.0
220
0.0
230
1.0
 70
     8
 71
     3
 72
    11
 73
     7
 74
     0
 42
0.0000000001
 43
0.0000000001
 12
1.0
 22
0.0
 32
0.0
 13
1.0
 23
0.0
 33
0.0
 40
0.0
 40
0.0
 40
0.0
 40
0.0
 40
1.0
 40
1.0
 40
1.0
 40
2.0
 40
2.0
 40
2.0
 40
2.0
 10
414.6991978181304
 20
594.5052082184611
 30
0.0
 10
416.2483233015955
 20
595.3775244845765
 30
0.0
 10
418.0820143007859
 20
597.7713879712119
 30
0.0
 10
419.9072737291426
 20
598.008174585535
 30
0.0
 10
421.7358706542873
 20
598.2430289648737
 30
0.0
 10
426.3930839373206
 20
600.751069973252
 30
0.0
 10
427.4652986953497
 20
601.7846400316139
 30
0.0
  0
SPLINE
  5
A9
330
1F
100
AcDbEntity
  8
Layer 1
 62
   250
420
  2301728
370
    13
100
AcDbSpline
210
0.0
220
0.0
230
1.0
 70
     8
 71
     3
 72
    11
 73
     7
 74
     0
 42
0.0000000001
 43
0.0000000001
 12
1.0
 22
0.0
 32
0.0
 13
1.0
 23
0.0
 33
0.0
 40
0.0
 40
0.0
 40
0.0
 40
0.0
 40
1.0
 40
1.0
 40
1.0
 40
2.0
 40
2.0
 40
2.0
 40
2.0
 10
410.3249691312958
 20
596.8948559196788
 30
0.0
 10
411.2410241711259
 20
597.8871694199288
 30
0.0
 10
414.7764872174648
 20
600.5940550422474
 30
0.0
 10
416.0509003255193
 20
601.1910925762768
 30
0.0
 10
417.3254564759463
 20
601.7846400316139
 30
0.0
 10
420.9828259839614
 20
604.1294950127631
 30
0.0
 10
421.93822835436
 20
605.2008314821642
 30
0.0
  0
SPLINE
  5
AA
330
1F
100
AcDbEntity
  8
Layer 1
 62
   250
420
  2301728
370
    13
100
AcDbSpline
210
0.0
220
0.0
230
1.0
 70
     8
 71
     3
 72
    11
 73
     7
 74
     0
 42
0.0000000001
 43
0.0000000001
 12
1.0
 22
0.0
 32
0.0
 13
1.0
 23
0.0
 33
0.0
 40
0.0
 40
0.0
 40
0.0
 40
0.0
 40
1.0
 40
1.0
 40
1.0
 40
2.0
 40
2.0
 40
2.0
 40
2.0
 10
404.7223659682313
 20
600.115540321458
 30
0.0
 10
406.3143519367804
 20
601.0691861146006
 30
0.0
 10
409.5290639758841
 20
602.4166565288933
 30
0.0
 10
411.1243874412212
 20
603.8902491902809
 30
0.0
 10
412.7161977520445
 20
605.3638418516675
 30
0.0
 10
415.4935220540119
 20
607.6263133594357
 30
0.0
 10
417.5227201019716
 20
607.9463617357669
 30
0.0
  0
SPLINE
  5
AB
330
1F
100
AcDbEntity
  8
Layer 1
 62
   250
420
  2301728
370
    13
100
AcDbSpline
210
0.0
220
0.0
230
1.0
 70
     8
 71
     3
 72
    11
 73
     7
 74
     0
 42
0.0000000001
 43
0.0000000001
 12
1.0
 22
0.0
 32
0.0
 13
1.0
 23
0.0
 33
0.0
 40
0.0
 40
0.0
 40
0.0
 40
0.0
 40
1.0
 40
1.0
 40
1.0
 40
2.0
 40
2.0
 40
2.0
 40
2.0
 10
397.12481801373
 20
604.3704974125039
 30
0.0
 10
398.7596644673631
 20
605.3638418516675
 30
0.0
 10
399.9140870410483
 20
607.1496015331577
 30
0.0
 10
401.4632125245098
 20
607.590303525656
 30
0.0
 10
403.0104057729895
 20
608.0261336068343
 30
0.0
 10
409.1774133429535
 20
611.3616748976883
 30
0.0
 10
410.4089335242097
 20
612.3952449560502
 30
0.0
  0
SPLINE
  5
AC
330
1F
100
AcDbEntity
  8
Layer 1
 62
   250
420
  2301728
370
    13
100
AcDbSpline
210
0.0
220
0.0
230
1.0
 70
     8
 71
     3
 72
    14
 73
    10
 74
     0
 42
0.0000000001
 43
0.0000000001
 12
1.0
 22
0.0
 32
0.0
 13
1.0
 23
0.0
 33
0.0
 40
0.0
 40
0.0
 40
0.0
 40
0.0
 40
1.0
 40
1.0
 40
1.0
 40
2.0
 40
2.0
 40
2.0
 40
3.0
 40
3.0
 40
3.0
 40
3.0
 10
390.2511555470774
 20
608.3048791540414
 30
0.0
 10
391.9255249890066
 20
608.9781985044956
 30
0.0
 10
392.9100865418823
 20
609.8924736794452
 30
0.0
 10
394.3476693694902
 20
610.2527476749765
 30
0.0
 10
395.7713752367599
 20
610.6112650932482
 30
0.0
 10
397.8471225820485
 20
611.3282999297935
 30
0.0
 10
399.1164253083789
 20
612.6389056017797
 30
0.0
 10
400.3892571012548
 20
613.9510688463415
 30
0.0
 10
402.9761525164668
 20
615.5421531130123
 30
0.0
 10
404.2078644894846
 20
616.097934157312
 30
0.0
  0
SPLINE
  5
AD
330
1F
100
AcDbEntity
  8
Layer 1
 62
   250
420
  2301728
370
    13
100
AcDbSpline
210
0.0
220
0.0
230
1.0
 70
     8
 71
     3
 72
    11
 73
     7
 74
     0
 42
0.0000000001
 43
0.0000000001
 12
1.0
 22
0.0
 32
0.0
 13
1.0
 23
0.0
 33
0.0
 40
0.0
 40
0.0
 40
0.0
 40
0.0
 40
1.0
 40
1.0
 40
1.0
 40
2.0
 40
2.0
 40
2.0
 40
2.0
 10
384.5252406605323
 20
611.6430785743532
 30
0.0
 10
386.5115782234079
 20
612.9543634971396
 30
0.0
 10
387.5855651472775
 20
614.6629861955917
 30
0.0
 10
389.7331409138169
 20
615.3413763324706
 30
0.0
 10
391.8809079266648
 20
616.0199421270754
 30
0.0
 10
395.4952412918701
 20
619.279095570796
 30
0.0
 10
397.2844908864427
 20
620.4704062668898
 30
0.0
  0
SPLINE
  5
AE
330
1F
100
AcDbEntity
  8
Layer 1
 62
   250
420
  2301728
370
    13
100
AcDbSpline
210
0.0
220
0.0
230
1.0
 70
     8
 71
     3
 72
    32
 73
    28
 74
     0
 42
0.0000000001
 43
0.0000000001
 12
1.0
 22
0.0
 32
0.0
 13
1.0
 23
0.0
 33
0.0
 40
0.0
 40
0.0
 40
0.0
 40
0.0
 40
1.0
 40
1.0
 40
1.0
 40
2.0
 40
2.0
 40
2.0
 40
3.0
 40
3.0
 40
3.0
 40
4.0
 40
4.0
 40
4.0
 40
5.0
 40
5.0
 40
5.0
 40
6.0
 40
6.0
 40
6.0
 40
7.0
 40
7.0
 40
7.0
 40
8.0
 40
8.0
 40
8.0
 40
9.0
 40
9.0
 40
9.0
 40
9.0
 10
386.1342654284781
 20
681.1573399928038
 30
0.0
 10
386.1669377654689
 20
679.3338371417067
 30
0.0
 10
387.1137329073063
 20
673.4122395486656
 30
0.0
 10
387.1771453463043
 20
671.3923513601694
 30
0.0
 10
387.2458275170757
 20
669.3733414603021
 30
0.0
 10
387.8205795957601
 20
666.0042262802563
 30
0.0
 10
387.8548328522829
 20
663.7828586803153
 30
0.0
 10
387.8890861088039
 20
661.5604371340214
 30
0.0
 10
387.4516983716658
 20
660.313442938861
 30
0.0
 10
388.1550319056041
 20
658.8999252196836
 30
0.0
 10
388.8617029363286
 20
657.4872857891351
 30
0.0
 10
388.9303851070999
 20
656.172487711834
 30
0.0
 10
389.6028028813034
 20
654.4561360734479
 30
0.0
 10
390.2803147295544
 20
652.7399600927884
 30
0.0
 10
390.4108284197937
 20
650.2447420983899
 30
0.0
 10
390.817300397197
 20
649.1024399077833
 30
0.0
 10
391.2186783005563
 20
647.9599620594508
 30
0.0
 10
391.5893161019048
 20
647.3492001469904
 30
0.0
 10
391.2856038940681
 20
646.5773601000055
 30
0.0
 10
390.983648263491
 20
645.8053443952977
 30
0.0
 10
390.4810915100952
 20
644.4561174037472
 30
0.0
 10
390.515344766618
 20
642.8428768503827
 30
0.0
 10
390.5497736808684
 20
641.2270014311307
 30
0.0
 10
389.6337342813622
 20
639.5398089752234
 30
0.0
 10
389.8738427521475
 20
636.9144286060364
 30
0.0
 10
390.1088727892129
 20
634.2881699482223
 30
0.0
 10
391.5206339311335
 20
626.7489403586724
 30
0.0
 10
391.0850027712531
 20
624.3592926574547
 30
0.0
  0
SPLINE
  5
AF
330
1F
100
AcDbEntity
  8
Layer 1
 62
   250
420
  2301728
370
    13
100
AcDbSpline
210
0.0
220
0.0
230
1.0
 70
     8
 71
     3
 72
    26
 73
    22
 74
     0
 42
0.0000000001
 43
0.0000000001
 12
1.0
 22
0.0
 32
0.0
 13
1.0
 23
0.0
 33
0.0
 40
0.0
 40
0.0
 40
0.0
 40
0.0
 40
1.0
 40
1.0
 40
1.0
 40
2.0
 40
2.0
 40
2.0
 40
3.0
 40
3.0
 40
3.0
 40
4.0
 40
4.0
 40
4.0
 40
5.0
 40
5.0
 40
5.0
 40
6.0
 40
6.0
 40
6.0
 40
7.0
 40
7.0
 40
7.0
 40
7.0
 10
395.6306891902477
 20
621.5967236044544
 30
0.0
 10
395.5930826451167
 20
624.7924646091751
 30
0.0
 10
395.5279136288591
 20
631.4293404615055
 30
0.0
 10
395.5621826754723
 20
633.0445132498544
 30
0.0
 10
395.5930826451167
 20
634.6586320918477
 30
0.0
 10
394.4917087046106
 20
639.0021206766751
 30
0.0
 10
394.9891713839588
 20
641.5596971637178
 30
0.0
 10
395.4952412918701
 20
644.1190302280174
 30
0.0
 10
394.821066940407
 20
645.7333247277384
 30
0.0
 10
395.2928835917955
 20
646.8475216822226
 30
0.0
 10
395.7611870886685
 20
647.9599620594508
 30
0.0
 10
396.4062022576509
 20
648.7653527320526
 30
0.0
 10
395.8983757724836
 20
650.9875986206225
 30
0.0
 10
395.3940624418319
 20
653.2098445091924
 30
0.0
 10
394.3854357805267
 20
657.6536336554273
 30
0.0
 10
393.8124402791018
 20
660.1795917518339
 30
0.0
 10
393.2394447776805
 20
662.7029149823529
 30
0.0
 10
392.7351314470252
 20
666.7795794817539
 30
0.0
 10
392.6699624307712
 20
668.5637350022816
 30
0.0
 10
392.6012802599998
 20
670.3468365764556
 30
0.0
 10
392.1965805649179
 20
676.067657388955
 30
0.0
 10
392.0936294325584
 20
677.4177626691344
 30
0.0
  0
SPLINE
  5
B0
330
1F
100
AcDbEntity
  8
Layer 1
 62
   250
420
  2301728
370
    13
100
AcDbSpline
210
0.0
220
0.0
230
1.0
 70
     8
 71
     3
 72
    29
 73
    25
 74
     0
 42
0.0000000001
 43
0.0000000001
 12
1.0
 22
0.0
 32
0.0
 13
1.0
 23
0.0
 33
0.0
 40
0.0
 40
0.0
 40
0.0
 40
0.0
 40
1.0
 40
1.0
 40
1.0
 40
2.0
 40
2.0
 40
2.0
 40
3.0
 40
3.0
 40
3.0
 40
4.0
 40
4.0
 40
4.0
 40
5.0
 40
5.0
 40
5.0
 40
6.0
 40
6.0
 40
6.0
 40
7.0
 40
7.0
 40
7.0
 40
8.0
 40
8.0
 40
8.0
 40
8.0
 10
396.4062022576509
 20
674.149826339125
 30
0.0
 10
396.7731512467617
 20
672.564866679606
 30
0.0
 10
397.6481023787637
 20
671.5253242585686
 30
0.0
 10
397.3821565819653
 20
669.8073917006514
 30
0.0
 10
397.1111167111212
 20
668.0901617736372
 30
0.0
 10
397.7166088918093
 20
663.9819035607343
 30
0.0
 10
397.853973233352
 20
663.0400021580854
 30
0.0
 10
397.9876487626552
 20
662.1000576675506
 30
0.0
 10
398.1901821204538
 20
658.3938553117741
 30
0.0
 10
399.06495759473
 20
656.8131114376738
 30
0.0
 10
399.9363955722183
 20
655.2323920196777
 30
0.0
 10
400.2778741910915
 20
654.1148331122986
 30
0.0
 10
400.6843620879845
 20
653.1086900616092
 30
0.0
 10
401.085724071856
 20
652.1009172864797
 30
0.0
 10
401.3207541089196
 20
652.2723592268194
 30
0.0
 10
401.1886594991502
 20
650.5862450559953
 30
0.0
 10
401.0514867440961
 20
648.8999308461171
 30
0.0
 10
401.3207541089196
 20
645.062487873065
 30
0.0
 10
401.3207541089196
 20
642.976552379685
 30
0.0
 10
401.3207541089196
 20
640.8899383491844
 30
0.0
 10
402.1012013844647
 20
635.366181411202
 30
0.0
 10
402.1647894811904
 20
632.5718183098379
 30
0.0
 10
402.2282019201884
 20
629.7774552084729
 30
0.0
 10
403.5747940458532
 20
619.7131458111453
 30
0.0
 10
403.2403417360092
 20
616.8843537955327
 30
0.0
  0
SPLINE
  5
B1
330
1F
100
AcDbEntity
  8
Layer 1
 62
   250
420
  2301728
370
    13
100
AcDbSpline
210
0.0
220
0.0
230
1.0
 70
     8
 71
     3
 72
    29
 73
    25
 74
     0
 42
0.0000000001
 43
0.0000000001
 12
1.0
 22
0.0
 32
0.0
 13
1.0
 23
0.0
 33
0.0
 40
0.0
 40
0.0
 40
0.0
 40
0.0
 40
1.0
 40
1.0
 40
1.0
 40
2.0
 40
2.0
 40
2.0
 40
3.0
 40
3.0
 40
3.0
 40
4.0
 40
4.0
 40
4.0
 40
5.0
 40
5.0
 40
5.0
 40
6.0
 40
6.0
 40
6.0
 40
7.0
 40
7.0
 40
7.0
 40
8.0
 40
8.0
 40
8.0
 40
8.0
 10
409.3333812693891
 20
613.0822423214913
 30
0.0
 10
409.1343610661042
 20
614.9991950826934
 30
0.0
 10
408.4895215548477
 20
622.3745360141111
 30
0.0
 10
408.1533287759139
 20
624.3592926574547
 30
0.0
 10
407.8169281229166
 20
626.3449275894282
 30
0.0
 10
407.1445103487131
 20
630.9910744357394
 30
0.0
 10
407.0760038356693
 20
632.7416793306456
 30
0.0
 10
407.007321664898
 20
634.489649359668
 30
0.0
 10
405.8648438165656
 20
640.8572419184093
 30
0.0
 10
405.9368634841267
 20
642.8077453052301
 30
0.0
 10
405.9986950035927
 20
644.7598296115839
 30
0.0
 10
405.6625021617365
 20
647.9950936046025
 30
0.0
 10
405.6625021617365
 20
649.5071553079306
 30
0.0
 10
405.6625021617365
 20
651.0202709576133
 30
0.0
 10
405.7517202411746
 20
653.5195290797037
 30
0.0
 10
405.4908685184255
 20
654.558193212114
 30
0.0
 10
404.8562331801368
 20
657.1168236455096
 30
0.0
 10
404.2489683973126
 20
656.4477433680968
 30
0.0
 10
404.0466106972381
 20
657.2856307199636
 30
0.0
 10
404.0466106972381
 20
657.2856307199636
 30
0.0
 10
403.1374063087133
 20
662.1343109240734
 30
0.0
 10
403.1374063087133
 20
662.1343109240734
 30
0.0
 10
403.037808378207
 20
663.6463972960601
 30
0.0
 10
402.9006196943919
 20
668.1245906878858
 30
0.0
 10
402.128779647408
 20
669.8407666685453
 30
0.0
  0
SPLINE
  5
B2
330
1F
100
AcDbEntity
  8
Layer 1
 62
   250
420
  2301728
370
    13
100
AcDbSpline
210
0.0
220
0.0
230
1.0
 70
     8
 71
     3
 72
    29
 73
    25
 74
     0
 42
0.0000000001
 43
0.0000000001
 12
1.0
 22
0.0
 32
0.0
 13
1.0
 23
0.0
 33
0.0
 40
0.0
 40
0.0
 40
0.0
 40
0.0
 40
1.0
 40
1.0
 40
1.0
 40
2.0
 40
2.0
 40
2.0
 40
3.0
 40
3.0
 40
3.0
 40
4.0
 40
4.0
 40
4.0
 40
5.0
 40
5.0
 40
5.0
 40
6.0
 40
6.0
 40
6.0
 40
7.0
 40
7.0
 40
7.0
 40
8.0
 40
8.0
 40
8.0
 40
8.0
 10
407.7862041198041
 20
665.5668385431181
 30
0.0
 10
408.1188837534974
 20
663.5803253225167
 30
0.0
 10
407.518485646855
 20
662.3333311273573
 30
0.0
 10
408.6936358321782
 20
660.885560151657
 30
0.0
 10
409.8686103597756
 20
659.4402483841168
 30
0.0
 10
411.2203127451339
 20
656.7461858441602
 30
0.0
 10
410.9870230996803
 20
656.1406936634703
 30
0.0
 10
410.7486555658252
 20
655.5325666168956
 30
0.0
 10
410.6817299723098
 20
654.5213050897037
 30
0.0
 10
410.9870230996803
 20
653.4106212897332
 30
0.0
 10
411.2872221530015
 20
652.3032749865524
 30
0.0
 10
411.7161783193023
 20
649.9754588048017
 30
0.0
 10
411.6183369660557
 20
649.00196368865
 30
0.0
 10
411.5204956128073
 20
648.0267119952387
 30
0.0
 10
411.6543467998345
 20
640.2868812828729
 30
0.0
 10
412.1946699642685
 20
638.6005671155908
 30
0.0
 10
412.7334122091688
 20
636.9144286060364
 30
0.0
 10
414.0371438497477
 20
630.5519301213417
 30
0.0
 10
413.910143314024
 20
628.567173477998
 30
0.0
 10
413.7798052815124
 20
626.5808596474271
 30
0.0
 10
414.1537968394041
 20
623.8300595925575
 30
0.0
 10
414.3492876284199
 20
622.3394044689594
 30
0.0
 10
415.0252185571389
 20
617.1880660033694
 30
0.0
 10
416.7749451634172
 20
610.7895576848932
 30
0.0
 10
416.1676964054714
 20
608.8699700578054
 30
0.0
  0
SPLINE
  5
B3
330
1F
100
AcDbEntity
  8
Layer 1
 62
   250
420
  2301728
370
    13
100
AcDbSpline
210
0.0
220
0.0
230
1.0
 70
     8
 71
     3
 72
    35
 73
    31
 74
     0
 42
0.0000000001
 43
0.0000000001
 12
1.0
 22
0.0
 32
0.0
 13
1.0
 23
0.0
 33
0.0
 40
0.0
 40
0.0
 40
0.0
 40
0.0
 40
1.0
 40
1.0
 40
1.0
 40
2.0
 40
2.0
 40
2.0
 40
3.0
 40
3.0
 40
3.0
 40
4.0
 40
4.0
 40
4.0
 40
5.0
 40
5.0
 40
5.0
 40
6.0
 40
6.0
 40
6.0
 40
7.0
 40
7.0
 40
7.0
 40
8.0
 40
8.0
 40
8.0
 40
9.0
 40
9.0
 40
9.0
 40
10.0
 40
10.0
 40
10.0
 40
10.0
 10
424.5834580465562
 20
603.6870132015783
 30
0.0
 10
424.7875723238867
 20
605.3406550318668
 30
0.0
 10
425.1940443012936
 20
606.0455694853363
 30
0.0
 10
424.4805226192639
 20
607.3561517772196
 30
0.0
 10
423.7789456625833
 20
608.6676123577317
 30
0.0
 10
423.7102634918101
 20
609.3727024689251
 30
0.0
 10
423.0051898639758
 20
610.8556049897779
 30
0.0
 10
422.2916516985879
 20
612.3393857992587
 30
0.0
 10
421.5814675133443
 20
613.4827419362209
 30
0.0
 10
421.0462384229595
 20
614.2932266828702
 30
0.0
 10
420.5110093325729
 20
615.1012522213587
 30
0.0
 10
419.498869516754
 20
615.8441087435904
 30
0.0
 10
419.498869516754
 20
617.4908999225763
 30
0.0
 10
419.498869516754
 20
619.1401503097213
 30
0.0
 10
419.4681294147467
 20
620.6574817448218
 30
0.0
 10
419.0632383568736
 20
622.4080866397308
 30
0.0
 10
418.6565907217409
 20
624.156934957382
 30
0.0
 10
418.0510985410529
 20
626.4118531829427
 30
0.0
 10
418.0888649520912
 20
628.7704094667006
 30
0.0
 10
418.1162675573087
 20
631.1258039113945
 30
0.0
 10
417.2105763232994
 20
637.2857690382898
 30
0.0
 10
417.3821939213649
 20
639.5064340073277
 30
0.0
 10
417.5434477136114
 20
641.7295822995193
 30
0.0
 10
417.4489438571545
 20
643.1455351118639
 30
0.0
 10
417.1763230667766
 20
644.8276334937264
 30
0.0
 10
416.9086206927204
 20
646.5113127951208
 30
0.0
 10
416.1367806457383
 20
651.5983605330839
 30
0.0
 10
415.6993929086002
 20
652.7399600927884
 30
0.0
 10
415.2584920169447
 20
653.8831405720239
 30
0.0
 10
414.1469299283472
 20
657.7539342168357
 30
0.0
 10
414.2806054576504
 20
660.6839050824874
 30
0.0
  0
SPLINE
  5
B4
330
1F
100
AcDbEntity
  8
Layer 1
 62
   250
420
  2301728
370
    13
100
AcDbSpline
210
0.0
220
0.0
230
1.0
 70
     8
 71
     3
 72
    38
 73
    34
 74
     0
 42
0.0000000001
 43
0.0000000001
 12
1.0
 22
0.0
 32
0.0
 13
1.0
 23
0.0
 33
0.0
 40
0.0
 40
0.0
 40
0.0
 40
0.0
 40
1.0
 40
1.0
 40
1.0
 40
2.0
 40
2.0
 40
2.0
 40
3.0
 40
3.0
 40
3.0
 40
4.0
 40
4.0
 40
4.0
 40
5.0
 40
5.0
 40
5.0
 40
6.0
 40
6.0
 40
6.0
 40
7.0
 40
7.0
 40
7.0
 40
8.0
 40
8.0
 40
8.0
 40
9.0
 40
9.0
 40
9.0
 40
10.0
 40
10.0
 40
10.0
 40
11.0
 40
11.0
 40
11.0
 40
11.0
 10
419.2965118166812
 20
656.9134364976526
 30
0.0
 10
419.2004434279315
 20
654.8619054199489
 30
0.0
 10
419.1319369131561
 20
652.6361707673814
 30
0.0
 10
419.8385915583713
 20
651.0536459255072
 30
0.0
 10
420.5419250923078
 20
649.4729020514078
 30
0.0
 10
420.9468161501791
 20
647.082551719288
 30
0.0
 10
421.1801060472408
 20
644.7598296115839
 30
0.0
 10
421.4167005665859
 20
642.4371075038807
 30
0.0
 10
421.9245270517531
 20
640.5528270796704
 30
0.0
 10
421.8558448809817
 20
638.3648344476242
 30
0.0
 10
421.7906758647241
 20
636.1768418155771
 30
0.0
 10
422.1920537680817
 20
635.2358433786885
 30
0.0
 10
422.4630936389258
 20
633.9210453013875
 30
0.0
 10
422.7325525902397
 20
632.6069498549896
 30
0.0
 10
423.0396022948662
 20
631.2903952004299
 30
0.0
 10
423.1390245676448
 20
630.1496739293552
 30
0.0
 10
423.2384468404252
 20
629.0054395037641
 30
0.0
 10
423.3038080053102
 20
627.6219592556918
 30
0.0
 10
424.0139756996468
 20
626.0069621250686
 30
0.0
 10
424.7206467303749
 20
624.3919649944455
 30
0.0
 10
426.3743051291331
 20
621.6952675886032
 30
0.0
 10
427.2799797946736
 20
620.3495537515682
 30
0.0
 10
428.1858466864087
 20
619.005596491791
 30
0.0
 10
429.0983885717251
 20
617.589443906726
 30
0.0
 10
428.724413273585
 20
616.4460877697647
 30
0.0
 10
428.3539677484423
 20
615.3029072905292
 30
0.0
 10
428.724413273585
 20
614.2958615487569
 30
0.0
 10
428.791355496629
 20
612.9466345572064
 30
0.0
 10
428.8598620114062
 20
611.5975832233817
 30
0.0
 10
429.2974087750099
 20
607.2189630934026
 30
0.0
 10
429.5991887478631
 20
606.0756069564395
 30
0.0
 10
429.9079950297455
 20
604.933129108108
 30
0.0
 10
430.2031000090192
 20
601.6653684358253
 30
0.0
 10
430.237353265542
 20
600.1162660161126
 30
0.0
  0
SPLINE
  5
B5
330
1F
100
AcDbEntity
  8
Layer 1
 62
   250
420
  2301728
370
    13
100
AcDbSpline
210
0.0
220
0.0
230
1.0
 70
     8
 71
     3
 72
    23
 73
    19
 74
     0
 42
0.0000000001
 43
0.0000000001
 12
1.0
 22
0.0
 32
0.0
 13
1.0
 23
0.0
 33
0.0
 40
0.0
 40
0.0
 40
0.0
 40
0.0
 40
1.0
 40
1.0
 40
1.0
 40
2.0
 40
2.0
 40
2.0
 40
3.0
 40
3.0
 40
3.0
 40
4.0
 40
4.0
 40
4.0
 40
5.0
 40
5.0
 40
5.0
 40
6.0
 40
6.0
 40
6.0
 40
6.0
 10
424.1083204096049
 20
653.2098445091924
 30
0.0
 10
424.2128202452059
 20
651.2199937918003
 30
0.0
 10
424.5490291323076
 20
648.7686902288424
 30
0.0
 10
424.8218255804095
 20
647.656274116328
 30
0.0
 10
425.0895279544675
 20
646.5446877630147
 30
0.0
 10
425.262726472065
 20
643.6131359778328
 30
0.0
 10
425.4925033235486
 20
642.1669700477069
 30
0.0
 10
425.7292733916784
 20
640.7218098118501
 30
0.0
 10
425.7926858306782
 20
639.6453792684024
 30
0.0
 10
426.806582223755
 20
638.3648344476242
 30
0.0
 10
427.8169654623161
 20
637.0834353358377
 30
0.0
 10
428.4533734027409
 20
636.3071798480905
 30
0.0
 10
428.791355496629
 20
635.165580288387
 30
0.0
 10
429.1293043314581
 20
634.0222241514239
 30
0.0
 10
429.6714007249102
 20
630.7173996990059
 30
0.0
 10
429.8702286187072
 20
629.7774552084729
 30
0.0
 10
430.0727619765057
 20
628.8364567715853
 30
0.0
 10
430.5426630666807
 20
627.1511965506588
 30
0.0
 10
430.6422443234169
 20
625.7710775112228
 30
0.0
  0
SPLINE
  5
B6
330
1F
100
AcDbEntity
  8
Layer 1
 62
   250
420
  2301728
370
    50
100
AcDbSpline
210
0.0
220
0.0
230
1.0
 70
    11
 71
     3
 72
   134
 73
   130
 74
     0
 42
0.0000000001
 43
0.0000000001
 12
1.0
 22
0.0
 32
0.0
 13
1.0
 23
0.0
 33
0.0
 40
0.0
 40
0.0
 40
0.0
 40
0.0
 40
1.0
 40
1.0
 40
1.0
 40
2.0
 40
2.0
 40
2.0
 40
3.0
 40
3.0
 40
3.0
 40
4.0
 40
4.0
 40
4.0
 40
5.0
 40
5.0
 40
5.0
 40
6.0
 40
6.0
 40
6.0
 40
7.0
 40
7.0
 40
7.0
 40
8.0
 40
8.0
 40
8.0
 40
9.0
 40
9.0
 40
9.0
 40
10.0
 40
10.0
 40
10.0
 40
11.0
 40
11.0
 40
11.0
 40
12.0
 40
12.0
 40
12.0
 40
13.0
 40
13.0
 40
13.0
 40
14.0
 40
14.0
 40
14.0
 40
15.0
 40
15.0
 40
15.0
 40
16.0
 40
16.0
 40
16.0
 40
17.0
 40
17.0
 40
17.0
 40
18.0
 40
18.0
 40
18.0
 40
19.0
 40
19.0
 40
19.0
 40
20.0
 40
20.0
 40
20.0
 40
21.0
 40
21.0
 40
21.0
 40
22.0
 40
22.0
 40
22.0
 40
23.0
 40
23.0
 40
23.0
 40
24.0
 40
24.0
 40
24.0
 40
25.0
 40
25.0
 40
25.0
 40
26.0
 40
26.0
 40
26.0
 40
27.0
 40
27.0
 40
27.0
 40
28.0
 40
28.0
 40
28.0
 40
29.0
 40
29.0
 40
29.0
 40
30.0
 40
30.0
 40
30.0
 40
31.0
 40
31.0
 40
31.0
 40
32.0
 40
32.0
 40
32.0
 40
33.0
 40
33.0
 40
33.0
 40
34.0
 40
34.0
 40
34.0
 40
35.0
 40
35.0
 40
35.0
 40
36.0
 40
36.0
 40
36.0
 40
37.0
 40
37.0
 40
37.0
 40
38.0
 40
38.0
 40
38.0
 40
39.0
 40
39.0
 40
39.0
 40
40.0
 40
40.0
 40
40.0
 40
41.0
 40
41.0
 40
41.0
 40
42.0
 40
42.0
 40
42.0
 40
43.0
 40
43.0
 40
43.0
 40
43.0
 10
290.9377905577949
 20
483.5329129974152
 30
0.0
 10
290.9377905577949
 20
483.5329129974152
 30
0.0
 10
289.6358154944728
 20
483.416296383175
 30
0.0
 10
289.0798587924473
 20
483.368321708379
 30
0.0
 10
288.4829869253626
 20
483.3168539947328
 30
0.0
 10
239.7465621709271
 20
478.8147464835447
 30
0.0
 10
239.7465621709271
 20
478.8147464835447
 30
0.0
 10
239.7465621709271
 20
478.8147464835447
 30
0.0
 10
235.6502240062409
 20
479.9031417792576
 30
0.0
 10
235.6502240062409
 20
479.9031417792576
 30
0.0
 10
235.6502240062409
 20
479.9031417792576
 30
0.0
 10
227.0370230814042
 20
491.1441622545262
 30
0.0
 10
227.0370230814042
 20
491.1441622545262
 30
0.0
 10
227.0370230814042
 20
491.1441622545262
 30
0.0
 10
227.0370230814042
 20
509.7907568169576
 30
0.0
 10
227.0370230814042
 20
509.7907568169576
 30
0.0
 10
227.665702081893
 20
509.9982085910788
 30
0.0
 10
228.4162875440588
 20
510.4992052247762
 30
0.0
 10
228.4162875440588
 20
511.2504725180106
 30
0.0
 10
228.4162875440588
 20
511.3620151738669
 30
0.0
 10
228.4162875440588
 20
512.1115466896772
 30
0.0
 10
228.4162875440588
 20
513.3200718428952
 30
0.0
 10
226.1819212724122
 20
514.9420952825494
 30
0.0
 10
226.444353914696
 20
518.8402915325796
 30
0.0
 10
228.4162875440588
 20
520.8765158895703
 30
0.0
 10
228.4162875440588
 20
530.191118113361
 30
0.0
 10
228.4162875440588
 20
542.8938065515804
 30
0.0
 10
228.4162875440588
 20
542.8938065515804
 30
0.0
 10
227.1598078317093
 20
545.1907069735962
 30
0.0
 10
227.078314180786
 20
548.1600251698164
 30
0.0
 10
227.621260677276
 20
549.2888017155401
 30
0.0
 10
228.164921338499
 20
550.4200374694246
 30
0.0
 10
229.8768815337398
 20
553.0129211593439
 30
0.0
 10
227.4109983795433
 20
553.7197897394744
 30
0.0
 10
227.4109983795433
 20
553.6784882822421
 30
0.0
 10
227.3029688782026
 20
582.3129811312956
 30
0.0
 10
227.3029688782026
 20
582.3129811312956
 30
0.0
 10
227.3029688782026
 20
582.3129811312956
 30
0.0
 10
235.2384822970635
 20
594.1433533033987
 30
0.0
 10
235.2384822970635
 20
594.1433533033987
 30
0.0
 10
235.2384822970635
 20
594.1433533033987
 30
0.0
 10
252.3419237387079
 20
597.332243656816
 30
0.0
 10
272.0493153069929
 20
601.0084085414883
 30
0.0
 10
274.6430772855419
 20
603.1509058225638
 30
0.0
 10
277.7873505766165
 20
603.1449334598874
 30
0.0
 10
279.9470623148172
 20
602.4802446256181
 30
0.0
 10
287.1209238347901
 20
603.8182295227198
 30
0.0
 10
294.3926267080114
 20
605.1707940110591
 30
0.0
 10
301.0843077707768
 20
606.4221796493612
 30
0.0
 10
305.0074474178664
 20
609.6291627485334
 30
0.0
 10
306.0606911415134
 20
608.8957917434918
 30
0.0
 10
309.6390146729373
 20
608.0201379805867
 30
0.0
 10
321.755006307123
 20
610.2724213402607
 30
0.0
 10
330.7815298606693
 20
611.8359507572359
 30
0.0
 10
330.7815298606693
 20
611.8359507572359
 30
0.0
 10
330.7815298606693
 20
611.8359507572359
 30
0.0
 10
333.1179532709812
 20
610.6815281835516
 30
0.0
 10
333.1179532709812
 20
610.6815281835516
 30
0.0
 10
333.1179532709812
 20
610.6815281835516
 30
0.0
 10
339.1714698160667
 20
604.0926068903564
 30
0.0
 10
339.1714698160667
 20
604.0926068903564
 30
0.0
 10
339.1714698160667
 20
604.0926068903564
 30
0.0
 10
339.1869276959333
 20
562.7779097919783
 30
0.0
 10
339.1869276959333
 20
562.7779097919783
 30
0.0
 10
338.2195806001819
 20
562.3782884658776
 30
0.0
 10
337.4270129415618
 20
562.207571262541
 30
0.0
 10
337.4270129415618
 20
561.0153601717184
 30
0.0
 10
337.4270129415618
 20
559.987762476032
 30
0.0
 10
337.4270129415618
 20
550.5505511596621
 30
0.0
 10
337.4270129415618
 20
547.788684737563
 30
0.0
 10
337.4270129415618
 20
546.7551146792002
 30
0.0
 10
337.1833756759333
 20
546.8220402727147
 30
0.0
 10
338.1319273950303
 20
546.4403360346423
 30
0.0
 10
340.2196194656663
 20
545.6015703941457
 30
0.0
 10
346.8171625461146
 20
543.0798280831586
 30
0.0
 10
346.8171625461146
 20
543.0798280831586
 30
0.0
 10
346.8171625461146
 20
543.0798280831586
 30
0.0
 10
346.8171625461146
 20
541.4871394837064
 30
0.0
 10
346.8171625461146
 20
541.4871394837064
 30
0.0
 10
346.8171625461146
 20
541.4871394837064
 30
0.0
 10
346.8204854842152
 20
535.3811227070255
 30
0.0
 10
346.8204854842152
 20
535.3811227070255
 30
0.0
 10
346.8204854842152
 20
535.3811227070255
 30
0.0
 10
338.8610826146523
 20
534.1065288205164
 30
0.0
 10
338.3362173300866
 20
534.0181729844589
 30
0.0
 10
337.8111907189705
 20
533.9342085915468
 30
0.0
 10
337.0203653064309
 20
533.8853757437864
 30
0.0
 10
336.1404957581053
 20
533.9753124993749
 30
0.0
 10
335.2569373975421
 20
534.0654463078563
 30
0.0
 10
317.9297080132819
 20
534.0466295360329
 30
0.0
 10
317.9297080132819
 20
534.0466295360329
 30
0.0
 10
317.9297080132819
 20
534.0466295360329
 30
0.0
 10
301.5492737708591
 20
540.3523905753073
 30
0.0
 10
300.916203327226
 20
540.5608962957831
 30
0.0
 10
300.2780388095453
 20
540.771861224418
 30
0.0
 10
299.9384924256547
 20
540.9304801507787
 30
0.0
 10
299.9110898204362
 20
541.355923162565
 30
0.0
 10
299.5919197327339
 20
545.8545175192376
 30
0.0
 10
286.6097598528331
 20
536.8049828036164
 30
0.0
 10
289.6305457627004
 20
530.0711438866683
 30
0.0
 10
290.0645960030497
 20
530.1988470532942
 30
0.0
 10
290.7935755649469
 20
530.285446312093
 30
0.0
 10
291.2172619994762
 20
530.336914025741
 30
0.0
 10
291.6411240917314
 20
530.3892600280169
 30
0.0
 10
292.0166803094035
 20
530.3936514711604
 30
0.0
 10
292.59652646213
 20
530.2315193902859
 30
0.0
 10
293.1832232661636
 20
530.0711438866683
 30
0.0
 10
301.7602386994949
 20
527.4225766976815
 30
0.0
 10
301.7602386994949
 20
527.4225766976815
 30
0.0
 10
301.7602386994949
 20
527.4225766976815
 30
0.0
 10
314.5468915306265
 20
506.1815382165623
 30
0.0
 10
314.5468915306265
 20
506.1815382165623
 30
0.0
 10
314.5468915306265
 20
506.1815382165623
 30
0.0
 10
314.5468915306265
 20
497.7227197419052
 30
0.0
 10
314.5468915306265
 20
497.7227197419052
 30
0.0
 10
314.5468915306265
 20
497.7227197419052
 30
0.0
 10
302.3880528476684
 20
482.1675254950951
 30
0.0
 10
302.3880528476684
 20
482.1675254950951
 30
0.0
 10
302.3880528476684
 20
482.1675254950951
 30
0.0
 10
300.1614020796424
 20
481.5910168391574
 30
0.0
 10
300.1614020796424
 20
481.5910168391574
 30
0.0
 10
300.1614020796424
 20
481.5910168391574
 30
0.0
 10
293.3581783610189
 20
483.0749733063631
 30
0.0
 10
292.5930133076163
 20
483.2395645953984
 30
0.0
 10
291.9550244476613
 20
483.3716592051687
 30
0.0
 10
291.6221530573475
 20
483.5364261519308
 30
0.0
 10
290.9393714773269
 20
483.5311564201565
 30
0.0
 10
290.9393714773269
 20
483.5311564201565
 30
0.0
 10
290.9377905577949
 20
483.5329129974152
 30
0.0
 10
290.9377905577949
 20
483.5329129974152
 30
0.0
  0
HATCH
  5
B7
330
1F
100
AcDbEntity
  8
Layer 1
 62
   254
420
 13358815
100
AcDbHatch
 10
0.0
 20
0.0
 30
0.0
210
0.0
220
0.0
230
1.0
  2
SOLID
 70
     1
 71
     0
 91
        1
 92
        1
 93
        1
 72
     4
 94
        3
 73
     0
 74
     1
 95
      134
 96
      130
 40
0.0
 40
0.0
 40
0.0
 40
0.0
 40
1.0
 40
1.0
 40
1.0
 40
2.0
 40
2.0
 40
2.0
 40
3.0
 40
3.0
 40
3.0
 40
4.0
 40
4.0
 40
4.0
 40
5.0
 40
5.0
 40
5.0
 40
6.0
 40
6.0
 40
6.0
 40
7.0
 40
7.0
 40
7.0
 40
8.0
 40
8.0
 40
8.0
 40
9.0
 40
9.0
 40
9.0
 40
10.0
 40
10.0
 40
10.0
 40
11.0
 40
11.0
 40
11.0
 40
12.0
 40
12.0
 40
12.0
 40
13.0
 40
13.0
 40
13.0
 40
14.0
 40
14.0
 40
14.0
 40
15.0
 40
15.0
 40
15.0
 40
16.0
 40
16.0
 40
16.0
 40
17.0
 40
17.0
 40
17.0
 40
18.0
 40
18.0
 40
18.0
 40
19.0
 40
19.0
 40
19.0
 40
20.0
 40
20.0
 40
20.0
 40
21.0
 40
21.0
 40
21.0
 40
22.0
 40
22.0
 40
22.0
 40
23.0
 40
23.0
 40
23.0
 40
24.0
 40
24.0
 40
24.0
 40
25.0
 40
25.0
 40
25.0
 40
26.0
 40
26.0
 40
26.0
 40
27.0
 40
27.0
 40
27.0
 40
28.0
 40
28.0
 40
28.0
 40
29.0
 40
29.0
 40
29.0
 40
30.0
 40
30.0
 40
30.0
 40
31.0
 40
31.0
 40
31.0
 40
32.0
 40
32.0
 40
32.0
 40
33.0
 40
33.0
 40
33.0
 40
34.0
 40
34.0
 40
34.0
 40
35.0
 40
35.0
 40
35.0
 40
36.0
 40
36.0
 40
36.0
 40
37.0
 40
37.0
 40
37.0
 40
38.0
 40
38.0
 40
38.0
 40
39.0
 40
39.0
 40
39.0
 40
40.0
 40
40.0
 40
40.0
 40
41.0
 40
41.0
 40
41.0
 40
42.0
 40
42.0
 40
42.0
 40
43.0
 40
43.0
 40
43.0
 40
43.0
 10
290.9377905577949
 20
483.5329129974152
 10
290.9377905577949
 20
483.5329129974152
 10
289.6358154944728
 20
483.416296383175
 10
289.0798587924473
 20
483.368321708379
 10
288.4829869253626
 20
483.3168539947328
 10
239.7465621709271
 20
478.8147464835447
 10
239.7465621709271
 20
478.8147464835447
 10
239.7465621709271
 20
478.8147464835447
 10
235.6502240062409
 20
479.9031417792576
 10
235.6502240062409
 20
479.9031417792576
 10
235.6502240062409
 20
479.9031417792576
 10
227.0370230814042
 20
491.1441622545262
 10
227.0370230814042
 20
491.1441622545262
 10
227.0370230814042
 20
491.1441622545262
 10
227.0370230814042
 20
509.7907568169576
 10
227.0370230814042
 20
509.7907568169576
 10
227.665702081893
 20
509.9982085910788
 10
228.4162875440588
 20
510.4992052247762
 10
228.4162875440588
 20
511.2504725180106
 10
228.4162875440588
 20
511.3620151738669
 10
228.4162875440588
 20
512.1115466896772
 10
228.4162875440588
 20
513.3200718428952
 10
226.1819212724122
 20
514.9420952825494
 10
226.444353914696
 20
518.8402915325796
 10
228.4162875440588
 20
520.8765158895703
 10
228.4162875440588
 20
530.191118113361
 10
228.4162875440588
 20
542.8938065515804
 10
228.4162875440588
 20
542.8938065515804
 10
227.1598078317093
 20
545.1907069735962
 10
227.078314180786
 20
548.1600251698164
 10
227.621260677276
 20
549.2888017155401
 10
228.164921338499
 20
550.4200374694246
 10
229.8768815337398
 20
553.0129211593439
 10
227.4109983795433
 20
553.7197897394744
 10
227.4109983795433
 20
553.6784882822421
 10
227.3029688782026
 20
582.3129811312956
 10
227.3029688782026
 20
582.3129811312956
 10
227.3029688782026
 20
582.3129811312956
 10
235.2384822970635
 20
594.1433533033987
 10
235.2384822970635
 20
594.1433533033987
 10
235.2384822970635
 20
594.1433533033987
 10
252.3419237387079
 20
597.332243656816
 10
272.0493153069929
 20
601.0084085414883
 10
274.6430772855419
 20
603.1509058225638
 10
277.7873505766165
 20
603.1449334598874
 10
279.9470623148172
 20
602.4802446256181
 10
287.1209238347901
 20
603.8182295227198
 10
294.3926267080114
 20
605.1707940110591
 10
301.0843077707768
 20
606.4221796493612
 10
305.0074474178664
 20
609.6291627485334
 10
306.0606911415134
 20
608.8957917434918
 10
309.6390146729373
 20
608.0201379805867
 10
321.755006307123
 20
610.2724213402607
 10
330.7815298606693
 20
611.8359507572359
 10
330.7815298606693
 20
611.8359507572359
 10
330.7815298606693
 20
611.8359507572359
 10
333.1179532709812
 20
610.6815281835516
 10
333.1179532709812
 20
610.6815281835516
 10
333.1179532709812
 20
610.6815281835516
 10
339.1714698160667
 20
604.0926068903564
 10
339.1714698160667
 20
604.0926068903564
 10
339.1714698160667
 20
604.0926068903564
 10
339.1869276959333
 20
562.7779097919783
 10
339.1869276959333
 20
562.7779097919783
 10
338.2195806001819
 20
562.3782884658776
 10
337.4270129415618
 20
562.207571262541
 10
337.4270129415618
 20
561.0153601717184
 10
337.4270129415618
 20
559.987762476032
 10
337.4270129415618
 20
550.5505511596621
 10
337.4270129415618
 20
547.788684737563
 10
337.4270129415618
 20
546.7551146792002
 10
337.1833756759333
 20
546.8220402727147
 10
338.1319273950303
 20
546.4403360346423
 10
340.2196194656663
 20
545.6015703941457
 10
346.8171625461146
 20
543.0798280831586
 10
346.8171625461146
 20
543.0798280831586
 10
346.8171625461146
 20
543.0798280831586
 10
346.8171625461146
 20
541.4871394837064
 10
346.8171625461146
 20
541.4871394837064
 10
346.8171625461146
 20
541.4871394837064
 10
346.8204854842152
 20
535.3811227070255
 10
346.8204854842152
 20
535.3811227070255
 10
346.8204854842152
 20
535.3811227070255
 10
338.8610826146523
 20
534.1065288205164
 10
338.3362173300866
 20
534.0181729844589
 10
337.8111907189705
 20
533.9342085915468
 10
337.0203653064309
 20
533.8853757437864
 10
336.1404957581053
 20
533.9753124993749
 10
335.2569373975421
 20
534.0654463078563
 10
317.9297080132819
 20
534.0466295360329
 10
317.9297080132819
 20
534.0466295360329
 10
317.9297080132819
 20
534.0466295360329
 10
301.5492737708591
 20
540.3523905753073
 10
300.916203327226
 20
540.5608962957831
 10
300.2780388095453
 20
540.771861224418
 10
299.9384924256547
 20
540.9304801507787
 10
299.9110898204362
 20
541.355923162565
 10
299.5919197327339
 20
545.8545175192376
 10
286.6097598528331
 20
536.8049828036164
 10
289.6305457627004
 20
530.0711438866683
 10
290.0645960030497
 20
530.1988470532942
 10
290.7935755649469
 20
530.285446312093
 10
291.2172619994762
 20
530.336914025741
 10
291.6411240917314
 20
530.3892600280169
 10
292.0166803094035
 20
530.3936514711604
 10
292.59652646213
 20
530.2315193902859
 10
293.1832232661636
 20
530.0711438866683
 10
301.7602386994949
 20
527.4225766976815
 10
301.7602386994949
 20
527.4225766976815
 10
301.7602386994949
 20
527.4225766976815
 10
314.5468915306265
 20
506.1815382165623
 10
314.5468915306265
 20
506.1815382165623
 10
314.5468915306265
 20
506.1815382165623
 10
314.5468915306265
 20
497.7227197419052
 10
314.5468915306265
 20
497.7227197419052
 10
314.5468915306265
 20
497.7227197419052
 10
302.3880528476684
 20
482.1675254950951
 10
302.3880528476684
 20
482.1675254950951
 10
302.3880528476684
 20
482.1675254950951
 10
300.1614020796424
 20
481.5910168391574
 10
300.1614020796424
 20
481.5910168391574
 10
300.1614020796424
 20
481.5910168391574
 10
293.3581783610189
 20
483.0749733063631
 10
292.5930133076163
 20
483.2395645953984
 10
291.9550244476613
 20
483.3716592051687
 10
291.6221530573475
 20
483.5364261519308
 10
290.9393714773269
 20
483.5311564201565
 10
290.9393714773269
 20
483.5311564201565
 10
290.9377905577949
 20
483.5329129974152
 10
290.9377905577949
 20
483.5329129974152
 97
        0
 97
        0
 75
     2
 76
     1
 98
        0
  0
POLYLINE
  5
B8
330
1F
100
AcDbEntity
  8
Layer 1
 62
   250
420
  2301728
370
    13
100
AcDb2dPolyline
 66
     1
 10
0.0
 20
0.0
 30
0.0
  0
VERTEX
  5
B9
330
B8
100
AcDbEntity
  8
Layer 1
 62
   250
420
  2301728
370
    13
100
AcDbVertex
100
AcDb2dVertex
 10
228.4368394979729
 20
520.8970678434835
 30
0.0
  0
VERTEX
  5
BA
330
B8
100
AcDbEntity
  8
Layer 1
 62
   250
420
  2301728
370
    13
100
AcDbVertex
100
AcDb2dVertex
 10
301.0911584220812
 20
606.4221796493612
 30
0.0
  0
SEQEND
  5
BB
330
B8
100
AcDbEntity
  8
Layer 1
 62
   250
420
  2301728
370
    13
  0
POLYLINE
  5
BC
330
1F
100
AcDbEntity
  8
Layer 1
 62
   250
420
  2301728
370
    13
100
AcDb2dPolyline
 66
     1
 10
0.0
 20
0.0
 30
0.0
  0
VERTEX
  5
BD
330
BC
100
AcDbEntity
  8
Layer 1
 62
   250
420
  2301728
370
    13
100
AcDbVertex
100
AcDb2dVertex
 10
230.6780564209248
 20
513.727597766655
 30
0.0
  0
VERTEX
  5
BE
330
BC
100
AcDbEntity
  8
Layer 1
 62
   250
420
  2301728
370
    13
100
AcDbVertex
100
AcDb2dVertex
 10
246.2950821872009
 20
532.2805667612574
 30
0.0
  0
SEQEND
  5
BF
330
BC
100
AcDbEntity
  8
Layer 1
 62
   250
420
  2301728
370
    13
  0
POLYLINE
  5
C0
330
1F
100
AcDbEntity
  8
Layer 1
 62
   250
420
  2301728
370
    13
100
AcDb2dPolyline
 66
     1
 10
0.0
 20
0.0
 30
0.0
  0
VERTEX
  5
C1
330
C0
100
AcDbEntity
  8
Layer 1
 62
   250
420
  2301728
370
    13
100
AcDbVertex
100
AcDb2dVertex
 10
248.7121324936361
 20
535.1564350473736
 30
0.0
  0
VERTEX
  5
C2
330
C0
100
AcDbEntity
  8
Layer 1
 62
   250
420
  2301728
370
    13
100
AcDbVertex
100
AcDb2dVertex
 10
268.8107138171854
 20
559.0443048309844
 30
0.0
  0
SEQEND
  5
C3
330
C0
100
AcDbEntity
  8
Layer 1
 62
   250
420
  2301728
370
    13
  0
POLYLINE
  5
C4
330
1F
100
AcDbEntity
  8
Layer 1
 62
   250
420
  2301728
370
    13
100
AcDb2dPolyline
 66
     1
 10
0.0
 20
0.0
 30
0.0
  0
VERTEX
  5
C5
330
C4
100
AcDbEntity
  8
Layer 1
 62
   250
420
  2301728
370
    13
100
AcDbVertex
100
AcDb2dVertex
 10
271.2500726547933
 20
561.9416033596444
 30
0.0
  0
VERTEX
  5
C6
330
C4
100
AcDbEntity
  8
Layer 1
 62
   250
420
  2301728
370
    13
100
AcDbVertex
100
AcDb2dVertex
 10
290.4522726037976
 20
584.7660412715122
 30
0.0
  0
SEQEND
  5
C7
330
C4
100
AcDbEntity
  8
Layer 1
 62
   250
420
  2301728
370
    13
  0
POLYLINE
  5
C8
330
1F
100
AcDbEntity
  8
Layer 1
 62
   250
420
  2301728
370
    13
100
AcDb2dPolyline
 66
     1
 10
0.0
 20
0.0
 30
0.0
  0
VERTEX
  5
C9
330
C8
100
AcDbEntity
  8
Layer 1
 62
   250
420
  2301728
370
    13
100
AcDbVertex
100
AcDb2dVertex
 10
293.0391839310414
 20
587.8365383177688
 30
0.0
  0
VERTEX
  5
CA
330
C8
100
AcDbEntity
  8
Layer 1
 62
   250
420
  2301728
370
    13
100
AcDbVertex
100
AcDb2dVertex
 10
308.0626622419804
 20
605.6888086443214
 30
0.0
  0
SEQEND
  5
CB
330
C8
100
AcDbEntity
  8
Layer 1
 62
   250
420
  2301728
370
    13
  0
POLYLINE
  5
CC
330
1F
100
AcDbEntity
  8
Layer 1
 62
   250
420
  2301728
370
    13
100
AcDb2dPolyline
 66
     1
 10
0.0
 20
0.0
 30
0.0
  0
VERTEX
  5
CD
330
CC
100
AcDbEntity
  8
Layer 1
 62
   250
420
  2301728
370
    13
100
AcDbVertex
100
AcDb2dVertex
 10
227.8784235877874
 20
549.769928226392
 30
0.0
  0
VERTEX
  5
CE
330
CC
100
AcDbEntity
  8
Layer 1
 62
   250
420
  2301728
370
    13
100
AcDbVertex
100
AcDb2dVertex
 10
272.0493153069929
 20
601.0040170983439
 30
0.0
  0
SEQEND
  5
CF
330
CC
100
AcDbEntity
  8
Layer 1
 62
   250
420
  2301728
370
    13
  0
POLYLINE
  5
D0
330
1F
100
AcDbEntity
  8
Layer 1
 62
   250
420
  2301728
370
    13
100
AcDb2dPolyline
 66
     1
 10
0.0
 20
0.0
 30
0.0
  0
VERTEX
  5
D1
330
D0
100
AcDbEntity
  8
Layer 1
 62
   250
420
  2301728
370
    13
100
AcDbVertex
100
AcDb2dVertex
 10
234.065088688998
 20
548.6060201355167
 30
0.0
  0
VERTEX
  5
D2
330
D0
100
AcDbEntity
  8
Layer 1
 62
   250
420
  2301728
370
    13
100
AcDbVertex
100
AcDb2dVertex
 10
245.689590006511
 20
562.0909124265372
 30
0.0
  0
SEQEND
  5
D3
330
D0
100
AcDbEntity
  8
Layer 1
 62
   250
420
  2301728
370
    13
  0
POLYLINE
  5
D4
330
1F
100
AcDbEntity
  8
Layer 1
 62
   250
420
  2301728
370
    13
100
AcDb2dPolyline
 66
     1
 10
0.0
 20
0.0
 30
0.0
  0
VERTEX
  5
D5
330
D4
100
AcDbEntity
  8
Layer 1
 62
   250
420
  2301728
370
    13
100
AcDbVertex
100
AcDb2dVertex
 10
248.1605672347541
 20
564.9564169068344
 30
0.0
  0
VERTEX
  5
D6
330
D4
100
AcDbEntity
  8
Layer 1
 62
   250
420
  2301728
370
    13
100
AcDbVertex
100
AcDb2dVertex
 10
263.3470559151974
 20
582.5694414109039
 30
0.0
  0
SEQEND
  5
D7
330
D4
100
AcDbEntity
  8
Layer 1
 62
   250
420
  2301728
370
    13
  0
POLYLINE
  5
D8
330
1F
100
AcDbEntity
  8
Layer 1
 62
   250
420
  2301728
370
    13
100
AcDb2dPolyline
 66
     1
 10
0.0
 20
0.0
 30
0.0
  0
VERTEX
  5
D9
330
D8
100
AcDbEntity
  8
Layer 1
 62
   250
420
  2301728
370
    13
100
AcDbVertex
100
AcDb2dVertex
 10
265.5986366439665
 20
585.1819987661074
 30
0.0
  0
VERTEX
  5
DA
330
D8
100
AcDbEntity
  8
Layer 1
 62
   250
420
  2301728
370
    13
100
AcDbVertex
100
AcDb2dVertex
 10
278.2351149457354
 20
599.8392307188406
 30
0.0
  0
SEQEND
  5
DB
330
D8
100
AcDbEntity
  8
Layer 1
 62
   250
420
  2301728
370
    13
  0
SPLINE
  5
DC
330
1F
100
AcDbEntity
  8
Layer 1
 62
   250
420
  2301728
370
    30
100
AcDbSpline
210
0.0
220
0.0
230
1.0
 70
     8
 71
     3
 72
     8
 73
     4
 74
     0
 42
0.0000000001
 43
0.0000000001
 12
1.0
 22
0.0
 32
0.0
 13
1.0
 23
0.0
 33
0.0
 40
0.0
 40
0.0
 40
0.0
 40
0.0
 40
1.0
 40
1.0
 40
1.0
 40
1.0
 10
299.7463228736751
 20
541.970044166671
 30
0.0
 10
294.4440944216585
 20
549.3848864915299
 30
0.0
 10
280.3828691324243
 20
527.3426524324632
 30
0.0
 10
291.280850096201
 20
530.336914025741
 30
0.0
  0
POLYLINE
  5
DD
330
1F
100
AcDbEntity
  8
Layer 1
 62
   250
420
  2301728
370
    13
100
AcDb2dPolyline
 66
     1
 10
0.0
 20
0.0
 30
0.0
  0
VERTEX
  5
DE
330
DD
100
AcDbEntity
  8
Layer 1
 62
   250
420
  2301728
370
    13
100
AcDbVertex
100
AcDb2dVertex
 10
291.7730562119305
 20
529.1277075120506
 30
0.0
  0
VERTEX
  5
DF
330
DD
100
AcDbEntity
  8
Layer 1
 62
   250
420
  2301728
370
    13
100
AcDbVertex
100
AcDb2dVertex
 10
291.7730562119305
 20
527.8822942049619
 30
0.0
  0
SEQEND
  5
E0
330
DD
100
AcDbEntity
  8
Layer 1
 62
   250
420
  2301728
370
    13
  0
POLYLINE
  5
E1
330
1F
100
AcDbEntity
  8
Layer 1
 62
   250
420
  2301728
370
    13
100
AcDb2dPolyline
 66
     1
 10
0.0
 20
0.0
 30
0.0
  0
VERTEX
  5
E2
330
E1
100
AcDbEntity
  8
Layer 1
 62
   250
420
  2301728
370
    13
100
AcDbVertex
100
AcDb2dVertex
 10
291.7730562119305
 20
527.0176856398102
 30
0.0
  0
VERTEX
  5
E3
330
E1
100
AcDbEntity
  8
Layer 1
 62
   250
420
  2301728
370
    13
100
AcDbVertex
100
AcDb2dVertex
 10
291.7730562119305
 20
488.1816947096104
 30
0.0
  0
SEQEND
  5
E4
330
E1
100
AcDbEntity
  8
Layer 1
 62
   250
420
  2301728
370
    13
  0
POLYLINE
  5
E5
330
1F
100
AcDbEntity
  8
Layer 1
 62
   250
420
  2301728
370
    13
100
AcDb2dPolyline
 66
     1
 10
0.0
 20
0.0
 30
0.0
  0
VERTEX
  5
E6
330
E5
100
AcDbEntity
  8
Layer 1
 62
   250
420
  2301728
370
    13
100
AcDbVertex
100
AcDb2dVertex
 10
291.7730562119305
 20
487.3171073834283
 30
0.0
  0
VERTEX
  5
E7
330
E5
100
AcDbEntity
  8
Layer 1
 62
   250
420
  2301728
370
    13
100
AcDbVertex
100
AcDb2dVertex
 10
291.7730562119305
 20
485.9756295121297
 30
0.0
  0
SEQEND
  5
E8
330
E5
100
AcDbEntity
  8
Layer 1
 62
   250
420
  2301728
370
    13
  0
SPLINE
  5
E9
330
1F
100
AcDbEntity
  8
Layer 1
 62
   250
420
  2301728
370
    30
100
AcDbSpline
210
0.0
220
0.0
230
1.0
 70
    11
 71
     3
 72
    11
 73
     7
 74
     0
 42
0.0000000001
 43
0.0000000001
 12
1.0
 22
0.0
 32
0.0
 13
1.0
 23
0.0
 33
0.0
 40
0.0
 40
0.0
 40
0.0
 40
0.0
 40
1.0
 40
1.0
 40
1.0
 40
2.0
 40
2.0
 40
2.0
 40
2.0
 10
307.6577847535445
 20
557.9559295621857
 30
0.0
 10
307.6577847535445
 20
552.7847417735838
 30
0.0
 10
301.7361735910663
 20
553.3689793694557
 30
0.0
 10
301.7361735910663
 20
558.0716880034597
 30
0.0
 10
301.7361735910663
 20
562.3087280064774
 30
0.0
 10
307.6577847535445
 20
563.0695016167383
 30
0.0
 10
307.6577847535445
 20
557.9559295621857
 30
0.0
  0
HATCH
  5
EA
330
1F
100
AcDbEntity
  8
Layer 1
 62
   250
420
  2301728
100
AcDbHatch
 10
0.0
 20
0.0
 30
0.0
210
0.0
220
0.0
230
1.0
  2
SOLID
 70
     1
 71
     0
 91
        1
 92
        1
 93
        1
 72
     4
 94
        3
 73
     0
 74
     1
 95
       11
 96
        7
 40
0.0
 40
0.0
 40
0.0
 40
0.0
 40
1.0
 40
1.0
 40
1.0
 40
2.0
 40
2.0
 40
2.0
 40
2.0
 10
307.6577847535445
 20
557.9559295621857
 10
307.6577847535445
 20
552.7847417735838
 10
301.7361735910663
 20
553.3689793694557
 10
301.7361735910663
 20
558.0716880034597
 10
301.7361735910663
 20
562.3087280064774
 10
307.6577847535445
 20
563.0695016167383
 10
307.6577847535445
 20
557.9559295621857
 97
        0
 97
        0
 75
     2
 76
     1
 98
        0
  0
SPLINE
  5
EB
330
1F
100
AcDbEntity
  8
Layer 1
 62
   250
420
  2301728
370
    30
100
AcDbSpline
210
0.0
220
0.0
230
1.0
 70
    11
 71
     3
 72
    11
 73
     7
 74
     0
 42
0.0000000001
 43
0.0000000001
 12
1.0
 22
0.0
 32
0.0
 13
1.0
 23
0.0
 33
0.0
 40
0.0
 40
0.0
 40
0.0
 40
0.0
 40
1.0
 40
1.0
 40
1.0
 40
2.0
 40
2.0
 40
2.0
 40
2.0
 10
302.8614369822735
 20
586.0105762585108
 30
0.0
 10
302.8614369822735
 20
580.8411450471667
 30
0.0
 10
296.9347453151859
 20
581.4252069853128
 30
0.0
 10
296.9347453151859
 20
586.1280912770435
 30
0.0
 10
296.9347453151859
 20
590.3633747028034
 30
0.0
 10
302.8614369822735
 20
591.1250266016923
 30
0.0
 10
302.8614369822735
 20
586.0105762585108
 30
0.0
  0
HATCH
  5
EC
330
1F
100
AcDbEntity
  8
Layer 1
 62
   250
420
  2301728
100
AcDbHatch
 10
0.0
 20
0.0
 30
0.0
210
0.0
220
0.0
230
1.0
  2
SOLID
 70
     1
 71
     0
 91
        1
 92
        1
 93
        1
 72
     4
 94
        3
 73
     0
 74
     1
 95
       11
 96
        7
 40
0.0
 40
0.0
 40
0.0
 40
0.0
 40
1.0
 40
1.0
 40
1.0
 40
2.0
 40
2.0
 40
2.0
 40
2.0
 10
302.8614369822735
 20
586.0105762585108
 10
302.8614369822735
 20
580.8411450471667
 10
296.9347453151859
 20
581.4252069853128
 10
296.9347453151859
 20
586.1280912770435
 10
296.9347453151859
 20
590.3633747028034
 10
302.8614369822735
 20
591.1250266016923
 10
302.8614369822735
 20
586.0105762585108
 97
        0
 97
        0
 75
     2
 76
     1
 98
        0
  0
SPLINE
  5
ED
330
1F
100
AcDbEntity
  8
Layer 1
 62
   250
420
  2301728
370
    30
100
AcDbSpline
210
0.0
220
0.0
230
1.0
 70
    11
 71
     3
 72
    11
 73
     7
 74
     0
 42
0.0000000001
 43
0.0000000001
 12
1.0
 22
0.0
 32
0.0
 13
1.0
 23
0.0
 33
0.0
 40
0.0
 40
0.0
 40
0.0
 40
0.0
 40
1.0
 40
1.0
 40
1.0
 40
2.0
 40
2.0
 40
2.0
 40
2.0
 10
326.3591709569755
 20
603.2761497810297
 30
0.0
 10
326.3591709569755
 20
598.1049850053714
 30
0.0
 10
320.4410865184491
 20
598.6907805078317
 30
0.0
 10
320.4410865184491
 20
603.3927865109326
 30
0.0
 10
320.4410865184491
 20
607.6298265139512
 30
0.0
 10
326.3591709569755
 20
608.3897451083394
 30
0.0
 10
326.3591709569755
 20
603.2761497810297
 30
0.0
  0
HATCH
  5
EE
330
1F
100
AcDbEntity
  8
Layer 1
 62
   250
420
  2301728
100
AcDbHatch
 10
0.0
 20
0.0
 30
0.0
210
0.0
220
0.0
230
1.0
  2
SOLID
 70
     1
 71
     0
 91
        1
 92
        1
 93
        1
 72
     4
 94
        3
 73
     0
 74
     1
 95
       11
 96
        7
 40
0.0
 40
0.0
 40
0.0
 40
0.0
 40
1.0
 40
1.0
 40
1.0
 40
2.0
 40
2.0
 40
2.0
 40
2.0
 10
326.3591709569755
 20
603.2761497810297
 10
326.3591709569755
 20
598.1049850053714
 10
320.4410865184491
 20
598.6907805078317
 10
320.4410865184491
 20
603.3927865109326
 10
320.4410865184491
 20
607.6298265139512
 10
326.3591709569755
 20
608.3897451083394
 10
326.3591709569755
 20
603.2761497810297
 97
        0
 97
        0
 75
     2
 76
     1
 98
        0
  0
SPLINE
  5
EF
330
1F
100
AcDbEntity
  8
Layer 1
 62
   250
420
  2301728
370
    30
100
AcDbSpline
210
0.0
220
0.0
230
1.0
 70
    11
 71
     3
 72
    11
 73
     7
 74
     0
 42
0.0000000001
 43
0.0000000001
 12
1.0
 22
0.0
 32
0.0
 13
1.0
 23
0.0
 33
0.0
 40
0.0
 40
0.0
 40
0.0
 40
0.0
 40
1.0
 40
1.0
 40
1.0
 40
2.0
 40
2.0
 40
2.0
 40
2.0
 10
249.6273092448373
 20
587.5698898900673
 30
0.0
 10
249.6273092448373
 20
582.3995803900943
 30
0.0
 10
243.7013202086519
 20
582.9836423282413
 30
0.0
 10
243.7013202086519
 20
587.6856483313422
 30
0.0
 10
243.7013202086519
 20
591.9235894797766
 30
0.0
 10
249.6273092448373
 20
592.6843402332497
 30
0.0
 10
249.6273092448373
 20
587.5698898900673
 30
0.0
  0
HATCH
  5
F0
330
1F
100
AcDbEntity
  8
Layer 1
 62
   250
420
  2301728
100
AcDbHatch
 10
0.0
 20
0.0
 30
0.0
210
0.0
220
0.0
230
1.0
  2
SOLID
 70
     1
 71
     0
 91
        1
 92
        1
 93
        1
 72
     4
 94
        3
 73
     0
 74
     1
 95
       11
 96
        7
 40
0.0
 40
0.0
 40
0.0
 40
0.0
 40
1.0
 40
1.0
 40
1.0
 40
2.0
 40
2.0
 40
2.0
 40
2.0
 10
249.6273092448373
 20
587.5698898900673
 10
249.6273092448373
 20
582.3995803900943
 10
243.7013202086519
 20
582.9836423282413
 10
243.7013202086519
 20
587.6856483313422
 10
243.7013202086519
 20
591.9235894797766
 10
249.6273092448373
 20
592.6843402332497
 10
249.6273092448373
 20
587.5698898900673
 97
        0
 97
        0
 75
     2
 76
     1
 98
        0
  0
SPLINE
  5
F1
330
1F
100
AcDbEntity
  8
Layer 1
 62
   250
420
  2301728
370
    30
100
AcDbSpline
210
0.0
220
0.0
230
1.0
 70
    11
 71
     3
 72
    11
 73
     7
 74
     0
 42
0.0000000001
 43
0.0000000001
 12
1.0
 22
0.0
 32
0.0
 13
1.0
 23
0.0
 33
0.0
 40
0.0
 40
0.0
 40
0.0
 40
0.0
 40
1.0
 40
1.0
 40
1.0
 40
2.0
 40
2.0
 40
2.0
 40
2.0
 10
237.1571916355224
 20
572.342121644072
 30
0.0
 10
237.1571916355224
 20
567.1719878018257
 30
0.0
 10
231.2338374652236
 20
567.7569280286007
 30
0.0
 10
231.2338374652236
 20
572.4605149512336
 30
0.0
 10
231.2338374652236
 20
576.6966766656224
 30
0.0
 10
237.1571916355224
 20
577.4574502758824
 30
0.0
 10
237.1571916355224
 20
572.342121644072
 30
0.0
  0
HATCH
  5
F2
330
1F
100
AcDbEntity
  8
Layer 1
 62
   250
420
  2301728
100
AcDbHatch
 10
0.0
 20
0.0
 30
0.0
210
0.0
220
0.0
230
1.0
  2
SOLID
 70
     1
 71
     0
 91
        1
 92
        1
 93
        1
 72
     4
 94
        3
 73
     0
 74
     1
 95
       11
 96
        7
 40
0.0
 40
0.0
 40
0.0
 40
0.0
 40
1.0
 40
1.0
 40
1.0
 40
2.0
 40
2.0
 40
2.0
 40
2.0
 10
237.1571916355224
 20
572.342121644072
 10
237.1571916355224
 20
567.1719878018257
 10
231.2338374652236
 20
567.7569280286007
 10
231.2338374652236
 20
572.4605149512336
 10
231.2338374652236
 20
576.6966766656224
 10
237.1571916355224
 20
577.4574502758824
 10
237.1571916355224
 20
572.342121644072
 97
        0
 97
        0
 75
     2
 76
     1
 98
        0
  0
SPLINE
  5
F3
330
1F
100
AcDbEntity
  8
Layer 1
 62
   250
420
  2301728
370
    30
100
AcDbSpline
210
0.0
220
0.0
230
1.0
 70
    11
 71
     3
 72
    11
 73
     7
 74
     0
 42
0.0000000001
 43
0.0000000001
 12
1.0
 22
0.0
 32
0.0
 13
1.0
 23
0.0
 33
0.0
 40
0.0
 40
0.0
 40
0.0
 40
0.0
 40
1.0
 40
1.0
 40
1.0
 40
2.0
 40
2.0
 40
2.0
 40
2.0
 10
248.6666492218601
 20
513.9496291320129
 30
0.0
 10
248.6666492218601
 20
508.785467652443
 30
0.0
 10
242.7424046837368
 20
509.3668947247024
 30
0.0
 10
242.7424046837368
 20
514.0706573050611
 30
0.0
 10
242.7424046837368
 20
518.3085755967077
 30
0.0
 10
248.6666492218601
 20
519.0693492069695
 30
0.0
 10
248.6666492218601
 20
513.9496291320129
 30
0.0
  0
HATCH
  5
F4
330
1F
100
AcDbEntity
  8
Layer 1
 62
   250
420
  2301728
100
AcDbHatch
 10
0.0
 20
0.0
 30
0.0
210
0.0
220
0.0
230
1.0
  2
SOLID
 70
     1
 71
     0
 91
        1
 92
        1
 93
        1
 72
     4
 94
        3
 73
     0
 74
     1
 95
       11
 96
        7
 40
0.0
 40
0.0
 40
0.0
 40
0.0
 40
1.0
 40
1.0
 40
1.0
 40
2.0
 40
2.0
 40
2.0
 40
2.0
 10
248.6666492218601
 20
513.9496291320129
 10
248.6666492218601
 20
508.785467652443
 10
242.7424046837368
 20
509.3668947247024
 10
242.7424046837368
 20
514.0706573050611
 10
242.7424046837368
 20
518.3085755967077
 10
248.6666492218601
 20
519.0693492069695
 10
248.6666492218601
 20
513.9496291320129
 97
        0
 97
        0
 75
     2
 76
     1
 98
        0
  0
SPLINE
  5
F5
330
1F
100
AcDbEntity
  8
Layer 1
 62
   250
420
  2301728
370
    30
100
AcDbSpline
210
0.0
220
0.0
230
1.0
 70
    11
 71
     3
 72
    11
 73
     7
 74
     0
 42
0.0000000001
 43
0.0000000001
 12
1.0
 22
0.0
 32
0.0
 13
1.0
 23
0.0
 33
0.0
 40
0.0
 40
0.0
 40
0.0
 40
0.0
 40
1.0
 40
1.0
 40
1.0
 40
2.0
 40
2.0
 40
2.0
 40
2.0
 10
273.8454282681396
 20
512.0353112366993
 30
0.0
 10
273.8454282681396
 20
506.8625425285645
 30
0.0
 10
267.9220613825746
 20
507.4492393325982
 30
0.0
 10
267.9220613825746
 20
512.1519479666022
 30
0.0
 10
267.9220613825746
 20
516.3907654955456
 30
0.0
 10
273.8454282681396
 20
517.1497615798799
 30
0.0
 10
273.8454282681396
 20
512.0353112366993
 30
0.0
  0
HATCH
  5
F6
330
1F
100
AcDbEntity
  8
Layer 1
 62
   250
420
  2301728
100
AcDbHatch
 10
0.0
 20
0.0
 30
0.0
210
0.0
220
0.0
230
1.0
  2
SOLID
 70
     1
 71
     0
 91
        1
 92
        1
 93
        1
 72
     4
 94
        3
 73
     0
 74
     1
 95
       11
 96
        7
 40
0.0
 40
0.0
 40
0.0
 40
0.0
 40
1.0
 40
1.0
 40
1.0
 40
2.0
 40
2.0
 40
2.0
 40
2.0
 10
273.8454282681396
 20
512.0353112366993
 10
273.8454282681396
 20
506.8625425285645
 10
267.9220613825746
 20
507.4492393325982
 10
267.9220613825746
 20
512.1519479666022
 10
267.9220613825746
 20
516.3907654955456
 10
273.8454282681396
 20
517.1497615798799
 10
273.8454282681396
 20
512.0353112366993
 97
        0
 97
        0
 75
     2
 76
     1
 98
        0
  0
SPLINE
  5
F7
330
1F
100
AcDbEntity
  8
Layer 1
 62
   250
420
  2301728
370
    30
100
AcDbSpline
210
0.0
220
0.0
230
1.0
 70
    11
 71
     3
 72
    11
 73
     7
 74
     0
 42
0.0000000001
 43
0.0000000001
 12
1.0
 22
0.0
 32
0.0
 13
1.0
 23
0.0
 33
0.0
 40
0.0
 40
0.0
 40
0.0
 40
0.0
 40
1.0
 40
1.0
 40
1.0
 40
2.0
 40
2.0
 40
2.0
 40
2.0
 10
281.7551072860479
 20
492.9694216828821
 30
0.0
 10
281.7551072860479
 20
487.8008687601678
 30
0.0
 10
275.8335096930068
 20
488.3858089869427
 30
0.0
 10
275.8335096930068
 20
493.0878149900436
 30
0.0
 10
275.8335096930068
 20
497.3281924898511
 30
0.0
 10
281.7551072860479
 20
498.0865068919493
 30
0.0
 10
281.7551072860479
 20
492.9694216828821
 30
0.0
  0
HATCH
  5
F8
330
1F
100
AcDbEntity
  8
Layer 1
 62
   250
420
  2301728
100
AcDbHatch
 10
0.0
 20
0.0
 30
0.0
210
0.0
220
0.0
230
1.0
  2
SOLID
 70
     1
 71
     0
 91
        1
 92
        1
 93
        1
 72
     4
 94
        3
 73
     0
 74
     1
 95
       11
 96
        7
 40
0.0
 40
0.0
 40
0.0
 40
0.0
 40
1.0
 40
1.0
 40
1.0
 40
2.0
 40
2.0
 40
2.0
 40
2.0
 10
281.7551072860479
 20
492.9694216828821
 10
281.7551072860479
 20
487.8008687601678
 10
275.8335096930068
 20
488.3858089869427
 10
275.8335096930068
 20
493.0878149900436
 10
275.8335096930068
 20
497.3281924898511
 10
281.7551072860479
 20
498.0865068919493
 10
281.7551072860479
 20
492.9694216828821
 97
        0
 97
        0
 75
     2
 76
     1
 98
        0
  0
SPLINE
  5
F9
330
1F
100
AcDbEntity
  8
Layer 1
 62
   250
420
  2301728
370
    30
100
AcDbSpline
210
0.0
220
0.0
230
1.0
 70
    11
 71
     3
 72
    11
 73
     7
 74
     0
 42
0.0000000001
 43
0.0000000001
 12
1.0
 22
0.0
 32
0.0
 13
1.0
 23
0.0
 33
0.0
 40
0.0
 40
0.0
 40
0.0
 40
0.0
 40
1.0
 40
1.0
 40
1.0
 40
2.0
 40
2.0
 40
2.0
 40
2.0
 10
240.9935563660874
 20
498.7280089064197
 30
0.0
 10
240.9935563660874
 20
493.5594559837045
 30
0.0
 10
235.0694995648837
 20
494.1410587136907
 30
0.0
 10
235.0694995648837
 20
498.8464022135804
 30
0.0
 10
235.0694995648837
 20
503.0816856393412
 30
0.0
 10
240.9935563660874
 20
503.8400206730512
 30
0.0
 10
240.9935563660874
 20
498.7280089064197
 30
0.0
  0
HATCH
  5
FA
330
1F
100
AcDbEntity
  8
Layer 1
 62
   250
420
  2301728
100
AcDbHatch
 10
0.0
 20
0.0
 30
0.0
210
0.0
220
0.0
230
1.0
  2
SOLID
 70
     1
 71
     0
 91
        1
 92
        1
 93
        1
 72
     4
 94
        3
 73
     0
 74
     1
 95
       11
 96
        7
 40
0.0
 40
0.0
 40
0.0
 40
0.0
 40
1.0
 40
1.0
 40
1.0
 40
2.0
 40
2.0
 40
2.0
 40
2.0
 10
240.9935563660874
 20
498.7280089064197
 10
240.9935563660874
 20
493.5594559837045
 10
235.0694995648837
 20
494.1410587136907
 10
235.0694995648837
 20
498.8464022135804
 10
235.0694995648837
 20
503.0816856393412
 10
240.9935563660874
 20
503.8400206730512
 10
240.9935563660874
 20
498.7280089064197
 97
        0
 97
        0
 75
     2
 76
     1
 98
        0
  0
SPLINE
  5
FB
330
1F
100
AcDbEntity
  8
Layer 1
 62
   250
420
  2301728
370
    30
100
AcDbSpline
210
0.0
220
0.0
230
1.0
 70
    11
 71
     3
 72
    11
 73
     7
 74
     0
 42
0.0000000001
 43
0.0000000001
 12
1.0
 22
0.0
 32
0.0
 13
1.0
 23
0.0
 33
0.0
 40
0.0
 40
0.0
 40
0.0
 40
0.0
 40
1.0
 40
1.0
 40
1.0
 40
2.0
 40
2.0
 40
2.0
 40
2.0
 10
307.0368211235509
 20
557.7860685413762
 30
0.0
 10
307.0368211235509
 20
552.6157590414041
 30
0.0
 10
301.1083728792064
 20
553.199118348648
 30
0.0
 10
301.1083728792064
 20
557.901826982652
 30
0.0
 10
301.1083728792064
 20
562.1388669856697
 30
0.0
 10
307.0368211235509
 20
562.8987623073008
 30
0.0
 10
307.0368211235509
 20
557.7860685413762
 30
0.0
  0
HATCH
  5
FC
330
1F
100
AcDbEntity
  8
Layer 1
 62
   254
420
 13358815
100
AcDbHatch
 10
0.0
 20
0.0
 30
0.0
210
0.0
220
0.0
230
1.0
  2
SOLID
 70
     1
 71
     0
 91
        1
 92
        1
 93
        1
 72
     4
 94
        3
 73
     0
 74
     1
 95
       11
 96
        7
 40
0.0
 40
0.0
 40
0.0
 40
0.0
 40
1.0
 40
1.0
 40
1.0
 40
2.0
 40
2.0
 40
2.0
 40
2.0
 10
307.0368211235509
 20
557.7860685413762
 10
307.0368211235509
 20
552.6157590414041
 10
301.1083728792064
 20
553.199118348648
 10
301.1083728792064
 20
557.901826982652
 10
301.1083728792064
 20
562.1388669856697
 10
307.0368211235509
 20
562.8987623073008
 10
307.0368211235509
 20
557.7860685413762
 97
        0
 97
        0
 75
     2
 76
     1
 98
        0
  0
SPLINE
  5
FD
330
1F
100
AcDbEntity
  8
Layer 1
 62
   250
420
  2301728
370
    30
100
AcDbSpline
210
0.0
220
0.0
230
1.0
 70
    11
 71
     3
 72
    11
 73
     7
 74
     0
 42
0.0000000001
 43
0.0000000001
 12
1.0
 22
0.0
 32
0.0
 13
1.0
 23
0.0
 33
0.0
 40
0.0
 40
0.0
 40
0.0
 40
0.0
 40
1.0
 40
1.0
 40
1.0
 40
2.0
 40
2.0
 40
2.0
 40
2.0
 10
302.2389060021869
 20
585.8407152377022
 30
0.0
 10
302.2389060021869
 20
580.6704057377292
 30
0.0
 10
296.3155651147963
 20
581.254643333601
 30
0.0
 10
296.3155651147963
 20
585.9582529623258
 30
0.0
 10
296.3155651147963
 20
590.1935136819957
 30
0.0
 10
302.2389060021869
 20
590.9551655808837
 30
0.0
 10
302.2389060021869
 20
585.8407152377022
 30
0.0
  0
HATCH
  5
FE
330
1F
100
AcDbEntity
  8
Layer 1
 62
   254
420
 13358815
100
AcDbHatch
 10
0.0
 20
0.0
 30
0.0
210
0.0
220
0.0
230
1.0
  2
SOLID
 70
     1
 71
     0
 91
        1
 92
        1
 93
        1
 72
     4
 94
        3
 73
     0
 74
     1
 95
       11
 96
        7
 40
0.0
 40
0.0
 40
0.0
 40
0.0
 40
1.0
 40
1.0
 40
1.0
 40
2.0
 40
2.0
 40
2.0
 40
2.0
 10
302.2389060021869
 20
585.8407152377022
 10
302.2389060021869
 20
580.6704057377292
 10
296.3155651147963
 20
581.254643333601
 10
296.3155651147963
 20
585.9582529623258
 10
296.3155651147963
 20
590.1935136819957
 10
302.2389060021869
 20
590.9551655808837
 10
302.2389060021869
 20
585.8407152377022
 97
        0
 97
        0
 75
     2
 76
     1
 98
        0
  0
SPLINE
  5
FF
330
1F
100
AcDbEntity
  8
Layer 1
 62
   250
420
  2301728
370
    30
100
AcDbSpline
210
0.0
220
0.0
230
1.0
 70
    11
 71
     3
 72
    11
 73
     7
 74
     0
 42
0.0000000001
 43
0.0000000001
 12
1.0
 22
0.0
 32
0.0
 13
1.0
 23
0.0
 33
0.0
 40
0.0
 40
0.0
 40
0.0
 40
0.0
 40
1.0
 40
1.0
 40
1.0
 40
2.0
 40
2.0
 40
2.0
 40
2.0
 10
325.7364783453068
 20
603.1062887602202
 30
0.0
 10
325.7364783453068
 20
597.9351009716192
 30
0.0
 10
319.8148667261212
 20
598.52021685612
 30
0.0
 10
319.8148667261212
 20
603.222925490124
 30
0.0
 10
319.8148667261212
 20
607.4608437817724
 30
0.0
 10
325.7364783453068
 20
608.2207391034026
 30
0.0
 10
325.7364783453068
 20
603.1062887602202
 30
0.0
  0
HATCH
  5
100
330
1F
100
AcDbEntity
  8
Layer 1
 62
   254
420
 13358815
100
AcDbHatch
 10
0.0
 20
0.0
 30
0.0
210
0.0
220
0.0
230
1.0
  2
SOLID
 70
     1
 71
     0
 91
        1
 92
        1
 93
        1
 72
     4
 94
        3
 73
     0
 74
     1
 95
       11
 96
        7
 40
0.0
 40
0.0
 40
0.0
 40
0.0
 40
1.0
 40
1.0
 40
1.0
 40
2.0
 40
2.0
 40
2.0
 40
2.0
 10
325.7364783453068
 20
603.1062887602202
 10
325.7364783453068
 20
597.9351009716192
 10
319.8148667261212
 20
598.52021685612
 10
319.8148667261212
 20
603.222925490124
 10
319.8148667261212
 20
607.4608437817724
 10
325.7364783453068
 20
608.2207391034026
 10
325.7364783453068
 20
603.1062887602202
 97
        0
 97
        0
 75
     2
 76
     1
 98
        0
  0
SPLINE
  5
101
330
1F
100
AcDbEntity
  8
Layer 1
 62
   250
420
  2301728
370
    30
100
AcDbSpline
210
0.0
220
0.0
230
1.0
 70
    11
 71
     3
 72
    11
 73
     7
 74
     0
 42
0.0000000001
 43
0.0000000001
 12
1.0
 22
0.0
 32
0.0
 13
1.0
 23
0.0
 33
0.0
 40
0.0
 40
0.0
 40
0.0
 40
0.0
 40
1.0
 40
1.0
 40
1.0
 40
2.0
 40
2.0
 40
2.0
 40
2.0
 10
332.9978033865627
 20
571.6372071906044
 30
0.0
 10
332.9978033865627
 20
566.4668976906305
 30
0.0
 10
327.072868296731
 20
567.0509596287775
 30
0.0
 10
327.072868296731
 20
571.7529656318784
 30
0.0
 10
327.072868296731
 20
575.9917622121548
 30
0.0
 10
332.9978033865627
 20
576.7525358224138
 30
0.0
 10
332.9978033865627
 20
571.6372071906044
 30
0.0
  0
HATCH
  5
102
330
1F
100
AcDbEntity
  8
Layer 1
 62
   250
420
  2301728
100
AcDbHatch
 10
0.0
 20
0.0
 30
0.0
210
0.0
220
0.0
230
1.0
  2
SOLID
 70
     1
 71
     0
 91
        1
 92
        1
 93
        1
 72
     4
 94
        3
 73
     0
 74
     1
 95
       11
 96
        7
 40
0.0
 40
0.0
 40
0.0
 40
0.0
 40
1.0
 40
1.0
 40
1.0
 40
2.0
 40
2.0
 40
2.0
 40
2.0
 10
332.9978033865627
 20
571.6372071906044
 10
332.9978033865627
 20
566.4668976906305
 10
327.072868296731
 20
567.0509596287775
 10
327.072868296731
 20
571.7529656318784
 10
327.072868296731
 20
575.9917622121548
 10
332.9978033865627
 20
576.7525358224138
 10
332.9978033865627
 20
571.6372071906044
 97
        0
 97
        0
 75
     2
 76
     1
 98
        0
  0
SPLINE
  5
103
330
1F
100
AcDbEntity
  8
Layer 1
 62
   250
420
  2301728
370
    30
100
AcDbSpline
210
0.0
220
0.0
230
1.0
 70
    11
 71
     3
 72
    11
 73
     7
 74
     0
 42
0.0000000001
 43
0.0000000001
 12
1.0
 22
0.0
 32
0.0
 13
1.0
 23
0.0
 33
0.0
 40
0.0
 40
0.0
 40
0.0
 40
0.0
 40
1.0
 40
1.0
 40
1.0
 40
2.0
 40
2.0
 40
2.0
 40
2.0
 10
332.3733401714926
 20
571.4682467984676
 30
0.0
 10
332.3733401714926
 20
566.2970366698228
 30
0.0
 10
326.4484050816609
 20
566.8819768965977
 30
0.0
 10
326.4484050816609
 20
571.5831046110698
 30
0.0
 10
326.4484050816609
 20
575.8219011913452
 30
0.0
 10
332.3733401714926
 20
576.5826748016061
 30
0.0
 10
332.3733401714926
 20
571.4682467984676
 30
0.0
  0
HATCH
  5
104
330
1F
100
AcDbEntity
  8
Layer 1
 62
   254
420
 13358815
100
AcDbHatch
 10
0.0
 20
0.0
 30
0.0
210
0.0
220
0.0
230
1.0
  2
SOLID
 70
     1
 71
     0
 91
        1
 92
        1
 93
        1
 72
     4
 94
        3
 73
     0
 74
     1
 95
       11
 96
        7
 40
0.0
 40
0.0
 40
0.0
 40
0.0
 40
1.0
 40
1.0
 40
1.0
 40
2.0
 40
2.0
 40
2.0
 40
2.0
 10
332.3733401714926
 20
571.4682467984676
 10
332.3733401714926
 20
566.2970366698228
 10
326.4484050816609
 20
566.8819768965977
 10
326.4484050816609
 20
571.5831046110698
 10
326.4484050816609
 20
575.8219011913452
 10
332.3733401714926
 20
576.5826748016061
 10
332.3733401714926
 20
571.4682467984676
 97
        0
 97
        0
 75
     2
 76
     1
 98
        0
  0
SPLINE
  5
105
330
1F
100
AcDbEntity
  8
Layer 1
 62
   250
420
  2301728
370
    30
100
AcDbSpline
210
0.0
220
0.0
230
1.0
 70
    11
 71
     3
 72
    11
 73
     7
 74
     0
 42
0.0000000001
 43
0.0000000001
 12
1.0
 22
0.0
 32
0.0
 13
1.0
 23
0.0
 33
0.0
 40
0.0
 40
0.0
 40
0.0
 40
0.0
 40
1.0
 40
1.0
 40
1.0
 40
2.0
 40
2.0
 40
2.0
 40
2.0
 10
249.005480895652
 20
587.4000288692605
 30
0.0
 10
249.005480895652
 20
582.2297193692866
 30
0.0
 10
243.0794918594675
 20
582.8146595960634
 30
0.0
 10
243.0794918594675
 20
587.5166655991634
 30
0.0
 10
243.0794918594675
 20
591.7537056021811
 30
0.0
 10
249.005480895652
 20
592.5136009238122
 30
0.0
 10
249.005480895652
 20
587.4000288692605
 30
0.0
  0
HATCH
  5
106
330
1F
100
AcDbEntity
  8
Layer 1
 62
   254
420
 13358815
100
AcDbHatch
 10
0.0
 20
0.0
 30
0.0
210
0.0
220
0.0
230
1.0
  2
SOLID
 70
     1
 71
     0
 91
        1
 92
        1
 93
        1
 72
     4
 94
        3
 73
     0
 74
     1
 95
       11
 96
        7
 40
0.0
 40
0.0
 40
0.0
 40
0.0
 40
1.0
 40
1.0
 40
1.0
 40
2.0
 40
2.0
 40
2.0
 40
2.0
 10
249.005480895652
 20
587.4000288692605
 10
249.005480895652
 20
582.2297193692866
 10
243.0794918594675
 20
582.8146595960634
 10
243.0794918594675
 20
587.5166655991634
 10
243.0794918594675
 20
591.7537056021811
 10
249.005480895652
 20
592.5136009238122
 10
249.005480895652
 20
587.4000288692605
 97
        0
 97
        0
 75
     2
 76
     1
 98
        0
  0
SPLINE
  5
107
330
1F
100
AcDbEntity
  8
Layer 1
 62
   250
420
  2301728
370
    30
100
AcDbSpline
210
0.0
220
0.0
230
1.0
 70
    11
 71
     3
 72
    11
 73
     7
 74
     0
 42
0.0000000001
 43
0.0000000001
 12
1.0
 22
0.0
 32
0.0
 13
1.0
 23
0.0
 33
0.0
 40
0.0
 40
0.0
 40
0.0
 40
0.0
 40
1.0
 40
1.0
 40
1.0
 40
2.0
 40
2.0
 40
2.0
 40
2.0
 10
236.535363286338
 20
572.1722606232634
 30
0.0
 10
236.535363286338
 20
567.0021267810162
 30
0.0
 10
230.6102525387814
 20
567.5879675384385
 30
0.0
 10
230.6102525387814
 20
572.289775641796
 30
0.0
 10
230.6102525387814
 20
576.5268156448146
 30
0.0
 10
236.535363286338
 20
577.2860308225554
 30
0.0
 10
236.535363286338
 20
572.1722606232634
 30
0.0
  0
HATCH
  5
108
330
1F
100
AcDbEntity
  8
Layer 1
 62
   254
420
 13358815
100
AcDbHatch
 10
0.0
 20
0.0
 30
0.0
210
0.0
220
0.0
230
1.0
  2
SOLID
 70
     1
 71
     0
 91
        1
 92
        1
 93
        1
 72
     4
 94
        3
 73
     0
 74
     1
 95
       11
 96
        7
 40
0.0
 40
0.0
 40
0.0
 40
0.0
 40
1.0
 40
1.0
 40
1.0
 40
2.0
 40
2.0
 40
2.0
 40
2.0
 10
236.535363286338
 20
572.1722606232634
 10
236.535363286338
 20
567.0021267810162
 10
230.6102525387814
 20
567.5879675384385
 10
230.6102525387814
 20
572.289775641796
 10
230.6102525387814
 20
576.5268156448146
 10
236.535363286338
 20
577.2860308225554
 10
236.535363286338
 20
572.1722606232634
 97
        0
 97
        0
 75
     2
 76
     1
 98
        0
  0
SPLINE
  5
109
330
1F
100
AcDbEntity
  8
Layer 1
 62
   250
420
  2301728
370
    30
100
AcDbSpline
210
0.0
220
0.0
230
1.0
 70
    11
 71
     3
 72
    11
 73
     7
 74
     0
 42
0.0000000001
 43
0.0000000001
 12
1.0
 22
0.0
 32
0.0
 13
1.0
 23
0.0
 33
0.0
 40
0.0
 40
0.0
 40
0.0
 40
0.0
 40
1.0
 40
1.0
 40
1.0
 40
2.0
 40
2.0
 40
2.0
 40
2.0
 10
248.0439305048503
 20
513.7859161316064
 30
0.0
 10
248.0439305048503
 20
508.6138500543766
 30
0.0
 10
242.1214546231804
 20
509.1987902811534
 30
0.0
 10
242.1214546231804
 20
513.89993888137
 30
0.0
 10
242.1214546231804
 20
518.1369579986422
 30
0.0
 10
248.0439305048503
 20
518.8986098975311
 30
0.0
 10
248.0439305048503
 20
513.7859161316064
 30
0.0
  0
HATCH
  5
10A
330
1F
100
AcDbEntity
  8
Layer 1
 62
   254
420
 13358815
100
AcDbHatch
 10
0.0
 20
0.0
 30
0.0
210
0.0
220
0.0
230
1.0
  2
SOLID
 70
     1
 71
     0
 91
        1
 92
        1
 93
        1
 72
     4
 94
        3
 73
     0
 74
     1
 95
       11
 96
        7
 40
0.0
 40
0.0
 40
0.0
 40
0.0
 40
1.0
 40
1.0
 40
1.0
 40
2.0
 40
2.0
 40
2.0
 40
2.0
 10
248.0439305048503
 20
513.7859161316064
 10
248.0439305048503
 20
508.6138500543766
 10
242.1214546231804
 20
509.1987902811534
 10
242.1214546231804
 20
513.89993888137
 10
242.1214546231804
 20
518.1369579986422
 10
248.0439305048503
 20
518.8986098975311
 10
248.0439305048503
 20
513.7859161316064
 97
        0
 97
        0
 75
     2
 76
     1
 98
        0
  0
SPLINE
  5
10B
330
1F
100
AcDbEntity
  8
Layer 1
 62
   250
420
  2301728
370
    30
100
AcDbSpline
210
0.0
220
0.0
230
1.0
 70
    11
 71
     3
 72
    11
 73
     7
 74
     0
 42
0.0000000001
 43
0.0000000001
 12
1.0
 22
0.0
 32
0.0
 13
1.0
 23
0.0
 33
0.0
 40
0.0
 40
0.0
 40
0.0
 40
0.0
 40
1.0
 40
1.0
 40
1.0
 40
2.0
 40
2.0
 40
2.0
 40
2.0
 10
273.2227089150592
 20
511.8672067931484
 30
0.0
 10
273.2227089150592
 20
506.69094563413
 30
0.0
 10
267.2993547447604
 20
507.2776424529839
 30
0.0
 10
267.2993547447604
 20
511.9812086571656
 30
0.0
 10
267.2993547447604
 20
516.2208835260699
 30
0.0
 10
273.2227089150592
 20
516.9816571363299
 30
0.0
 10
273.2227089150592
 20
511.8672067931484
 30
0.0
  0
HATCH
  5
10C
330
1F
100
AcDbEntity
  8
Layer 1
 62
   254
420
 13358815
100
AcDbHatch
 10
0.0
 20
0.0
 30
0.0
210
0.0
220
0.0
230
1.0
  2
SOLID
 70
     1
 71
     0
 91
        1
 92
        1
 93
        1
 72
     4
 94
        3
 73
     0
 74
     1
 95
       11
 96
        7
 40
0.0
 40
0.0
 40
0.0
 40
0.0
 40
1.0
 40
1.0
 40
1.0
 40
2.0
 40
2.0
 40
2.0
 40
2.0
 10
273.2227089150592
 20
511.8672067931484
 10
273.2227089150592
 20
506.69094563413
 10
267.2993547447604
 20
507.2776424529839
 10
267.2993547447604
 20
511.9812086571656
 10
267.2993547447604
 20
516.2208835260699
 10
273.2227089150592
 20
516.9816571363299
 10
273.2227089150592
 20
511.8672067931484
 97
        0
 97
        0
 75
     2
 76
     1
 98
        0
  0
SPLINE
  5
10D
330
1F
100
AcDbEntity
  8
Layer 1
 62
   250
420
  2301728
370
    30
100
AcDbSpline
210
0.0
220
0.0
230
1.0
 70
    11
 71
     3
 72
    11
 73
     7
 74
     0
 42
0.0000000001
 43
0.0000000001
 12
1.0
 22
0.0
 32
0.0
 13
1.0
 23
0.0
 33
0.0
 40
0.0
 40
0.0
 40
0.0
 40
0.0
 40
1.0
 40
1.0
 40
1.0
 40
2.0
 40
2.0
 40
2.0
 40
2.0
 10
281.1376703800079
 20
492.8030738165889
 30
0.0
 10
281.1376703800079
 20
487.6276702425694
 30
0.0
 10
275.2125596324504
 20
488.2159479661341
 30
0.0
 10
275.2125596324504
 20
492.9179539692341
 30
0.0
 10
275.2125596324504
 20
497.1549939722527
 30
0.0
 10
281.1376703800079
 20
497.9184024483993
 30
0.0
 10
281.1376703800079
 20
492.8030738165889
 30
0.0
  0
HATCH
  5
10E
330
1F
100
AcDbEntity
  8
Layer 1
 62
   254
420
 13358815
100
AcDbHatch
 10
0.0
 20
0.0
 30
0.0
210
0.0
220
0.0
230
1.0
  2
SOLID
 70
     1
 71
     0
 91
        1
 92
        1
 93
        1
 72
     4
 94
        3
 73
     0
 74
     1
 95
       11
 96
        7
 40
0.0
 40
0.0
 40
0.0
 40
0.0
 40
1.0
 40
1.0
 40
1.0
 40
2.0
 40
2.0
 40
2.0
 40
2.0
 10
281.1376703800079
 20
492.8030738165889
 10
281.1376703800079
 20
487.6276702425694
 10
275.2125596324504
 20
488.2159479661341
 10
275.2125596324504
 20
492.9179539692341
 10
275.2125596324504
 20
497.1549939722527
 10
281.1376703800079
 20
497.9184024483993
 10
281.1376703800079
 20
492.8030738165889
 97
        0
 97
        0
 75
     2
 76
     1
 98
        0
  0
SPLINE
  5
10F
330
1F
100
AcDbEntity
  8
Layer 1
 62
   250
420
  2301728
370
    30
100
AcDbSpline
210
0.0
220
0.0
230
1.0
 70
    11
 71
     3
 72
    11
 73
     7
 74
     0
 42
0.0000000001
 43
0.0000000001
 12
1.0
 22
0.0
 32
0.0
 13
1.0
 23
0.0
 33
0.0
 40
0.0
 40
0.0
 40
0.0
 40
0.0
 40
1.0
 40
1.0
 40
1.0
 40
2.0
 40
2.0
 40
2.0
 40
2.0
 10
240.3710253859981
 20
498.5565669660791
 30
0.0
 10
240.3710253859981
 20
493.3895949628968
 30
0.0
 10
234.4467929270704
 20
493.9694411156252
 30
0.0
 10
234.4467929270704
 20
498.6732036959829
 30
0.0
 10
234.4467929270704
 20
502.9102436990024
 30
0.0
 10
240.3710253859981
 20
503.6718955978904
 30
0.0
 10
240.3710253859981
 20
498.5565669660791
 30
0.0
  0
HATCH
  5
110
330
1F
100
AcDbEntity
  8
Layer 1
 62
   254
420
 13358815
100
AcDbHatch
 10
0.0
 20
0.0
 30
0.0
210
0.0
220
0.0
230
1.0
  2
SOLID
 70
     1
 71
     0
 91
        1
 92
        1
 93
        1
 72
     4
 94
        3
 73
     0
 74
     1
 95
       11
 96
        7
 40
0.0
 40
0.0
 40
0.0
 40
0.0
 40
1.0
 40
1.0
 40
1.0
 40
2.0
 40
2.0
 40
2.0
 40
2.0
 10
240.3710253859981
 20
498.5565669660791
 10
240.3710253859981
 20
493.3895949628968
 10
234.4467929270704
 20
493.9694411156252
 10
234.4467929270704
 20
498.6732036959829
 10
234.4467929270704
 20
502.9102436990024
 10
240.3710253859981
 20
503.6718955978904
 10
240.3710253859981
 20
498.5565669660791
 97
        0
 97
        0
 75
     2
 76
     1
 98
        0
  0
POLYLINE
  5
111
330
1F
100
AcDbEntity
  8
Layer 1
 62
   250
420
  2301728
370
    30
100
AcDb2dPolyline
 66
     1
 10
0.0
 20
0.0
 30
0.0
  0
VERTEX
  5
112
330
111
100
AcDbEntity
  8
Layer 1
 62
   250
420
  2301728
370
    30
100
AcDbVertex
100
AcDb2dVertex
 10
351.9684864530191
 20
511.5181748920659
 30
0.0
  0
VERTEX
  5
113
330
111
100
AcDbEntity
  8
Layer 1
 62
   250
420
  2301728
370
    30
100
AcDbVertex
100
AcDb2dVertex
 10
351.9684864530191
 20
471.1674873926522
 30
0.0
  0
VERTEX
  5
114
330
111
100
AcDbEntity
  8
Layer 1
 62
   250
420
  2301728
370
    30
100
AcDbVertex
100
AcDb2dVertex
 10
340.7411616586396
 20
473.5037351452393
 30
0.0
  0
VERTEX
  5
115
330
111
100
AcDbEntity
  8
Layer 1
 62
   250
420
  2301728
370
    30
100
AcDbVertex
100
AcDb2dVertex
 10
330.5789965028689
 20
493.1324320523863
 30
0.0
  0
VERTEX
  5
116
330
111
100
AcDbEntity
  8
Layer 1
 62
   250
420
  2301728
370
    30
100
AcDbVertex
100
AcDb2dVertex
 10
330.5789965028689
 20
503.7678047161544
 30
0.0
  0
VERTEX
  5
117
330
111
100
AcDbEntity
  8
Layer 1
 62
   250
420
  2301728
370
    30
100
AcDbVertex
100
AcDb2dVertex
 10
341.055047609374
 20
513.9341712521473
 30
0.0
  0
VERTEX
  5
118
330
111
100
AcDbEntity
  8
Layer 1
 62
   250
420
  2301728
370
    30
100
AcDbVertex
100
AcDb2dVertex
 10
342.8716998091677
 20
514.0457347974316
 30
0.0
  0
VERTEX
  5
119
330
111
100
AcDbEntity
  8
Layer 1
 62
   250
420
  2301728
370
    30
100
AcDbVertex
100
AcDb2dVertex
 10
351.9684864530191
 20
511.5181748920659
 30
0.0
  0
SEQEND
  5
11B
330
111
100
AcDbEntity
  8
Layer 1
 62
   250
420
  2301728
370
    30
  0
HATCH
  5
11A
330
1F
100
AcDbEntity
  8
Layer 1
 62
   254
420
 13358815
100
AcDbHatch
 10
0.0
 20
0.0
 30
0.0
210
0.0
220
0.0
230
1.0
  2
SOLID
 70
     1
 71
     0
 91
        1
 92
        1
 93
        7
 72
     1
 10
351.9684864530191
 20
511.5181748920659
 11
351.9684864530191
 21
471.1674873926522
 72
     1
 10
351.9684864530191
 20
471.1674873926522
 11
340.7411616586396
 21
473.5037351452393
 72
     1
 10
340.7411616586396
 20
473.5037351452393
 11
330.5789965028689
 21
493.1324320523863
 72
     1
 10
330.5789965028689
 20
493.1324320523863
 11
330.5789965028689
 21
503.7678047161544
 72
     1
 10
330.5789965028689
 20
503.7678047161544
 11
341.055047609374
 21
513.9341712521473
 72
     1
 10
341.055047609374
 20
513.9341712521473
 11
342.8716998091677
 21
514.0457347974316
 72
     1
 10
342.8716998091677
 20
514.0457347974316
 11
351.9684864530191
 21
511.5181748920659
 97
        0
 75
     2
 76
     1
 98
        0
  0
POLYLINE
  5
11C
330
1F
100
AcDbEntity
  8
Layer 1
 62
   250
420
  2301728
370
    30
100
AcDb2dPolyline
 66
     1
 10
0.0
 20
0.0
 30
0.0
  0
VERTEX
  5
11D
330
11C
100
AcDbEntity
  8
Layer 1
 62
   250
420
  2301728
370
    30
100
AcDbVertex
100
AcDb2dVertex
 10
386.1446292342971
 20
528.2664364122265
 30
0.0
  0
VERTEX
  5
11E
330
11C
100
AcDbEntity
  8
Layer 1
 62
   250
420
  2301728
370
    30
100
AcDbVertex
100
AcDb2dVertex
 10
386.1634246109534
 20
526.8829561641533
 30
0.0
  0
VERTEX
  5
11F
330
11C
100
AcDbEntity
  8
Layer 1
 62
   250
420
  2301728
370
    30
100
AcDbVertex
100
AcDb2dVertex
 10
353.2395457566072
 20
522.6339714357828
 30
0.0
  0
VERTEX
  5
120
330
11C
100
AcDbEntity
  8
Layer 1
 62
   250
420
  2301728
370
    30
100
AcDbVertex
100
AcDb2dVertex
 10
346.8564953179957
 20
524.7627674142486
 30
0.0
  0
VERTEX
  5
121
330
11C
100
AcDbEntity
  8
Layer 1
 62
   250
420
  2301728
370
    30
100
AcDbVertex
100
AcDb2dVertex
 10
347.4277342421647
 20
529.3532307614942
 30
0.0
  0
VERTEX
  5
122
330
11C
100
AcDbEntity
  8
Layer 1
 62
   250
420
  2301728
370
    30
100
AcDbVertex
100
AcDb2dVertex
 10
347.849839757162
 20
531.0678258226217
 30
0.0
  0
VERTEX
  5
123
330
11C
100
AcDbEntity
  8
Layer 1
 62
   250
420
  2301728
370
    30
100
AcDbVertex
100
AcDb2dVertex
 10
358.4476216676157
 20
532.0155205964711
 30
0.0
  0
VERTEX
  5
124
330
11C
100
AcDbEntity
  8
Layer 1
 62
   250
420
  2301728
370
    30
100
AcDbVertex
100
AcDb2dVertex
 10
376.5468667565856
 20
531.732514656891
 30
0.0
  0
VERTEX
  5
125
330
11C
100
AcDbEntity
  8
Layer 1
 62
   250
420
  2301728
370
    30
100
AcDbVertex
100
AcDb2dVertex
 10
386.1446292342971
 20
528.2664364122265
 30
0.0
  0
SEQEND
  5
127
330
11C
100
AcDbEntity
  8
Layer 1
 62
   250
420
  2301728
370
    30
  0
HATCH
  5
126
330
1F
100
AcDbEntity
  8
Layer 1
 62
   254
420
 13358815
100
AcDbHatch
 10
0.0
 20
0.0
 30
0.0
210
0.0
220
0.0
230
1.0
  2
SOLID
 70
     1
 71
     0
 91
        1
 92
        1
 93
        8
 72
     1
 10
386.1446292342971
 20
528.2664364122265
 11
386.1634246109534
 21
526.8829561641533
 72
     1
 10
386.1634246109534
 20
526.8829561641533
 11
353.2395457566072
 21
522.6339714357828
 72
     1
 10
353.2395457566072
 20
522.6339714357828
 11
346.8564953179957
 21
524.7627674142486
 72
     1
 10
346.8564953179957
 20
524.7627674142486
 11
347.4277342421647
 21
529.3532307614942
 72
     1
 10
347.4277342421647
 20
529.3532307614942
 11
347.849839757162
 21
531.0678258226217
 72
     1
 10
347.849839757162
 20
531.0678258226217
 11
358.4476216676157
 21
532.0155205964711
 72
     1
 10
358.4476216676157
 20
532.0155205964711
 11
376.5468667565856
 21
531.732514656891
 72
     1
 10
376.5468667565856
 20
531.732514656891
 11
386.1446292342971
 21
528.2664364122265
 97
        0
 75
     2
 76
     1
 98
        0
  0
POLYLINE
  5
128
330
1F
100
AcDbEntity
  8
Layer 1
 62
   250
420
  2301728
370
    30
100
AcDb2dPolyline
 66
     1
 10
0.0
 20
0.0
 30
0.0
  0
VERTEX
  5
129
330
128
100
AcDbEntity
  8
Layer 1
 62
   250
420
  2301728
370
    30
100
AcDbVertex
100
AcDb2dVertex
 10
376.5570549046788
 20
531.7084495484614
 30
0.0
  0
VERTEX
  5
12A
330
128
100
AcDbEntity
  8
Layer 1
 62
   250
420
  2301728
370
    30
100
AcDbVertex
100
AcDb2dVertex
 10
376.5570549046788
 20
530.2589432945124
 30
0.0
  0
SEQEND
  5
12B
330
128
100
AcDbEntity
  8
Layer 1
 62
   250
420
  2301728
370
    30
  0
POLYLINE
  5
12C
330
1F
100
AcDbEntity
  8
Layer 1
 62
   250
420
  2301728
370
    30
100
AcDb2dPolyline
 66
     1
 10
0.0
 20
0.0
 30
0.0
  0
VERTEX
  5
12D
330
12C
100
AcDbEntity
  8
Layer 1
 62
   250
420
  2301728
370
    30
100
AcDbVertex
100
AcDb2dVertex
 10
353.2395457566072
 20
522.6339714357828
 30
0.0
  0
VERTEX
  5
12E
330
12C
100
AcDbEntity
  8
Layer 1
 62
   250
420
  2301728
370
    30
100
AcDbVertex
100
AcDb2dVertex
 10
349.7641576524748
 20
523.7943663721444
 30
0.0
  0
VERTEX
  5
12F
330
12C
100
AcDbEntity
  8
Layer 1
 62
   250
420
  2301728
370
    30
100
AcDbVertex
100
AcDb2dVertex
 10
349.7641576524748
 20
516.334885390087
 30
0.0
  0
VERTEX
  5
130
330
12C
100
AcDbEntity
  8
Layer 1
 62
   250
420
  2301728
370
    30
100
AcDbVertex
100
AcDb2dVertex
 10
354.7250831433448
 20
522.8252626991325
 30
0.0
  0
VERTEX
  5
131
330
12C
100
AcDbEntity
  8
Layer 1
 62
   250
420
  2301728
370
    30
100
AcDbVertex
100
AcDb2dVertex
 10
353.2395457566072
 20
522.6339714357828
 30
0.0
  0
SEQEND
  5
133
330
12C
100
AcDbEntity
  8
Layer 1
 62
   250
420
  2301728
370
    30
  0
HATCH
  5
132
330
1F
100
AcDbEntity
  8
Layer 1
 62
   254
420
 13358815
100
AcDbHatch
 10
0.0
 20
0.0
 30
0.0
210
0.0
220
0.0
230
1.0
  2
SOLID
 70
     1
 71
     0
 91
        1
 92
        1
 93
        4
 72
     1
 10
353.2395457566072
 20
522.6339714357828
 11
349.7641576524748
 21
523.7943663721444
 72
     1
 10
349.7641576524748
 20
523.7943663721444
 11
349.7641576524748
 21
516.334885390087
 72
     1
 10
349.7641576524748
 20
516.334885390087
 11
354.7250831433448
 21
522.8252626991325
 72
     1
 10
354.7250831433448
 20
522.8252626991325
 11
353.2395457566072
 21
522.6339714357828
 97
        0
 75
     2
 76
     1
 98
        0
  0
POLYLINE
  5
134
330
1F
100
AcDbEntity
  8
Layer 1
 62
   250
420
  2301728
370
    30
100
AcDb2dPolyline
 66
     1
 10
0.0
 20
0.0
 30
0.0
  0
VERTEX
  5
135
330
134
100
AcDbEntity
  8
Layer 1
 62
   250
420
  2301728
370
    30
100
AcDbVertex
100
AcDb2dVertex
 10
358.4509740169888
 20
532.0267413475367
 30
0.0
  0
VERTEX
  5
136
330
134
100
AcDbEntity
  8
Layer 1
 62
   250
420
  2301728
370
    30
100
AcDbVertex
100
AcDb2dVertex
 10
358.4509740169888
 20
530.3103897091514
 30
0.0
  0
SEQEND
  5
137
330
134
100
AcDbEntity
  8
Layer 1
 62
   250
420
  2301728
370
    30
  0
POLYLINE
  5
138
330
1F
100
AcDbEntity
  8
Layer 1
 62
   250
420
  2301728
370
    30
100
AcDb2dPolyline
 66
     1
 10
0.0
 20
0.0
 30
0.0
  0
VERTEX
  5
139
330
138
100
AcDbEntity
  8
Layer 1
 62
   250
420
  2301728
370
    30
100
AcDbVertex
100
AcDb2dVertex
 10
347.4140329395541
 20
529.375539292665
 30
0.0
  0
VERTEX
  5
13A
330
138
100
AcDbEntity
  8
Layer 1
 62
   250
420
  2301728
370
    30
100
AcDbVertex
100
AcDb2dVertex
 10
358.4509740169888
 20
530.3086331318927
 30
0.0
  0
VERTEX
  5
13B
330
138
100
AcDbEntity
  8
Layer 1
 62
   250
420
  2301728
370
    30
100
AcDbVertex
100
AcDb2dVertex
 10
376.5537174078891
 20
530.2624564491152
 30
0.0
  0
VERTEX
  5
13C
330
138
100
AcDbEntity
  8
Layer 1
 62
   250
420
  2301728
370
    30
100
AcDbVertex
100
AcDb2dVertex
 10
386.1479667310869
 20
526.894198258602
 30
0.0
  0
SEQEND
  5
13D
330
138
100
AcDbEntity
  8
Layer 1
 62
   250
420
  2301728
370
    30
  0
POLYLINE
  5
13E
330
1F
100
AcDbEntity
  8
Layer 1
 62
   250
420
  2301728
370
    30
100
AcDb2dPolyline
 66
     1
 10
0.0
 20
0.0
 30
0.0
  0
VERTEX
  5
13F
330
13E
100
AcDbEntity
  8
Layer 1
 62
   250
420
  2301728
370
    30
100
AcDbVertex
100
AcDb2dVertex
 10
349.7641576524748
 20
519.5325586297922
 30
0.0
  0
VERTEX
  5
140
330
13E
100
AcDbEntity
  8
Layer 1
 62
   250
420
  2301728
370
    30
100
AcDbVertex
100
AcDb2dVertex
 10
352.3544064765083
 20
522.9306573345875
 30
0.0
  0
SEQEND
  5
141
330
13E
100
AcDbEntity
  8
Layer 1
 62
   250
420
  2301728
370
    30
  0
SPLINE
  5
142
330
1F
100
AcDbEntity
  8
Layer 1
 62
   250
420
  2301728
370
    30
100
AcDbSpline
210
0.0
220
0.0
230
1.0
 70
     8
 71
     3
 72
    14
 73
    10
 74
     0
 42
0.0000000001
 43
0.0000000001
 12
1.0
 22
0.0
 32
0.0
 13
1.0
 23
0.0
 33
0.0
 40
0.0
 40
0.0
 40
0.0
 40
0.0
 40
1.0
 40
1.0
 40
1.0
 40
2.0
 40
2.0
 40
2.0
 40
3.0
 40
3.0
 40
3.0
 40
3.0
 10
302.3811887600514
 20
482.1708830760863
 30
0.0
 10
302.3811887600514
 20
482.1708830760863
 30
0.0
 10
293.7458549617686
 20
484.3356688041313
 30
0.0
 10
293.1695351669878
 20
484.5176703515044
 30
0.0
 10
292.5930133076163
 20
484.6926053028719
 30
0.0
 10
291.1315410293064
 20
484.9360669107737
 30
0.0
 10
289.9512967699347
 20
484.90181365425
 30
0.0
 10
288.884351743679
 20
484.8708978945169
 30
0.0
 10
235.6467108517263
 20
479.9031417792576
 30
0.0
 10
235.6467108517263
 20
479.9031417792576
 30
0.0
  0
SPLINE
  5
143
330
1F
100
AcDbEntity
  8
Layer 1
 62
   250
420
  2301728
370
    30
100
AcDbSpline
210
0.0
220
0.0
230
1.0
 70
     8
 71
     3
 72
    23
 73
    19
 74
     0
 42
0.0000000001
 43
0.0000000001
 12
1.0
 22
0.0
 32
0.0
 13
1.0
 23
0.0
 33
0.0
 40
0.0
 40
0.0
 40
0.0
 40
0.0
 40
1.0
 40
1.0
 40
1.0
 40
2.0
 40
2.0
 40
2.0
 40
3.0
 40
3.0
 40
3.0
 40
4.0
 40
4.0
 40
4.0
 40
5.0
 40
5.0
 40
5.0
 40
6.0
 40
6.0
 40
6.0
 40
6.0
 10
330.7402502951154
 20
612.2357477410624
 30
0.0
 10
330.7402502951154
 20
612.2357477410624
 30
0.0
 10
337.1747684473721
 20
605.1365639451124
 30
0.0
 10
337.1747684473721
 20
605.1365639451124
 30
0.0
 10
337.1747684473721
 20
605.1365639451124
 30
0.0
 10
337.1747684473721
 20
564.1013150978415
 30
0.0
 10
337.1747684473721
 20
564.1013150978415
 30
0.0
 10
336.4422757309585
 20
563.699058905856
 30
0.0
 10
335.7097830145467
 20
563.3679440928008
 30
0.0
 10
335.7097830145467
 20
562.0359315583755
 30
0.0
 10
335.7097830145467
 20
560.7005815271605
 30
0.0
 10
335.5743509079857
 20
547.8383958739523
 30
0.0
 10
335.5743509079857
 20
547.3967923513974
 30
0.0
 10
335.5743509079857
 20
546.6890673743164
 30
0.0
 10
335.7406987742797
 20
546.2070625748347
 30
0.0
 10
336.1851128204489
 20
546.0184061773707
 30
0.0
 10
336.6293512088923
 20
545.8322089880667
 30
0.0
 10
346.7553164679593
 20
541.897124615627
 30
0.0
 10
346.7553164679593
 20
541.897124615627
 30
0.0
  0
POLYLINE
  5
144
330
1F
100
AcDbEntity
  8
Layer 1
 62
   250
420
  2301728
370
    30
100
AcDb2dPolyline
 66
     1
 10
0.0
 20
0.0
 30
0.0
  0
VERTEX
  5
145
330
144
100
AcDbEntity
  8
Layer 1
 62
   250
420
  2301728
370
    30
100
AcDbVertex
100
AcDb2dVertex
 10
337.1714309505824
 20
564.1013150978415
 30
0.0
  0
VERTEX
  5
146
330
144
100
AcDbEntity
  8
Layer 1
 62
   250
420
  2301728
370
    30
100
AcDbVertex
100
AcDb2dVertex
 10
339.1286236954402
 20
563.2051093810232
 30
0.0
  0
SEQEND
  5
147
330
144
100
AcDbEntity
  8
Layer 1
 62
   250
420
  2301728
370
    30
  0
POLYLINE
  5
148
330
1F
100
AcDbEntity
  8
Layer 1
 62
   250
420
  2301728
370
    30
100
AcDb2dPolyline
 66
     1
 10
0.0
 20
0.0
 30
0.0
  0
VERTEX
  5
149
330
148
100
AcDbEntity
  8
Layer 1
 62
   250
420
  2301728
370
    30
100
AcDbVertex
100
AcDb2dVertex
 10
337.1902263272386
 20
605.1312942132072
 30
0.0
  0
VERTEX
  5
14A
330
148
100
AcDbEntity
  8
Layer 1
 62
   250
420
  2301728
370
    30
100
AcDbVertex
100
AcDb2dVertex
 10
339.1115705315842
 20
604.5017137336463
 30
0.0
  0
SEQEND
  5
14B
330
148
100
AcDbEntity
  8
Layer 1
 62
   250
420
  2301728
370
    30
  0
SPLINE
  5
14C
330
1F
100
AcDbEntity
  8
Layer 1
 62
   250
420
  2301728
370
    30
100
AcDbSpline
210
0.0
220
0.0
230
1.0
 70
    11
 71
     3
 72
    11
 73
     7
 74
     0
 42
0.0000000001
 43
0.0000000001
 12
1.0
 22
0.0
 32
0.0
 13
1.0
 23
0.0
 33
0.0
 40
0.0
 40
0.0
 40
0.0
 40
0.0
 40
1.0
 40
1.0
 40
1.0
 40
2.0
 40
2.0
 40
2.0
 40
2.0
 10
336.1851128204489
 20
535.6735713920061
 30
0.0
 10
341.8973264043852
 20
535.6735713920061
 30
0.0
 10
340.7667932814056
 20
538.2209597309547
 30
0.0
 10
335.7751276885283
 20
538.2209597309547
 30
0.0
 10
330.7815298606693
 20
538.2209597309547
 30
0.0
 10
329.6545098922015
 20
535.6735713920061
 30
0.0
 10
336.1851128204489
 20
535.6735713920061
 30
0.0
  0
HATCH
  5
14D
330
1F
100
AcDbEntity
  8
Layer 1
 62
   250
420
  2301728
100
AcDbHatch
 10
0.0
 20
0.0
 30
0.0
210
0.0
220
0.0
230
1.0
  2
SOLID
 70
     1
 71
     0
 91
        1
 92
        1
 93
        1
 72
     4
 94
        3
 73
     0
 74
     1
 95
       11
 96
        7
 40
0.0
 40
0.0
 40
0.0
 40
0.0
 40
1.0
 40
1.0
 40
1.0
 40
2.0
 40
2.0
 40
2.0
 40
2.0
 10
336.1851128204489
 20
535.6735713920061
 10
341.8973264043852
 20
535.6735713920061
 10
340.7667932814056
 20
538.2209597309547
 10
335.7751276885283
 20
538.2209597309547
 10
330.7815298606693
 20
538.2209597309547
 10
329.6545098922015
 20
535.6735713920061
 10
336.1851128204489
 20
535.6735713920061
 97
        0
 97
        0
 75
     2
 76
     1
 98
        0
  0
SPLINE
  5
14E
330
1F
100
AcDbEntity
  8
Layer 1
 62
   250
420
  2301728
370
    30
100
AcDbSpline
210
0.0
220
0.0
230
1.0
 70
    11
 71
     3
 72
    11
 73
     7
 74
     0
 42
0.0000000001
 43
0.0000000001
 12
1.0
 22
0.0
 32
0.0
 13
1.0
 23
0.0
 33
0.0
 40
0.0
 40
0.0
 40
0.0
 40
0.0
 40
1.0
 40
1.0
 40
1.0
 40
2.0
 40
2.0
 40
2.0
 40
2.0
 10
360.0343379043916
 20
526.7466457689643
 30
0.0
 10
366.0365623935577
 20
526.7466457689643
 30
0.0
 10
364.3332094268771
 20
528.9697699461622
 30
0.0
 10
360.0343379043916
 20
528.9697699461622
 30
0.0
 10
354.9172526953244
 20
528.9697699461622
 30
0.0
 10
354.9172526953244
 20
526.7466457689643
 30
0.0
 10
360.0343379043916
 20
526.7466457689643
 30
0.0
  0
HATCH
  5
14F
330
1F
100
AcDbEntity
  8
Layer 1
 62
   250
420
  2301728
100
AcDbHatch
 10
0.0
 20
0.0
 30
0.0
210
0.0
220
0.0
230
1.0
  2
SOLID
 70
     1
 71
     0
 91
        1
 92
        1
 93
        1
 72
     4
 94
        3
 73
     0
 74
     1
 95
       11
 96
        7
 40
0.0
 40
0.0
 40
0.0
 40
0.0
 40
1.0
 40
1.0
 40
1.0
 40
2.0
 40
2.0
 40
2.0
 40
2.0
 10
360.0343379043916
 20
526.7466457689643
 10
366.0365623935577
 20
526.7466457689643
 10
364.3332094268771
 20
528.9697699461622
 10
360.0343379043916
 20
528.9697699461622
 10
354.9172526953244
 20
528.9697699461622
 10
354.9172526953244
 20
526.7466457689643
 10
360.0343379043916
 20
526.7466457689643
 97
        0
 97
        0
 75
     2
 76
     1
 98
        0
  0
SPLINE
  5
150
330
1F
100
AcDbEntity
  8
Layer 1
 62
   250
420
  2301728
370
    30
100
AcDbSpline
210
0.0
220
0.0
230
1.0
 70
    11
 71
     3
 72
    11
 73
     7
 74
     0
 42
0.0000000001
 43
0.0000000001
 12
1.0
 22
0.0
 32
0.0
 13
1.0
 23
0.0
 33
0.0
 40
0.0
 40
0.0
 40
0.0
 40
0.0
 40
1.0
 40
1.0
 40
1.0
 40
2.0
 40
2.0
 40
2.0
 40
2.0
 10
336.1851128204489
 20
534.9951812551271
 30
0.0
 10
341.8973264043852
 20
534.9951812551271
 30
0.0
 10
340.7667932814056
 20
537.541712788433
 30
0.0
 10
335.7751276885283
 20
537.541712788433
 30
0.0
 10
330.7815298606693
 20
537.541712788433
 30
0.0
 10
329.6545098922015
 20
534.9951812551271
 30
0.0
 10
336.1851128204489
 20
534.9951812551271
 30
0.0
  0
HATCH
  5
151
330
1F
100
AcDbEntity
  8
Layer 1
 62
   254
420
 13358815
100
AcDbHatch
 10
0.0
 20
0.0
 30
0.0
210
0.0
220
0.0
230
1.0
  2
SOLID
 70
     1
 71
     0
 91
        1
 92
        1
 93
        1
 72
     4
 94
        3
 73
     0
 74
     1
 95
       11
 96
        7
 40
0.0
 40
0.0
 40
0.0
 40
0.0
 40
1.0
 40
1.0
 40
1.0
 40
2.0
 40
2.0
 40
2.0
 40
2.0
 10
336.1851128204489
 20
534.9951812551271
 10
341.8973264043852
 20
534.9951812551271
 10
340.7667932814056
 20
537.541712788433
 10
335.7751276885283
 20
537.541712788433
 10
330.7815298606693
 20
537.541712788433
 10
329.6545098922015
 20
534.9951812551271
 10
336.1851128204489
 20
534.9951812551271
 97
        0
 97
        0
 75
     2
 76
     1
 98
        0
  0
SPLINE
  5
152
330
1F
100
AcDbEntity
  8
Layer 1
 62
   250
420
  2301728
370
    30
100
AcDbSpline
210
0.0
220
0.0
230
1.0
 70
    11
 71
     3
 72
    11
 73
     7
 74
     0
 42
0.0000000001
 43
0.0000000001
 12
1.0
 22
0.0
 32
0.0
 13
1.0
 23
0.0
 33
0.0
 40
0.0
 40
0.0
 40
0.0
 40
0.0
 40
1.0
 40
1.0
 40
1.0
 40
2.0
 40
2.0
 40
2.0
 40
2.0
 10
360.0343379043916
 20
526.0664990548285
 30
0.0
 10
366.0365623935577
 20
526.0664990548285
 30
0.0
 10
364.3332094268771
 20
528.292258097912
 30
0.0
 10
360.0343379043916
 20
528.292258097912
 30
0.0
 10
354.9172526953244
 20
528.292258097912
 30
0.0
 10
354.9172526953244
 20
526.0664990548285
 30
0.0
 10
360.0343379043916
 20
526.0664990548285
 30
0.0
  0
HATCH
  5
153
330
1F
100
AcDbEntity
  8
Layer 1
 62
   254
420
 13358815
100
AcDbHatch
 10
0.0
 20
0.0
 30
0.0
210
0.0
220
0.0
230
1.0
  2
SOLID
 70
     1
 71
     0
 91
        1
 92
        1
 93
        1
 72
     4
 94
        3
 73
     0
 74
     1
 95
       11
 96
        7
 40
0.0
 40
0.0
 40
0.0
 40
0.0
 40
1.0
 40
1.0
 40
1.0
 40
2.0
 40
2.0
 40
2.0
 40
2.0
 10
360.0343379043916
 20
526.0664990548285
 10
366.0365623935577
 20
526.0664990548285
 10
364.3332094268771
 20
528.292258097912
 10
360.0343379043916
 20
528.292258097912
 10
354.9172526953244
 20
528.292258097912
 10
354.9172526953244
 20
526.0664990548285
 10
360.0343379043916
 20
526.0664990548285
 97
        0
 97
        0
 75
     2
 76
     1
 98
        0
  0
POLYLINE
  5
154
330
1F
100
AcDbEntity
  8
Layer 1
 62
   250
420
  2301728
370
    30
100
AcDb2dPolyline
 66
     1
 10
0.0
 20
0.0
 30
0.0
  0
VERTEX
  5
155
330
154
100
AcDbEntity
  8
Layer 1
 62
   250
420
  2301728
370
    30
100
AcDbVertex
100
AcDb2dVertex
 10
342.8716998091677
 20
514.0457347974316
 30
0.0
  0
VERTEX
  5
156
330
154
100
AcDbEntity
  8
Layer 1
 62
   250
420
  2301728
370
    30
100
AcDbVertex
100
AcDb2dVertex
 10
332.3768533260063
 20
503.658018637555
 30
0.0
  0
VERTEX
  5
157
330
154
100
AcDbEntity
  8
Layer 1
 62
   250
420
  2301728
370
    30
100
AcDbVertex
100
AcDb2dVertex
 10
332.3768533260063
 20
493.1838997660334
 30
0.0
  0
VERTEX
  5
158
330
154
100
AcDbEntity
  8
Layer 1
 62
   250
420
  2301728
370
    30
100
AcDbVertex
100
AcDb2dVertex
 10
342.7499690052191
 20
473.1023572418817
 30
0.0
  0
SEQEND
  5
159
330
154
100
AcDbEntity
  8
Layer 1
 62
   250
420
  2301728
370
    30
  0
POLYLINE
  5
15A
330
1F
100
AcDbEntity
  8
Layer 1
 62
   250
420
  2301728
370
    30
100
AcDb2dPolyline
 66
     1
 10
0.0
 20
0.0
 30
0.0
  0
VERTEX
  5
15B
330
15A
100
AcDbEntity
  8
Layer 1
 62
   250
420
  2301728
370
    30
100
AcDbVertex
100
AcDb2dVertex
 10
330.6065747658122
 20
493.1324320523863
 30
0.0
  0
VERTEX
  5
15C
330
15A
100
AcDbEntity
  8
Layer 1
 62
   250
420
  2301728
370
    30
100
AcDbVertex
100
AcDb2dVertex
 10
332.3664895201873
 20
493.1838997660334
 30
0.0
  0
SEQEND
  5
15D
330
15A
100
AcDbEntity
  8
Layer 1
 62
   250
420
  2301728
370
    30
  0
POLYLINE
  5
15E
330
1F
100
AcDbEntity
  8
Layer 1
 62
   250
420
  2301728
370
    30
100
AcDb2dPolyline
 66
     1
 10
0.0
 20
0.0
 30
0.0
  0
VERTEX
  5
15F
330
15E
100
AcDbEntity
  8
Layer 1
 62
   250
420
  2301728
370
    30
100
AcDbVertex
100
AcDb2dVertex
 10
330.6099122626019
 20
503.7781685219734
 30
0.0
  0
VERTEX
  5
160
330
15E
100
AcDbEntity
  8
Layer 1
 62
   250
420
  2301728
370
    30
100
AcDbVertex
100
AcDb2dVertex
 10
332.3631520233976
 20
503.6632883693273
 30
0.0
  0
SEQEND
  5
161
330
15E
100
AcDbEntity
  8
Layer 1
 62
   250
420
  2301728
370
    30
  0
SPLINE
  5
162
330
1F
100
AcDbEntity
  8
Layer 1
 62
   250
420
  2301728
370
    30
100
AcDbSpline
210
0.0
220
0.0
230
1.0
 70
    11
 71
     3
 72
    11
 73
     7
 74
     0
 42
0.0000000001
 43
0.0000000001
 12
1.0
 22
0.0
 32
0.0
 13
1.0
 23
0.0
 33
0.0
 40
0.0
 40
0.0
 40
0.0
 40
0.0
 40
1.0
 40
1.0
 40
1.0
 40
2.0
 40
2.0
 40
2.0
 40
2.0
 10
341.3433019373442
 20
497.995516190007
 30
0.0
 10
341.3433019373442
 20
492.4839037288857
 30
0.0
 10
335.4577141780846
 20
493.3588548608886
 30
0.0
 10
335.4577141780846
 20
498.371248065404
 30
0.0
 10
335.4577141780846
 20
503.1229652048942
 30
0.0
 10
341.3433019373442
 20
503.1263027016839
 30
0.0
 10
341.3433019373442
 20
497.995516190007
 30
0.0
  0
HATCH
  5
163
330
1F
100
AcDbEntity
  8
Layer 1
 62
   250
420
  2301728
100
AcDbHatch
 10
0.0
 20
0.0
 30
0.0
210
0.0
220
0.0
230
1.0
  2
SOLID
 70
     1
 71
     0
 91
        1
 92
        1
 93
        1
 72
     4
 94
        3
 73
     0
 74
     1
 95
       11
 96
        7
 40
0.0
 40
0.0
 40
0.0
 40
0.0
 40
1.0
 40
1.0
 40
1.0
 40
2.0
 40
2.0
 40
2.0
 40
2.0
 10
341.3433019373442
 20
497.995516190007
 10
341.3433019373442
 20
492.4839037288857
 10
335.4577141780846
 20
493.3588548608886
 10
335.4577141780846
 20
498.371248065404
 10
335.4577141780846
 20
503.1229652048942
 10
341.3433019373442
 20
503.1263027016839
 10
341.3433019373442
 20
497.995516190007
 97
        0
 97
        0
 75
     2
 76
     1
 98
        0
  0
SPLINE
  5
164
330
1F
100
AcDbEntity
  8
Layer 1
 62
   250
420
  2301728
370
    30
100
AcDbSpline
210
0.0
220
0.0
230
1.0
 70
    11
 71
     3
 72
    11
 73
     7
 74
     0
 42
0.0000000001
 43
0.0000000001
 12
1.0
 22
0.0
 32
0.0
 13
1.0
 23
0.0
 33
0.0
 40
0.0
 40
0.0
 40
0.0
 40
0.0
 40
1.0
 40
1.0
 40
1.0
 40
2.0
 40
2.0
 40
2.0
 40
2.0
 10
341.8527093420416
 20
497.995516190007
 30
0.0
 10
341.8527093420416
 20
492.4839037288857
 30
0.0
 10
335.9671215827821
 20
493.3588548608886
 30
0.0
 10
335.9671215827821
 20
498.371248065404
 30
0.0
 10
335.9671215827821
 20
503.1229652048942
 30
0.0
 10
341.8527093420416
 20
503.1263027016839
 30
0.0
 10
341.8527093420416
 20
497.995516190007
 30
0.0
  0
HATCH
  5
165
330
1F
100
AcDbEntity
  8
Layer 1
 62
   254
420
 13358815
100
AcDbHatch
 10
0.0
 20
0.0
 30
0.0
210
0.0
220
0.0
230
1.0
  2
SOLID
 70
     1
 71
     0
 91
        1
 92
        1
 93
        1
 72
     4
 94
        3
 73
     0
 74
     1
 95
       11
 96
        7
 40
0.0
 40
0.0
 40
0.0
 40
0.0
 40
1.0
 40
1.0
 40
1.0
 40
2.0
 40
2.0
 40
2.0
 40
2.0
 10
341.8527093420416
 20
497.995516190007
 10
341.8527093420416
 20
492.4839037288857
 10
335.9671215827821
 20
493.3588548608886
 10
335.9671215827821
 20
498.371248065404
 10
335.9671215827821
 20
503.1229652048942
 10
341.8527093420416
 20
503.1263027016839
 10
341.8527093420416
 20
497.995516190007
 97
        0
 97
        0
 75
     2
 76
     1
 98
        0
  0
SPLINE
  5
166
330
1F
100
AcDbEntity
  8
Layer 1
 62
   250
420
  2301728
370
    30
100
AcDbSpline
210
0.0
220
0.0
230
1.0
 70
    11
 71
     3
 72
    11
 73
     7
 74
     0
 42
0.0000000001
 43
0.0000000001
 12
1.0
 22
0.0
 32
0.0
 13
1.0
 23
0.0
 33
0.0
 40
0.0
 40
0.0
 40
0.0
 40
0.0
 40
1.0
 40
1.0
 40
1.0
 40
2.0
 40
2.0
 40
2.0
 40
2.0
 10
307.1466207586745
 20
504.8254605394504
 30
0.0
 10
307.1466207586745
 20
499.3138274218236
 30
0.0
 10
301.2610194428898
 20
500.1887785538274
 30
0.0
 10
301.2610194428898
 20
505.2011717583418
 30
0.0
 10
301.2610194428898
 20
509.9527132401072
 30
0.0
 10
307.1466207586745
 20
509.9562263946218
 30
0.0
 10
307.1466207586745
 20
504.8254605394504
 30
0.0
  0
HATCH
  5
167
330
1F
100
AcDbEntity
  8
Layer 1
 62
   254
420
 13358815
100
AcDbHatch
 10
0.0
 20
0.0
 30
0.0
210
0.0
220
0.0
230
1.0
  2
SOLID
 70
     1
 71
     0
 91
        1
 92
        1
 93
        1
 72
     4
 94
        3
 73
     0
 74
     1
 95
       11
 96
        7
 40
0.0
 40
0.0
 40
0.0
 40
0.0
 40
1.0
 40
1.0
 40
1.0
 40
2.0
 40
2.0
 40
2.0
 40
2.0
 10
307.1466207586745
 20
504.8254605394504
 10
307.1466207586745
 20
499.3138274218236
 10
301.2610194428898
 20
500.1887785538274
 10
301.2610194428898
 20
505.2011717583418
 10
301.2610194428898
 20
509.9527132401072
 10
307.1466207586745
 20
509.9562263946218
 10
307.1466207586745
 20
504.8254605394504
 97
        0
 97
        0
 75
     2
 76
     1
 98
        0
  0
POLYLINE
  5
168
330
1F
100
AcDbEntity
  8
Layer 1
 62
   250
420
  2301728
370
    30
100
AcDb2dPolyline
 66
     1
 10
0.0
 20
0.0
 30
0.0
  0
VERTEX
  5
169
330
168
100
AcDbEntity
  8
Layer 1
 62
   250
420
  2301728
370
    30
100
AcDbVertex
100
AcDb2dVertex
 10
294.6473304103602
 20
539.9956512792696
 30
0.0
  0
VERTEX
  5
16A
330
168
100
AcDbEntity
  8
Layer 1
 62
   250
420
  2301728
370
    30
100
AcDbVertex
100
AcDb2dVertex
 10
349.7641576524748
 20
523.4513068337374
 30
0.0
  0
SEQEND
  5
16B
330
168
100
AcDbEntity
  8
Layer 1
 62
   250
420
  2301728
370
    30
  0
INSERT
  5
16E
330
1F
100
AcDbEntity
  8
callout
100
AcDbBlockReference
  2
block 2
 10
0.0
 20
0.0
 30
0.0
  0
MTEXT
  5
18E
330
1F
100
AcDbEntity
  8
callout
 62
   250
420
  2301728
100
AcDbMText
 10
255.6141815185547
 20
380.391056060791
 30
0.0
 40
8.495999999999999
 41
0.0
 46
0.0
 71
     7
 72
     1
  1
\fHelvetica Neue LT Std 55 Roman|b0|i0|c0|p34;\W1;SIMPSON Strong-Tie\H4.95317;®\H8.496; 
 73
     1
 44
1.0
  0
MTEXT
  5
18F
330
1F
100
AcDbEntity
  8
callout
 62
   250
420
  2301728
100
AcDbMText
 10
270.4125213623047
 20
365.991641998291
 30
0.0
 40
8.495999999999999
 41
0.0
 46
0.0
 71
     7
 72
     1
  1
\fHelvetica Neue LT Std 55 Roman|b0|i0|c0|p34;\W1;LCE4 Installation
 73
     1
 44
1.0
  0
MTEXT
  5
190
330
1F
100
AcDbEntity
  8
callout
 62
   250
420
  2301728
100
AcDbMText
 10
394.7072219848633
 20
487.7741394042969
 30
0.0
 40
8.495999999999999
 41
0.0
 46
0.0
 71
     7
 72
     1
  1
\fHelvetica LT Std Condensed|b0|i0|c0|p34;\W1;LCE4
 73
     1
 44
1.0
  0
POLYLINE
  5
191
330
1F
100
AcDbEntity
  8
callout
 62
   250
420
  2236191
370
    18
100
AcDb2dPolyline
 66
     1
 10
0.0
 20
0.0
 30
0.0
  0
VERTEX
  5
192
330
191
100
AcDbEntity
  8
callout
 62
   250
420
  2236191
370
    18
100
AcDbVertex
100
AcDb2dVertex
 10
388.9496599769755
 20
490.8709143503811
 30
0.0
  0
VERTEX
  5
193
330
191
100
AcDbEntity
  8
callout
 62
   250
420
  2236191
370
    18
100
AcDbVertex
100
AcDb2dVertex
 10
351.3189579306054
 20
489.8846848493622
 30
0.0
  0
SEQEND
  5
194
330
191
100
AcDbEntity
  8
callout
 62
   250
420
  2236191
370
    18
  0
ENDSEC
  0
SECTION
  2
OBJECTS
  0
DICTIONARY
  5
C
330
0
100
AcDbDictionary
281
     1
  3
ACAD_GROUP
350
D
  3
ACAD_LAYOUT
350
1A
  3
ACAD_MATERIAL
350
3B
  3
ACAD_MLEADERSTYLE
350
196
  3
ACAD_MLINESTYLE
350
17
  3
ACAD_PLOTSETTINGS
350
19
  3
ACAD_PLOTSTYLENAME
350
E
  3
ACAD_TABLESTYLE
350
195
  3
ACAD_VISUALSTYLE
350
2A
  0
SUN
  5
3F
330
29
100
AcDbSun
 90
        1
290
     0
 63
     7
421
 16777215
 40
1.0
291
     1
 91
  2455826
 92
 54000000
292
     0
 70
     2
 71
   256
280
     1
  0
DICTIONARY
  5
D
102
{ACAD_REACTORS
330
C
102
}
330
C
100
AcDbDictionary
281
     1
  0
DICTIONARY
  5
1A
102
{ACAD_REACTORS
330
C
102
}
330
C
100
AcDbDictionary
281
     1
  3
Layout1
350
1E
  3
Layout2
350
26
  3
Model
350
22
  0
DICTIONARY
  5
3B
102
{ACAD_REACTORS
330
C
102
}
330
C
100
AcDbDictionary
281
     1
  3
ByBlock
350
3D
  3
ByLayer
350
3C
  3
Global
350
3E
  0
DICTIONARY
  5
196
102
{ACAD_REACTORS
330
C
102
}
330
C
100
AcDbDictionary
281
     1
  0
DICTIONARY
  5
17
102
{ACAD_REACTORS
330
C
102
}
330
C
100
AcDbDictionary
281
     1
  3
Standard
350
18
  0
DICTIONARY
  5
19
102
{ACAD_REACTORS
330
C
102
}
330
C
100
AcDbDictionary
281
     1
  0
ACDBDICTIONARYWDFLT
  5
E
102
{ACAD_REACTORS
330
C
102
}
330
C
100
AcDbDictionary
281
     1
  3
Normal
350
F
100
AcDbDictionaryWithDefault
340
F
  0
DICTIONARY
  5
195
102
{ACAD_REACTORS
330
C
102
}
330
C
100
AcDbDictionary
281
     1
  0
DICTIONARY
  5
2A
102
{ACAD_REACTORS
330
C
102
}
330
C
100
AcDbDictionary
281
     1
  3
2dWireframe
350
2F
  3
3D Hidden
350
31
  3
3dWireframe
350
30
  3
Basic
350
32
  3
Brighten
350
36
  3
ColorChange
350
3A
  3
Conceptual
350
34
  3
Dim
350
35
  3
Facepattern
350
39
  3
Flat
350
2B
  3
FlatWithEdges
350
2C
  3
Gouraud
350
2D
  3
GouraudWithEdges
350
2E
  3
Linepattern
350
38
  3
Realistic
350
33
  3
Thicken
350
37
  0
LAYOUT
  5
1E
102
{ACAD_REACTORS
330
1A
102
}
330
1A
100
AcDbPlotSettings
  1

  2
none_device
  4

  6

 40
0.0
 41
0.0
 42
0.0
 43
0.0
 44
0.0
 45
0.0
 46
0.0
 47
0.0
 48
0.0
 49
0.0
140
0.0
141
0.0
142
1.0
143
1.0
 70
   688
 72
     0
 73
     0
 74
     5
  7

 75
    16
 76
     0
 77
     2
 78
   300
147
1.0
148
0.0
149
0.0
100
AcDbLayout
  1
Layout1
 70
     1
 71
     1
 10
0.0
 20
0.0
 11
12.0
 21
9.0
 12
0.0
 22
0.0
 32
0.0
 14
1.000000000000000E+20
 24
1.000000000000000E+20
 34
1.000000000000000E+20
 15
-1.000000000000000E+20
 25
-1.000000000000000E+20
 35
-1.000000000000000E+20
146
0.0
 13
0.0
 23
0.0
 33
0.0
 16
1.0
 26
0.0
 36
0.0
 17
0.0
 27
1.0
 37
0.0
 76
     0
330
1B
  0
LAYOUT
  5
26
102
{ACAD_REACTORS
330
1A
102
}
330
1A
100
AcDbPlotSettings
  1

  2
none_device
  4

  6

 40
0.0
 41
0.0
 42
0.0
 43
0.0
 44
0.0
 45
0.0
 46
0.0
 47
0.0
 48
0.0
 49
0.0
140
0.0
141
0.0
142
1.0
143
1.0
 70
   688
 72
     0
 73
     0
 74
     5
  7

 75
    16
 76
     0
 77
     2
 78
   300
147
1.0
148
0.0
149
0.0
100
AcDbLayout
  1
Layout2
 70
     1
 71
     2
 10
0.0
 20
0.0
 11
0.0
 21
0.0
 12
0.0
 22
0.0
 32
0.0
 14
0.0
 24
0.0
 34
0.0
 15
0.0
 25
0.0
 35
0.0
146
0.0
 13
0.0
 23
0.0
 33
0.0
 16
1.0
 26
0.0
 36
0.0
 17
0.0
 27
1.0
 37
0.0
 76
     0
330
23
  0
LAYOUT
  5
22
102
{ACAD_REACTORS
330
1A
102
}
330
1A
100
AcDbPlotSettings
  1

  2
none_device
  4

  6

 40
0.0
 41
0.0
 42
0.0
 43
0.0
 44
0.0
 45
0.0
 46
0.0
 47
0.0
 48
0.0
 49
0.0
140
0.0
141
0.0
142
1.0
143
1.0
 70
  1712
 72
     0
 73
     0
 74
     0
  7

 75
     0
 76
     0
 77
     2
 78
   300
147
1.0
148
0.0
149
0.0
100
AcDbLayout
  1
Model
 70
     1
 71
     0
 10
0.0
 20
0.0
 11
12.0
 21
9.0
 12
0.0
 22
0.0
 32
0.0
 14
1.000000000000000E+20
 24
1.000000000000000E+20
 34
1.000000000000000E+20
 15
-1.000000000000000E+20
 25
-1.000000000000000E+20
 35
-1.000000000000000E+20
146
0.0
 13
0.0
 23
0.0
 33
0.0
 16
1.0
 26
0.0
 36
0.0
 17
0.0
 27
1.0
 37
0.0
 76
     0
330
1F
331
29
  0
MATERIAL
  5
3D
102
{ACAD_REACTORS
330
3B
102
}
330
3B
100
AcDbMaterial
  1
ByBlock
 72
     1
 94
      127
  0
MATERIAL
  5
3C
102
{ACAD_REACTORS
330
3B
102
}
330
3B
100
AcDbMaterial
  1
ByLayer
 72
     1
 94
      127
  0
MATERIAL
  5
3E
102
{ACAD_REACTORS
330
3B
102
}
330
3B
100
AcDbMaterial
  1
Global
 72
     1
 94
      127
  0
MLINESTYLE
  5
18
102
{ACAD_REACTORS
330
17
102
}
330
17
100
AcDbMlineStyle
  2
Standard
 70
     0
  3

 62
   256
 51
90.0
 52
90.0
 71
     2
 49
0.5
 62
   256
  6
BYLAYER
 49
-0.5
 62
   256
  6
BYLAYER
  0
ACDBPLACEHOLDER
  5
F
102
{ACAD_REACTORS
330
E
102
}
330
E
  0
VISUALSTYLE
  5
2F
102
{ACAD_REACTORS
330
2A
102
}
330
2A
100
AcDbVisualStyle
  2
2dWireframe
 70
     4
177
     2
291
     0
 71
     0
176
     1
 72
     2
176
     1
 73
     0
176
     1
 90
        0
176
     1
 40
-0.6
176
     1
 41
-30.0
176
     1
 62
     5
 63
     7
421
 16777215
176
     1
 74
     1
176
     1
 91
        4
176
     1
 64
     7
176
     1
 65
   257
176
     1
 75
     1
176
     1
175
     1
176
     1
 42
1.0
176
     1
 92
        0
176
     1
 66
   257
176
     1
 43
1.0
176
     1
 76
     1
176
     1
 77
     6
176
     1
 78
     2
176
     1
 67
     7
176
     1
 79
     5
176
     1
170
     0
176
     1
171
     0
176
     1
290
     0
176
     1
 93
        1
176
     1
 44
0.0
176
     1
173
     0
176
     1
  0
VISUALSTYLE
  5
31
102
{ACAD_REACTORS
330
2A
102
}
330
2A
100
AcDbVisualStyle
  2
3D Hidden
 70
     6
177
     2
291
     0
 71
     1
176
     1
 72
     2
176
     1
 73
     2
176
     1
 90
        0
176
     1
 40
-0.6
176
     1
 41
-30.0
176
     1
 62
     5
 63
     7
421
 16777215
176
     1
 74
     2
176
     1
 91
        2
176
     1
 64
     7
176
     1
 65
   257
176
     1
 75
     2
176
     1
175
     1
176
     1
 42
40.0
176
     1
 92
        0
176
     1
 66
   257
176
     1
 43
1.0
176
     1
 76
     1
176
     1
 77
     6
176
     1
 78
     2
176
     1
 67
     7
176
     1
 79
     3
176
     1
170
     0
176
     1
171
     0
176
     1
290
     0
176
     1
 93
        1
176
     1
 44
0.0
176
     1
173
     0
176
     1
  0
VISUALSTYLE
  5
30
102
{ACAD_REACTORS
330
2A
102
}
330
2A
100
AcDbVisualStyle
  2
3dWireframe
 70
     5
177
     2
291
     0
 71
     0
176
     1
 72
     2
176
     1
 73
     0
176
     1
 90
        0
176
     1
 40
-0.6
176
     1
 41
-30.0
176
     1
 62
     5
 63
     7
421
 16777215
176
     1
 74
     1
176
     1
 91
        4
176
     1
 64
     7
176
     1
 65
   257
176
     1
 75
     1
176
     1
175
     1
176
     1
 42
1.0
176
     1
 92
        0
176
     1
 66
   257
176
     1
 43
1.0
176
     1
 76
     1
176
     1
 77
     6
176
     1
 78
     2
176
     1
 67
     7
176
     1
 79
     5
176
     1
170
     0
176
     1
171
     0
176
     1
290
     0
176
     1
 93
        1
176
     1
 44
0.0
176
     1
173
     0
176
     1
  0
VISUALSTYLE
  5
32
102
{ACAD_REACTORS
330
2A
102
}
330
2A
100
AcDbVisualStyle
  2
Basic
 70
     7
177
     2
291
     1
 71
     1
176
     1
 72
     0
176
     1
 73
     1
176
     1
 90
        0
176
     1
 40
-0.6
176
     1
 41
-30.0
176
     1
 62
     5
 63
     7
421
 16777215
176
     1
 74
     0
176
     1
 91
        4
176
     1
 64
     7
176
     1
 65
   257
176
     1
 75
     1
176
     1
175
     1
176
     1
 42
1.0
176
     1
 92
        8
176
     1
 66
     7
176
     1
 43
1.0
176
     1
 76
     1
176
     1
 77
     6
176
     1
 78
     2
176
     1
 67
     7
176
     1
 79
     5
176
     1
170
     0
176
     1
171
     0
176
     1
290
     0
176
     1
 93
        1
176
     1
 44
0.0
176
     1
173
     0
176
     1
  0
VISUALSTYLE
  5
36
102
{ACAD_REACTORS
330
2A
102
}
330
2A
100
AcDbVisualStyle
  2
Brighten
 70
    12
177
     2
291
     1
 71
     2
176
     1
 72
     2
176
     1
 73
     0
176
     1
 90
        0
176
     1
 40
-0.6
176
     1
 41
-30.0
176
     1
 62
     5
 63
     7
421
 16777215
176
     1
 74
     1
176
     1
 91
        4
176
     1
 64
     7
176
     1
 65
   257
176
     1
 75
     1
176
     1
175
     1
176
     1
 42
1.0
176
     1
 92
        8
176
     1
 66
     7
176
     1
 43
1.0
176
     1
 76
     1
176
     1
 77
     6
176
     1
 78
     2
176
     1
 67
     7
176
     1
 79
     5
176
     1
170
     0
176
     1
171
     0
176
     1
290
     0
176
     1
 93
        1
176
     1
 44
50.0
176
     1
173
     0
176
     1
  0
VISUALSTYLE
  5
3A
102
{ACAD_REACTORS
330
2A
102
}
330
2A
100
AcDbVisualStyle
  2
ColorChange
 70
    16
177
     2
291
     1
 71
     2
176
     1
 72
     2
176
     1
 73
     3
176
     1
 90
        0
176
     1
 40
-0.6
176
     1
 41
-30.0
176
     1
 62
     5
 63
     8
421
  8421504
176
     1
 74
     1
176
     1
 91
        4
176
     1
 64
     7
176
     1
 65
   257
176
     1
 75
     1
176
     1
175
     1
176
     1
 42
1.0
176
     1
 92
        8
176
     1
 66
     8
424
  8421504
176
     1
 43
1.0
176
     1
 76
     1
176
     1
 77
     6
176
     1
 78
     2
176
     1
 67
     7
176
     1
 79
     5
176
     1
170
     0
176
     1
171
     0
176
     1
290
     0
176
     1
 93
        1
176
     1
 44
0.0
176
     1
173
     0
176
     1
  0
VISUALSTYLE
  5
34
102
{ACAD_REACTORS
330
2A
102
}
330
2A
100
AcDbVisualStyle
  2
Conceptual
 70
     9
177
     2
291
     0
 71
     3
176
     1
 72
     2
176
     1
 73
     0
176
     1
 90
        0
176
     1
 40
-0.6
176
     1
 41
-30.0
176
     1
 62
     5
 63
     7
421
 16777215
176
     1
 74
     2
176
     1
 91
        2
176
     1
 64
     7
176
     1
 65
   257
176
     1
 75
     1
176
     1
175
     1
176
     1
 42
40.0
176
     1
 92
        8
176
     1
 66
     7
176
     1
 43
1.0
176
     1
 76
     1
176
     1
 77
     6
176
     1
 78
     2
176
     1
 67
     7
176
     1
 79
     3
176
     1
170
     0
176
     1
171
     0
176
     1
290
     0
176
     1
 93
        1
176
     1
 44
0.0
176
     1
173
     0
176
     1
  0
VISUALSTYLE
  5
35
102
{ACAD_REACTORS
330
2A
102
}
330
2A
100
AcDbVisualStyle
  2
Dim
 70
    11
177
     2
291
     1
 71
     2
176
     1
 72
     2
176
     1
 73
     0
176
     1
 90
        0
176
     1
 40
-0.6
176
     1
 41
-30.0
176
     1
 62
     5
 63
     7
421
 16777215
176
     1
 74
     1
176
     1
 91
        4
176
     1
 64
     7
176
     1
 65
   257
176
     1
 75
     1
176
     1
175
     1
176
     1
 42
1.0
176
     1
 92
        8
176
     1
 66
     7
176
     1
 43
1.0
176
     1
 76
     1
176
     1
 77
     6
176
     1
 78
     2
176
     1
 67
     7
176
     1
 79
     5
176
     1
170
     0
176
     1
171
     0
176
     1
290
     0
176
     1
 93
        1
176
     1
 44
-50.0
176
     1
173
     0
176
     1
  0
VISUALSTYLE
  5
39
102
{ACAD_REACTORS
330
2A
102
}
330
2A
100
AcDbVisualStyle
  2
Facepattern
 70
    15
177
     2
291
     1
 71
     2
176
     1
 72
     2
176
     1
 73
     0
176
     1
 90
        0
176
     1
 40
-0.6
176
     1
 41
-30.0
176
     1
 62
     5
 63
     7
421
 16777215
176
     1
 74
     1
176
     1
 91
        4
176
     1
 64
     7
176
     1
 65
   257
176
     1
 75
     1
176
     1
175
     1
176
     1
 42
1.0
176
     1
 92
        8
176
     1
 66
     7
176
     1
 43
1.0
176
     1
 76
     1
176
     1
 77
     6
176
     1
 78
     2
176
     1
 67
     7
176
     1
 79
     5
176
     1
170
     0
176
     1
171
     0
176
     1
290
     0
176
     1
 93
        1
176
     1
 44
0.0
176
     1
173
     0
176
     1
  0
VISUALSTYLE
  5
2B
102
{ACAD_REACTORS
330
2A
102
}
330
2A
100
AcDbVisualStyle
  2
Flat
 70
     0
177
     2
291
     1
 71
     2
176
     1
 72
     1
176
     1
 73
     1
176
     1
 90
        2
176
     1
 40
-0.6
176
     1
 41
30.0
176
     1
 62
     5
 63
     7
421
 16777215
176
     1
 74
     0
176
     1
 91
        4
176
     1
 64
     7
176
     1
 65
   257
176
     1
 75
     1
176
     1
175
     1
176
     1
 42
1.0
176
     1
 92
        8
176
     1
 66
     7
176
     1
 43
1.0
176
     1
 76
     1
176
     1
 77
     6
176
     1
 78
     2
176
     1
 67
     7
176
     1
 79
     5
176
     1
170
     0
176
     1
171
     0
176
     1
290
     0
176
     1
 93
       13
176
     1
 44
0.0
176
     1
173
     0
176
     1
  0
VISUALSTYLE
  5
2C
102
{ACAD_REACTORS
330
2A
102
}
330
2A
100
AcDbVisualStyle
  2
FlatWithEdges
 70
     1
177
     2
291
     1
 71
     2
176
     1
 72
     1
176
     1
 73
     1
176
     1
 90
        2
176
     1
 40
-0.6
176
     1
 41
30.0
176
     1
 62
     5
 63
     7
421
 16777215
176
     1
 74
     1
176
     1
 91
        4
176
     1
 64
     7
176
     1
 65
   257
176
     1
 75
     1
176
     1
175
     1
176
     1
 42
1.0
176
     1
 92
        0
176
     1
 66
   257
176
     1
 43
1.0
176
     1
 76
     1
176
     1
 77
     6
176
     1
 78
     2
176
     1
 67
     7
176
     1
 79
     5
176
     1
170
     0
176
     1
171
     0
176
     1
290
     0
176
     1
 93
       13
176
     1
 44
0.0
176
     1
173
     0
176
     1
  0
VISUALSTYLE
  5
2D
102
{ACAD_REACTORS
330
2A
102
}
330
2A
100
AcDbVisualStyle
  2
Gouraud
 70
     2
177
     2
291
     1
 71
     2
176
     1
 72
     2
176
     1
 73
     1
176
     1
 90
        2
176
     1
 40
-0.6
176
     1
 41
30.0
176
     1
 62
     5
 63
     7
421
 16777215
176
     1
 74
     0
176
     1
 91
        4
176
     1
 64
     7
176
     1
 65
   257
176
     1
 75
     1
176
     1
175
     1
176
     1
 42
1.0
176
     1
 92
        0
176
     1
 66
     7
176
     1
 43
1.0
176
     1
 76
     1
176
     1
 77
     6
176
     1
 78
     2
176
     1
 67
     7
176
     1
 79
     5
176
     1
170
     0
176
     1
171
     0
176
     1
290
     0
176
     1
 93
       13
176
     1
 44
0.0
176
     1
173
     0
176
     1
  0
VISUALSTYLE
  5
2E
102
{ACAD_REACTORS
330
2A
102
}
330
2A
100
AcDbVisualStyle
  2
GouraudWithEdges
 70
     3
177
     2
291
     1
 71
     2
176
     1
 72
     2
176
     1
 73
     1
176
     1
 90
        2
176
     1
 40
-0.6
176
     1
 41
30.0
176
     1
 62
     5
 63
     7
421
 16777215
176
     1
 74
     1
176
     1
 91
        4
176
     1
 64
     7
176
     1
 65
   257
176
     1
 75
     1
176
     1
175
     1
176
     1
 42
1.0
176
     1
 92
        0
176
     1
 66
   257
176
     1
 43
1.0
176
     1
 76
     1
176
     1
 77
     6
176
     1
 78
     2
176
     1
 67
     7
176
     1
 79
     5
176
     1
170
     0
176
     1
171
     0
176
     1
290
     0
176
     1
 93
       13
176
     1
 44
0.0
176
     1
173
     0
176
     1
  0
VISUALSTYLE
  5
38
102
{ACAD_REACTORS
330
2A
102
}
330
2A
100
AcDbVisualStyle
  2
Linepattern
 70
    14
177
     2
291
     1
 71
     2
176
     1
 72
     2
176
     1
 73
     0
176
     1
 90
        0
176
     1
 40
-0.6
176
     1
 41
-30.0
176
     1
 62
     5
 63
     7
421
 16777215
176
     1
 74
     1
176
     1
 91
        4
176
     1
 64
     7
176
     1
 65
   257
176
     1
 75
     7
176
     1
175
     7
176
     1
 42
1.0
176
     1
 92
        8
176
     1
 66
     7
176
     1
 43
1.0
176
     1
 76
     1
176
     1
 77
     6
176
     1
 78
     2
176
     1
 67
     7
176
     1
 79
     5
176
     1
170
     0
176
     1
171
     0
176
     1
290
     0
176
     1
 93
        1
176
     1
 44
0.0
176
     1
173
     0
176
     1
  0
VISUALSTYLE
  5
33
102
{ACAD_REACTORS
330
2A
102
}
330
2A
100
AcDbVisualStyle
  2
Realistic
 70
     8
177
     2
291
     0
 71
     2
176
     1
 72
     2
176
     1
 73
     0
176
     1
 90
        0
176
     1
 40
-0.6
176
     1
 41
-30.0
176
     1
 62
     5
 63
     7
421
 16777215
176
     1
 74
     1
176
     1
 91
        0
176
     1
 64
     7
176
     1
 65
   257
176
     1
 75
     1
176
     1
175
     1
176
     1
 42
1.0
176
     1
 92
        8
176
     1
 66
     8
424
  7895160
176
     1
 43
1.0
176
     1
 76
     1
176
     1
 77
     6
176
     1
 78
     2
176
     1
 67
     7
176
     1
 79
     5
176
     1
170
     0
176
     1
171
     0
176
     1
290
     0
176
     1
 93
       13
176
     1
 44
0.0
176
     1
173
     0
176
     1
  0
VISUALSTYLE
  5
37
102
{ACAD_REACTORS
330
2A
102
}
330
2A
100
AcDbVisualStyle
  2
Thicken
 70
    13
177
     2
291
     1
 71
     2
176
     1
 72
     2
176
     1
 73
     0
176
     1
 90
        0
176
     1
 40
-0.6
176
     1
 41
-30.0
176
     1
 62
     5
 63
     7
421
 16777215
176
     1
 74
     1
176
     1
 91
        4
176
     1
 64
     7
176
     1
 65
   257
176
     1
 75
     1
176
     1
175
     1
176
     1
 42
1.0
176
     1
 92
       12
176
     1
 66
     7
176
     1
 43
1.0
176
     1
 76
     1
176
     1
 77
     6
176
     1
 78
     2
176
     1
 67
     7
176
     1
 79
     5
176
     1
170
     0
176
     1
171
     0
176
     1
290
     0
176
     1
 93
        1
176
     1
 44
0.0
176
     1
173
     0
176
     1
  0
ENDSEC
  0
EOF
