  0
SECTION
  2
HEADER
  9
$ACADVER
  1
AC1024
  9
$ACADMAINTVER
 70
     6
  9
$DWGCODEPAGE
  3
ANSI_1252
  9
$INSBASE
 10
0.0
 20
0.0
 30
0.0
  9
$EXTMIN
 10
1.000000000000000E+20
 20
1.000000000000000E+20
 30
1.000000000000000E+20
  9
$EXTMAX
 10
-1.000000000000000E+20
 20
-1.000000000000000E+20
 30
-1.000000000000000E+20
  9
$LIMMIN
 10
0.0
 20
0.0
  9
$LIMMAX
 10
12.0
 20
9.0
  9
$ORTHOMODE
 70
     0
  9
$REGENMODE
 70
     1
  9
$FILLMODE
 70
     1
  9
$QTEXTMODE
 70
     0
  9
$MIRRTEXT
 70
     1
  9
$LTSCALE
 40
1.0
  9
$ATTMODE
 70
     1
  9
$TEXTSIZE
 40
0.2
  9
$TRACEWID
 40
0.05
  9
$TEXTSTYLE
  7
Standard
  9
$CLAYER
  8
0
  9
$CELTYPE
  6
ByLayer
  9
$CECOLOR
 62
   256
  9
$CELTSCALE
 40
1.0
  9
$DISPSILH
 70
     0
  9
$DIMSCALE
 40
1.0
  9
$DIMASZ
 40
0.18
  9
$DIMEXO
 40
0.0625
  9
$DIMDLI
 40
0.38
  9
$DIMRND
 40
0.0
  9
$DIMDLE
 40
0.0
  9
$DIMEXE
 40
0.18
  9
$DIMTP
 40
0.0
  9
$DIMTM
 40
0.0
  9
$DIMTXT
 40
0.18
  9
$DIMCEN
 40
0.09
  9
$DIMTSZ
 40
0.0
  9
$DIMTOL
 70
     0
  9
$DIMLIM
 70
     0
  9
$DIMTIH
 70
     1
  9
$DIMTOH
 70
     1
  9
$DIMSE1
 70
     0
  9
$DIMSE2
 70
     0
  9
$DIMTAD
 70
     0
  9
$DIMZIN
 70
     0
  9
$DIMBLK
  1

  9
$DIMASO
 70
     1
  9
$DIMSHO
 70
     1
  9
$DIMPOST
  1

  9
$DIMAPOST
  1

  9
$DIMALT
 70
     0
  9
$DIMALTD
 70
     2
  9
$DIMALTF
 40
25.4
  9
$DIMLFAC
 40
1.0
  9
$DIMTOFL
 70
     0
  9
$DIMTVP
 40
0.0
  9
$DIMTIX
 70
     0
  9
$DIMSOXD
 70
     0
  9
$DIMSAH
 70
     0
  9
$DIMBLK1
  1

  9
$DIMBLK2
  1

  9
$DIMSTYLE
  2
Standard
  9
$DIMCLRD
 70
     0
  9
$DIMCLRE
 70
     0
  9
$DIMCLRT
 70
     0
  9
$DIMTFAC
 40
1.0
  9
$DIMGAP
 40
0.09
  9
$DIMJUST
 70
     0
  9
$DIMSD1
 70
     0
  9
$DIMSD2
 70
     0
  9
$DIMTOLJ
 70
     1
  9
$DIMTZIN
 70
     0
  9
$DIMALTZ
 70
     0
  9
$DIMALTTZ
 70
     0
  9
$DIMUPT
 70
     0
  9
$DIMDEC
 70
     4
  9
$DIMTDEC
 70
     4
  9
$DIMALTU
 70
     2
  9
$DIMALTTD
 70
     2
  9
$DIMTXSTY
  7
Standard
  9
$DIMAUNIT
 70
     0
  9
$DIMADEC
 70
     0
  9
$DIMALTRND
 40
0.0
  9
$DIMAZIN
 70
     0
  9
$DIMDSEP
 70
    46
  9
$DIMATFIT
 70
     3
  9
$DIMFRAC
 70
     0
  9
$DIMLDRBLK
  1

  9
$DIMLUNIT
 70
     2
  9
$DIMLWD
 70
    -2
  9
$DIMLWE
 70
    -2
  9
$DIMTMOVE
 70
     0
  9
$DIMFXL
 40
1.0
  9
$DIMFXLON
 70
     0
  9
$DIMJOGANG
 40
0.7853981633974483
  9
$DIMTFILL
 70
     0
  9
$DIMTFILLCLR
 70
     0
  9
$DIMARCSYM
 70
     0
  9
$DIMLTYPE
  6

  9
$DIMLTEX1
  6

  9
$DIMLTEX2
  6

  9
$DIMTXTDIRECTION
 70
     0
  9
$LUNITS
 70
     2
  9
$LUPREC
 70
     4
  9
$SKETCHINC
 40
0.1
  9
$FILLETRAD
 40
0.5
  9
$AUNITS
 70
     0
  9
$AUPREC
 70
     0
  9
$MENU
  1
.
  9
$ELEVATION
 40
0.0
  9
$PELEVATION
 40
0.0
  9
$THICKNESS
 40
0.0
  9
$LIMCHECK
 70
     0
  9
$CHAMFERA
 40
0.5
  9
$CHAMFERB
 40
0.5
  9
$CHAMFERC
 40
1.0
  9
$CHAMFERD
 40
0.0
  9
$SKPOLY
 70
     0
  9
$TDCREATE
 40
2459044.411103426
  9
$TDUCREATE
 40
2459043.911103426
  9
$TDUPDATE
 40
2459044.411103553
  9
$TDUUPDATE
 40
2459043.911103553
  9
$TDINDWG
 40
0.0000000116
  9
$TDUSRTIMER
 40
0.0000000116
  9
$USRTIMER
 70
     1
  9
$ANGBASE
 50
0.0
  9
$ANGDIR
 70
     0
  9
$PDMODE
 70
     0
  9
$PDSIZE
 40
0.0
  9
$PLINEWID
 40
0.0
  9
$SPLFRAME
 70
     0
  9
$SPLINETYPE
 70
     6
  9
$SPLINESEGS
 70
     8
  9
$HANDSEED
  5
127
  9
$SURFTAB1
 70
     6
  9
$SURFTAB2
 70
     6
  9
$SURFTYPE
 70
     6
  9
$SURFU
 70
     6
  9
$SURFV
 70
     6
  9
$UCSBASE
  2

  9
$UCSNAME
  2

  9
$UCSORG
 10
0.0
 20
0.0
 30
0.0
  9
$UCSXDIR
 10
1.0
 20
0.0
 30
0.0
  9
$UCSYDIR
 10
0.0
 20
1.0
 30
0.0
  9
$UCSORTHOREF
  2

  9
$UCSORTHOVIEW
 70
     0
  9
$UCSORGTOP
 10
0.0
 20
0.0
 30
0.0
  9
$UCSORGBOTTOM
 10
0.0
 20
0.0
 30
0.0
  9
$UCSORGLEFT
 10
0.0
 20
0.0
 30
0.0
  9
$UCSORGRIGHT
 10
0.0
 20
0.0
 30
0.0
  9
$UCSORGFRONT
 10
0.0
 20
0.0
 30
0.0
  9
$UCSORGBACK
 10
0.0
 20
0.0
 30
0.0
  9
$PUCSBASE
  2

  9
$PUCSNAME
  2

  9
$PUCSORG
 10
0.0
 20
0.0
 30
0.0
  9
$PUCSXDIR
 10
1.0
 20
0.0
 30
0.0
  9
$PUCSYDIR
 10
0.0
 20
1.0
 30
0.0
  9
$PUCSORTHOREF
  2

  9
$PUCSORTHOVIEW
 70
     0
  9
$PUCSORGTOP
 10
0.0
 20
0.0
 30
0.0
  9
$PUCSORGBOTTOM
 10
0.0
 20
0.0
 30
0.0
  9
$PUCSORGLEFT
 10
0.0
 20
0.0
 30
0.0
  9
$PUCSORGRIGHT
 10
0.0
 20
0.0
 30
0.0
  9
$PUCSORGFRONT
 10
0.0
 20
0.0
 30
0.0
  9
$PUCSORGBACK
 10
0.0
 20
0.0
 30
0.0
  9
$USERI1
 70
     0
  9
$USERI2
 70
     0
  9
$USERI3
 70
     0
  9
$USERI4
 70
     0
  9
$USERI5
 70
     0
  9
$USERR1
 40
0.0
  9
$USERR2
 40
0.0
  9
$USERR3
 40
0.0
  9
$USERR4
 40
0.0
  9
$USERR5
 40
0.0
  9
$WORLDVIEW
 70
     1
  9
$SHADEDGE
 70
     3
  9
$SHADEDIF
 70
    70
  9
$TILEMODE
 70
     1
  9
$MAXACTVP
 70
    64
  9
$PINSBASE
 10
0.0
 20
0.0
 30
0.0
  9
$PLIMCHECK
 70
     0
  9
$PEXTMIN
 10
1.000000000000000E+20
 20
1.000000000000000E+20
 30
1.000000000000000E+20
  9
$PEXTMAX
 10
-1.000000000000000E+20
 20
-1.000000000000000E+20
 30
-1.000000000000000E+20
  9
$PLIMMIN
 10
0.0
 20
0.0
  9
$PLIMMAX
 10
12.0
 20
9.0
  9
$UNITMODE
 70
     0
  9
$VISRETAIN
 70
     1
  9
$PLINEGEN
 70
     0
  9
$PSLTSCALE
 70
     1
  9
$TREEDEPTH
 70
  3020
  9
$CMLSTYLE
  2
Standard
  9
$CMLJUST
 70
     0
  9
$CMLSCALE
 40
1.0
  9
$PROXYGRAPHICS
 70
     1
  9
$MEASUREMENT
 70
     0
  9
$CELWEIGHT
370
    -1
  9
$ENDCAPS
280
     0
  9
$JOINSTYLE
280
     0
  9
$LWDISPLAY
290
     1
  9
$INSUNITS
 70
     0
  9
$HYPERLINKBASE
  1

  9
$STYLESHEET
  1

  9
$XEDIT
290
     1
  9
$CEPSNTYPE
380
     0
  9
$PSTYLEMODE
290
     1
  9
$FINGERPRINTGUID
  2
{E4C72611-B20D-4296-B1BF-8B1FCC71305A}
  9
$VERSIONGUID
  2
{FAEB1C32-E019-11D5-929B-00C0DF256EC4}
  9
$EXTNAMES
290
     1
  9
$PSVPSCALE
 40
0.0
  9
$OLESTARTUP
290
     0
  9
$SORTENTS
280
   127
  9
$INDEXCTL
280
     0
  9
$HIDETEXT
280
     1
  9
$XCLIPFRAME
280
     2
  9
$HALOGAP
280
     0
  9
$OBSCOLOR
 70
   257
  9
$OBSLTYPE
280
     0
  9
$INTERSECTIONDISPLAY
280
     0
  9
$INTERSECTIONCOLOR
 70
   257
  9
$DIMASSOC
280
     2
  9
$PROJECTNAME
  1

  9
$CAMERADISPLAY
290
     0
  9
$LENSLENGTH
 40
50.0
  9
$CAMERAHEIGHT
 40
0.0
  9
$STEPSPERSEC
 40
2.0
  9
$STEPSIZE
 40
6.0
  9
$3DDWFPREC
 40
2.0
  9
$PSOLWIDTH
 40
0.25
  9
$PSOLHEIGHT
 40
4.0
  9
$LOFTANG1
 40
1.570796326794897
  9
$LOFTANG2
 40
1.570796326794897
  9
$LOFTMAG1
 40
0.0
  9
$LOFTMAG2
 40
0.0
  9
$LOFTPARAM
 70
     7
  9
$LOFTNORMALS
280
     1
  9
$LATITUDE
 40
37.795
  9
$LONGITUDE
 40
-122.394
  9
$NORTHDIRECTION
 40
0.0
  9
$TIMEZONE
 70
 -8000
  9
$LIGHTGLYPHDISPLAY
280
     1
  9
$TILEMODELIGHTSYNCH
280
     1
  9
$CMATERIAL
347
3C
  9
$SOLIDHIST
280
     1
  9
$SHOWHIST
280
     1
  9
$DWFFRAME
280
     2
  9
$DGNFRAME
280
     2
  9
$REALWORLDSCALE
290
     1
  9
$INTERFERECOLOR
 62
   256
  9
$CSHADOW
280
     0
  9
$SHADOWPLANELOCATION
 40
0.0
  0
ENDSEC
  0
SECTION
  2
CLASSES
  0
CLASS
  1
ACDBDICTIONARYWDFLT
  2
AcDbDictionaryWithDefault
  3
ObjectDBX Classes
 90
        0
 91
        4
280
     0
281
     0
  0
CLASS
  1
VISUALSTYLE
  2
AcDbVisualStyle
  3
ObjectDBX Classes
 90
     4095
 91
        4
280
     0
281
     0
  0
CLASS
  1
MATERIAL
  2
AcDbMaterial
  3
ObjectDBX Classes
 90
     1153
 91
        4
280
     0
281
     0
  0
CLASS
  1
SUN
  2
AcDbSun
  3
SCENEOE
 90
     1024
 91
        4
280
     0
281
     0
  0
ENDSEC
  0
SECTION
  2
TABLES
  0
TABLE
  2
VPORT
  5
8
330
0
100
AcDbSymbolTable
 70
     1
  0
VPORT
  5
29
330
8
100
AcDbSymbolTableRecord
100
AcDbViewportTableRecord
  2
*Active
 70
     0
 10
0.0
 20
0.0
 11
1.0
 21
1.0
 12
0.0
 22
0.0
 13
0.0
 23
0.0
 14
0.5
 24
0.5
 15
0.5
 25
0.5
 16
0.0
 26
0.0
 36
1.0
 17
608.4533659049403
 27
672.7259422199604
 37
0.0
 40
800.0
 41
0.9999999999999978
 42
50.0
 43
0.0
 44
0.0
 50
0.0
 51
0.0
 71
     0
 72
   100
 73
     1
 74
     3
 75
     0
 76
     0
 77
     0
 78
     0
281
     0
 65
     1
110
0.0
120
0.0
130
0.0
111
1.0
121
0.0
131
0.0
112
0.0
122
1.0
132
0.0
 79
     0
146
0.0
 60
     3
 61
     5
292
     1
282
     1
141
0.0
142
0.0
 63
   250
361
3F
  0
ENDTAB
  0
TABLE
  2
LTYPE
  5
5
330
0
100
AcDbSymbolTable
 70
     2
  0
LTYPE
  5
14
330
5
100
AcDbSymbolTableRecord
100
AcDbLinetypeTableRecord
  2
ByBlock
 70
     0
  3

 72
    65
 73
     0
 40
0.0
  0
LTYPE
  5
15
330
5
100
AcDbSymbolTableRecord
100
AcDbLinetypeTableRecord
  2
ByLayer
 70
     0
  3

 72
    65
 73
     0
 40
0.0
  0
LTYPE
  5
16
330
5
100
AcDbSymbolTableRecord
100
AcDbLinetypeTableRecord
  2
Continuous
 70
     0
  3
Solid line
 72
    65
 73
     0
 40
0.0
  0
LTYPE
  5
85
330
5
100
AcDbSymbolTableRecord
100
AcDbLinetypeTableRecord
  2
AI-Linetype-1
 70
     0
  3
Adobe Illustrator Linetype No. 1
 72
    65
 73
     2
 40
6.0
 49
4.0
 74
     0
 49
-2.0
 74
     0
  0
ENDTAB
  0
TABLE
  2
LAYER
  5
2
330
0
100
AcDbSymbolTable
 70
     4
  0
LAYER
  5
10
330
2
100
AcDbSymbolTableRecord
100
AcDbLayerTableRecord
  2
0
 70
     0
 62
     7
  6
Continuous
370
    -3
390
F
347
3E
  0
LAYER
  5
40
330
2
100
AcDbSymbolTableRecord
100
AcDbLayerTableRecord
  2
Layer 2
 70
     0
 62
     7
  6
Continuous
370
    -3
390
F
347
3E
  0
LAYER
  5
90
330
2
100
AcDbSymbolTableRecord
100
AcDbLayerTableRecord
  2
LSSR
 70
     0
 62
     7
  6
Continuous
370
    -3
390
F
347
3E
  0
LAYER
  5
10E
330
2
100
AcDbSymbolTableRecord
100
AcDbLayerTableRecord
  2
Callouts
 70
     0
 62
     7
  6
Continuous
370
    -3
390
F
347
3E
  0
ENDTAB
  0
TABLE
  2
STYLE
  5
3
330
0
100
AcDbSymbolTable
 70
     1
  0
STYLE
  5
11
330
3
100
AcDbSymbolTableRecord
100
AcDbTextStyleTableRecord
  2
Standard
 70
     0
 40
0.0
 41
1.0
 50
0.0
 71
     0
 42
0.2
  3
txt
  4

  0
ENDTAB
  0
TABLE
  2
VIEW
  5
6
330
0
100
AcDbSymbolTable
 70
     0
  0
ENDTAB
  0
TABLE
  2
UCS
  5
7
330
0
100
AcDbSymbolTable
 70
     0
  0
ENDTAB
  0
TABLE
  2
APPID
  5
9
330
0
100
AcDbSymbolTable
 70
     1
  0
APPID
  5
12
330
9
100
AcDbSymbolTableRecord
100
AcDbRegAppTableRecord
  2
ACAD
 70
     0
  0
ENDTAB
  0
TABLE
  2
DIMSTYLE
  5
A
330
0
100
AcDbSymbolTable
 70
     1
100
AcDbDimStyleTable
  0
DIMSTYLE
105
27
330
A
100
AcDbSymbolTableRecord
100
AcDbDimStyleTableRecord
  2
Standard
 70
     0
178
     0
340
11
  0
ENDTAB
  0
TABLE
  2
BLOCK_RECORD
  5
1
330
0
100
AcDbSymbolTable
 70
    13
  0
BLOCK_RECORD
  5
1F
330
1
100
AcDbSymbolTableRecord
100
AcDbBlockTableRecord
  2
*Model_Space
340
22
 70
     0
280
     1
281
     0
  0
BLOCK_RECORD
  5
1B
330
1
100
AcDbSymbolTableRecord
100
AcDbBlockTableRecord
  2
*Paper_Space
340
1E
 70
     0
280
     1
281
     0
  0
BLOCK_RECORD
  5
23
330
1
100
AcDbSymbolTableRecord
100
AcDbBlockTableRecord
  2
*Paper_Space0
340
26
 70
     0
280
     1
281
     0
  0
BLOCK_RECORD
  5
41
330
1
100
AcDbSymbolTableRecord
100
AcDbBlockTableRecord
  2
block 2
340
0
102
{BLKREFS
331
42
102
}
 70
     0
280
     1
281
     0
  0
BLOCK_RECORD
  5
67
330
1
100
AcDbSymbolTableRecord
100
AcDbBlockTableRecord
  2
block 3
340
0
102
{BLKREFS
331
68
102
}
 70
     0
280
     1
281
     0
  0
BLOCK_RECORD
  5
91
330
1
100
AcDbSymbolTableRecord
100
AcDbBlockTableRecord
  2
block 4
340
0
102
{BLKREFS
331
92
102
}
 70
     0
280
     1
281
     0
  0
BLOCK_RECORD
  5
97
330
1
100
AcDbSymbolTableRecord
100
AcDbBlockTableRecord
  2
block 5
340
0
102
{BLKREFS
331
98
102
}
 70
     0
280
     1
281
     0
  0
BLOCK_RECORD
  5
A1
330
1
100
AcDbSymbolTableRecord
100
AcDbBlockTableRecord
  2
block 6
340
0
102
{BLKREFS
331
A2
102
}
 70
     0
280
     1
281
     0
  0
BLOCK_RECORD
  5
A5
330
1
100
AcDbSymbolTableRecord
100
AcDbBlockTableRecord
  2
block 7
340
0
102
{BLKREFS
331
A6
102
}
 70
     0
280
     1
281
     0
  0
BLOCK_RECORD
  5
B3
330
1
100
AcDbSymbolTableRecord
100
AcDbBlockTableRecord
  2
block 8
340
0
102
{BLKREFS
331
B4
102
}
 70
     0
280
     1
281
     0
  0
BLOCK_RECORD
  5
CF
330
1
100
AcDbSymbolTableRecord
100
AcDbBlockTableRecord
  2
block 9
340
0
102
{BLKREFS
331
D0
102
}
 70
     0
280
     1
281
     0
  0
BLOCK_RECORD
  5
D3
330
1
100
AcDbSymbolTableRecord
100
AcDbBlockTableRecord
  2
block 10
340
0
102
{BLKREFS
331
D4
102
}
 70
     0
280
     1
281
     0
  0
BLOCK_RECORD
  5
E0
330
1
100
AcDbSymbolTableRecord
100
AcDbBlockTableRecord
  2
block 11
340
0
102
{BLKREFS
331
E1
102
}
 70
     0
280
     1
281
     0
  0
BLOCK_RECORD
  5
E4
330
1
100
AcDbSymbolTableRecord
100
AcDbBlockTableRecord
  2
block 12
340
0
102
{BLKREFS
331
E5
102
}
 70
     0
280
     1
281
     0
  0
BLOCK_RECORD
  5
F2
330
1
100
AcDbSymbolTableRecord
100
AcDbBlockTableRecord
  2
block 13
340
0
102
{BLKREFS
331
F3
102
}
 70
     0
280
     1
281
     0
  0
ENDTAB
  0
ENDSEC
  0
SECTION
  2
BLOCKS
  0
BLOCK
  5
20
330
1F
100
AcDbEntity
  8
0
100
AcDbBlockBegin
  2
*Model_Space
 70
     0
 10
0.0
 20
0.0
 30
0.0
  3
*Model_Space
  1

  0
ENDBLK
  5
21
330
1F
100
AcDbEntity
  8
0
100
AcDbBlockEnd
  0
BLOCK
  5
1C
330
1B
100
AcDbEntity
 67
     1
  8
0
100
AcDbBlockBegin
  2
*Paper_Space
 70
     0
 10
0.0
 20
0.0
 30
0.0
  3
*Paper_Space
  1

  0
ENDBLK
  5
1D
330
1B
100
AcDbEntity
 67
     1
  8
0
100
AcDbBlockEnd
  0
BLOCK
  5
24
330
23
100
AcDbEntity
  8
0
100
AcDbBlockBegin
  2
*Paper_Space0
 70
     0
 10
0.0
 20
0.0
 30
0.0
  3
*Paper_Space0
  1

  0
ENDBLK
  5
25
330
23
100
AcDbEntity
  8
0
100
AcDbBlockEnd
  0
BLOCK
  5
43
330
41
100
AcDbEntity
  8
0
100
AcDbBlockBegin
  2
block 2
 70
     0
 10
0.0
 20
0.0
 30
0.0
  3
block 2
  1

  0
POLYLINE
  5
45
330
41
100
AcDbEntity
  8
Layer 2
 62
   250
420
  2301728
370
    25
100
AcDb2dPolyline
 66
     1
 10
0.0
 20
0.0
 30
0.0
  0
VERTEX
  5
46
330
45
100
AcDbEntity
  8
Layer 2
 62
   250
420
  2301728
370
    25
100
AcDbVertex
100
AcDb2dVertex
 10
386.9669199664149
 20
818.6692843057699
 30
0.0
  0
VERTEX
  5
47
330
45
100
AcDbEntity
  8
Layer 2
 62
   250
420
  2301728
370
    25
100
AcDbVertex
100
AcDb2dVertex
 10
386.9669199664149
 20
783.2333964831132
 30
0.0
  0
VERTEX
  5
48
330
45
100
AcDbEntity
  8
Layer 2
 62
   250
420
  2301728
370
    25
100
AcDbVertex
100
AcDb2dVertex
 10
377.7926572858541
 20
778.4367617305088
 30
0.0
  0
VERTEX
  5
49
330
45
100
AcDbEntity
  8
Layer 2
 62
   250
420
  2301728
370
    25
100
AcDbVertex
100
AcDb2dVertex
 10
395.7457913641338
 20
769.0987054148
 30
0.0
  0
VERTEX
  5
4A
330
45
100
AcDbEntity
  8
Layer 2
 62
   250
420
  2301728
370
    25
100
AcDbVertex
100
AcDb2dVertex
 10
386.9669199664149
 20
764.0779837246555
 30
0.0
  0
VERTEX
  5
4B
330
45
100
AcDbEntity
  8
Layer 2
 62
   250
420
  2301728
370
    25
100
AcDbVertex
100
AcDb2dVertex
 10
386.9669199664149
 20
728.411926678611
 30
0.0
  0
VERTEX
  5
4C
330
45
100
AcDbEntity
  8
Layer 2
 62
   250
420
  2301728
370
    25
100
AcDbVertex
100
AcDb2dVertex
 10
386.7692243249949
 20
728.411926678611
 30
0.0
  0
VERTEX
  5
4D
330
45
100
AcDbEntity
  8
Layer 2
 62
   250
420
  2301728
370
    25
100
AcDbVertex
100
AcDb2dVertex
 10
814.2636817937691
 20
728.411926678611
 30
0.0
  0
VERTEX
  5
4E
330
45
100
AcDbEntity
  8
Layer 2
 62
   250
420
  2301728
370
    25
100
AcDbVertex
100
AcDb2dVertex
 10
814.2636817937691
 20
764.0779837246555
 30
0.0
  0
VERTEX
  5
4F
330
45
100
AcDbEntity
  8
Layer 2
 62
   250
420
  2301728
370
    25
100
AcDbVertex
100
AcDb2dVertex
 10
823.0425531914916
 20
769.0987054148
 30
0.0
  0
VERTEX
  5
50
330
45
100
AcDbEntity
  8
Layer 2
 62
   250
420
  2301728
370
    25
100
AcDbVertex
100
AcDb2dVertex
 10
805.0894191132102
 20
778.4367617305088
 30
0.0
  0
VERTEX
  5
51
330
45
100
AcDbEntity
  8
Layer 2
 62
   250
420
  2301728
370
    25
100
AcDbVertex
100
AcDb2dVertex
 10
814.2636817937691
 20
783.2333964831132
 30
0.0
  0
VERTEX
  5
52
330
45
100
AcDbEntity
  8
Layer 2
 62
   250
420
  2301728
370
    25
100
AcDbVertex
100
AcDb2dVertex
 10
814.2636817937691
 20
818.6692843057699
 30
0.0
  0
VERTEX
  5
53
330
45
100
AcDbEntity
  8
Layer 2
 62
   250
420
  2301728
370
    25
100
AcDbVertex
100
AcDb2dVertex
 10
386.7692243249949
 20
818.6692843057699
 30
0.0
  0
VERTEX
  5
54
330
45
100
AcDbEntity
  8
Layer 2
 62
   250
420
  2301728
370
    25
100
AcDbVertex
100
AcDb2dVertex
 10
386.9669199664149
 20
818.6692843057699
 30
0.0
  0
SEQEND
  5
56
330
45
100
AcDbEntity
  8
Layer 2
 62
   250
420
  2301728
370
    25
  0
HATCH
  5
55
330
41
100
AcDbEntity
  8
Layer 2
 62
    43
420
 15510364
100
AcDbHatch
 10
0.0
 20
0.0
 30
0.0
210
0.0
220
0.0
230
1.0
  2
SOLID
 70
     1
 71
     0
 91
        1
 92
        1
 93
       14
 72
     1
 10
386.9669199664149
 20
818.6692843057699
 11
386.9669199664149
 21
783.2333964831132
 72
     1
 10
386.9669199664149
 20
783.2333964831132
 11
377.7926572858541
 21
778.4367617305088
 72
     1
 10
377.7926572858541
 20
778.4367617305088
 11
395.7457913641338
 21
769.0987054148
 72
     1
 10
395.7457913641338
 20
769.0987054148
 11
386.9669199664149
 21
764.0779837246555
 72
     1
 10
386.9669199664149
 20
764.0779837246555
 11
386.9669199664149
 21
728.411926678611
 72
     1
 10
386.9669199664149
 20
728.411926678611
 11
386.7692243249949
 21
728.411926678611
 72
     1
 10
386.7692243249949
 20
728.411926678611
 11
814.2636817937691
 21
728.411926678611
 72
     1
 10
814.2636817937691
 20
728.411926678611
 11
814.2636817937691
 21
764.0779837246555
 72
     1
 10
814.2636817937691
 20
764.0779837246555
 11
823.0425531914916
 21
769.0987054148
 72
     1
 10
823.0425531914916
 20
769.0987054148
 11
805.0894191132102
 21
778.4367617305088
 72
     1
 10
805.0894191132102
 20
778.4367617305088
 11
814.2636817937691
 21
783.2333964831132
 72
     1
 10
814.2636817937691
 20
783.2333964831132
 11
814.2636817937691
 21
818.6692843057699
 72
     1
 10
814.2636817937691
 20
818.6692843057699
 11
386.7692243249949
 21
818.6692843057699
 72
     1
 10
386.7692243249949
 20
818.6692843057699
 11
386.9669199664149
 21
818.6692843057699
 97
        0
 75
     2
 76
     1
 98
        0
  0
ENDBLK
  5
44
330
41
100
AcDbEntity
  8
0
100
AcDbBlockEnd
  0
BLOCK
  5
69
330
67
100
AcDbEntity
  8
0
100
AcDbBlockBegin
  2
block 3
 70
     0
 10
0.0
 20
0.0
 30
0.0
  3
block 3
  1

  0
POLYLINE
  5
6B
330
67
100
AcDbEntity
  8
Layer 2
 62
   250
420
  2301728
370
    25
100
AcDb2dPolyline
 66
     1
 10
0.0
 20
0.0
 30
0.0
  0
VERTEX
  5
6C
330
6B
100
AcDbEntity
  8
Layer 2
 62
   250
420
  2301728
370
    25
100
AcDbVertex
100
AcDb2dVertex
 10
558.620224205466
 20
664.6553519062272
 30
0.0
  0
VERTEX
  5
6D
330
6B
100
AcDbEntity
  8
Layer 2
 62
   250
420
  2301728
370
    25
100
AcDbVertex
100
AcDb2dVertex
 10
690.5993757013057
 20
532.6762003917793
 30
0.0
  0
VERTEX
  5
6E
330
6B
100
AcDbEntity
  8
Layer 2
 62
   250
420
  2301728
370
    25
100
AcDbVertex
100
AcDb2dVertex
 10
715.4488786507482
 20
557.5259151158061
 30
0.0
  0
VERTEX
  5
6F
330
6B
100
AcDbEntity
  8
Layer 2
 62
   250
420
  2301728
370
    25
100
AcDbVertex
100
AcDb2dVertex
 10
725.3846537340523
 20
555.013855513127
 30
0.0
  0
VERTEX
  5
70
330
6B
100
AcDbEntity
  8
Layer 2
 62
   250
420
  2301728
370
    25
100
AcDbVertex
100
AcDb2dVertex
 10
719.5471428959427
 20
574.2319688754578
 30
0.0
  0
VERTEX
  5
71
330
6B
100
AcDbEntity
  8
Layer 2
 62
   250
420
  2301728
370
    25
100
AcDbVertex
100
AcDb2dVertex
 10
729.359660801716
 20
571.4368158159468
 30
0.0
  0
VERTEX
  5
72
330
6B
100
AcDbEntity
  8
Layer 2
 62
   250
420
  2301728
370
    25
100
AcDbVertex
100
AcDb2dVertex
 10
754.4032379984565
 20
596.4806064379636
 30
0.0
  0
VERTEX
  5
73
330
6B
100
AcDbEntity
  8
Layer 2
 62
   250
420
  2301728
370
    25
100
AcDbVertex
100
AcDb2dVertex
 10
622.3767989778498
 20
728.411926678611
 30
0.0
  0
VERTEX
  5
74
330
6B
100
AcDbEntity
  8
Layer 2
 62
   250
420
  2301728
370
    25
100
AcDbVertex
100
AcDb2dVertex
 10
558.620224205466
 20
664.6553519062272
 30
0.0
  0
SEQEND
  5
76
330
6B
100
AcDbEntity
  8
Layer 2
 62
   250
420
  2301728
370
    25
  0
HATCH
  5
75
330
67
100
AcDbEntity
  8
Layer 2
 62
    43
420
 15510364
100
AcDbHatch
 10
0.0
 20
0.0
 30
0.0
210
0.0
220
0.0
230
1.0
  2
SOLID
 70
     1
 71
     0
 91
        1
 92
        1
 93
        8
 72
     1
 10
558.620224205466
 20
664.6553519062272
 11
690.5993757013057
 21
532.6762003917793
 72
     1
 10
690.5993757013057
 20
532.6762003917793
 11
715.4488786507482
 21
557.5259151158061
 72
     1
 10
715.4488786507482
 20
557.5259151158061
 11
725.3846537340523
 21
555.013855513127
 72
     1
 10
725.3846537340523
 20
555.013855513127
 11
719.5471428959427
 21
574.2319688754578
 72
     1
 10
719.5471428959427
 20
574.2319688754578
 11
729.359660801716
 21
571.4368158159468
 72
     1
 10
729.359660801716
 20
571.4368158159468
 11
754.4032379984565
 21
596.4806064379636
 72
     1
 10
754.4032379984565
 20
596.4806064379636
 11
622.3767989778498
 21
728.411926678611
 72
     1
 10
622.3767989778498
 20
728.411926678611
 11
558.620224205466
 21
664.6553519062272
 97
        0
 75
     2
 76
     1
 98
        0
  0
POLYLINE
  5
77
330
67
100
AcDbEntity
  8
Layer 2
 62
   250
420
  2301728
370
    25
100
AcDb2dPolyline
 66
     1
 10
0.0
 20
0.0
 30
0.0
  0
VERTEX
  5
78
330
77
100
AcDbEntity
  8
Layer 2
 62
   250
420
  2301728
370
    25
100
AcDbVertex
100
AcDb2dVertex
 10
685.0657208129451
 20
527.1424983472771
 30
0.0
  0
VERTEX
  5
79
330
77
100
AcDbEntity
  8
Layer 2
 62
   250
420
  2301728
370
    25
100
AcDbVertex
100
AcDb2dVertex
 10
690.5533859722545
 20
532.630210274041
 30
0.0
  0
SEQEND
  5
7A
330
77
100
AcDbEntity
  8
Layer 2
 62
   250
420
  2301728
370
    25
  0
POLYLINE
  5
7B
330
67
100
AcDbEntity
  8
Layer 2
 62
   250
420
  2301728
370
    25
100
AcDb2dPolyline
 66
     1
 10
0.0
 20
0.0
 30
0.0
  0
VERTEX
  5
7C
330
7B
100
AcDbEntity
  8
Layer 2
 62
   250
420
  2301728
370
    25
100
AcDbVertex
100
AcDb2dVertex
 10
754.3350937858013
 20
596.4124913564774
 30
0.0
  0
VERTEX
  5
7D
330
7B
100
AcDbEntity
  8
Layer 2
 62
   250
420
  2301728
370
    25
100
AcDbVertex
100
AcDb2dVertex
 10
759.8227589451071
 20
601.9002032832414
 30
0.0
  0
SEQEND
  5
7E
330
7B
100
AcDbEntity
  8
Layer 2
 62
   250
420
  2301728
370
    25
  0
POLYLINE
  5
7F
330
67
100
AcDbEntity
  8
Layer 2
  6
AI-Linetype-1
 62
   250
420
  2301728
370
    18
100
AcDb2dPolyline
 66
     1
 10
0.0
 20
0.0
 30
0.0
  0
VERTEX
  5
80
330
7F
100
AcDbEntity
  8
Layer 2
  6
AI-Linetype-1
 62
   250
420
  2301728
370
    18
100
AcDbVertex
100
AcDb2dVertex
 10
567.6198101391456
 20
655.7297166845674
 30
0.0
  0
VERTEX
  5
81
330
7F
100
AcDbEntity
  8
Layer 2
  6
AI-Linetype-1
 62
   250
420
  2301728
370
    18
100
AcDbVertex
100
AcDb2dVertex
 10
631.3423634499268
 20
719.4522699954905
 30
0.0
  0
VERTEX
  5
82
330
7F
100
AcDbEntity
  8
Layer 2
  6
AI-Linetype-1
 62
   250
420
  2301728
370
    18
100
AcDbVertex
100
AcDb2dVertex
 10
671.2614070682503
 20
679.5332402039785
 30
0.0
  0
VERTEX
  5
83
330
7F
100
AcDbEntity
  8
Layer 2
  6
AI-Linetype-1
 62
   250
420
  2301728
370
    18
100
AcDbVertex
100
AcDb2dVertex
 10
607.4988468764714
 20
615.7706800120459
 30
0.0
  0
VERTEX
  5
84
330
7F
100
AcDbEntity
  8
Layer 2
  6
AI-Linetype-1
 62
   250
420
  2301728
370
    18
100
AcDbVertex
100
AcDb2dVertex
 10
567.6198101391456
 20
655.7297166845674
 30
0.0
  0
SEQEND
  5
87
330
7F
100
AcDbEntity
  8
Layer 2
  6
AI-Linetype-1
 62
   250
420
  2301728
370
    18
  0
HATCH
  5
86
330
67
100
AcDbEntity
  8
Layer 2
 62
     7
420
 15988216
100
AcDbHatch
 10
0.0
 20
0.0
 30
0.0
210
0.0
220
0.0
230
1.0
  2
SOLID
 70
     1
 71
     0
 91
        1
 92
        1
 93
        4
 72
     1
 10
567.6198101391456
 20
655.7297166845674
 11
631.3423634499268
 21
719.4522699954905
 72
     1
 10
631.3423634499268
 20
719.4522699954905
 11
671.2614070682503
 21
679.5332402039785
 72
     1
 10
671.2614070682503
 20
679.5332402039785
 11
607.4988468764714
 21
615.7706800120459
 72
     1
 10
607.4988468764714
 20
615.7706800120459
 11
567.6198101391456
 21
655.7297166845674
 97
        0
 75
     2
 76
     1
 98
        0
  0
POLYLINE
  5
88
330
67
100
AcDbEntity
  8
Layer 2
 62
   250
420
  2301728
370
    25
100
AcDb2dPolyline
 66
     1
 10
0.0
 20
0.0
 30
0.0
  0
VERTEX
  5
89
330
88
100
AcDbEntity
  8
Layer 2
 62
   250
420
  2301728
370
    25
100
AcDbVertex
100
AcDb2dVertex
 10
625.7807330245632
 20
725.0104450047384
 30
0.0
  0
VERTEX
  5
8A
330
88
100
AcDbEntity
  8
Layer 2
 62
   250
420
  2301728
370
    25
100
AcDbVertex
100
AcDb2dVertex
 10
689.9606909228114
 20
660.8767257185336
 30
0.0
  0
SEQEND
  5
8B
330
88
100
AcDbEntity
  8
Layer 2
 62
   250
420
  2301728
370
    25
  0
POLYLINE
  5
8C
330
67
100
AcDbEntity
  8
Layer 2
 62
   250
420
  2301728
370
    25
100
AcDb2dPolyline
 66
     1
 10
0.0
 20
0.0
 30
0.0
  0
VERTEX
  5
8D
330
8C
100
AcDbEntity
  8
Layer 2
 62
   250
420
  2301728
370
    25
100
AcDbVertex
100
AcDb2dVertex
 10
564.6524512736087
 20
658.6231248372324
 30
0.0
  0
VERTEX
  5
8E
330
8C
100
AcDbEntity
  8
Layer 2
 62
   250
420
  2301728
370
    25
100
AcDbVertex
100
AcDb2dVertex
 10
613.963975313909
 20
609.3116007899825
 30
0.0
  0
SEQEND
  5
8F
330
8C
100
AcDbEntity
  8
Layer 2
 62
   250
420
  2301728
370
    25
  0
ENDBLK
  5
6A
330
67
100
AcDbEntity
  8
0
100
AcDbBlockEnd
  0
BLOCK
  5
93
330
91
100
AcDbEntity
  8
0
100
AcDbBlockBegin
  2
block 4
 70
     0
 10
0.0
 20
0.0
 30
0.0
  3
block 4
  1

  0
SPLINE
  5
95
330
91
100
AcDbEntity
  8
LSSR
 62
   250
420
  2301728
370
     9
100
AcDbSpline
210
0.0
220
0.0
230
1.0
 70
    11
 71
     3
 72
    59
 73
    55
 74
     0
 42
0.0000000001
 43
0.0000000001
 12
1.0
 22
0.0
 32
0.0
 13
1.0
 23
0.0
 33
0.0
 40
0.0
 40
0.0
 40
0.0
 40
0.0
 40
1.0
 40
1.0
 40
1.0
 40
2.0
 40
2.0
 40
2.0
 40
3.0
 40
3.0
 40
3.0
 40
4.0
 40
4.0
 40
4.0
 40
5.0
 40
5.0
 40
5.0
 40
6.0
 40
6.0
 40
6.0
 40
7.0
 40
7.0
 40
7.0
 40
8.0
 40
8.0
 40
8.0
 40
9.0
 40
9.0
 40
9.0
 40
10.0
 40
10.0
 40
10.0
 40
11.0
 40
11.0
 40
11.0
 40
12.0
 40
12.0
 40
12.0
 40
13.0
 40
13.0
 40
13.0
 40
14.0
 40
14.0
 40
14.0
 40
15.0
 40
15.0
 40
15.0
 40
16.0
 40
16.0
 40
16.0
 40
17.0
 40
17.0
 40
17.0
 40
18.0
 40
18.0
 40
18.0
 40
18.0
 10
762.8452982208291
 20
725.0317273782985
 30
0.0
 10
762.8452982208291
 20
725.0317273782985
 30
0.0
 10
715.8515617180929
 20
725.013782279595
 30
0.0
 10
715.8515617180929
 20
725.013782279595
 30
0.0
 10
715.6614690761835
 20
725.0149304208171
 30
0.0
 10
715.4046764114173
 20
724.8763620458349
 30
0.0
 10
715.3128115313921
 20
724.7085127109749
 30
0.0
 10
715.0142506712909
 20
724.1630023726884
 30
0.0
 10
714.4423162360545
 20
723.4266420340191
 30
0.0
 10
713.8245151498704
 20
723.4303734929927
 30
0.0
 10
713.8245151498704
 20
723.4303734929927
 30
0.0
 10
648.0914317998886
 20
723.4303734876703
 30
0.0
 10
648.0914317998886
 20
723.4303734876703
 30
0.0
 10
647.4736307137155
 20
723.4341049466475
 30
0.0
 10
646.3147665055149
 20
724.2110367716923
 30
0.0
 10
646.0318675197977
 20
724.7600590713728
 30
0.0
 10
645.9448216780384
 20
724.9289890097334
 30
0.0
 10
645.7659814320577
 20
725.009296863519
 30
0.0
 10
645.5758887901557
 20
725.0104450047384
 30
0.0
 10
645.5758887901557
 20
725.0104450047384
 30
0.0
 10
635.6147946126639
 20
725.0184912910063
 30
0.0
 10
635.6147946126639
 20
725.0184912910063
 30
0.0
 10
633.6320846978106
 20
725.0184912910063
 30
0.0
 10
633.0804636914781
 20
724.767901130982
 30
0.0
 10
634.7193843187415
 20
723.0494497378495
 30
0.0
 10
634.7193843187415
 20
723.0494497378495
 30
0.0
 10
634.2800207009786
 20
723.3781634797697
 30
0.0
 10
634.2800207009786
 20
723.3781634797697
 30
0.0
 10
634.8741296763801
 20
723.5618426498977
 30
0.0
 10
636.6277857203095
 20
723.7149363418594
 30
0.0
 10
637.282389187978
 20
723.0603328741918
 30
0.0
 10
637.282389187978
 20
723.0603328741918
 30
0.0
 10
675.1000209911344
 20
685.2427010801539
 30
0.0
 10
675.1000209911344
 20
685.2427010801539
 30
0.0
 10
675.9874365502874
 20
684.355285521001
 30
0.0
 10
675.7209885796274
 20
682.8682729279317
 30
0.0
 10
675.3825479366806
 20
682.2756362537639
 30
0.0
 10
675.3825479366806
 20
682.2756362537639
 30
0.0
 10
678.6740825130291
 20
678.9841016781393
 30
0.0
 10
678.6740825130291
 20
678.9841016781393
 30
0.0
 10
678.6740825130291
 20
678.9841016781393
 30
0.0
 10
676.799319074802
 20
677.1199757479535
 30
0.0
 10
676.799319074802
 20
677.1199757479535
 30
0.0
 10
676.799319074802
 20
677.1199757479535
 30
0.0
 10
630.426657097767
 20
723.3161983917344
 30
0.0
 10
630.426657097767
 20
723.3161983917344
 30
0.0
 10
629.1195710629981
 20
724.6939928889087
 30
0.0
 10
629.256068839868
 20
727.1946152284372
 30
0.0
 10
631.614567079836
 20
727.739520576376
 30
0.0
 10
631.614567079836
 20
727.739520576376
 30
0.0
 10
762.8452982208291
 20
727.7419532701515
 30
0.0
 10
762.8452982208291
 20
727.7419532701515
 30
0.0
 10
762.8452982208291
 20
727.7419532701515
 30
0.0
 10
762.8452982208291
 20
725.0317273782985
 30
0.0
 10
762.8452982208291
 20
725.0317273782985
 30
0.0
  0
HATCH
  5
96
330
91
100
AcDbEntity
  8
LSSR
 62
   254
420
 13358815
100
AcDbHatch
 10
0.0
 20
0.0
 30
0.0
210
0.0
220
0.0
230
1.0
  2
SOLID
 70
     1
 71
     0
 91
        1
 92
        1
 93
        1
 72
     4
 94
        3
 73
     0
 74
     1
 95
       59
 96
       55
 40
0.0
 40
0.0
 40
0.0
 40
0.0
 40
1.0
 40
1.0
 40
1.0
 40
2.0
 40
2.0
 40
2.0
 40
3.0
 40
3.0
 40
3.0
 40
4.0
 40
4.0
 40
4.0
 40
5.0
 40
5.0
 40
5.0
 40
6.0
 40
6.0
 40
6.0
 40
7.0
 40
7.0
 40
7.0
 40
8.0
 40
8.0
 40
8.0
 40
9.0
 40
9.0
 40
9.0
 40
10.0
 40
10.0
 40
10.0
 40
11.0
 40
11.0
 40
11.0
 40
12.0
 40
12.0
 40
12.0
 40
13.0
 40
13.0
 40
13.0
 40
14.0
 40
14.0
 40
14.0
 40
15.0
 40
15.0
 40
15.0
 40
16.0
 40
16.0
 40
16.0
 40
17.0
 40
17.0
 40
17.0
 40
18.0
 40
18.0
 40
18.0
 40
18.0
 10
762.8452982208291
 20
725.0317273782985
 10
762.8452982208291
 20
725.0317273782985
 10
715.8515617180929
 20
725.013782279595
 10
715.8515617180929
 20
725.013782279595
 10
715.6614690761835
 20
725.0149304208171
 10
715.4046764114173
 20
724.8763620458349
 10
715.3128115313921
 20
724.7085127109749
 10
715.0142506712909
 20
724.1630023726884
 10
714.4423162360545
 20
723.4266420340191
 10
713.8245151498704
 20
723.4303734929927
 10
713.8245151498704
 20
723.4303734929927
 10
648.0914317998886
 20
723.4303734876703
 10
648.0914317998886
 20
723.4303734876703
 10
647.4736307137155
 20
723.4341049466475
 10
646.3147665055149
 20
724.2110367716923
 10
646.0318675197977
 20
724.7600590713728
 10
645.9448216780384
 20
724.9289890097334
 10
645.7659814320577
 20
725.009296863519
 10
645.5758887901557
 20
725.0104450047384
 10
645.5758887901557
 20
725.0104450047384
 10
635.6147946126639
 20
725.0184912910063
 10
635.6147946126639
 20
725.0184912910063
 10
633.6320846978106
 20
725.0184912910063
 10
633.0804636914781
 20
724.767901130982
 10
634.7193843187415
 20
723.0494497378495
 10
634.7193843187415
 20
723.0494497378495
 10
634.2800207009786
 20
723.3781634797697
 10
634.2800207009786
 20
723.3781634797697
 10
634.8741296763801
 20
723.5618426498977
 10
636.6277857203095
 20
723.7149363418594
 10
637.282389187978
 20
723.0603328741918
 10
637.282389187978
 20
723.0603328741918
 10
675.1000209911344
 20
685.2427010801539
 10
675.1000209911344
 20
685.2427010801539
 10
675.9874365502874
 20
684.355285521001
 10
675.7209885796274
 20
682.8682729279317
 10
675.3825479366806
 20
682.2756362537639
 10
675.3825479366806
 20
682.2756362537639
 10
678.6740825130291
 20
678.9841016781393
 10
678.6740825130291
 20
678.9841016781393
 10
678.6740825130291
 20
678.9841016781393
 10
676.799319074802
 20
677.1199757479535
 10
676.799319074802
 20
677.1199757479535
 10
676.799319074802
 20
677.1199757479535
 10
630.426657097767
 20
723.3161983917344
 10
630.426657097767
 20
723.3161983917344
 10
629.1195710629981
 20
724.6939928889087
 10
629.256068839868
 20
727.1946152284372
 10
631.614567079836
 20
727.739520576376
 10
631.614567079836
 20
727.739520576376
 10
762.8452982208291
 20
727.7419532701515
 10
762.8452982208291
 20
727.7419532701515
 10
762.8452982208291
 20
727.7419532701515
 10
762.8452982208291
 20
725.0317273782985
 10
762.8452982208291
 20
725.0317273782985
 97
        0
 97
        0
 75
     2
 76
     1
 98
        0
  0
INSERT
  5
98
330
91
100
AcDbEntity
  8
LSSR
100
AcDbBlockReference
  2
block 5
 10
0.0
 20
0.0
 30
0.0
  0
POLYLINE
  5
9E
330
91
100
AcDbEntity
  8
LSSR
 62
   250
420
  2301728
370
     9
100
AcDb2dPolyline
 66
     1
 10
0.0
 20
0.0
 30
0.0
  0
VERTEX
  5
9F
330
9E
100
AcDbEntity
  8
LSSR
 62
   250
420
  2301728
370
     9
100
AcDbVertex
100
AcDb2dVertex
 10
634.1167530225048
 20
723.2793274460255
 30
0.0
  0
VERTEX
  5
122
330
9E
100
AcDbEntity
  8
0
100
AcDbVertex
100
AcDb2dVertex
 10
634.1167530225048
 20
723.2793274460255
 30
0.0
  0
SEQEND
  5
A0
330
9E
100
AcDbEntity
  8
LSSR
 62
   250
420
  2301728
370
     9
  0
INSERT
  5
A2
330
91
100
AcDbEntity
  8
LSSR
100
AcDbBlockReference
  2
block 6
 10
0.0
 20
0.0
 30
0.0
  0
POLYLINE
  5
BB
330
91
100
AcDbEntity
  8
LSSR
 62
   250
420
  2301728
370
     9
100
AcDb2dPolyline
 66
     1
 10
0.0
 20
0.0
 30
0.0
  0
VERTEX
  5
BC
330
BB
100
AcDbEntity
  8
LSSR
 62
   250
420
  2301728
370
     9
100
AcDbVertex
100
AcDb2dVertex
 10
634.2800207009786
 20
723.3781634797697
 30
0.0
  0
VERTEX
  5
BD
330
BB
100
AcDbEntity
  8
LSSR
 62
   250
420
  2301728
370
     9
100
AcDbVertex
100
AcDb2dVertex
 10
675.3825479366806
 20
682.2756362537639
 30
0.0
  0
SEQEND
  5
BE
330
BB
100
AcDbEntity
  8
LSSR
 62
   250
420
  2301728
370
     9
  0
POLYLINE
  5
BF
330
91
100
AcDbEntity
  8
LSSR
 62
   250
420
  2301728
370
     9
100
AcDb2dPolyline
 66
     1
 10
0.0
 20
0.0
 30
0.0
  0
VERTEX
  5
C0
330
BF
100
AcDbEntity
  8
LSSR
 62
   250
420
  2301728
370
     9
100
AcDbVertex
100
AcDb2dVertex
 10
632.8591000626202
 20
720.9690066084304
 30
0.0
  0
VERTEX
  5
C1
330
BF
100
AcDbEntity
  8
LSSR
 62
   250
420
  2301728
370
     9
100
AcDbVertex
100
AcDb2dVertex
 10
631.7882093613825
 20
719.8981159074356
 30
0.0
  0
VERTEX
  5
C2
330
BF
100
AcDbEntity
  8
LSSR
 62
   250
420
  2301728
370
     9
100
AcDbVertex
100
AcDb2dVertex
 10
671.7072391511338
 20
679.9790722875932
 30
0.0
  0
VERTEX
  5
C3
330
BF
100
AcDbEntity
  8
LSSR
 62
   250
420
  2301728
370
     9
100
AcDbVertex
100
AcDb2dVertex
 10
672.8181367333837
 20
681.0899698695957
 30
0.0
  0
VERTEX
  5
C4
330
BF
100
AcDbEntity
  8
LSSR
 62
   250
420
  2301728
370
     9
100
AcDbVertex
100
AcDb2dVertex
 10
632.8591000626202
 20
720.9690066084304
 30
0.0
  0
SEQEND
  5
C6
330
BF
100
AcDbEntity
  8
LSSR
 62
   250
420
  2301728
370
     9
  0
HATCH
  5
C5
330
91
100
AcDbEntity
  8
LSSR
 62
   254
420
 13358815
100
AcDbHatch
 10
0.0
 20
0.0
 30
0.0
210
0.0
220
0.0
230
1.0
  2
SOLID
 70
     1
 71
     0
 91
        1
 92
        1
 93
        4
 72
     1
 10
632.8591000626202
 20
720.9690066084304
 11
631.7882093613825
 21
719.8981159074356
 72
     1
 10
631.7882093613825
 20
719.8981159074356
 11
671.7072391511338
 21
679.9790722875932
 72
     1
 10
671.7072391511338
 20
679.9790722875932
 11
672.8181367333837
 21
681.0899698695957
 72
     1
 10
672.8181367333837
 20
681.0899698695957
 11
632.8591000626202
 21
720.9690066084304
 97
        0
 75
     2
 76
     1
 98
        0
  0
POLYLINE
  5
C7
330
91
100
AcDbEntity
  8
LSSR
 62
   250
420
  2301728
370
     9
100
AcDb2dPolyline
 66
     1
 10
0.0
 20
0.0
 30
0.0
  0
VERTEX
  5
C8
330
C7
100
AcDbEntity
  8
LSSR
 62
   250
420
  2301728
370
     9
100
AcDbVertex
100
AcDb2dVertex
 10
631.614567079836
 20
727.8326262922874
 30
0.0
  0
VERTEX
  5
C9
330
C7
100
AcDbEntity
  8
LSSR
 62
   250
420
  2301728
370
     9
100
AcDbVertex
100
AcDb2dVertex
 10
762.8452982208291
 20
727.8350589860629
 30
0.0
  0
SEQEND
  5
CA
330
C7
100
AcDbEntity
  8
LSSR
 62
   250
420
  2301728
370
     9
  0
POLYLINE
  5
CB
330
91
100
AcDbEntity
  8
LSSR
 62
   250
420
  2301728
370
     9
100
AcDb2dPolyline
 66
     1
 10
0.0
 20
0.0
 30
0.0
  0
VERTEX
  5
CC
330
CB
100
AcDbEntity
  8
LSSR
 62
   250
420
  2301728
370
     9
100
AcDbVertex
100
AcDb2dVertex
 10
715.8325073406813
 20
725.0137822795932
 30
0.0
  0
VERTEX
  5
CD
330
CB
100
AcDbEntity
  8
LSSR
 62
   250
420
  2301728
370
     9
100
AcDbVertex
100
AcDb2dVertex
 10
645.5758887901557
 20
725.0104450047384
 30
0.0
  0
SEQEND
  5
CE
330
CB
100
AcDbEntity
  8
LSSR
 62
   250
420
  2301728
370
     9
  0
ENDBLK
  5
94
330
91
100
AcDbEntity
  8
0
100
AcDbBlockEnd
  0
BLOCK
  5
99
330
97
100
AcDbEntity
  8
0
100
AcDbBlockBegin
  2
block 5
 70
     0
 10
0.0
 20
0.0
 30
0.0
  3
block 5
  1

  0
POLYLINE
  5
9B
330
97
100
AcDbEntity
  8
LSSR
 62
   250
420
  2301728
370
     9
100
AcDb2dPolyline
 66
     1
 10
0.0
 20
0.0
 30
0.0
  0
VERTEX
  5
9C
330
9B
100
AcDbEntity
  8
LSSR
 62
   250
420
  2301728
370
     9
100
AcDbVertex
100
AcDb2dVertex
 10
630.7254509533159
 20
723.0494497378495
 30
0.0
  0
VERTEX
  5
123
330
9B
100
AcDbEntity
  8
0
100
AcDbVertex
100
AcDb2dVertex
 10
630.7254509533159
 20
723.0494497378495
 30
0.0
  0
SEQEND
  5
9D
330
9B
100
AcDbEntity
  8
LSSR
 62
   250
420
  2301728
370
     9
  0
ENDBLK
  5
9A
330
97
100
AcDbEntity
  8
0
100
AcDbBlockEnd
  0
BLOCK
  5
A3
330
A1
100
AcDbEntity
  8
0
100
AcDbBlockBegin
  2
block 6
 70
     0
 10
0.0
 20
0.0
 30
0.0
  3
block 6
  1

  0
INSERT
  5
A6
330
A1
100
AcDbEntity
  8
LSSR
100
AcDbBlockReference
  2
block 7
 10
0.0
 20
0.0
 30
0.0
  0
INSERT
  5
B4
330
A1
100
AcDbEntity
  8
LSSR
100
AcDbBlockReference
  2
block 8
 10
0.0
 20
0.0
 30
0.0
  0
ENDBLK
  5
A4
330
A1
100
AcDbEntity
  8
0
100
AcDbBlockEnd
  0
BLOCK
  5
A7
330
A5
100
AcDbEntity
  8
0
100
AcDbBlockBegin
  2
block 7
 70
     0
 10
0.0
 20
0.0
 30
0.0
  3
block 7
  1

  0
POLYLINE
  5
A9
330
A5
100
AcDbEntity
  8
LSSR
 62
   250
420
  2301728
370
    13
100
AcDb2dPolyline
 66
     1
 10
0.0
 20
0.0
 30
0.0
  0
VERTEX
  5
AA
330
A9
100
AcDbEntity
  8
LSSR
 62
   250
420
  2301728
370
    13
100
AcDbVertex
100
AcDb2dVertex
 10
668.200149131746
 20
692.326746836361
 30
0.0
  0
VERTEX
  5
AB
330
A9
100
AcDbEntity
  8
LSSR
 62
   250
420
  2301728
370
    13
100
AcDbVertex
100
AcDb2dVertex
 10
669.9260569280959
 20
692.2458359689572
 30
0.0
  0
VERTEX
  5
AC
330
A9
100
AcDbEntity
  8
LSSR
 62
   250
420
  2301728
370
    13
100
AcDbVertex
100
AcDb2dVertex
 10
670.2356473227119
 20
693.3678221930004
 30
0.0
  0
VERTEX
  5
AD
330
A9
100
AcDbEntity
  8
LSSR
 62
   250
420
  2301728
370
    13
100
AcDbVertex
100
AcDb2dVertex
 10
646.2236504445318
 20
717.3975648673695
 30
0.0
  0
VERTEX
  5
AE
330
A9
100
AcDbEntity
  8
LSSR
 62
   250
420
  2301728
370
    13
100
AcDbVertex
100
AcDb2dVertex
 10
645.0995418383063
 20
717.0906988154566
 30
0.0
  0
VERTEX
  5
AF
330
A9
100
AcDbEntity
  8
LSSR
 62
   250
420
  2301728
370
    13
100
AcDbVertex
100
AcDb2dVertex
 10
645.2403238323204
 20
715.372428106707
 30
0.0
  0
VERTEX
  5
B0
330
A9
100
AcDbEntity
  8
LSSR
 62
   250
420
  2301728
370
    13
100
AcDbVertex
100
AcDb2dVertex
 10
668.200149131746
 20
692.326746836361
 30
0.0
  0
SEQEND
  5
B2
330
A9
100
AcDbEntity
  8
LSSR
 62
   250
420
  2301728
370
    13
  0
HATCH
  5
B1
330
A5
100
AcDbEntity
  8
LSSR
 62
   254
420
 13358815
100
AcDbHatch
 10
0.0
 20
0.0
 30
0.0
210
0.0
220
0.0
230
1.0
  2
SOLID
 70
     1
 71
     0
 91
        1
 92
        1
 93
        6
 72
     1
 10
668.200149131746
 20
692.326746836361
 11
669.9260569280959
 21
692.2458359689572
 72
     1
 10
669.9260569280959
 20
692.2458359689572
 11
670.2356473227119
 21
693.3678221930004
 72
     1
 10
670.2356473227119
 20
693.3678221930004
 11
646.2236504445318
 21
717.3975648673695
 72
     1
 10
646.2236504445318
 20
717.3975648673695
 11
645.0995418383063
 21
717.0906988154566
 72
     1
 10
645.0995418383063
 20
717.0906988154566
 11
645.2403238323204
 21
715.372428106707
 72
     1
 10
645.2403238323204
 20
715.372428106707
 11
668.200149131746
 21
692.326746836361
 97
        0
 75
     2
 76
     1
 98
        0
  0
ENDBLK
  5
A8
330
A5
100
AcDbEntity
  8
0
100
AcDbBlockEnd
  0
BLOCK
  5
B5
330
B3
100
AcDbEntity
  8
0
100
AcDbBlockBegin
  2
block 8
 70
     0
 10
0.0
 20
0.0
 30
0.0
  3
block 8
  1

  0
POLYLINE
  5
B7
330
B3
100
AcDbEntity
  8
LSSR
 62
   250
420
  2301728
370
     5
100
AcDb2dPolyline
 66
     1
 10
0.0
 20
0.0
 30
0.0
  0
VERTEX
  5
B8
330
B7
100
AcDbEntity
  8
LSSR
 62
   250
420
  2301728
370
     5
100
AcDbVertex
100
AcDb2dVertex
 10
645.9163886623428
 20
716.2738519914201
 30
0.0
  0
VERTEX
  5
B9
330
B7
100
AcDbEntity
  8
LSSR
 62
   250
420
  2301728
370
     5
100
AcDbVertex
100
AcDb2dVertex
 10
668.9879931456635
 20
693.1838997513896
 30
0.0
  0
SEQEND
  5
BA
330
B7
100
AcDbEntity
  8
LSSR
 62
   250
420
  2301728
370
     5
  0
ENDBLK
  5
B6
330
B3
100
AcDbEntity
  8
0
100
AcDbBlockEnd
  0
BLOCK
  5
D1
330
CF
100
AcDbEntity
  8
0
100
AcDbBlockBegin
  2
block 9
 70
     0
 10
0.0
 20
0.0
 30
0.0
  3
block 9
  1

  0
INSERT
  5
D4
330
CF
100
AcDbEntity
  8
LSSR
100
AcDbBlockReference
  2
block 10
 10
0.0
 20
0.0
 30
0.0
  0
INSERT
  5
E1
330
CF
100
AcDbEntity
  8
LSSR
100
AcDbBlockReference
  2
block 11
 10
0.0
 20
0.0
 30
0.0
  0
POLYLINE
  5
FA
330
CF
100
AcDbEntity
  8
LSSR
 62
   250
420
  2301728
370
     9
100
AcDb2dPolyline
 66
     1
 10
0.0
 20
0.0
 30
0.0
  0
VERTEX
  5
FB
330
FA
100
AcDbEntity
  8
LSSR
 62
   250
420
  2301728
370
     9
100
AcDbVertex
100
AcDb2dVertex
 10
568.1447969564015
 20
647.8972863508634
 30
0.0
  0
VERTEX
  5
FC
330
FA
100
AcDbEntity
  8
LSSR
 62
   250
420
  2301728
370
     9
100
AcDbVertex
100
AcDb2dVertex
 10
605.5112466944774
 20
610.5308365997371
 30
0.0
  0
SEQEND
  5
FD
330
FA
100
AcDbEntity
  8
LSSR
 62
   250
420
  2301728
370
     9
  0
POLYLINE
  5
FE
330
CF
100
AcDbEntity
  8
LSSR
 62
   250
420
  2301728
370
     9
100
AcDb2dPolyline
 66
     1
 10
0.0
 20
0.0
 30
0.0
  0
VERTEX
  5
FF
330
FE
100
AcDbEntity
  8
LSSR
 62
   250
420
  2301728
370
     9
100
AcDbVertex
100
AcDb2dVertex
 10
565.8050987506303
 20
653.9501613324874
 30
0.0
  0
VERTEX
  5
100
330
FE
100
AcDbEntity
  8
LSSR
 62
   250
420
  2301728
370
     9
100
AcDbVertex
100
AcDb2dVertex
 10
567.076185855025
 20
655.2212484370493
 30
0.0
  0
VERTEX
  5
101
330
FE
100
AcDbEntity
  8
LSSR
 62
   250
420
  2301728
370
     9
100
AcDbVertex
100
AcDb2dVertex
 10
606.9648402485018
 20
615.3326078703822
 30
0.0
  0
VERTEX
  5
102
330
FE
100
AcDbEntity
  8
LSSR
 62
   250
420
  2301728
370
     9
100
AcDbVertex
100
AcDb2dVertex
 10
605.6925715428679
 20
614.0603391646137
 30
0.0
  0
VERTEX
  5
103
330
FE
100
AcDbEntity
  8
LSSR
 62
   250
420
  2301728
370
     9
100
AcDbVertex
100
AcDb2dVertex
 10
565.8050987506303
 20
653.9501613324874
 30
0.0
  0
SEQEND
  5
105
330
FE
100
AcDbEntity
  8
LSSR
 62
   250
420
  2301728
370
     9
  0
HATCH
  5
104
330
CF
100
AcDbEntity
  8
LSSR
 62
   254
420
 13358815
100
AcDbHatch
 10
0.0
 20
0.0
 30
0.0
210
0.0
220
0.0
230
1.0
  2
SOLID
 70
     1
 71
     0
 91
        1
 92
        1
 93
        4
 72
     1
 10
565.8050987506303
 20
653.9501613324874
 11
567.076185855025
 21
655.2212484370493
 72
     1
 10
567.076185855025
 20
655.2212484370493
 11
606.9648402485018
 21
615.3326078703822
 72
     1
 10
606.9648402485018
 20
615.3326078703822
 11
605.6925715428679
 21
614.0603391646137
 72
     1
 10
605.6925715428679
 20
614.0603391646137
 11
565.8050987506303
 21
653.9501613324874
 97
        0
 75
     2
 76
     1
 98
        0
  0
ENDBLK
  5
D2
330
CF
100
AcDbEntity
  8
0
100
AcDbBlockEnd
  0
BLOCK
  5
D5
330
D3
100
AcDbEntity
  8
0
100
AcDbBlockBegin
  2
block 10
 70
     0
 10
0.0
 20
0.0
 30
0.0
  3
block 10
  1

  0
SPLINE
  5
D7
330
D3
100
AcDbEntity
  8
LSSR
 62
   250
420
  2301728
370
    13
100
AcDbSpline
210
0.0
220
0.0
230
1.0
 70
    11
 71
     3
 72
    59
 73
    55
 74
     0
 42
0.0000000001
 43
0.0000000001
 12
1.0
 22
0.0
 32
0.0
 13
1.0
 23
0.0
 33
0.0
 40
0.0
 40
0.0
 40
0.0
 40
0.0
 40
1.0
 40
1.0
 40
1.0
 40
2.0
 40
2.0
 40
2.0
 40
3.0
 40
3.0
 40
3.0
 40
4.0
 40
4.0
 40
4.0
 40
5.0
 40
5.0
 40
5.0
 40
6.0
 40
6.0
 40
6.0
 40
7.0
 40
7.0
 40
7.0
 40
8.0
 40
8.0
 40
8.0
 40
9.0
 40
9.0
 40
9.0
 40
10.0
 40
10.0
 40
10.0
 40
11.0
 40
11.0
 40
11.0
 40
12.0
 40
12.0
 40
12.0
 40
13.0
 40
13.0
 40
13.0
 40
14.0
 40
14.0
 40
14.0
 40
15.0
 40
15.0
 40
15.0
 40
16.0
 40
16.0
 40
16.0
 40
17.0
 40
17.0
 40
17.0
 40
18.0
 40
18.0
 40
18.0
 40
18.0
 10
568.1447969564015
 20
647.8972863508634
 30
0.0
 10
567.961117786248
 20
647.3031773754665
 30
0.0
 10
567.6701133989627
 20
645.4646993587776
 30
0.0
 10
568.2436329901539
 20
644.8292368446737
 30
0.0
 10
568.2436329901539
 20
644.8292368446737
 30
0.0
 10
602.2966734109414
 20
610.7761964119909
 30
0.0
 10
602.2966734109414
 20
610.7761964119909
 30
0.0
 10
603.0182093685307
 20
610.1363225671685
 30
0.0
 10
604.9186100202951
 20
610.1923959568194
 30
0.0
 10
605.5112466944774
 20
610.5308365997371
 30
0.0
 10
605.5112466944774
 20
610.5308365997371
 30
0.0
 10
607.8660320641411
 20
608.1760512292476
 30
0.0
 10
607.8660320641411
 20
608.1760512292476
 30
0.0
 10
607.8660320641411
 20
608.1760512292476
 30
0.0
 10
609.7213249748529
 20
610.0313441399594
 30
0.0
 10
609.7213249748529
 20
610.0313441399594
 30
0.0
 10
609.7213249748529
 20
610.0313441399594
 30
0.0
 10
492.7203244955908
 20
727.0393414878399
 30
0.0
 10
492.7203244955908
 20
727.0393414878399
 30
0.0
 10
492.023682376308
 20
727.6541358566228
 30
0.0
 10
491.2601097042989
 20
727.9933797142512
 30
0.0
 10
490.3501126934789
 20
727.9933797142512
 30
0.0
 10
490.3501126934789
 20
727.9933797142512
 30
0.0
 10
458.9819945153504
 20
727.993348484817
 30
0.0
 10
458.9819945153504
 20
727.993348484817
 30
0.0
 10
458.9819945153504
 20
727.993348484817
 30
0.0
 10
458.9819945153504
 20
725.2831333987551
 30
0.0
 10
458.9819945153504
 20
725.2831333987551
 30
0.0
 10
458.9819945153504
 20
725.2831333987551
 30
0.0
 10
490.3501284241302
 20
725.2831333987551
 30
0.0
 10
490.3501284241302
 20
725.2831333987551
 30
0.0
 10
490.8527544539866
 20
725.2831333987551
 30
0.0
 10
491.3873093610982
 20
724.9190000332646
 30
0.0
 10
491.7481647479053
 20
724.5690625004963
 30
0.0
 10
491.7481647479053
 20
724.5690625004963
 30
0.0
 10
499.7758195089536
 20
716.2662637244657
 30
0.0
 10
499.775827028574
 20
716.26625629513
 30
0.0
 10
499.9110546831507
 20
716.1326523574198
 30
0.0
 10
499.9946518801498
 20
715.8530898851968
 30
0.0
 10
499.9409227568667
 20
715.6694442026819
 30
0.0
 10
499.7663031061984
 20
715.0725957345021
 30
0.0
 10
499.6379200764641
 20
713.4509259433808
 30
0.0
 10
500.237538471345
 20
712.8353313797907
 30
0.0
 10
500.237538471345
 20
712.8353313797907
 30
0.0
 10
545.4484545306659
 20
667.6244153107627
 30
0.0
 10
545.4484545306659
 20
667.6244153107627
 30
0.0
 10
546.4797753069997
 20
666.7849681516027
 30
0.0
 10
548.3043127306846
 20
666.6025170057601
 30
0.0
 10
548.8925699130141
 20
666.7906946056664
 30
0.0
 10
549.0735721229539
 20
666.8485954056387
 30
0.0
 10
549.2568175016313
 20
666.778922482943
 30
0.0
 10
549.3920451562099
 20
666.6453185452374
 30
0.0
 10
549.3920451562099
 20
666.6453185452374
 30
0.0
 10
568.1447969564015
 20
647.8972863508634
 30
0.0
 10
568.1447969564015
 20
647.8972863508634
 30
0.0
  0
HATCH
  5
D8
330
D3
100
AcDbEntity
  8
LSSR
 62
   254
420
 13358815
100
AcDbHatch
 10
0.0
 20
0.0
 30
0.0
210
0.0
220
0.0
230
1.0
  2
SOLID
 70
     1
 71
     0
 91
        1
 92
        1
 93
        1
 72
     4
 94
        3
 73
     0
 74
     1
 95
       59
 96
       55
 40
0.0
 40
0.0
 40
0.0
 40
0.0
 40
1.0
 40
1.0
 40
1.0
 40
2.0
 40
2.0
 40
2.0
 40
3.0
 40
3.0
 40
3.0
 40
4.0
 40
4.0
 40
4.0
 40
5.0
 40
5.0
 40
5.0
 40
6.0
 40
6.0
 40
6.0
 40
7.0
 40
7.0
 40
7.0
 40
8.0
 40
8.0
 40
8.0
 40
9.0
 40
9.0
 40
9.0
 40
10.0
 40
10.0
 40
10.0
 40
11.0
 40
11.0
 40
11.0
 40
12.0
 40
12.0
 40
12.0
 40
13.0
 40
13.0
 40
13.0
 40
14.0
 40
14.0
 40
14.0
 40
15.0
 40
15.0
 40
15.0
 40
16.0
 40
16.0
 40
16.0
 40
17.0
 40
17.0
 40
17.0
 40
18.0
 40
18.0
 40
18.0
 40
18.0
 10
568.1447969564015
 20
647.8972863508634
 10
567.961117786248
 20
647.3031773754665
 10
567.6701133989627
 20
645.4646993587776
 10
568.2436329901539
 20
644.8292368446737
 10
568.2436329901539
 20
644.8292368446737
 10
602.2966734109414
 20
610.7761964119909
 10
602.2966734109414
 20
610.7761964119909
 10
603.0182093685307
 20
610.1363225671685
 10
604.9186100202951
 20
610.1923959568194
 10
605.5112466944774
 20
610.5308365997371
 10
605.5112466944774
 20
610.5308365997371
 10
607.8660320641411
 20
608.1760512292476
 10
607.8660320641411
 20
608.1760512292476
 10
607.8660320641411
 20
608.1760512292476
 10
609.7213249748529
 20
610.0313441399594
 10
609.7213249748529
 20
610.0313441399594
 10
609.7213249748529
 20
610.0313441399594
 10
492.7203244955908
 20
727.0393414878399
 10
492.7203244955908
 20
727.0393414878399
 10
492.023682376308
 20
727.6541358566228
 10
491.2601097042989
 20
727.9933797142512
 10
490.3501126934789
 20
727.9933797142512
 10
490.3501126934789
 20
727.9933797142512
 10
458.9819945153504
 20
727.993348484817
 10
458.9819945153504
 20
727.993348484817
 10
458.9819945153504
 20
727.993348484817
 10
458.9819945153504
 20
725.2831333987551
 10
458.9819945153504
 20
725.2831333987551
 10
458.9819945153504
 20
725.2831333987551
 10
490.3501284241302
 20
725.2831333987551
 10
490.3501284241302
 20
725.2831333987551
 10
490.8527544539866
 20
725.2831333987551
 10
491.3873093610982
 20
724.9190000332646
 10
491.7481647479053
 20
724.5690625004963
 10
491.7481647479053
 20
724.5690625004963
 10
499.7758195089536
 20
716.2662637244657
 10
499.775827028574
 20
716.26625629513
 10
499.9110546831507
 20
716.1326523574198
 10
499.9946518801498
 20
715.8530898851968
 10
499.9409227568667
 20
715.6694442026819
 10
499.7663031061984
 20
715.0725957345021
 10
499.6379200764641
 20
713.4509259433808
 10
500.237538471345
 20
712.8353313797907
 10
500.237538471345
 20
712.8353313797907
 10
545.4484545306659
 20
667.6244153107627
 10
545.4484545306659
 20
667.6244153107627
 10
546.4797753069997
 20
666.7849681516027
 10
548.3043127306846
 20
666.6025170057601
 10
548.8925699130141
 20
666.7906946056664
 10
549.0735721229539
 20
666.8485954056387
 10
549.2568175016313
 20
666.778922482943
 10
549.3920451562099
 20
666.6453185452374
 10
549.3920451562099
 20
666.6453185452374
 10
568.1447969564015
 20
647.8972863508634
 10
568.1447969564015
 20
647.8972863508634
 97
        0
 97
        0
 75
     2
 76
     1
 98
        0
  0
POLYLINE
  5
D9
330
D3
100
AcDbEntity
  8
LSSR
 62
   250
420
  2301728
370
     9
100
AcDb2dPolyline
 66
     1
 10
0.0
 20
0.0
 30
0.0
  0
VERTEX
  5
DA
330
D9
100
AcDbEntity
  8
LSSR
 62
   250
420
  2301728
370
     9
100
AcDbVertex
100
AcDb2dVertex
 10
499.7893005080496
 20
716.2527828156508
 30
0.0
  0
VERTEX
  5
DB
330
D9
100
AcDbEntity
  8
LSSR
 62
   250
420
  2301728
370
     9
100
AcDbVertex
100
AcDb2dVertex
 10
549.3920451562099
 20
666.6453185452374
 30
0.0
  0
SEQEND
  5
DC
330
D9
100
AcDbEntity
  8
LSSR
 62
   250
420
  2301728
370
     9
  0
POLYLINE
  5
DD
330
D3
100
AcDbEntity
  8
LSSR
 62
   250
420
  2301728
370
     9
100
AcDb2dPolyline
 66
     1
 10
0.0
 20
0.0
 30
0.0
  0
VERTEX
  5
DE
330
DD
100
AcDbEntity
  8
LSSR
 62
   250
420
  2301728
370
     9
100
AcDbVertex
100
AcDb2dVertex
 10
568.2436329901539
 20
648.0605540293327
 30
0.0
  0
VERTEX
  5
124
330
DD
100
AcDbEntity
  8
0
100
AcDbVertex
100
AcDb2dVertex
 10
568.2436329901539
 20
648.0605540293327
 30
0.0
  0
SEQEND
  5
DF
330
DD
100
AcDbEntity
  8
LSSR
 62
   250
420
  2301728
370
     9
  0
ENDBLK
  5
D6
330
D3
100
AcDbEntity
  8
0
100
AcDbBlockEnd
  0
BLOCK
  5
E2
330
E0
100
AcDbEntity
  8
0
100
AcDbBlockBegin
  2
block 11
 70
     0
 10
0.0
 20
0.0
 30
0.0
  3
block 11
  1

  0
INSERT
  5
E5
330
E0
100
AcDbEntity
  8
LSSR
100
AcDbBlockReference
  2
block 12
 10
0.0
 20
0.0
 30
0.0
  0
INSERT
  5
F3
330
E0
100
AcDbEntity
  8
LSSR
100
AcDbBlockReference
  2
block 13
 10
0.0
 20
0.0
 30
0.0
  0
ENDBLK
  5
E3
330
E0
100
AcDbEntity
  8
0
100
AcDbBlockEnd
  0
BLOCK
  5
E6
330
E4
100
AcDbEntity
  8
0
100
AcDbBlockBegin
  2
block 12
 70
     0
 10
0.0
 20
0.0
 30
0.0
  3
block 12
  1

  0
POLYLINE
  5
E8
330
E4
100
AcDbEntity
  8
LSSR
 62
   250
420
  2301728
370
     9
100
AcDb2dPolyline
 66
     1
 10
0.0
 20
0.0
 30
0.0
  0
VERTEX
  5
E9
330
E8
100
AcDbEntity
  8
LSSR
 62
   250
420
  2301728
370
     9
100
AcDbVertex
100
AcDb2dVertex
 10
596.6200803874945
 20
616.3472933024477
 30
0.0
  0
VERTEX
  5
EA
330
E8
100
AcDbEntity
  8
LSSR
 62
   250
420
  2301728
370
     9
100
AcDbVertex
100
AcDb2dVertex
 10
596.7009912548201
 20
614.6213855060951
 30
0.0
  0
VERTEX
  5
EB
330
E8
100
AcDbEntity
  8
LSSR
 62
   250
420
  2301728
370
     9
100
AcDbVertex
100
AcDb2dVertex
 10
595.579005030766
 20
614.3117951115291
 30
0.0
  0
VERTEX
  5
EC
330
E8
100
AcDbEntity
  8
LSSR
 62
   250
420
  2301728
370
     9
100
AcDbVertex
100
AcDb2dVertex
 10
571.5492623574737
 20
638.3237919907851
 30
0.0
  0
VERTEX
  5
ED
330
E8
100
AcDbEntity
  8
LSSR
 62
   250
420
  2301728
370
     9
100
AcDbVertex
100
AcDb2dVertex
 10
571.8561284094376
 20
639.4479005969961
 30
0.0
  0
VERTEX
  5
EE
330
E8
100
AcDbEntity
  8
LSSR
 62
   250
420
  2301728
370
     9
100
AcDbVertex
100
AcDb2dVertex
 10
573.5743991181771
 20
639.3071186029038
 30
0.0
  0
VERTEX
  5
EF
330
E8
100
AcDbEntity
  8
LSSR
 62
   250
420
  2301728
370
     9
100
AcDbVertex
100
AcDb2dVertex
 10
596.6200803874945
 20
616.3472933024477
 30
0.0
  0
SEQEND
  5
F1
330
E8
100
AcDbEntity
  8
LSSR
 62
   250
420
  2301728
370
     9
  0
HATCH
  5
F0
330
E4
100
AcDbEntity
  8
LSSR
 62
   254
420
 13358815
100
AcDbHatch
 10
0.0
 20
0.0
 30
0.0
210
0.0
220
0.0
230
1.0
  2
SOLID
 70
     1
 71
     0
 91
        1
 92
        1
 93
        6
 72
     1
 10
596.6200803874945
 20
616.3472933024477
 11
596.7009912548201
 21
614.6213855060951
 72
     1
 10
596.7009912548201
 20
614.6213855060951
 11
595.579005030766
 21
614.3117951115291
 72
     1
 10
595.579005030766
 20
614.3117951115291
 11
571.5492623574737
 21
638.3237919907851
 72
     1
 10
571.5492623574737
 20
638.3237919907851
 11
571.8561284094376
 21
639.4479005969961
 72
     1
 10
571.8561284094376
 20
639.4479005969961
 11
573.5743991181771
 21
639.3071186029038
 72
     1
 10
573.5743991181771
 20
639.3071186029038
 11
596.6200803874945
 21
616.3472933024477
 97
        0
 75
     2
 76
     1
 98
        0
  0
ENDBLK
  5
E7
330
E4
100
AcDbEntity
  8
0
100
AcDbBlockEnd
  0
BLOCK
  5
F4
330
F2
100
AcDbEntity
  8
0
100
AcDbBlockBegin
  2
block 13
 70
     0
 10
0.0
 20
0.0
 30
0.0
  3
block 13
  1

  0
POLYLINE
  5
F6
330
F2
100
AcDbEntity
  8
LSSR
 62
   250
420
  2301728
370
     5
100
AcDb2dPolyline
 66
     1
 10
0.0
 20
0.0
 30
0.0
  0
VERTEX
  5
F7
330
F6
100
AcDbEntity
  8
LSSR
 62
   250
420
  2301728
370
     5
100
AcDbVertex
100
AcDb2dVertex
 10
572.8310966069257
 20
638.472932399508
 30
0.0
  0
VERTEX
  5
F8
330
F6
100
AcDbEntity
  8
LSSR
 62
   250
420
  2301728
370
     5
100
AcDbVertex
100
AcDb2dVertex
 10
595.137586500372
 20
616.1847902605423
 30
0.0
  0
SEQEND
  5
F9
330
F6
100
AcDbEntity
  8
LSSR
 62
   250
420
  2301728
370
     5
  0
ENDBLK
  5
F5
330
F2
100
AcDbEntity
  8
0
100
AcDbBlockEnd
  0
ENDSEC
  0
SECTION
  2
ENTITIES
  0
INSERT
  5
42
330
1F
100
AcDbEntity
  8
Layer 2
100
AcDbBlockReference
  2
block 2
 10
0.0
 20
0.0
 30
0.0
  0
POLYLINE
  5
57
330
1F
100
AcDbEntity
  8
Layer 2
 62
   250
420
  2301728
370
    25
100
AcDb2dPolyline
 66
     1
 10
0.0
 20
0.0
 30
0.0
  0
VERTEX
  5
58
330
57
100
AcDbEntity
  8
Layer 2
 62
   250
420
  2301728
370
    25
100
AcDbVertex
100
AcDb2dVertex
 10
814.2636817937691
 20
728.411926678611
 30
0.0
  0
VERTEX
  5
59
330
57
100
AcDbEntity
  8
Layer 2
 62
   250
420
  2301728
370
    25
100
AcDbVertex
100
AcDb2dVertex
 10
814.2636817937691
 20
717.8684450269375
 30
0.0
  0
SEQEND
  5
5A
330
57
100
AcDbEntity
  8
Layer 2
 62
   250
420
  2301728
370
    25
  0
POLYLINE
  5
5B
330
1F
100
AcDbEntity
  8
Layer 2
 62
   250
420
  2301728
370
    25
100
AcDb2dPolyline
 66
     1
 10
0.0
 20
0.0
 30
0.0
  0
VERTEX
  5
5C
330
5B
100
AcDbEntity
  8
Layer 2
 62
   250
420
  2301728
370
    25
100
AcDbVertex
100
AcDb2dVertex
 10
814.2636817937691
 20
829.2127659574453
 30
0.0
  0
VERTEX
  5
5D
330
5B
100
AcDbEntity
  8
Layer 2
 62
   250
420
  2301728
370
    25
100
AcDbVertex
100
AcDb2dVertex
 10
814.2636817937691
 20
818.6692843057699
 30
0.0
  0
SEQEND
  5
5E
330
5B
100
AcDbEntity
  8
Layer 2
 62
   250
420
  2301728
370
    25
  0
POLYLINE
  5
5F
330
1F
100
AcDbEntity
  8
Layer 2
 62
   250
420
  2301728
370
    25
100
AcDb2dPolyline
 66
     1
 10
0.0
 20
0.0
 30
0.0
  0
VERTEX
  5
60
330
5F
100
AcDbEntity
  8
Layer 2
 62
   250
420
  2301728
370
    25
100
AcDbVertex
100
AcDb2dVertex
 10
386.9669199664149
 20
728.411926678611
 30
0.0
  0
VERTEX
  5
61
330
5F
100
AcDbEntity
  8
Layer 2
 62
   250
420
  2301728
370
    25
100
AcDbVertex
100
AcDb2dVertex
 10
386.9669199664149
 20
717.8684450269375
 30
0.0
  0
SEQEND
  5
62
330
5F
100
AcDbEntity
  8
Layer 2
 62
   250
420
  2301728
370
    25
  0
POLYLINE
  5
63
330
1F
100
AcDbEntity
  8
Layer 2
 62
   250
420
  2301728
370
    25
100
AcDb2dPolyline
 66
     1
 10
0.0
 20
0.0
 30
0.0
  0
VERTEX
  5
64
330
63
100
AcDbEntity
  8
Layer 2
 62
   250
420
  2301728
370
    25
100
AcDbVertex
100
AcDb2dVertex
 10
386.9669199664149
 20
829.2127659574453
 30
0.0
  0
VERTEX
  5
65
330
63
100
AcDbEntity
  8
Layer 2
 62
   250
420
  2301728
370
    25
100
AcDbVertex
100
AcDb2dVertex
 10
386.9669199664149
 20
818.6692843057699
 30
0.0
  0
SEQEND
  5
66
330
63
100
AcDbEntity
  8
Layer 2
 62
   250
420
  2301728
370
    25
  0
INSERT
  5
68
330
1F
100
AcDbEntity
  8
Layer 2
100
AcDbBlockReference
  2
block 3
 10
0.0
 20
0.0
 30
0.0
  0
INSERT
  5
92
330
1F
100
AcDbEntity
  8
LSSR
100
AcDbBlockReference
  2
block 4
 10
0.0
 20
0.0
 30
0.0
  0
INSERT
  5
D0
330
1F
100
AcDbEntity
  8
LSSR
100
AcDbBlockReference
  2
block 9
 10
0.0
 20
0.0
 30
0.0
  0
POLYLINE
  5
106
330
1F
100
AcDbEntity
  8
LSSR
 62
   250
420
  2301728
370
    25
100
AcDb2dPolyline
 66
     1
 10
0.0
 20
0.0
 30
0.0
  0
VERTEX
  5
107
330
106
100
AcDbEntity
  8
LSSR
 62
   250
420
  2301728
370
    25
100
AcDbVertex
100
AcDb2dVertex
 10
561.5961056112865
 20
661.6794704818058
 30
0.0
  0
VERTEX
  5
108
330
106
100
AcDbEntity
  8
LSSR
 62
   250
420
  2301728
370
    25
100
AcDbVertex
100
AcDb2dVertex
 10
613.7857341712079
 20
609.4898419218844
 30
0.0
  0
SEQEND
  5
109
330
106
100
AcDbEntity
  8
LSSR
 62
   250
420
  2301728
370
    25
  0
POLYLINE
  5
10A
330
1F
100
AcDbEntity
  8
LSSR
 62
   250
420
  2301728
370
    25
100
AcDb2dPolyline
 66
     1
 10
0.0
 20
0.0
 30
0.0
  0
VERTEX
  5
10B
330
10A
100
AcDbEntity
  8
LSSR
 62
   250
420
  2301728
370
    25
100
AcDbVertex
100
AcDb2dVertex
 10
627.5153088127518
 20
723.2793274460255
 30
0.0
  0
VERTEX
  5
10C
330
10A
100
AcDbEntity
  8
LSSR
 62
   250
420
  2301728
370
    25
100
AcDbVertex
100
AcDb2dVertex
 10
682.0223157236505
 20
668.7723205351249
 30
0.0
  0
SEQEND
  5
10D
330
10A
100
AcDbEntity
  8
LSSR
 62
   250
420
  2301728
370
    25
  0
MTEXT
  5
10F
330
1F
100
AcDbEntity
  8
Callouts
 62
   250
420
  2301728
100
AcDbMText
 10
567.3280944824219
 20
476.1052360534668
 30
0.0
 40
8.495999999999999
 41
0.0
 46
0.0
 71
     7
 72
     1
  1
\fHelvetica Neue LT Std 55 Roman|b0|i0|c0|p34;\W1;SIMPSON Strong-Tie\H4.95317;®\H8.496; ^C
 73
     1
 44
1.0
  0
MTEXT
  5
110
330
1F
100
AcDbEntity
  8
Callouts
 62
   250
420
  2301728
100
AcDbMText
 10
519.8954772949219
 20
461.7048454284668
 30
0.0
 40
8.495999999999999
 41
0.0
 46
0.0
 71
     7
 72
     1
  1
\fHelvetica Neue LT Std 55 Roman|b0|i0|c0|p34;\W1;LSSR Installation (plumb cut) - Top View
 73
     1
 44
1.0
  0
MTEXT
  5
111
330
1F
100
AcDbEntity
  8
Callouts
 62
   250
420
  2236191
100
AcDbMText
 10
481.403076171875
 20
635.5846633911133
 30
0.0
 40
8.495999999999999
 41
0.0
 46
0.0
 71
     7
 72
     1
  1
\fHelvetica Neue LT Std 57 Condensed|b0|i0|c0|p34;\W1;LSSR
 73
     1
 44
1.0
  0
POLYLINE
  5
112
330
1F
100
AcDbEntity
  8
Callouts
 62
   250
420
  2236191
370
    18
100
AcDb2dPolyline
 66
     1
 10
0.0
 20
0.0
 30
0.0
  0
VERTEX
  5
113
330
112
100
AcDbEntity
  8
Callouts
 62
   250
420
  2236191
370
    18
100
AcDbVertex
100
AcDb2dVertex
 10
773.0
 20
704.7288758714049
 30
0.0
  0
VERTEX
  5
114
330
112
100
AcDbEntity
  8
Callouts
 62
   250
420
  2236191
370
    18
100
AcDbVertex
100
AcDb2dVertex
 10
778.9076845367763
 20
727.0351537020142
 30
0.0
  0
SEQEND
  5
115
330
112
100
AcDbEntity
  8
Callouts
 62
   250
420
  2236191
370
    18
  0
POLYLINE
  5
116
330
1F
100
AcDbEntity
  8
Callouts
 62
   250
420
  2236191
370
    18
100
AcDb2dPolyline
 66
     1
 10
0.0
 20
0.0
 30
0.0
  0
VERTEX
  5
117
330
116
100
AcDbEntity
  8
Callouts
 62
   250
420
  2236191
370
    18
100
AcDbVertex
100
AcDb2dVertex
 10
499.7893005080496
 20
650.7572981522462
 30
0.0
  0
VERTEX
  5
118
330
116
100
AcDbEntity
  8
Callouts
 62
   250
420
  2236191
370
    18
100
AcDbVertex
100
AcDb2dVertex
 10
529.6995149231334
 20
682.5333389382276
 30
0.0
  0
SEQEND
  5
119
330
116
100
AcDbEntity
  8
Callouts
 62
   250
420
  2236191
370
    18
  0
MTEXT
  5
11A
330
1F
100
AcDbEntity
  8
Callouts
 62
   250
420
  2301728
100
AcDbMText
 10
744.3943481445312
 20
656.9230041503906
 30
0.0
 40
8.495999999999999
 41
0.0
 46
0.0
 71
     7
 72
     1
  1
\fHelvetica Neue LT Std 57 Condensed|b0|i0|c0|p34;\W1;Rafter
 73
     1
 44
1.0
  0
MTEXT
  5
11B
330
1F
100
AcDbEntity
  8
Callouts
 62
   250
420
  2301728
100
AcDbMText
 10
761.3822631835938
 20
689.8662452697754
 30
0.0
 40
8.495999999999999
 41
0.0
 46
0.0
 71
     7
 72
     1
  1
\fHelvetica Neue LT Std 57 Condensed|b0|i0|c0|p34;\W1;Ridge Board
 73
     1
 44
1.0
  0
MTEXT
  5
11C
330
1F
100
AcDbEntity
  8
Callouts
 62
   250
420
  2301728
100
AcDbMText
 10
402.2779979705811
 20
579.6234512329102
 30
0.0
 40
8.495999999999999
 41
0.0
 46
0.0
 71
     7
 72
     1
  1
\fHelvetica Neue LT Std 57 Condensed|b0|i0|c0|p34;\W1;* Hanger installed on rafter ^I^I
 73
     1
 44
1.0
  0
MTEXT
  5
11D
330
1F
100
AcDbEntity
  8
Callouts
 62
   250
420
  2301728
100
AcDbMText
 10
402.2779979705811
 20
565.6234512329102
 30
0.0
 40
8.495999999999999
 41
0.0
 46
0.0
 71
     7
 72
     1
  1
\fHelvetica Neue LT Std 57 Condensed|b0|i0|c0|p34;\W1;^Ibefore attached to ridge board
 73
     1
 44
1.0
  0
POLYLINE
  5
11E
330
1F
100
AcDbEntity
  8
Callouts
 62
   250
420
  2236191
370
    18
100
AcDb2dPolyline
 66
     1
 10
0.0
 20
0.0
 30
0.0
  0
VERTEX
  5
11F
330
11E
100
AcDbEntity
  8
Callouts
 62
   250
420
  2236191
370
    18
100
AcDbVertex
100
AcDb2dVertex
 10
736.9148936170204
 20
658.6595744680853
 30
0.0
  0
VERTEX
  5
120
330
11E
100
AcDbEntity
  8
Callouts
 62
   250
420
  2236191
370
    18
100
AcDbVertex
100
AcDb2dVertex
 10
709.2474528897455
 20
641.6038589477539
 30
0.0
  0
SEQEND
  5
121
330
11E
100
AcDbEntity
  8
Callouts
 62
   250
420
  2236191
370
    18
  0
ENDSEC
  0
SECTION
  2
OBJECTS
  0
DICTIONARY
  5
C
330
0
100
AcDbDictionary
281
     1
  3
ACAD_GROUP
350
D
  3
ACAD_LAYOUT
350
1A
  3
ACAD_MATERIAL
350
3B
  3
ACAD_MLEADERSTYLE
350
126
  3
ACAD_MLINESTYLE
350
17
  3
ACAD_PLOTSETTINGS
350
19
  3
ACAD_PLOTSTYLENAME
350
E
  3
ACAD_TABLESTYLE
350
125
  3
ACAD_VISUALSTYLE
350
2A
  0
SUN
  5
3F
330
29
100
AcDbSun
 90
        1
290
     0
 63
     7
421
 16777215
 40
1.0
291
     1
 91
  2455826
 92
 54000000
292
     0
 70
     2
 71
   256
280
     1
  0
DICTIONARY
  5
D
102
{ACAD_REACTORS
330
C
102
}
330
C
100
AcDbDictionary
281
     1
  0
DICTIONARY
  5
1A
102
{ACAD_REACTORS
330
C
102
}
330
C
100
AcDbDictionary
281
     1
  3
Layout1
350
1E
  3
Layout2
350
26
  3
Model
350
22
  0
DICTIONARY
  5
3B
102
{ACAD_REACTORS
330
C
102
}
330
C
100
AcDbDictionary
281
     1
  3
ByBlock
350
3D
  3
ByLayer
350
3C
  3
Global
350
3E
  0
DICTIONARY
  5
126
102
{ACAD_REACTORS
330
C
102
}
330
C
100
AcDbDictionary
281
     1
  0
DICTIONARY
  5
17
102
{ACAD_REACTORS
330
C
102
}
330
C
100
AcDbDictionary
281
     1
  3
Standard
350
18
  0
DICTIONARY
  5
19
102
{ACAD_REACTORS
330
C
102
}
330
C
100
AcDbDictionary
281
     1
  0
ACDBDICTIONARYWDFLT
  5
E
102
{ACAD_REACTORS
330
C
102
}
330
C
100
AcDbDictionary
281
     1
  3
Normal
350
F
100
AcDbDictionaryWithDefault
340
F
  0
DICTIONARY
  5
125
102
{ACAD_REACTORS
330
C
102
}
330
C
100
AcDbDictionary
281
     1
  0
DICTIONARY
  5
2A
102
{ACAD_REACTORS
330
C
102
}
330
C
100
AcDbDictionary
281
     1
  3
2dWireframe
350
2F
  3
3D Hidden
350
31
  3
3dWireframe
350
30
  3
Basic
350
32
  3
Brighten
350
36
  3
ColorChange
350
3A
  3
Conceptual
350
34
  3
Dim
350
35
  3
Facepattern
350
39
  3
Flat
350
2B
  3
FlatWithEdges
350
2C
  3
Gouraud
350
2D
  3
GouraudWithEdges
350
2E
  3
Linepattern
350
38
  3
Realistic
350
33
  3
Thicken
350
37
  0
LAYOUT
  5
1E
102
{ACAD_REACTORS
330
1A
102
}
330
1A
100
AcDbPlotSettings
  1

  2
none_device
  4

  6

 40
0.0
 41
0.0
 42
0.0
 43
0.0
 44
0.0
 45
0.0
 46
0.0
 47
0.0
 48
0.0
 49
0.0
140
0.0
141
0.0
142
1.0
143
1.0
 70
   688
 72
     0
 73
     0
 74
     5
  7

 75
    16
 76
     0
 77
     2
 78
   300
147
1.0
148
0.0
149
0.0
100
AcDbLayout
  1
Layout1
 70
     1
 71
     1
 10
0.0
 20
0.0
 11
12.0
 21
9.0
 12
0.0
 22
0.0
 32
0.0
 14
1.000000000000000E+20
 24
1.000000000000000E+20
 34
1.000000000000000E+20
 15
-1.000000000000000E+20
 25
-1.000000000000000E+20
 35
-1.000000000000000E+20
146
0.0
 13
0.0
 23
0.0
 33
0.0
 16
1.0
 26
0.0
 36
0.0
 17
0.0
 27
1.0
 37
0.0
 76
     0
330
1B
  0
LAYOUT
  5
26
102
{ACAD_REACTORS
330
1A
102
}
330
1A
100
AcDbPlotSettings
  1

  2
none_device
  4

  6

 40
0.0
 41
0.0
 42
0.0
 43
0.0
 44
0.0
 45
0.0
 46
0.0
 47
0.0
 48
0.0
 49
0.0
140
0.0
141
0.0
142
1.0
143
1.0
 70
   688
 72
     0
 73
     0
 74
     5
  7

 75
    16
 76
     0
 77
     2
 78
   300
147
1.0
148
0.0
149
0.0
100
AcDbLayout
  1
Layout2
 70
     1
 71
     2
 10
0.0
 20
0.0
 11
0.0
 21
0.0
 12
0.0
 22
0.0
 32
0.0
 14
0.0
 24
0.0
 34
0.0
 15
0.0
 25
0.0
 35
0.0
146
0.0
 13
0.0
 23
0.0
 33
0.0
 16
1.0
 26
0.0
 36
0.0
 17
0.0
 27
1.0
 37
0.0
 76
     0
330
23
  0
LAYOUT
  5
22
102
{ACAD_REACTORS
330
1A
102
}
330
1A
100
AcDbPlotSettings
  1

  2
none_device
  4

  6

 40
0.0
 41
0.0
 42
0.0
 43
0.0
 44
0.0
 45
0.0
 46
0.0
 47
0.0
 48
0.0
 49
0.0
140
0.0
141
0.0
142
1.0
143
1.0
 70
  1712
 72
     0
 73
     0
 74
     0
  7

 75
     0
 76
     0
 77
     2
 78
   300
147
1.0
148
0.0
149
0.0
100
AcDbLayout
  1
Model
 70
     1
 71
     0
 10
0.0
 20
0.0
 11
12.0
 21
9.0
 12
0.0
 22
0.0
 32
0.0
 14
1.000000000000000E+20
 24
1.000000000000000E+20
 34
1.000000000000000E+20
 15
-1.000000000000000E+20
 25
-1.000000000000000E+20
 35
-1.000000000000000E+20
146
0.0
 13
0.0
 23
0.0
 33
0.0
 16
1.0
 26
0.0
 36
0.0
 17
0.0
 27
1.0
 37
0.0
 76
     0
330
1F
331
29
  0
MATERIAL
  5
3D
102
{ACAD_REACTORS
330
3B
102
}
330
3B
100
AcDbMaterial
  1
ByBlock
 72
     1
 94
      127
  0
MATERIAL
  5
3C
102
{ACAD_REACTORS
330
3B
102
}
330
3B
100
AcDbMaterial
  1
ByLayer
 72
     1
 94
      127
  0
MATERIAL
  5
3E
102
{ACAD_REACTORS
330
3B
102
}
330
3B
100
AcDbMaterial
  1
Global
 72
     1
 94
      127
  0
MLINESTYLE
  5
18
102
{ACAD_REACTORS
330
17
102
}
330
17
100
AcDbMlineStyle
  2
Standard
 70
     0
  3

 62
   256
 51
90.0
 52
90.0
 71
     2
 49
0.5
 62
   256
  6
BYLAYER
 49
-0.5
 62
   256
  6
BYLAYER
  0
ACDBPLACEHOLDER
  5
F
102
{ACAD_REACTORS
330
E
102
}
330
E
  0
VISUALSTYLE
  5
2F
102
{ACAD_REACTORS
330
2A
102
}
330
2A
100
AcDbVisualStyle
  2
2dWireframe
 70
     4
177
     2
291
     0
 71
     0
176
     1
 72
     2
176
     1
 73
     0
176
     1
 90
        0
176
     1
 40
-0.6
176
     1
 41
-30.0
176
     1
 62
     5
 63
     7
421
 16777215
176
     1
 74
     1
176
     1
 91
        4
176
     1
 64
     7
176
     1
 65
   257
176
     1
 75
     1
176
     1
175
     1
176
     1
 42
1.0
176
     1
 92
        0
176
     1
 66
   257
176
     1
 43
1.0
176
     1
 76
     1
176
     1
 77
     6
176
     1
 78
     2
176
     1
 67
     7
176
     1
 79
     5
176
     1
170
     0
176
     1
171
     0
176
     1
290
     0
176
     1
 93
        1
176
     1
 44
0.0
176
     1
173
     0
176
     1
  0
VISUALSTYLE
  5
31
102
{ACAD_REACTORS
330
2A
102
}
330
2A
100
AcDbVisualStyle
  2
3D Hidden
 70
     6
177
     2
291
     0
 71
     1
176
     1
 72
     2
176
     1
 73
     2
176
     1
 90
        0
176
     1
 40
-0.6
176
     1
 41
-30.0
176
     1
 62
     5
 63
     7
421
 16777215
176
     1
 74
     2
176
     1
 91
        2
176
     1
 64
     7
176
     1
 65
   257
176
     1
 75
     2
176
     1
175
     1
176
     1
 42
40.0
176
     1
 92
        0
176
     1
 66
   257
176
     1
 43
1.0
176
     1
 76
     1
176
     1
 77
     6
176
     1
 78
     2
176
     1
 67
     7
176
     1
 79
     3
176
     1
170
     0
176
     1
171
     0
176
     1
290
     0
176
     1
 93
        1
176
     1
 44
0.0
176
     1
173
     0
176
     1
  0
VISUALSTYLE
  5
30
102
{ACAD_REACTORS
330
2A
102
}
330
2A
100
AcDbVisualStyle
  2
3dWireframe
 70
     5
177
     2
291
     0
 71
     0
176
     1
 72
     2
176
     1
 73
     0
176
     1
 90
        0
176
     1
 40
-0.6
176
     1
 41
-30.0
176
     1
 62
     5
 63
     7
421
 16777215
176
     1
 74
     1
176
     1
 91
        4
176
     1
 64
     7
176
     1
 65
   257
176
     1
 75
     1
176
     1
175
     1
176
     1
 42
1.0
176
     1
 92
        0
176
     1
 66
   257
176
     1
 43
1.0
176
     1
 76
     1
176
     1
 77
     6
176
     1
 78
     2
176
     1
 67
     7
176
     1
 79
     5
176
     1
170
     0
176
     1
171
     0
176
     1
290
     0
176
     1
 93
        1
176
     1
 44
0.0
176
     1
173
     0
176
     1
  0
VISUALSTYLE
  5
32
102
{ACAD_REACTORS
330
2A
102
}
330
2A
100
AcDbVisualStyle
  2
Basic
 70
     7
177
     2
291
     1
 71
     1
176
     1
 72
     0
176
     1
 73
     1
176
     1
 90
        0
176
     1
 40
-0.6
176
     1
 41
-30.0
176
     1
 62
     5
 63
     7
421
 16777215
176
     1
 74
     0
176
     1
 91
        4
176
     1
 64
     7
176
     1
 65
   257
176
     1
 75
     1
176
     1
175
     1
176
     1
 42
1.0
176
     1
 92
        8
176
     1
 66
     7
176
     1
 43
1.0
176
     1
 76
     1
176
     1
 77
     6
176
     1
 78
     2
176
     1
 67
     7
176
     1
 79
     5
176
     1
170
     0
176
     1
171
     0
176
     1
290
     0
176
     1
 93
        1
176
     1
 44
0.0
176
     1
173
     0
176
     1
  0
VISUALSTYLE
  5
36
102
{ACAD_REACTORS
330
2A
102
}
330
2A
100
AcDbVisualStyle
  2
Brighten
 70
    12
177
     2
291
     1
 71
     2
176
     1
 72
     2
176
     1
 73
     0
176
     1
 90
        0
176
     1
 40
-0.6
176
     1
 41
-30.0
176
     1
 62
     5
 63
     7
421
 16777215
176
     1
 74
     1
176
     1
 91
        4
176
     1
 64
     7
176
     1
 65
   257
176
     1
 75
     1
176
     1
175
     1
176
     1
 42
1.0
176
     1
 92
        8
176
     1
 66
     7
176
     1
 43
1.0
176
     1
 76
     1
176
     1
 77
     6
176
     1
 78
     2
176
     1
 67
     7
176
     1
 79
     5
176
     1
170
     0
176
     1
171
     0
176
     1
290
     0
176
     1
 93
        1
176
     1
 44
50.0
176
     1
173
     0
176
     1
  0
VISUALSTYLE
  5
3A
102
{ACAD_REACTORS
330
2A
102
}
330
2A
100
AcDbVisualStyle
  2
ColorChange
 70
    16
177
     2
291
     1
 71
     2
176
     1
 72
     2
176
     1
 73
     3
176
     1
 90
        0
176
     1
 40
-0.6
176
     1
 41
-30.0
176
     1
 62
     5
 63
     8
421
  8421504
176
     1
 74
     1
176
     1
 91
        4
176
     1
 64
     7
176
     1
 65
   257
176
     1
 75
     1
176
     1
175
     1
176
     1
 42
1.0
176
     1
 92
        8
176
     1
 66
     8
424
  8421504
176
     1
 43
1.0
176
     1
 76
     1
176
     1
 77
     6
176
     1
 78
     2
176
     1
 67
     7
176
     1
 79
     5
176
     1
170
     0
176
     1
171
     0
176
     1
290
     0
176
     1
 93
        1
176
     1
 44
0.0
176
     1
173
     0
176
     1
  0
VISUALSTYLE
  5
34
102
{ACAD_REACTORS
330
2A
102
}
330
2A
100
AcDbVisualStyle
  2
Conceptual
 70
     9
177
     2
291
     0
 71
     3
176
     1
 72
     2
176
     1
 73
     0
176
     1
 90
        0
176
     1
 40
-0.6
176
     1
 41
-30.0
176
     1
 62
     5
 63
     7
421
 16777215
176
     1
 74
     2
176
     1
 91
        2
176
     1
 64
     7
176
     1
 65
   257
176
     1
 75
     1
176
     1
175
     1
176
     1
 42
40.0
176
     1
 92
        8
176
     1
 66
     7
176
     1
 43
1.0
176
     1
 76
     1
176
     1
 77
     6
176
     1
 78
     2
176
     1
 67
     7
176
     1
 79
     3
176
     1
170
     0
176
     1
171
     0
176
     1
290
     0
176
     1
 93
        1
176
     1
 44
0.0
176
     1
173
     0
176
     1
  0
VISUALSTYLE
  5
35
102
{ACAD_REACTORS
330
2A
102
}
330
2A
100
AcDbVisualStyle
  2
Dim
 70
    11
177
     2
291
     1
 71
     2
176
     1
 72
     2
176
     1
 73
     0
176
     1
 90
        0
176
     1
 40
-0.6
176
     1
 41
-30.0
176
     1
 62
     5
 63
     7
421
 16777215
176
     1
 74
     1
176
     1
 91
        4
176
     1
 64
     7
176
     1
 65
   257
176
     1
 75
     1
176
     1
175
     1
176
     1
 42
1.0
176
     1
 92
        8
176
     1
 66
     7
176
     1
 43
1.0
176
     1
 76
     1
176
     1
 77
     6
176
     1
 78
     2
176
     1
 67
     7
176
     1
 79
     5
176
     1
170
     0
176
     1
171
     0
176
     1
290
     0
176
     1
 93
        1
176
     1
 44
-50.0
176
     1
173
     0
176
     1
  0
VISUALSTYLE
  5
39
102
{ACAD_REACTORS
330
2A
102
}
330
2A
100
AcDbVisualStyle
  2
Facepattern
 70
    15
177
     2
291
     1
 71
     2
176
     1
 72
     2
176
     1
 73
     0
176
     1
 90
        0
176
     1
 40
-0.6
176
     1
 41
-30.0
176
     1
 62
     5
 63
     7
421
 16777215
176
     1
 74
     1
176
     1
 91
        4
176
     1
 64
     7
176
     1
 65
   257
176
     1
 75
     1
176
     1
175
     1
176
     1
 42
1.0
176
     1
 92
        8
176
     1
 66
     7
176
     1
 43
1.0
176
     1
 76
     1
176
     1
 77
     6
176
     1
 78
     2
176
     1
 67
     7
176
     1
 79
     5
176
     1
170
     0
176
     1
171
     0
176
     1
290
     0
176
     1
 93
        1
176
     1
 44
0.0
176
     1
173
     0
176
     1
  0
VISUALSTYLE
  5
2B
102
{ACAD_REACTORS
330
2A
102
}
330
2A
100
AcDbVisualStyle
  2
Flat
 70
     0
177
     2
291
     1
 71
     2
176
     1
 72
     1
176
     1
 73
     1
176
     1
 90
        2
176
     1
 40
-0.6
176
     1
 41
30.0
176
     1
 62
     5
 63
     7
421
 16777215
176
     1
 74
     0
176
     1
 91
        4
176
     1
 64
     7
176
     1
 65
   257
176
     1
 75
     1
176
     1
175
     1
176
     1
 42
1.0
176
     1
 92
        8
176
     1
 66
     7
176
     1
 43
1.0
176
     1
 76
     1
176
     1
 77
     6
176
     1
 78
     2
176
     1
 67
     7
176
     1
 79
     5
176
     1
170
     0
176
     1
171
     0
176
     1
290
     0
176
     1
 93
       13
176
     1
 44
0.0
176
     1
173
     0
176
     1
  0
VISUALSTYLE
  5
2C
102
{ACAD_REACTORS
330
2A
102
}
330
2A
100
AcDbVisualStyle
  2
FlatWithEdges
 70
     1
177
     2
291
     1
 71
     2
176
     1
 72
     1
176
     1
 73
     1
176
     1
 90
        2
176
     1
 40
-0.6
176
     1
 41
30.0
176
     1
 62
     5
 63
     7
421
 16777215
176
     1
 74
     1
176
     1
 91
        4
176
     1
 64
     7
176
     1
 65
   257
176
     1
 75
     1
176
     1
175
     1
176
     1
 42
1.0
176
     1
 92
        0
176
     1
 66
   257
176
     1
 43
1.0
176
     1
 76
     1
176
     1
 77
     6
176
     1
 78
     2
176
     1
 67
     7
176
     1
 79
     5
176
     1
170
     0
176
     1
171
     0
176
     1
290
     0
176
     1
 93
       13
176
     1
 44
0.0
176
     1
173
     0
176
     1
  0
VISUALSTYLE
  5
2D
102
{ACAD_REACTORS
330
2A
102
}
330
2A
100
AcDbVisualStyle
  2
Gouraud
 70
     2
177
     2
291
     1
 71
     2
176
     1
 72
     2
176
     1
 73
     1
176
     1
 90
        2
176
     1
 40
-0.6
176
     1
 41
30.0
176
     1
 62
     5
 63
     7
421
 16777215
176
     1
 74
     0
176
     1
 91
        4
176
     1
 64
     7
176
     1
 65
   257
176
     1
 75
     1
176
     1
175
     1
176
     1
 42
1.0
176
     1
 92
        0
176
     1
 66
     7
176
     1
 43
1.0
176
     1
 76
     1
176
     1
 77
     6
176
     1
 78
     2
176
     1
 67
     7
176
     1
 79
     5
176
     1
170
     0
176
     1
171
     0
176
     1
290
     0
176
     1
 93
       13
176
     1
 44
0.0
176
     1
173
     0
176
     1
  0
VISUALSTYLE
  5
2E
102
{ACAD_REACTORS
330
2A
102
}
330
2A
100
AcDbVisualStyle
  2
GouraudWithEdges
 70
     3
177
     2
291
     1
 71
     2
176
     1
 72
     2
176
     1
 73
     1
176
     1
 90
        2
176
     1
 40
-0.6
176
     1
 41
30.0
176
     1
 62
     5
 63
     7
421
 16777215
176
     1
 74
     1
176
     1
 91
        4
176
     1
 64
     7
176
     1
 65
   257
176
     1
 75
     1
176
     1
175
     1
176
     1
 42
1.0
176
     1
 92
        0
176
     1
 66
   257
176
     1
 43
1.0
176
     1
 76
     1
176
     1
 77
     6
176
     1
 78
     2
176
     1
 67
     7
176
     1
 79
     5
176
     1
170
     0
176
     1
171
     0
176
     1
290
     0
176
     1
 93
       13
176
     1
 44
0.0
176
     1
173
     0
176
     1
  0
VISUALSTYLE
  5
38
102
{ACAD_REACTORS
330
2A
102
}
330
2A
100
AcDbVisualStyle
  2
Linepattern
 70
    14
177
     2
291
     1
 71
     2
176
     1
 72
     2
176
     1
 73
     0
176
     1
 90
        0
176
     1
 40
-0.6
176
     1
 41
-30.0
176
     1
 62
     5
 63
     7
421
 16777215
176
     1
 74
     1
176
     1
 91
        4
176
     1
 64
     7
176
     1
 65
   257
176
     1
 75
     7
176
     1
175
     7
176
     1
 42
1.0
176
     1
 92
        8
176
     1
 66
     7
176
     1
 43
1.0
176
     1
 76
     1
176
     1
 77
     6
176
     1
 78
     2
176
     1
 67
     7
176
     1
 79
     5
176
     1
170
     0
176
     1
171
     0
176
     1
290
     0
176
     1
 93
        1
176
     1
 44
0.0
176
     1
173
     0
176
     1
  0
VISUALSTYLE
  5
33
102
{ACAD_REACTORS
330
2A
102
}
330
2A
100
AcDbVisualStyle
  2
Realistic
 70
     8
177
     2
291
     0
 71
     2
176
     1
 72
     2
176
     1
 73
     0
176
     1
 90
        0
176
     1
 40
-0.6
176
     1
 41
-30.0
176
     1
 62
     5
 63
     7
421
 16777215
176
     1
 74
     1
176
     1
 91
        0
176
     1
 64
     7
176
     1
 65
   257
176
     1
 75
     1
176
     1
175
     1
176
     1
 42
1.0
176
     1
 92
        8
176
     1
 66
     8
424
  7895160
176
     1
 43
1.0
176
     1
 76
     1
176
     1
 77
     6
176
     1
 78
     2
176
     1
 67
     7
176
     1
 79
     5
176
     1
170
     0
176
     1
171
     0
176
     1
290
     0
176
     1
 93
       13
176
     1
 44
0.0
176
     1
173
     0
176
     1
  0
VISUALSTYLE
  5
37
102
{ACAD_REACTORS
330
2A
102
}
330
2A
100
AcDbVisualStyle
  2
Thicken
 70
    13
177
     2
291
     1
 71
     2
176
     1
 72
     2
176
     1
 73
     0
176
     1
 90
        0
176
     1
 40
-0.6
176
     1
 41
-30.0
176
     1
 62
     5
 63
     7
421
 16777215
176
     1
 74
     1
176
     1
 91
        4
176
     1
 64
     7
176
     1
 65
   257
176
     1
 75
     1
176
     1
175
     1
176
     1
 42
1.0
176
     1
 92
       12
176
     1
 66
     7
176
     1
 43
1.0
176
     1
 76
     1
176
     1
 77
     6
176
     1
 78
     2
176
     1
 67
     7
176
     1
 79
     5
176
     1
170
     0
176
     1
171
     0
176
     1
290
     0
176
     1
 93
        1
176
     1
 44
0.0
176
     1
173
     0
176
     1
  0
ENDSEC
  0
EOF
