  0
SECTION
  2
HEADER
  9
$ACADVER
  1
AC1024
  9
$ACADMAINTVER
 70
     6
  9
$DWGCODEPAGE
  3
ANSI_1252
  9
$INSBASE
 10
0.0
 20
0.0
 30
0.0
  9
$EXTMIN
 10
1.000000000000000E+20
 20
1.000000000000000E+20
 30
1.000000000000000E+20
  9
$EXTMAX
 10
-1.000000000000000E+20
 20
-1.000000000000000E+20
 30
-1.000000000000000E+20
  9
$LIMMIN
 10
0.0
 20
0.0
  9
$LIMMAX
 10
12.0
 20
9.0
  9
$ORTHOMODE
 70
     0
  9
$REGENMODE
 70
     1
  9
$FILLMODE
 70
     1
  9
$QTEXTMODE
 70
     0
  9
$MIRRTEXT
 70
     1
  9
$LTSCALE
 40
1.0
  9
$ATTMODE
 70
     1
  9
$TEXTSIZE
 40
0.2
  9
$TRACEWID
 40
0.05
  9
$TEXTSTYLE
  7
Standard
  9
$CLAYER
  8
0
  9
$CELTYPE
  6
ByLayer
  9
$CECOLOR
 62
   256
  9
$CELTSCALE
 40
1.0
  9
$DISPSILH
 70
     0
  9
$DIMSCALE
 40
1.0
  9
$DIMASZ
 40
0.18
  9
$DIMEXO
 40
0.0625
  9
$DIMDLI
 40
0.38
  9
$DIMRND
 40
0.0
  9
$DIMDLE
 40
0.0
  9
$DIMEXE
 40
0.18
  9
$DIMTP
 40
0.0
  9
$DIMTM
 40
0.0
  9
$DIMTXT
 40
0.18
  9
$DIMCEN
 40
0.09
  9
$DIMTSZ
 40
0.0
  9
$DIMTOL
 70
     0
  9
$DIMLIM
 70
     0
  9
$DIMTIH
 70
     1
  9
$DIMTOH
 70
     1
  9
$DIMSE1
 70
     0
  9
$DIMSE2
 70
     0
  9
$DIMTAD
 70
     0
  9
$DIMZIN
 70
     0
  9
$DIMBLK
  1

  9
$DIMASO
 70
     1
  9
$DIMSHO
 70
     1
  9
$DIMPOST
  1

  9
$DIMAPOST
  1

  9
$DIMALT
 70
     0
  9
$DIMALTD
 70
     2
  9
$DIMALTF
 40
25.4
  9
$DIMLFAC
 40
1.0
  9
$DIMTOFL
 70
     0
  9
$DIMTVP
 40
0.0
  9
$DIMTIX
 70
     0
  9
$DIMSOXD
 70
     0
  9
$DIMSAH
 70
     0
  9
$DIMBLK1
  1

  9
$DIMBLK2
  1

  9
$DIMSTYLE
  2
Standard
  9
$DIMCLRD
 70
     0
  9
$DIMCLRE
 70
     0
  9
$DIMCLRT
 70
     0
  9
$DIMTFAC
 40
1.0
  9
$DIMGAP
 40
0.09
  9
$DIMJUST
 70
     0
  9
$DIMSD1
 70
     0
  9
$DIMSD2
 70
     0
  9
$DIMTOLJ
 70
     1
  9
$DIMTZIN
 70
     0
  9
$DIMALTZ
 70
     0
  9
$DIMALTTZ
 70
     0
  9
$DIMUPT
 70
     0
  9
$DIMDEC
 70
     4
  9
$DIMTDEC
 70
     4
  9
$DIMALTU
 70
     2
  9
$DIMALTTD
 70
     2
  9
$DIMTXSTY
  7
Standard
  9
$DIMAUNIT
 70
     0
  9
$DIMADEC
 70
     0
  9
$DIMALTRND
 40
0.0
  9
$DIMAZIN
 70
     0
  9
$DIMDSEP
 70
    46
  9
$DIMATFIT
 70
     3
  9
$DIMFRAC
 70
     0
  9
$DIMLDRBLK
  1

  9
$DIMLUNIT
 70
     2
  9
$DIMLWD
 70
    -2
  9
$DIMLWE
 70
    -2
  9
$DIMTMOVE
 70
     0
  9
$DIMFXL
 40
1.0
  9
$DIMFXLON
 70
     0
  9
$DIMJOGANG
 40
0.7853981633974483
  9
$DIMTFILL
 70
     0
  9
$DIMTFILLCLR
 70
     0
  9
$DIMARCSYM
 70
     0
  9
$DIMLTYPE
  6

  9
$DIMLTEX1
  6

  9
$DIMLTEX2
  6

  9
$DIMTXTDIRECTION
 70
     0
  9
$LUNITS
 70
     2
  9
$LUPREC
 70
     4
  9
$SKETCHINC
 40
0.1
  9
$FILLETRAD
 40
0.5
  9
$AUNITS
 70
     0
  9
$AUPREC
 70
     0
  9
$MENU
  1
.
  9
$ELEVATION
 40
0.0
  9
$PELEVATION
 40
0.0
  9
$THICKNESS
 40
0.0
  9
$LIMCHECK
 70
     0
  9
$CHAMFERA
 40
0.5
  9
$CHAMFERB
 40
0.5
  9
$CHAMFERC
 40
1.0
  9
$CHAMFERD
 40
0.0
  9
$SKPOLY
 70
     0
  9
$TDCREATE
 40
2459123.647476412
  9
$TDUCREATE
 40
2459123.105809745
  9
$TDUPDATE
 40
2459123.647476528
  9
$TDUUPDATE
 40
2459123.105809861
  9
$TDINDWG
 40
0.0000000116
  9
$TDUSRTIMER
 40
0.0000000116
  9
$USRTIMER
 70
     1
  9
$ANGBASE
 50
0.0
  9
$ANGDIR
 70
     0
  9
$PDMODE
 70
     0
  9
$PDSIZE
 40
0.0
  9
$PLINEWID
 40
0.0
  9
$SPLFRAME
 70
     0
  9
$SPLINETYPE
 70
     6
  9
$SPLINESEGS
 70
     8
  9
$HANDSEED
  5
DB
  9
$SURFTAB1
 70
     6
  9
$SURFTAB2
 70
     6
  9
$SURFTYPE
 70
     6
  9
$SURFU
 70
     6
  9
$SURFV
 70
     6
  9
$UCSBASE
  2

  9
$UCSNAME
  2

  9
$UCSORG
 10
0.0
 20
0.0
 30
0.0
  9
$UCSXDIR
 10
1.0
 20
0.0
 30
0.0
  9
$UCSYDIR
 10
0.0
 20
1.0
 30
0.0
  9
$UCSORTHOREF
  2

  9
$UCSORTHOVIEW
 70
     0
  9
$UCSORGTOP
 10
0.0
 20
0.0
 30
0.0
  9
$UCSORGBOTTOM
 10
0.0
 20
0.0
 30
0.0
  9
$UCSORGLEFT
 10
0.0
 20
0.0
 30
0.0
  9
$UCSORGRIGHT
 10
0.0
 20
0.0
 30
0.0
  9
$UCSORGFRONT
 10
0.0
 20
0.0
 30
0.0
  9
$UCSORGBACK
 10
0.0
 20
0.0
 30
0.0
  9
$PUCSBASE
  2

  9
$PUCSNAME
  2

  9
$PUCSORG
 10
0.0
 20
0.0
 30
0.0
  9
$PUCSXDIR
 10
1.0
 20
0.0
 30
0.0
  9
$PUCSYDIR
 10
0.0
 20
1.0
 30
0.0
  9
$PUCSORTHOREF
  2

  9
$PUCSORTHOVIEW
 70
     0
  9
$PUCSORGTOP
 10
0.0
 20
0.0
 30
0.0
  9
$PUCSORGBOTTOM
 10
0.0
 20
0.0
 30
0.0
  9
$PUCSORGLEFT
 10
0.0
 20
0.0
 30
0.0
  9
$PUCSORGRIGHT
 10
0.0
 20
0.0
 30
0.0
  9
$PUCSORGFRONT
 10
0.0
 20
0.0
 30
0.0
  9
$PUCSORGBACK
 10
0.0
 20
0.0
 30
0.0
  9
$USERI1
 70
     0
  9
$USERI2
 70
     0
  9
$USERI3
 70
     0
  9
$USERI4
 70
     0
  9
$USERI5
 70
     0
  9
$USERR1
 40
0.0
  9
$USERR2
 40
0.0
  9
$USERR3
 40
0.0
  9
$USERR4
 40
0.0
  9
$USERR5
 40
0.0
  9
$WORLDVIEW
 70
     1
  9
$SHADEDGE
 70
     3
  9
$SHADEDIF
 70
    70
  9
$TILEMODE
 70
     1
  9
$MAXACTVP
 70
    64
  9
$PINSBASE
 10
0.0
 20
0.0
 30
0.0
  9
$PLIMCHECK
 70
     0
  9
$PEXTMIN
 10
1.000000000000000E+20
 20
1.000000000000000E+20
 30
1.000000000000000E+20
  9
$PEXTMAX
 10
-1.000000000000000E+20
 20
-1.000000000000000E+20
 30
-1.000000000000000E+20
  9
$PLIMMIN
 10
0.0
 20
0.0
  9
$PLIMMAX
 10
12.0
 20
9.0
  9
$UNITMODE
 70
     0
  9
$VISRETAIN
 70
     1
  9
$PLINEGEN
 70
     0
  9
$PSLTSCALE
 70
     1
  9
$TREEDEPTH
 70
  3020
  9
$CMLSTYLE
  2
Standard
  9
$CMLJUST
 70
     0
  9
$CMLSCALE
 40
1.0
  9
$PROXYGRAPHICS
 70
     1
  9
$MEASUREMENT
 70
     0
  9
$CELWEIGHT
370
    -1
  9
$ENDCAPS
280
     0
  9
$JOINSTYLE
280
     0
  9
$LWDISPLAY
290
     1
  9
$INSUNITS
 70
     1
  9
$HYPERLINKBASE
  1

  9
$STYLESHEET
  1

  9
$XEDIT
290
     1
  9
$CEPSNTYPE
380
     0
  9
$PSTYLEMODE
290
     1
  9
$FINGERPRINTGUID
  2
{33588EC8-03B6-4536-A770-EF6A456551FF}
  9
$VERSIONGUID
  2
{FAEB1C32-E019-11D5-929B-00C0DF256EC4}
  9
$EXTNAMES
290
     1
  9
$PSVPSCALE
 40
0.0
  9
$OLESTARTUP
290
     0
  9
$SORTENTS
280
   127
  9
$INDEXCTL
280
     0
  9
$HIDETEXT
280
     1
  9
$XCLIPFRAME
280
     2
  9
$HALOGAP
280
     0
  9
$OBSCOLOR
 70
   257
  9
$OBSLTYPE
280
     0
  9
$INTERSECTIONDISPLAY
280
     0
  9
$INTERSECTIONCOLOR
 70
   257
  9
$DIMASSOC
280
     2
  9
$PROJECTNAME
  1

  9
$CAMERADISPLAY
290
     0
  9
$LENSLENGTH
 40
50.0
  9
$CAMERAHEIGHT
 40
0.0
  9
$STEPSPERSEC
 40
2.0
  9
$STEPSIZE
 40
6.0
  9
$3DDWFPREC
 40
2.0
  9
$PSOLWIDTH
 40
0.25
  9
$PSOLHEIGHT
 40
4.0
  9
$LOFTANG1
 40
1.570796326794897
  9
$LOFTANG2
 40
1.570796326794897
  9
$LOFTMAG1
 40
0.0
  9
$LOFTMAG2
 40
0.0
  9
$LOFTPARAM
 70
     7
  9
$LOFTNORMALS
280
     1
  9
$LATITUDE
 40
37.795
  9
$LONGITUDE
 40
-122.394
  9
$NORTHDIRECTION
 40
0.0
  9
$TIMEZONE
 70
 -8000
  9
$LIGHTGLYPHDISPLAY
280
     1
  9
$TILEMODELIGHTSYNCH
280
     1
  9
$CMATERIAL
347
3C
  9
$SOLIDHIST
280
     1
  9
$SHOWHIST
280
     1
  9
$DWFFRAME
280
     2
  9
$DGNFRAME
280
     2
  9
$REALWORLDSCALE
290
     1
  9
$INTERFERECOLOR
 62
   256
  9
$CSHADOW
280
     0
  9
$SHADOWPLANELOCATION
 40
0.0
  0
ENDSEC
  0
SECTION
  2
CLASSES
  0
CLASS
  1
ACDBDICTIONARYWDFLT
  2
AcDbDictionaryWithDefault
  3
ObjectDBX Classes
 90
        0
 91
        4
280
     0
281
     0
  0
CLASS
  1
VISUALSTYLE
  2
AcDbVisualStyle
  3
ObjectDBX Classes
 90
     4095
 91
        4
280
     0
281
     0
  0
CLASS
  1
MATERIAL
  2
AcDbMaterial
  3
ObjectDBX Classes
 90
     1153
 91
        4
280
     0
281
     0
  0
CLASS
  1
SUN
  2
AcDbSun
  3
SCENEOE
 90
     1024
 91
        4
280
     0
281
     0
  0
ENDSEC
  0
SECTION
  2
TABLES
  0
TABLE
  2
VPORT
  5
8
330
0
100
AcDbSymbolTable
 70
     1
  0
VPORT
  5
29
330
8
100
AcDbSymbolTableRecord
100
AcDbViewportTableRecord
  2
*Active
 70
     0
 10
0.0
 20
0.0
 11
1.0
 21
1.0
 12
0.0
 22
0.0
 13
0.0
 23
0.0
 14
0.5
 24
0.5
 15
0.5
 25
0.5
 16
0.0
 26
0.0
 36
1.0
 17
4.25
 27
5.499999999999999
 37
0.0
 40
11.69291338582677
 41
0.7070707070707065
 42
50.0
 43
0.0
 44
0.0
 50
0.0
 51
0.0
 71
     0
 72
   100
 73
     1
 74
     3
 75
     0
 76
     0
 77
     0
 78
     0
281
     0
 65
     1
110
0.0
120
0.0
130
0.0
111
1.0
121
0.0
131
0.0
112
0.0
122
1.0
132
0.0
 79
     0
146
0.0
 60
     3
 61
     5
292
     1
282
     1
141
0.0
142
0.0
 63
   250
361
3F
  0
ENDTAB
  0
TABLE
  2
LTYPE
  5
5
330
0
100
AcDbSymbolTable
 70
     1
  0
LTYPE
  5
14
330
5
100
AcDbSymbolTableRecord
100
AcDbLinetypeTableRecord
  2
ByBlock
 70
     0
  3

 72
    65
 73
     0
 40
0.0
  0
LTYPE
  5
15
330
5
100
AcDbSymbolTableRecord
100
AcDbLinetypeTableRecord
  2
ByLayer
 70
     0
  3

 72
    65
 73
     0
 40
0.0
  0
LTYPE
  5
16
330
5
100
AcDbSymbolTableRecord
100
AcDbLinetypeTableRecord
  2
Continuous
 70
     0
  3
Solid line
 72
    65
 73
     0
 40
0.0
  0
ENDTAB
  0
TABLE
  2
LAYER
  5
2
330
0
100
AcDbSymbolTable
 70
     3
  0
LAYER
  5
10
330
2
100
AcDbSymbolTableRecord
100
AcDbLayerTableRecord
  2
0
 70
     0
 62
     7
  6
Continuous
370
    -3
390
F
347
3E
  0
LAYER
  5
40
330
2
100
AcDbSymbolTableRecord
100
AcDbLayerTableRecord
  2
Layer 1
 70
     0
 62
     7
  6
Continuous
370
    -3
390
F
347
3E
  0
LAYER
  5
C2
330
2
100
AcDbSymbolTableRecord
100
AcDbLayerTableRecord
  2
Layer 2
 70
     0
 62
     7
  6
Continuous
370
    -3
390
F
347
3E
  0
ENDTAB
  0
TABLE
  2
STYLE
  5
3
330
0
100
AcDbSymbolTable
 70
     1
  0
STYLE
  5
11
330
3
100
AcDbSymbolTableRecord
100
AcDbTextStyleTableRecord
  2
Standard
 70
     0
 40
0.0
 41
1.0
 50
0.0
 71
     0
 42
0.2
  3
txt
  4

  0
ENDTAB
  0
TABLE
  2
VIEW
  5
6
330
0
100
AcDbSymbolTable
 70
     0
  0
ENDTAB
  0
TABLE
  2
UCS
  5
7
330
0
100
AcDbSymbolTable
 70
     0
  0
ENDTAB
  0
TABLE
  2
APPID
  5
9
330
0
100
AcDbSymbolTable
 70
     1
  0
APPID
  5
12
330
9
100
AcDbSymbolTableRecord
100
AcDbRegAppTableRecord
  2
ACAD
 70
     0
  0
ENDTAB
  0
TABLE
  2
DIMSTYLE
  5
A
330
0
100
AcDbSymbolTable
 70
     1
100
AcDbDimStyleTable
  0
DIMSTYLE
105
27
330
A
100
AcDbSymbolTableRecord
100
AcDbDimStyleTableRecord
  2
Standard
 70
     0
178
     0
340
11
  0
ENDTAB
  0
TABLE
  2
BLOCK_RECORD
  5
1
330
0
100
AcDbSymbolTable
 70
     1
  0
BLOCK_RECORD
  5
1F
330
1
100
AcDbSymbolTableRecord
100
AcDbBlockTableRecord
  2
*Model_Space
340
22
 70
     0
280
     1
281
     0
  0
BLOCK_RECORD
  5
1B
330
1
100
AcDbSymbolTableRecord
100
AcDbBlockTableRecord
  2
*Paper_Space
340
1E
 70
     0
280
     1
281
     0
  0
BLOCK_RECORD
  5
23
330
1
100
AcDbSymbolTableRecord
100
AcDbBlockTableRecord
  2
*Paper_Space0
340
26
 70
     0
280
     1
281
     0
  0
ENDTAB
  0
ENDSEC
  0
SECTION
  2
BLOCKS
  0
BLOCK
  5
20
330
1F
100
AcDbEntity
  8
0
100
AcDbBlockBegin
  2
*Model_Space
 70
     0
 10
0.0
 20
0.0
 30
0.0
  3
*Model_Space
  1

  0
ENDBLK
  5
21
330
1F
100
AcDbEntity
  8
0
100
AcDbBlockEnd
  0
BLOCK
  5
1C
330
1B
100
AcDbEntity
 67
     1
  8
0
100
AcDbBlockBegin
  2
*Paper_Space
 70
     0
 10
0.0
 20
0.0
 30
0.0
  3
*Paper_Space
  1

  0
ENDBLK
  5
1D
330
1B
100
AcDbEntity
 67
     1
  8
0
100
AcDbBlockEnd
  0
BLOCK
  5
24
330
23
100
AcDbEntity
  8
0
100
AcDbBlockBegin
  2
*Paper_Space0
 70
     0
 10
0.0
 20
0.0
 30
0.0
  3
*Paper_Space0
  1

  0
ENDBLK
  5
25
330
23
100
AcDbEntity
  8
0
100
AcDbBlockEnd
  0
ENDSEC
  0
SECTION
  2
ENTITIES
  0
SPLINE
  5
41
330
1F
100
AcDbEntity
  8
Layer 1
370
     0
100
AcDbSpline
210
0.0
220
0.0
230
1.0
 70
    11
 71
     3
 72
    83
 73
    79
 74
     0
 42
0.0000000001
 43
0.0000000001
 12
1.0
 22
0.0
 32
0.0
 13
1.0
 23
0.0
 33
0.0
 40
0.0
 40
0.0
 40
0.0
 40
0.0
 40
1.0
 40
1.0
 40
1.0
 40
2.0
 40
2.0
 40
2.0
 40
3.0
 40
3.0
 40
3.0
 40
4.0
 40
4.0
 40
4.0
 40
5.0
 40
5.0
 40
5.0
 40
6.0
 40
6.0
 40
6.0
 40
7.0
 40
7.0
 40
7.0
 40
8.0
 40
8.0
 40
8.0
 40
9.0
 40
9.0
 40
9.0
 40
10.0
 40
10.0
 40
10.0
 40
11.0
 40
11.0
 40
11.0
 40
12.0
 40
12.0
 40
12.0
 40
13.0
 40
13.0
 40
13.0
 40
14.0
 40
14.0
 40
14.0
 40
15.0
 40
15.0
 40
15.0
 40
16.0
 40
16.0
 40
16.0
 40
17.0
 40
17.0
 40
17.0
 40
18.0
 40
18.0
 40
18.0
 40
19.0
 40
19.0
 40
19.0
 40
20.0
 40
20.0
 40
20.0
 40
21.0
 40
21.0
 40
21.0
 40
22.0
 40
22.0
 40
22.0
 40
23.0
 40
23.0
 40
23.0
 40
24.0
 40
24.0
 40
24.0
 40
25.0
 40
25.0
 40
25.0
 40
26.0
 40
26.0
 40
26.0
 40
26.0
 10
3.231973529464603
 20
4.696234603585354
 30
0.0
 10
3.232720751667936
 20
4.695881825816488
 30
0.0
 10
3.249294362360363
 20
4.689181825985744
 30
0.0
 10
3.249294362360363
 20
4.689181825985744
 30
0.0
 10
3.249294362360363
 20
4.689181825985744
 30
0.0
 10
3.386474914450446
 20
4.782986111111111
 30
0.0
 10
3.386474914450446
 20
4.782986111111111
 30
0.0
 10
3.386474914450446
 20
4.782986111111111
 30
0.0
 10
3.415899913707108
 20
4.771945712783841
 30
0.0
 10
3.415899913707108
 20
4.771945712783841
 30
0.0
 10
3.415899913707108
 20
4.771945712783841
 30
0.0
 10
3.3994610252335
 20
4.728190158333645
 30
0.0
 10
3.3994610252335
 20
4.728190158333645
 30
0.0
 10
3.3994610252335
 20
4.728190158333645
 30
0.0
 10
3.39937352523571
 20
4.70795404773374
 30
0.0
 10
3.39937352523571
 20
4.70795404773374
 30
0.0
 10
3.39937352523571
 20
4.70795404773374
 30
0.0
 10
3.605387408920251
 20
4.771633212791736
 30
0.0
 10
3.605387408920251
 20
4.771633212791736
 30
0.0
 10
3.605387408920251
 20
4.771633212791736
 30
0.0
 10
3.599609631288432
 20
4.726195713939584
 30
0.0
 10
3.599609631288432
 20
4.726195713939584
 30
0.0
 10
3.599609631288432
 20
4.726195713939584
 30
0.0
 10
3.59975129795152
 20
4.703016547858472
 30
0.0
 10
3.59975129795152
 20
4.703016547858472
 30
0.0
 10
3.59975129795152
 20
4.703016547858472
 30
0.0
 10
3.723904072592934
 20
4.656412382369126
 30
0.0
 10
3.726331850309382
 20
4.655435993504903
 30
0.0
 10
3.73632073894593
 20
4.651502660270934
 30
0.0
 10
3.736891572264843
 20
4.645073493766682
 30
0.0
 10
3.736891572264843
 20
4.640163771668489
 30
0.0
 10
3.736891572264843
 20
4.635254049570297
 30
0.0
 10
3.737000000000004
 20
4.494683219788081
 30
0.0
 10
3.737000000000004
 20
4.494683219788081
 30
0.0
 10
3.737000000000004
 20
4.494683219788081
 30
0.0
 10
3.753404071847702
 20
4.487033219981337
 30
0.0
 10
3.753858238502895
 20
4.48688460887398
 30
0.0
 10
3.758362405055777
 20
4.485391553356142
 30
0.0
 10
3.764336016015982
 20
4.48688460887398
 30
0.0
 10
3.771802682494025
 20
4.492865164278454
 30
0.0
 10
3.779290182304875
 20
4.498847222222214
 30
0.0
 10
5.437309584864225
 20
5.771565131975775
 30
0.0
 10
5.437309584864225
 20
5.771565131975775
 30
0.0
 10
5.437309584864225
 20
5.771565131975775
 30
0.0
 10
5.437309584864225
 20
5.862358185237705
 30
0.0
 10
5.437309584864225
 20
5.873581796065284
 30
0.0
 10
5.437309584864225
 20
5.884806795781716
 30
0.0
 10
5.435274862693404
 20
5.902140128677186
 30
0.0
 10
5.417941529797948
 20
5.907254017436874
 30
0.0
 10
5.413547085464516
 20
5.908541666666665
 30
0.0
 10
5.331813754195941
 20
5.924615128109407
 30
0.0
 10
5.331813754195941
 20
5.924615128109407
 30
0.0
 10
5.331813754195941
 20
5.924615128109407
 30
0.0
 10
5.329183198706838
 20
5.957010960624353
 30
0.0
 10
5.329183198706838
 20
5.957010960624353
 30
0.0
 10
5.329183198706838
 20
5.957010960624353
 30
0.0
 10
5.172552647108104
 20
5.914720683914917
 30
0.0
 10
5.172552647108104
 20
5.914720683914917
 30
0.0
 10
5.172552647108104
 20
5.914720683914917
 30
0.0
 10
5.169813758288405
 20
5.955865127319965
 30
0.0
 10
5.169813758288405
 20
5.955865127319965
 30
0.0
 10
5.169813758288405
 20
5.955865127319965
 30
0.0
 10
5.082681816045098
 20
5.972527777777777
 30
0.0
 10
5.078206816158146
 20
5.973558182428556
 30
0.0
 10
5.064955427604016
 20
5.976623460128899
 30
0.0
 10
5.047606816931167
 20
5.979681793384972
 30
0.0
 10
5.037408206077695
 20
5.973558182428556
 30
0.0
 10
5.027208333333343
 20
5.967448460360679
 30
0.0
 10
3.249484640133333
 20
4.87296515467632
 30
0.0
 10
3.244873529138709
 20
4.86988598808744
 30
0.0
 10
3.24026102925523
 20
4.866808210387413
 30
0.0
 10
3.226941585147263
 20
4.861165154974413
 30
0.0
 10
3.226941585147263
 20
4.847601266428177
 30
0.0
 10
3.226941585147263
 20
4.834010988993719
 30
0.0
 10
3.226941585147263
 20
4.715129047552485
 30
0.0
 10
3.226941585147263
 20
4.710259603231052
 30
0.0
 10
3.226941585147263
 20
4.705390158909621
 30
0.0
 10
3.226237418498386
 20
4.698879047962994
 30
0.0
 10
3.231973529464603
 20
4.696234603585354
 30
0.0
  0
HATCH
  5
42
330
1F
100
AcDbEntity
  8
Layer 1
 62
   253
420
 10987947
100
AcDbHatch
 10
0.0
 20
0.0
 30
0.0
210
0.0
220
0.0
230
1.0
  2
SOLID
 70
     1
 71
     0
 91
        1
 92
        1
 93
        2
 72
     4
 94
        3
 73
     0
 74
     0
 95
       83
 96
       79
 40
0.0
 40
0.0
 40
0.0
 40
0.0
 40
0.0138888888888889
 40
0.0138888888888889
 40
0.0138888888888889
 40
0.0277777777777778
 40
0.0277777777777778
 40
0.0277777777777778
 40
0.0416666666666667
 40
0.0416666666666667
 40
0.0416666666666667
 40
0.0555555555555556
 40
0.0555555555555556
 40
0.0555555555555556
 40
0.0694444444444444
 40
0.0694444444444444
 40
0.0694444444444444
 40
0.0833333333333333
 40
0.0833333333333333
 40
0.0833333333333333
 40
0.0972222222222222
 40
0.0972222222222222
 40
0.0972222222222222
 40
0.1111111111111111
 40
0.1111111111111111
 40
0.1111111111111111
 40
0.125
 40
0.125
 40
0.125
 40
0.1388888888888889
 40
0.1388888888888889
 40
0.1388888888888889
 40
0.1527777777777778
 40
0.1527777777777778
 40
0.1527777777777778
 40
0.1666666666666667
 40
0.1666666666666667
 40
0.1666666666666667
 40
0.1805555555555556
 40
0.1805555555555556
 40
0.1805555555555556
 40
0.1944444444444444
 40
0.1944444444444444
 40
0.1944444444444444
 40
0.2083333333333333
 40
0.2083333333333333
 40
0.2083333333333333
 40
0.2222222222222222
 40
0.2222222222222222
 40
0.2222222222222222
 40
0.2361111111111111
 40
0.2361111111111111
 40
0.2361111111111111
 40
0.25
 40
0.25
 40
0.25
 40
0.2638888888888889
 40
0.2638888888888889
 40
0.2638888888888889
 40
0.2777777777777778
 40
0.2777777777777778
 40
0.2777777777777778
 40
0.2916666666666666
 40
0.2916666666666666
 40
0.2916666666666666
 40
0.3055555555555555
 40
0.3055555555555555
 40
0.3055555555555555
 40
0.3194444444444444
 40
0.3194444444444444
 40
0.3194444444444444
 40
0.3333333333333333
 40
0.3333333333333333
 40
0.3333333333333333
 40
0.3472222222222222
 40
0.3472222222222222
 40
0.3472222222222222
 40
0.3611111111111111
 40
0.3611111111111111
 40
0.3611111111111111
 40
0.3611111111111111
 10
3.231973529464603
 20
4.696234603585354
 10
3.232720751667936
 20
4.695881825816488
 10
3.249294362360363
 20
4.689181825985744
 10
3.249294362360363
 20
4.689181825985744
 10
3.249294362360363
 20
4.689181825985744
 10
3.386474914450446
 20
4.782986111111111
 10
3.386474914450446
 20
4.782986111111111
 10
3.386474914450446
 20
4.782986111111111
 10
3.415899913707108
 20
4.771945712783841
 10
3.415899913707108
 20
4.771945712783841
 10
3.415899913707108
 20
4.771945712783841
 10
3.3994610252335
 20
4.728190158333645
 10
3.3994610252335
 20
4.728190158333645
 10
3.3994610252335
 20
4.728190158333645
 10
3.39937352523571
 20
4.70795404773374
 10
3.39937352523571
 20
4.70795404773374
 10
3.39937352523571
 20
4.70795404773374
 10
3.605387408920251
 20
4.771633212791736
 10
3.605387408920251
 20
4.771633212791736
 10
3.605387408920251
 20
4.771633212791736
 10
3.599609631288432
 20
4.726195713939584
 10
3.599609631288432
 20
4.726195713939584
 10
3.599609631288432
 20
4.726195713939584
 10
3.59975129795152
 20
4.703016547858472
 10
3.59975129795152
 20
4.703016547858472
 10
3.59975129795152
 20
4.703016547858472
 10
3.723904072592934
 20
4.656412382369126
 10
3.726331850309382
 20
4.655435993504903
 10
3.73632073894593
 20
4.651502660270934
 10
3.736891572264843
 20
4.645073493766682
 10
3.736891572264843
 20
4.640163771668489
 10
3.736891572264843
 20
4.635254049570297
 10
3.737000000000004
 20
4.494683219788081
 10
3.737000000000004
 20
4.494683219788081
 10
3.737000000000004
 20
4.494683219788081
 10
3.753404071847702
 20
4.487033219981337
 10
3.753858238502895
 20
4.48688460887398
 10
3.758362405055777
 20
4.485391553356142
 10
3.764336016015982
 20
4.48688460887398
 10
3.771802682494025
 20
4.492865164278454
 10
3.779290182304875
 20
4.498847222222214
 10
5.437309584864225
 20
5.771565131975775
 10
5.437309584864225
 20
5.771565131975775
 10
5.437309584864225
 20
5.771565131975775
 10
5.437309584864225
 20
5.862358185237705
 10
5.437309584864225
 20
5.873581796065284
 10
5.437309584864225
 20
5.884806795781716
 10
5.435274862693404
 20
5.902140128677186
 10
5.417941529797948
 20
5.907254017436874
 10
5.413547085464516
 20
5.908541666666665
 10
5.331813754195941
 20
5.924615128109407
 10
5.331813754195941
 20
5.924615128109407
 10
5.331813754195941
 20
5.924615128109407
 10
5.329183198706838
 20
5.957010960624353
 10
5.329183198706838
 20
5.957010960624353
 10
5.329183198706838
 20
5.957010960624353
 10
5.172552647108104
 20
5.914720683914917
 10
5.172552647108104
 20
5.914720683914917
 10
5.172552647108104
 20
5.914720683914917
 10
5.169813758288405
 20
5.955865127319965
 10
5.169813758288405
 20
5.955865127319965
 10
5.169813758288405
 20
5.955865127319965
 10
5.082681816045098
 20
5.972527777777777
 10
5.078206816158146
 20
5.973558182428556
 10
5.064955427604016
 20
5.976623460128899
 10
5.047606816931167
 20
5.979681793384972
 10
5.037408206077695
 20
5.973558182428556
 10
5.027208333333343
 20
5.967448460360679
 10
3.249484640133333
 20
4.87296515467632
 10
3.244873529138709
 20
4.86988598808744
 10
3.24026102925523
 20
4.866808210387413
 10
3.226941585147263
 20
4.861165154974413
 10
3.226941585147263
 20
4.847601266428177
 10
3.226941585147263
 20
4.834010988993719
 10
3.226941585147263
 20
4.715129047552485
 10
3.226941585147263
 20
4.710259603231052
 10
3.226941585147263
 20
4.705390158909621
 10
3.226237418498386
 20
4.698879047962994
 10
3.231973529464603
 20
4.696234603585354
 97
        0
 72
     1
 10
3.231973529464603
 20
4.696234603585354
 11
3.231973529464603
 21
4.696234603585354
 97
        0
 75
     2
 76
     1
 98
        0
  0
SPLINE
  5
43
330
1F
100
AcDbEntity
  8
Layer 1
 62
   250
420
  2301728
370
    18
100
AcDbSpline
210
0.0
220
0.0
230
1.0
 70
    11
 71
     3
 72
    83
 73
    79
 74
     0
 42
0.0000000001
 43
0.0000000001
 12
1.0
 22
0.0
 32
0.0
 13
1.0
 23
0.0
 33
0.0
 40
0.0
 40
0.0
 40
0.0
 40
0.0
 40
1.0
 40
1.0
 40
1.0
 40
2.0
 40
2.0
 40
2.0
 40
3.0
 40
3.0
 40
3.0
 40
4.0
 40
4.0
 40
4.0
 40
5.0
 40
5.0
 40
5.0
 40
6.0
 40
6.0
 40
6.0
 40
7.0
 40
7.0
 40
7.0
 40
8.0
 40
8.0
 40
8.0
 40
9.0
 40
9.0
 40
9.0
 40
10.0
 40
10.0
 40
10.0
 40
11.0
 40
11.0
 40
11.0
 40
12.0
 40
12.0
 40
12.0
 40
13.0
 40
13.0
 40
13.0
 40
14.0
 40
14.0
 40
14.0
 40
15.0
 40
15.0
 40
15.0
 40
16.0
 40
16.0
 40
16.0
 40
17.0
 40
17.0
 40
17.0
 40
18.0
 40
18.0
 40
18.0
 40
19.0
 40
19.0
 40
19.0
 40
20.0
 40
20.0
 40
20.0
 40
21.0
 40
21.0
 40
21.0
 40
22.0
 40
22.0
 40
22.0
 40
23.0
 40
23.0
 40
23.0
 40
24.0
 40
24.0
 40
24.0
 40
25.0
 40
25.0
 40
25.0
 40
26.0
 40
26.0
 40
26.0
 40
26.0
 10
3.231973529464603
 20
4.696234603585354
 30
0.0
 10
3.232720751667936
 20
4.695881825816488
 30
0.0
 10
3.249294362360363
 20
4.689181825985744
 30
0.0
 10
3.249294362360363
 20
4.689181825985744
 30
0.0
 10
3.249294362360363
 20
4.689181825985744
 30
0.0
 10
3.386474914450446
 20
4.782986111111111
 30
0.0
 10
3.386474914450446
 20
4.782986111111111
 30
0.0
 10
3.386474914450446
 20
4.782986111111111
 30
0.0
 10
3.415899913707108
 20
4.771945712783841
 30
0.0
 10
3.415899913707108
 20
4.771945712783841
 30
0.0
 10
3.415899913707108
 20
4.771945712783841
 30
0.0
 10
3.3994610252335
 20
4.728190158333645
 30
0.0
 10
3.3994610252335
 20
4.728190158333645
 30
0.0
 10
3.3994610252335
 20
4.728190158333645
 30
0.0
 10
3.39937352523571
 20
4.70795404773374
 30
0.0
 10
3.39937352523571
 20
4.70795404773374
 30
0.0
 10
3.39937352523571
 20
4.70795404773374
 30
0.0
 10
3.605387408920251
 20
4.771633212791736
 30
0.0
 10
3.605387408920251
 20
4.771633212791736
 30
0.0
 10
3.605387408920251
 20
4.771633212791736
 30
0.0
 10
3.599609631288432
 20
4.726195713939584
 30
0.0
 10
3.599609631288432
 20
4.726195713939584
 30
0.0
 10
3.599609631288432
 20
4.726195713939584
 30
0.0
 10
3.59975129795152
 20
4.703016547858472
 30
0.0
 10
3.59975129795152
 20
4.703016547858472
 30
0.0
 10
3.59975129795152
 20
4.703016547858472
 30
0.0
 10
3.723904072592934
 20
4.656412382369126
 30
0.0
 10
3.726331850309382
 20
4.655435993504903
 30
0.0
 10
3.73632073894593
 20
4.651502660270934
 30
0.0
 10
3.736891572264843
 20
4.645073493766682
 30
0.0
 10
3.736891572264843
 20
4.640163771668489
 30
0.0
 10
3.736891572264843
 20
4.635254049570297
 30
0.0
 10
3.737000000000004
 20
4.494683219788081
 30
0.0
 10
3.737000000000004
 20
4.494683219788081
 30
0.0
 10
3.737000000000004
 20
4.494683219788081
 30
0.0
 10
3.753404071847702
 20
4.487033219981337
 30
0.0
 10
3.753858238502895
 20
4.48688460887398
 30
0.0
 10
3.758362405055777
 20
4.485391553356142
 30
0.0
 10
3.764336016015982
 20
4.48688460887398
 30
0.0
 10
3.771802682494025
 20
4.492865164278454
 30
0.0
 10
3.779290182304875
 20
4.498847222222214
 30
0.0
 10
5.437309584864225
 20
5.771565131975775
 30
0.0
 10
5.437309584864225
 20
5.771565131975775
 30
0.0
 10
5.437309584864225
 20
5.771565131975775
 30
0.0
 10
5.437309584864225
 20
5.862358185237705
 30
0.0
 10
5.437309584864225
 20
5.873581796065284
 30
0.0
 10
5.437309584864225
 20
5.884806795781716
 30
0.0
 10
5.435274862693404
 20
5.902140128677186
 30
0.0
 10
5.417941529797948
 20
5.907254017436874
 30
0.0
 10
5.413547085464516
 20
5.908541666666665
 30
0.0
 10
5.331813754195941
 20
5.924615128109407
 30
0.0
 10
5.331813754195941
 20
5.924615128109407
 30
0.0
 10
5.331813754195941
 20
5.924615128109407
 30
0.0
 10
5.329183198706838
 20
5.957010960624353
 30
0.0
 10
5.329183198706838
 20
5.957010960624353
 30
0.0
 10
5.329183198706838
 20
5.957010960624353
 30
0.0
 10
5.172552647108104
 20
5.914720683914917
 30
0.0
 10
5.172552647108104
 20
5.914720683914917
 30
0.0
 10
5.172552647108104
 20
5.914720683914917
 30
0.0
 10
5.169813758288405
 20
5.955865127319965
 30
0.0
 10
5.169813758288405
 20
5.955865127319965
 30
0.0
 10
5.169813758288405
 20
5.955865127319965
 30
0.0
 10
5.082681816045098
 20
5.972527777777777
 30
0.0
 10
5.078206816158146
 20
5.973558182428556
 30
0.0
 10
5.064955427604016
 20
5.976623460128899
 30
0.0
 10
5.047606816931167
 20
5.979681793384972
 30
0.0
 10
5.037408206077695
 20
5.973558182428556
 30
0.0
 10
5.027208333333343
 20
5.967448460360679
 30
0.0
 10
3.249484640133333
 20
4.87296515467632
 30
0.0
 10
3.244873529138709
 20
4.86988598808744
 30
0.0
 10
3.24026102925523
 20
4.866808210387413
 30
0.0
 10
3.226941585147263
 20
4.861165154974413
 30
0.0
 10
3.226941585147263
 20
4.847601266428177
 30
0.0
 10
3.226941585147263
 20
4.834010988993719
 30
0.0
 10
3.226941585147263
 20
4.715129047552485
 30
0.0
 10
3.226941585147263
 20
4.710259603231052
 30
0.0
 10
3.226941585147263
 20
4.705390158909621
 30
0.0
 10
3.226237418498386
 20
4.698879047962994
 30
0.0
 10
3.231973529464603
 20
4.696234603585354
 30
0.0
  0
SPLINE
  5
44
330
1F
100
AcDbEntity
  8
Layer 1
370
     0
100
AcDbSpline
210
0.0
220
0.0
230
1.0
 70
    11
 71
     3
 72
    41
 73
    37
 74
     0
 42
0.0000000001
 43
0.0000000001
 12
1.0
 22
0.0
 32
0.0
 13
1.0
 23
0.0
 33
0.0
 40
0.0
 40
0.0
 40
0.0
 40
0.0
 40
1.0
 40
1.0
 40
1.0
 40
2.0
 40
2.0
 40
2.0
 40
3.0
 40
3.0
 40
3.0
 40
4.0
 40
4.0
 40
4.0
 40
5.0
 40
5.0
 40
5.0
 40
6.0
 40
6.0
 40
6.0
 40
7.0
 40
7.0
 40
7.0
 40
8.0
 40
8.0
 40
8.0
 40
9.0
 40
9.0
 40
9.0
 40
10.0
 40
10.0
 40
10.0
 40
11.0
 40
11.0
 40
11.0
 40
12.0
 40
12.0
 40
12.0
 40
12.0
 10
4.0
 20
4.668158215405734
 30
0.0
 10
4.0
 20
4.547065162909247
 30
0.0
 10
4.0
 20
4.104627674086158
 30
0.0
 10
4.0
 20
4.094754063224475
 30
0.0
 10
4.0
 20
4.076158230360912
 30
0.0
 10
4.01253878752363
 20
4.063083333333326
 30
0.0
 10
4.027913787135225
 20
4.057494341943513
 30
0.0
 10
4.033317953665371
 20
4.055527777777772
 30
0.0
 10
4.139790173197879
 20
4.008666666666664
 30
0.0
 10
4.139790173197879
 20
4.008666666666664
 30
0.0
 10
4.139790173197879
 20
4.008666666666664
 30
0.0
 10
4.162095728189948
 20
3.929117956297684
 30
0.0
 10
4.162095728189948
 20
3.929117956297684
 30
0.0
 10
4.162095728189948
 20
3.929117956297684
 30
0.0
 10
4.265286003360921
 20
4.021809620622763
 30
0.0
 10
4.265286003360921
 20
4.021809620622763
 30
0.0
 10
4.265286003360921
 20
4.021809620622763
 30
0.0
 10
4.289292947198899
 20
3.942654067066845
 30
0.0
 10
4.289292947198899
 20
3.942654067066845
 30
0.0
 10
4.289292947198899
 20
3.942654067066845
 30
0.0
 10
4.407592944210389
 20
3.890584623937785
 30
0.0
 10
4.412977666296582
 20
3.888509623990204
 30
0.0
 10
4.431124999999989
 20
3.881537401944115
 30
0.0
 10
4.444783221048661
 20
3.889892957288591
 30
0.0
 10
4.452473498632167
 20
3.897623512648857
 30
0.0
 10
4.456597222222222
 20
3.901787401432557
 30
0.0
 10
4.543266551894097
 20
3.990451288081608
 30
0.0
 10
4.551649885015649
 20
4.000230454501231
 30
0.0
 10
4.560031829248348
 20
4.010009620920856
 30
0.0
 10
4.564222222222219
 20
4.025363787199644
 30
0.0
 10
4.564222222222219
 20
4.049112397710815
 30
0.0
 10
4.564222222222219
 20
4.071669341585422
 30
0.0
 10
4.557915162635153
 20
5.00301098472442
 30
0.0
 10
4.557291666666666
 20
5.096015149041603
 30
0.0
 10
4.350517945652225
 20
4.937283208607065
 30
0.0
 10
4.147752672996742
 20
4.781602656984331
 30
0.0
 10
4.0
 20
4.668158215405734
 30
0.0
  0
HATCH
  5
45
330
1F
100
AcDbEntity
  8
Layer 1
 62
   253
420
 10987947
100
AcDbHatch
 10
0.0
 20
0.0
 30
0.0
210
0.0
220
0.0
230
1.0
  2
SOLID
 70
     1
 71
     0
 91
        1
 92
        1
 93
        2
 72
     4
 94
        3
 73
     0
 74
     0
 95
       41
 96
       37
 40
0.0
 40
0.0
 40
0.0
 40
0.0
 40
0.0138888888888889
 40
0.0138888888888889
 40
0.0138888888888889
 40
0.0277777777777778
 40
0.0277777777777778
 40
0.0277777777777778
 40
0.0416666666666667
 40
0.0416666666666667
 40
0.0416666666666667
 40
0.0555555555555556
 40
0.0555555555555556
 40
0.0555555555555556
 40
0.0694444444444444
 40
0.0694444444444444
 40
0.0694444444444444
 40
0.0833333333333333
 40
0.0833333333333333
 40
0.0833333333333333
 40
0.0972222222222222
 40
0.0972222222222222
 40
0.0972222222222222
 40
0.1111111111111111
 40
0.1111111111111111
 40
0.1111111111111111
 40
0.125
 40
0.125
 40
0.125
 40
0.1388888888888889
 40
0.1388888888888889
 40
0.1388888888888889
 40
0.1527777777777778
 40
0.1527777777777778
 40
0.1527777777777778
 40
0.1666666666666667
 40
0.1666666666666667
 40
0.1666666666666667
 40
0.1666666666666667
 10
4.0
 20
4.668158215405734
 10
4.0
 20
4.547065162909247
 10
4.0
 20
4.104627674086158
 10
4.0
 20
4.094754063224475
 10
4.0
 20
4.076158230360912
 10
4.01253878752363
 20
4.063083333333326
 10
4.027913787135225
 20
4.057494341943513
 10
4.033317953665371
 20
4.055527777777772
 10
4.139790173197879
 20
4.008666666666664
 10
4.139790173197879
 20
4.008666666666664
 10
4.139790173197879
 20
4.008666666666664
 10
4.162095728189948
 20
3.929117956297684
 10
4.162095728189948
 20
3.929117956297684
 10
4.162095728189948
 20
3.929117956297684
 10
4.265286003360921
 20
4.021809620622763
 10
4.265286003360921
 20
4.021809620622763
 10
4.265286003360921
 20
4.021809620622763
 10
4.289292947198899
 20
3.942654067066845
 10
4.289292947198899
 20
3.942654067066845
 10
4.289292947198899
 20
3.942654067066845
 10
4.407592944210389
 20
3.890584623937785
 10
4.412977666296582
 20
3.888509623990204
 10
4.431124999999989
 20
3.881537401944115
 10
4.444783221048661
 20
3.889892957288591
 10
4.452473498632167
 20
3.897623512648857
 10
4.456597222222222
 20
3.901787401432557
 10
4.543266551894097
 20
3.990451288081608
 10
4.551649885015649
 20
4.000230454501231
 10
4.560031829248348
 20
4.010009620920856
 10
4.564222222222219
 20
4.025363787199644
 10
4.564222222222219
 20
4.049112397710815
 10
4.564222222222219
 20
4.071669341585422
 10
4.557915162635153
 20
5.00301098472442
 10
4.557291666666666
 20
5.096015149041603
 10
4.350517945652225
 20
4.937283208607065
 10
4.147752672996742
 20
4.781602656984331
 10
4.0
 20
4.668158215405734
 97
        0
 72
     1
 10
4.0
 20
4.668158215405734
 11
4.0
 21
4.668158215405734
 97
        0
 75
     2
 76
     1
 98
        0
  0
SPLINE
  5
46
330
1F
100
AcDbEntity
  8
Layer 1
 62
   250
420
  2301728
370
    18
100
AcDbSpline
210
0.0
220
0.0
230
1.0
 70
    11
 71
     3
 72
    41
 73
    37
 74
     0
 42
0.0000000001
 43
0.0000000001
 12
1.0
 22
0.0
 32
0.0
 13
1.0
 23
0.0
 33
0.0
 40
0.0
 40
0.0
 40
0.0
 40
0.0
 40
1.0
 40
1.0
 40
1.0
 40
2.0
 40
2.0
 40
2.0
 40
3.0
 40
3.0
 40
3.0
 40
4.0
 40
4.0
 40
4.0
 40
5.0
 40
5.0
 40
5.0
 40
6.0
 40
6.0
 40
6.0
 40
7.0
 40
7.0
 40
7.0
 40
8.0
 40
8.0
 40
8.0
 40
9.0
 40
9.0
 40
9.0
 40
10.0
 40
10.0
 40
10.0
 40
11.0
 40
11.0
 40
11.0
 40
12.0
 40
12.0
 40
12.0
 40
12.0
 10
4.0
 20
4.668158215405734
 30
0.0
 10
4.0
 20
4.547065162909247
 30
0.0
 10
4.0
 20
4.104627674086158
 30
0.0
 10
4.0
 20
4.094754063224475
 30
0.0
 10
4.0
 20
4.076158230360912
 30
0.0
 10
4.01253878752363
 20
4.063083333333326
 30
0.0
 10
4.027913787135225
 20
4.057494341943513
 30
0.0
 10
4.033317953665371
 20
4.055527777777772
 30
0.0
 10
4.139790173197879
 20
4.008666666666664
 30
0.0
 10
4.139790173197879
 20
4.008666666666664
 30
0.0
 10
4.139790173197879
 20
4.008666666666664
 30
0.0
 10
4.162095728189948
 20
3.929117956297684
 30
0.0
 10
4.162095728189948
 20
3.929117956297684
 30
0.0
 10
4.162095728189948
 20
3.929117956297684
 30
0.0
 10
4.265286003360921
 20
4.021809620622763
 30
0.0
 10
4.265286003360921
 20
4.021809620622763
 30
0.0
 10
4.265286003360921
 20
4.021809620622763
 30
0.0
 10
4.289292947198899
 20
3.942654067066845
 30
0.0
 10
4.289292947198899
 20
3.942654067066845
 30
0.0
 10
4.289292947198899
 20
3.942654067066845
 30
0.0
 10
4.407592944210389
 20
3.890584623937785
 30
0.0
 10
4.412977666296582
 20
3.888509623990204
 30
0.0
 10
4.431124999999989
 20
3.881537401944115
 30
0.0
 10
4.444783221048661
 20
3.889892957288591
 30
0.0
 10
4.452473498632167
 20
3.897623512648857
 30
0.0
 10
4.456597222222222
 20
3.901787401432557
 30
0.0
 10
4.543266551894097
 20
3.990451288081608
 30
0.0
 10
4.551649885015649
 20
4.000230454501231
 30
0.0
 10
4.560031829248348
 20
4.010009620920856
 30
0.0
 10
4.564222222222219
 20
4.025363787199644
 30
0.0
 10
4.564222222222219
 20
4.049112397710815
 30
0.0
 10
4.564222222222219
 20
4.071669341585422
 30
0.0
 10
4.557915162635153
 20
5.00301098472442
 30
0.0
 10
4.557291666666666
 20
5.096015149041603
 30
0.0
 10
4.350517945652225
 20
4.937283208607065
 30
0.0
 10
4.147752672996742
 20
4.781602656984331
 30
0.0
 10
4.0
 20
4.668158215405734
 30
0.0
  0
SPLINE
  5
47
330
1F
100
AcDbEntity
  8
Layer 1
370
     0
100
AcDbSpline
210
0.0
220
0.0
230
1.0
 70
    11
 71
     3
 72
    50
 73
    46
 74
     0
 42
0.0000000001
 43
0.0000000001
 12
1.0
 22
0.0
 32
0.0
 13
1.0
 23
0.0
 33
0.0
 40
0.0
 40
0.0
 40
0.0
 40
0.0
 40
1.0
 40
1.0
 40
1.0
 40
2.0
 40
2.0
 40
2.0
 40
3.0
 40
3.0
 40
3.0
 40
4.0
 40
4.0
 40
4.0
 40
5.0
 40
5.0
 40
5.0
 40
6.0
 40
6.0
 40
6.0
 40
7.0
 40
7.0
 40
7.0
 40
8.0
 40
8.0
 40
8.0
 40
9.0
 40
9.0
 40
9.0
 40
10.0
 40
10.0
 40
10.0
 40
11.0
 40
11.0
 40
11.0
 40
12.0
 40
12.0
 40
12.0
 40
13.0
 40
13.0
 40
13.0
 40
14.0
 40
14.0
 40
14.0
 40
15.0
 40
15.0
 40
15.0
 40
15.0
 10
5.24590403414398
 20
4.373806833952787
 30
0.0
 10
5.254909589472036
 20
4.382080444854889
 30
0.0
 10
5.723876244291609
 20
4.926974875534142
 30
0.0
 10
5.730197077465264
 20
4.936469319738737
 30
0.0
 10
5.73651791063892
 20
4.945935986166256
 30
0.0
 10
5.748372077006125
 20
4.953856819299491
 30
0.0
 10
5.732584577404951
 20
4.968858207809413
 30
0.0
 10
5.716769300026701
 20
4.983885985207558
 30
0.0
 10
3.470248523445257
 20
7.075167876821777
 30
0.0
 10
3.463386023618618
 20
7.08126509888997
 30
0.0
 10
3.456542968235933
 20
7.087348432069625
 30
0.0
 10
3.445888888888892
 20
7.095737320746593
 30
0.0
 10
3.429124999999999
 20
7.094210931896264
 30
0.0
 10
3.412359636018765
 20
7.09267898749052
 30
0.0
 10
3.334695749091831
 20
7.078972222222218
 30
0.0
 10
3.325554082656102
 20
7.076680555555551
 30
0.0
 10
3.316419360664642
 20
7.074401210174478
 30
0.0
 10
3.311081860799491
 20
7.075167876821777
 30
0.0
 10
3.302706861011049
 20
7.062988710462782
 30
0.0
 10
3.299512416647303
 20
7.058335932802542
 30
0.0
 10
3.2235582518994
 20
6.923651213982756
 30
0.0
 10
3.2235582518994
 20
6.923651213982756
 30
0.0
 10
3.2235582518994
 20
6.923651213982756
 30
0.0
 10
3.273322139531147
 20
6.848266493664899
 30
0.0
 10
3.273322139531147
 20
6.848266493664899
 30
0.0
 10
3.273322139531147
 20
6.848266493664899
 30
0.0
 10
3.128750000000006
 20
6.85611232680003
 30
0.0
 10
3.128750000000006
 20
6.85611232680003
 30
0.0
 10
3.128750000000006
 20
6.85611232680003
 30
0.0
 10
3.096238810671315
 20
6.844902777777772
 30
0.0
 10
3.096238810671315
 20
6.844902777777772
 30
0.0
 10
3.096238810671315
 20
6.844902777777772
 30
0.0
 10
3.131320754229515
 20
6.759527777777773
 30
0.0
 10
3.131320754229515
 20
6.759527777777773
 30
0.0
 10
3.131320754229515
 20
6.759527777777773
 30
0.0
 10
3.068054089161099
 20
6.647135943190328
 30
0.0
 10
3.066623533641682
 20
6.64489010991373
 30
0.0
 10
3.061292978220788
 20
6.6365151101253
 30
0.0
 10
3.052151311785059
 20
6.622056777157227
 30
0.0
 10
3.065097222222221
 20
6.606817888653293
 30
0.0
 10
3.078042977797648
 20
6.591580389038224
 30
0.0
 10
5.196615146500234
 20
4.389241555785095
 30
0.0
 10
5.203965146314557
 20
4.381890167081918
 30
0.0
 10
5.211290146129512
 20
4.374538778378741
 30
0.0
 10
5.22908459012443
 20
4.358398501008701
 30
0.0
 10
5.24590403414398
 20
4.373806833952787
 30
0.0
  0
HATCH
  5
48
330
1F
100
AcDbEntity
  8
Layer 1
 62
   253
420
 10987947
100
AcDbHatch
 10
0.0
 20
0.0
 30
0.0
210
0.0
220
0.0
230
1.0
  2
SOLID
 70
     1
 71
     0
 91
        1
 92
        1
 93
        2
 72
     4
 94
        3
 73
     0
 74
     0
 95
       50
 96
       46
 40
0.0
 40
0.0
 40
0.0
 40
0.0
 40
0.0138888888888889
 40
0.0138888888888889
 40
0.0138888888888889
 40
0.0277777777777778
 40
0.0277777777777778
 40
0.0277777777777778
 40
0.0416666666666667
 40
0.0416666666666667
 40
0.0416666666666667
 40
0.0555555555555556
 40
0.0555555555555556
 40
0.0555555555555556
 40
0.0694444444444444
 40
0.0694444444444444
 40
0.0694444444444444
 40
0.0833333333333333
 40
0.0833333333333333
 40
0.0833333333333333
 40
0.0972222222222222
 40
0.0972222222222222
 40
0.0972222222222222
 40
0.1111111111111111
 40
0.1111111111111111
 40
0.1111111111111111
 40
0.125
 40
0.125
 40
0.125
 40
0.1388888888888889
 40
0.1388888888888889
 40
0.1388888888888889
 40
0.1527777777777778
 40
0.1527777777777778
 40
0.1527777777777778
 40
0.1666666666666667
 40
0.1666666666666667
 40
0.1666666666666667
 40
0.1805555555555556
 40
0.1805555555555556
 40
0.1805555555555556
 40
0.1944444444444444
 40
0.1944444444444444
 40
0.1944444444444444
 40
0.2083333333333333
 40
0.2083333333333333
 40
0.2083333333333333
 40
0.2083333333333333
 10
5.24590403414398
 20
4.373806833952787
 10
5.254909589472036
 20
4.382080444854889
 10
5.723876244291609
 20
4.926974875534142
 10
5.730197077465264
 20
4.936469319738737
 10
5.73651791063892
 20
4.945935986166256
 10
5.748372077006125
 20
4.953856819299491
 10
5.732584577404951
 20
4.968858207809413
 10
5.716769300026701
 20
4.983885985207558
 10
3.470248523445257
 20
7.075167876821777
 10
3.463386023618618
 20
7.08126509888997
 10
3.456542968235933
 20
7.087348432069625
 10
3.445888888888892
 20
7.095737320746593
 10
3.429124999999999
 20
7.094210931896264
 10
3.412359636018765
 20
7.09267898749052
 10
3.334695749091831
 20
7.078972222222218
 10
3.325554082656102
 20
7.076680555555551
 10
3.316419360664642
 20
7.074401210174478
 10
3.311081860799491
 20
7.075167876821777
 10
3.302706861011049
 20
7.062988710462782
 10
3.299512416647303
 20
7.058335932802542
 10
3.2235582518994
 20
6.923651213982756
 10
3.2235582518994
 20
6.923651213982756
 10
3.2235582518994
 20
6.923651213982756
 10
3.273322139531147
 20
6.848266493664899
 10
3.273322139531147
 20
6.848266493664899
 10
3.273322139531147
 20
6.848266493664899
 10
3.128750000000006
 20
6.85611232680003
 10
3.128750000000006
 20
6.85611232680003
 10
3.128750000000006
 20
6.85611232680003
 10
3.096238810671315
 20
6.844902777777772
 10
3.096238810671315
 20
6.844902777777772
 10
3.096238810671315
 20
6.844902777777772
 10
3.131320754229515
 20
6.759527777777773
 10
3.131320754229515
 20
6.759527777777773
 10
3.131320754229515
 20
6.759527777777773
 10
3.068054089161099
 20
6.647135943190328
 10
3.066623533641682
 20
6.64489010991373
 10
3.061292978220788
 20
6.6365151101253
 10
3.052151311785059
 20
6.622056777157227
 10
3.065097222222221
 20
6.606817888653293
 10
3.078042977797648
 20
6.591580389038224
 10
5.196615146500234
 20
4.389241555785095
 10
5.203965146314557
 20
4.381890167081918
 10
5.211290146129512
 20
4.374538778378741
 10
5.22908459012443
 20
4.358398501008701
 10
5.24590403414398
 20
4.373806833952787
 97
        0
 72
     1
 10
5.24590403414398
 20
4.373806833952787
 11
5.24590403414398
 21
4.373806833952787
 97
        0
 75
     2
 76
     1
 98
        0
  0
SPLINE
  5
49
330
1F
100
AcDbEntity
  8
Layer 1
 62
   250
420
  2301728
370
    18
100
AcDbSpline
210
0.0
220
0.0
230
1.0
 70
    11
 71
     3
 72
    50
 73
    46
 74
     0
 42
0.0000000001
 43
0.0000000001
 12
1.0
 22
0.0
 32
0.0
 13
1.0
 23
0.0
 33
0.0
 40
0.0
 40
0.0
 40
0.0
 40
0.0
 40
1.0
 40
1.0
 40
1.0
 40
2.0
 40
2.0
 40
2.0
 40
3.0
 40
3.0
 40
3.0
 40
4.0
 40
4.0
 40
4.0
 40
5.0
 40
5.0
 40
5.0
 40
6.0
 40
6.0
 40
6.0
 40
7.0
 40
7.0
 40
7.0
 40
8.0
 40
8.0
 40
8.0
 40
9.0
 40
9.0
 40
9.0
 40
10.0
 40
10.0
 40
10.0
 40
11.0
 40
11.0
 40
11.0
 40
12.0
 40
12.0
 40
12.0
 40
13.0
 40
13.0
 40
13.0
 40
14.0
 40
14.0
 40
14.0
 40
15.0
 40
15.0
 40
15.0
 40
15.0
 10
5.24590403414398
 20
4.373806833952787
 30
0.0
 10
5.254909589472036
 20
4.382080444854889
 30
0.0
 10
5.723876244291609
 20
4.926974875534142
 30
0.0
 10
5.730197077465264
 20
4.936469319738737
 30
0.0
 10
5.73651791063892
 20
4.945935986166256
 30
0.0
 10
5.748372077006125
 20
4.953856819299491
 30
0.0
 10
5.732584577404951
 20
4.968858207809413
 30
0.0
 10
5.716769300026701
 20
4.983885985207558
 30
0.0
 10
3.470248523445257
 20
7.075167876821777
 30
0.0
 10
3.463386023618618
 20
7.08126509888997
 30
0.0
 10
3.456542968235933
 20
7.087348432069625
 30
0.0
 10
3.445888888888892
 20
7.095737320746593
 30
0.0
 10
3.429124999999999
 20
7.094210931896264
 30
0.0
 10
3.412359636018765
 20
7.09267898749052
 30
0.0
 10
3.334695749091831
 20
7.078972222222218
 30
0.0
 10
3.325554082656102
 20
7.076680555555551
 30
0.0
 10
3.316419360664642
 20
7.074401210174478
 30
0.0
 10
3.311081860799491
 20
7.075167876821777
 30
0.0
 10
3.302706861011049
 20
7.062988710462782
 30
0.0
 10
3.299512416647303
 20
7.058335932802542
 30
0.0
 10
3.2235582518994
 20
6.923651213982756
 30
0.0
 10
3.2235582518994
 20
6.923651213982756
 30
0.0
 10
3.2235582518994
 20
6.923651213982756
 30
0.0
 10
3.273322139531147
 20
6.848266493664899
 30
0.0
 10
3.273322139531147
 20
6.848266493664899
 30
0.0
 10
3.273322139531147
 20
6.848266493664899
 30
0.0
 10
3.128750000000006
 20
6.85611232680003
 30
0.0
 10
3.128750000000006
 20
6.85611232680003
 30
0.0
 10
3.128750000000006
 20
6.85611232680003
 30
0.0
 10
3.096238810671315
 20
6.844902777777772
 30
0.0
 10
3.096238810671315
 20
6.844902777777772
 30
0.0
 10
3.096238810671315
 20
6.844902777777772
 30
0.0
 10
3.131320754229515
 20
6.759527777777773
 30
0.0
 10
3.131320754229515
 20
6.759527777777773
 30
0.0
 10
3.131320754229515
 20
6.759527777777773
 30
0.0
 10
3.068054089161099
 20
6.647135943190328
 30
0.0
 10
3.066623533641682
 20
6.64489010991373
 30
0.0
 10
3.061292978220788
 20
6.6365151101253
 30
0.0
 10
3.052151311785059
 20
6.622056777157227
 30
0.0
 10
3.065097222222221
 20
6.606817888653293
 30
0.0
 10
3.078042977797648
 20
6.591580389038224
 30
0.0
 10
5.196615146500234
 20
4.389241555785095
 30
0.0
 10
5.203965146314557
 20
4.381890167081918
 30
0.0
 10
5.211290146129512
 20
4.374538778378741
 30
0.0
 10
5.22908459012443
 20
4.358398501008701
 30
0.0
 10
5.24590403414398
 20
4.373806833952787
 30
0.0
  0
POLYLINE
  5
4A
330
1F
100
AcDbEntity
  8
Layer 1
 62
   250
420
  2301728
370
     9
100
AcDb2dPolyline
 66
     1
 10
0.0
 20
0.0
 30
0.0
  0
VERTEX
  5
4B
330
4A
100
AcDbEntity
  8
Layer 1
 62
   250
420
  2301728
370
     9
100
AcDbVertex
100
AcDb2dVertex
 10
4.430487388076472
 20
5.156331814184543
 30
0.0
  0
VERTEX
  5
4C
330
4A
100
AcDbEntity
  8
Layer 1
 62
   250
420
  2301728
370
     9
100
AcDbVertex
100
AcDb2dVertex
 10
3.785542959924694
 20
4.685465159412969
 30
0.0
  0
SEQEND
  5
4D
330
4A
100
AcDbEntity
  8
Layer 1
 62
   250
420
  2301728
370
     9
  0
POLYLINE
  5
4E
330
1F
100
AcDbEntity
  8
Layer 1
 62
   250
420
  2301728
370
     9
100
AcDb2dPolyline
 66
     1
 10
0.0
 20
0.0
 30
0.0
  0
VERTEX
  5
4F
330
4E
100
AcDbEntity
  8
Layer 1
 62
   250
420
  2301728
370
     9
100
AcDbVertex
100
AcDb2dVertex
 10
5.411512363293696
 20
5.872558184980031
 30
0.0
  0
VERTEX
  5
50
330
4E
100
AcDbEntity
  8
Layer 1
 62
   250
420
  2301728
370
     9
100
AcDbVertex
100
AcDb2dVertex
 10
5.048638888888894
 20
5.607624999999997
 30
0.0
  0
SEQEND
  5
51
330
4E
100
AcDbEntity
  8
Layer 1
 62
   250
420
  2301728
370
     9
  0
SPLINE
  5
52
330
1F
100
AcDbEntity
  8
Layer 1
 62
   250
420
  2301728
370
    18
100
AcDbSpline
210
0.0
220
0.0
230
1.0
 70
     8
 71
     3
 72
    14
 73
    10
 74
     0
 42
0.0000000001
 43
0.0000000001
 12
1.0
 22
0.0
 32
0.0
 13
1.0
 23
0.0
 33
0.0
 40
0.0
 40
0.0
 40
0.0
 40
0.0
 40
1.0
 40
1.0
 40
1.0
 40
2.0
 40
2.0
 40
2.0
 40
3.0
 40
3.0
 40
3.0
 40
3.0
 10
3.249294362360363
 20
4.689181825985744
 30
0.0
 10
3.249294362360363
 20
4.689181825985744
 30
0.0
 10
3.249524917910094
 20
4.807834600766101
 30
0.0
 10
3.249524917910094
 20
4.81629710055232
 30
0.0
 10
3.249524917910094
 20
4.824760989227394
 30
0.0
 10
3.254333333333332
 20
4.832220711261167
 30
0.0
 10
3.262138888888886
 20
4.82950821132969
 30
0.0
 10
3.264458333333335
 20
4.828694444444434
 30
0.0
 10
3.316277777777777
 20
4.809298489618009
 30
0.0
 10
3.384527777777773
 20
4.78373182359721
 30
0.0
  0
SPLINE
  5
53
330
1F
100
AcDbEntity
  8
Layer 1
 62
   250
420
  2301728
370
    13
100
AcDbSpline
210
0.0
220
0.0
230
1.0
 70
     8
 71
     3
 72
    14
 73
    10
 74
     0
 42
0.0000000001
 43
0.0000000001
 12
1.0
 22
0.0
 32
0.0
 13
1.0
 23
0.0
 33
0.0
 40
0.0
 40
0.0
 40
0.0
 40
0.0
 40
1.0
 40
1.0
 40
1.0
 40
2.0
 40
2.0
 40
2.0
 40
3.0
 40
3.0
 40
3.0
 40
3.0
 10
3.600151297941415
 20
4.725992936166929
 30
0.0
 10
3.600151297941415
 20
4.725992936166929
 30
0.0
 10
3.736259627836362
 20
4.67504849300945
 30
0.0
 10
3.739597222222225
 20
4.673869326372571
 30
0.0
 10
3.74913888888889
 20
4.670491548680123
 30
0.0
 10
3.764288793794953
 20
4.660969326698452
 30
0.0
 10
3.764288793794953
 20
4.640760993875625
 30
0.0
 10
3.764288793794953
 20
4.62562349425803
 30
0.0
 10
3.764288793794953
 20
4.488172108841455
 30
0.0
 10
3.764288793794953
 20
4.488172108841455
 30
0.0
  0
SPLINE
  5
54
330
1F
100
AcDbEntity
  8
Layer 1
 62
   250
420
  2301728
370
    13
100
AcDbSpline
210
0.0
220
0.0
230
1.0
 70
     8
 71
     3
 72
    14
 73
    10
 74
     0
 42
0.0000000001
 43
0.0000000001
 12
1.0
 22
0.0
 32
0.0
 13
1.0
 23
0.0
 33
0.0
 40
0.0
 40
0.0
 40
0.0
 40
0.0
 40
1.0
 40
1.0
 40
1.0
 40
2.0
 40
2.0
 40
2.0
 40
3.0
 40
3.0
 40
3.0
 40
3.0
 10
3.227390196247041
 20
4.83992487773321
 30
0.0
 10
3.227390196247041
 20
4.844984599827613
 30
0.0
 10
3.235805555555556
 20
4.861816543846847
 30
0.0
 10
3.248711029041765
 20
4.857326266182503
 30
0.0
 10
3.252806862271629
 20
4.855902777777778
 30
0.0
 10
3.422844357976121
 20
4.791530434511312
 30
0.0
 10
3.422844357976121
 20
4.791530434511312
 30
0.0
 10
3.422844357976121
 20
4.791530434511312
 30
0.0
 10
3.416761024796478
 20
4.770819444444442
 30
0.0
 10
3.416761024796478
 20
4.770819444444442
 30
0.0
  0
POLYLINE
  5
55
330
1F
100
AcDbEntity
  8
Layer 1
 62
   250
420
  2301728
370
    13
100
AcDb2dPolyline
 66
     1
 10
0.0
 20
0.0
 30
0.0
  0
VERTEX
  5
56
330
55
100
AcDbEntity
  8
Layer 1
 62
   250
420
  2301728
370
    13
100
AcDbVertex
100
AcDb2dVertex
 10
3.3994610252335
 20
4.728190158333645
 30
0.0
  0
VERTEX
  5
57
330
55
100
AcDbEntity
  8
Layer 1
 62
   250
420
  2301728
370
    13
100
AcDbVertex
100
AcDb2dVertex
 10
3.608886019942979
 20
4.79169444444445
 30
0.0
  0
VERTEX
  5
58
330
55
100
AcDbEntity
  8
Layer 1
 62
   250
420
  2301728
370
    13
100
AcDbVertex
100
AcDb2dVertex
 10
3.606086020013713
 20
4.768690157310528
 30
0.0
  0
SEQEND
  5
59
330
55
100
AcDbEntity
  8
Layer 1
 62
   250
420
  2301728
370
    13
  0
POLYLINE
  5
5A
330
1F
100
AcDbEntity
  8
Layer 1
 62
   250
420
  2301728
370
     9
100
AcDb2dPolyline
 66
     1
 10
0.0
 20
0.0
 30
0.0
  0
VERTEX
  5
5B
330
5A
100
AcDbEntity
  8
Layer 1
 62
   250
420
  2301728
370
     9
100
AcDbVertex
100
AcDb2dVertex
 10
3.096970755097269
 20
6.844359549319152
 30
0.0
  0
VERTEX
  5
5C
330
5A
100
AcDbEntity
  8
Layer 1
 62
   250
420
  2301728
370
     9
100
AcDbVertex
100
AcDb2dVertex
 10
3.286072139209055
 20
6.831970660743233
 30
0.0
  0
VERTEX
  5
5D
330
5A
100
AcDbEntity
  8
Layer 1
 62
   250
420
  2301728
370
     9
100
AcDbVertex
100
AcDb2dVertex
 10
3.271138888888888
 20
6.851698438022658
 30
0.0
  0
SEQEND
  5
5E
330
5A
100
AcDbEntity
  8
Layer 1
 62
   250
420
  2301728
370
     9
  0
POLYLINE
  5
5F
330
1F
100
AcDbEntity
  8
Layer 1
 62
   250
420
  2301728
370
     9
100
AcDb2dPolyline
 66
     1
 10
0.0
 20
0.0
 30
0.0
  0
VERTEX
  5
60
330
5F
100
AcDbEntity
  8
Layer 1
 62
   250
420
  2301728
370
     9
100
AcDbVertex
100
AcDb2dVertex
 10
3.335984637948172
 20
7.039902777777772
 30
0.0
  0
VERTEX
  5
61
330
5F
100
AcDbEntity
  8
Layer 1
 62
   250
420
  2301728
370
     9
100
AcDbVertex
100
AcDb2dVertex
 10
5.624240135697518
 20
4.857272099517204
 30
0.0
  0
SEQEND
  5
62
330
5F
100
AcDbEntity
  8
Layer 1
 62
   250
420
  2301728
370
     9
  0
SPLINE
  5
63
330
1F
100
AcDbEntity
  8
Layer 1
370
     0
100
AcDbSpline
210
0.0
220
0.0
230
1.0
 70
    11
 71
     3
 72
    74
 73
    70
 74
     0
 42
0.0000000001
 43
0.0000000001
 12
1.0
 22
0.0
 32
0.0
 13
1.0
 23
0.0
 33
0.0
 40
0.0
 40
0.0
 40
0.0
 40
0.0
 40
1.0
 40
1.0
 40
1.0
 40
2.0
 40
2.0
 40
2.0
 40
3.0
 40
3.0
 40
3.0
 40
4.0
 40
4.0
 40
4.0
 40
5.0
 40
5.0
 40
5.0
 40
6.0
 40
6.0
 40
6.0
 40
7.0
 40
7.0
 40
7.0
 40
8.0
 40
8.0
 40
8.0
 40
9.0
 40
9.0
 40
9.0
 40
10.0
 40
10.0
 40
10.0
 40
11.0
 40
11.0
 40
11.0
 40
12.0
 40
12.0
 40
12.0
 40
13.0
 40
13.0
 40
13.0
 40
14.0
 40
14.0
 40
14.0
 40
15.0
 40
15.0
 40
15.0
 40
16.0
 40
16.0
 40
16.0
 40
17.0
 40
17.0
 40
17.0
 40
18.0
 40
18.0
 40
18.0
 40
19.0
 40
19.0
 40
19.0
 40
20.0
 40
20.0
 40
20.0
 40
21.0
 40
21.0
 40
21.0
 40
22.0
 40
22.0
 40
22.0
 40
23.0
 40
23.0
 40
23.0
 40
23.0
 10
2.756666666666661
 20
5.586805555555555
 30
0.0
 10
2.756666666666661
 20
5.587680555555557
 30
0.0
 10
2.756680555555552
 20
5.613070691535237
 30
0.0
 10
2.756680555555552
 20
5.613070691535237
 30
0.0
 10
2.756680555555552
 20
5.613070691535237
 30
0.0
 10
2.790581873948415
 20
5.628444444444439
 30
0.0
 10
2.790581873948415
 20
5.628444444444439
 30
0.0
 10
2.790581873948415
 20
5.628444444444439
 30
0.0
 10
2.832288817339253
 20
5.616401247006656
 30
0.0
 10
2.832288817339253
 20
5.616401247006656
 30
0.0
 10
2.832288817339253
 20
5.616401247006656
 30
0.0
 10
2.850320761328172
 20
5.623236111111106
 30
0.0
 10
2.857638888888889
 20
5.626444444444448
 30
0.0
 10
2.864956872069544
 20
5.629706802226084
 30
0.0
 10
2.872137427443704
 20
5.637166666666669
 30
0.0
 10
2.872137427443704
 20
5.644998468506464
 30
0.0
 10
2.872137427443704
 20
5.647108190675377
 30
0.0
 10
2.872192982997856
 20
5.827066519462581
 30
0.0
 10
2.872192982997856
 20
5.827066519462581
 30
0.0
 10
2.872192982997856
 20
5.827066519462581
 30
0.0
 10
2.776719374298611
 20
5.890556795636459
 30
0.0
 10
2.776719374298611
 20
5.890556795636459
 30
0.0
 10
2.776719374298611
 20
5.890556795636459
 30
0.0
 10
2.941927703458431
 20
5.981791666666671
 30
0.0
 10
2.941927703458431
 20
5.981791666666671
 30
0.0
 10
2.941927703458431
 20
5.981791666666671
 30
0.0
 10
2.872247149663154
 20
6.013888888888888
 30
0.0
 10
2.872247149663154
 20
6.013888888888888
 30
0.0
 10
2.872247149663154
 20
6.013888888888888
 30
0.0
 10
2.872320760772406
 20
6.156236111111108
 30
0.0
 10
2.872320760772406
 20
6.156236111111108
 30
0.0
 10
2.872320760772406
 20
6.156236111111108
 30
0.0
 10
2.756930555555553
 20
6.182623454924902
 30
0.0
 10
2.756930555555553
 20
6.182623454924902
 30
0.0
 10
2.756930555555553
 20
6.182623454924902
 30
0.0
 10
2.756930555555553
 20
6.210266509782135
 30
0.0
 10
2.756930555555553
 20
6.211208333333338
 30
0.0
 10
2.756930555555553
 20
6.219001231783699
 30
0.0
 10
2.762641596876468
 20
6.226710953811157
 30
0.0
 10
2.774345763247462
 20
6.230820675929559
 30
0.0
 10
2.786024929619089
 20
6.234930555555555
 30
0.0
 10
2.855469372309219
 20
6.258179008571763
 30
0.0
 10
2.863247149890513
 20
6.260280397407566
 30
0.0
 10
2.871038816360346
 20
6.262404008465031
 30
0.0
 10
2.887016593734491
 20
6.264288730639641
 30
0.0
 10
2.900655482278833
 20
6.262667897347253
 30
0.0
 10
2.914279093045782
 20
6.261013888888884
 30
0.0
 10
4.394720722313346
 20
5.947361111111111
 30
0.0
 10
4.408583333333328
 20
5.944762349822668
 30
0.0
 10
4.422580443831773
 20
5.942138888888886
 30
0.0
 10
4.449815165365989
 20
5.936706794470612
 30
0.0
 10
4.449815165365989
 20
5.90896929517132
 30
0.0
 10
4.449815165365989
 20
5.90896929517132
 30
0.0
 10
4.449977665361883
 20
5.201823479701994
 30
0.0
 10
4.449977665361883
 20
5.192477646604756
 30
0.0
 10
4.449977665361883
 20
5.183131813507518
 30
0.0
 10
4.446505443227377
 20
5.172919313765507
 30
0.0
 10
4.438910998974785
 20
5.167073480579853
 30
0.0
 10
4.434801276856382
 20
5.163913758437451
 30
0.0
 10
4.347086001294479
 20
5.100884593363035
 30
0.0
 10
4.340847222222211
 20
5.096733204579019
 30
0.0
 10
4.332980446095259
 20
5.091498482489038
 30
0.0
 10
4.318670724234531
 20
5.091783204704067
 30
0.0
 10
4.29969572471388
 20
5.097330426786154
 30
0.0
 10
4.288615169438243
 20
5.100558204482391
 30
0.0
 10
2.782442985265144
 20
5.560960970629417
 30
0.0
 10
2.773695763263883
 20
5.563862359445011
 30
0.0
 10
2.764959652373464
 20
5.566806803815072
 30
0.0
 10
2.756680555555552
 20
5.572542914781277
 30
0.0
 10
2.756666666666661
 20
5.586805555555555
 30
0.0
  0
HATCH
  5
64
330
1F
100
AcDbEntity
  8
Layer 1
 62
   253
420
 10987947
100
AcDbHatch
 10
0.0
 20
0.0
 30
0.0
210
0.0
220
0.0
230
1.0
  2
SOLID
 70
     1
 71
     0
 91
        1
 92
        1
 93
        2
 72
     4
 94
        3
 73
     0
 74
     0
 95
       74
 96
       70
 40
0.0
 40
0.0
 40
0.0
 40
0.0
 40
0.0138888888888889
 40
0.0138888888888889
 40
0.0138888888888889
 40
0.0277777777777778
 40
0.0277777777777778
 40
0.0277777777777778
 40
0.0416666666666667
 40
0.0416666666666667
 40
0.0416666666666667
 40
0.0555555555555556
 40
0.0555555555555556
 40
0.0555555555555556
 40
0.0694444444444444
 40
0.0694444444444444
 40
0.0694444444444444
 40
0.0833333333333333
 40
0.0833333333333333
 40
0.0833333333333333
 40
0.0972222222222222
 40
0.0972222222222222
 40
0.0972222222222222
 40
0.1111111111111111
 40
0.1111111111111111
 40
0.1111111111111111
 40
0.125
 40
0.125
 40
0.125
 40
0.1388888888888889
 40
0.1388888888888889
 40
0.1388888888888889
 40
0.1527777777777778
 40
0.1527777777777778
 40
0.1527777777777778
 40
0.1666666666666667
 40
0.1666666666666667
 40
0.1666666666666667
 40
0.1805555555555556
 40
0.1805555555555556
 40
0.1805555555555556
 40
0.1944444444444444
 40
0.1944444444444444
 40
0.1944444444444444
 40
0.2083333333333333
 40
0.2083333333333333
 40
0.2083333333333333
 40
0.2222222222222222
 40
0.2222222222222222
 40
0.2222222222222222
 40
0.2361111111111111
 40
0.2361111111111111
 40
0.2361111111111111
 40
0.25
 40
0.25
 40
0.25
 40
0.2638888888888889
 40
0.2638888888888889
 40
0.2638888888888889
 40
0.2777777777777778
 40
0.2777777777777778
 40
0.2777777777777778
 40
0.2916666666666666
 40
0.2916666666666666
 40
0.2916666666666666
 40
0.3055555555555555
 40
0.3055555555555555
 40
0.3055555555555555
 40
0.3194444444444444
 40
0.3194444444444444
 40
0.3194444444444444
 40
0.3194444444444444
 10
2.756666666666661
 20
5.586805555555555
 10
2.756666666666661
 20
5.587680555555557
 10
2.756680555555552
 20
5.613070691535237
 10
2.756680555555552
 20
5.613070691535237
 10
2.756680555555552
 20
5.613070691535237
 10
2.790581873948415
 20
5.628444444444439
 10
2.790581873948415
 20
5.628444444444439
 10
2.790581873948415
 20
5.628444444444439
 10
2.832288817339253
 20
5.616401247006656
 10
2.832288817339253
 20
5.616401247006656
 10
2.832288817339253
 20
5.616401247006656
 10
2.850320761328172
 20
5.623236111111106
 10
2.857638888888889
 20
5.626444444444448
 10
2.864956872069544
 20
5.629706802226084
 10
2.872137427443704
 20
5.637166666666669
 10
2.872137427443704
 20
5.644998468506464
 10
2.872137427443704
 20
5.647108190675377
 10
2.872192982997856
 20
5.827066519462581
 10
2.872192982997856
 20
5.827066519462581
 10
2.872192982997856
 20
5.827066519462581
 10
2.776719374298611
 20
5.890556795636459
 10
2.776719374298611
 20
5.890556795636459
 10
2.776719374298611
 20
5.890556795636459
 10
2.941927703458431
 20
5.981791666666671
 10
2.941927703458431
 20
5.981791666666671
 10
2.941927703458431
 20
5.981791666666671
 10
2.872247149663154
 20
6.013888888888888
 10
2.872247149663154
 20
6.013888888888888
 10
2.872247149663154
 20
6.013888888888888
 10
2.872320760772406
 20
6.156236111111108
 10
2.872320760772406
 20
6.156236111111108
 10
2.872320760772406
 20
6.156236111111108
 10
2.756930555555553
 20
6.182623454924902
 10
2.756930555555553
 20
6.182623454924902
 10
2.756930555555553
 20
6.182623454924902
 10
2.756930555555553
 20
6.210266509782135
 10
2.756930555555553
 20
6.211208333333338
 10
2.756930555555553
 20
6.219001231783699
 10
2.762641596876468
 20
6.226710953811157
 10
2.774345763247462
 20
6.230820675929559
 10
2.786024929619089
 20
6.234930555555555
 10
2.855469372309219
 20
6.258179008571763
 10
2.863247149890513
 20
6.260280397407566
 10
2.871038816360346
 20
6.262404008465031
 10
2.887016593734491
 20
6.264288730639641
 10
2.900655482278833
 20
6.262667897347253
 10
2.914279093045782
 20
6.261013888888884
 10
4.394720722313346
 20
5.947361111111111
 10
4.408583333333328
 20
5.944762349822668
 10
4.422580443831773
 20
5.942138888888886
 10
4.449815165365989
 20
5.936706794470612
 10
4.449815165365989
 20
5.90896929517132
 10
4.449815165365989
 20
5.90896929517132
 10
4.449977665361883
 20
5.201823479701994
 10
4.449977665361883
 20
5.192477646604756
 10
4.449977665361883
 20
5.183131813507518
 10
4.446505443227377
 20
5.172919313765507
 10
4.438910998974785
 20
5.167073480579853
 10
4.434801276856382
 20
5.163913758437451
 10
4.347086001294479
 20
5.100884593363035
 10
4.340847222222211
 20
5.096733204579019
 10
4.332980446095259
 20
5.091498482489038
 10
4.318670724234531
 20
5.091783204704067
 10
4.29969572471388
 20
5.097330426786154
 10
4.288615169438243
 20
5.100558204482391
 10
2.782442985265144
 20
5.560960970629417
 10
2.773695763263883
 20
5.563862359445011
 10
2.764959652373464
 20
5.566806803815072
 10
2.756680555555552
 20
5.572542914781277
 10
2.756666666666661
 20
5.586805555555555
 97
        0
 72
     1
 10
2.756666666666661
 20
5.586805555555555
 11
2.756666666666661
 21
5.586805555555555
 97
        0
 75
     2
 76
     1
 98
        0
  0
SPLINE
  5
65
330
1F
100
AcDbEntity
  8
Layer 1
 62
   250
420
  2301728
370
    18
100
AcDbSpline
210
0.0
220
0.0
230
1.0
 70
    11
 71
     3
 72
    74
 73
    70
 74
     0
 42
0.0000000001
 43
0.0000000001
 12
1.0
 22
0.0
 32
0.0
 13
1.0
 23
0.0
 33
0.0
 40
0.0
 40
0.0
 40
0.0
 40
0.0
 40
1.0
 40
1.0
 40
1.0
 40
2.0
 40
2.0
 40
2.0
 40
3.0
 40
3.0
 40
3.0
 40
4.0
 40
4.0
 40
4.0
 40
5.0
 40
5.0
 40
5.0
 40
6.0
 40
6.0
 40
6.0
 40
7.0
 40
7.0
 40
7.0
 40
8.0
 40
8.0
 40
8.0
 40
9.0
 40
9.0
 40
9.0
 40
10.0
 40
10.0
 40
10.0
 40
11.0
 40
11.0
 40
11.0
 40
12.0
 40
12.0
 40
12.0
 40
13.0
 40
13.0
 40
13.0
 40
14.0
 40
14.0
 40
14.0
 40
15.0
 40
15.0
 40
15.0
 40
16.0
 40
16.0
 40
16.0
 40
17.0
 40
17.0
 40
17.0
 40
18.0
 40
18.0
 40
18.0
 40
19.0
 40
19.0
 40
19.0
 40
20.0
 40
20.0
 40
20.0
 40
21.0
 40
21.0
 40
21.0
 40
22.0
 40
22.0
 40
22.0
 40
23.0
 40
23.0
 40
23.0
 40
23.0
 10
2.756666666666661
 20
5.586805555555555
 30
0.0
 10
2.756666666666661
 20
5.587680555555557
 30
0.0
 10
2.756680555555552
 20
5.613070691535237
 30
0.0
 10
2.756680555555552
 20
5.613070691535237
 30
0.0
 10
2.756680555555552
 20
5.613070691535237
 30
0.0
 10
2.790581873948415
 20
5.628444444444439
 30
0.0
 10
2.790581873948415
 20
5.628444444444439
 30
0.0
 10
2.790581873948415
 20
5.628444444444439
 30
0.0
 10
2.832288817339253
 20
5.616401247006656
 30
0.0
 10
2.832288817339253
 20
5.616401247006656
 30
0.0
 10
2.832288817339253
 20
5.616401247006656
 30
0.0
 10
2.850320761328172
 20
5.623236111111106
 30
0.0
 10
2.857638888888889
 20
5.626444444444448
 30
0.0
 10
2.864956872069544
 20
5.629706802226084
 30
0.0
 10
2.872137427443704
 20
5.637166666666669
 30
0.0
 10
2.872137427443704
 20
5.644998468506464
 30
0.0
 10
2.872137427443704
 20
5.647108190675377
 30
0.0
 10
2.872192982997856
 20
5.827066519462581
 30
0.0
 10
2.872192982997856
 20
5.827066519462581
 30
0.0
 10
2.872192982997856
 20
5.827066519462581
 30
0.0
 10
2.776719374298611
 20
5.890556795636459
 30
0.0
 10
2.776719374298611
 20
5.890556795636459
 30
0.0
 10
2.776719374298611
 20
5.890556795636459
 30
0.0
 10
2.941927703458431
 20
5.981791666666671
 30
0.0
 10
2.941927703458431
 20
5.981791666666671
 30
0.0
 10
2.941927703458431
 20
5.981791666666671
 30
0.0
 10
2.872247149663154
 20
6.013888888888888
 30
0.0
 10
2.872247149663154
 20
6.013888888888888
 30
0.0
 10
2.872247149663154
 20
6.013888888888888
 30
0.0
 10
2.872320760772406
 20
6.156236111111108
 30
0.0
 10
2.872320760772406
 20
6.156236111111108
 30
0.0
 10
2.872320760772406
 20
6.156236111111108
 30
0.0
 10
2.756930555555553
 20
6.182623454924902
 30
0.0
 10
2.756930555555553
 20
6.182623454924902
 30
0.0
 10
2.756930555555553
 20
6.182623454924902
 30
0.0
 10
2.756930555555553
 20
6.210266509782135
 30
0.0
 10
2.756930555555553
 20
6.211208333333338
 30
0.0
 10
2.756930555555553
 20
6.219001231783699
 30
0.0
 10
2.762641596876468
 20
6.226710953811157
 30
0.0
 10
2.774345763247462
 20
6.230820675929559
 30
0.0
 10
2.786024929619089
 20
6.234930555555555
 30
0.0
 10
2.855469372309219
 20
6.258179008571763
 30
0.0
 10
2.863247149890513
 20
6.260280397407566
 30
0.0
 10
2.871038816360346
 20
6.262404008465031
 30
0.0
 10
2.887016593734491
 20
6.264288730639641
 30
0.0
 10
2.900655482278833
 20
6.262667897347253
 30
0.0
 10
2.914279093045782
 20
6.261013888888884
 30
0.0
 10
4.394720722313346
 20
5.947361111111111
 30
0.0
 10
4.408583333333328
 20
5.944762349822668
 30
0.0
 10
4.422580443831773
 20
5.942138888888886
 30
0.0
 10
4.449815165365989
 20
5.936706794470612
 30
0.0
 10
4.449815165365989
 20
5.90896929517132
 30
0.0
 10
4.449815165365989
 20
5.90896929517132
 30
0.0
 10
4.449977665361883
 20
5.201823479701994
 30
0.0
 10
4.449977665361883
 20
5.192477646604756
 30
0.0
 10
4.449977665361883
 20
5.183131813507518
 30
0.0
 10
4.446505443227377
 20
5.172919313765507
 30
0.0
 10
4.438910998974785
 20
5.167073480579853
 30
0.0
 10
4.434801276856382
 20
5.163913758437451
 30
0.0
 10
4.347086001294479
 20
5.100884593363035
 30
0.0
 10
4.340847222222211
 20
5.096733204579019
 30
0.0
 10
4.332980446095259
 20
5.091498482489038
 30
0.0
 10
4.318670724234531
 20
5.091783204704067
 30
0.0
 10
4.29969572471388
 20
5.097330426786154
 30
0.0
 10
4.288615169438243
 20
5.100558204482391
 30
0.0
 10
2.782442985265144
 20
5.560960970629417
 30
0.0
 10
2.773695763263883
 20
5.563862359445011
 30
0.0
 10
2.764959652373464
 20
5.566806803815072
 30
0.0
 10
2.756680555555552
 20
5.572542914781277
 30
0.0
 10
2.756666666666661
 20
5.586805555555555
 30
0.0
  0
SPLINE
  5
66
330
1F
100
AcDbEntity
  8
Layer 1
370
     0
100
AcDbSpline
210
0.0
220
0.0
230
1.0
 70
    11
 71
     3
 72
   116
 73
   112
 74
     0
 42
0.0000000001
 43
0.0000000001
 12
1.0
 22
0.0
 32
0.0
 13
1.0
 23
0.0
 33
0.0
 40
0.0
 40
0.0
 40
0.0
 40
0.0
 40
1.0
 40
1.0
 40
1.0
 40
2.0
 40
2.0
 40
2.0
 40
3.0
 40
3.0
 40
3.0
 40
4.0
 40
4.0
 40
4.0
 40
5.0
 40
5.0
 40
5.0
 40
6.0
 40
6.0
 40
6.0
 40
7.0
 40
7.0
 40
7.0
 40
8.0
 40
8.0
 40
8.0
 40
9.0
 40
9.0
 40
9.0
 40
10.0
 40
10.0
 40
10.0
 40
11.0
 40
11.0
 40
11.0
 40
12.0
 40
12.0
 40
12.0
 40
13.0
 40
13.0
 40
13.0
 40
14.0
 40
14.0
 40
14.0
 40
15.0
 40
15.0
 40
15.0
 40
16.0
 40
16.0
 40
16.0
 40
17.0
 40
17.0
 40
17.0
 40
18.0
 40
18.0
 40
18.0
 40
19.0
 40
19.0
 40
19.0
 40
20.0
 40
20.0
 40
20.0
 40
21.0
 40
21.0
 40
21.0
 40
22.0
 40
22.0
 40
22.0
 40
23.0
 40
23.0
 40
23.0
 40
24.0
 40
24.0
 40
24.0
 40
25.0
 40
25.0
 40
25.0
 40
26.0
 40
26.0
 40
26.0
 40
27.0
 40
27.0
 40
27.0
 40
28.0
 40
28.0
 40
28.0
 40
29.0
 40
29.0
 40
29.0
 40
30.0
 40
30.0
 40
30.0
 40
31.0
 40
31.0
 40
31.0
 40
32.0
 40
32.0
 40
32.0
 40
33.0
 40
33.0
 40
33.0
 40
34.0
 40
34.0
 40
34.0
 40
35.0
 40
35.0
 40
35.0
 40
36.0
 40
36.0
 40
36.0
 40
37.0
 40
37.0
 40
37.0
 40
37.0
 10
4.624267938736718
 20
5.256130422774529
 30
0.0
 10
4.624267938736718
 20
5.268229033580003
 30
0.0
 10
4.636583333333343
 20
5.273573477889436
 30
0.0
 10
4.636583333333343
 20
5.284966533157179
 30
0.0
 10
4.636583333333343
 20
5.289617921928564
 30
0.0
 10
4.636338771765117
 20
5.75413735463826
 30
0.0
 10
4.636338771765117
 20
5.75413735463826
 30
0.0
 10
4.636338771765117
 20
5.75413735463826
 30
0.0
 10
4.5910234951321
 20
5.822638888888883
 30
0.0
 10
4.5910234951321
 20
5.822638888888883
 30
0.0
 10
4.5910234951321
 20
5.822638888888883
 30
0.0
 10
4.482041666666671
 20
5.848123463375082
 30
0.0
 10
4.482041666666671
 20
5.848123463375082
 30
0.0
 10
4.482041666666671
 20
5.848123463375082
 30
0.0
 10
4.46506099831418
 20
5.84104429688725
 30
0.0
 10
4.46506099831418
 20
5.84104429688725
 30
0.0
 10
4.46506099831418
 20
5.84104429688725
 30
0.0
 10
4.433919332434217
 20
5.797166666666663
 30
0.0
 10
4.433919332434217
 20
5.797166666666663
 30
0.0
 10
4.433919332434217
 20
5.797166666666663
 30
0.0
 10
4.433919332434217
 20
5.338595698469058
 30
0.0
 10
4.433919332434217
 20
5.320719310031765
 30
0.0
 10
4.433919332434217
 20
5.305202643757083
 30
0.0
 10
4.447888888888883
 20
5.298067921715099
 30
0.0
 10
4.447888888888883
 20
5.284938755380103
 30
0.0
 10
4.447888888888883
 20
5.271809589045106
 30
0.0
 10
4.432454054693456
 20
5.276285977820913
 30
0.0
 10
4.432454054693456
 20
5.2563207005475
 30
0.0
 10
4.432454054693456
 20
5.2563207005475
 30
0.0
 10
4.432399888028158
 20
5.172580424885179
 30
0.0
 10
4.432399888028158
 20
5.172580424885179
 30
0.0
 10
4.432399888028158
 20
5.164062369544808
 30
0.0
 10
4.433756832438323
 20
5.156005425303899
 30
0.0
 10
4.424913777106162
 20
5.150227647672081
 30
0.0
 10
4.424099888237834
 20
5.14971236990732
 30
0.0
 10
4.421034610537491
 20
5.147745703290335
 30
0.0
 10
4.420002666119116
 20
5.147108203306439
 30
0.0
 10
4.414497110702643
 20
5.143717925614308
 30
0.0
 10
4.410942944125761
 20
5.136338759134055
 30
0.0
 10
4.410942944125761
 20
5.129909592629802
 30
0.0
 10
4.410942944125761
 20
5.12348042612555
 30
0.0
 10
4.410942944125761
 20
4.885498487693035
 30
0.0
 10
4.410942944125761
 20
4.885498487693035
 30
0.0
 10
4.410942944125761
 20
4.885498487693035
 30
0.0
 10
4.426351277069847
 20
4.881876265562318
 30
0.0
 10
4.426351277069847
 20
4.881876265562318
 30
0.0
 10
4.426351277069847
 20
4.881876265562318
 30
0.0
 10
4.426351277069847
 20
4.836615155594599
 30
0.0
 10
4.426351277069847
 20
4.823947100359065
 30
0.0
 10
4.426351277069847
 20
4.811265156234994
 30
0.0
 10
4.438109610106141
 20
4.814236111111111
 30
0.0
 10
4.438109610106141
 20
4.79983182319049
 30
0.0
 10
4.438109610106141
 20
4.781710990314928
 30
0.0
 10
4.426486111111116
 20
4.784750000000005
 30
0.0
 10
4.426486111111116
 20
4.768445712872259
 30
0.0
 10
4.426486111111116
 20
4.74937626890955
 30
0.0
 10
4.426622110396339
 20
4.256455448028444
 30
0.0
 10
4.426622110396339
 20
4.256455448028444
 30
0.0
 10
4.426622110396339
 20
4.256455448028444
 30
0.0
 10
4.446492943227693
 20
4.229952670920182
 30
0.0
 10
4.446492943227693
 20
4.229952670920182
 30
0.0
 10
4.446492943227693
 20
4.229952670920182
 30
0.0
 10
4.480862386803892
 20
4.215874999999995
 30
0.0
 10
4.480862386803892
 20
4.215874999999995
 30
0.0
 10
4.480862386803892
 20
4.215874999999995
 30
0.0
 10
4.555202662703676
 20
4.28771933612754
 30
0.0
 10
4.555202662703676
 20
4.28771933612754
 30
0.0
 10
4.559149884826184
 20
4.282266558487511
 30
0.0
 10
4.564683218019733
 20
4.278848503018303
 30
0.0
 10
4.570827662308956
 20
4.278848503018303
 30
0.0
 10
4.582844328672055
 20
4.278848503018303
 30
0.0
 10
4.592583333333323
 20
4.291761002692106
 30
0.0
 10
4.592583333333323
 20
4.307698502289491
 30
0.0
 10
4.592583333333323
 20
4.319580446433772
 30
0.0
 10
4.587144328563428
 20
4.329779057287245
 30
0.0
 10
4.579399884314626
 20
4.334201279397752
 30
0.0
 10
4.579399884314626
 20
4.334201279397752
 30
0.0
 10
4.579399884314626
 20
4.586913773013698
 30
0.0
 10
4.579399884314626
 20
4.586913773013698
 30
0.0
 10
4.586127661922445
 20
4.59182349511189
 30
0.0
 10
4.59073877291707
 20
4.601183217097665
 30
0.0
 10
4.59073877291707
 20
4.61208738348887
 30
0.0
 10
4.59073877291707
 20
4.622965160991852
 30
0.0
 10
4.586127661922445
 20
4.63235127186585
 30
0.0
 10
4.579399884314626
 20
4.637260993964042
 30
0.0
 10
4.579399884314626
 20
4.637260993964042
 30
0.0
 10
4.579399884314626
 20
4.857285988405743
 30
0.0
 10
4.579399884314626
 20
4.857285988405743
 30
0.0
 10
4.579399884314626
 20
4.87632904348023
 30
0.0
 10
4.562010995865017
 20
4.87220543247329
 30
0.0
 10
4.562010995865017
 20
4.88338182107984
 30
0.0
 10
4.562010995865017
 20
4.894558209686389
 30
0.0
 10
4.579399884314626
 20
4.894558209686389
 30
0.0
 10
4.579399884314626
 20
4.914848486951592
 30
0.0
 10
4.579399884314626
 20
4.926024875558142
 30
0.0
 10
4.579820717637327
 20
4.974066541011173
 30
0.0
 10
4.579820717637327
 20
4.974066541011173
 30
0.0
 10
4.579820717637327
 20
4.974066541011173
 30
0.0
 10
4.539659607540771
 20
5.018365151003207
 30
0.0
 10
4.539659607540771
 20
5.018365151003207
 30
0.0
 10
4.539659607540771
 20
5.018365151003207
 30
0.0
 10
4.621635994358763
 20
5.116088759645613
 30
0.0
 10
4.629095716392536
 20
5.125623481626968
 30
0.0
 10
4.63655555555556
 20
5.135145703608638
 30
0.0
 10
4.636827660641655
 20
5.147976258840067
 30
0.0
 10
4.636827660641655
 20
5.155015147551138
 30
0.0
 10
4.636827660641655
 20
5.162055555555551
 30
0.0
 10
4.636827660641655
 20
5.230794312303462
 30
0.0
 10
4.636827660641655
 20
5.230794312303462
 30
0.0
 10
4.636827660641655
 20
5.244276256407324
 30
0.0
 10
4.624267938736718
 20
5.24405958974613
 30
0.0
 10
4.624267938736718
 20
5.256130422774529
 30
0.0
  0
SPLINE
  5
67
330
1F
100
AcDbEntity
  8
Layer 1
370
     0
100
AcDbSpline
210
0.0
220
0.0
230
1.0
 70
    11
 71
     3
 72
    17
 73
    13
 74
     0
 42
0.0000000001
 43
0.0000000001
 12
1.0
 22
0.0
 32
0.0
 13
1.0
 23
0.0
 33
0.0
 40
0.0
 40
0.0
 40
0.0
 40
0.0
 40
1.0
 40
1.0
 40
1.0
 40
2.0
 40
2.0
 40
2.0
 40
3.0
 40
3.0
 40
3.0
 40
4.0
 40
4.0
 40
4.0
 40
4.0
 10
4.529405441133147
 20
4.343206834725808
 30
0.0
 10
4.528238774495953
 20
4.327080446244306
 30
0.0
 10
4.519233219167896
 20
4.31391100213255
 30
0.0
 10
4.508381830553136
 20
4.311549891081086
 30
0.0
 10
4.505072108414525
 20
4.317383224267056
 30
0.0
 10
4.503281830681973
 20
4.325195724069696
 30
0.0
 10
4.503879052889109
 20
4.333822112740664
 30
0.0
 10
4.505017941749227
 20
4.349934612333628
 30
0.0
 10
4.514079052631435
 20
4.363117945333922
 30
0.0
 10
4.524874999999989
 20
4.365479056385387
 30
0.0
 10
4.528212385607731
 20
4.359633223199731
 30
0.0
 10
4.53005683000558
 20
4.351833333333338
 30
0.0
 10
4.529405441133147
 20
4.343206834725808
 30
0.0
  0
SPLINE
  5
68
330
1F
100
AcDbEntity
  8
Layer 1
370
     0
100
AcDbSpline
210
0.0
220
0.0
230
1.0
 70
    11
 71
     3
 72
    17
 73
    13
 74
     0
 42
0.0000000001
 43
0.0000000001
 12
1.0
 22
0.0
 32
0.0
 13
1.0
 23
0.0
 33
0.0
 40
0.0
 40
0.0
 40
0.0
 40
0.0
 40
1.0
 40
1.0
 40
1.0
 40
2.0
 40
2.0
 40
2.0
 40
3.0
 40
3.0
 40
3.0
 40
4.0
 40
4.0
 40
4.0
 40
4.0
 10
4.552626273879873
 20
5.708930555555551
 30
0.0
 10
4.540880440843264
 20
5.712402777777773
 30
0.0
 10
4.527045718970536
 20
5.726331799785144
 30
0.0
 10
4.52560821900685
 20
5.74372068823474
 30
0.0
 10
4.52469849680761
 20
5.754902777777779
 30
0.0
 10
4.529160996694878
 20
5.764987354364166
 30
0.0
 10
4.535373496537937
 20
5.771863743079343
 30
0.0
 10
4.546712385140381
 20
5.768222222222221
 30
0.0
 10
4.559095718160885
 20
5.753058187998855
 30
0.0
 10
4.56053321812457
 20
5.735555555555556
 30
0.0
 10
4.561415162546735
 20
5.72477902204658
 30
0.0
 10
4.557915162635153
 20
5.715399855616852
 30
0.0
 10
4.552626273879873
 20
5.708930555555551
 30
0.0
  0
HATCH
  5
69
330
1F
100
AcDbEntity
  8
Layer 1
 62
   254
420
 13358815
100
AcDbHatch
 10
0.0
 20
0.0
 30
0.0
210
0.0
220
0.0
230
1.0
  2
SOLID
 70
     1
 71
     0
 91
        3
 92
        1
 93
        1
 72
     4
 94
        3
 73
     0
 74
     1
 95
      116
 96
      112
 40
0.0
 40
0.0
 40
0.0
 40
0.0
 40
1.0
 40
1.0
 40
1.0
 40
2.0
 40
2.0
 40
2.0
 40
3.0
 40
3.0
 40
3.0
 40
4.0
 40
4.0
 40
4.0
 40
5.0
 40
5.0
 40
5.0
 40
6.0
 40
6.0
 40
6.0
 40
7.0
 40
7.0
 40
7.0
 40
8.0
 40
8.0
 40
8.0
 40
9.0
 40
9.0
 40
9.0
 40
10.0
 40
10.0
 40
10.0
 40
11.0
 40
11.0
 40
11.0
 40
12.0
 40
12.0
 40
12.0
 40
13.0
 40
13.0
 40
13.0
 40
14.0
 40
14.0
 40
14.0
 40
15.0
 40
15.0
 40
15.0
 40
16.0
 40
16.0
 40
16.0
 40
17.0
 40
17.0
 40
17.0
 40
18.0
 40
18.0
 40
18.0
 40
19.0
 40
19.0
 40
19.0
 40
20.0
 40
20.0
 40
20.0
 40
21.0
 40
21.0
 40
21.0
 40
22.0
 40
22.0
 40
22.0
 40
23.0
 40
23.0
 40
23.0
 40
24.0
 40
24.0
 40
24.0
 40
25.0
 40
25.0
 40
25.0
 40
26.0
 40
26.0
 40
26.0
 40
27.0
 40
27.0
 40
27.0
 40
28.0
 40
28.0
 40
28.0
 40
29.0
 40
29.0
 40
29.0
 40
30.0
 40
30.0
 40
30.0
 40
31.0
 40
31.0
 40
31.0
 40
32.0
 40
32.0
 40
32.0
 40
33.0
 40
33.0
 40
33.0
 40
34.0
 40
34.0
 40
34.0
 40
35.0
 40
35.0
 40
35.0
 40
36.0
 40
36.0
 40
36.0
 40
37.0
 40
37.0
 40
37.0
 40
37.0
 10
4.624267938736718
 20
5.256130422774529
 10
4.624267938736718
 20
5.268229033580003
 10
4.636583333333343
 20
5.273573477889436
 10
4.636583333333343
 20
5.284966533157179
 10
4.636583333333343
 20
5.289617921928564
 10
4.636338771765117
 20
5.75413735463826
 10
4.636338771765117
 20
5.75413735463826
 10
4.636338771765117
 20
5.75413735463826
 10
4.5910234951321
 20
5.822638888888883
 10
4.5910234951321
 20
5.822638888888883
 10
4.5910234951321
 20
5.822638888888883
 10
4.482041666666671
 20
5.848123463375082
 10
4.482041666666671
 20
5.848123463375082
 10
4.482041666666671
 20
5.848123463375082
 10
4.46506099831418
 20
5.84104429688725
 10
4.46506099831418
 20
5.84104429688725
 10
4.46506099831418
 20
5.84104429688725
 10
4.433919332434217
 20
5.797166666666663
 10
4.433919332434217
 20
5.797166666666663
 10
4.433919332434217
 20
5.797166666666663
 10
4.433919332434217
 20
5.338595698469058
 10
4.433919332434217
 20
5.320719310031765
 10
4.433919332434217
 20
5.305202643757083
 10
4.447888888888883
 20
5.298067921715099
 10
4.447888888888883
 20
5.284938755380103
 10
4.447888888888883
 20
5.271809589045106
 10
4.432454054693456
 20
5.276285977820913
 10
4.432454054693456
 20
5.2563207005475
 10
4.432454054693456
 20
5.2563207005475
 10
4.432399888028158
 20
5.172580424885179
 10
4.432399888028158
 20
5.172580424885179
 10
4.432399888028158
 20
5.164062369544808
 10
4.433756832438323
 20
5.156005425303899
 10
4.424913777106162
 20
5.150227647672081
 10
4.424099888237834
 20
5.14971236990732
 10
4.421034610537491
 20
5.147745703290335
 10
4.420002666119116
 20
5.147108203306439
 10
4.414497110702643
 20
5.143717925614308
 10
4.410942944125761
 20
5.136338759134055
 10
4.410942944125761
 20
5.129909592629802
 10
4.410942944125761
 20
5.12348042612555
 10
4.410942944125761
 20
4.885498487693035
 10
4.410942944125761
 20
4.885498487693035
 10
4.410942944125761
 20
4.885498487693035
 10
4.426351277069847
 20
4.881876265562318
 10
4.426351277069847
 20
4.881876265562318
 10
4.426351277069847
 20
4.881876265562318
 10
4.426351277069847
 20
4.836615155594599
 10
4.426351277069847
 20
4.823947100359065
 10
4.426351277069847
 20
4.811265156234994
 10
4.438109610106141
 20
4.814236111111111
 10
4.438109610106141
 20
4.79983182319049
 10
4.438109610106141
 20
4.781710990314928
 10
4.426486111111116
 20
4.784750000000005
 10
4.426486111111116
 20
4.768445712872259
 10
4.426486111111116
 20
4.74937626890955
 10
4.426622110396339
 20
4.256455448028444
 10
4.426622110396339
 20
4.256455448028444
 10
4.426622110396339
 20
4.256455448028444
 10
4.446492943227693
 20
4.229952670920182
 10
4.446492943227693
 20
4.229952670920182
 10
4.446492943227693
 20
4.229952670920182
 10
4.480862386803892
 20
4.215874999999995
 10
4.480862386803892
 20
4.215874999999995
 10
4.480862386803892
 20
4.215874999999995
 10
4.555202662703676
 20
4.28771933612754
 10
4.555202662703676
 20
4.28771933612754
 10
4.559149884826184
 20
4.282266558487511
 10
4.564683218019733
 20
4.278848503018303
 10
4.570827662308956
 20
4.278848503018303
 10
4.582844328672055
 20
4.278848503018303
 10
4.592583333333323
 20
4.291761002692106
 10
4.592583333333323
 20
4.307698502289491
 10
4.592583333333323
 20
4.319580446433772
 10
4.587144328563428
 20
4.329779057287245
 10
4.579399884314626
 20
4.334201279397752
 10
4.579399884314626
 20
4.334201279397752
 10
4.579399884314626
 20
4.586913773013698
 10
4.579399884314626
 20
4.586913773013698
 10
4.586127661922445
 20
4.59182349511189
 10
4.59073877291707
 20
4.601183217097665
 10
4.59073877291707
 20
4.61208738348887
 10
4.59073877291707
 20
4.622965160991852
 10
4.586127661922445
 20
4.63235127186585
 10
4.579399884314626
 20
4.637260993964042
 10
4.579399884314626
 20
4.637260993964042
 10
4.579399884314626
 20
4.857285988405743
 10
4.579399884314626
 20
4.857285988405743
 10
4.579399884314626
 20
4.87632904348023
 10
4.562010995865017
 20
4.87220543247329
 10
4.562010995865017
 20
4.88338182107984
 10
4.562010995865017
 20
4.894558209686389
 10
4.579399884314626
 20
4.894558209686389
 10
4.579399884314626
 20
4.914848486951592
 10
4.579399884314626
 20
4.926024875558142
 10
4.579820717637327
 20
4.974066541011173
 10
4.579820717637327
 20
4.974066541011173
 10
4.579820717637327
 20
4.974066541011173
 10
4.539659607540771
 20
5.018365151003207
 10
4.539659607540771
 20
5.018365151003207
 10
4.539659607540771
 20
5.018365151003207
 10
4.621635994358763
 20
5.116088759645613
 10
4.629095716392536
 20
5.125623481626968
 10
4.63655555555556
 20
5.135145703608638
 10
4.636827660641655
 20
5.147976258840067
 10
4.636827660641655
 20
5.155015147551138
 10
4.636827660641655
 20
5.162055555555551
 10
4.636827660641655
 20
5.230794312303462
 10
4.636827660641655
 20
5.230794312303462
 10
4.636827660641655
 20
5.244276256407324
 10
4.624267938736718
 20
5.24405958974613
 10
4.624267938736718
 20
5.256130422774529
 97
        0
 97
        0
 92
        1
 93
        1
 72
     4
 94
        3
 73
     0
 74
     1
 95
       17
 96
       13
 40
0.0
 40
0.0
 40
0.0
 40
0.0
 40
1.0
 40
1.0
 40
1.0
 40
2.0
 40
2.0
 40
2.0
 40
3.0
 40
3.0
 40
3.0
 40
4.0
 40
4.0
 40
4.0
 40
4.0
 10
4.529405441133147
 20
4.343206834725808
 10
4.528238774495953
 20
4.327080446244306
 10
4.519233219167896
 20
4.31391100213255
 10
4.508381830553136
 20
4.311549891081086
 10
4.505072108414525
 20
4.317383224267056
 10
4.503281830681973
 20
4.325195724069696
 10
4.503879052889109
 20
4.333822112740664
 10
4.505017941749227
 20
4.349934612333628
 10
4.514079052631435
 20
4.363117945333922
 10
4.524874999999989
 20
4.365479056385387
 10
4.528212385607731
 20
4.359633223199731
 10
4.53005683000558
 20
4.351833333333338
 10
4.529405441133147
 20
4.343206834725808
 97
        0
 97
        0
 92
        1
 93
        2
 72
     4
 94
        3
 73
     0
 74
     0
 95
       17
 96
       13
 40
0.0
 40
0.0
 40
0.0
 40
0.0
 40
0.0138888888888889
 40
0.0138888888888889
 40
0.0138888888888889
 40
0.0277777777777778
 40
0.0277777777777778
 40
0.0277777777777778
 40
0.0416666666666667
 40
0.0416666666666667
 40
0.0416666666666667
 40
0.0555555555555556
 40
0.0555555555555556
 40
0.0555555555555556
 40
0.0555555555555556
 10
4.552626273879873
 20
5.708930555555551
 10
4.540880440843264
 20
5.712402777777773
 10
4.527045718970536
 20
5.726331799785144
 10
4.52560821900685
 20
5.74372068823474
 10
4.52469849680761
 20
5.754902777777779
 10
4.529160996694878
 20
5.764987354364166
 10
4.535373496537937
 20
5.771863743079343
 10
4.546712385140381
 20
5.768222222222221
 10
4.559095718160885
 20
5.753058187998855
 10
4.56053321812457
 20
5.735555555555556
 10
4.561415162546735
 20
5.72477902204658
 10
4.557915162635153
 20
5.715399855616852
 10
4.552626273879873
 20
5.708930555555551
 97
        0
 72
     1
 10
4.552626273879873
 20
5.708930555555551
 11
4.552626273879873
 21
5.708930555555551
 97
        0
 75
     2
 76
     1
 98
        0
  0
SPLINE
  5
6A
330
1F
100
AcDbEntity
  8
Layer 1
 62
   250
420
  2301728
370
    18
100
AcDbSpline
210
0.0
220
0.0
230
1.0
 70
    11
 71
     3
 72
   116
 73
   112
 74
     0
 42
0.0000000001
 43
0.0000000001
 12
1.0
 22
0.0
 32
0.0
 13
1.0
 23
0.0
 33
0.0
 40
0.0
 40
0.0
 40
0.0
 40
0.0
 40
1.0
 40
1.0
 40
1.0
 40
2.0
 40
2.0
 40
2.0
 40
3.0
 40
3.0
 40
3.0
 40
4.0
 40
4.0
 40
4.0
 40
5.0
 40
5.0
 40
5.0
 40
6.0
 40
6.0
 40
6.0
 40
7.0
 40
7.0
 40
7.0
 40
8.0
 40
8.0
 40
8.0
 40
9.0
 40
9.0
 40
9.0
 40
10.0
 40
10.0
 40
10.0
 40
11.0
 40
11.0
 40
11.0
 40
12.0
 40
12.0
 40
12.0
 40
13.0
 40
13.0
 40
13.0
 40
14.0
 40
14.0
 40
14.0
 40
15.0
 40
15.0
 40
15.0
 40
16.0
 40
16.0
 40
16.0
 40
17.0
 40
17.0
 40
17.0
 40
18.0
 40
18.0
 40
18.0
 40
19.0
 40
19.0
 40
19.0
 40
20.0
 40
20.0
 40
20.0
 40
21.0
 40
21.0
 40
21.0
 40
22.0
 40
22.0
 40
22.0
 40
23.0
 40
23.0
 40
23.0
 40
24.0
 40
24.0
 40
24.0
 40
25.0
 40
25.0
 40
25.0
 40
26.0
 40
26.0
 40
26.0
 40
27.0
 40
27.0
 40
27.0
 40
28.0
 40
28.0
 40
28.0
 40
29.0
 40
29.0
 40
29.0
 40
30.0
 40
30.0
 40
30.0
 40
31.0
 40
31.0
 40
31.0
 40
32.0
 40
32.0
 40
32.0
 40
33.0
 40
33.0
 40
33.0
 40
34.0
 40
34.0
 40
34.0
 40
35.0
 40
35.0
 40
35.0
 40
36.0
 40
36.0
 40
36.0
 40
37.0
 40
37.0
 40
37.0
 40
37.0
 10
4.624267938736718
 20
5.256130422774529
 30
0.0
 10
4.624267938736718
 20
5.268229033580003
 30
0.0
 10
4.636583333333343
 20
5.273573477889436
 30
0.0
 10
4.636583333333343
 20
5.284966533157179
 30
0.0
 10
4.636583333333343
 20
5.289617921928564
 30
0.0
 10
4.636338771765117
 20
5.75413735463826
 30
0.0
 10
4.636338771765117
 20
5.75413735463826
 30
0.0
 10
4.636338771765117
 20
5.75413735463826
 30
0.0
 10
4.5910234951321
 20
5.822638888888883
 30
0.0
 10
4.5910234951321
 20
5.822638888888883
 30
0.0
 10
4.5910234951321
 20
5.822638888888883
 30
0.0
 10
4.482041666666671
 20
5.848123463375082
 30
0.0
 10
4.482041666666671
 20
5.848123463375082
 30
0.0
 10
4.482041666666671
 20
5.848123463375082
 30
0.0
 10
4.46506099831418
 20
5.84104429688725
 30
0.0
 10
4.46506099831418
 20
5.84104429688725
 30
0.0
 10
4.46506099831418
 20
5.84104429688725
 30
0.0
 10
4.433919332434217
 20
5.797166666666663
 30
0.0
 10
4.433919332434217
 20
5.797166666666663
 30
0.0
 10
4.433919332434217
 20
5.797166666666663
 30
0.0
 10
4.433919332434217
 20
5.338595698469058
 30
0.0
 10
4.433919332434217
 20
5.320719310031765
 30
0.0
 10
4.433919332434217
 20
5.305202643757083
 30
0.0
 10
4.447888888888883
 20
5.298067921715099
 30
0.0
 10
4.447888888888883
 20
5.284938755380103
 30
0.0
 10
4.447888888888883
 20
5.271809589045106
 30
0.0
 10
4.432454054693456
 20
5.276285977820913
 30
0.0
 10
4.432454054693456
 20
5.2563207005475
 30
0.0
 10
4.432454054693456
 20
5.2563207005475
 30
0.0
 10
4.432399888028158
 20
5.172580424885179
 30
0.0
 10
4.432399888028158
 20
5.172580424885179
 30
0.0
 10
4.432399888028158
 20
5.164062369544808
 30
0.0
 10
4.433756832438323
 20
5.156005425303899
 30
0.0
 10
4.424913777106162
 20
5.150227647672081
 30
0.0
 10
4.424099888237834
 20
5.14971236990732
 30
0.0
 10
4.421034610537491
 20
5.147745703290335
 30
0.0
 10
4.420002666119116
 20
5.147108203306439
 30
0.0
 10
4.414497110702643
 20
5.143717925614308
 30
0.0
 10
4.410942944125761
 20
5.136338759134055
 30
0.0
 10
4.410942944125761
 20
5.129909592629802
 30
0.0
 10
4.410942944125761
 20
5.12348042612555
 30
0.0
 10
4.410942944125761
 20
4.885498487693035
 30
0.0
 10
4.410942944125761
 20
4.885498487693035
 30
0.0
 10
4.410942944125761
 20
4.885498487693035
 30
0.0
 10
4.426351277069847
 20
4.881876265562318
 30
0.0
 10
4.426351277069847
 20
4.881876265562318
 30
0.0
 10
4.426351277069847
 20
4.881876265562318
 30
0.0
 10
4.426351277069847
 20
4.836615155594599
 30
0.0
 10
4.426351277069847
 20
4.823947100359065
 30
0.0
 10
4.426351277069847
 20
4.811265156234994
 30
0.0
 10
4.438109610106141
 20
4.814236111111111
 30
0.0
 10
4.438109610106141
 20
4.79983182319049
 30
0.0
 10
4.438109610106141
 20
4.781710990314928
 30
0.0
 10
4.426486111111116
 20
4.784750000000005
 30
0.0
 10
4.426486111111116
 20
4.768445712872259
 30
0.0
 10
4.426486111111116
 20
4.74937626890955
 30
0.0
 10
4.426622110396339
 20
4.256455448028444
 30
0.0
 10
4.426622110396339
 20
4.256455448028444
 30
0.0
 10
4.426622110396339
 20
4.256455448028444
 30
0.0
 10
4.446492943227693
 20
4.229952670920182
 30
0.0
 10
4.446492943227693
 20
4.229952670920182
 30
0.0
 10
4.446492943227693
 20
4.229952670920182
 30
0.0
 10
4.480862386803892
 20
4.215874999999995
 30
0.0
 10
4.480862386803892
 20
4.215874999999995
 30
0.0
 10
4.480862386803892
 20
4.215874999999995
 30
0.0
 10
4.560194444444455
 20
4.254638888888899
 30
0.0
 10
4.560194444444455
 20
4.254638888888899
 30
0.0
 10
4.565172106896271
 20
4.26321100341334
 30
0.0
 10
4.564683218019733
 20
4.278848503018303
 30
0.0
 10
4.570827662308956
 20
4.278848503018303
 30
0.0
 10
4.582844328672055
 20
4.278848503018303
 30
0.0
 10
4.592583333333323
 20
4.291761002692106
 30
0.0
 10
4.592583333333323
 20
4.307698502289491
 30
0.0
 10
4.592583333333323
 20
4.319580446433772
 30
0.0
 10
4.587144328563428
 20
4.329779057287245
 30
0.0
 10
4.579399884314626
 20
4.334201279397752
 30
0.0
 10
4.579399884314626
 20
4.334201279397752
 30
0.0
 10
4.579399884314626
 20
4.586913773013698
 30
0.0
 10
4.579399884314626
 20
4.586913773013698
 30
0.0
 10
4.586127661922445
 20
4.59182349511189
 30
0.0
 10
4.59073877291707
 20
4.601183217097665
 30
0.0
 10
4.59073877291707
 20
4.61208738348887
 30
0.0
 10
4.59073877291707
 20
4.622965160991852
 30
0.0
 10
4.586127661922445
 20
4.63235127186585
 30
0.0
 10
4.579399884314626
 20
4.637260993964042
 30
0.0
 10
4.579399884314626
 20
4.637260993964042
 30
0.0
 10
4.579399884314626
 20
4.857285988405743
 30
0.0
 10
4.579399884314626
 20
4.857285988405743
 30
0.0
 10
4.579399884314626
 20
4.87632904348023
 30
0.0
 10
4.562010995865017
 20
4.87220543247329
 30
0.0
 10
4.562010995865017
 20
4.88338182107984
 30
0.0
 10
4.562010995865017
 20
4.894558209686389
 30
0.0
 10
4.579399884314626
 20
4.894558209686389
 30
0.0
 10
4.579399884314626
 20
4.914848486951592
 30
0.0
 10
4.579399884314626
 20
4.926024875558142
 30
0.0
 10
4.579820717637327
 20
4.974066541011173
 30
0.0
 10
4.579820717637327
 20
4.974066541011173
 30
0.0
 10
4.579820717637327
 20
4.974066541011173
 30
0.0
 10
4.539659607540771
 20
5.018365151003207
 30
0.0
 10
4.539659607540771
 20
5.018365151003207
 30
0.0
 10
4.539659607540771
 20
5.018365151003207
 30
0.0
 10
4.621635994358763
 20
5.116088759645613
 30
0.0
 10
4.629095716392536
 20
5.125623481626968
 30
0.0
 10
4.63655555555556
 20
5.135145703608638
 30
0.0
 10
4.636827660641655
 20
5.147976258840067
 30
0.0
 10
4.636827660641655
 20
5.155015147551138
 30
0.0
 10
4.636827660641655
 20
5.162055555555551
 30
0.0
 10
4.636827660641655
 20
5.230794312303462
 30
0.0
 10
4.636827660641655
 20
5.230794312303462
 30
0.0
 10
4.636827660641655
 20
5.244276256407324
 30
0.0
 10
4.624267938736718
 20
5.24405958974613
 30
0.0
 10
4.624267938736718
 20
5.256130422774529
 30
0.0
  0
SPLINE
  5
6B
330
1F
100
AcDbEntity
  8
Layer 1
 62
   250
420
  2301728
370
    18
100
AcDbSpline
210
0.0
220
0.0
230
1.0
 70
    11
 71
     3
 72
    17
 73
    13
 74
     0
 42
0.0000000001
 43
0.0000000001
 12
1.0
 22
0.0
 32
0.0
 13
1.0
 23
0.0
 33
0.0
 40
0.0
 40
0.0
 40
0.0
 40
0.0
 40
1.0
 40
1.0
 40
1.0
 40
2.0
 40
2.0
 40
2.0
 40
3.0
 40
3.0
 40
3.0
 40
4.0
 40
4.0
 40
4.0
 40
4.0
 10
4.529405441133147
 20
4.343206834725808
 30
0.0
 10
4.528238774495953
 20
4.327080446244306
 30
0.0
 10
4.519233219167896
 20
4.31391100213255
 30
0.0
 10
4.508381830553136
 20
4.311549891081086
 30
0.0
 10
4.505072108414525
 20
4.317383224267056
 30
0.0
 10
4.503281830681973
 20
4.325195724069696
 30
0.0
 10
4.503879052889109
 20
4.333822112740664
 30
0.0
 10
4.505017941749227
 20
4.349934612333628
 30
0.0
 10
4.514079052631435
 20
4.363117945333922
 30
0.0
 10
4.524874999999989
 20
4.365479056385387
 30
0.0
 10
4.528212385607731
 20
4.359633223199731
 30
0.0
 10
4.53005683000558
 20
4.351833333333338
 30
0.0
 10
4.529405441133147
 20
4.343206834725808
 30
0.0
  0
SPLINE
  5
6C
330
1F
100
AcDbEntity
  8
Layer 1
 62
   250
420
  2301728
370
    18
100
AcDbSpline
210
0.0
220
0.0
230
1.0
 70
    11
 71
     3
 72
    17
 73
    13
 74
     0
 42
0.0000000001
 43
0.0000000001
 12
1.0
 22
0.0
 32
0.0
 13
1.0
 23
0.0
 33
0.0
 40
0.0
 40
0.0
 40
0.0
 40
0.0
 40
1.0
 40
1.0
 40
1.0
 40
2.0
 40
2.0
 40
2.0
 40
3.0
 40
3.0
 40
3.0
 40
4.0
 40
4.0
 40
4.0
 40
4.0
 10
4.552626273879873
 20
5.708930555555551
 30
0.0
 10
4.540880440843264
 20
5.712402777777773
 30
0.0
 10
4.527045718970536
 20
5.726331799785144
 30
0.0
 10
4.52560821900685
 20
5.74372068823474
 30
0.0
 10
4.52469849680761
 20
5.754902777777779
 30
0.0
 10
4.529160996694878
 20
5.764987354364166
 30
0.0
 10
4.535373496537937
 20
5.771863743079343
 30
0.0
 10
4.546712385140381
 20
5.768222222222221
 30
0.0
 10
4.559095718160885
 20
5.753058187998855
 30
0.0
 10
4.56053321812457
 20
5.735555555555556
 30
0.0
 10
4.561415162546735
 20
5.72477902204658
 30
0.0
 10
4.557915162635153
 20
5.715399855616852
 30
0.0
 10
4.552626273879873
 20
5.708930555555551
 30
0.0
  0
SPLINE
  5
6D
330
1F
100
AcDbEntity
  8
Layer 1
 62
   250
420
  2301728
370
    18
100
AcDbSpline
210
0.0
220
0.0
230
1.0
 70
     8
 71
     3
 72
    41
 73
    37
 74
     0
 42
0.0000000001
 43
0.0000000001
 12
1.0
 22
0.0
 32
0.0
 13
1.0
 23
0.0
 33
0.0
 40
0.0
 40
0.0
 40
0.0
 40
0.0
 40
1.0
 40
1.0
 40
1.0
 40
2.0
 40
2.0
 40
2.0
 40
3.0
 40
3.0
 40
3.0
 40
4.0
 40
4.0
 40
4.0
 40
5.0
 40
5.0
 40
5.0
 40
6.0
 40
6.0
 40
6.0
 40
7.0
 40
7.0
 40
7.0
 40
8.0
 40
8.0
 40
8.0
 40
9.0
 40
9.0
 40
9.0
 40
10.0
 40
10.0
 40
10.0
 40
11.0
 40
11.0
 40
11.0
 40
12.0
 40
12.0
 40
12.0
 40
12.0
 10
2.832858261769325
 20
5.61613596923558
 30
0.0
 10
2.832858261769325
 20
5.61613596923558
 30
0.0
 10
4.327717946228201
 20
5.174085980402702
 30
0.0
 10
4.327717946228201
 20
5.174085980402702
 30
0.0
 10
4.327717946228201
 20
5.165337369512599
 30
0.0
 10
4.327717946228201
 20
5.14374431450253
 30
0.0
 10
4.327717946228201
 20
5.138481814635472
 30
0.0
 10
4.327717946228201
 20
5.129611111111116
 30
0.0
 10
4.330349890606158
 20
5.120659592863476
 30
0.0
 10
4.340576279236706
 20
5.127970703789893
 30
0.0
 10
4.350776278979033
 20
5.135267925827772
 30
0.0
 10
4.41031944444444
 20
5.174669313721298
 30
0.0
 10
4.41440127737173
 20
5.177883202528998
 30
0.0
 10
4.41848461060191
 20
5.181098480225551
 30
0.0
 10
4.42637766595807
 20
5.191026257752532
 30
0.0
 10
4.42637766595807
 20
5.200059590857664
 30
0.0
 10
4.42637766595807
 20
5.209119312851018
 30
0.0
 10
4.430230443638518
 20
5.891567906722027
 30
0.0
 10
4.430202665861442
 20
5.903733184192484
 30
0.0
 10
4.430202665861442
 20
5.915913739440334
 30
0.0
 10
4.414170721821998
 20
5.912529017303616
 30
0.0
 10
4.408826277512566
 20
5.9086512396238
 30
0.0
 10
4.403455444314911
 20
5.904723461945246
 30
0.0
 10
4.356798501049121
 20
5.882433184730568
 30
0.0
 10
4.349934612333628
 20
5.878472222222222
 30
0.0
 10
4.343017945841691
 20
5.874524851597016
 30
0.0
 10
4.343044334729913
 20
5.866149851808586
 30
0.0
 10
4.343044334729913
 20
5.860080407517469
 30
0.0
 10
4.343044334729913
 20
5.853997074337813
 30
0.0
 10
4.343044334729913
 20
5.83876513027816
 30
0.0
 10
4.343044334729913
 20
5.83876513027816
 30
0.0
 10
4.343044334729913
 20
5.83876513027816
 30
0.0
 10
4.320122113086756
 20
5.826890130578148
 30
0.0
 10
4.320122113086756
 20
5.826890130578148
 30
0.0
 10
4.320122113086756
 20
5.826890130578148
 30
0.0
 10
2.872720760762301
 20
6.154974844512253
 30
0.0
 10
2.872720760762301
 20
6.154974844512253
 30
0.0
  0
SPLINE
  5
6E
330
1F
100
AcDbEntity
  8
Layer 1
 62
   250
420
  2301728
370
     9
100
AcDbSpline
210
0.0
220
0.0
230
1.0
 70
     8
 71
     3
 72
    14
 73
    10
 74
     0
 42
0.0000000001
 43
0.0000000001
 12
1.0
 22
0.0
 32
0.0
 13
1.0
 23
0.0
 33
0.0
 40
0.0
 40
0.0
 40
0.0
 40
0.0
 40
1.0
 40
1.0
 40
1.0
 40
2.0
 40
2.0
 40
2.0
 40
3.0
 40
3.0
 40
3.0
 40
3.0
 10
2.760734652480197
 20
5.612372080441774
 30
0.0
 10
2.760734652480197
 20
5.612372080441774
 30
0.0
 10
4.307792946731549
 20
5.151773480966363
 30
0.0
 10
4.307792946731549
 20
5.151773480966363
 30
0.0
 10
4.307792946731549
 20
5.151773480966363
 30
0.0
 10
4.307792946731549
 20
5.126790148264162
 30
0.0
 10
4.307792946731549
 20
5.122233203934835
 30
0.0
 10
4.307792946731549
 20
5.104004037728676
 30
0.0
 10
4.318792946453666
 20
5.09271931579153
 30
0.0
 10
4.331163779474486
 20
5.094455426858783
 30
0.0
  0
POLYLINE
  5
6F
330
1F
100
AcDbEntity
  8
Layer 1
 62
   250
420
  2301728
370
     9
100
AcDb2dPolyline
 66
     1
 10
0.0
 20
0.0
 30
0.0
  0
VERTEX
  5
70
330
6F
100
AcDbEntity
  8
Layer 1
 62
   250
420
  2301728
370
     9
100
AcDbVertex
100
AcDb2dVertex
 10
4.393147111241989
 20
5.189697091119442
 30
0.0
  0
VERTEX
  5
71
330
6F
100
AcDbEntity
  8
Layer 1
 62
   250
420
  2301728
370
     9
100
AcDbVertex
100
AcDb2dVertex
 10
2.896816593486922
 20
5.623447080161996
 30
0.0
  0
SEQEND
  5
72
330
6F
100
AcDbEntity
  8
Layer 1
 62
   250
420
  2301728
370
     9
  0
POLYLINE
  5
73
330
1F
100
AcDbEntity
  8
Layer 1
 62
   250
420
  2301728
370
     9
100
AcDb2dPolyline
 66
     1
 10
0.0
 20
0.0
 30
0.0
  0
VERTEX
  5
74
330
73
100
AcDbEntity
  8
Layer 1
 62
   250
420
  2301728
370
     9
100
AcDbVertex
100
AcDb2dVertex
 10
2.793308262768429
 20
6.221069444444449
 30
0.0
  0
VERTEX
  5
75
330
73
100
AcDbEntity
  8
Layer 1
 62
   250
420
  2301728
370
     9
100
AcDbVertex
100
AcDb2dVertex
 10
4.294134613743255
 20
5.890279017865699
 30
0.0
  0
SEQEND
  5
76
330
73
100
AcDbEntity
  8
Layer 1
 62
   250
420
  2301728
370
     9
  0
POLYLINE
  5
77
330
1F
100
AcDbEntity
  8
Layer 1
 62
   250
420
  2301728
370
     9
100
AcDb2dPolyline
 66
     1
 10
0.0
 20
0.0
 30
0.0
  0
VERTEX
  5
78
330
77
100
AcDbEntity
  8
Layer 1
 62
   250
420
  2301728
370
     9
100
AcDbVertex
100
AcDb2dVertex
 10
4.307792946731549
 20
5.151773480966363
 30
0.0
  0
VERTEX
  5
79
330
77
100
AcDbEntity
  8
Layer 1
 62
   250
420
  2301728
370
     9
100
AcDbVertex
100
AcDb2dVertex
 10
4.327691557339979
 20
5.172797091546372
 30
0.0
  0
SEQEND
  5
7A
330
77
100
AcDbEntity
  8
Layer 1
 62
   250
420
  2301728
370
     9
  0
POLYLINE
  5
7B
330
1F
100
AcDbEntity
  8
Layer 1
 62
   250
420
  2301728
370
     9
100
AcDb2dPolyline
 66
     1
 10
0.0
 20
0.0
 30
0.0
  0
VERTEX
  5
7C
330
7B
100
AcDbEntity
  8
Layer 1
 62
   250
420
  2301728
370
     9
100
AcDbVertex
100
AcDb2dVertex
 10
4.444606832164228
 20
3.925455456390207
 30
0.0
  0
VERTEX
  5
7D
330
7B
100
AcDbEntity
  8
Layer 1
 62
   250
420
  2301728
370
     9
100
AcDbVertex
100
AcDb2dVertex
 10
4.444444444444445
 20
4.233805555555565
 30
0.0
  0
SEQEND
  5
7E
330
7B
100
AcDbEntity
  8
Layer 1
 62
   250
420
  2301728
370
     9
  0
POLYLINE
  5
7F
330
1F
100
AcDbEntity
  8
Layer 1
 62
   250
420
  2301728
370
    18
100
AcDb2dPolyline
 66
     1
 10
0.0
 20
0.0
 30
0.0
  0
VERTEX
  5
80
330
7F
100
AcDbEntity
  8
Layer 1
 62
   250
420
  2301728
370
    18
100
AcDbVertex
100
AcDb2dVertex
 10
4.539659607540771
 20
5.018365151003207
 30
0.0
  0
VERTEX
  5
81
330
7F
100
AcDbEntity
  8
Layer 1
 62
   250
420
  2301728
370
    18
100
AcDbVertex
100
AcDb2dVertex
 10
4.426351277069847
 20
4.881876265562318
 30
0.0
  0
SEQEND
  5
82
330
7F
100
AcDbEntity
  8
Layer 1
 62
   250
420
  2301728
370
    18
  0
SPLINE
  5
83
330
1F
100
AcDbEntity
  8
Layer 1
 62
   250
420
  2301728
370
    13
100
AcDbSpline
210
0.0
220
0.0
230
1.0
 70
     8
 71
     3
 72
    26
 73
    22
 74
     0
 42
0.0000000001
 43
0.0000000001
 12
1.0
 22
0.0
 32
0.0
 13
1.0
 23
0.0
 33
0.0
 40
0.0
 40
0.0
 40
0.0
 40
0.0
 40
1.0
 40
1.0
 40
1.0
 40
2.0
 40
2.0
 40
2.0
 40
3.0
 40
3.0
 40
3.0
 40
4.0
 40
4.0
 40
4.0
 40
5.0
 40
5.0
 40
5.0
 40
6.0
 40
6.0
 40
6.0
 40
7.0
 40
7.0
 40
7.0
 40
7.0
 10
4.61208738348887
 20
5.107408204309346
 30
0.0
 10
4.619520716634421
 20
5.116942926290701
 30
0.0
 10
4.619791666666666
 20
5.129774870410984
 30
0.0
 10
4.619791666666666
 20
5.136799870233517
 30
0.0
 10
4.619791666666666
 20
5.143852647833127
 30
0.0
 10
4.619248494419076
 20
5.218559590390314
 30
0.0
 10
4.619248494419076
 20
5.218559590390314
 30
0.0
 10
4.619248494419076
 20
5.232041666666671
 30
0.0
 10
4.606716550291215
 20
5.229220701232103
 30
0.0
 10
4.606716550291215
 20
5.24807347853362
 30
0.0
 10
4.606716550291215
 20
5.267849866922916
 30
0.0
 10
4.619031827757882
 20
5.268635978014168
 30
0.0
 10
4.619031827757882
 20
5.28002903328191
 30
0.0
 10
4.619031827757882
 20
5.284681810942149
 30
0.0
 10
4.61857071665842
 20
5.74224846604971
 30
0.0
 10
4.61857071665842
 20
5.74224846604971
 30
0.0
 10
4.61857071665842
 20
5.74224846604971
 30
0.0
 10
4.574001273339895
 20
5.810404019883511
 30
0.0
 10
4.574001273339895
 20
5.810404019883511
 30
0.0
 10
4.574001273339895
 20
5.810404019883511
 30
0.0
 10
4.465413776083046
 20
5.838847222222221
 30
0.0
 10
4.465413776083046
 20
5.838847222222221
 30
0.0
  0
POLYLINE
  5
84
330
1F
100
AcDbEntity
  8
Layer 1
 62
   250
420
  2301728
370
    13
100
AcDb2dPolyline
 66
     1
 10
0.0
 20
0.0
 30
0.0
  0
VERTEX
  5
85
330
84
100
AcDbEntity
  8
Layer 1
 62
   250
420
  2301728
370
    13
100
AcDbVertex
100
AcDb2dVertex
 10
4.574001273339895
 20
5.810404019883511
 30
0.0
  0
VERTEX
  5
86
330
84
100
AcDbEntity
  8
Layer 1
 62
   250
420
  2301728
370
    13
100
AcDbVertex
100
AcDb2dVertex
 10
4.590249999999994
 20
5.821010964060002
 30
0.0
  0
SEQEND
  5
87
330
84
100
AcDbEntity
  8
Layer 1
 62
   250
420
  2301728
370
    13
  0
POLYLINE
  5
88
330
1F
100
AcDbEntity
  8
Layer 1
 62
   250
420
  2301728
370
    13
100
AcDb2dPolyline
 66
     1
 10
0.0
 20
0.0
 30
0.0
  0
VERTEX
  5
89
330
88
100
AcDbEntity
  8
Layer 1
 62
   250
420
  2301728
370
    13
100
AcDbVertex
100
AcDb2dVertex
 10
4.61857071665842
 20
5.74224846604971
 30
0.0
  0
VERTEX
  5
8A
330
88
100
AcDbEntity
  8
Layer 1
 62
   250
420
  2301728
370
    13
100
AcDbVertex
100
AcDb2dVertex
 10
4.636338771765117
 20
5.75413735463826
 30
0.0
  0
SEQEND
  5
8B
330
88
100
AcDbEntity
  8
Layer 1
 62
   250
420
  2301728
370
    13
  0
SPLINE
  5
8C
330
1F
100
AcDbEntity
  8
Layer 1
 62
   250
420
  2301728
370
    18
100
AcDbSpline
210
0.0
220
0.0
230
1.0
 70
    11
 71
     3
 72
    17
 73
    13
 74
     0
 42
0.0000000001
 43
0.0000000001
 12
1.0
 22
0.0
 32
0.0
 13
1.0
 23
0.0
 33
0.0
 40
0.0
 40
0.0
 40
0.0
 40
0.0
 40
1.0
 40
1.0
 40
1.0
 40
2.0
 40
2.0
 40
2.0
 40
3.0
 40
3.0
 40
3.0
 40
4.0
 40
4.0
 40
4.0
 40
4.0
 10
4.56053321812457
 20
5.735555555555556
 30
0.0
 10
4.56218738474945
 20
5.71544707783788
 30
0.0
 10
4.548773496199424
 20
5.699904022674976
 30
0.0
 10
4.53639016317892
 20
5.699890133786438
 30
0.0
 10
4.523992941269878
 20
5.6998762448979
 30
0.0
 10
4.505723497286959
 20
5.71544707783788
 30
0.0
 10
4.50406944444444
 20
5.735555555555556
 30
0.0
 10
4.502413775148347
 20
5.755683187932542
 30
0.0
 10
4.517998496976866
 20
5.772705409724747
 30
0.0
 10
4.53038182999737
 20
5.772717909724431
 30
0.0
 10
4.542765163017874
 20
5.772738743057238
 30
0.0
 10
4.558879051499692
 20
5.755683187932542
 30
0.0
 10
4.56053321812457
 20
5.735555555555556
 30
0.0
  0
SPLINE
  5
8D
330
1F
100
AcDbEntity
  8
Layer 1
 62
   250
420
  2301728
370
     9
100
AcDbSpline
210
0.0
220
0.0
230
1.0
 70
    11
 71
     3
 72
    17
 73
    13
 74
     0
 42
0.0000000001
 43
0.0000000001
 12
1.0
 22
0.0
 32
0.0
 13
1.0
 23
0.0
 33
0.0
 40
0.0
 40
0.0
 40
0.0
 40
0.0
 40
1.0
 40
1.0
 40
1.0
 40
2.0
 40
2.0
 40
2.0
 40
3.0
 40
3.0
 40
3.0
 40
4.0
 40
4.0
 40
4.0
 40
4.0
 10
4.511284608257584
 20
5.365966531110947
 30
0.0
 10
4.511935997130018
 20
5.358181809085383
 30
0.0
 10
4.506727663928258
 20
5.352159587015294
 30
0.0
 10
4.501926275160662
 20
5.352131809238219
 30
0.0
 10
4.497124999999995
 20
5.352131809238219
 30
0.0
 10
4.490044331016381
 20
5.358181809085383
 30
0.0
 10
4.489392942143947
 20
5.365966531110947
 30
0.0
 10
4.48876933104859
 20
5.373752642025364
 30
0.0
 10
4.494805555555558
 20
5.380356808525195
 30
0.0
 10
4.499592941886274
 20
5.380356808525195
 30
0.0
 10
4.504394330653869
 20
5.380370697413733
 30
0.0
 10
4.51063321938515
 20
5.373752642025364
 30
0.0
 10
4.511284608257584
 20
5.365966531110947
 30
0.0
  0
SPLINE
  5
8E
330
1F
100
AcDbEntity
  8
Layer 1
 62
   250
420
  2301728
370
     9
100
AcDbSpline
210
0.0
220
0.0
230
1.0
 70
    11
 71
     3
 72
    17
 73
    13
 74
     0
 42
0.0000000001
 43
0.0000000001
 12
1.0
 22
0.0
 32
0.0
 13
1.0
 23
0.0
 33
0.0
 40
0.0
 40
0.0
 40
0.0
 40
0.0
 40
1.0
 40
1.0
 40
1.0
 40
2.0
 40
2.0
 40
2.0
 40
3.0
 40
3.0
 40
3.0
 40
4.0
 40
4.0
 40
4.0
 40
4.0
 10
4.577799884355045
 20
5.573024859213547
 30
0.0
 10
4.579060995434298
 20
5.558044304036431
 30
0.0
 10
4.575141551088866
 20
5.546413748774689
 30
0.0
 10
4.559787384810079
 20
5.546413748774689
 30
0.0
 10
4.547851274000499
 20
5.546413748774689
 30
0.0
 10
4.536837385389845
 20
5.558044304036431
 30
0.0
 10
4.535617940976206
 20
5.573024859213547
 30
0.0
 10
4.534369329896637
 20
5.588094303277304
 30
0.0
 10
4.541205440835054
 20
5.600842914066359
 30
0.0
 10
4.555256829368974
 20
5.600842914066359
 30
0.0
 10
4.5645068291353
 20
5.600842914066359
 30
0.0
 10
4.576524884387254
 20
5.588094303277304
 30
0.0
 10
4.577799884355045
 20
5.573024859213547
 30
0.0
  0
HATCH
  5
8F
330
1F
100
AcDbEntity
  8
Layer 1
 62
   253
420
 10987947
100
AcDbHatch
 10
0.0
 20
0.0
 30
0.0
210
0.0
220
0.0
230
1.0
  2
SOLID
 70
     1
 71
     0
 91
        2
 92
        1
 93
        1
 72
     4
 94
        3
 73
     0
 74
     1
 95
       17
 96
       13
 40
0.0
 40
0.0
 40
0.0
 40
0.0
 40
1.0
 40
1.0
 40
1.0
 40
2.0
 40
2.0
 40
2.0
 40
3.0
 40
3.0
 40
3.0
 40
4.0
 40
4.0
 40
4.0
 40
4.0
 10
4.511284608257584
 20
5.365966531110947
 10
4.511935997130018
 20
5.358181809085383
 10
4.506727663928258
 20
5.352159587015294
 10
4.501926275160662
 20
5.352131809238219
 10
4.497124999999995
 20
5.352131809238219
 10
4.490044331016381
 20
5.358181809085383
 10
4.489392942143947
 20
5.365966531110947
 10
4.48876933104859
 20
5.373752642025364
 10
4.494805555555558
 20
5.380356808525195
 10
4.499592941886274
 20
5.380356808525195
 10
4.504394330653869
 20
5.380370697413733
 10
4.51063321938515
 20
5.373752642025364
 10
4.511284608257584
 20
5.365966531110947
 97
        0
 97
        0
 92
        1
 93
        1
 72
     4
 94
        3
 73
     0
 74
     1
 95
       17
 96
       13
 40
0.0
 40
0.0
 40
0.0
 40
0.0
 40
1.0
 40
1.0
 40
1.0
 40
2.0
 40
2.0
 40
2.0
 40
3.0
 40
3.0
 40
3.0
 40
4.0
 40
4.0
 40
4.0
 40
4.0
 10
4.577799884355045
 20
5.573024859213547
 10
4.579060995434298
 20
5.558044304036431
 10
4.575141551088866
 20
5.546413748774689
 10
4.559787384810079
 20
5.546413748774689
 10
4.547851274000499
 20
5.546413748774689
 10
4.536837385389845
 20
5.558044304036431
 10
4.535617940976206
 20
5.573024859213547
 10
4.534369329896637
 20
5.588094303277304
 10
4.541205440835054
 20
5.600842914066359
 10
4.555256829368974
 20
5.600842914066359
 10
4.5645068291353
 20
5.600842914066359
 10
4.576524884387254
 20
5.588094303277304
 10
4.577799884355045
 20
5.573024859213547
 97
        0
 97
        0
 75
     2
 76
     1
 98
        0
  0
SPLINE
  5
90
330
1F
100
AcDbEntity
  8
Layer 1
370
     0
100
AcDbSpline
210
0.0
220
0.0
230
1.0
 70
    11
 71
     3
 72
    50
 73
    46
 74
     0
 42
0.0000000001
 43
0.0000000001
 12
1.0
 22
0.0
 32
0.0
 13
1.0
 23
0.0
 33
0.0
 40
0.0
 40
0.0
 40
0.0
 40
0.0
 40
1.0
 40
1.0
 40
1.0
 40
2.0
 40
2.0
 40
2.0
 40
3.0
 40
3.0
 40
3.0
 40
4.0
 40
4.0
 40
4.0
 40
5.0
 40
5.0
 40
5.0
 40
6.0
 40
6.0
 40
6.0
 40
7.0
 40
7.0
 40
7.0
 40
8.0
 40
8.0
 40
8.0
 40
9.0
 40
9.0
 40
9.0
 40
10.0
 40
10.0
 40
10.0
 40
11.0
 40
11.0
 40
11.0
 40
12.0
 40
12.0
 40
12.0
 40
13.0
 40
13.0
 40
13.0
 40
14.0
 40
14.0
 40
14.0
 40
15.0
 40
15.0
 40
15.0
 40
15.0
 10
4.562770718068046
 20
5.570333333333338
 30
0.0
 10
4.559516551483587
 20
5.570333333333338
 30
0.0
 10
4.554198496062377
 20
5.571044303708024
 30
0.0
 10
4.548448496207635
 20
5.572333333333328
 30
0.0
 10
4.550102662832513
 20
5.575697081368262
 30
0.0
 10
4.551784607234468
 20
5.578470692409306
 30
0.0
 10
4.55333044052875
 20
5.580030414592127
 30
0.0
 10
4.554687384938916
 20
5.581373470113754
 30
0.0
 10
4.554687384938916
 20
5.583584581169007
 30
0.0
 10
4.55333044052875
 20
5.58493319224605
 30
0.0
 10
4.551974885007439
 20
5.586290136656228
 30
0.0
 10
4.549777777777788
 20
5.586290136656228
 30
0.0
 10
4.548420718430558
 20
5.58493319224605
 30
0.0
 10
4.546251274040919
 20
5.582749999999995
 30
0.0
 10
4.543945718543606
 20
5.578748470180067
 30
0.0
 10
4.541748496376891
 20
5.574109581408366
 30
0.0
 10
4.539631829763695
 20
5.574747081392261
 30
0.0
 10
4.537570718704652
 20
5.575499999999995
 30
0.0
 10
4.535562385422054
 20
5.576294303575398
 30
0.0
 10
4.535562385422054
 20
5.575208333333332
 30
0.0
 10
4.535508218756755
 20
5.574137359185443
 30
0.0
 10
4.535617940976206
 20
5.573024859213547
 30
0.0
 10
4.535726274306803
 20
5.571512359251756
 30
0.0
 10
4.53602488541037
 20
5.570054025955263
 30
0.0
 10
4.53634988540216
 20
5.568609581547308
 30
0.0
 10
4.537217940935786
 20
5.568305555555551
 30
0.0
 10
4.538085996469413
 20
5.567986111111117
 30
0.0
 10
4.538980440891262
 20
5.567708333333333
 30
0.0
 10
4.538519329791799
 20
5.566527777777777
 30
0.0
 10
4.538126274246173
 20
5.565334581630041
 30
0.0
 10
4.537692940923787
 20
5.564141526104625
 30
0.0
 10
4.538817940895367
 20
5.561123470625325
 30
0.0
 10
4.540351274189965
 20
5.558417915138104
 30
0.0
 10
4.542209607476352
 20
5.556030415198418
 30
0.0
 10
4.543185996340577
 20
5.559224859562164
 30
0.0
 10
4.544324885200695
 20
5.562567915033267
 30
0.0
 10
4.545640162945245
 20
5.565863748283353
 30
0.0
 10
4.552395718330141
 20
5.564250000000002
 30
0.0
 10
4.558729051503481
 20
5.563388888888893
 30
0.0
 10
4.562770718068046
 20
5.563388888888893
 30
0.0
 10
4.564683218019733
 20
5.563388888888893
 30
0.0
 10
4.566242940202553
 20
5.564941526084415
 30
0.0
 10
4.566242940202553
 20
5.566861111111115
 30
0.0
 10
4.566242940202553
 20
5.56879291487601
 30
0.0
 10
4.564683218019733
 20
5.570333333333338
 30
0.0
 10
4.562770718068046
 20
5.570333333333338
 30
0.0
  0
HATCH
  5
91
330
1F
100
AcDbEntity
  8
Layer 1
 62
   250
420
  2301728
100
AcDbHatch
 10
0.0
 20
0.0
 30
0.0
210
0.0
220
0.0
230
1.0
  2
SOLID
 70
     1
 71
     0
 91
        1
 92
        1
 93
        2
 72
     4
 94
        3
 73
     0
 74
     0
 95
       50
 96
       46
 40
0.0
 40
0.0
 40
0.0
 40
0.0
 40
0.0138888888888889
 40
0.0138888888888889
 40
0.0138888888888889
 40
0.0277777777777778
 40
0.0277777777777778
 40
0.0277777777777778
 40
0.0416666666666667
 40
0.0416666666666667
 40
0.0416666666666667
 40
0.0555555555555556
 40
0.0555555555555556
 40
0.0555555555555556
 40
0.0694444444444444
 40
0.0694444444444444
 40
0.0694444444444444
 40
0.0833333333333333
 40
0.0833333333333333
 40
0.0833333333333333
 40
0.0972222222222222
 40
0.0972222222222222
 40
0.0972222222222222
 40
0.1111111111111111
 40
0.1111111111111111
 40
0.1111111111111111
 40
0.125
 40
0.125
 40
0.125
 40
0.1388888888888889
 40
0.1388888888888889
 40
0.1388888888888889
 40
0.1527777777777778
 40
0.1527777777777778
 40
0.1527777777777778
 40
0.1666666666666667
 40
0.1666666666666667
 40
0.1666666666666667
 40
0.1805555555555556
 40
0.1805555555555556
 40
0.1805555555555556
 40
0.1944444444444444
 40
0.1944444444444444
 40
0.1944444444444444
 40
0.2083333333333333
 40
0.2083333333333333
 40
0.2083333333333333
 40
0.2083333333333333
 10
4.562770718068046
 20
5.570333333333338
 10
4.559516551483587
 20
5.570333333333338
 10
4.554198496062377
 20
5.571044303708024
 10
4.548448496207635
 20
5.572333333333328
 10
4.550102662832513
 20
5.575697081368262
 10
4.551784607234468
 20
5.578470692409306
 10
4.55333044052875
 20
5.580030414592127
 10
4.554687384938916
 20
5.581373470113754
 10
4.554687384938916
 20
5.583584581169007
 10
4.55333044052875
 20
5.58493319224605
 10
4.551974885007439
 20
5.586290136656228
 10
4.549777777777788
 20
5.586290136656228
 10
4.548420718430558
 20
5.58493319224605
 10
4.546251274040919
 20
5.582749999999995
 10
4.543945718543606
 20
5.578748470180067
 10
4.541748496376891
 20
5.574109581408366
 10
4.539631829763695
 20
5.574747081392261
 10
4.537570718704652
 20
5.575499999999995
 10
4.535562385422054
 20
5.576294303575398
 10
4.535562385422054
 20
5.575208333333332
 10
4.535508218756755
 20
5.574137359185443
 10
4.535617940976206
 20
5.573024859213547
 10
4.535726274306803
 20
5.571512359251756
 10
4.53602488541037
 20
5.570054025955263
 10
4.53634988540216
 20
5.568609581547308
 10
4.537217940935786
 20
5.568305555555551
 10
4.538085996469413
 20
5.567986111111117
 10
4.538980440891262
 20
5.567708333333333
 10
4.538519329791799
 20
5.566527777777777
 10
4.538126274246173
 20
5.565334581630041
 10
4.537692940923787
 20
5.564141526104625
 10
4.538817940895367
 20
5.561123470625325
 10
4.540351274189965
 20
5.558417915138104
 10
4.542209607476352
 20
5.556030415198418
 10
4.543185996340577
 20
5.559224859562164
 10
4.544324885200695
 20
5.562567915033267
 10
4.545640162945245
 20
5.565863748283353
 10
4.552395718330141
 20
5.564250000000002
 10
4.558729051503481
 20
5.563388888888893
 10
4.562770718068046
 20
5.563388888888893
 10
4.564683218019733
 20
5.563388888888893
 10
4.566242940202553
 20
5.564941526084415
 10
4.566242940202553
 20
5.566861111111115
 10
4.566242940202553
 20
5.56879291487601
 10
4.564683218019733
 20
5.570333333333338
 10
4.562770718068046
 20
5.570333333333338
 97
        0
 72
     1
 10
4.562770718068046
 20
5.570333333333338
 11
4.562770718068046
 21
5.570333333333338
 97
        0
 75
     2
 76
     1
 98
        0
  0
SPLINE
  5
92
330
1F
100
AcDbEntity
  8
Layer 1
 62
   250
420
  2301728
370
     9
100
AcDbSpline
210
0.0
220
0.0
230
1.0
 70
    11
 71
     3
 72
    17
 73
    13
 74
     0
 42
0.0000000001
 43
0.0000000001
 12
1.0
 22
0.0
 32
0.0
 13
1.0
 23
0.0
 33
0.0
 40
0.0
 40
0.0
 40
0.0
 40
0.0
 40
1.0
 40
1.0
 40
1.0
 40
2.0
 40
2.0
 40
2.0
 40
3.0
 40
3.0
 40
3.0
 40
4.0
 40
4.0
 40
4.0
 40
4.0
 10
4.588948495184519
 20
5.675584578844892
 30
0.0
 10
4.590209606263771
 20
5.660583333333332
 30
0.0
 10
4.58629016191834
 20
5.648973468406047
 30
0.0
 10
4.570935995639553
 20
5.648973468406047
 30
0.0
 10
4.558999999999994
 20
5.648973468406047
 30
0.0
 10
4.547987385108172
 20
5.660583333333332
 30
0.0
 10
4.546766551805679
 20
5.675584578844892
 30
0.0
 10
4.545517940726111
 20
5.69065402290865
 30
0.0
 10
4.552354051664527
 20
5.703402777777783
 30
0.0
 10
4.566419329086986
 20
5.703402777777783
 30
0.0
 10
4.575656828853627
 20
5.703402777777783
 30
0.0
 10
4.587673495216728
 20
5.69065402290865
 30
0.0
 10
4.588948495184519
 20
5.675584578844892
 30
0.0
  0
HATCH
  5
93
330
1F
100
AcDbEntity
  8
Layer 1
 62
   253
420
 10987947
100
AcDbHatch
 10
0.0
 20
0.0
 30
0.0
210
0.0
220
0.0
230
1.0
  2
SOLID
 70
     1
 71
     0
 91
        1
 92
        1
 93
        1
 72
     4
 94
        3
 73
     0
 74
     1
 95
       17
 96
       13
 40
0.0
 40
0.0
 40
0.0
 40
0.0
 40
1.0
 40
1.0
 40
1.0
 40
2.0
 40
2.0
 40
2.0
 40
3.0
 40
3.0
 40
3.0
 40
4.0
 40
4.0
 40
4.0
 40
4.0
 10
4.588948495184519
 20
5.675584578844892
 10
4.590209606263771
 20
5.660583333333332
 10
4.58629016191834
 20
5.648973468406047
 10
4.570935995639553
 20
5.648973468406047
 10
4.558999999999994
 20
5.648973468406047
 10
4.547987385108172
 20
5.660583333333332
 10
4.546766551805679
 20
5.675584578844892
 10
4.545517940726111
 20
5.69065402290865
 10
4.552354051664527
 20
5.703402777777783
 10
4.566419329086986
 20
5.703402777777783
 10
4.575656828853627
 20
5.703402777777783
 10
4.587673495216728
 20
5.69065402290865
 10
4.588948495184519
 20
5.675584578844892
 97
        0
 97
        0
 75
     2
 76
     1
 98
        0
  0
SPLINE
  5
94
330
1F
100
AcDbEntity
  8
Layer 1
370
     0
100
AcDbSpline
210
0.0
220
0.0
230
1.0
 70
    11
 71
     3
 72
    50
 73
    46
 74
     0
 42
0.0000000001
 43
0.0000000001
 12
1.0
 22
0.0
 32
0.0
 13
1.0
 23
0.0
 33
0.0
 40
0.0
 40
0.0
 40
0.0
 40
0.0
 40
1.0
 40
1.0
 40
1.0
 40
2.0
 40
2.0
 40
2.0
 40
3.0
 40
3.0
 40
3.0
 40
4.0
 40
4.0
 40
4.0
 40
5.0
 40
5.0
 40
5.0
 40
6.0
 40
6.0
 40
6.0
 40
7.0
 40
7.0
 40
7.0
 40
8.0
 40
8.0
 40
8.0
 40
9.0
 40
9.0
 40
9.0
 40
10.0
 40
10.0
 40
10.0
 40
11.0
 40
11.0
 40
11.0
 40
12.0
 40
12.0
 40
12.0
 40
13.0
 40
13.0
 40
13.0
 40
14.0
 40
14.0
 40
14.0
 40
15.0
 40
15.0
 40
15.0
 40
15.0
 10
4.573920717786374
 20
5.672891523357369
 30
0.0
 10
4.570665162313061
 20
5.672891523357369
 30
0.0
 10
4.565348495780705
 20
5.673597222222219
 30
0.0
 10
4.559597222222211
 20
5.67488596775143
 30
0.0
 10
4.56125266255084
 20
5.678236111111105
 30
0.0
 10
4.562934606952795
 20
5.681030412040652
 30
0.0
 10
4.564480440247078
 20
5.682583333333329
 30
0.0
 10
4.565835995768389
 20
5.683933189745099
 30
0.0
 10
4.565835995768389
 20
5.686123467467547
 30
0.0
 10
4.564480440247078
 20
5.687486111111108
 30
0.0
 10
4.563123495836913
 20
5.688849856287561
 30
0.0
 10
4.560926273670197
 20
5.688849856287561
 30
0.0
 10
4.559570718148885
 20
5.687486111111108
 30
0.0
 10
4.557399884870392
 20
5.685302634154949
 30
0.0
 10
4.555094329373079
 20
5.681308189811412
 30
0.0
 10
4.552897107206364
 20
5.676669301039712
 30
0.0
 10
4.550781829482022
 20
5.677306801023607
 30
0.0
 10
4.548719329534125
 20
5.678052634338099
 30
0.0
 10
4.546712385140381
 20
5.678847222222227
 30
0.0
 10
4.546712385140381
 20
5.677760967678801
 30
0.0
 10
4.546658218475082
 20
5.676697078816788
 30
0.0
 10
4.546766551805679
 20
5.675584578844892
 30
0.0
 10
4.546875
 20
5.674072078883101
 30
0.0
 10
4.547173496239844
 20
5.672606801142339
 30
0.0
 10
4.547498496231634
 20
5.671169301178653
 30
0.0
 10
4.54836655176526
 20
5.670858190075402
 30
0.0
 10
4.549234607298886
 20
5.67052485675049
 30
0.0
 10
4.550130440609589
 20
5.670247078979742
 30
0.0
 10
4.549669329510126
 20
5.66906791234285
 30
0.0
 10
4.549276273964501
 20
5.66787346792858
 30
0.0
 10
4.54884155175326
 20
5.666680555555558
 30
0.0
 10
4.549967940613694
 20
5.663683190256657
 30
0.0
 10
4.551500000000007
 20
5.660956801436643
 30
0.0
 10
4.553358218305826
 20
5.658569444444449
 30
0.0
 10
4.554334607170049
 20
5.661763888888887
 30
0.0
 10
4.555473496030168
 20
5.665127634664612
 30
0.0
 10
4.556790162663573
 20
5.668416666666669
 30
0.0
 10
4.563544329159614
 20
5.666802634622311
 30
0.0
 10
4.569879051221808
 20
5.665947079088355
 30
0.0
 10
4.573920717786374
 20
5.665947079088355
 30
0.0
 10
4.575833333333321
 20
5.665947079088355
 30
0.0
 10
4.57739293992088
 20
5.667501245715761
 30
0.0
 10
4.57739293992088
 20
5.669419301222862
 30
0.0
 10
4.57739293992088
 20
5.671331801174548
 30
0.0
 10
4.575833333333321
 20
5.672891523357369
 30
0.0
 10
4.573920717786374
 20
5.672891523357369
 30
0.0
  0
HATCH
  5
95
330
1F
100
AcDbEntity
  8
Layer 1
 62
   250
420
  2301728
100
AcDbHatch
 10
0.0
 20
0.0
 30
0.0
210
0.0
220
0.0
230
1.0
  2
SOLID
 70
     1
 71
     0
 91
        1
 92
        1
 93
        2
 72
     4
 94
        3
 73
     0
 74
     0
 95
       50
 96
       46
 40
0.0
 40
0.0
 40
0.0
 40
0.0
 40
0.0138888888888889
 40
0.0138888888888889
 40
0.0138888888888889
 40
0.0277777777777778
 40
0.0277777777777778
 40
0.0277777777777778
 40
0.0416666666666667
 40
0.0416666666666667
 40
0.0416666666666667
 40
0.0555555555555556
 40
0.0555555555555556
 40
0.0555555555555556
 40
0.0694444444444444
 40
0.0694444444444444
 40
0.0694444444444444
 40
0.0833333333333333
 40
0.0833333333333333
 40
0.0833333333333333
 40
0.0972222222222222
 40
0.0972222222222222
 40
0.0972222222222222
 40
0.1111111111111111
 40
0.1111111111111111
 40
0.1111111111111111
 40
0.125
 40
0.125
 40
0.125
 40
0.1388888888888889
 40
0.1388888888888889
 40
0.1388888888888889
 40
0.1527777777777778
 40
0.1527777777777778
 40
0.1527777777777778
 40
0.1666666666666667
 40
0.1666666666666667
 40
0.1666666666666667
 40
0.1805555555555556
 40
0.1805555555555556
 40
0.1805555555555556
 40
0.1944444444444444
 40
0.1944444444444444
 40
0.1944444444444444
 40
0.2083333333333333
 40
0.2083333333333333
 40
0.2083333333333333
 40
0.2083333333333333
 10
4.573920717786374
 20
5.672891523357369
 10
4.570665162313061
 20
5.672891523357369
 10
4.565348495780705
 20
5.673597222222219
 10
4.559597222222211
 20
5.67488596775143
 10
4.56125266255084
 20
5.678236111111105
 10
4.562934606952795
 20
5.681030412040652
 10
4.564480440247078
 20
5.682583333333329
 10
4.565835995768389
 20
5.683933189745099
 10
4.565835995768389
 20
5.686123467467547
 10
4.564480440247078
 20
5.687486111111108
 10
4.563123495836913
 20
5.688849856287561
 10
4.560926273670197
 20
5.688849856287561
 10
4.559570718148885
 20
5.687486111111108
 10
4.557399884870392
 20
5.685302634154949
 10
4.555094329373079
 20
5.681308189811412
 10
4.552897107206364
 20
5.676669301039712
 10
4.550781829482022
 20
5.677306801023607
 10
4.548719329534125
 20
5.678052634338099
 10
4.546712385140381
 20
5.678847222222227
 10
4.546712385140381
 20
5.677760967678801
 10
4.546658218475082
 20
5.676697078816788
 10
4.546766551805679
 20
5.675584578844892
 10
4.546875
 20
5.674072078883101
 10
4.547173496239844
 20
5.672606801142339
 10
4.547498496231634
 20
5.671169301178653
 10
4.54836655176526
 20
5.670858190075402
 10
4.549234607298886
 20
5.67052485675049
 10
4.550130440609589
 20
5.670247078979742
 10
4.549669329510126
 20
5.66906791234285
 10
4.549276273964501
 20
5.66787346792858
 10
4.54884155175326
 20
5.666680555555558
 10
4.549967940613694
 20
5.663683190256657
 10
4.551500000000007
 20
5.660956801436643
 10
4.553358218305826
 20
5.658569444444449
 10
4.554334607170049
 20
5.661763888888887
 10
4.555473496030168
 20
5.665127634664612
 10
4.556790162663573
 20
5.668416666666669
 10
4.563544329159614
 20
5.666802634622311
 10
4.569879051221808
 20
5.665947079088355
 10
4.573920717786374
 20
5.665947079088355
 10
4.575833333333321
 20
5.665947079088355
 10
4.57739293992088
 20
5.667501245715761
 10
4.57739293992088
 20
5.669419301222862
 10
4.57739293992088
 20
5.671331801174548
 10
4.575833333333321
 20
5.672891523357369
 10
4.573920717786374
 20
5.672891523357369
 97
        0
 72
     1
 10
4.573920717786374
 20
5.672891523357369
 11
4.573920717786374
 21
5.672891523357369
 97
        0
 75
     2
 76
     1
 98
        0
  0
SPLINE
  5
96
330
1F
100
AcDbEntity
  8
Layer 1
 62
   250
420
  2301728
370
     9
100
AcDbSpline
210
0.0
220
0.0
230
1.0
 70
    11
 71
     3
 72
    17
 73
    13
 74
     0
 42
0.0000000001
 43
0.0000000001
 12
1.0
 22
0.0
 32
0.0
 13
1.0
 23
0.0
 33
0.0
 40
0.0
 40
0.0
 40
0.0
 40
0.0
 40
1.0
 40
1.0
 40
1.0
 40
2.0
 40
2.0
 40
2.0
 40
3.0
 40
3.0
 40
3.0
 40
4.0
 40
4.0
 40
4.0
 40
4.0
 10
4.51315683043251
 20
5.62802485782413
 30
0.0
 10
4.514404052623225
 20
5.613030413758477
 30
0.0
 10
4.510498497166332
 20
5.601399858496734
 30
0.0
 10
4.495144330887544
 20
5.601399858496734
 30
0.0
 10
4.483208333333323
 20
5.601399858496734
 30
0.0
 10
4.472194444444439
 20
5.613030413758477
 30
0.0
 10
4.470960998165133
 20
5.62802485782413
 30
0.0
 10
4.469726275974103
 20
5.643092912999046
 30
0.0
 10
4.476562386912519
 20
5.655849857121211
 30
0.0
 10
4.49061377544644
 20
5.655849857121211
 30
0.0
 10
4.499863775212765
 20
5.655849857121211
 30
0.0
 10
4.511881830464719
 20
5.643092912999046
 30
0.0
 10
4.51315683043251
 20
5.62802485782413
 30
0.0
  0
HATCH
  5
97
330
1F
100
AcDbEntity
  8
Layer 1
 62
   253
420
 10987947
100
AcDbHatch
 10
0.0
 20
0.0
 30
0.0
210
0.0
220
0.0
230
1.0
  2
SOLID
 70
     1
 71
     0
 91
        1
 92
        1
 93
        1
 72
     4
 94
        3
 73
     0
 74
     1
 95
       17
 96
       13
 40
0.0
 40
0.0
 40
0.0
 40
0.0
 40
1.0
 40
1.0
 40
1.0
 40
2.0
 40
2.0
 40
2.0
 40
3.0
 40
3.0
 40
3.0
 40
4.0
 40
4.0
 40
4.0
 40
4.0
 10
4.51315683043251
 20
5.62802485782413
 10
4.514404052623225
 20
5.613030413758477
 10
4.510498497166332
 20
5.601399858496734
 10
4.495144330887544
 20
5.601399858496734
 10
4.483208333333323
 20
5.601399858496734
 10
4.472194444444439
 20
5.613030413758477
 10
4.470960998165133
 20
5.62802485782413
 10
4.469726275974103
 20
5.643092912999046
 10
4.476562386912519
 20
5.655849857121211
 10
4.49061377544644
 20
5.655849857121211
 10
4.499863775212765
 20
5.655849857121211
 10
4.511881830464719
 20
5.643092912999046
 10
4.51315683043251
 20
5.62802485782413
 97
        0
 97
        0
 75
     2
 76
     1
 98
        0
  0
SPLINE
  5
98
330
1F
100
AcDbEntity
  8
Layer 1
370
     0
100
AcDbSpline
210
0.0
220
0.0
230
1.0
 70
    11
 71
     3
 72
    50
 73
    46
 74
     0
 42
0.0000000001
 43
0.0000000001
 12
1.0
 22
0.0
 32
0.0
 13
1.0
 23
0.0
 33
0.0
 40
0.0
 40
0.0
 40
0.0
 40
0.0
 40
1.0
 40
1.0
 40
1.0
 40
2.0
 40
2.0
 40
2.0
 40
3.0
 40
3.0
 40
3.0
 40
4.0
 40
4.0
 40
4.0
 40
5.0
 40
5.0
 40
5.0
 40
6.0
 40
6.0
 40
6.0
 40
7.0
 40
7.0
 40
7.0
 40
8.0
 40
8.0
 40
8.0
 40
9.0
 40
9.0
 40
9.0
 40
10.0
 40
10.0
 40
10.0
 40
11.0
 40
11.0
 40
11.0
 40
12.0
 40
12.0
 40
12.0
 40
13.0
 40
13.0
 40
13.0
 40
14.0
 40
14.0
 40
14.0
 40
15.0
 40
15.0
 40
15.0
 40
15.0
 10
4.498115164145828
 20
5.625331802336606
 30
0.0
 10
4.494859608672514
 20
5.625331802336606
 30
0.0
 10
4.489555555555549
 20
5.626030413430069
 30
0.0
 10
4.483805555555565
 20
5.627333333333328
 30
0.0
 10
4.48544572002144
 20
5.630683191090307
 30
0.0
 10
4.487127664423396
 20
5.633456802131351
 30
0.0
 10
4.488687386606216
 20
5.635016524314172
 30
0.0
 10
4.490044331016381
 20
5.636372079835483
 30
0.0
 10
4.490044331016381
 20
5.638570690891052
 30
0.0
 10
4.488687386606216
 20
5.639933190856633
 30
0.0
 10
4.487331831084904
 20
5.64127624637826
 30
0.0
 10
4.485134608918188
 20
5.64127624637826
 30
0.0
 10
4.483777777777783
 20
5.639933190856633
 30
0.0
 10
4.481594331229846
 20
5.637749999999995
 30
0.0
 10
4.479288775732534
 20
5.63374846879065
 30
0.0
 10
4.477105442454356
 20
5.629109580018949
 30
0.0
 10
4.474988775841161
 20
5.629747080002844
 30
0.0
 10
4.472927664782118
 20
5.630499999999996
 30
0.0
 10
4.470906831499835
 20
5.631292913297127
 30
0.0
 10
4.470920720388373
 20
5.630208333333333
 30
0.0
 10
4.470865164834221
 20
5.629137357796026
 30
0.0
 10
4.470960998165133
 20
5.62802485782413
 30
0.0
 10
4.471083333333328
 20
5.626498468973801
 30
0.0
 10
4.471381831487835
 20
5.625040135677308
 30
0.0
 10
4.471692942591087
 20
5.623609580157891
 30
0.0
 10
4.472574887013252
 20
5.623304024610055
 30
0.0
 10
4.473442942546878
 20
5.622972222222225
 30
0.0
 10
4.474337386968728
 20
5.622694444444442
 30
0.0
 10
4.473863775869581
 20
5.621513888888885
 30
0.0
 10
4.4734693314351
 20
5.620320691352086
 30
0.0
 10
4.473035998112715
 20
5.619126246937816
 30
0.0
 10
4.474174886972833
 20
5.616109580347357
 30
0.0
 10
4.475694444444444
 20
5.613402777777777
 30
0.0
 10
4.47755266466528
 20
5.611016524920463
 30
0.0
 10
4.478542942418041
 20
5.614209580395355
 30
0.0
 10
4.479681831278159
 20
5.617554024755312
 30
0.0
 10
4.480984609023026
 20
5.62086235800507
 30
0.0
 10
4.487738775519069
 20
5.619236111111111
 30
0.0
 10
4.494085997580947
 20
5.618387358067594
 30
0.0
 10
4.498115164145828
 20
5.618387358067594
 30
0.0
 10
4.500027777777783
 20
5.618387358067594
 30
0.0
 10
4.501587386280335
 20
5.619940135806145
 30
0.0
 10
4.501587386280335
 20
5.621859580202099
 30
0.0
 10
4.501587386280335
 20
5.623779024598055
 30
0.0
 10
4.500027777777783
 20
5.625331802336606
 30
0.0
 10
4.498115164145828
 20
5.625331802336606
 30
0.0
  0
HATCH
  5
99
330
1F
100
AcDbEntity
  8
Layer 1
 62
   250
420
  2301728
100
AcDbHatch
 10
0.0
 20
0.0
 30
0.0
210
0.0
220
0.0
230
1.0
  2
SOLID
 70
     1
 71
     0
 91
        1
 92
        1
 93
        2
 72
     4
 94
        3
 73
     0
 74
     0
 95
       50
 96
       46
 40
0.0
 40
0.0
 40
0.0
 40
0.0
 40
0.0138888888888889
 40
0.0138888888888889
 40
0.0138888888888889
 40
0.0277777777777778
 40
0.0277777777777778
 40
0.0277777777777778
 40
0.0416666666666667
 40
0.0416666666666667
 40
0.0416666666666667
 40
0.0555555555555556
 40
0.0555555555555556
 40
0.0555555555555556
 40
0.0694444444444444
 40
0.0694444444444444
 40
0.0694444444444444
 40
0.0833333333333333
 40
0.0833333333333333
 40
0.0833333333333333
 40
0.0972222222222222
 40
0.0972222222222222
 40
0.0972222222222222
 40
0.1111111111111111
 40
0.1111111111111111
 40
0.1111111111111111
 40
0.125
 40
0.125
 40
0.125
 40
0.1388888888888889
 40
0.1388888888888889
 40
0.1388888888888889
 40
0.1527777777777778
 40
0.1527777777777778
 40
0.1527777777777778
 40
0.1666666666666667
 40
0.1666666666666667
 40
0.1666666666666667
 40
0.1805555555555556
 40
0.1805555555555556
 40
0.1805555555555556
 40
0.1944444444444444
 40
0.1944444444444444
 40
0.1944444444444444
 40
0.2083333333333333
 40
0.2083333333333333
 40
0.2083333333333333
 40
0.2083333333333333
 10
4.498115164145828
 20
5.625331802336606
 10
4.494859608672514
 20
5.625331802336606
 10
4.489555555555549
 20
5.626030413430069
 10
4.483805555555565
 20
5.627333333333328
 10
4.48544572002144
 20
5.630683191090307
 10
4.487127664423396
 20
5.633456802131351
 10
4.488687386606216
 20
5.635016524314172
 10
4.490044331016381
 20
5.636372079835483
 10
4.490044331016381
 20
5.638570690891052
 10
4.488687386606216
 20
5.639933190856633
 10
4.487331831084904
 20
5.64127624637826
 10
4.485134608918188
 20
5.64127624637826
 10
4.483777777777783
 20
5.639933190856633
 10
4.481594331229846
 20
5.637749999999995
 10
4.479288775732534
 20
5.63374846879065
 10
4.477105442454356
 20
5.629109580018949
 10
4.474988775841161
 20
5.629747080002844
 10
4.472927664782118
 20
5.630499999999996
 10
4.470906831499835
 20
5.631292913297127
 10
4.470920720388373
 20
5.630208333333333
 10
4.470865164834221
 20
5.629137357796026
 10
4.470960998165133
 20
5.62802485782413
 10
4.471083333333328
 20
5.626498468973801
 10
4.471381831487835
 20
5.625040135677308
 10
4.471692942591087
 20
5.623609580157891
 10
4.472574887013252
 20
5.623304024610055
 10
4.473442942546878
 20
5.622972222222225
 10
4.474337386968728
 20
5.622694444444442
 10
4.473863775869581
 20
5.621513888888885
 10
4.4734693314351
 20
5.620320691352086
 10
4.473035998112715
 20
5.619126246937816
 10
4.474174886972833
 20
5.616109580347357
 10
4.475694444444444
 20
5.613402777777777
 10
4.47755266466528
 20
5.611016524920463
 10
4.478542942418041
 20
5.614209580395355
 10
4.479681831278159
 20
5.617554024755312
 10
4.480984609023026
 20
5.62086235800507
 10
4.487738775519069
 20
5.619236111111111
 10
4.494085997580947
 20
5.618387358067594
 10
4.498115164145828
 20
5.618387358067594
 10
4.500027777777783
 20
5.618387358067594
 10
4.501587386280335
 20
5.619940135806145
 10
4.501587386280335
 20
5.621859580202099
 10
4.501587386280335
 20
5.623779024598055
 10
4.500027777777783
 20
5.625331802336606
 10
4.498115164145828
 20
5.625331802336606
 97
        0
 72
     1
 10
4.498115164145828
 20
5.625331802336606
 11
4.498115164145828
 21
5.625331802336606
 97
        0
 75
     2
 76
     1
 98
        0
  0
SPLINE
  5
9A
330
1F
100
AcDbEntity
  8
Layer 1
 62
   250
420
  2301728
370
     9
100
AcDbSpline
210
0.0
220
0.0
230
1.0
 70
    11
 71
     3
 72
    17
 73
    13
 74
     0
 42
0.0000000001
 43
0.0000000001
 12
1.0
 22
0.0
 32
0.0
 13
1.0
 23
0.0
 33
0.0
 40
0.0
 40
0.0
 40
0.0
 40
0.0
 40
1.0
 40
1.0
 40
1.0
 40
2.0
 40
2.0
 40
2.0
 40
3.0
 40
3.0
 40
3.0
 40
4.0
 40
4.0
 40
4.0
 40
4.0
 10
4.495320719771977
 20
5.769219298701702
 30
0.0
 10
4.49658183085123
 20
5.75422485463605
 30
0.0
 10
4.492662386505799
 20
5.742594299374306
 30
0.0
 10
4.477322109115549
 20
5.742594299374306
 30
0.0
 10
4.46538599830597
 20
5.742594299374306
 30
0.0
 10
4.454372109695314
 20
5.75422485463605
 30
0.0
 10
4.453125
 20
5.769219298701702
 30
0.0
 10
4.45189016531357
 20
5.784288742765461
 30
0.0
 10
4.458726276251986
 20
5.797044297998784
 30
0.0
 10
4.472791666666656
 20
5.797044297998784
 30
0.0
 10
4.482041666666671
 20
5.797044297998784
 30
0.0
 10
4.494059608692724
 20
5.784288742765461
 30
0.0
 10
4.495320719771977
 20
5.769219298701702
 30
0.0
  0
HATCH
  5
9B
330
1F
100
AcDbEntity
  8
Layer 1
 62
   253
420
 10987947
100
AcDbHatch
 10
0.0
 20
0.0
 30
0.0
210
0.0
220
0.0
230
1.0
  2
SOLID
 70
     1
 71
     0
 91
        1
 92
        1
 93
        1
 72
     4
 94
        3
 73
     0
 74
     1
 95
       17
 96
       13
 40
0.0
 40
0.0
 40
0.0
 40
0.0
 40
1.0
 40
1.0
 40
1.0
 40
2.0
 40
2.0
 40
2.0
 40
3.0
 40
3.0
 40
3.0
 40
4.0
 40
4.0
 40
4.0
 40
4.0
 10
4.495320719771977
 20
5.769219298701702
 10
4.49658183085123
 20
5.75422485463605
 10
4.492662386505799
 20
5.742594299374306
 10
4.477322109115549
 20
5.742594299374306
 10
4.46538599830597
 20
5.742594299374306
 10
4.454372109695314
 20
5.75422485463605
 10
4.453125
 20
5.769219298701702
 10
4.45189016531357
 20
5.784288742765461
 10
4.458726276251986
 20
5.797044297998784
 10
4.472791666666656
 20
5.797044297998784
 10
4.482041666666671
 20
5.797044297998784
 10
4.494059608692724
 20
5.784288742765461
 10
4.495320719771977
 20
5.769219298701702
 97
        0
 97
        0
 75
     2
 76
     1
 98
        0
  0
SPLINE
  5
9C
330
1F
100
AcDbEntity
  8
Layer 1
370
     0
100
AcDbSpline
210
0.0
220
0.0
230
1.0
 70
    11
 71
     3
 72
    50
 73
    46
 74
     0
 42
0.0000000001
 43
0.0000000001
 12
1.0
 22
0.0
 32
0.0
 13
1.0
 23
0.0
 33
0.0
 40
0.0
 40
0.0
 40
0.0
 40
0.0
 40
1.0
 40
1.0
 40
1.0
 40
2.0
 40
2.0
 40
2.0
 40
3.0
 40
3.0
 40
3.0
 40
4.0
 40
4.0
 40
4.0
 40
5.0
 40
5.0
 40
5.0
 40
6.0
 40
6.0
 40
6.0
 40
7.0
 40
7.0
 40
7.0
 40
8.0
 40
8.0
 40
8.0
 40
9.0
 40
9.0
 40
9.0
 40
10.0
 40
10.0
 40
10.0
 40
11.0
 40
11.0
 40
11.0
 40
12.0
 40
12.0
 40
12.0
 40
13.0
 40
13.0
 40
13.0
 40
14.0
 40
14.0
 40
14.0
 40
15.0
 40
15.0
 40
15.0
 40
15.0
 10
4.480279053485295
 20
5.766526243214179
 30
0.0
 10
4.477023498011982
 20
5.766526243214179
 30
0.0
 10
4.471720720368163
 20
5.767224854307642
 30
0.0
 10
4.465983220513104
 20
5.768527777777775
 30
0.0
 10
4.467611111111106
 20
5.771877631967881
 30
0.0
 10
4.469292942651716
 20
5.774651243008925
 30
0.0
 10
4.470852664834537
 20
5.776210965191745
 30
0.0
 10
4.47220833333333
 20
5.77756790960191
 30
0.0
 10
4.47220833333333
 20
5.779765131768626
 30
0.0
 10
4.470852664834537
 20
5.781127631734206
 30
0.0
 10
4.469495720424371
 20
5.782470687255833
 30
0.0
 10
4.467312387146194
 20
5.782470687255833
 30
0.0
 10
4.465942942736344
 20
5.781127631734206
 30
0.0
 10
4.463758220569312
 20
5.778944444444442
 30
0.0
 10
4.461452665072001
 20
5.774942909668223
 30
0.0
 10
4.45928322068236
 20
5.770304020896522
 30
0.0
 10
4.45715277777779
 20
5.770941520880418
 30
0.0
 10
4.455091554121585
 20
5.771694444444443
 30
0.0
 10
4.453070720839301
 20
5.7724873541747
 30
0.0
 10
4.453084609727839
 20
5.77140277777778
 30
0.0
 10
4.453042943062226
 20
5.770331798673598
 30
0.0
 10
4.453125
 20
5.769219298701702
 30
0.0
 10
4.453260998612273
 20
5.767692909851373
 30
0.0
 10
4.453545720827302
 20
5.76623457655488
 30
0.0
 10
4.453856831930554
 20
5.764804021035464
 30
0.0
 10
4.454752665241257
 20
5.764498465487628
 30
0.0
 10
4.455620720774883
 20
5.764166666666672
 30
0.0
 10
4.456502665197048
 20
5.763888888888888
 30
0.0
 10
4.456027777777788
 20
5.762708333333332
 30
0.0
 10
4.455647109663105
 20
5.761515132229672
 30
0.0
 10
4.455213776340719
 20
5.760322076704256
 30
0.0
 10
4.456338776312299
 20
5.75730402122493
 30
0.0
 10
4.457872109606897
 20
5.754598465737723
 30
0.0
 10
4.459716554004747
 20
5.752210965798036
 30
0.0
 10
4.460720720646046
 20
5.755405410161782
 30
0.0
 10
4.461845720617626
 20
5.758748465632885
 30
0.0
 10
4.463162387251032
 20
5.762058187771496
 30
0.0
 10
4.469916666666677
 20
5.760430555555558
 30
0.0
 10
4.476263888888878
 20
5.759581798945166
 30
0.0
 10
4.480279053485295
 20
5.759581798945166
 30
0.0
 10
4.482205442325519
 20
5.759581798945166
 30
0.0
 10
4.483751275619801
 20
5.761135965572572
 30
0.0
 10
4.483751275619801
 20
5.763054021079673
 30
0.0
 10
4.483751275619801
 20
5.764973465475628
 30
0.0
 10
4.482205442325519
 20
5.766526243214179
 30
0.0
 10
4.480279053485295
 20
5.766526243214179
 30
0.0
  0
HATCH
  5
9D
330
1F
100
AcDbEntity
  8
Layer 1
 62
   250
420
  2301728
100
AcDbHatch
 10
0.0
 20
0.0
 30
0.0
210
0.0
220
0.0
230
1.0
  2
SOLID
 70
     1
 71
     0
 91
        1
 92
        1
 93
        2
 72
     4
 94
        3
 73
     0
 74
     0
 95
       50
 96
       46
 40
0.0
 40
0.0
 40
0.0
 40
0.0
 40
0.0138888888888889
 40
0.0138888888888889
 40
0.0138888888888889
 40
0.0277777777777778
 40
0.0277777777777778
 40
0.0277777777777778
 40
0.0416666666666667
 40
0.0416666666666667
 40
0.0416666666666667
 40
0.0555555555555556
 40
0.0555555555555556
 40
0.0555555555555556
 40
0.0694444444444444
 40
0.0694444444444444
 40
0.0694444444444444
 40
0.0833333333333333
 40
0.0833333333333333
 40
0.0833333333333333
 40
0.0972222222222222
 40
0.0972222222222222
 40
0.0972222222222222
 40
0.1111111111111111
 40
0.1111111111111111
 40
0.1111111111111111
 40
0.125
 40
0.125
 40
0.125
 40
0.1388888888888889
 40
0.1388888888888889
 40
0.1388888888888889
 40
0.1527777777777778
 40
0.1527777777777778
 40
0.1527777777777778
 40
0.1666666666666667
 40
0.1666666666666667
 40
0.1666666666666667
 40
0.1805555555555556
 40
0.1805555555555556
 40
0.1805555555555556
 40
0.1944444444444444
 40
0.1944444444444444
 40
0.1944444444444444
 40
0.2083333333333333
 40
0.2083333333333333
 40
0.2083333333333333
 40
0.2083333333333333
 10
4.480279053485295
 20
5.766526243214179
 10
4.477023498011982
 20
5.766526243214179
 10
4.471720720368163
 20
5.767224854307642
 10
4.465983220513104
 20
5.768527777777775
 10
4.467611111111106
 20
5.771877631967881
 10
4.469292942651716
 20
5.774651243008925
 10
4.470852664834537
 20
5.776210965191745
 10
4.47220833333333
 20
5.77756790960191
 10
4.47220833333333
 20
5.779765131768626
 10
4.470852664834537
 20
5.781127631734206
 10
4.469495720424371
 20
5.782470687255833
 10
4.467312387146194
 20
5.782470687255833
 10
4.465942942736344
 20
5.781127631734206
 10
4.463758220569312
 20
5.778944444444442
 10
4.461452665072001
 20
5.774942909668223
 10
4.45928322068236
 20
5.770304020896522
 10
4.45715277777779
 20
5.770941520880418
 10
4.455091554121585
 20
5.771694444444443
 10
4.453070720839301
 20
5.7724873541747
 10
4.453084609727839
 20
5.77140277777778
 10
4.453042943062226
 20
5.770331798673598
 10
4.453125
 20
5.769219298701702
 10
4.453260998612273
 20
5.767692909851373
 10
4.453545720827302
 20
5.76623457655488
 10
4.453856831930554
 20
5.764804021035464
 10
4.454752665241257
 20
5.764498465487628
 10
4.455620720774883
 20
5.764166666666672
 10
4.456502665197048
 20
5.763888888888888
 10
4.456027777777788
 20
5.762708333333332
 10
4.455647109663105
 20
5.761515132229672
 10
4.455213776340719
 20
5.760322076704256
 10
4.456338776312299
 20
5.75730402122493
 10
4.457872109606897
 20
5.754598465737723
 10
4.459716554004747
 20
5.752210965798036
 10
4.460720720646046
 20
5.755405410161782
 10
4.461845720617626
 20
5.758748465632885
 10
4.463162387251032
 20
5.762058187771496
 10
4.469916666666677
 20
5.760430555555558
 10
4.476263888888878
 20
5.759581798945166
 10
4.480279053485295
 20
5.759581798945166
 10
4.482205442325519
 20
5.759581798945166
 10
4.483751275619801
 20
5.761135965572572
 10
4.483751275619801
 20
5.763054021079673
 10
4.483751275619801
 20
5.764973465475628
 10
4.482205442325519
 20
5.766526243214179
 10
4.480279053485295
 20
5.766526243214179
 97
        0
 72
     1
 10
4.480279053485295
 20
5.766526243214179
 11
4.480279053485295
 21
5.766526243214179
 97
        0
 75
     2
 76
     1
 98
        0
  0
SPLINE
  5
9E
330
1F
100
AcDbEntity
  8
Layer 1
 62
   250
420
  2301728
370
     9
100
AcDbSpline
210
0.0
220
0.0
230
1.0
 70
    11
 71
     3
 72
    17
 73
    13
 74
     0
 42
0.0000000001
 43
0.0000000001
 12
1.0
 22
0.0
 32
0.0
 13
1.0
 23
0.0
 33
0.0
 40
0.0
 40
0.0
 40
0.0
 40
0.0
 40
1.0
 40
1.0
 40
1.0
 40
2.0
 40
2.0
 40
2.0
 40
3.0
 40
3.0
 40
3.0
 40
4.0
 40
4.0
 40
4.0
 40
4.0
 10
4.498291666666672
 20
5.489806805760256
 30
0.0
 10
4.499552664109514
 20
5.474826250583141
 30
0.0
 10
4.495631830875229
 20
5.463188750877129
 30
0.0
 10
4.480279053485295
 20
5.463188750877129
 30
0.0
 10
4.468342942675715
 20
5.463188750877129
 30
0.0
 10
4.457329054065061
 20
5.474826250583141
 30
0.0
 10
4.456108220762568
 20
5.489806805760256
 30
0.0
 10
4.454861111111111
 20
5.504876249824014
 30
0.0
 10
4.461697109510269
 20
5.517625000000003
 30
0.0
 10
4.475762386932729
 20
5.517625000000003
 30
0.0
 10
4.484998497810516
 20
5.517625000000003
 30
0.0
 10
4.49701655306247
 20
5.504876249824014
 30
0.0
 10
4.498291666666672
 20
5.489806805760256
 30
0.0
  0
HATCH
  5
9F
330
1F
100
AcDbEntity
  8
Layer 1
 62
   253
420
 10987947
100
AcDbHatch
 10
0.0
 20
0.0
 30
0.0
210
0.0
220
0.0
230
1.0
  2
SOLID
 70
     1
 71
     0
 91
        1
 92
        1
 93
        1
 72
     4
 94
        3
 73
     0
 74
     1
 95
       17
 96
       13
 40
0.0
 40
0.0
 40
0.0
 40
0.0
 40
1.0
 40
1.0
 40
1.0
 40
2.0
 40
2.0
 40
2.0
 40
3.0
 40
3.0
 40
3.0
 40
4.0
 40
4.0
 40
4.0
 40
4.0
 10
4.498291666666672
 20
5.489806805760256
 10
4.499552664109514
 20
5.474826250583141
 10
4.495631830875229
 20
5.463188750877129
 10
4.480279053485295
 20
5.463188750877129
 10
4.468342942675715
 20
5.463188750877129
 10
4.457329054065061
 20
5.474826250583141
 10
4.456108220762568
 20
5.489806805760256
 10
4.454861111111111
 20
5.504876249824014
 10
4.461697109510269
 20
5.517625000000003
 10
4.475762386932729
 20
5.517625000000003
 10
4.484998497810516
 20
5.517625000000003
 10
4.49701655306247
 20
5.504876249824014
 10
4.498291666666672
 20
5.489806805760256
 97
        0
 97
        0
 75
     2
 76
     1
 98
        0
  0
SPLINE
  5
A0
330
1F
100
AcDbEntity
  8
Layer 1
370
     0
100
AcDbSpline
210
0.0
220
0.0
230
1.0
 70
    11
 71
     3
 72
    50
 73
    46
 74
     0
 42
0.0000000001
 43
0.0000000001
 12
1.0
 22
0.0
 32
0.0
 13
1.0
 23
0.0
 33
0.0
 40
0.0
 40
0.0
 40
0.0
 40
0.0
 40
1.0
 40
1.0
 40
1.0
 40
2.0
 40
2.0
 40
2.0
 40
3.0
 40
3.0
 40
3.0
 40
4.0
 40
4.0
 40
4.0
 40
5.0
 40
5.0
 40
5.0
 40
6.0
 40
6.0
 40
6.0
 40
7.0
 40
7.0
 40
7.0
 40
8.0
 40
8.0
 40
8.0
 40
9.0
 40
9.0
 40
9.0
 40
10.0
 40
10.0
 40
10.0
 40
11.0
 40
11.0
 40
11.0
 40
12.0
 40
12.0
 40
12.0
 40
13.0
 40
13.0
 40
13.0
 40
14.0
 40
14.0
 40
14.0
 40
15.0
 40
15.0
 40
15.0
 40
15.0
 10
4.483262386743263
 20
5.487115139161586
 30
0.0
 10
4.480006831269949
 20
5.487115139161586
 30
0.0
 10
4.474690164737593
 20
5.487819444444439
 30
0.0
 10
4.46894016488285
 20
5.489108194666793
 30
0.0
 10
4.470594331507729
 20
5.492472222222217
 30
0.0
 10
4.472276275909684
 20
5.495252638956016
 30
0.0
 10
4.473822109203966
 20
5.496805555555562
 30
0.0
 10
4.475179053614132
 20
5.498155416660463
 30
0.0
 10
4.475179053614132
 20
5.50034569438291
 30
0.0
 10
4.473822109203966
 20
5.501708333333327
 30
0.0
 10
4.472466553682655
 20
5.503072083202924
 30
0.0
 10
4.470269331515939
 20
5.503072083202924
 30
0.0
 10
4.468912387105775
 20
5.501708333333327
 30
0.0
 10
4.466742942716134
 20
5.499524861070313
 30
0.0
 10
4.464437387218823
 20
5.495523472282508
 30
0.0
 10
4.462240165052107
 20
5.490885972399661
 30
0.0
 10
4.460123498438912
 20
5.491529027938971
 30
0.0
 10
4.458062387379869
 20
5.492274861253463
 30
0.0
 10
4.45605405409727
 20
5.493069444444447
 30
0.0
 10
4.45605405409727
 20
5.491984583483018
 30
0.0
 10
4.456000000000004
 20
5.490919305732151
 30
0.0
 10
4.456108220762568
 20
5.489806805760256
 30
0.0
 10
4.456217942982018
 20
5.488294305798477
 30
0.0
 10
4.456515165196732
 20
5.486830416946557
 30
0.0
 10
4.456841554077376
 20
5.485391528094017
 30
0.0
 10
4.457709609611002
 20
5.485080416990765
 30
0.0
 10
4.458577665144629
 20
5.484754028110122
 30
0.0
 10
4.459472222222226
 20
5.48448319478363
 30
0.0
 10
4.459010998467016
 20
5.483290139258214
 30
0.0
 10
4.458631831809927
 20
5.482095694843943
 30
0.0
 10
4.458184609599003
 20
5.480902777777778
 30
0.0
 10
4.459309609570583
 20
5.477891528283483
 30
0.0
 10
4.460842942865181
 20
5.475179028352007
 30
0.0
 10
4.462701276151569
 20
5.472791666666656
 30
0.0
 10
4.463677665015792
 20
5.475992917220335
 30
0.0
 10
4.46481655387591
 20
5.479342917135707
 30
0.0
 10
4.466145720508999
 20
5.482638888888888
 30
0.0
 10
4.472887387005358
 20
5.481024861537662
 30
0.0
 10
4.479220720178697
 20
5.480170694892573
 30
0.0
 10
4.483262386743263
 20
5.480170694892573
 30
0.0
 10
4.485174886694949
 20
5.480170694892573
 30
0.0
 10
4.486734608877769
 20
5.481716528186856
 30
0.0
 10
4.486734608877769
 20
5.48364291702708
 30
0.0
 10
4.486734608877769
 20
5.48556791697845
 30
0.0
 10
4.485174886694949
 20
5.487115139161586
 30
0.0
 10
4.483262386743263
 20
5.487115139161586
 30
0.0
  0
HATCH
  5
A1
330
1F
100
AcDbEntity
  8
Layer 1
 62
   250
420
  2301728
100
AcDbHatch
 10
0.0
 20
0.0
 30
0.0
210
0.0
220
0.0
230
1.0
  2
SOLID
 70
     1
 71
     0
 91
        1
 92
        1
 93
        2
 72
     4
 94
        3
 73
     0
 74
     0
 95
       50
 96
       46
 40
0.0
 40
0.0
 40
0.0
 40
0.0
 40
0.0138888888888889
 40
0.0138888888888889
 40
0.0138888888888889
 40
0.0277777777777778
 40
0.0277777777777778
 40
0.0277777777777778
 40
0.0416666666666667
 40
0.0416666666666667
 40
0.0416666666666667
 40
0.0555555555555556
 40
0.0555555555555556
 40
0.0555555555555556
 40
0.0694444444444444
 40
0.0694444444444444
 40
0.0694444444444444
 40
0.0833333333333333
 40
0.0833333333333333
 40
0.0833333333333333
 40
0.0972222222222222
 40
0.0972222222222222
 40
0.0972222222222222
 40
0.1111111111111111
 40
0.1111111111111111
 40
0.1111111111111111
 40
0.125
 40
0.125
 40
0.125
 40
0.1388888888888889
 40
0.1388888888888889
 40
0.1388888888888889
 40
0.1527777777777778
 40
0.1527777777777778
 40
0.1527777777777778
 40
0.1666666666666667
 40
0.1666666666666667
 40
0.1666666666666667
 40
0.1805555555555556
 40
0.1805555555555556
 40
0.1805555555555556
 40
0.1944444444444444
 40
0.1944444444444444
 40
0.1944444444444444
 40
0.2083333333333333
 40
0.2083333333333333
 40
0.2083333333333333
 40
0.2083333333333333
 10
4.483262386743263
 20
5.487115139161586
 10
4.480006831269949
 20
5.487115139161586
 10
4.474690164737593
 20
5.487819444444439
 10
4.46894016488285
 20
5.489108194666793
 10
4.470594331507729
 20
5.492472222222217
 10
4.472276275909684
 20
5.495252638956016
 10
4.473822109203966
 20
5.496805555555562
 10
4.475179053614132
 20
5.498155416660463
 10
4.475179053614132
 20
5.50034569438291
 10
4.473822109203966
 20
5.501708333333327
 10
4.472466553682655
 20
5.503072083202924
 10
4.470269331515939
 20
5.503072083202924
 10
4.468912387105775
 20
5.501708333333327
 10
4.466742942716134
 20
5.499524861070313
 10
4.464437387218823
 20
5.495523472282508
 10
4.462240165052107
 20
5.490885972399661
 10
4.460123498438912
 20
5.491529027938971
 10
4.458062387379869
 20
5.492274861253463
 10
4.45605405409727
 20
5.493069444444447
 10
4.45605405409727
 20
5.491984583483018
 10
4.456000000000004
 20
5.490919305732151
 10
4.456108220762568
 20
5.489806805760256
 10
4.456217942982018
 20
5.488294305798477
 10
4.456515165196732
 20
5.486830416946557
 10
4.456841554077376
 20
5.485391528094017
 10
4.457709609611002
 20
5.485080416990765
 10
4.458577665144629
 20
5.484754028110122
 10
4.459472222222226
 20
5.48448319478363
 10
4.459010998467016
 20
5.483290139258214
 10
4.458631831809927
 20
5.482095694843943
 10
4.458184609599003
 20
5.480902777777778
 10
4.459309609570583
 20
5.477891528283483
 10
4.460842942865181
 20
5.475179028352007
 10
4.462701276151569
 20
5.472791666666656
 10
4.463677665015792
 20
5.475992917220335
 10
4.46481655387591
 20
5.479342917135707
 10
4.466145720508999
 20
5.482638888888888
 10
4.472887387005358
 20
5.481024861537662
 10
4.479220720178697
 20
5.480170694892573
 10
4.483262386743263
 20
5.480170694892573
 10
4.485174886694949
 20
5.480170694892573
 10
4.486734608877769
 20
5.481716528186856
 10
4.486734608877769
 20
5.48364291702708
 10
4.486734608877769
 20
5.48556791697845
 10
4.485174886694949
 20
5.487115139161586
 10
4.483262386743263
 20
5.487115139161586
 97
        0
 72
     1
 10
4.483262386743263
 20
5.487115139161586
 11
4.483262386743263
 21
5.487115139161586
 97
        0
 75
     2
 76
     1
 98
        0
  0
SPLINE
  5
A2
330
1F
100
AcDbEntity
  8
Layer 1
 62
   250
420
  2301728
370
     9
100
AcDbSpline
210
0.0
220
0.0
230
1.0
 70
    11
 71
     3
 72
    17
 73
    13
 74
     0
 42
0.0000000001
 43
0.0000000001
 12
1.0
 22
0.0
 32
0.0
 13
1.0
 23
0.0
 33
0.0
 40
0.0
 40
0.0
 40
0.0
 40
0.0
 40
1.0
 40
1.0
 40
1.0
 40
2.0
 40
2.0
 40
2.0
 40
3.0
 40
3.0
 40
3.0
 40
4.0
 40
4.0
 40
4.0
 40
4.0
 10
4.597873494959054
 20
5.396172085903445
 30
0.0
 10
4.599120717149768
 20
5.381184586282061
 30
0.0
 10
4.595215161692876
 20
5.369547086576049
 30
0.0
 10
4.579861111111111
 20
5.369547086576049
 30
0.0
 10
4.567924884604508
 20
5.369547086576049
 30
0.0
 10
4.556912384882708
 20
5.381184586282061
 30
0.0
 10
4.555677662691677
 20
5.396172085903445
 30
0.0
 10
4.554442940500646
 20
5.411241529967204
 30
0.0
 10
4.561279051439063
 20
5.423990140756258
 30
0.0
 10
4.575330439972983
 20
5.423990140756258
 30
0.0
 10
4.584580439739309
 20
5.423990140756258
 30
0.0
 10
4.596598494991263
 20
5.411241529967204
 30
0.0
 10
4.597873494959054
 20
5.396172085903445
 30
0.0
  0
HATCH
  5
A3
330
1F
100
AcDbEntity
  8
Layer 1
 62
   253
420
 10987947
100
AcDbHatch
 10
0.0
 20
0.0
 30
0.0
210
0.0
220
0.0
230
1.0
  2
SOLID
 70
     1
 71
     0
 91
        1
 92
        1
 93
        1
 72
     4
 94
        3
 73
     0
 74
     1
 95
       17
 96
       13
 40
0.0
 40
0.0
 40
0.0
 40
0.0
 40
1.0
 40
1.0
 40
1.0
 40
2.0
 40
2.0
 40
2.0
 40
3.0
 40
3.0
 40
3.0
 40
4.0
 40
4.0
 40
4.0
 40
4.0
 10
4.597873494959054
 20
5.396172085903445
 10
4.599120717149768
 20
5.381184586282061
 10
4.595215161692876
 20
5.369547086576049
 10
4.579861111111111
 20
5.369547086576049
 10
4.567924884604508
 20
5.369547086576049
 10
4.556912384882708
 20
5.381184586282061
 10
4.555677662691677
 20
5.396172085903445
 10
4.554442940500646
 20
5.411241529967204
 10
4.561279051439063
 20
5.423990140756258
 10
4.575330439972983
 20
5.423990140756258
 10
4.584580439739309
 20
5.423990140756258
 10
4.596598494991263
 20
5.411241529967204
 10
4.597873494959054
 20
5.396172085903445
 97
        0
 97
        0
 75
     2
 76
     1
 98
        0
  0
SPLINE
  5
A4
330
1F
100
AcDbEntity
  8
Layer 1
370
     0
100
AcDbSpline
210
0.0
220
0.0
230
1.0
 70
    11
 71
     3
 72
    50
 73
    46
 74
     0
 42
0.0000000001
 43
0.0000000001
 12
1.0
 22
0.0
 32
0.0
 13
1.0
 23
0.0
 33
0.0
 40
0.0
 40
0.0
 40
0.0
 40
0.0
 40
1.0
 40
1.0
 40
1.0
 40
2.0
 40
2.0
 40
2.0
 40
3.0
 40
3.0
 40
3.0
 40
4.0
 40
4.0
 40
4.0
 40
5.0
 40
5.0
 40
5.0
 40
6.0
 40
6.0
 40
6.0
 40
7.0
 40
7.0
 40
7.0
 40
8.0
 40
8.0
 40
8.0
 40
9.0
 40
9.0
 40
9.0
 40
10.0
 40
10.0
 40
10.0
 40
11.0
 40
11.0
 40
11.0
 40
12.0
 40
12.0
 40
12.0
 40
13.0
 40
13.0
 40
13.0
 40
14.0
 40
14.0
 40
14.0
 40
15.0
 40
15.0
 40
15.0
 40
15.0
 10
4.582831828672371
 20
5.393473474860508
 30
0.0
 10
4.57956238431052
 20
5.393473474860508
 30
0.0
 10
4.57427349555524
 20
5.394179030398239
 30
0.0
 10
4.568522106811643
 20
5.395480419254252
 30
0.0
 10
4.570163773436838
 20
5.398830419169624
 30
0.0
 10
4.571845717838793
 20
5.401611111111101
 30
0.0
 10
4.573405440021613
 20
5.403156807949219
 30
0.0
 10
4.574760995542925
 20
5.404513888888888
 30
0.0
 10
4.574760995542925
 20
5.4067109745261
 30
0.0
 10
4.573405440021613
 20
5.408067918936265
 30
0.0
 10
4.572048495611448
 20
5.409423474457577
 30
0.0
 10
4.569851273444733
 20
5.409423474457577
 30
0.0
 10
4.568494329034567
 20
5.408067918936265
 30
0.0
 10
4.56631099575639
 20
5.405897085657771
 30
0.0
 10
4.564005440259077
 20
5.401909585758504
 30
0.0
 10
4.561822106980899
 20
5.397256808098265
 30
0.0
 10
4.559705440367704
 20
5.397894308082161
 30
0.0
 10
4.557644329308661
 20
5.398640141396653
 30
0.0
 10
4.555623496026379
 20
5.399441530265297
 30
0.0
 10
4.555637384914917
 20
5.398355419181623
 30
0.0
 10
4.555583333333339
 20
5.397270696986803
 30
0.0
 10
4.555677662691677
 20
5.396172085903445
 30
0.0
 10
4.555799884910812
 20
5.39465277777779
 30
0.0
 10
4.556098496014379
 20
5.393201252645162
 30
0.0
 10
4.556423496006169
 20
5.391763888888893
 30
0.0
 10
4.557291666666666
 20
5.391452641578224
 30
0.0
 10
4.558159607073422
 20
5.391113752697897
 30
0.0
 10
4.559055555555561
 20
5.390841530482551
 30
0.0
 10
4.558580440396124
 20
5.389662363845673
 30
0.0
 10
4.558187384850498
 20
5.388467919431402
 30
0.0
 10
4.557752662639258
 20
5.387274863905986
 30
0.0
 10
4.558891551499376
 20
5.384263888888881
 30
0.0
 10
4.560410995905436
 20
5.381551252939466
 30
0.0
 10
4.562269329191824
 20
5.379163752999779
 30
0.0
 10
4.563259606944585
 20
5.382351252919256
 30
0.0
 10
4.564398495804704
 20
5.385715141723166
 30
0.0
 10
4.56570127354957
 20
5.388997086084701
 30
0.0
 10
4.572455440045612
 20
5.38739708612512
 30
0.0
 10
4.57880266210749
 20
5.386529030591494
 30
0.0
 10
4.582831828672371
 20
5.386529030591494
 30
0.0
 10
4.584744328624057
 20
5.386529030591494
 30
0.0
 10
4.586304050806878
 20
5.388088752774315
 30
0.0
 10
4.586304050806878
 20
5.390001252726001
 30
0.0
 10
4.586304050806878
 20
5.391927641566225
 30
0.0
 10
4.584744328624057
 20
5.393473474860508
 30
0.0
 10
4.582831828672371
 20
5.393473474860508
 30
0.0
  0
HATCH
  5
A5
330
1F
100
AcDbEntity
  8
Layer 1
 62
   250
420
  2301728
100
AcDbHatch
 10
0.0
 20
0.0
 30
0.0
210
0.0
220
0.0
230
1.0
  2
SOLID
 70
     1
 71
     0
 91
        1
 92
        1
 93
        2
 72
     4
 94
        3
 73
     0
 74
     0
 95
       50
 96
       46
 40
0.0
 40
0.0
 40
0.0
 40
0.0
 40
0.0138888888888889
 40
0.0138888888888889
 40
0.0138888888888889
 40
0.0277777777777778
 40
0.0277777777777778
 40
0.0277777777777778
 40
0.0416666666666667
 40
0.0416666666666667
 40
0.0416666666666667
 40
0.0555555555555556
 40
0.0555555555555556
 40
0.0555555555555556
 40
0.0694444444444444
 40
0.0694444444444444
 40
0.0694444444444444
 40
0.0833333333333333
 40
0.0833333333333333
 40
0.0833333333333333
 40
0.0972222222222222
 40
0.0972222222222222
 40
0.0972222222222222
 40
0.1111111111111111
 40
0.1111111111111111
 40
0.1111111111111111
 40
0.125
 40
0.125
 40
0.125
 40
0.1388888888888889
 40
0.1388888888888889
 40
0.1388888888888889
 40
0.1527777777777778
 40
0.1527777777777778
 40
0.1527777777777778
 40
0.1666666666666667
 40
0.1666666666666667
 40
0.1666666666666667
 40
0.1805555555555556
 40
0.1805555555555556
 40
0.1805555555555556
 40
0.1944444444444444
 40
0.1944444444444444
 40
0.1944444444444444
 40
0.2083333333333333
 40
0.2083333333333333
 40
0.2083333333333333
 40
0.2083333333333333
 10
4.582831828672371
 20
5.393473474860508
 10
4.57956238431052
 20
5.393473474860508
 10
4.57427349555524
 20
5.394179030398239
 10
4.568522106811643
 20
5.395480419254252
 10
4.570163773436838
 20
5.398830419169624
 10
4.571845717838793
 20
5.401611111111101
 10
4.573405440021613
 20
5.403156807949219
 10
4.574760995542925
 20
5.404513888888888
 10
4.574760995542925
 20
5.4067109745261
 10
4.573405440021613
 20
5.408067918936265
 10
4.572048495611448
 20
5.409423474457577
 10
4.569851273444733
 20
5.409423474457577
 10
4.568494329034567
 20
5.408067918936265
 10
4.56631099575639
 20
5.405897085657771
 10
4.564005440259077
 20
5.401909585758504
 10
4.561822106980899
 20
5.397256808098265
 10
4.559705440367704
 20
5.397894308082161
 10
4.557644329308661
 20
5.398640141396653
 10
4.555623496026379
 20
5.399441530265297
 10
4.555637384914917
 20
5.398355419181623
 10
4.555583333333339
 20
5.397270696986803
 10
4.555677662691677
 20
5.396172085903445
 10
4.555799884910812
 20
5.39465277777779
 10
4.556098496014379
 20
5.393201252645162
 10
4.556423496006169
 20
5.391763888888893
 10
4.557291666666666
 20
5.391452641578224
 10
4.558159607073422
 20
5.391113752697897
 10
4.559055555555561
 20
5.390841530482551
 10
4.558580440396124
 20
5.389662363845673
 10
4.558187384850498
 20
5.388467919431402
 10
4.557752662639258
 20
5.387274863905986
 10
4.558891551499376
 20
5.384263888888881
 10
4.560410995905436
 20
5.381551252939466
 10
4.562269329191824
 20
5.379163752999779
 10
4.563259606944585
 20
5.382351252919256
 10
4.564398495804704
 20
5.385715141723166
 10
4.56570127354957
 20
5.388997086084701
 10
4.572455440045612
 20
5.38739708612512
 10
4.57880266210749
 20
5.386529030591494
 10
4.582831828672371
 20
5.386529030591494
 10
4.584744328624057
 20
5.386529030591494
 10
4.586304050806878
 20
5.388088752774315
 10
4.586304050806878
 20
5.390001252726001
 10
4.586304050806878
 20
5.391927641566225
 10
4.584744328624057
 20
5.393473474860508
 10
4.582831828672371
 20
5.393473474860508
 97
        0
 72
     1
 10
4.582831828672371
 20
5.393473474860508
 11
4.582831828672371
 21
5.393473474860508
 97
        0
 75
     2
 76
     1
 98
        0
  0
SPLINE
  5
A6
330
1F
100
AcDbEntity
  8
Layer 1
 62
   250
420
  2301728
370
     9
100
AcDbSpline
210
0.0
220
0.0
230
1.0
 70
     8
 71
     3
 72
    20
 73
    16
 74
     0
 42
0.0000000001
 43
0.0000000001
 12
1.0
 22
0.0
 32
0.0
 13
1.0
 23
0.0
 33
0.0
 40
0.0
 40
0.0
 40
0.0
 40
0.0
 40
1.0
 40
1.0
 40
1.0
 40
2.0
 40
2.0
 40
2.0
 40
3.0
 40
3.0
 40
3.0
 40
4.0
 40
4.0
 40
4.0
 40
5.0
 40
5.0
 40
5.0
 40
5.0
 10
4.478611111111099
 20
4.221570726687483
 30
0.0
 10
4.478611111111099
 20
4.221570726687483
 30
0.0
 10
4.445881832132019
 20
4.259466559063488
 30
0.0
 10
4.445881832132019
 20
4.259466559063488
 30
0.0
 10
4.445881832132019
 20
4.259466559063488
 30
0.0
 10
4.4457471099132
 20
4.752373491056056
 30
0.0
 10
4.4457471099132
 20
4.771456823907303
 30
0.0
 10
4.4457471099132
 20
4.787760990162092
 30
0.0
 10
4.457356831842136
 20
4.784722222222222
 30
0.0
 10
4.457356831842136
 20
4.802829045336996
 30
0.0
 10
4.457356831842136
 20
4.817247100528321
 30
0.0
 10
4.445583333333338
 20
4.814263888888894
 30
0.0
 10
4.445583333333338
 20
4.826944444444456
 30
0.0
 10
4.445583333333338
 20
4.839626266629643
 30
0.0
 10
4.445583333333338
 20
4.90071654286415
 30
0.0
 10
4.445583333333338
 20
4.90071654286415
 30
0.0
  0
SPLINE
  5
A7
330
1F
100
AcDbEntity
  8
Layer 1
 62
   250
420
  2301728
370
    18
100
AcDbSpline
210
0.0
220
0.0
230
1.0
 70
    11
 71
     3
 72
    17
 73
    13
 74
     0
 42
0.0000000001
 43
0.0000000001
 12
1.0
 22
0.0
 32
0.0
 13
1.0
 23
0.0
 33
0.0
 40
0.0
 40
0.0
 40
0.0
 40
0.0
 40
1.0
 40
1.0
 40
1.0
 40
2.0
 40
2.0
 40
2.0
 40
3.0
 40
3.0
 40
3.0
 40
4.0
 40
4.0
 40
4.0
 40
4.0
 10
4.54836655176526
 20
4.333305555555549
 30
0.0
 10
4.547119329574545
 20
4.315416666666654
 30
0.0
 10
4.536133218740966
 20
4.30102489134697
 30
0.0
 10
4.523790163497223
 20
4.301161002454642
 30
0.0
 10
4.511529052695853
 20
4.301309613561999
 30
0.0
 10
4.502604052921318
 20
4.315917946526294
 30
0.0
 10
4.503879052889109
 20
4.333822112740664
 30
0.0
 10
4.505154052856899
 20
4.351698501177958
 30
0.0
 10
4.516167941467554
 20
4.366102667480744
 30
0.0
 10
4.528509607822444
 20
4.365952667484533
 30
0.0
 10
4.540744329735591
 20
4.365804056377177
 30
0.0
 10
4.549695718398349
 20
4.35119572341288
 30
0.0
 10
4.54836655176526
 20
4.333305555555549
 30
0.0
  0
SPLINE
  5
A8
330
1F
100
AcDbEntity
  8
Layer 1
 62
   250
420
  2301728
370
     9
100
AcDbSpline
210
0.0
220
0.0
230
1.0
 70
    11
 71
     3
 72
    17
 73
    13
 74
     0
 42
0.0000000001
 43
0.0000000001
 12
1.0
 22
0.0
 32
0.0
 13
1.0
 23
0.0
 33
0.0
 40
0.0
 40
0.0
 40
0.0
 40
0.0
 40
1.0
 40
1.0
 40
1.0
 40
2.0
 40
2.0
 40
2.0
 40
3.0
 40
3.0
 40
3.0
 40
4.0
 40
4.0
 40
4.0
 40
4.0
 10
4.507784608346001
 20
4.636176271769222
 30
0.0
 10
4.507784608346001
 20
4.620238772171837
 30
0.0
 10
4.49806099748053
 20
4.607326272498034
 30
0.0
 10
4.486056831117113
 20
4.607326272498034
 30
0.0
 10
4.474040164754014
 20
4.607326272498034
 30
0.0
 10
4.46430127611115
 20
4.620238772171837
 30
0.0
 10
4.46430127611115
 20
4.636176271769222
 30
0.0
 10
4.46430127611115
 20
4.652099882478069
 30
0.0
 10
4.474040164754014
 20
4.665012382151872
 30
0.0
 10
4.486056831117113
 20
4.665012382151872
 30
0.0
 10
4.49806099748053
 20
4.665012382151872
 30
0.0
 10
4.507784608346001
 20
4.652099882478069
 30
0.0
 10
4.507784608346001
 20
4.636176271769222
 30
0.0
  0
HATCH
  5
A9
330
1F
100
AcDbEntity
  8
Layer 1
 62
   253
420
 10987947
100
AcDbHatch
 10
0.0
 20
0.0
 30
0.0
210
0.0
220
0.0
230
1.0
  2
SOLID
 70
     1
 71
     0
 91
        1
 92
        1
 93
        1
 72
     4
 94
        3
 73
     0
 74
     1
 95
       17
 96
       13
 40
0.0
 40
0.0
 40
0.0
 40
0.0
 40
1.0
 40
1.0
 40
1.0
 40
2.0
 40
2.0
 40
2.0
 40
3.0
 40
3.0
 40
3.0
 40
4.0
 40
4.0
 40
4.0
 40
4.0
 10
4.507784608346001
 20
4.636176271769222
 10
4.507784608346001
 20
4.620238772171837
 10
4.49806099748053
 20
4.607326272498034
 10
4.486056831117113
 20
4.607326272498034
 10
4.474040164754014
 20
4.607326272498034
 10
4.46430127611115
 20
4.620238772171837
 10
4.46430127611115
 20
4.636176271769222
 10
4.46430127611115
 20
4.652099882478069
 10
4.474040164754014
 20
4.665012382151872
 10
4.486056831117113
 20
4.665012382151872
 10
4.49806099748053
 20
4.665012382151872
 10
4.507784608346001
 20
4.652099882478069
 10
4.507784608346001
 20
4.636176271769222
 97
        0
 97
        0
 75
     2
 76
     1
 98
        0
  0
SPLINE
  5
AA
330
1F
100
AcDbEntity
  8
Layer 1
 62
   250
420
  2301728
370
    18
100
AcDbSpline
210
0.0
220
0.0
230
1.0
 70
    11
 71
     3
 72
    17
 73
    13
 74
     0
 42
0.0000000001
 43
0.0000000001
 12
1.0
 22
0.0
 32
0.0
 13
1.0
 23
0.0
 33
0.0
 40
0.0
 40
0.0
 40
0.0
 40
0.0
 40
1.0
 40
1.0
 40
1.0
 40
2.0
 40
2.0
 40
2.0
 40
3.0
 40
3.0
 40
3.0
 40
4.0
 40
4.0
 40
4.0
 40
4.0
 10
4.553520718301721
 20
4.770724879481349
 30
0.0
 10
4.55300544053696
 20
4.763563768551143
 30
0.0
 10
4.548611111111111
 20
4.757812379807547
 30
0.0
 10
4.543673496328261
 20
4.757866546472845
 30
0.0
 10
4.538791666666662
 20
4.757920713138143
 30
0.0
 10
4.535210996542042
 20
4.76375265743526
 30
0.0
 10
4.535726274306803
 20
4.77091515725432
 30
0.0
 10
4.536241552071563
 20
4.778076268184527
 30
0.0
 10
4.540635996404995
 20
4.783826268039269
 30
0.0
 10
4.545573496280263
 20
4.78377210137397
 30
0.0
 10
4.550455440601379
 20
4.783717934708672
 30
0.0
 10
4.554035996066482
 20
4.777859601523333
 30
0.0
 10
4.553520718301721
 20
4.770724879481349
 30
0.0
  0
HATCH
  5
AB
330
1F
100
AcDbEntity
  8
Layer 1
 62
   253
420
 10987947
100
AcDbHatch
 10
0.0
 20
0.0
 30
0.0
210
0.0
220
0.0
230
1.0
  2
SOLID
 70
     1
 71
     0
 91
        1
 92
        1
 93
        1
 72
     4
 94
        3
 73
     0
 74
     1
 95
       17
 96
       13
 40
0.0
 40
0.0
 40
0.0
 40
0.0
 40
1.0
 40
1.0
 40
1.0
 40
2.0
 40
2.0
 40
2.0
 40
3.0
 40
3.0
 40
3.0
 40
4.0
 40
4.0
 40
4.0
 40
4.0
 10
4.553520718301721
 20
4.770724879481349
 10
4.55300544053696
 20
4.763563768551143
 10
4.548611111111111
 20
4.757812379807547
 10
4.543673496328261
 20
4.757866546472845
 10
4.538791666666662
 20
4.757920713138143
 10
4.535210996542042
 20
4.76375265743526
 10
4.535726274306803
 20
4.77091515725432
 10
4.536241552071563
 20
4.778076268184527
 10
4.540635996404995
 20
4.783826268039269
 10
4.545573496280263
 20
4.78377210137397
 10
4.550455440601379
 20
4.783717934708672
 10
4.554035996066482
 20
4.777859601523333
 10
4.553520718301721
 20
4.770724879481349
 97
        0
 97
        0
 75
     2
 76
     1
 98
        0
  0
SPLINE
  5
AC
330
1F
100
AcDbEntity
  8
Layer 1
370
     0
100
AcDbSpline
210
0.0
220
0.0
230
1.0
 70
    11
 71
     3
 72
    53
 73
    49
 74
     0
 42
0.0000000001
 43
0.0000000001
 12
1.0
 22
0.0
 32
0.0
 13
1.0
 23
0.0
 33
0.0
 40
0.0
 40
0.0
 40
0.0
 40
0.0
 40
1.0
 40
1.0
 40
1.0
 40
2.0
 40
2.0
 40
2.0
 40
3.0
 40
3.0
 40
3.0
 40
4.0
 40
4.0
 40
4.0
 40
5.0
 40
5.0
 40
5.0
 40
6.0
 40
6.0
 40
6.0
 40
7.0
 40
7.0
 40
7.0
 40
8.0
 40
8.0
 40
8.0
 40
9.0
 40
9.0
 40
9.0
 40
10.0
 40
10.0
 40
10.0
 40
11.0
 40
11.0
 40
11.0
 40
12.0
 40
12.0
 40
12.0
 40
13.0
 40
13.0
 40
13.0
 40
14.0
 40
14.0
 40
14.0
 40
15.0
 40
15.0
 40
15.0
 40
16.0
 40
16.0
 40
16.0
 40
16.0
 10
4.507784608346001
 20
4.636176271769222
 30
0.0
 10
4.507784608346001
 20
4.63651516064955
 30
0.0
 10
4.507730441680703
 20
4.636827660641655
 30
0.0
 10
4.507730441680703
 20
4.637180555555561
 30
0.0
 10
4.504991552861005
 20
4.635999999999992
 30
0.0
 10
4.502183219598615
 20
4.635077660685864
 30
0.0
 10
4.499402777777783
 20
4.634576271809641
 30
0.0
 10
4.49846655302584
 20
4.638183216162966
 30
0.0
 10
4.497477664161933
 20
4.641222222222217
 30
0.0
 10
4.496663775293604
 20
4.643038771595861
 30
0.0
 10
4.49586238642496
 20
4.64480266044019
 30
0.0
 10
4.493841553142677
 20
4.645588771531442
 30
0.0
 10
4.492079053187202
 20
4.64480266044019
 30
0.0
 10
4.490315164342872
 20
4.644029049348622
 30
0.0
 10
4.48952905325162
 20
4.641981827178117
 30
0.0
 10
4.490302664343188
 20
4.640217938333787
 30
0.0
 10
4.491020719880604
 20
4.638630438373891
 30
0.0
 10
4.491754053195412
 20
4.636379049541877
 30
0.0
 10
4.492445719844605
 20
4.633842938494833
 30
0.0
 10
4.488348497725888
 20
4.633680555555555
 30
0.0
 10
4.485106831141112
 20
4.633979049602506
 30
0.0
 10
4.484076275611591
 20
4.634169327375477
 30
0.0
 10
4.485731831125324
 20
4.633842938494833
 30
0.0
 10
4.481092942353623
 20
4.633042938515043
 30
0.0
 10
4.481092942353623
 20
4.631429049666925
 30
0.0
 10
4.481092942353623
 20
4.631198494117194
 30
0.0
 10
4.481051275688009
 20
4.630967938567462
 30
0.0
 10
4.481010997911249
 20
4.630737383017731
 30
0.0
 10
4.480685997919459
 20
4.629095716392536
 30
0.0
 10
4.485026275587592
 20
4.627333333333328
 30
0.0
 10
4.483424886739158
 20
4.627305555555545
 30
0.0
 10
4.485242942248785
 20
4.627006827556417
 30
0.0
 10
4.48920405325983
 20
4.626708333333327
 30
0.0
 10
4.494005442027426
 20
4.627006827556417
 30
0.0
 10
4.495090164222246
 20
4.621229049924598
 30
0.0
 10
4.495687386429381
 20
4.614935994528019
 30
0.0
 10
4.495104053110784
 20
4.610026272429827
 30
0.0
 10
4.497830441930798
 20
4.611680555555545
 30
0.0
 10
4.500190164093409
 20
4.614040161217316
 30
0.0
 10
4.502129052933317
 20
4.616942938921763
 30
0.0
 10
4.50198044182596
 20
4.620577661052165
 30
0.0
 10
4.501533219615036
 20
4.62429432762494
 30
0.0
 10
4.50089571963114
 20
4.627820716424745
 30
0.0
 10
4.502956830690183
 20
4.628173494193612
 30
0.0
 10
4.50505960841484
 20
4.628797105288968
 30
0.0
 10
4.507147108362106
 20
4.629476271938478
 30
0.0
 10
4.507541666666662
 20
4.631619327439895
 30
0.0
 10
4.507784608346001
 20
4.633842938494833
 30
0.0
 10
4.507784608346001
 20
4.636176271769222
 30
0.0
  0
HATCH
  5
AD
330
1F
100
AcDbEntity
  8
Layer 1
 62
   250
420
  2301728
100
AcDbHatch
 10
0.0
 20
0.0
 30
0.0
210
0.0
220
0.0
230
1.0
  2
SOLID
 70
     1
 71
     0
 91
        1
 92
        1
 93
        2
 72
     4
 94
        3
 73
     0
 74
     0
 95
       53
 96
       49
 40
0.0
 40
0.0
 40
0.0
 40
0.0
 40
0.0138888888888889
 40
0.0138888888888889
 40
0.0138888888888889
 40
0.0277777777777778
 40
0.0277777777777778
 40
0.0277777777777778
 40
0.0416666666666667
 40
0.0416666666666667
 40
0.0416666666666667
 40
0.0555555555555556
 40
0.0555555555555556
 40
0.0555555555555556
 40
0.0694444444444444
 40
0.0694444444444444
 40
0.0694444444444444
 40
0.0833333333333333
 40
0.0833333333333333
 40
0.0833333333333333
 40
0.0972222222222222
 40
0.0972222222222222
 40
0.0972222222222222
 40
0.1111111111111111
 40
0.1111111111111111
 40
0.1111111111111111
 40
0.125
 40
0.125
 40
0.125
 40
0.1388888888888889
 40
0.1388888888888889
 40
0.1388888888888889
 40
0.1527777777777778
 40
0.1527777777777778
 40
0.1527777777777778
 40
0.1666666666666667
 40
0.1666666666666667
 40
0.1666666666666667
 40
0.1805555555555556
 40
0.1805555555555556
 40
0.1805555555555556
 40
0.1944444444444444
 40
0.1944444444444444
 40
0.1944444444444444
 40
0.2083333333333333
 40
0.2083333333333333
 40
0.2083333333333333
 40
0.2222222222222222
 40
0.2222222222222222
 40
0.2222222222222222
 40
0.2222222222222222
 10
4.507784608346001
 20
4.636176271769222
 10
4.507784608346001
 20
4.63651516064955
 10
4.507730441680703
 20
4.636827660641655
 10
4.507730441680703
 20
4.637180555555561
 10
4.504991552861005
 20
4.635999999999992
 10
4.502183219598615
 20
4.635077660685864
 10
4.499402777777783
 20
4.634576271809641
 10
4.49846655302584
 20
4.638183216162966
 10
4.497477664161933
 20
4.641222222222217
 10
4.496663775293604
 20
4.643038771595861
 10
4.49586238642496
 20
4.64480266044019
 10
4.493841553142677
 20
4.645588771531442
 10
4.492079053187202
 20
4.64480266044019
 10
4.490315164342872
 20
4.644029049348622
 10
4.48952905325162
 20
4.641981827178117
 10
4.490302664343188
 20
4.640217938333787
 10
4.491020719880604
 20
4.638630438373891
 10
4.491754053195412
 20
4.636379049541877
 10
4.492445719844605
 20
4.633842938494833
 10
4.488348497725888
 20
4.633680555555555
 10
4.485106831141112
 20
4.633979049602506
 10
4.484076275611591
 20
4.634169327375477
 10
4.485731831125324
 20
4.633842938494833
 10
4.481092942353623
 20
4.633042938515043
 10
4.481092942353623
 20
4.631429049666925
 10
4.481092942353623
 20
4.631198494117194
 10
4.481051275688009
 20
4.630967938567462
 10
4.481010997911249
 20
4.630737383017731
 10
4.480685997919459
 20
4.629095716392536
 10
4.485026275587592
 20
4.627333333333328
 10
4.483424886739158
 20
4.627305555555545
 10
4.485242942248785
 20
4.627006827556417
 10
4.48920405325983
 20
4.626708333333327
 10
4.494005442027426
 20
4.627006827556417
 10
4.495090164222246
 20
4.621229049924598
 10
4.495687386429381
 20
4.614935994528019
 10
4.495104053110784
 20
4.610026272429827
 10
4.497830441930798
 20
4.611680555555545
 10
4.500190164093409
 20
4.614040161217316
 10
4.502129052933317
 20
4.616942938921763
 10
4.50198044182596
 20
4.620577661052165
 10
4.501533219615036
 20
4.62429432762494
 10
4.50089571963114
 20
4.627820716424745
 10
4.502956830690183
 20
4.628173494193612
 10
4.50505960841484
 20
4.628797105288968
 10
4.507147108362106
 20
4.629476271938478
 10
4.507541666666662
 20
4.631619327439895
 10
4.507784608346001
 20
4.633842938494833
 10
4.507784608346001
 20
4.636176271769222
 97
        0
 72
     1
 10
4.507784608346001
 20
4.636176271769222
 11
4.507784608346001
 21
4.636176271769222
 97
        0
 75
     2
 76
     1
 98
        0
  0
SPLINE
  5
AE
330
1F
100
AcDbEntity
  8
Layer 1
 62
   250
420
  2301728
370
     9
100
AcDbSpline
210
0.0
220
0.0
230
1.0
 70
    11
 71
     3
 72
    17
 73
    13
 74
     0
 42
0.0000000001
 43
0.0000000001
 12
1.0
 22
0.0
 32
0.0
 13
1.0
 23
0.0
 33
0.0
 40
0.0
 40
0.0
 40
0.0
 40
0.0
 40
1.0
 40
1.0
 40
1.0
 40
2.0
 40
2.0
 40
2.0
 40
3.0
 40
3.0
 40
3.0
 40
4.0
 40
4.0
 40
4.0
 40
4.0
 10
4.59073877291707
 20
4.61208738348887
 30
0.0
 10
4.59073877291707
 20
4.596151272780339
 30
0.0
 10
4.581000000000004
 20
4.583238773106536
 30
0.0
 10
4.568997106799643
 20
4.583238773106536
 30
0.0
 10
4.556992940436228
 20
4.583238773106536
 30
0.0
 10
4.547254051793364
 20
4.596151272780339
 30
0.0
 10
4.547254051793364
 20
4.61208738348887
 30
0.0
 10
4.547254051793364
 20
4.628010994197717
 30
0.0
 10
4.556992940436228
 20
4.64092349387152
 30
0.0
 10
4.568997106799643
 20
4.64092349387152
 30
0.0
 10
4.581000000000004
 20
4.64092349387152
 30
0.0
 10
4.59073877291707
 20
4.628010994197717
 30
0.0
 10
4.59073877291707
 20
4.61208738348887
 30
0.0
  0
HATCH
  5
AF
330
1F
100
AcDbEntity
  8
Layer 1
 62
   253
420
 10987947
100
AcDbHatch
 10
0.0
 20
0.0
 30
0.0
210
0.0
220
0.0
230
1.0
  2
SOLID
 70
     1
 71
     0
 91
        1
 92
        1
 93
        1
 72
     4
 94
        3
 73
     0
 74
     1
 95
       17
 96
       13
 40
0.0
 40
0.0
 40
0.0
 40
0.0
 40
1.0
 40
1.0
 40
1.0
 40
2.0
 40
2.0
 40
2.0
 40
3.0
 40
3.0
 40
3.0
 40
4.0
 40
4.0
 40
4.0
 40
4.0
 10
4.59073877291707
 20
4.61208738348887
 10
4.59073877291707
 20
4.596151272780339
 10
4.581000000000004
 20
4.583238773106536
 10
4.568997106799643
 20
4.583238773106536
 10
4.556992940436228
 20
4.583238773106536
 10
4.547254051793364
 20
4.596151272780339
 10
4.547254051793364
 20
4.61208738348887
 10
4.547254051793364
 20
4.628010994197717
 10
4.556992940436228
 20
4.64092349387152
 10
4.568997106799643
 20
4.64092349387152
 10
4.581000000000004
 20
4.64092349387152
 10
4.59073877291707
 20
4.628010994197717
 10
4.59073877291707
 20
4.61208738348887
 97
        0
 97
        0
 75
     2
 76
     1
 98
        0
  0
SPLINE
  5
B0
330
1F
100
AcDbEntity
  8
Layer 1
370
     0
100
AcDbSpline
210
0.0
220
0.0
230
1.0
 70
    11
 71
     3
 72
    53
 73
    49
 74
     0
 42
0.0000000001
 43
0.0000000001
 12
1.0
 22
0.0
 32
0.0
 13
1.0
 23
0.0
 33
0.0
 40
0.0
 40
0.0
 40
0.0
 40
0.0
 40
1.0
 40
1.0
 40
1.0
 40
2.0
 40
2.0
 40
2.0
 40
3.0
 40
3.0
 40
3.0
 40
4.0
 40
4.0
 40
4.0
 40
5.0
 40
5.0
 40
5.0
 40
6.0
 40
6.0
 40
6.0
 40
7.0
 40
7.0
 40
7.0
 40
8.0
 40
8.0
 40
8.0
 40
9.0
 40
9.0
 40
9.0
 40
10.0
 40
10.0
 40
10.0
 40
11.0
 40
11.0
 40
11.0
 40
12.0
 40
12.0
 40
12.0
 40
13.0
 40
13.0
 40
13.0
 40
14.0
 40
14.0
 40
14.0
 40
15.0
 40
15.0
 40
15.0
 40
16.0
 40
16.0
 40
16.0
 40
16.0
 10
4.59073877291707
 20
4.61208738348887
 30
0.0
 10
4.59073877291707
 20
4.612426272369198
 30
0.0
 10
4.590670717363233
 20
4.612738772361303
 30
0.0
 10
4.590656828474695
 20
4.613091550130169
 30
0.0
 10
4.587944444444449
 20
4.611910994604437
 30
0.0
 10
4.585123495281146
 20
4.610988772405512
 30
0.0
 10
4.582356828684371
 20
4.610487383529289
 30
0.0
 10
4.581420717596908
 20
4.614094327882614
 30
0.0
 10
4.580416666666679
 20
4.617133216694734
 30
0.0
 10
4.579602662087281
 20
4.618951272204362
 30
0.0
 10
4.578830439884566
 20
4.620713772159838
 30
0.0
 10
4.576767939936669
 20
4.621499999999994
 30
0.0
 10
4.575019328869732
 20
4.620713772159838
 30
0.0
 10
4.57326932891394
 20
4.61994016106827
 30
0.0
 10
4.572483217822688
 20
4.617892938897764
 30
0.0
 10
4.573255440025402
 20
4.616129050053435
 30
0.0
 10
4.573960995563135
 20
4.614542938982392
 30
0.0
 10
4.574706828877626
 20
4.612291666666654
 30
0.0
 10
4.57539849552682
 20
4.609754050214481
 30
0.0
 10
4.571288773408418
 20
4.609591550218586
 30
0.0
 10
4.568060995712181
 20
4.609876272433616
 30
0.0
 10
4.567030440182659
 20
4.610080439095125
 30
0.0
 10
4.568670717919
 20
4.609754050214481
 30
0.0
 10
4.564033218036153
 20
4.608954050234691
 30
0.0
 10
4.564033218036153
 20
4.607340161386572
 30
0.0
 10
4.564033218036153
 20
4.607109605836841
 30
0.0
 10
4.564019329147615
 20
4.60687905028711
 30
0.0
 10
4.563965162482317
 20
4.606648494737379
 30
0.0
 10
4.563638888888893
 20
4.605006828112184
 30
0.0
 10
4.567979051269806
 20
4.603244328156708
 30
0.0
 10
4.566365162421688
 20
4.603216550379632
 30
0.0
 10
4.568169329042777
 20
4.602919328164918
 30
0.0
 10
4.572142940053507
 20
4.602620717061351
 30
0.0
 10
4.576958333333323
 20
4.602919328164918
 30
0.0
 10
4.578030439904776
 20
4.597140161644246
 30
0.0
 10
4.578640162111595
 20
4.590847222222211
 30
0.0
 10
4.578070717681536
 20
4.585937384149474
 30
0.0
 10
4.58075682872479
 20
4.587591550774353
 30
0.0
 10
4.583116550887401
 20
4.589952661825818
 30
0.0
 10
4.585097222222227
 20
4.592854050641411
 30
0.0
 10
4.584906828619952
 20
4.596490161660666
 30
0.0
 10
4.58450000000001
 20
4.600205439344588
 30
0.0
 10
4.583848495313355
 20
4.603733217033247
 30
0.0
 10
4.585897106372713
 20
4.604098494801797
 30
0.0
 10
4.587998495208518
 20
4.60470960589747
 30
0.0
 10
4.590087384044637
 20
4.605387383658126
 30
0.0
 10
4.590480439590262
 20
4.607530439159543
 30
0.0
 10
4.59073877291707
 20
4.609754050214481
 30
0.0
 10
4.59073877291707
 20
4.61208738348887
 30
0.0
  0
HATCH
  5
B1
330
1F
100
AcDbEntity
  8
Layer 1
 62
   250
420
  2301728
100
AcDbHatch
 10
0.0
 20
0.0
 30
0.0
210
0.0
220
0.0
230
1.0
  2
SOLID
 70
     1
 71
     0
 91
        1
 92
        1
 93
        2
 72
     4
 94
        3
 73
     0
 74
     0
 95
       53
 96
       49
 40
0.0
 40
0.0
 40
0.0
 40
0.0
 40
0.0138888888888889
 40
0.0138888888888889
 40
0.0138888888888889
 40
0.0277777777777778
 40
0.0277777777777778
 40
0.0277777777777778
 40
0.0416666666666667
 40
0.0416666666666667
 40
0.0416666666666667
 40
0.0555555555555556
 40
0.0555555555555556
 40
0.0555555555555556
 40
0.0694444444444444
 40
0.0694444444444444
 40
0.0694444444444444
 40
0.0833333333333333
 40
0.0833333333333333
 40
0.0833333333333333
 40
0.0972222222222222
 40
0.0972222222222222
 40
0.0972222222222222
 40
0.1111111111111111
 40
0.1111111111111111
 40
0.1111111111111111
 40
0.125
 40
0.125
 40
0.125
 40
0.1388888888888889
 40
0.1388888888888889
 40
0.1388888888888889
 40
0.1527777777777778
 40
0.1527777777777778
 40
0.1527777777777778
 40
0.1666666666666667
 40
0.1666666666666667
 40
0.1666666666666667
 40
0.1805555555555556
 40
0.1805555555555556
 40
0.1805555555555556
 40
0.1944444444444444
 40
0.1944444444444444
 40
0.1944444444444444
 40
0.2083333333333333
 40
0.2083333333333333
 40
0.2083333333333333
 40
0.2222222222222222
 40
0.2222222222222222
 40
0.2222222222222222
 40
0.2222222222222222
 10
4.59073877291707
 20
4.61208738348887
 10
4.59073877291707
 20
4.612426272369198
 10
4.590670717363233
 20
4.612738772361303
 10
4.590656828474695
 20
4.613091550130169
 10
4.587944444444449
 20
4.611910994604437
 10
4.585123495281146
 20
4.610988772405512
 10
4.582356828684371
 20
4.610487383529289
 10
4.581420717596908
 20
4.614094327882614
 10
4.580416666666679
 20
4.617133216694734
 10
4.579602662087281
 20
4.618951272204362
 10
4.578830439884566
 20
4.620713772159838
 10
4.576767939936669
 20
4.621499999999994
 10
4.575019328869732
 20
4.620713772159838
 10
4.57326932891394
 20
4.61994016106827
 10
4.572483217822688
 20
4.617892938897764
 10
4.573255440025402
 20
4.616129050053435
 10
4.573960995563135
 20
4.614542938982392
 10
4.574706828877626
 20
4.612291666666654
 10
4.57539849552682
 20
4.609754050214481
 10
4.571288773408418
 20
4.609591550218586
 10
4.568060995712181
 20
4.609876272433616
 10
4.567030440182659
 20
4.610080439095125
 10
4.568670717919
 20
4.609754050214481
 10
4.564033218036153
 20
4.608954050234691
 10
4.564033218036153
 20
4.607340161386572
 10
4.564033218036153
 20
4.607109605836841
 10
4.564019329147615
 20
4.60687905028711
 10
4.563965162482317
 20
4.606648494737379
 10
4.563638888888893
 20
4.605006828112184
 10
4.567979051269806
 20
4.603244328156708
 10
4.566365162421688
 20
4.603216550379632
 10
4.568169329042777
 20
4.602919328164918
 10
4.572142940053507
 20
4.602620717061351
 10
4.576958333333323
 20
4.602919328164918
 10
4.578030439904776
 20
4.597140161644246
 10
4.578640162111595
 20
4.590847222222211
 10
4.578070717681536
 20
4.585937384149474
 10
4.58075682872479
 20
4.587591550774353
 10
4.583116550887401
 20
4.589952661825818
 10
4.585097222222227
 20
4.592854050641411
 10
4.584906828619952
 20
4.596490161660666
 10
4.58450000000001
 20
4.600205439344588
 10
4.583848495313355
 20
4.603733217033247
 10
4.585897106372713
 20
4.604098494801797
 10
4.587998495208518
 20
4.60470960589747
 10
4.590087384044637
 20
4.605387383658126
 10
4.590480439590262
 20
4.607530439159543
 10
4.59073877291707
 20
4.609754050214481
 10
4.59073877291707
 20
4.61208738348887
 97
        0
 72
     1
 10
4.59073877291707
 20
4.61208738348887
 11
4.59073877291707
 21
4.61208738348887
 97
        0
 75
     2
 76
     1
 98
        0
  0
SPLINE
  5
B2
330
1F
100
AcDbEntity
  8
Layer 1
 62
   250
420
  2301728
370
     9
100
AcDbSpline
210
0.0
220
0.0
230
1.0
 70
    11
 71
     3
 72
    17
 73
    13
 74
     0
 42
0.0000000001
 43
0.0000000001
 12
1.0
 22
0.0
 32
0.0
 13
1.0
 23
0.0
 33
0.0
 40
0.0
 40
0.0
 40
0.0
 40
0.0
 40
1.0
 40
1.0
 40
1.0
 40
2.0
 40
2.0
 40
2.0
 40
3.0
 40
3.0
 40
3.0
 40
4.0
 40
4.0
 40
4.0
 40
4.0
 10
4.517170719219999
 20
4.501736111111111
 30
0.0
 10
4.517170719219999
 20
4.485798497790307
 30
0.0
 10
4.507433219465989
 20
4.472887387005358
 30
0.0
 10
4.495429053102574
 20
4.472887387005358
 30
0.0
 10
4.483424886739158
 20
4.472887387005358
 30
0.0
 10
4.473687386985148
 20
4.485798497790307
 30
0.0
 10
4.473687386985148
 20
4.501736111111111
 30
0.0
 10
4.473687386985148
 20
4.517659608096538
 30
0.0
 10
4.483424886739158
 20
4.53057210777034
 30
0.0
 10
4.495429053102574
 20
4.53057210777034
 30
0.0
 10
4.507433219465989
 20
4.53057210777034
 30
0.0
 10
4.517170719219999
 20
4.517659608096538
 30
0.0
 10
4.517170719219999
 20
4.501736111111111
 30
0.0
  0
HATCH
  5
B3
330
1F
100
AcDbEntity
  8
Layer 1
 62
   253
420
 10987947
100
AcDbHatch
 10
0.0
 20
0.0
 30
0.0
210
0.0
220
0.0
230
1.0
  2
SOLID
 70
     1
 71
     0
 91
        1
 92
        1
 93
        1
 72
     4
 94
        3
 73
     0
 74
     1
 95
       17
 96
       13
 40
0.0
 40
0.0
 40
0.0
 40
0.0
 40
1.0
 40
1.0
 40
1.0
 40
2.0
 40
2.0
 40
2.0
 40
3.0
 40
3.0
 40
3.0
 40
4.0
 40
4.0
 40
4.0
 40
4.0
 10
4.517170719219999
 20
4.501736111111111
 10
4.517170719219999
 20
4.485798497790307
 10
4.507433219465989
 20
4.472887387005358
 10
4.495429053102574
 20
4.472887387005358
 10
4.483424886739158
 20
4.472887387005358
 10
4.473687386985148
 20
4.485798497790307
 10
4.473687386985148
 20
4.501736111111111
 10
4.473687386985148
 20
4.517659608096538
 10
4.483424886739158
 20
4.53057210777034
 10
4.495429053102574
 20
4.53057210777034
 10
4.507433219465989
 20
4.53057210777034
 10
4.517170719219999
 20
4.517659608096538
 10
4.517170719219999
 20
4.501736111111111
 97
        0
 97
        0
 75
     2
 76
     1
 98
        0
  0
SPLINE
  5
B4
330
1F
100
AcDbEntity
  8
Layer 1
370
     0
100
AcDbSpline
210
0.0
220
0.0
230
1.0
 70
    11
 71
     3
 72
    53
 73
    49
 74
     0
 42
0.0000000001
 43
0.0000000001
 12
1.0
 22
0.0
 32
0.0
 13
1.0
 23
0.0
 33
0.0
 40
0.0
 40
0.0
 40
0.0
 40
0.0
 40
1.0
 40
1.0
 40
1.0
 40
2.0
 40
2.0
 40
2.0
 40
3.0
 40
3.0
 40
3.0
 40
4.0
 40
4.0
 40
4.0
 40
5.0
 40
5.0
 40
5.0
 40
6.0
 40
6.0
 40
6.0
 40
7.0
 40
7.0
 40
7.0
 40
8.0
 40
8.0
 40
8.0
 40
9.0
 40
9.0
 40
9.0
 40
10.0
 40
10.0
 40
10.0
 40
11.0
 40
11.0
 40
11.0
 40
12.0
 40
12.0
 40
12.0
 40
13.0
 40
13.0
 40
13.0
 40
14.0
 40
14.0
 40
14.0
 40
15.0
 40
15.0
 40
15.0
 40
16.0
 40
16.0
 40
16.0
 40
16.0
 10
4.517170719219999
 20
4.501736111111111
 30
0.0
 10
4.517170719219999
 20
4.502074886268019
 30
0.0
 10
4.517102663666163
 20
4.502387386260125
 30
0.0
 10
4.517090163666479
 20
4.502740164028991
 30
0.0
 10
4.514377663735003
 20
4.501559608503258
 30
0.0
 10
4.51155555555556
 20
4.500637386304334
 30
0.0
 10
4.508788774987301
 20
4.500135997428111
 30
0.0
 10
4.507852663899838
 20
4.503742941781436
 30
0.0
 10
4.506849886147393
 20
4.506781830593556
 30
0.0
 10
4.506035997279064
 20
4.50859849721433
 30
0.0
 10
4.505262386187496
 20
4.510362386058659
 30
0.0
 10
4.503201275128453
 20
4.511148497149912
 30
0.0
 10
4.501437386284124
 20
4.510362386058659
 30
0.0
 10
4.499701275216871
 20
4.509588774967091
 30
0.0
 10
4.498915164125618
 20
4.507541666666662
 30
0.0
 10
4.499687386328333
 20
4.505777777777767
 30
0.0
 10
4.500392941866064
 20
4.504191552881214
 30
0.0
 10
4.501138888888893
 20
4.501938775160347
 30
0.0
 10
4.50183044182975
 20
4.499402777777783
 30
0.0
 10
4.497720719711348
 20
4.499240164117408
 30
0.0
 10
4.494492942015111
 20
4.499524886332438
 30
0.0
 10
4.493462386485589
 20
4.499729052993946
 30
0.0
 10
4.495104053110784
 20
4.499402777777783
 30
0.0
 10
4.490451275450545
 20
4.498602664133513
 30
0.0
 10
4.490451275450545
 20
4.496988775285394
 30
0.0
 10
4.490451275450545
 20
4.496758219735662
 30
0.0
 10
4.490451275450545
 20
4.496527777777778
 30
0.0
 10
4.490397108785246
 20
4.4962971086362
 30
0.0
 10
4.490072108793457
 20
4.494655442011005
 30
0.0
 10
4.49441238646159
 20
4.49289294205553
 30
0.0
 10
4.492797108724617
 20
4.492865164278454
 30
0.0
 10
4.494601275345707
 20
4.492566553174886
 30
0.0
 10
4.49857627524529
 20
4.492269330960172
 30
0.0
 10
4.50339016401257
 20
4.492566553174886
 30
0.0
 10
4.504462386207706
 20
4.486788775543068
 30
0.0
 10
4.505072108414525
 20
4.480495720146488
 30
0.0
 10
4.504502663984466
 20
4.475585998048296
 30
0.0
 10
4.50718877502772
 20
4.477240164673175
 30
0.0
 10
4.509548497190331
 20
4.479601275724639
 30
0.0
 10
4.511529052695853
 20
4.482502664540233
 30
0.0
 10
4.511338774922883
 20
4.486138888888894
 30
0.0
 10
4.510931830488718
 20
4.48985405324341
 30
0.0
 10
4.510280441616285
 20
4.493380442043215
 30
0.0
 10
4.512329052675644
 20
4.493747108700618
 30
0.0
 10
4.514431830400301
 20
4.494358219796291
 30
0.0
 10
4.51652071923642
 20
4.495035997556948
 30
0.0
 10
4.516913774782046
 20
4.497179053058365
 30
0.0
 10
4.517170719219999
 20
4.499402777777783
 30
0.0
 10
4.517170719219999
 20
4.501736111111111
 30
0.0
  0
HATCH
  5
B5
330
1F
100
AcDbEntity
  8
Layer 1
 62
   250
420
  2301728
100
AcDbHatch
 10
0.0
 20
0.0
 30
0.0
210
0.0
220
0.0
230
1.0
  2
SOLID
 70
     1
 71
     0
 91
        1
 92
        1
 93
        2
 72
     4
 94
        3
 73
     0
 74
     0
 95
       53
 96
       49
 40
0.0
 40
0.0
 40
0.0
 40
0.0
 40
0.0138888888888889
 40
0.0138888888888889
 40
0.0138888888888889
 40
0.0277777777777778
 40
0.0277777777777778
 40
0.0277777777777778
 40
0.0416666666666667
 40
0.0416666666666667
 40
0.0416666666666667
 40
0.0555555555555556
 40
0.0555555555555556
 40
0.0555555555555556
 40
0.0694444444444444
 40
0.0694444444444444
 40
0.0694444444444444
 40
0.0833333333333333
 40
0.0833333333333333
 40
0.0833333333333333
 40
0.0972222222222222
 40
0.0972222222222222
 40
0.0972222222222222
 40
0.1111111111111111
 40
0.1111111111111111
 40
0.1111111111111111
 40
0.125
 40
0.125
 40
0.125
 40
0.1388888888888889
 40
0.1388888888888889
 40
0.1388888888888889
 40
0.1527777777777778
 40
0.1527777777777778
 40
0.1527777777777778
 40
0.1666666666666667
 40
0.1666666666666667
 40
0.1666666666666667
 40
0.1805555555555556
 40
0.1805555555555556
 40
0.1805555555555556
 40
0.1944444444444444
 40
0.1944444444444444
 40
0.1944444444444444
 40
0.2083333333333333
 40
0.2083333333333333
 40
0.2083333333333333
 40
0.2222222222222222
 40
0.2222222222222222
 40
0.2222222222222222
 40
0.2222222222222222
 10
4.517170719219999
 20
4.501736111111111
 10
4.517170719219999
 20
4.502074886268019
 10
4.517102663666163
 20
4.502387386260125
 10
4.517090163666479
 20
4.502740164028991
 10
4.514377663735003
 20
4.501559608503258
 10
4.51155555555556
 20
4.500637386304334
 10
4.508788774987301
 20
4.500135997428111
 10
4.507852663899838
 20
4.503742941781436
 10
4.506849886147393
 20
4.506781830593556
 10
4.506035997279064
 20
4.50859849721433
 10
4.505262386187496
 20
4.510362386058659
 10
4.503201275128453
 20
4.511148497149912
 10
4.501437386284124
 20
4.510362386058659
 10
4.499701275216871
 20
4.509588774967091
 10
4.498915164125618
 20
4.507541666666662
 10
4.499687386328333
 20
4.505777777777767
 10
4.500392941866064
 20
4.504191552881214
 10
4.501138888888893
 20
4.501938775160347
 10
4.50183044182975
 20
4.499402777777783
 10
4.497720719711348
 20
4.499240164117408
 10
4.494492942015111
 20
4.499524886332438
 10
4.493462386485589
 20
4.499729052993946
 10
4.495104053110784
 20
4.499402777777783
 10
4.490451275450545
 20
4.498602664133513
 10
4.490451275450545
 20
4.496988775285394
 10
4.490451275450545
 20
4.496758219735662
 10
4.490451275450545
 20
4.496527777777778
 10
4.490397108785246
 20
4.4962971086362
 10
4.490072108793457
 20
4.494655442011005
 10
4.49441238646159
 20
4.49289294205553
 10
4.492797108724617
 20
4.492865164278454
 10
4.494601275345707
 20
4.492566553174886
 10
4.49857627524529
 20
4.492269330960172
 10
4.50339016401257
 20
4.492566553174886
 10
4.504462386207706
 20
4.486788775543068
 10
4.505072108414525
 20
4.480495720146488
 10
4.504502663984466
 20
4.475585998048296
 10
4.50718877502772
 20
4.477240164673175
 10
4.509548497190331
 20
4.479601275724639
 10
4.511529052695853
 20
4.482502664540233
 10
4.511338774922883
 20
4.486138888888894
 10
4.510931830488718
 20
4.48985405324341
 10
4.510280441616285
 20
4.493380442043215
 10
4.512329052675644
 20
4.493747108700618
 10
4.514431830400301
 20
4.494358219796291
 10
4.51652071923642
 20
4.495035997556948
 10
4.516913774782046
 20
4.497179053058365
 10
4.517170719219999
 20
4.499402777777783
 10
4.517170719219999
 20
4.501736111111111
 97
        0
 72
     1
 10
4.517170719219999
 20
4.501736111111111
 11
4.517170719219999
 21
4.501736111111111
 97
        0
 75
     2
 76
     1
 98
        0
  0
SPLINE
  5
B6
330
1F
100
AcDbEntity
  8
Layer 1
 62
   250
420
  2301728
370
     9
100
AcDbSpline
210
0.0
220
0.0
230
1.0
 70
    11
 71
     3
 72
    17
 73
    13
 74
     0
 42
0.0000000001
 43
0.0000000001
 12
1.0
 22
0.0
 32
0.0
 13
1.0
 23
0.0
 33
0.0
 40
0.0
 40
0.0
 40
0.0
 40
0.0
 40
1.0
 40
1.0
 40
1.0
 40
2.0
 40
2.0
 40
2.0
 40
3.0
 40
3.0
 40
3.0
 40
4.0
 40
4.0
 40
4.0
 40
4.0
 10
4.570502662317166
 20
4.471381831487835
 30
0.0
 10
4.570502662317166
 20
4.455458333333328
 30
0.0
 10
4.560763888888888
 20
4.442545721105185
 30
0.0
 10
4.548773496199424
 20
4.442545721105185
 30
0.0
 10
4.536756829836324
 20
4.442545721105185
 30
0.0
 10
4.52701794119346
 20
4.455458333333328
 30
0.0
 10
4.52701794119346
 20
4.471381831487835
 30
0.0
 10
4.52701794119346
 20
4.487304053307828
 30
0.0
 10
4.536756829836324
 20
4.500216552981631
 30
0.0
 10
4.548773496199424
 20
4.500216552981631
 30
0.0
 10
4.560763888888888
 20
4.500216552981631
 30
0.0
 10
4.570502662317166
 20
4.487304053307828
 30
0.0
 10
4.570502662317166
 20
4.471381831487835
 30
0.0
  0
HATCH
  5
B7
330
1F
100
AcDbEntity
  8
Layer 1
 62
   253
420
 10987947
100
AcDbHatch
 10
0.0
 20
0.0
 30
0.0
210
0.0
220
0.0
230
1.0
  2
SOLID
 70
     1
 71
     0
 91
        1
 92
        1
 93
        1
 72
     4
 94
        3
 73
     0
 74
     1
 95
       17
 96
       13
 40
0.0
 40
0.0
 40
0.0
 40
0.0
 40
1.0
 40
1.0
 40
1.0
 40
2.0
 40
2.0
 40
2.0
 40
3.0
 40
3.0
 40
3.0
 40
4.0
 40
4.0
 40
4.0
 40
4.0
 10
4.570502662317166
 20
4.471381831487835
 10
4.570502662317166
 20
4.455458333333328
 10
4.560763888888888
 20
4.442545721105185
 10
4.548773496199424
 20
4.442545721105185
 10
4.536756829836324
 20
4.442545721105185
 10
4.52701794119346
 20
4.455458333333328
 10
4.52701794119346
 20
4.471381831487835
 10
4.52701794119346
 20
4.487304053307828
 10
4.536756829836324
 20
4.500216552981631
 10
4.548773496199424
 20
4.500216552981631
 10
4.560763888888888
 20
4.500216552981631
 10
4.570502662317166
 20
4.487304053307828
 10
4.570502662317166
 20
4.471381831487835
 97
        0
 97
        0
 75
     2
 76
     1
 98
        0
  0
SPLINE
  5
B8
330
1F
100
AcDbEntity
  8
Layer 1
370
     0
100
AcDbSpline
210
0.0
220
0.0
230
1.0
 70
    11
 71
     3
 72
    53
 73
    49
 74
     0
 42
0.0000000001
 43
0.0000000001
 12
1.0
 22
0.0
 32
0.0
 13
1.0
 23
0.0
 33
0.0
 40
0.0
 40
0.0
 40
0.0
 40
0.0
 40
1.0
 40
1.0
 40
1.0
 40
2.0
 40
2.0
 40
2.0
 40
3.0
 40
3.0
 40
3.0
 40
4.0
 40
4.0
 40
4.0
 40
5.0
 40
5.0
 40
5.0
 40
6.0
 40
6.0
 40
6.0
 40
7.0
 40
7.0
 40
7.0
 40
8.0
 40
8.0
 40
8.0
 40
9.0
 40
9.0
 40
9.0
 40
10.0
 40
10.0
 40
10.0
 40
11.0
 40
11.0
 40
11.0
 40
12.0
 40
12.0
 40
12.0
 40
13.0
 40
13.0
 40
13.0
 40
14.0
 40
14.0
 40
14.0
 40
15.0
 40
15.0
 40
15.0
 40
16.0
 40
16.0
 40
16.0
 40
16.0
 10
4.570502662317166
 20
4.471381831487835
 30
0.0
 10
4.570502662317166
 20
4.471733220367847
 30
0.0
 10
4.570448495651868
 20
4.472045720359953
 30
0.0
 10
4.570434606763329
 20
4.47238460924028
 30
0.0
 10
4.567708333333333
 20
4.471217942603086
 30
0.0
 10
4.56490127356978
 20
4.470295720404161
 30
0.0
 10
4.562120718084467
 20
4.469794331527939
 30
0.0
 10
4.561198495885542
 20
4.473388888888899
 30
0.0
 10
4.560194444444455
 20
4.476426275804847
 30
0.0
 10
4.559380440375914
 20
4.478258220203012
 30
0.0
 10
4.558594329284662
 20
4.480006831269949
 30
0.0
 10
4.556545718225303
 20
4.480794331250055
 30
0.0
 10
4.554795718269512
 20
4.480034609047025
 30
0.0
 10
4.553033218314036
 20
4.479248497955774
 30
0.0
 10
4.55224571833393
 20
4.477185998007877
 30
0.0
 10
4.553033218314036
 20
4.475435998052085
 30
0.0
 10
4.553737384962915
 20
4.473849886981043
 30
0.0
 10
4.554470718277722
 20
4.471598498149029
 30
0.0
 10
4.555176273815454
 20
4.469048498213447
 30
0.0
 10
4.551066551697052
 20
4.468885998217552
 30
0.0
 10
4.547824885112277
 20
4.469184609321119
 30
0.0
 10
4.546792940693901
 20
4.469387387093775
 30
0.0
 10
4.548448496207635
 20
4.469048498213447
 30
0.0
 10
4.543809607435933
 20
4.468260998233341
 30
0.0
 10
4.543809607435933
 20
4.466634609385538
 30
0.0
 10
4.543809607435933
 20
4.466416666666671
 30
0.0
 10
4.543781829658857
 20
4.466173498286076
 30
0.0
 10
4.543727662993559
 20
4.465955442736028
 30
0.0
 10
4.543402777777778
 20
4.464315164999688
 30
0.0
 10
4.547742940669902
 20
4.462537387266821
 30
0.0
 10
4.546142940710322
 20
4.462524887267136
 30
0.0
 10
4.547945718442557
 20
4.462226276163569
 30
0.0
 10
4.55192071834214
 20
4.461927665060001
 30
0.0
 10
4.556722222222232
 20
4.462212387275031
 30
0.0
 10
4.557806829304556
 20
4.456434609643211
 30
0.0
 10
4.558404051511691
 20
4.450141554246632
 30
0.0
 10
4.557834607081632
 20
4.445244332148124
 30
0.0
 10
4.56053321812457
 20
4.446885998773319
 30
0.0
 10
4.562892940287181
 20
4.449259609824467
 30
0.0
 10
4.564859606904165
 20
4.452148498640377
 30
0.0
 10
4.564683218019733
 20
4.455783220770778
 30
0.0
 10
4.564263888888894
 20
4.45950000000001
 30
0.0
 10
4.563612384713451
 20
4.463026276143359
 30
0.0
 10
4.565673495772494
 20
4.463405442800447
 30
0.0
 10
4.567762384608614
 20
4.464002665007582
 30
0.0
 10
4.569851273444733
 20
4.46468055555556
 30
0.0
 10
4.570258217878896
 20
4.466837387158193
 30
0.0
 10
4.570502662317166
 20
4.469062387101985
 30
0.0
 10
4.570502662317166
 20
4.471381831487835
 30
0.0
  0
HATCH
  5
B9
330
1F
100
AcDbEntity
  8
Layer 1
 62
   250
420
  2301728
100
AcDbHatch
 10
0.0
 20
0.0
 30
0.0
210
0.0
220
0.0
230
1.0
  2
SOLID
 70
     1
 71
     0
 91
        1
 92
        1
 93
        2
 72
     4
 94
        3
 73
     0
 74
     0
 95
       53
 96
       49
 40
0.0
 40
0.0
 40
0.0
 40
0.0
 40
0.0138888888888889
 40
0.0138888888888889
 40
0.0138888888888889
 40
0.0277777777777778
 40
0.0277777777777778
 40
0.0277777777777778
 40
0.0416666666666667
 40
0.0416666666666667
 40
0.0416666666666667
 40
0.0555555555555556
 40
0.0555555555555556
 40
0.0555555555555556
 40
0.0694444444444444
 40
0.0694444444444444
 40
0.0694444444444444
 40
0.0833333333333333
 40
0.0833333333333333
 40
0.0833333333333333
 40
0.0972222222222222
 40
0.0972222222222222
 40
0.0972222222222222
 40
0.1111111111111111
 40
0.1111111111111111
 40
0.1111111111111111
 40
0.125
 40
0.125
 40
0.125
 40
0.1388888888888889
 40
0.1388888888888889
 40
0.1388888888888889
 40
0.1527777777777778
 40
0.1527777777777778
 40
0.1527777777777778
 40
0.1666666666666667
 40
0.1666666666666667
 40
0.1666666666666667
 40
0.1805555555555556
 40
0.1805555555555556
 40
0.1805555555555556
 40
0.1944444444444444
 40
0.1944444444444444
 40
0.1944444444444444
 40
0.2083333333333333
 40
0.2083333333333333
 40
0.2083333333333333
 40
0.2222222222222222
 40
0.2222222222222222
 40
0.2222222222222222
 40
0.2222222222222222
 10
4.570502662317166
 20
4.471381831487835
 10
4.570502662317166
 20
4.471733220367847
 10
4.570448495651868
 20
4.472045720359953
 10
4.570434606763329
 20
4.47238460924028
 10
4.567708333333333
 20
4.471217942603086
 10
4.56490127356978
 20
4.470295720404161
 10
4.562120718084467
 20
4.469794331527939
 10
4.561198495885542
 20
4.473388888888899
 10
4.560194444444455
 20
4.476426275804847
 10
4.559380440375914
 20
4.478258220203012
 10
4.558594329284662
 20
4.480006831269949
 10
4.556545718225303
 20
4.480794331250055
 10
4.554795718269512
 20
4.480034609047025
 10
4.553033218314036
 20
4.479248497955774
 10
4.55224571833393
 20
4.477185998007877
 10
4.553033218314036
 20
4.475435998052085
 10
4.553737384962915
 20
4.473849886981043
 10
4.554470718277722
 20
4.471598498149029
 10
4.555176273815454
 20
4.469048498213447
 10
4.551066551697052
 20
4.468885998217552
 10
4.547824885112277
 20
4.469184609321119
 10
4.546792940693901
 20
4.469387387093775
 10
4.548448496207635
 20
4.469048498213447
 10
4.543809607435933
 20
4.468260998233341
 10
4.543809607435933
 20
4.466634609385538
 10
4.543809607435933
 20
4.466416666666671
 10
4.543781829658857
 20
4.466173498286076
 10
4.543727662993559
 20
4.465955442736028
 10
4.543402777777778
 20
4.464315164999688
 10
4.547742940669902
 20
4.462537387266821
 10
4.546142940710322
 20
4.462524887267136
 10
4.547945718442557
 20
4.462226276163569
 10
4.55192071834214
 20
4.461927665060001
 10
4.556722222222232
 20
4.462212387275031
 10
4.557806829304556
 20
4.456434609643211
 10
4.558404051511691
 20
4.450141554246632
 10
4.557834607081632
 20
4.445244332148124
 10
4.56053321812457
 20
4.446885998773319
 10
4.562892940287181
 20
4.449259609824467
 10
4.564859606904165
 20
4.452148498640377
 10
4.564683218019733
 20
4.455783220770778
 10
4.564263888888894
 20
4.45950000000001
 10
4.563612384713451
 20
4.463026276143359
 10
4.565673495772494
 20
4.463405442800447
 10
4.567762384608614
 20
4.464002665007582
 10
4.569851273444733
 20
4.46468055555556
 10
4.570258217878896
 20
4.466837387158193
 10
4.570502662317166
 20
4.469062387101985
 10
4.570502662317166
 20
4.471381831487835
 97
        0
 72
     1
 10
4.570502662317166
 20
4.471381831487835
 11
4.570502662317166
 21
4.471381831487835
 97
        0
 75
     2
 76
     1
 98
        0
  0
SPLINE
  5
BA
330
1F
100
AcDbEntity
  8
Layer 1
 62
   250
420
  2301728
370
     9
100
AcDbSpline
210
0.0
220
0.0
230
1.0
 70
    11
 71
     3
 72
    17
 73
    13
 74
     0
 42
0.0000000001
 43
0.0000000001
 12
1.0
 22
0.0
 32
0.0
 13
1.0
 23
0.0
 33
0.0
 40
0.0
 40
0.0
 40
0.0
 40
0.0
 40
1.0
 40
1.0
 40
1.0
 40
2.0
 40
2.0
 40
2.0
 40
3.0
 40
3.0
 40
3.0
 40
4.0
 40
4.0
 40
4.0
 40
4.0
 10
4.499674886328648
 20
4.362413778685045
 30
0.0
 10
4.499674886328648
 20
4.346502667975882
 30
0.0
 10
4.489935997685785
 20
4.333591557190933
 30
0.0
 10
4.477919331322684
 20
4.333591557190933
 30
0.0
 10
4.46590127607073
 20
4.333591557190933
 30
0.0
 10
4.45616377631672
 20
4.346502667975882
 30
0.0
 10
4.45616377631672
 20
4.362413778685045
 30
0.0
 10
4.45616377631672
 20
4.378336000505038
 30
0.0
 10
4.46590127607073
 20
4.391248500178841
 30
0.0
 10
4.477919331322684
 20
4.391248500178841
 30
0.0
 10
4.489935997685785
 20
4.391248500178841
 30
0.0
 10
4.499674886328648
 20
4.378336000505038
 30
0.0
 10
4.499674886328648
 20
4.362413778685045
 30
0.0
  0
HATCH
  5
BB
330
1F
100
AcDbEntity
  8
Layer 1
 62
   253
420
 10987947
100
AcDbHatch
 10
0.0
 20
0.0
 30
0.0
210
0.0
220
0.0
230
1.0
  2
SOLID
 70
     1
 71
     0
 91
        1
 92
        1
 93
        1
 72
     4
 94
        3
 73
     0
 74
     1
 95
       17
 96
       13
 40
0.0
 40
0.0
 40
0.0
 40
0.0
 40
1.0
 40
1.0
 40
1.0
 40
2.0
 40
2.0
 40
2.0
 40
3.0
 40
3.0
 40
3.0
 40
4.0
 40
4.0
 40
4.0
 40
4.0
 10
4.499674886328648
 20
4.362413778685045
 10
4.499674886328648
 20
4.346502667975882
 10
4.489935997685785
 20
4.333591557190933
 10
4.477919331322684
 20
4.333591557190933
 10
4.46590127607073
 20
4.333591557190933
 10
4.45616377631672
 20
4.346502667975882
 10
4.45616377631672
 20
4.362413778685045
 10
4.45616377631672
 20
4.378336000505038
 10
4.46590127607073
 20
4.391248500178841
 10
4.477919331322684
 20
4.391248500178841
 10
4.489935997685785
 20
4.391248500178841
 10
4.499674886328648
 20
4.378336000505038
 10
4.499674886328648
 20
4.362413778685045
 97
        0
 97
        0
 75
     2
 76
     1
 98
        0
  0
SPLINE
  5
BC
330
1F
100
AcDbEntity
  8
Layer 1
370
     0
100
AcDbSpline
210
0.0
220
0.0
230
1.0
 70
    11
 71
     3
 72
    53
 73
    49
 74
     0
 42
0.0000000001
 43
0.0000000001
 12
1.0
 22
0.0
 32
0.0
 13
1.0
 23
0.0
 33
0.0
 40
0.0
 40
0.0
 40
0.0
 40
0.0
 40
1.0
 40
1.0
 40
1.0
 40
2.0
 40
2.0
 40
2.0
 40
3.0
 40
3.0
 40
3.0
 40
4.0
 40
4.0
 40
4.0
 40
5.0
 40
5.0
 40
5.0
 40
6.0
 40
6.0
 40
6.0
 40
7.0
 40
7.0
 40
7.0
 40
8.0
 40
8.0
 40
8.0
 40
9.0
 40
9.0
 40
9.0
 40
10.0
 40
10.0
 40
10.0
 40
11.0
 40
11.0
 40
11.0
 40
12.0
 40
12.0
 40
12.0
 40
13.0
 40
13.0
 40
13.0
 40
14.0
 40
14.0
 40
14.0
 40
15.0
 40
15.0
 40
15.0
 40
16.0
 40
16.0
 40
16.0
 40
16.0
 10
4.499674886328648
 20
4.362413778685045
 30
0.0
 10
4.499674886328648
 20
4.362765167565057
 30
0.0
 10
4.499592941886274
 20
4.3630915564457
 30
0.0
 10
4.499592941886274
 20
4.363416666666656
 30
0.0
 10
4.496852664177721
 20
4.362250000000005
 30
0.0
 10
4.494072108692408
 20
4.361327667601371
 30
0.0
 10
4.491291666666661
 20
4.36081238983661
 30
0.0
 10
4.490356831008486
 20
4.364434611967328
 30
0.0
 10
4.489338775478649
 20
4.367458333333338
 30
0.0
 10
4.488524886610321
 20
4.369302667399905
 30
0.0
 10
4.487752664407607
 20
4.371038778467159
 30
0.0
 10
4.485704053348248
 20
4.371840167335803
 30
0.0
 10
4.483941553392772
 20
4.371052667355697
 30
0.0
 10
4.482205442325519
 20
4.370280445152982
 30
0.0
 10
4.481391553457191
 20
4.368217945205085
 30
0.0
 10
4.482177664548443
 20
4.366467945249294
 30
0.0
 10
4.482897108974712
 20
4.364895723066789
 30
0.0
 10
4.483615164512129
 20
4.362644334234775
 30
0.0
 10
4.48432072004986
 20
4.360094334299194
 30
0.0
 10
4.480237386819681
 20
4.359930555555567
 30
0.0
 10
4.476997109123759
 20
4.360215167629475
 30
0.0
 10
4.4759526647057
 20
4.360433223179522
 30
0.0
 10
4.47759294244204
 20
4.360094334299194
 30
0.0
 10
4.47295405367034
 20
4.35929294543055
 30
0.0
 10
4.47295405367034
 20
4.357666666666672
 30
0.0
 10
4.47295405367034
 20
4.3574485010327
 30
0.0
 10
4.472941553670656
 20
4.357205445483284
 30
0.0
 10
4.472887387005358
 20
4.356987389933238
 30
0.0
 10
4.472547109236175
 20
4.35534722222221
 30
0.0
 10
4.476887386904309
 20
4.353569444444449
 30
0.0
 10
4.475287386944728
 20
4.353556834464345
 30
0.0
 10
4.47711794245404
 20
4.353270723360462
 30
0.0
 10
4.481065164576547
 20
4.352973501145748
 30
0.0
 10
4.485866553344143
 20
4.353244334472239
 30
0.0
 10
4.486951275538963
 20
4.347480445728959
 30
0.0
 10
4.487548497746098
 20
4.341173501443842
 30
0.0
 10
4.486992942204576
 20
4.336290168233871
 30
0.0
 10
4.489691553247515
 20
4.337931834859066
 30
0.0
 10
4.492051275410126
 20
4.340305555555561
 30
0.0
 10
4.494005442027426
 20
4.343194444444432
 30
0.0
 10
4.493841553142677
 20
4.346815167967987
 30
0.0
 10
4.49340821982029
 20
4.350545723429301
 30
0.0
 10
4.492756830947857
 20
4.354072112229106
 30
0.0
 10
4.49481944444445
 20
4.354437389997656
 30
0.0
 10
4.496920719731557
 20
4.35504850109333
 30
0.0
 10
4.499023497456215
 20
4.355712389965447
 30
0.0
 10
4.499402777777783
 20
4.35788322324394
 30
0.0
 10
4.499674886328648
 20
4.360094334299194
 30
0.0
 10
4.499674886328648
 20
4.362413778685045
 30
0.0
  0
HATCH
  5
BD
330
1F
100
AcDbEntity
  8
Layer 1
 62
   250
420
  2301728
100
AcDbHatch
 10
0.0
 20
0.0
 30
0.0
210
0.0
220
0.0
230
1.0
  2
SOLID
 70
     1
 71
     0
 91
        1
 92
        1
 93
        2
 72
     4
 94
        3
 73
     0
 74
     0
 95
       53
 96
       49
 40
0.0
 40
0.0
 40
0.0
 40
0.0
 40
0.0138888888888889
 40
0.0138888888888889
 40
0.0138888888888889
 40
0.0277777777777778
 40
0.0277777777777778
 40
0.0277777777777778
 40
0.0416666666666667
 40
0.0416666666666667
 40
0.0416666666666667
 40
0.0555555555555556
 40
0.0555555555555556
 40
0.0555555555555556
 40
0.0694444444444444
 40
0.0694444444444444
 40
0.0694444444444444
 40
0.0833333333333333
 40
0.0833333333333333
 40
0.0833333333333333
 40
0.0972222222222222
 40
0.0972222222222222
 40
0.0972222222222222
 40
0.1111111111111111
 40
0.1111111111111111
 40
0.1111111111111111
 40
0.125
 40
0.125
 40
0.125
 40
0.1388888888888889
 40
0.1388888888888889
 40
0.1388888888888889
 40
0.1527777777777778
 40
0.1527777777777778
 40
0.1527777777777778
 40
0.1666666666666667
 40
0.1666666666666667
 40
0.1666666666666667
 40
0.1805555555555556
 40
0.1805555555555556
 40
0.1805555555555556
 40
0.1944444444444444
 40
0.1944444444444444
 40
0.1944444444444444
 40
0.2083333333333333
 40
0.2083333333333333
 40
0.2083333333333333
 40
0.2222222222222222
 40
0.2222222222222222
 40
0.2222222222222222
 40
0.2222222222222222
 10
4.499674886328648
 20
4.362413778685045
 10
4.499674886328648
 20
4.362765167565057
 10
4.499592941886274
 20
4.3630915564457
 10
4.499592941886274
 20
4.363416666666656
 10
4.496852664177721
 20
4.362250000000005
 10
4.494072108692408
 20
4.361327667601371
 10
4.491291666666661
 20
4.36081238983661
 10
4.490356831008486
 20
4.364434611967328
 10
4.489338775478649
 20
4.367458333333338
 10
4.488524886610321
 20
4.369302667399905
 10
4.487752664407607
 20
4.371038778467159
 10
4.485704053348248
 20
4.371840167335803
 10
4.483941553392772
 20
4.371052667355697
 10
4.482205442325519
 20
4.370280445152982
 10
4.481391553457191
 20
4.368217945205085
 10
4.482177664548443
 20
4.366467945249294
 10
4.482897108974712
 20
4.364895723066789
 10
4.483615164512129
 20
4.362644334234775
 10
4.48432072004986
 20
4.360094334299194
 10
4.480237386819681
 20
4.359930555555567
 10
4.476997109123759
 20
4.360215167629475
 10
4.4759526647057
 20
4.360433223179522
 10
4.47759294244204
 20
4.360094334299194
 10
4.47295405367034
 20
4.35929294543055
 10
4.47295405367034
 20
4.357666666666672
 10
4.47295405367034
 20
4.3574485010327
 10
4.472941553670656
 20
4.357205445483284
 10
4.472887387005358
 20
4.356987389933238
 10
4.472547109236175
 20
4.35534722222221
 10
4.476887386904309
 20
4.353569444444449
 10
4.475287386944728
 20
4.353556834464345
 10
4.47711794245404
 20
4.353270723360462
 10
4.481065164576547
 20
4.352973501145748
 10
4.485866553344143
 20
4.353244334472239
 10
4.486951275538963
 20
4.347480445728959
 10
4.487548497746098
 20
4.341173501443842
 10
4.486992942204576
 20
4.336290168233871
 10
4.489691553247515
 20
4.337931834859066
 10
4.492051275410126
 20
4.340305555555561
 10
4.494005442027426
 20
4.343194444444432
 10
4.493841553142677
 20
4.346815167967987
 10
4.49340821982029
 20
4.350545723429301
 10
4.492756830947857
 20
4.354072112229106
 10
4.49481944444445
 20
4.354437389997656
 10
4.496920719731557
 20
4.35504850109333
 10
4.499023497456215
 20
4.355712389965447
 10
4.499402777777783
 20
4.35788322324394
 10
4.499674886328648
 20
4.360094334299194
 10
4.499674886328648
 20
4.362413778685045
 97
        0
 72
     1
 10
4.499674886328648
 20
4.362413778685045
 11
4.499674886328648
 21
4.362413778685045
 97
        0
 75
     2
 76
     1
 98
        0
  0
SPLINE
  5
BE
330
1F
100
AcDbEntity
  8
Layer 1
 62
   250
420
  2301728
370
     9
100
AcDbSpline
210
0.0
220
0.0
230
1.0
 70
    11
 71
     3
 72
    17
 73
    13
 74
     0
 42
0.0000000001
 43
0.0000000001
 12
1.0
 22
0.0
 32
0.0
 13
1.0
 23
0.0
 33
0.0
 40
0.0
 40
0.0
 40
0.0
 40
0.0
 40
1.0
 40
1.0
 40
1.0
 40
2.0
 40
2.0
 40
2.0
 40
3.0
 40
3.0
 40
3.0
 40
4.0
 40
4.0
 40
4.0
 40
4.0
 10
4.592583333333323
 20
4.307698502289491
 30
0.0
 10
4.592583333333323
 20
4.291761002692106
 30
0.0
 10
4.582844328672055
 20
4.278848503018303
 30
0.0
 10
4.570827662308956
 20
4.278848503018303
 30
0.0
 10
4.558824884834394
 20
4.278848503018303
 30
0.0
 10
4.54908599619153
 20
4.291761002692106
 30
0.0
 10
4.54908599619153
 20
4.307698502289491
 30
0.0
 10
4.54908599619153
 20
4.323622112998338
 30
0.0
 10
4.558824884834394
 20
4.336534612672141
 30
0.0
 10
4.570827662308956
 20
4.336534612672141
 30
0.0
 10
4.582844328672055
 20
4.336534612672141
 30
0.0
 10
4.592583333333323
 20
4.323622112998338
 30
0.0
 10
4.592583333333323
 20
4.307698502289491
 30
0.0
  0
HATCH
  5
BF
330
1F
100
AcDbEntity
  8
Layer 1
 62
   253
420
 10987947
100
AcDbHatch
 10
0.0
 20
0.0
 30
0.0
210
0.0
220
0.0
230
1.0
  2
SOLID
 70
     1
 71
     0
 91
        1
 92
        1
 93
        1
 72
     4
 94
        3
 73
     0
 74
     1
 95
       17
 96
       13
 40
0.0
 40
0.0
 40
0.0
 40
0.0
 40
1.0
 40
1.0
 40
1.0
 40
2.0
 40
2.0
 40
2.0
 40
3.0
 40
3.0
 40
3.0
 40
4.0
 40
4.0
 40
4.0
 40
4.0
 10
4.592583333333323
 20
4.307698502289491
 10
4.592583333333323
 20
4.291761002692106
 10
4.582844328672055
 20
4.278848503018303
 10
4.570827662308956
 20
4.278848503018303
 10
4.558824884834394
 20
4.278848503018303
 10
4.54908599619153
 20
4.291761002692106
 10
4.54908599619153
 20
4.307698502289491
 10
4.54908599619153
 20
4.323622112998338
 10
4.558824884834394
 20
4.336534612672141
 10
4.570827662308956
 20
4.336534612672141
 10
4.582844328672055
 20
4.336534612672141
 10
4.592583333333323
 20
4.323622112998338
 10
4.592583333333323
 20
4.307698502289491
 97
        0
 97
        0
 75
     2
 76
     1
 98
        0
  0
SPLINE
  5
C0
330
1F
100
AcDbEntity
  8
Layer 1
370
     0
100
AcDbSpline
210
0.0
220
0.0
230
1.0
 70
    11
 71
     3
 72
    53
 73
    49
 74
     0
 42
0.0000000001
 43
0.0000000001
 12
1.0
 22
0.0
 32
0.0
 13
1.0
 23
0.0
 33
0.0
 40
0.0
 40
0.0
 40
0.0
 40
0.0
 40
1.0
 40
1.0
 40
1.0
 40
2.0
 40
2.0
 40
2.0
 40
3.0
 40
3.0
 40
3.0
 40
4.0
 40
4.0
 40
4.0
 40
5.0
 40
5.0
 40
5.0
 40
6.0
 40
6.0
 40
6.0
 40
7.0
 40
7.0
 40
7.0
 40
8.0
 40
8.0
 40
8.0
 40
9.0
 40
9.0
 40
9.0
 40
10.0
 40
10.0
 40
10.0
 40
11.0
 40
11.0
 40
11.0
 40
12.0
 40
12.0
 40
12.0
 40
13.0
 40
13.0
 40
13.0
 40
14.0
 40
14.0
 40
14.0
 40
15.0
 40
15.0
 40
15.0
 40
16.0
 40
16.0
 40
16.0
 40
16.0
 10
4.592583333333323
 20
4.307698502289491
 30
0.0
 10
4.592583333333323
 20
4.308037391169819
 30
0.0
 10
4.592502661761399
 20
4.308349891161924
 30
0.0
 10
4.592502661761399
 20
4.30870266893079
 30
0.0
 10
4.589776272941385
 20
4.307522113405058
 30
0.0
 10
4.586967939678996
 20
4.306599891206133
 30
0.0
 10
4.584201273082221
 20
4.306098502329911
 30
0.0
 10
4.58325127310622
 20
4.309705446683235
 30
0.0
 10
4.582248495353775
 20
4.312744335495355
 30
0.0
 10
4.581434606485446
 20
4.31456100211613
 30
0.0
 10
4.580660995393878
 20
4.316324890960459
 30
0.0
 10
4.578613773223373
 20
4.317111111111116
 30
0.0
 10
4.576849884379044
 20
4.316324890960459
 30
0.0
 10
4.575113773311791
 20
4.315551279868891
 30
0.0
 10
4.574313773332
 20
4.313504057698386
 30
0.0
 10
4.575087384423568
 20
4.311740168854056
 30
0.0
 10
4.575791666666671
 20
4.310154057783014
 30
0.0
 10
4.576537384386938
 20
4.307901280062146
 30
0.0
 10
4.577229051036132
 20
4.305365169015102
 30
0.0
 10
4.573133217806268
 20
4.305202669019208
 30
0.0
 10
4.569905440110031
 20
4.305487391234237
 30
0.0
 10
4.568861111111119
 20
4.305691557895746
 30
0.0
 10
4.570502662317166
 20
4.305365169015102
 30
0.0
 10
4.565863773545465
 20
4.304565169035312
 30
0.0
 10
4.565863773545465
 20
4.302951280187194
 30
0.0
 10
4.565863773545465
 20
4.302720724637462
 30
0.0
 10
4.565849884656927
 20
4.302490169087731
 30
0.0
 10
4.565809606880166
 20
4.302259613538
 30
0.0
 10
4.565470717999839
 20
4.300617946912805
 30
0.0
 10
4.569810995667972
 20
4.298855446957329
 30
0.0
 10
4.568197106819853
 20
4.298827669180254
 30
0.0
 10
4.570013888888878
 20
4.298529058076686
 30
0.0
 10
4.573974884451673
 20
4.298231835861972
 30
0.0
 10
4.578790162107806
 20
4.298529058076686
 30
0.0
 10
4.579861111111111
 20
4.292751280444867
 30
0.0
 10
4.580470717620907
 20
4.286458333333333
 30
0.0
 10
4.579901273190848
 20
4.281548502950096
 30
0.0
 10
4.58260127312264
 20
4.283202669574974
 30
0.0
 10
4.584960995285251
 20
4.285562391737585
 30
0.0
 10
4.586927661902235
 20
4.288465169442032
 30
0.0
 10
4.586751273017803
 20
4.292101280461288
 30
0.0
 10
4.5863304396951
 20
4.295816558145209
 30
0.0
 10
4.585679050822667
 20
4.299342946945014
 30
0.0
 10
4.587727661882026
 20
4.299709613602419
 30
0.0
 10
4.589844328495221
 20
4.300319444444439
 30
0.0
 10
4.591931828442486
 20
4.300998502458747
 30
0.0
 10
4.592312383988428
 20
4.303141557960164
 30
0.0
 10
4.592583333333323
 20
4.305365169015102
 30
0.0
 10
4.592583333333323
 20
4.307698502289491
 30
0.0
  0
HATCH
  5
C1
330
1F
100
AcDbEntity
  8
Layer 1
 62
   250
420
  2301728
100
AcDbHatch
 10
0.0
 20
0.0
 30
0.0
210
0.0
220
0.0
230
1.0
  2
SOLID
 70
     1
 71
     0
 91
        1
 92
        1
 93
        2
 72
     4
 94
        3
 73
     0
 74
     0
 95
       53
 96
       49
 40
0.0
 40
0.0
 40
0.0
 40
0.0
 40
0.0138888888888889
 40
0.0138888888888889
 40
0.0138888888888889
 40
0.0277777777777778
 40
0.0277777777777778
 40
0.0277777777777778
 40
0.0416666666666667
 40
0.0416666666666667
 40
0.0416666666666667
 40
0.0555555555555556
 40
0.0555555555555556
 40
0.0555555555555556
 40
0.0694444444444444
 40
0.0694444444444444
 40
0.0694444444444444
 40
0.0833333333333333
 40
0.0833333333333333
 40
0.0833333333333333
 40
0.0972222222222222
 40
0.0972222222222222
 40
0.0972222222222222
 40
0.1111111111111111
 40
0.1111111111111111
 40
0.1111111111111111
 40
0.125
 40
0.125
 40
0.125
 40
0.1388888888888889
 40
0.1388888888888889
 40
0.1388888888888889
 40
0.1527777777777778
 40
0.1527777777777778
 40
0.1527777777777778
 40
0.1666666666666667
 40
0.1666666666666667
 40
0.1666666666666667
 40
0.1805555555555556
 40
0.1805555555555556
 40
0.1805555555555556
 40
0.1944444444444444
 40
0.1944444444444444
 40
0.1944444444444444
 40
0.2083333333333333
 40
0.2083333333333333
 40
0.2083333333333333
 40
0.2222222222222222
 40
0.2222222222222222
 40
0.2222222222222222
 40
0.2222222222222222
 10
4.592583333333323
 20
4.307698502289491
 10
4.592583333333323
 20
4.308037391169819
 10
4.592502661761399
 20
4.308349891161924
 10
4.592502661761399
 20
4.30870266893079
 10
4.589776272941385
 20
4.307522113405058
 10
4.586967939678996
 20
4.306599891206133
 10
4.584201273082221
 20
4.306098502329911
 10
4.58325127310622
 20
4.309705446683235
 10
4.582248495353775
 20
4.312744335495355
 10
4.581434606485446
 20
4.31456100211613
 10
4.580660995393878
 20
4.316324890960459
 10
4.578613773223373
 20
4.317111111111116
 10
4.576849884379044
 20
4.316324890960459
 10
4.575113773311791
 20
4.315551279868891
 10
4.574313773332
 20
4.313504057698386
 10
4.575087384423568
 20
4.311740168854056
 10
4.575791666666671
 20
4.310154057783014
 10
4.576537384386938
 20
4.307901280062146
 10
4.577229051036132
 20
4.305365169015102
 10
4.573133217806268
 20
4.305202669019208
 10
4.569905440110031
 20
4.305487391234237
 10
4.568861111111119
 20
4.305691557895746
 10
4.570502662317166
 20
4.305365169015102
 10
4.565863773545465
 20
4.304565169035312
 10
4.565863773545465
 20
4.302951280187194
 10
4.565863773545465
 20
4.302720724637462
 10
4.565849884656927
 20
4.302490169087731
 10
4.565809606880166
 20
4.302259613538
 10
4.565470717999839
 20
4.300617946912805
 10
4.569810995667972
 20
4.298855446957329
 10
4.568197106819853
 20
4.298827669180254
 10
4.570013888888878
 20
4.298529058076686
 10
4.573974884451673
 20
4.298231835861972
 10
4.578790162107806
 20
4.298529058076686
 10
4.579861111111111
 20
4.292751280444867
 10
4.580470717620907
 20
4.286458333333333
 10
4.579901273190848
 20
4.281548502950096
 10
4.58260127312264
 20
4.283202669574974
 10
4.584960995285251
 20
4.285562391737585
 10
4.586927661902235
 20
4.288465169442032
 10
4.586751273017803
 20
4.292101280461288
 10
4.5863304396951
 20
4.295816558145209
 10
4.585679050822667
 20
4.299342946945014
 10
4.587727661882026
 20
4.299709613602419
 10
4.589844328495221
 20
4.300319444444439
 10
4.591931828442486
 20
4.300998502458747
 10
4.592312383988428
 20
4.303141557960164
 10
4.592583333333323
 20
4.305365169015102
 10
4.592583333333323
 20
4.307698502289491
 97
        0
 72
     1
 10
4.592583333333323
 20
4.307698502289491
 11
4.592583333333323
 21
4.307698502289491
 97
        0
 75
     2
 76
     1
 98
        0
  0
MTEXT
  5
C3
330
1F
100
AcDbEntity
  8
Layer 2
 62
   250
420
  2301728
100
AcDbMText
 10
3.596795505947536
 20
3.341738594902886
 30
0.0
 40
0.118
 41
0.0
 46
0.0
 71
     7
 72
     1
  1
\fHelvetica Neue LT Std 55 Roman|b0|i0|c0|p34;\W1;SIMPSON Strong-Tie\H0.068794;®\H0.118; ^C
 73
     1
 44
1.0
  0
MTEXT
  5
C4
330
1F
100
AcDbEntity
  8
Layer 2
 62
   250
420
  2301728
100
AcDbMText
 10
3.394836955600315
 20
3.141733169555664
 30
0.0
 40
0.118
 41
0.0
 46
0.0
 71
     7
 72
     1
  1
\fHelvetica Neue LT Std 55 Roman|b0|i0|c0|p34;\W1;LTS Steel Frame Installation 
 73
     1
 44
1.0
  0
MTEXT
  5
C5
330
1F
100
AcDbEntity
  8
Layer 2
 62
   250
420
  2301728
100
AcDbMText
 10
4.332110299004449
 20
6.738536424107021
 30
0.0
 40
0.118
 41
0.0
 46
0.0
 71
     7
 72
     1
  1
\fHelvetica Neue LT Std 57 Condensed|b0|i0|c0|p34;\W1;Truss/Rafter
 73
     1
 44
1.0
  0
MTEXT
  5
C6
330
1F
100
AcDbEntity
  8
Layer 2
 62
   250
420
  2301728
100
AcDbMText
 10
4.715815650092231
 20
6.284133778678046
 30
0.0
 40
0.118
 41
0.0
 46
0.0
 71
     7
 72
     1
  1
\fHelvetica Neue LT Std 57 Condensed|b0|i0|c0|p34;\W1;Top Plate
 73
     1
 44
1.0
  0
MTEXT
  5
C7
330
1F
100
AcDbEntity
  8
Layer 2
 62
   250
420
  2301728
100
AcDbMText
 10
4.902442508273654
 20
3.990813997056749
 30
0.0
 40
0.118
 41
0.0
 46
0.0
 71
     7
 72
     1
  1
\fHelvetica Neue LT Std 57 Condensed|b0|i0|c0|p34;\W1;LTS
 73
     1
 44
1.0
  0
MTEXT
  5
C8
330
1F
100
AcDbEntity
  8
Layer 2
 62
   250
420
  2301728
100
AcDbMText
 10
3.154730690850152
 20
4.079626931084527
 30
0.0
 40
0.118
 41
0.0
 46
0.0
 71
     7
 72
     1
  1
\fHelvetica Neue LT Std 57 Condensed|b0|i0|c0|p34;\W1;Stud
 73
     1
 44
1.0
  0
POLYLINE
  5
C9
330
1F
100
AcDbEntity
  8
Layer 2
 62
   250
420
  2301728
370
    18
100
AcDb2dPolyline
 66
     1
 10
0.0
 20
0.0
 30
0.0
  0
VERTEX
  5
CA
330
C9
100
AcDbEntity
  8
Layer 2
 62
   250
420
  2301728
370
    18
100
AcDbVertex
100
AcDb2dVertex
 10
4.592583333333323
 20
6.633064516129037
 30
0.0
  0
VERTEX
  5
CB
330
C9
100
AcDbEntity
  8
Layer 2
 62
   250
420
  2301728
370
    18
100
AcDbVertex
100
AcDb2dVertex
 10
4.30020151737939
 20
6.284136226933494
 30
0.0
  0
SEQEND
  5
CC
330
C9
100
AcDbEntity
  8
Layer 2
 62
   250
420
  2301728
370
    18
  0
POLYLINE
  5
CD
330
1F
100
AcDbEntity
  8
Layer 2
 62
   250
420
  2301728
370
    18
100
AcDb2dPolyline
 66
     1
 10
0.0
 20
0.0
 30
0.0
  0
VERTEX
  5
CE
330
CD
100
AcDbEntity
  8
Layer 2
 62
   250
420
  2301728
370
    18
100
AcDbVertex
100
AcDb2dVertex
 10
4.918906810035852
 20
6.221069444444449
 30
0.0
  0
VERTEX
  5
CF
330
CD
100
AcDbEntity
  8
Layer 2
 62
   250
420
  2301728
370
    18
100
AcDbVertex
100
AcDb2dVertex
 10
4.902447980911928
 20
5.881210086557303
 30
0.0
  0
SEQEND
  5
D0
330
CD
100
AcDbEntity
  8
Layer 2
 62
   250
420
  2301728
370
    18
  0
POLYLINE
  5
D1
330
1F
100
AcDbEntity
  8
Layer 2
 62
   250
420
  2301728
370
    18
100
AcDb2dPolyline
 66
     1
 10
0.0
 20
0.0
 30
0.0
  0
VERTEX
  5
D2
330
D1
100
AcDbEntity
  8
Layer 2
 62
   250
420
  2301728
370
    18
100
AcDbVertex
100
AcDb2dVertex
 10
4.966398027208116
 20
4.174283345540364
 30
0.0
  0
VERTEX
  5
D3
330
D1
100
AcDbEntity
  8
Layer 2
 62
   250
420
  2301728
370
    18
100
AcDbVertex
100
AcDb2dVertex
 10
4.576812719356237
 20
4.725992936166929
 30
0.0
  0
SEQEND
  5
D4
330
D1
100
AcDbEntity
  8
Layer 2
 62
   250
420
  2301728
370
    18
  0
POLYLINE
  5
D5
330
1F
100
AcDbEntity
  8
Layer 2
 62
   250
420
  2301728
370
    18
100
AcDb2dPolyline
 66
     1
 10
0.0
 20
0.0
 30
0.0
  0
VERTEX
  5
D6
330
D5
100
AcDbEntity
  8
Layer 2
 62
   250
420
  2301728
370
    18
100
AcDbVertex
100
AcDb2dVertex
 10
3.518868764241536
 20
4.174283345540364
 30
0.0
  0
VERTEX
  5
D7
330
D5
100
AcDbEntity
  8
Layer 2
 62
   250
420
  2301728
370
    18
100
AcDbVertex
100
AcDb2dVertex
 10
4.0
 20
4.416490966603002
 30
0.0
  0
SEQEND
  5
D8
330
D5
100
AcDbEntity
  8
Layer 2
 62
   250
420
  2301728
370
    18
  0
ENDSEC
  0
SECTION
  2
OBJECTS
  0
DICTIONARY
  5
C
330
0
100
AcDbDictionary
281
     1
  3
ACAD_GROUP
350
D
  3
ACAD_LAYOUT
350
1A
  3
ACAD_MATERIAL
350
3B
  3
ACAD_MLEADERSTYLE
350
DA
  3
ACAD_MLINESTYLE
350
17
  3
ACAD_PLOTSETTINGS
350
19
  3
ACAD_PLOTSTYLENAME
350
E
  3
ACAD_TABLESTYLE
350
D9
  3
ACAD_VISUALSTYLE
350
2A
  0
SUN
  5
3F
330
29
100
AcDbSun
 90
        1
290
     0
 63
     7
421
 16777215
 40
1.0
291
     1
 91
  2455826
 92
 54000000
292
     0
 70
     2
 71
   256
280
     1
  0
DICTIONARY
  5
D
102
{ACAD_REACTORS
330
C
102
}
330
C
100
AcDbDictionary
281
     1
  0
DICTIONARY
  5
1A
102
{ACAD_REACTORS
330
C
102
}
330
C
100
AcDbDictionary
281
     1
  3
Layout1
350
1E
  3
Layout2
350
26
  3
Model
350
22
  0
DICTIONARY
  5
3B
102
{ACAD_REACTORS
330
C
102
}
330
C
100
AcDbDictionary
281
     1
  3
ByBlock
350
3D
  3
ByLayer
350
3C
  3
Global
350
3E
  0
DICTIONARY
  5
DA
102
{ACAD_REACTORS
330
C
102
}
330
C
100
AcDbDictionary
281
     1
  0
DICTIONARY
  5
17
102
{ACAD_REACTORS
330
C
102
}
330
C
100
AcDbDictionary
281
     1
  3
Standard
350
18
  0
DICTIONARY
  5
19
102
{ACAD_REACTORS
330
C
102
}
330
C
100
AcDbDictionary
281
     1
  0
ACDBDICTIONARYWDFLT
  5
E
102
{ACAD_REACTORS
330
C
102
}
330
C
100
AcDbDictionary
281
     1
  3
Normal
350
F
100
AcDbDictionaryWithDefault
340
F
  0
DICTIONARY
  5
D9
102
{ACAD_REACTORS
330
C
102
}
330
C
100
AcDbDictionary
281
     1
  0
DICTIONARY
  5
2A
102
{ACAD_REACTORS
330
C
102
}
330
C
100
AcDbDictionary
281
     1
  3
2dWireframe
350
2F
  3
3D Hidden
350
31
  3
3dWireframe
350
30
  3
Basic
350
32
  3
Brighten
350
36
  3
ColorChange
350
3A
  3
Conceptual
350
34
  3
Dim
350
35
  3
Facepattern
350
39
  3
Flat
350
2B
  3
FlatWithEdges
350
2C
  3
Gouraud
350
2D
  3
GouraudWithEdges
350
2E
  3
Linepattern
350
38
  3
Realistic
350
33
  3
Thicken
350
37
  0
LAYOUT
  5
1E
102
{ACAD_REACTORS
330
1A
102
}
330
1A
100
AcDbPlotSettings
  1

  2
none_device
  4

  6

 40
0.0
 41
0.0
 42
0.0
 43
0.0
 44
0.0
 45
0.0
 46
0.0
 47
0.0
 48
0.0
 49
0.0
140
0.0
141
0.0
142
1.0
143
1.0
 70
   688
 72
     0
 73
     0
 74
     5
  7

 75
    16
 76
     0
 77
     2
 78
   300
147
1.0
148
0.0
149
0.0
100
AcDbLayout
  1
Layout1
 70
     1
 71
     1
 10
0.0
 20
0.0
 11
12.0
 21
9.0
 12
0.0
 22
0.0
 32
0.0
 14
1.000000000000000E+20
 24
1.000000000000000E+20
 34
1.000000000000000E+20
 15
-1.000000000000000E+20
 25
-1.000000000000000E+20
 35
-1.000000000000000E+20
146
0.0
 13
0.0
 23
0.0
 33
0.0
 16
1.0
 26
0.0
 36
0.0
 17
0.0
 27
1.0
 37
0.0
 76
     0
330
1B
  0
LAYOUT
  5
26
102
{ACAD_REACTORS
330
1A
102
}
330
1A
100
AcDbPlotSettings
  1

  2
none_device
  4

  6

 40
0.0
 41
0.0
 42
0.0
 43
0.0
 44
0.0
 45
0.0
 46
0.0
 47
0.0
 48
0.0
 49
0.0
140
0.0
141
0.0
142
1.0
143
1.0
 70
   688
 72
     0
 73
     0
 74
     5
  7

 75
    16
 76
     0
 77
     2
 78
   300
147
1.0
148
0.0
149
0.0
100
AcDbLayout
  1
Layout2
 70
     1
 71
     2
 10
0.0
 20
0.0
 11
0.0
 21
0.0
 12
0.0
 22
0.0
 32
0.0
 14
0.0
 24
0.0
 34
0.0
 15
0.0
 25
0.0
 35
0.0
146
0.0
 13
0.0
 23
0.0
 33
0.0
 16
1.0
 26
0.0
 36
0.0
 17
0.0
 27
1.0
 37
0.0
 76
     0
330
23
  0
LAYOUT
  5
22
102
{ACAD_REACTORS
330
1A
102
}
330
1A
100
AcDbPlotSettings
  1

  2
none_device
  4

  6

 40
0.0
 41
0.0
 42
0.0
 43
0.0
 44
0.0
 45
0.0
 46
0.0
 47
0.0
 48
0.0
 49
0.0
140
0.0
141
0.0
142
1.0
143
1.0
 70
  1712
 72
     0
 73
     0
 74
     0
  7

 75
     0
 76
     0
 77
     2
 78
   300
147
1.0
148
0.0
149
0.0
100
AcDbLayout
  1
Model
 70
     1
 71
     0
 10
0.0
 20
0.0
 11
12.0
 21
9.0
 12
0.0
 22
0.0
 32
0.0
 14
1.000000000000000E+20
 24
1.000000000000000E+20
 34
1.000000000000000E+20
 15
-1.000000000000000E+20
 25
-1.000000000000000E+20
 35
-1.000000000000000E+20
146
0.0
 13
0.0
 23
0.0
 33
0.0
 16
1.0
 26
0.0
 36
0.0
 17
0.0
 27
1.0
 37
0.0
 76
     0
330
1F
331
29
  0
MATERIAL
  5
3D
102
{ACAD_REACTORS
330
3B
102
}
330
3B
100
AcDbMaterial
  1
ByBlock
 72
     1
 94
      127
  0
MATERIAL
  5
3C
102
{ACAD_REACTORS
330
3B
102
}
330
3B
100
AcDbMaterial
  1
ByLayer
 72
     1
 94
      127
  0
MATERIAL
  5
3E
102
{ACAD_REACTORS
330
3B
102
}
330
3B
100
AcDbMaterial
  1
Global
 72
     1
 94
      127
  0
MLINESTYLE
  5
18
102
{ACAD_REACTORS
330
17
102
}
330
17
100
AcDbMlineStyle
  2
Standard
 70
     0
  3

 62
   256
 51
90.0
 52
90.0
 71
     2
 49
0.5
 62
   256
  6
BYLAYER
 49
-0.5
 62
   256
  6
BYLAYER
  0
ACDBPLACEHOLDER
  5
F
102
{ACAD_REACTORS
330
E
102
}
330
E
  0
VISUALSTYLE
  5
2F
102
{ACAD_REACTORS
330
2A
102
}
330
2A
100
AcDbVisualStyle
  2
2dWireframe
 70
     4
177
     2
291
     0
 71
     0
176
     1
 72
     2
176
     1
 73
     0
176
     1
 90
        0
176
     1
 40
-0.6
176
     1
 41
-30.0
176
     1
 62
     5
 63
     7
421
 16777215
176
     1
 74
     1
176
     1
 91
        4
176
     1
 64
     7
176
     1
 65
   257
176
     1
 75
     1
176
     1
175
     1
176
     1
 42
1.0
176
     1
 92
        0
176
     1
 66
   257
176
     1
 43
1.0
176
     1
 76
     1
176
     1
 77
     6
176
     1
 78
     2
176
     1
 67
     7
176
     1
 79
     5
176
     1
170
     0
176
     1
171
     0
176
     1
290
     0
176
     1
 93
        1
176
     1
 44
0.0
176
     1
173
     0
176
     1
  0
VISUALSTYLE
  5
31
102
{ACAD_REACTORS
330
2A
102
}
330
2A
100
AcDbVisualStyle
  2
3D Hidden
 70
     6
177
     2
291
     0
 71
     1
176
     1
 72
     2
176
     1
 73
     2
176
     1
 90
        0
176
     1
 40
-0.6
176
     1
 41
-30.0
176
     1
 62
     5
 63
     7
421
 16777215
176
     1
 74
     2
176
     1
 91
        2
176
     1
 64
     7
176
     1
 65
   257
176
     1
 75
     2
176
     1
175
     1
176
     1
 42
40.0
176
     1
 92
        0
176
     1
 66
   257
176
     1
 43
1.0
176
     1
 76
     1
176
     1
 77
     6
176
     1
 78
     2
176
     1
 67
     7
176
     1
 79
     3
176
     1
170
     0
176
     1
171
     0
176
     1
290
     0
176
     1
 93
        1
176
     1
 44
0.0
176
     1
173
     0
176
     1
  0
VISUALSTYLE
  5
30
102
{ACAD_REACTORS
330
2A
102
}
330
2A
100
AcDbVisualStyle
  2
3dWireframe
 70
     5
177
     2
291
     0
 71
     0
176
     1
 72
     2
176
     1
 73
     0
176
     1
 90
        0
176
     1
 40
-0.6
176
     1
 41
-30.0
176
     1
 62
     5
 63
     7
421
 16777215
176
     1
 74
     1
176
     1
 91
        4
176
     1
 64
     7
176
     1
 65
   257
176
     1
 75
     1
176
     1
175
     1
176
     1
 42
1.0
176
     1
 92
        0
176
     1
 66
   257
176
     1
 43
1.0
176
     1
 76
     1
176
     1
 77
     6
176
     1
 78
     2
176
     1
 67
     7
176
     1
 79
     5
176
     1
170
     0
176
     1
171
     0
176
     1
290
     0
176
     1
 93
        1
176
     1
 44
0.0
176
     1
173
     0
176
     1
  0
VISUALSTYLE
  5
32
102
{ACAD_REACTORS
330
2A
102
}
330
2A
100
AcDbVisualStyle
  2
Basic
 70
     7
177
     2
291
     1
 71
     1
176
     1
 72
     0
176
     1
 73
     1
176
     1
 90
        0
176
     1
 40
-0.6
176
     1
 41
-30.0
176
     1
 62
     5
 63
     7
421
 16777215
176
     1
 74
     0
176
     1
 91
        4
176
     1
 64
     7
176
     1
 65
   257
176
     1
 75
     1
176
     1
175
     1
176
     1
 42
1.0
176
     1
 92
        8
176
     1
 66
     7
176
     1
 43
1.0
176
     1
 76
     1
176
     1
 77
     6
176
     1
 78
     2
176
     1
 67
     7
176
     1
 79
     5
176
     1
170
     0
176
     1
171
     0
176
     1
290
     0
176
     1
 93
        1
176
     1
 44
0.0
176
     1
173
     0
176
     1
  0
VISUALSTYLE
  5
36
102
{ACAD_REACTORS
330
2A
102
}
330
2A
100
AcDbVisualStyle
  2
Brighten
 70
    12
177
     2
291
     1
 71
     2
176
     1
 72
     2
176
     1
 73
     0
176
     1
 90
        0
176
     1
 40
-0.6
176
     1
 41
-30.0
176
     1
 62
     5
 63
     7
421
 16777215
176
     1
 74
     1
176
     1
 91
        4
176
     1
 64
     7
176
     1
 65
   257
176
     1
 75
     1
176
     1
175
     1
176
     1
 42
1.0
176
     1
 92
        8
176
     1
 66
     7
176
     1
 43
1.0
176
     1
 76
     1
176
     1
 77
     6
176
     1
 78
     2
176
     1
 67
     7
176
     1
 79
     5
176
     1
170
     0
176
     1
171
     0
176
     1
290
     0
176
     1
 93
        1
176
     1
 44
50.0
176
     1
173
     0
176
     1
  0
VISUALSTYLE
  5
3A
102
{ACAD_REACTORS
330
2A
102
}
330
2A
100
AcDbVisualStyle
  2
ColorChange
 70
    16
177
     2
291
     1
 71
     2
176
     1
 72
     2
176
     1
 73
     3
176
     1
 90
        0
176
     1
 40
-0.6
176
     1
 41
-30.0
176
     1
 62
     5
 63
     8
421
  8421504
176
     1
 74
     1
176
     1
 91
        4
176
     1
 64
     7
176
     1
 65
   257
176
     1
 75
     1
176
     1
175
     1
176
     1
 42
1.0
176
     1
 92
        8
176
     1
 66
     8
424
  8421504
176
     1
 43
1.0
176
     1
 76
     1
176
     1
 77
     6
176
     1
 78
     2
176
     1
 67
     7
176
     1
 79
     5
176
     1
170
     0
176
     1
171
     0
176
     1
290
     0
176
     1
 93
        1
176
     1
 44
0.0
176
     1
173
     0
176
     1
  0
VISUALSTYLE
  5
34
102
{ACAD_REACTORS
330
2A
102
}
330
2A
100
AcDbVisualStyle
  2
Conceptual
 70
     9
177
     2
291
     0
 71
     3
176
     1
 72
     2
176
     1
 73
     0
176
     1
 90
        0
176
     1
 40
-0.6
176
     1
 41
-30.0
176
     1
 62
     5
 63
     7
421
 16777215
176
     1
 74
     2
176
     1
 91
        2
176
     1
 64
     7
176
     1
 65
   257
176
     1
 75
     1
176
     1
175
     1
176
     1
 42
40.0
176
     1
 92
        8
176
     1
 66
     7
176
     1
 43
1.0
176
     1
 76
     1
176
     1
 77
     6
176
     1
 78
     2
176
     1
 67
     7
176
     1
 79
     3
176
     1
170
     0
176
     1
171
     0
176
     1
290
     0
176
     1
 93
        1
176
     1
 44
0.0
176
     1
173
     0
176
     1
  0
VISUALSTYLE
  5
35
102
{ACAD_REACTORS
330
2A
102
}
330
2A
100
AcDbVisualStyle
  2
Dim
 70
    11
177
     2
291
     1
 71
     2
176
     1
 72
     2
176
     1
 73
     0
176
     1
 90
        0
176
     1
 40
-0.6
176
     1
 41
-30.0
176
     1
 62
     5
 63
     7
421
 16777215
176
     1
 74
     1
176
     1
 91
        4
176
     1
 64
     7
176
     1
 65
   257
176
     1
 75
     1
176
     1
175
     1
176
     1
 42
1.0
176
     1
 92
        8
176
     1
 66
     7
176
     1
 43
1.0
176
     1
 76
     1
176
     1
 77
     6
176
     1
 78
     2
176
     1
 67
     7
176
     1
 79
     5
176
     1
170
     0
176
     1
171
     0
176
     1
290
     0
176
     1
 93
        1
176
     1
 44
-50.0
176
     1
173
     0
176
     1
  0
VISUALSTYLE
  5
39
102
{ACAD_REACTORS
330
2A
102
}
330
2A
100
AcDbVisualStyle
  2
Facepattern
 70
    15
177
     2
291
     1
 71
     2
176
     1
 72
     2
176
     1
 73
     0
176
     1
 90
        0
176
     1
 40
-0.6
176
     1
 41
-30.0
176
     1
 62
     5
 63
     7
421
 16777215
176
     1
 74
     1
176
     1
 91
        4
176
     1
 64
     7
176
     1
 65
   257
176
     1
 75
     1
176
     1
175
     1
176
     1
 42
1.0
176
     1
 92
        8
176
     1
 66
     7
176
     1
 43
1.0
176
     1
 76
     1
176
     1
 77
     6
176
     1
 78
     2
176
     1
 67
     7
176
     1
 79
     5
176
     1
170
     0
176
     1
171
     0
176
     1
290
     0
176
     1
 93
        1
176
     1
 44
0.0
176
     1
173
     0
176
     1
  0
VISUALSTYLE
  5
2B
102
{ACAD_REACTORS
330
2A
102
}
330
2A
100
AcDbVisualStyle
  2
Flat
 70
     0
177
     2
291
     1
 71
     2
176
     1
 72
     1
176
     1
 73
     1
176
     1
 90
        2
176
     1
 40
-0.6
176
     1
 41
30.0
176
     1
 62
     5
 63
     7
421
 16777215
176
     1
 74
     0
176
     1
 91
        4
176
     1
 64
     7
176
     1
 65
   257
176
     1
 75
     1
176
     1
175
     1
176
     1
 42
1.0
176
     1
 92
        8
176
     1
 66
     7
176
     1
 43
1.0
176
     1
 76
     1
176
     1
 77
     6
176
     1
 78
     2
176
     1
 67
     7
176
     1
 79
     5
176
     1
170
     0
176
     1
171
     0
176
     1
290
     0
176
     1
 93
       13
176
     1
 44
0.0
176
     1
173
     0
176
     1
  0
VISUALSTYLE
  5
2C
102
{ACAD_REACTORS
330
2A
102
}
330
2A
100
AcDbVisualStyle
  2
FlatWithEdges
 70
     1
177
     2
291
     1
 71
     2
176
     1
 72
     1
176
     1
 73
     1
176
     1
 90
        2
176
     1
 40
-0.6
176
     1
 41
30.0
176
     1
 62
     5
 63
     7
421
 16777215
176
     1
 74
     1
176
     1
 91
        4
176
     1
 64
     7
176
     1
 65
   257
176
     1
 75
     1
176
     1
175
     1
176
     1
 42
1.0
176
     1
 92
        0
176
     1
 66
   257
176
     1
 43
1.0
176
     1
 76
     1
176
     1
 77
     6
176
     1
 78
     2
176
     1
 67
     7
176
     1
 79
     5
176
     1
170
     0
176
     1
171
     0
176
     1
290
     0
176
     1
 93
       13
176
     1
 44
0.0
176
     1
173
     0
176
     1
  0
VISUALSTYLE
  5
2D
102
{ACAD_REACTORS
330
2A
102
}
330
2A
100
AcDbVisualStyle
  2
Gouraud
 70
     2
177
     2
291
     1
 71
     2
176
     1
 72
     2
176
     1
 73
     1
176
     1
 90
        2
176
     1
 40
-0.6
176
     1
 41
30.0
176
     1
 62
     5
 63
     7
421
 16777215
176
     1
 74
     0
176
     1
 91
        4
176
     1
 64
     7
176
     1
 65
   257
176
     1
 75
     1
176
     1
175
     1
176
     1
 42
1.0
176
     1
 92
        0
176
     1
 66
     7
176
     1
 43
1.0
176
     1
 76
     1
176
     1
 77
     6
176
     1
 78
     2
176
     1
 67
     7
176
     1
 79
     5
176
     1
170
     0
176
     1
171
     0
176
     1
290
     0
176
     1
 93
       13
176
     1
 44
0.0
176
     1
173
     0
176
     1
  0
VISUALSTYLE
  5
2E
102
{ACAD_REACTORS
330
2A
102
}
330
2A
100
AcDbVisualStyle
  2
GouraudWithEdges
 70
     3
177
     2
291
     1
 71
     2
176
     1
 72
     2
176
     1
 73
     1
176
     1
 90
        2
176
     1
 40
-0.6
176
     1
 41
30.0
176
     1
 62
     5
 63
     7
421
 16777215
176
     1
 74
     1
176
     1
 91
        4
176
     1
 64
     7
176
     1
 65
   257
176
     1
 75
     1
176
     1
175
     1
176
     1
 42
1.0
176
     1
 92
        0
176
     1
 66
   257
176
     1
 43
1.0
176
     1
 76
     1
176
     1
 77
     6
176
     1
 78
     2
176
     1
 67
     7
176
     1
 79
     5
176
     1
170
     0
176
     1
171
     0
176
     1
290
     0
176
     1
 93
       13
176
     1
 44
0.0
176
     1
173
     0
176
     1
  0
VISUALSTYLE
  5
38
102
{ACAD_REACTORS
330
2A
102
}
330
2A
100
AcDbVisualStyle
  2
Linepattern
 70
    14
177
     2
291
     1
 71
     2
176
     1
 72
     2
176
     1
 73
     0
176
     1
 90
        0
176
     1
 40
-0.6
176
     1
 41
-30.0
176
     1
 62
     5
 63
     7
421
 16777215
176
     1
 74
     1
176
     1
 91
        4
176
     1
 64
     7
176
     1
 65
   257
176
     1
 75
     7
176
     1
175
     7
176
     1
 42
1.0
176
     1
 92
        8
176
     1
 66
     7
176
     1
 43
1.0
176
     1
 76
     1
176
     1
 77
     6
176
     1
 78
     2
176
     1
 67
     7
176
     1
 79
     5
176
     1
170
     0
176
     1
171
     0
176
     1
290
     0
176
     1
 93
        1
176
     1
 44
0.0
176
     1
173
     0
176
     1
  0
VISUALSTYLE
  5
33
102
{ACAD_REACTORS
330
2A
102
}
330
2A
100
AcDbVisualStyle
  2
Realistic
 70
     8
177
     2
291
     0
 71
     2
176
     1
 72
     2
176
     1
 73
     0
176
     1
 90
        0
176
     1
 40
-0.6
176
     1
 41
-30.0
176
     1
 62
     5
 63
     7
421
 16777215
176
     1
 74
     1
176
     1
 91
        0
176
     1
 64
     7
176
     1
 65
   257
176
     1
 75
     1
176
     1
175
     1
176
     1
 42
1.0
176
     1
 92
        8
176
     1
 66
     8
424
  7895160
176
     1
 43
1.0
176
     1
 76
     1
176
     1
 77
     6
176
     1
 78
     2
176
     1
 67
     7
176
     1
 79
     5
176
     1
170
     0
176
     1
171
     0
176
     1
290
     0
176
     1
 93
       13
176
     1
 44
0.0
176
     1
173
     0
176
     1
  0
VISUALSTYLE
  5
37
102
{ACAD_REACTORS
330
2A
102
}
330
2A
100
AcDbVisualStyle
  2
Thicken
 70
    13
177
     2
291
     1
 71
     2
176
     1
 72
     2
176
     1
 73
     0
176
     1
 90
        0
176
     1
 40
-0.6
176
     1
 41
-30.0
176
     1
 62
     5
 63
     7
421
 16777215
176
     1
 74
     1
176
     1
 91
        4
176
     1
 64
     7
176
     1
 65
   257
176
     1
 75
     1
176
     1
175
     1
176
     1
 42
1.0
176
     1
 92
       12
176
     1
 66
     7
176
     1
 43
1.0
176
     1
 76
     1
176
     1
 77
     6
176
     1
 78
     2
176
     1
 67
     7
176
     1
 79
     5
176
     1
170
     0
176
     1
171
     0
176
     1
290
     0
176
     1
 93
        1
176
     1
 44
0.0
176
     1
173
     0
176
     1
  0
ENDSEC
  0
EOF
