  0
SECTION
  2
HEADER
  9
$ACADVER
  1
AC1024
  9
$ACADMAINTVER
 70
     6
  9
$DWGCODEPAGE
  3
ANSI_1252
  9
$INSBASE
 10
0.0
 20
0.0
 30
0.0
  9
$EXTMIN
 10
1.000000000000000E+20
 20
1.000000000000000E+20
 30
1.000000000000000E+20
  9
$EXTMAX
 10
-1.000000000000000E+20
 20
-1.000000000000000E+20
 30
-1.000000000000000E+20
  9
$LIMMIN
 10
0.0
 20
0.0
  9
$LIMMAX
 10
12.0
 20
9.0
  9
$ORTHOMODE
 70
     0
  9
$REGENMODE
 70
     1
  9
$FILLMODE
 70
     1
  9
$QTEXTMODE
 70
     0
  9
$MIRRTEXT
 70
     1
  9
$LTSCALE
 40
1.0
  9
$ATTMODE
 70
     1
  9
$TEXTSIZE
 40
0.2
  9
$TRACEWID
 40
0.05
  9
$TEXTSTYLE
  7
Standard
  9
$CLAYER
  8
0
  9
$CELTYPE
  6
ByLayer
  9
$CECOLOR
 62
   256
  9
$CELTSCALE
 40
1.0
  9
$DISPSILH
 70
     0
  9
$DIMSCALE
 40
1.0
  9
$DIMASZ
 40
0.18
  9
$DIMEXO
 40
0.0625
  9
$DIMDLI
 40
0.38
  9
$DIMRND
 40
0.0
  9
$DIMDLE
 40
0.0
  9
$DIMEXE
 40
0.18
  9
$DIMTP
 40
0.0
  9
$DIMTM
 40
0.0
  9
$DIMTXT
 40
0.18
  9
$DIMCEN
 40
0.09
  9
$DIMTSZ
 40
0.0
  9
$DIMTOL
 70
     0
  9
$DIMLIM
 70
     0
  9
$DIMTIH
 70
     1
  9
$DIMTOH
 70
     1
  9
$DIMSE1
 70
     0
  9
$DIMSE2
 70
     0
  9
$DIMTAD
 70
     0
  9
$DIMZIN
 70
     0
  9
$DIMBLK
  1

  9
$DIMASO
 70
     1
  9
$DIMSHO
 70
     1
  9
$DIMPOST
  1

  9
$DIMAPOST
  1

  9
$DIMALT
 70
     0
  9
$DIMALTD
 70
     2
  9
$DIMALTF
 40
25.4
  9
$DIMLFAC
 40
1.0
  9
$DIMTOFL
 70
     0
  9
$DIMTVP
 40
0.0
  9
$DIMTIX
 70
     0
  9
$DIMSOXD
 70
     0
  9
$DIMSAH
 70
     0
  9
$DIMBLK1
  1

  9
$DIMBLK2
  1

  9
$DIMSTYLE
  2
Standard
  9
$DIMCLRD
 70
     0
  9
$DIMCLRE
 70
     0
  9
$DIMCLRT
 70
     0
  9
$DIMTFAC
 40
1.0
  9
$DIMGAP
 40
0.09
  9
$DIMJUST
 70
     0
  9
$DIMSD1
 70
     0
  9
$DIMSD2
 70
     0
  9
$DIMTOLJ
 70
     1
  9
$DIMTZIN
 70
     0
  9
$DIMALTZ
 70
     0
  9
$DIMALTTZ
 70
     0
  9
$DIMUPT
 70
     0
  9
$DIMDEC
 70
     4
  9
$DIMTDEC
 70
     4
  9
$DIMALTU
 70
     2
  9
$DIMALTTD
 70
     2
  9
$DIMTXSTY
  7
Standard
  9
$DIMAUNIT
 70
     0
  9
$DIMADEC
 70
     0
  9
$DIMALTRND
 40
0.0
  9
$DIMAZIN
 70
     0
  9
$DIMDSEP
 70
    46
  9
$DIMATFIT
 70
     3
  9
$DIMFRAC
 70
     0
  9
$DIMLDRBLK
  1

  9
$DIMLUNIT
 70
     2
  9
$DIMLWD
 70
    -2
  9
$DIMLWE
 70
    -2
  9
$DIMTMOVE
 70
     0
  9
$DIMFXL
 40
1.0
  9
$DIMFXLON
 70
     0
  9
$DIMJOGANG
 40
0.7853981633974483
  9
$DIMTFILL
 70
     0
  9
$DIMTFILLCLR
 70
     0
  9
$DIMARCSYM
 70
     0
  9
$DIMLTYPE
  6

  9
$DIMLTEX1
  6

  9
$DIMLTEX2
  6

  9
$DIMTXTDIRECTION
 70
     0
  9
$LUNITS
 70
     2
  9
$LUPREC
 70
     4
  9
$SKETCHINC
 40
0.1
  9
$FILLETRAD
 40
0.5
  9
$AUNITS
 70
     0
  9
$AUPREC
 70
     0
  9
$MENU
  1
.
  9
$ELEVATION
 40
0.0
  9
$PELEVATION
 40
0.0
  9
$THICKNESS
 40
0.0
  9
$LIMCHECK
 70
     0
  9
$CHAMFERA
 40
0.5
  9
$CHAMFERB
 40
0.5
  9
$CHAMFERC
 40
1.0
  9
$CHAMFERD
 40
0.0
  9
$SKPOLY
 70
     0
  9
$TDCREATE
 40
2458787.925343727
  9
$TDUCREATE
 40
2458787.38367706
  9
$TDUPDATE
 40
2458787.925343889
  9
$TDUUPDATE
 40
2458787.383677222
  9
$TDINDWG
 40
0.0000000116
  9
$TDUSRTIMER
 40
0.0000000116
  9
$USRTIMER
 70
     1
  9
$ANGBASE
 50
0.0
  9
$ANGDIR
 70
     0
  9
$PDMODE
 70
     0
  9
$PDSIZE
 40
0.0
  9
$PLINEWID
 40
0.0
  9
$SPLFRAME
 70
     0
  9
$SPLINETYPE
 70
     6
  9
$SPLINESEGS
 70
     8
  9
$HANDSEED
  5
CA
  9
$SURFTAB1
 70
     6
  9
$SURFTAB2
 70
     6
  9
$SURFTYPE
 70
     6
  9
$SURFU
 70
     6
  9
$SURFV
 70
     6
  9
$UCSBASE
  2

  9
$UCSNAME
  2

  9
$UCSORG
 10
0.0
 20
0.0
 30
0.0
  9
$UCSXDIR
 10
1.0
 20
0.0
 30
0.0
  9
$UCSYDIR
 10
0.0
 20
1.0
 30
0.0
  9
$UCSORTHOREF
  2

  9
$UCSORTHOVIEW
 70
     0
  9
$UCSORGTOP
 10
0.0
 20
0.0
 30
0.0
  9
$UCSORGBOTTOM
 10
0.0
 20
0.0
 30
0.0
  9
$UCSORGLEFT
 10
0.0
 20
0.0
 30
0.0
  9
$UCSORGRIGHT
 10
0.0
 20
0.0
 30
0.0
  9
$UCSORGFRONT
 10
0.0
 20
0.0
 30
0.0
  9
$UCSORGBACK
 10
0.0
 20
0.0
 30
0.0
  9
$PUCSBASE
  2

  9
$PUCSNAME
  2

  9
$PUCSORG
 10
0.0
 20
0.0
 30
0.0
  9
$PUCSXDIR
 10
1.0
 20
0.0
 30
0.0
  9
$PUCSYDIR
 10
0.0
 20
1.0
 30
0.0
  9
$PUCSORTHOREF
  2

  9
$PUCSORTHOVIEW
 70
     0
  9
$PUCSORGTOP
 10
0.0
 20
0.0
 30
0.0
  9
$PUCSORGBOTTOM
 10
0.0
 20
0.0
 30
0.0
  9
$PUCSORGLEFT
 10
0.0
 20
0.0
 30
0.0
  9
$PUCSORGRIGHT
 10
0.0
 20
0.0
 30
0.0
  9
$PUCSORGFRONT
 10
0.0
 20
0.0
 30
0.0
  9
$PUCSORGBACK
 10
0.0
 20
0.0
 30
0.0
  9
$USERI1
 70
     0
  9
$USERI2
 70
     0
  9
$USERI3
 70
     0
  9
$USERI4
 70
     0
  9
$USERI5
 70
     0
  9
$USERR1
 40
0.0
  9
$USERR2
 40
0.0
  9
$USERR3
 40
0.0
  9
$USERR4
 40
0.0
  9
$USERR5
 40
0.0
  9
$WORLDVIEW
 70
     1
  9
$SHADEDGE
 70
     3
  9
$SHADEDIF
 70
    70
  9
$TILEMODE
 70
     1
  9
$MAXACTVP
 70
    64
  9
$PINSBASE
 10
0.0
 20
0.0
 30
0.0
  9
$PLIMCHECK
 70
     0
  9
$PEXTMIN
 10
1.000000000000000E+20
 20
1.000000000000000E+20
 30
1.000000000000000E+20
  9
$PEXTMAX
 10
-1.000000000000000E+20
 20
-1.000000000000000E+20
 30
-1.000000000000000E+20
  9
$PLIMMIN
 10
0.0
 20
0.0
  9
$PLIMMAX
 10
12.0
 20
9.0
  9
$UNITMODE
 70
     0
  9
$VISRETAIN
 70
     1
  9
$PLINEGEN
 70
     0
  9
$PSLTSCALE
 70
     1
  9
$TREEDEPTH
 70
  3020
  9
$CMLSTYLE
  2
Standard
  9
$CMLJUST
 70
     0
  9
$CMLSCALE
 40
1.0
  9
$PROXYGRAPHICS
 70
     1
  9
$MEASUREMENT
 70
     0
  9
$CELWEIGHT
370
    -1
  9
$ENDCAPS
280
     0
  9
$JOINSTYLE
280
     0
  9
$LWDISPLAY
290
     1
  9
$INSUNITS
 70
     1
  9
$HYPERLINKBASE
  1

  9
$STYLESHEET
  1

  9
$XEDIT
290
     1
  9
$CEPSNTYPE
380
     0
  9
$PSTYLEMODE
290
     1
  9
$FINGERPRINTGUID
  2
{F5ACED4B-8EBB-466C-9CD0-641E831108FE}
  9
$VERSIONGUID
  2
{FAEB1C32-E019-11D5-929B-00C0DF256EC4}
  9
$EXTNAMES
290
     1
  9
$PSVPSCALE
 40
0.0
  9
$OLESTARTUP
290
     0
  9
$SORTENTS
280
   127
  9
$INDEXCTL
280
     0
  9
$HIDETEXT
280
     1
  9
$XCLIPFRAME
280
     2
  9
$HALOGAP
280
     0
  9
$OBSCOLOR
 70
   257
  9
$OBSLTYPE
280
     0
  9
$INTERSECTIONDISPLAY
280
     0
  9
$INTERSECTIONCOLOR
 70
   257
  9
$DIMASSOC
280
     2
  9
$PROJECTNAME
  1

  9
$CAMERADISPLAY
290
     0
  9
$LENSLENGTH
 40
50.0
  9
$CAMERAHEIGHT
 40
0.0
  9
$STEPSPERSEC
 40
2.0
  9
$STEPSIZE
 40
6.0
  9
$3DDWFPREC
 40
2.0
  9
$PSOLWIDTH
 40
0.25
  9
$PSOLHEIGHT
 40
4.0
  9
$LOFTANG1
 40
1.570796326794897
  9
$LOFTANG2
 40
1.570796326794897
  9
$LOFTMAG1
 40
0.0
  9
$LOFTMAG2
 40
0.0
  9
$LOFTPARAM
 70
     7
  9
$LOFTNORMALS
280
     1
  9
$LATITUDE
 40
37.795
  9
$LONGITUDE
 40
-122.394
  9
$NORTHDIRECTION
 40
0.0
  9
$TIMEZONE
 70
 -8000
  9
$LIGHTGLYPHDISPLAY
280
     1
  9
$TILEMODELIGHTSYNCH
280
     1
  9
$CMATERIAL
347
3C
  9
$SOLIDHIST
280
     1
  9
$SHOWHIST
280
     1
  9
$DWFFRAME
280
     2
  9
$DGNFRAME
280
     2
  9
$REALWORLDSCALE
290
     1
  9
$INTERFERECOLOR
 62
   256
  9
$CSHADOW
280
     0
  9
$SHADOWPLANELOCATION
 40
0.0
  0
ENDSEC
  0
SECTION
  2
CLASSES
  0
CLASS
  1
ACDBDICTIONARYWDFLT
  2
AcDbDictionaryWithDefault
  3
ObjectDBX Classes
 90
        0
 91
        4
280
     0
281
     0
  0
CLASS
  1
VISUALSTYLE
  2
AcDbVisualStyle
  3
ObjectDBX Classes
 90
     4095
 91
        4
280
     0
281
     0
  0
CLASS
  1
MATERIAL
  2
AcDbMaterial
  3
ObjectDBX Classes
 90
     1153
 91
        4
280
     0
281
     0
  0
CLASS
  1
SUN
  2
AcDbSun
  3
SCENEOE
 90
     1024
 91
        4
280
     0
281
     0
  0
ENDSEC
  0
SECTION
  2
TABLES
  0
TABLE
  2
VPORT
  5
8
330
0
100
AcDbSymbolTable
 70
     1
  0
VPORT
  5
29
330
8
100
AcDbSymbolTableRecord
100
AcDbViewportTableRecord
  2
*Active
 70
     0
 10
0.0
 20
0.0
 11
1.0
 21
1.0
 12
0.0
 22
0.0
 13
0.0
 23
0.0
 14
0.5
 24
0.5
 15
0.5
 25
0.5
 16
0.0
 26
0.0
 36
1.0
 17
4.243055555555555
 27
5.506944444444444
 37
0.0
 40
11.69291338582677
 41
0.7070707070707065
 42
50.0
 43
0.0
 44
0.0
 50
0.0
 51
0.0
 71
     0
 72
   100
 73
     1
 74
     3
 75
     0
 76
     0
 77
     0
 78
     0
281
     0
 65
     1
110
0.0
120
0.0
130
0.0
111
1.0
121
0.0
131
0.0
112
0.0
122
1.0
132
0.0
 79
     0
146
0.0
 60
     3
 61
     5
292
     1
282
     1
141
0.0
142
0.0
 63
   250
361
3F
  0
ENDTAB
  0
TABLE
  2
LTYPE
  5
5
330
0
100
AcDbSymbolTable
 70
     3
  0
LTYPE
  5
14
330
5
100
AcDbSymbolTableRecord
100
AcDbLinetypeTableRecord
  2
ByBlock
 70
     0
  3

 72
    65
 73
     0
 40
0.0
  0
LTYPE
  5
15
330
5
100
AcDbSymbolTableRecord
100
AcDbLinetypeTableRecord
  2
ByLayer
 70
     0
  3

 72
    65
 73
     0
 40
0.0
  0
LTYPE
  5
16
330
5
100
AcDbSymbolTableRecord
100
AcDbLinetypeTableRecord
  2
Continuous
 70
     0
  3
Solid line
 72
    65
 73
     0
 40
0.0
  0
LTYPE
  5
74
330
5
100
AcDbSymbolTableRecord
100
AcDbLinetypeTableRecord
  2
AI-Linetype-1
 70
     0
  3
Adobe Illustrator Linetype No. 1
 72
    65
 73
     6
 40
0.5561065077781677
 49
0.1235792239507039
 74
     0
 49
-0.061789611975352
 74
     0
 49
0.1235792239507039
 74
     0
 49
-0.061789611975352
 74
     0
 49
0.1235792239507039
 74
     0
 49
-0.061789611975352
 74
     0
  0
LTYPE
  5
79
330
5
100
AcDbSymbolTableRecord
100
AcDbLinetypeTableRecord
  2
AI-Linetype-2
 70
     0
  3
Adobe Illustrator Linetype No. 2
 72
    65
 73
     6
 40
0.5561065077781677
 49
0.1235792239507039
 74
     0
 49
-0.061789611975352
 74
     0
 49
0.1235792239507039
 74
     0
 49
-0.061789611975352
 74
     0
 49
0.1235792239507039
 74
     0
 49
-0.061789611975352
 74
     0
  0
ENDTAB
  0
TABLE
  2
LAYER
  5
2
330
0
100
AcDbSymbolTable
 70
     2
  0
LAYER
  5
10
330
2
100
AcDbSymbolTableRecord
100
AcDbLayerTableRecord
  2
0
 70
     0
 62
     7
  6
Continuous
370
    -3
390
F
347
3E
  0
LAYER
  5
40
330
2
100
AcDbSymbolTableRecord
100
AcDbLayerTableRecord
  2
Layer 1
 70
     0
 62
     7
  6
Continuous
370
    -3
390
F
347
3E
  0
ENDTAB
  0
TABLE
  2
STYLE
  5
3
330
0
100
AcDbSymbolTable
 70
     1
  0
STYLE
  5
11
330
3
100
AcDbSymbolTableRecord
100
AcDbTextStyleTableRecord
  2
Standard
 70
     0
 40
0.0
 41
1.0
 50
0.0
 71
     0
 42
0.2
  3
txt
  4

  0
ENDTAB
  0
TABLE
  2
VIEW
  5
6
330
0
100
AcDbSymbolTable
 70
     0
  0
ENDTAB
  0
TABLE
  2
UCS
  5
7
330
0
100
AcDbSymbolTable
 70
     0
  0
ENDTAB
  0
TABLE
  2
APPID
  5
9
330
0
100
AcDbSymbolTable
 70
     1
  0
APPID
  5
12
330
9
100
AcDbSymbolTableRecord
100
AcDbRegAppTableRecord
  2
ACAD
 70
     0
  0
ENDTAB
  0
TABLE
  2
DIMSTYLE
  5
A
330
0
100
AcDbSymbolTable
 70
     1
100
AcDbDimStyleTable
  0
DIMSTYLE
105
27
330
A
100
AcDbSymbolTableRecord
100
AcDbDimStyleTableRecord
  2
Standard
 70
     0
178
     0
340
11
  0
ENDTAB
  0
TABLE
  2
BLOCK_RECORD
  5
1
330
0
100
AcDbSymbolTable
 70
     5
  0
BLOCK_RECORD
  5
1F
330
1
100
AcDbSymbolTableRecord
100
AcDbBlockTableRecord
  2
*Model_Space
340
22
 70
     0
280
     1
281
     0
  0
BLOCK_RECORD
  5
1B
330
1
100
AcDbSymbolTableRecord
100
AcDbBlockTableRecord
  2
*Paper_Space
340
1E
 70
     0
280
     1
281
     0
  0
BLOCK_RECORD
  5
23
330
1
100
AcDbSymbolTableRecord
100
AcDbBlockTableRecord
  2
*Paper_Space0
340
26
 70
     0
280
     1
281
     0
  0
BLOCK_RECORD
  5
41
330
1
100
AcDbSymbolTableRecord
100
AcDbBlockTableRecord
  2
block 2
340
0
102
{BLKREFS
331
42
102
}
 70
     0
280
     1
281
     0
  0
BLOCK_RECORD
  5
68
330
1
100
AcDbSymbolTableRecord
100
AcDbBlockTableRecord
  2
block 3
340
0
102
{BLKREFS
331
69
102
}
 70
     0
280
     1
281
     0
  0
BLOCK_RECORD
  5
7C
330
1
100
AcDbSymbolTableRecord
100
AcDbBlockTableRecord
  2
block 4
340
0
102
{BLKREFS
331
7D
102
}
 70
     0
280
     1
281
     0
  0
BLOCK_RECORD
  5
A5
330
1
100
AcDbSymbolTableRecord
100
AcDbBlockTableRecord
  2
block 5
340
0
102
{BLKREFS
331
A6
102
}
 70
     0
280
     1
281
     0
  0
ENDTAB
  0
ENDSEC
  0
SECTION
  2
BLOCKS
  0
BLOCK
  5
20
330
1F
100
AcDbEntity
  8
0
100
AcDbBlockBegin
  2
*Model_Space
 70
     0
 10
0.0
 20
0.0
 30
0.0
  3
*Model_Space
  1

  0
ENDBLK
  5
21
330
1F
100
AcDbEntity
  8
0
100
AcDbBlockEnd
  0
BLOCK
  5
1C
330
1B
100
AcDbEntity
 67
     1
  8
0
100
AcDbBlockBegin
  2
*Paper_Space
 70
     0
 10
0.0
 20
0.0
 30
0.0
  3
*Paper_Space
  1

  0
ENDBLK
  5
1D
330
1B
100
AcDbEntity
 67
     1
  8
0
100
AcDbBlockEnd
  0
BLOCK
  5
24
330
23
100
AcDbEntity
  8
0
100
AcDbBlockBegin
  2
*Paper_Space0
 70
     0
 10
0.0
 20
0.0
 30
0.0
  3
*Paper_Space0
  1

  0
ENDBLK
  5
25
330
23
100
AcDbEntity
  8
0
100
AcDbBlockEnd
  0
BLOCK
  5
43
330
41
100
AcDbEntity
  8
0
100
AcDbBlockBegin
  2
block 2
 70
     0
 10
0.0
 20
0.0
 30
0.0
  3
block 2
  1

  0
SPLINE
  5
45
330
41
100
AcDbEntity
  8
Layer 1
 62
     7
420
 16777215
370
    53
100
AcDbSpline
210
0.0
220
0.0
230
1.0
 70
    11
 71
     3
 72
    29
 73
    25
 74
     0
 42
0.0000000001
 43
0.0000000001
 12
1.0
 22
0.0
 32
0.0
 13
1.0
 23
0.0
 33
0.0
 40
0.0
 40
0.0
 40
0.0
 40
0.0
 40
1.0
 40
1.0
 40
1.0
 40
2.0
 40
2.0
 40
2.0
 40
3.0
 40
3.0
 40
3.0
 40
4.0
 40
4.0
 40
4.0
 40
5.0
 40
5.0
 40
5.0
 40
6.0
 40
6.0
 40
6.0
 40
7.0
 40
7.0
 40
7.0
 40
8.0
 40
8.0
 40
8.0
 40
8.0
 10
4.58338366161062
 20
5.335756610169861
 30
0.0
 10
5.179344465825175
 20
5.512345141260034
 30
0.0
 10
5.614133247052349
 20
6.064107836272442
 30
0.0
 10
5.614133247052349
 20
6.717363372794074
 30
0.0
 10
5.614133247052349
 20
7.37152349728813
 30
0.0
 10
5.179767724664871
 20
7.923873193611055
 30
0.0
 10
4.582537143931252
 20
8.099695533516954
 30
0.0
 10
4.582537143931252
 20
8.099695533516954
 30
0.0
 10
4.582626985104349
 20
7.238005414987747
 30
0.0
 10
4.582626985104349
 20
7.238005414987747
 30
0.0
 10
4.582626985104349
 20
7.238005414987747
 30
0.0
 10
2.829470289910849
 20
7.238005414987747
 30
0.0
 10
2.829470289910849
 20
7.238005414987747
 30
0.0
 10
2.76686485345499
 20
7.076515499492416
 30
0.0
 10
2.732531455750303
 20
6.90095235196342
 30
0.0
 10
2.732531455750303
 20
6.717363372794074
 30
0.0
 10
2.732531455750303
 20
6.548665060190589
 30
0.0
 10
2.76152314152921
 20
6.386751561863611
 30
0.0
 10
2.814804323641611
 20
6.236321662858901
 30
0.0
 10
2.814804323641611
 20
6.236321662858901
 30
0.0
 10
4.581422087647044
 20
6.236321662858901
 30
0.0
 10
4.581422087647044
 20
6.236321662858901
 30
0.0
 10
4.581422087647044
 20
6.236321662858901
 30
0.0
 10
4.58338366161062
 20
5.335756610169861
 30
0.0
 10
4.58338366161062
 20
5.335756610169861
 30
0.0
  0
HATCH
  5
46
330
41
100
AcDbEntity
  8
Layer 1
 62
    43
420
 15510365
100
AcDbHatch
 10
0.0
 20
0.0
 30
0.0
210
0.0
220
0.0
230
1.0
  2
SOLID
 70
     1
 71
     0
 91
        1
 92
        1
 93
        1
 72
     4
 94
        3
 73
     0
 74
     1
 95
       29
 96
       25
 40
0.0
 40
0.0
 40
0.0
 40
0.0
 40
1.0
 40
1.0
 40
1.0
 40
2.0
 40
2.0
 40
2.0
 40
3.0
 40
3.0
 40
3.0
 40
4.0
 40
4.0
 40
4.0
 40
5.0
 40
5.0
 40
5.0
 40
6.0
 40
6.0
 40
6.0
 40
7.0
 40
7.0
 40
7.0
 40
8.0
 40
8.0
 40
8.0
 40
8.0
 10
4.58338366161062
 20
5.335756610169861
 10
5.179344465825175
 20
5.512345141260034
 10
5.614133247052349
 20
6.064107836272442
 10
5.614133247052349
 20
6.717363372794074
 10
5.614133247052349
 20
7.37152349728813
 10
5.179767724664871
 20
7.923873193611055
 10
4.582537143931252
 20
8.099695533516954
 10
4.582537143931252
 20
8.099695533516954
 10
4.582626985104349
 20
7.238005414987747
 10
4.582626985104349
 20
7.238005414987747
 10
4.582626985104349
 20
7.238005414987747
 10
2.829470289910849
 20
7.238005414987747
 10
2.829470289910849
 20
7.238005414987747
 10
2.76686485345499
 20
7.076515499492416
 10
2.732531455750303
 20
6.90095235196342
 10
2.732531455750303
 20
6.717363372794074
 10
2.732531455750303
 20
6.548665060190589
 10
2.76152314152921
 20
6.386751561863611
 10
2.814804323641611
 20
6.236321662858901
 10
2.814804323641611
 20
6.236321662858901
 10
4.581422087647044
 20
6.236321662858901
 10
4.581422087647044
 20
6.236321662858901
 10
4.581422087647044
 20
6.236321662858901
 10
4.58338366161062
 20
5.335756610169861
 10
4.58338366161062
 20
5.335756610169861
 97
        0
 97
        0
 75
     2
 76
     1
 98
        0
  0
POLYLINE
  5
47
330
41
100
AcDbEntity
  8
Layer 1
370
     0
100
AcDb2dPolyline
 66
     1
 10
0.0
 20
0.0
 30
0.0
  0
VERTEX
  5
48
330
47
100
AcDbEntity
  8
Layer 1
370
     0
100
AcDbVertex
100
AcDb2dVertex
 10
4.432861078188479
 20
6.242355721354316
 30
0.0
  0
VERTEX
  5
49
330
47
100
AcDbEntity
  8
Layer 1
370
     0
100
AcDbVertex
100
AcDb2dVertex
 10
4.432861078188479
 20
7.232694597867761
 30
0.0
  0
VERTEX
  5
4A
330
47
100
AcDbEntity
  8
Layer 1
370
     0
100
AcDbVertex
100
AcDb2dVertex
 10
3.214598558319595
 20
7.232694597867761
 30
0.0
  0
VERTEX
  5
4B
330
47
100
AcDbEntity
  8
Layer 1
370
     0
100
AcDbVertex
100
AcDb2dVertex
 10
3.214598558319595
 20
6.242355721354316
 30
0.0
  0
VERTEX
  5
4C
330
47
100
AcDbEntity
  8
Layer 1
370
     0
100
AcDbVertex
100
AcDb2dVertex
 10
4.432861078188479
 20
6.242355721354316
 30
0.0
  0
SEQEND
  5
4E
330
47
100
AcDbEntity
  8
Layer 1
370
     0
  0
HATCH
  5
4D
330
41
100
AcDbEntity
  8
Layer 1
 62
   254
420
 16376262
100
AcDbHatch
 10
0.0
 20
0.0
 30
0.0
210
0.0
220
0.0
230
1.0
  2
SOLID
 70
     1
 71
     0
 91
        1
 92
        1
 93
        4
 72
     1
 10
4.432861078188479
 20
6.242355721354316
 11
4.432861078188479
 21
7.232694597867761
 72
     1
 10
4.432861078188479
 20
7.232694597867761
 11
3.214598558319595
 21
7.232694597867761
 72
     1
 10
3.214598558319595
 20
7.232694597867761
 11
3.214598558319595
 21
6.242355721354316
 72
     1
 10
3.214598558319595
 20
6.242355721354316
 11
4.432861078188479
 21
6.242355721354316
 97
        0
 75
     2
 76
     1
 98
        0
  0
POLYLINE
  5
4F
330
41
100
AcDbEntity
  8
Layer 1
 62
     7
420
 16777215
370
    50
100
AcDb2dPolyline
 66
     1
 10
0.0
 20
0.0
 30
0.0
  0
VERTEX
  5
50
330
4F
100
AcDbEntity
  8
Layer 1
 62
     7
420
 16777215
370
    50
100
AcDbVertex
100
AcDb2dVertex
 10
3.215336944178627
 20
7.317970440884513
 30
0.0
  0
VERTEX
  5
51
330
4F
100
AcDbEntity
  8
Layer 1
 62
     7
420
 16777215
370
    50
100
AcDbVertex
100
AcDb2dVertex
 10
3.215336944178627
 20
7.239362025068935
 30
0.0
  0
VERTEX
  5
52
330
4F
100
AcDbEntity
  8
Layer 1
 62
     7
420
 16777215
370
    50
100
AcDbVertex
100
AcDb2dVertex
 10
3.881187978112924
 20
7.239362025068935
 30
0.0
  0
VERTEX
  5
53
330
4F
100
AcDbEntity
  8
Layer 1
 62
     7
420
 16777215
370
    50
100
AcDbVertex
100
AcDb2dVertex
 10
3.881187978112924
 20
7.317970440884513
 30
0.0
  0
VERTEX
  5
54
330
4F
100
AcDbEntity
  8
Layer 1
 62
     7
420
 16777215
370
    50
100
AcDbVertex
100
AcDb2dVertex
 10
3.215336944178627
 20
7.317970440884513
 30
0.0
  0
SEQEND
  5
56
330
4F
100
AcDbEntity
  8
Layer 1
 62
     7
420
 16777215
370
    50
  0
HATCH
  5
55
330
41
100
AcDbEntity
  8
Layer 1
 62
   254
420
 13358815
100
AcDbHatch
 10
0.0
 20
0.0
 30
0.0
210
0.0
220
0.0
230
1.0
  2
SOLID
 70
     1
 71
     0
 91
        1
 92
        1
 93
        4
 72
     1
 10
3.215336944178627
 20
7.317970440884513
 11
3.215336944178627
 21
7.239362025068935
 72
     1
 10
3.215336944178627
 20
7.239362025068935
 11
3.881187978112924
 21
7.239362025068935
 72
     1
 10
3.881187978112924
 20
7.239362025068935
 11
3.881187978112924
 21
7.317970440884513
 72
     1
 10
3.881187978112924
 20
7.317970440884513
 11
3.215336944178627
 21
7.317970440884513
 97
        0
 75
     2
 76
     1
 98
        0
  0
SPLINE
  5
57
330
41
100
AcDbEntity
  8
Layer 1
 62
     7
420
 16777215
370
    50
100
AcDbSpline
210
0.0
220
0.0
230
1.0
 70
    11
 71
     3
 72
    41
 73
    37
 74
     0
 42
0.0000000001
 43
0.0000000001
 12
1.0
 22
0.0
 32
0.0
 13
1.0
 23
0.0
 33
0.0
 40
0.0
 40
0.0
 40
0.0
 40
0.0
 40
1.0
 40
1.0
 40
1.0
 40
2.0
 40
2.0
 40
2.0
 40
3.0
 40
3.0
 40
3.0
 40
4.0
 40
4.0
 40
4.0
 40
5.0
 40
5.0
 40
5.0
 40
6.0
 40
6.0
 40
6.0
 40
7.0
 40
7.0
 40
7.0
 40
8.0
 40
8.0
 40
8.0
 40
9.0
 40
9.0
 40
9.0
 40
10.0
 40
10.0
 40
10.0
 40
11.0
 40
11.0
 40
11.0
 40
12.0
 40
12.0
 40
12.0
 40
12.0
 10
4.499779227588609
 20
7.397530744825088
 30
0.0
 10
4.499779227588609
 20
7.397530744825088
 30
0.0
 10
4.499779227588609
 20
7.991230049253797
 30
0.0
 10
4.499779227588609
 20
7.991230049253797
 30
0.0
 10
4.499779227588609
 20
7.991230049253797
 30
0.0
 10
4.579852385305736
 20
7.991230049253797
 30
0.0
 10
4.579852385305736
 20
7.991230049253797
 30
0.0
 10
4.579852385305736
 20
7.991230049253797
 30
0.0
 10
4.579852385305736
 20
7.369864446215741
 30
0.0
 10
4.579852385305736
 20
7.369864446215741
 30
0.0
 10
4.579852385305736
 20
7.294243230016869
 30
0.0
 10
4.532212594735534
 20
7.239362025068935
 30
0.0
 10
4.43729448282324
 20
7.239362025068935
 30
0.0
 10
4.43729448282324
 20
7.239362025068935
 30
0.0
 10
4.176304431720938
 20
7.239362025068935
 30
0.0
 10
4.176304431720938
 20
7.239362025068935
 30
0.0
 10
4.118466265750486
 20
7.239362025068935
 30
0.0
 10
4.112537552514166
 20
7.245305857602362
 30
0.0
 10
4.06358782217732
 20
7.294243230016869
 30
0.0
 10
4.06358782217732
 20
7.294243230016869
 30
0.0
 10
3.959784364111985
 20
7.398043598601639
 30
0.0
 10
3.959784364111985
 20
7.398043598601639
 30
0.0
 10
3.959784364111985
 20
7.398043598601639
 30
0.0
 10
4.015388835621833
 20
7.453663517514403
 30
0.0
 10
4.015388835621833
 20
7.453663517514403
 30
0.0
 10
4.015388835621833
 20
7.453663517514403
 30
0.0
 10
4.116974046629492
 20
7.352062859103853
 30
0.0
 10
4.116974046629492
 20
7.352062859103853
 30
0.0
 10
4.136252405459496
 20
7.332799947676777
 30
0.0
 10
4.145153199015415
 20
7.317970440884513
 30
0.0
 10
4.185189777873991
 20
7.317970440884513
 30
0.0
 10
4.185189777873991
 20
7.317970440884513
 30
0.0
 10
4.417052206051797
 20
7.317970440884513
 30
0.0
 10
4.417052206051797
 20
7.317970440884513
 30
0.0
 10
4.474887282541658
 20
7.317970440884513
 30
0.0
 10
4.499779227588609
 20
7.33227164649731
 30
0.0
 10
4.499779227588609
 20
7.397530744825088
 30
0.0
  0
HATCH
  5
58
330
41
100
AcDbEntity
  8
Layer 1
 62
   254
420
 13358815
100
AcDbHatch
 10
0.0
 20
0.0
 30
0.0
210
0.0
220
0.0
230
1.0
  2
SOLID
 70
     1
 71
     0
 91
        1
 92
        1
 93
        1
 72
     4
 94
        3
 73
     0
 74
     1
 95
       41
 96
       37
 40
0.0
 40
0.0
 40
0.0
 40
0.0
 40
1.0
 40
1.0
 40
1.0
 40
2.0
 40
2.0
 40
2.0
 40
3.0
 40
3.0
 40
3.0
 40
4.0
 40
4.0
 40
4.0
 40
5.0
 40
5.0
 40
5.0
 40
6.0
 40
6.0
 40
6.0
 40
7.0
 40
7.0
 40
7.0
 40
8.0
 40
8.0
 40
8.0
 40
9.0
 40
9.0
 40
9.0
 40
10.0
 40
10.0
 40
10.0
 40
11.0
 40
11.0
 40
11.0
 40
12.0
 40
12.0
 40
12.0
 40
12.0
 10
4.499779227588609
 20
7.397530744825088
 10
4.499779227588609
 20
7.397530744825088
 10
4.499779227588609
 20
7.991230049253797
 10
4.499779227588609
 20
7.991230049253797
 10
4.499779227588609
 20
7.991230049253797
 10
4.579852385305736
 20
7.991230049253797
 10
4.579852385305736
 20
7.991230049253797
 10
4.579852385305736
 20
7.991230049253797
 10
4.579852385305736
 20
7.369864446215741
 10
4.579852385305736
 20
7.369864446215741
 10
4.579852385305736
 20
7.294243230016869
 10
4.532212594735534
 20
7.239362025068935
 10
4.43729448282324
 20
7.239362025068935
 10
4.43729448282324
 20
7.239362025068935
 10
4.176304431720938
 20
7.239362025068935
 10
4.176304431720938
 20
7.239362025068935
 10
4.118466265750486
 20
7.239362025068935
 10
4.112537552514166
 20
7.245305857602362
 10
4.06358782217732
 20
7.294243230016869
 10
4.06358782217732
 20
7.294243230016869
 10
3.959784364111985
 20
7.398043598601639
 10
3.959784364111985
 20
7.398043598601639
 10
3.959784364111985
 20
7.398043598601639
 10
4.015388835621833
 20
7.453663517514403
 10
4.015388835621833
 20
7.453663517514403
 10
4.015388835621833
 20
7.453663517514403
 10
4.116974046629492
 20
7.352062859103853
 10
4.116974046629492
 20
7.352062859103853
 10
4.136252405459496
 20
7.332799947676777
 10
4.145153199015415
 20
7.317970440884513
 10
4.185189777873991
 20
7.317970440884513
 10
4.185189777873991
 20
7.317970440884513
 10
4.417052206051797
 20
7.317970440884513
 10
4.417052206051797
 20
7.317970440884513
 10
4.474887282541658
 20
7.317970440884513
 10
4.499779227588609
 20
7.33227164649731
 10
4.499779227588609
 20
7.397530744825088
 97
        0
 97
        0
 75
     2
 76
     1
 98
        0
  0
POLYLINE
  5
59
330
41
100
AcDbEntity
  8
Layer 1
 62
     7
420
 16777215
370
    50
100
AcDb2dPolyline
 66
     1
 10
0.0
 20
0.0
 30
0.0
  0
VERTEX
  5
5A
330
59
100
AcDbEntity
  8
Layer 1
 62
     7
420
 16777215
370
    50
100
AcDbVertex
100
AcDb2dVertex
 10
3.215336944178627
 20
6.157274212694889
 30
0.0
  0
VERTEX
  5
5B
330
59
100
AcDbEntity
  8
Layer 1
 62
     7
420
 16777215
370
    50
100
AcDbVertex
100
AcDb2dVertex
 10
3.215336944178627
 20
6.235867811968849
 30
0.0
  0
VERTEX
  5
5C
330
59
100
AcDbEntity
  8
Layer 1
 62
     7
420
 16777215
370
    50
100
AcDbVertex
100
AcDb2dVertex
 10
3.881187978112924
 20
6.235867811968849
 30
0.0
  0
VERTEX
  5
5D
330
59
100
AcDbEntity
  8
Layer 1
 62
     7
420
 16777215
370
    50
100
AcDbVertex
100
AcDb2dVertex
 10
3.881187978112924
 20
6.157274212694889
 30
0.0
  0
VERTEX
  5
5E
330
59
100
AcDbEntity
  8
Layer 1
 62
     7
420
 16777215
370
    50
100
AcDbVertex
100
AcDb2dVertex
 10
3.215336944178627
 20
6.157274212694889
 30
0.0
  0
SEQEND
  5
60
330
59
100
AcDbEntity
  8
Layer 1
 62
     7
420
 16777215
370
    50
  0
HATCH
  5
5F
330
41
100
AcDbEntity
  8
Layer 1
 62
   254
420
 13358815
100
AcDbHatch
 10
0.0
 20
0.0
 30
0.0
210
0.0
220
0.0
230
1.0
  2
SOLID
 70
     1
 71
     0
 91
        1
 92
        1
 93
        4
 72
     1
 10
3.215336944178627
 20
6.157274212694889
 11
3.215336944178627
 21
6.235867811968849
 72
     1
 10
3.215336944178627
 20
6.235867811968849
 11
3.881187978112924
 21
6.235867811968849
 72
     1
 10
3.881187978112924
 20
6.235867811968849
 11
3.881187978112924
 21
6.157274212694889
 72
     1
 10
3.881187978112924
 20
6.157274212694889
 11
3.215336944178627
 21
6.157274212694889
 97
        0
 75
     2
 76
     1
 98
        0
  0
SPLINE
  5
61
330
41
100
AcDbEntity
  8
Layer 1
 62
     7
420
 16777215
370
    50
100
AcDbSpline
210
0.0
220
0.0
230
1.0
 70
    11
 71
     3
 72
    41
 73
    37
 74
     0
 42
0.0000000001
 43
0.0000000001
 12
1.0
 22
0.0
 32
0.0
 13
1.0
 23
0.0
 33
0.0
 40
0.0
 40
0.0
 40
0.0
 40
0.0
 40
1.0
 40
1.0
 40
1.0
 40
2.0
 40
2.0
 40
2.0
 40
3.0
 40
3.0
 40
3.0
 40
4.0
 40
4.0
 40
4.0
 40
5.0
 40
5.0
 40
5.0
 40
6.0
 40
6.0
 40
6.0
 40
7.0
 40
7.0
 40
7.0
 40
8.0
 40
8.0
 40
8.0
 40
9.0
 40
9.0
 40
9.0
 40
10.0
 40
10.0
 40
10.0
 40
11.0
 40
11.0
 40
11.0
 40
12.0
 40
12.0
 40
12.0
 40
12.0
 10
4.499779227588609
 20
6.077713908754327
 30
0.0
 10
4.499779227588609
 20
6.077713908754327
 30
0.0
 10
4.499779227588609
 20
5.484014604325643
 30
0.0
 10
4.499779227588609
 20
5.484014604325643
 30
0.0
 10
4.499779227588609
 20
5.484014604325643
 30
0.0
 10
4.579852385305736
 20
5.484014604325643
 30
0.0
 10
4.579852385305736
 20
5.484014604325643
 30
0.0
 10
4.579852385305736
 20
5.484014604325643
 30
0.0
 10
4.579852385305736
 20
6.105380207363674
 30
0.0
 10
4.579852385305736
 20
6.105380207363674
 30
0.0
 10
4.579852385305736
 20
6.181016870965436
 30
0.0
 10
4.532212594735534
 20
6.235867811968849
 30
0.0
 10
4.43729448282324
 20
6.235867811968849
 30
0.0
 10
4.43729448282324
 20
6.235867811968849
 30
0.0
 10
4.176304431720938
 20
6.235867811968849
 30
0.0
 10
4.176304431720938
 20
6.235867811968849
 30
0.0
 10
4.118466265750486
 20
6.235867811968849
 30
0.0
 10
4.112537552514166
 20
6.229954243379956
 30
0.0
 10
4.06358782217732
 20
6.181016870965436
 30
0.0
 10
4.06358782217732
 20
6.181016870965436
 30
0.0
 10
3.959784364111985
 20
6.077201054977801
 30
0.0
 10
3.959784364111985
 20
6.077201054977801
 30
0.0
 10
3.959784364111985
 20
6.077201054977801
 30
0.0
 10
4.015388835621833
 20
6.021596583467903
 30
0.0
 10
4.015388835621833
 20
6.021596583467903
 30
0.0
 10
4.015388835621833
 20
6.021596583467903
 30
0.0
 10
4.116974046629492
 20
6.123181794475575
 30
0.0
 10
4.116974046629492
 20
6.123181794475575
 30
0.0
 10
4.136252405459496
 20
6.142429258499734
 30
0.0
 10
4.145153199015415
 20
6.157274212694889
 30
0.0
 10
4.185189777873991
 20
6.157274212694889
 30
0.0
 10
4.185189777873991
 20
6.157274212694889
 30
0.0
 10
4.417052206051797
 20
6.157274212694889
 30
0.0
 10
4.417052206051797
 20
6.157274212694889
 30
0.0
 10
4.474887282541658
 20
6.157274212694889
 30
0.0
 10
4.499779227588609
 20
6.14297300708213
 30
0.0
 10
4.499779227588609
 20
6.077713908754327
 30
0.0
  0
HATCH
  5
62
330
41
100
AcDbEntity
  8
Layer 1
 62
   254
420
 13358815
100
AcDbHatch
 10
0.0
 20
0.0
 30
0.0
210
0.0
220
0.0
230
1.0
  2
SOLID
 70
     1
 71
     0
 91
        1
 92
        1
 93
        1
 72
     4
 94
        3
 73
     0
 74
     1
 95
       41
 96
       37
 40
0.0
 40
0.0
 40
0.0
 40
0.0
 40
1.0
 40
1.0
 40
1.0
 40
2.0
 40
2.0
 40
2.0
 40
3.0
 40
3.0
 40
3.0
 40
4.0
 40
4.0
 40
4.0
 40
5.0
 40
5.0
 40
5.0
 40
6.0
 40
6.0
 40
6.0
 40
7.0
 40
7.0
 40
7.0
 40
8.0
 40
8.0
 40
8.0
 40
9.0
 40
9.0
 40
9.0
 40
10.0
 40
10.0
 40
10.0
 40
11.0
 40
11.0
 40
11.0
 40
12.0
 40
12.0
 40
12.0
 40
12.0
 10
4.499779227588609
 20
6.077713908754327
 10
4.499779227588609
 20
6.077713908754327
 10
4.499779227588609
 20
5.484014604325643
 10
4.499779227588609
 20
5.484014604325643
 10
4.499779227588609
 20
5.484014604325643
 10
4.579852385305736
 20
5.484014604325643
 10
4.579852385305736
 20
5.484014604325643
 10
4.579852385305736
 20
5.484014604325643
 10
4.579852385305736
 20
6.105380207363674
 10
4.579852385305736
 20
6.105380207363674
 10
4.579852385305736
 20
6.181016870965436
 10
4.532212594735534
 20
6.235867811968849
 10
4.43729448282324
 20
6.235867811968849
 10
4.43729448282324
 20
6.235867811968849
 10
4.176304431720938
 20
6.235867811968849
 10
4.176304431720938
 20
6.235867811968849
 10
4.118466265750486
 20
6.235867811968849
 10
4.112537552514166
 20
6.229954243379956
 10
4.06358782217732
 20
6.181016870965436
 10
4.06358782217732
 20
6.181016870965436
 10
3.959784364111985
 20
6.077201054977801
 10
3.959784364111985
 20
6.077201054977801
 10
3.959784364111985
 20
6.077201054977801
 10
4.015388835621833
 20
6.021596583467903
 10
4.015388835621833
 20
6.021596583467903
 10
4.015388835621833
 20
6.021596583467903
 10
4.116974046629492
 20
6.123181794475575
 10
4.116974046629492
 20
6.123181794475575
 10
4.136252405459496
 20
6.142429258499734
 10
4.145153199015415
 20
6.157274212694889
 10
4.185189777873991
 20
6.157274212694889
 10
4.185189777873991
 20
6.157274212694889
 10
4.417052206051797
 20
6.157274212694889
 10
4.417052206051797
 20
6.157274212694889
 10
4.474887282541658
 20
6.157274212694889
 10
4.499779227588609
 20
6.14297300708213
 10
4.499779227588609
 20
6.077713908754327
 97
        0
 97
        0
 75
     2
 76
     1
 98
        0
  0
POLYLINE
  5
63
330
41
100
AcDbEntity
  8
Layer 1
 62
     7
420
 16777215
370
    80
100
AcDb2dPolyline
 66
     1
 10
0.0
 20
0.0
 30
0.0
  0
VERTEX
  5
64
330
63
100
AcDbEntity
  8
Layer 1
 62
     7
420
 16777215
370
    80
100
AcDbVertex
100
AcDb2dVertex
 10
4.574241888569304
 20
7.240115530225075
 30
0.0
  0
VERTEX
  5
65
330
63
100
AcDbEntity
  8
Layer 1
 62
     7
420
 16777215
370
    80
100
AcDbVertex
100
AcDb2dVertex
 10
4.574241888569304
 20
6.236893216766513
 30
0.0
  0
SEQEND
  5
66
330
63
100
AcDbEntity
  8
Layer 1
 62
     7
420
 16777215
370
    80
  0
SPLINE
  5
67
330
41
100
AcDbEntity
  8
Layer 1
 62
     7
420
 16777215
370
    15
100
AcDbSpline
210
0.0
220
0.0
230
1.0
 70
     8
 71
     3
 72
    20
 73
    16
 74
     0
 42
0.0000000001
 43
0.0000000001
 12
1.0
 22
0.0
 32
0.0
 13
1.0
 23
0.0
 33
0.0
 40
0.0
 40
0.0
 40
0.0
 40
0.0
 40
1.0
 40
1.0
 40
1.0
 40
2.0
 40
2.0
 40
2.0
 40
3.0
 40
3.0
 40
3.0
 40
4.0
 40
4.0
 40
4.0
 40
5.0
 40
5.0
 40
5.0
 40
5.0
 10
2.776383543127281
 20
6.368106546552907
 30
0.0
 10
2.86757574145804
 20
6.354772348362176
 30
0.0
 10
3.096691621398691
 20
6.352538653901623
 30
0.0
 10
3.167879432962764
 20
6.359205752996963
 30
0.0
 10
3.239067244526849
 20
6.365904052938554
 30
0.0
 10
3.488199869156485
 20
6.363673141918146
 30
0.0
 10
3.568288694888413
 20
6.359205752996963
 30
0.0
 10
3.648361631993642
 20
6.354772348362176
 30
0.0
 10
3.884144611029645
 20
6.348105249266824
 30
0.0
 10
3.986483655299253
 20
6.361470342263374
 30
0.0
 10
4.08879489424362
 20
6.374804540454091
 30
0.0
 10
4.326811567740202
 20
6.363673141918146
 30
0.0
 10
4.375748940154734
 20
6.35700295334219
 30
0.0
 10
4.424683223088626
 20
6.350335854246837
 30
0.0
 10
4.544792959664341
 20
6.352538653901623
 30
0.0
 10
4.580427028693925
 20
6.363673141918146
 30
0.0
  0
INSERT
  5
69
330
41
100
AcDbEntity
  8
Layer 1
100
AcDbBlockReference
  2
block 3
 10
0.0
 20
0.0
 30
0.0
  0
SPLINE
  5
70
330
41
100
AcDbEntity
  8
Layer 1
 62
     7
420
 16777215
370
    15
100
AcDbSpline
210
0.0
220
0.0
230
1.0
 70
     8
 71
     3
 72
    20
 73
    16
 74
     0
 42
0.0000000001
 43
0.0000000001
 12
1.0
 22
0.0
 32
0.0
 13
1.0
 23
0.0
 33
0.0
 40
0.0
 40
0.0
 40
0.0
 40
0.0
 40
1.0
 40
1.0
 40
1.0
 40
2.0
 40
2.0
 40
2.0
 40
3.0
 40
3.0
 40
3.0
 40
4.0
 40
4.0
 40
4.0
 40
5.0
 40
5.0
 40
5.0
 40
5.0
 10
2.785268889280335
 20
7.093291379474963
 30
0.0
 10
2.872024593495717
 20
7.104422453595172
 30
0.0
 10
3.216816805377284
 20
7.126657770600495
 30
0.0
 10
3.259083989215835
 20
7.117760066300358
 30
0.0
 10
3.30135426253499
 20
7.108874395113439
 30
0.0
 10
3.461500577969218
 20
7.102191848615184
 30
0.0
 10
3.539355488628669
 20
7.106640700652847
 30
0.0
 10
3.617226068539177
 20
7.111089552690537
 30
0.0
 10
3.866361788943095
 20
7.126657770600495
 30
0.0
 10
3.935315677904706
 20
7.126657770600495
 30
0.0
 10
4.004269795008213
 20
7.126657770600495
 30
0.0
 10
4.302342881532947
 20
7.140010180416046
 30
0.0
 10
4.366875951924006
 20
7.142228753125752
 30
0.0
 10
4.431381216989823
 20
7.144459032453735
 30
0.0
 10
4.53145876147361
 20
7.128891139802413
 30
0.0
 10
4.580427028693925
 20
7.126657770600495
 30
0.0
  0
POLYLINE
  5
71
330
41
100
AcDbEntity
  8
Layer 1
  6
AI-Linetype-1
 62
     7
420
 16777215
370
    50
100
AcDb2dPolyline
 66
     1
 10
0.0
 20
0.0
 30
0.0
  0
VERTEX
  5
72
330
71
100
AcDbEntity
  8
Layer 1
  6
AI-Linetype-1
 62
     7
420
 16777215
370
    50
100
AcDbVertex
100
AcDb2dVertex
 10
3.215336944178627
 20
7.182926155176776
 30
0.0
  0
VERTEX
  5
73
330
71
100
AcDbEntity
  8
Layer 1
  6
AI-Linetype-1
 62
     7
420
 16777215
370
    50
100
AcDbVertex
100
AcDb2dVertex
 10
3.215336944178627
 20
6.276929795625064
 30
0.0
  0
SEQEND
  5
75
330
71
100
AcDbEntity
  8
Layer 1
  6
AI-Linetype-1
 62
     7
420
 16777215
370
    50
  0
POLYLINE
  5
76
330
41
100
AcDbEntity
  8
Layer 1
  6
AI-Linetype-2
 62
     7
420
 16777215
370
    50
100
AcDb2dPolyline
 66
     1
 10
0.0
 20
0.0
 30
0.0
  0
VERTEX
  5
77
330
76
100
AcDbEntity
  8
Layer 1
  6
AI-Linetype-2
 62
     7
420
 16777215
370
    50
100
AcDbVertex
100
AcDb2dVertex
 10
4.430386404242528
 20
7.182926155176776
 30
0.0
  0
VERTEX
  5
78
330
76
100
AcDbEntity
  8
Layer 1
  6
AI-Linetype-2
 62
     7
420
 16777215
370
    50
100
AcDbVertex
100
AcDb2dVertex
 10
4.430386404242528
 20
6.276929795625064
 30
0.0
  0
SEQEND
  5
7A
330
76
100
AcDbEntity
  8
Layer 1
  6
AI-Linetype-2
 62
     7
420
 16777215
370
    50
  0
SPLINE
  5
7B
330
41
100
AcDbEntity
  8
Layer 1
 62
     7
420
 16777215
370
    15
100
AcDbSpline
210
0.0
220
0.0
230
1.0
 70
     8
 71
     3
 72
    23
 73
    19
 74
     0
 42
0.0000000001
 43
0.0000000001
 12
1.0
 22
0.0
 32
0.0
 13
1.0
 23
0.0
 33
0.0
 40
0.0
 40
0.0
 40
0.0
 40
0.0
 40
1.0
 40
1.0
 40
1.0
 40
2.0
 40
2.0
 40
2.0
 40
3.0
 40
3.0
 40
3.0
 40
4.0
 40
4.0
 40
4.0
 40
5.0
 40
5.0
 40
5.0
 40
6.0
 40
6.0
 40
6.0
 40
6.0
 10
4.671600690141203
 20
8.074275287290549
 30
0.0
 10
4.653802192509854
 20
7.980852483979775
 30
0.0
 10
4.640464904838558
 20
7.745066415463194
 30
0.0
 10
4.658266491950472
 20
7.682779397455053
 30
0.0
 10
4.676068079062335
 20
7.620492379446937
 30
0.0
 10
4.689402277253066
 20
7.322407265203587
 30
0.0
 10
4.671600690141203
 20
7.242333777282738
 30
0.0
 10
4.653802192509854
 20
7.162260619565611
 30
0.0
 10
4.667167285506417
 20
6.788550869439127
 30
0.0
 10
4.662699896585233
 20
6.757399636733604
 30
0.0
 10
4.658266491950472
 20
6.72626385143101
 30
0.0
 10
4.658266491950472
 20
6.374804540454091
 30
0.0
 10
4.667167285506417
 20
6.250230504437821
 30
0.0
 10
4.676068079062335
 20
6.125656468421552
 30
0.0
 10
4.707203864364955
 20
5.631852429122268
 30
0.0
 10
4.689402277253066
 20
5.551748376599335
 30
0.0
 10
4.671600690141203
 20
5.471675218882208
 30
0.0
 10
4.662699896585233
 20
5.387137761724514
 30
0.0
 10
4.662699896585233
 20
5.364899680497274
 30
0.0
  0
INSERT
  5
7D
330
41
100
AcDbEntity
  8
Layer 1
100
AcDbBlockReference
  2
block 4
 10
0.0
 20
0.0
 30
0.0
  0
SPLINE
  5
85
330
41
100
AcDbEntity
  8
Layer 1
 62
     7
420
 16777215
370
    15
100
AcDbSpline
210
0.0
220
0.0
230
1.0
 70
     8
 71
     3
 72
    11
 73
     7
 74
     0
 42
0.0000000001
 43
0.0000000001
 12
1.0
 22
0.0
 32
0.0
 13
1.0
 23
0.0
 33
0.0
 40
0.0
 40
0.0
 40
0.0
 40
0.0
 40
1.0
 40
1.0
 40
1.0
 40
2.0
 40
2.0
 40
2.0
 40
2.0
 10
5.533398940490744
 20
7.196247995445181
 30
0.0
 10
5.52694192607492
 20
7.095886543229211
 30
0.0
 10
5.540186529328795
 20
6.915148515236435
 30
0.0
 10
5.530229133413892
 20
6.757399636733604
 30
0.0
 10
5.514602540631535
 20
6.508687181463086
 30
0.0
 10
5.517345999388099
 20
6.373899322643638
 30
0.0
 10
5.53469652233505
 20
6.250230504437821
 30
0.0
  0
SPLINE
  5
86
330
41
100
AcDbEntity
  8
Layer 1
 62
     7
420
 16777215
370
    50
100
AcDbSpline
210
0.0
220
0.0
230
1.0
 70
     8
 71
     3
 72
    11
 73
     7
 74
     0
 42
0.0000000001
 43
0.0000000001
 12
1.0
 22
0.0
 32
0.0
 13
1.0
 23
0.0
 33
0.0
 40
0.0
 40
0.0
 40
0.0
 40
0.0
 40
1.0
 40
1.0
 40
1.0
 40
2.0
 40
2.0
 40
2.0
 40
2.0
 10
4.497094468963092
 20
7.848869873528542
 30
0.0
 10
4.497094468963092
 20
7.841930900141985
 30
0.0
 10
4.506807795912033
 20
7.836363656133711
 30
0.0
 10
4.517398535346173
 20
7.836363656133711
 30
0.0
 10
4.517398535346173
 20
7.836363656133711
 30
0.0
 10
4.577560236822339
 20
7.836363656133711
 30
0.0
 10
4.577560236822339
 20
7.836363656133711
 30
0.0
  0
HATCH
  5
87
330
41
100
AcDbEntity
  8
Layer 1
 62
   254
420
 13358815
100
AcDbHatch
 10
0.0
 20
0.0
 30
0.0
210
0.0
220
0.0
230
1.0
  2
SOLID
 70
     1
 71
     0
 91
        1
 92
        1
 93
        2
 72
     4
 94
        3
 73
     0
 74
     0
 95
       11
 96
        7
 40
0.0
 40
0.0
 40
0.0
 40
0.0
 40
0.0138888888888889
 40
0.0138888888888889
 40
0.0138888888888889
 40
0.0277777777777778
 40
0.0277777777777778
 40
0.0277777777777778
 40
0.0277777777777778
 10
4.497094468963092
 20
7.848869873528542
 10
4.497094468963092
 20
7.841930900141985
 10
4.506807795912033
 20
7.836363656133711
 10
4.517398535346173
 20
7.836363656133711
 10
4.517398535346173
 20
7.836363656133711
 10
4.577560236822339
 20
7.836363656133711
 10
4.577560236822339
 20
7.836363656133711
 97
        0
 72
     1
 10
4.577560236822339
 20
7.836363656133711
 11
4.497094468963092
 21
7.848869873528542
 97
        0
 75
     2
 76
     1
 98
        0
  0
SPLINE
  5
88
330
41
100
AcDbEntity
  8
Layer 1
370
     0
100
AcDbSpline
210
0.0
220
0.0
230
1.0
 70
    11
 71
     3
 72
    17
 73
    13
 74
     0
 42
0.0000000001
 43
0.0000000001
 12
1.0
 22
0.0
 32
0.0
 13
1.0
 23
0.0
 33
0.0
 40
0.0
 40
0.0
 40
0.0
 40
0.0
 40
1.0
 40
1.0
 40
1.0
 40
2.0
 40
2.0
 40
2.0
 40
3.0
 40
3.0
 40
3.0
 40
4.0
 40
4.0
 40
4.0
 40
4.0
 10
4.571343955783681
 20
7.836363656133711
 30
0.0
 10
4.571343955783681
 20
7.836363656133711
 30
0.0
 10
5.075948819196608
 20
7.836363656133711
 30
0.0
 10
5.075948819196608
 20
7.836363656133711
 30
0.0
 10
5.108774550377423
 20
7.812454165911769
 30
0.0
 10
5.15309623880287
 20
7.772961335635588
 30
0.0
 10
5.175331230549546
 20
7.751282450393622
 30
0.0
 10
5.175331230549546
 20
7.751282450393622
 30
0.0
 10
4.57236990931387
 20
7.751282450393622
 30
0.0
 10
4.57236990931387
 20
7.751282450393622
 30
0.0
 10
4.57236990931387
 20
7.751282450393622
 30
0.0
 10
4.571343955783681
 20
7.836363656133711
 30
0.0
 10
4.571343955783681
 20
7.836363656133711
 30
0.0
  0
HATCH
  5
89
330
41
100
AcDbEntity
  8
Layer 1
 62
   254
420
 16376262
100
AcDbHatch
 10
0.0
 20
0.0
 30
0.0
210
0.0
220
0.0
230
1.0
  2
SOLID
 70
     1
 71
     0
 91
        1
 92
        1
 93
        1
 72
     4
 94
        3
 73
     0
 74
     1
 95
       17
 96
       13
 40
0.0
 40
0.0
 40
0.0
 40
0.0
 40
1.0
 40
1.0
 40
1.0
 40
2.0
 40
2.0
 40
2.0
 40
3.0
 40
3.0
 40
3.0
 40
4.0
 40
4.0
 40
4.0
 40
4.0
 10
4.571343955783681
 20
7.836363656133711
 10
4.571343955783681
 20
7.836363656133711
 10
5.075948819196608
 20
7.836363656133711
 10
5.075948819196608
 20
7.836363656133711
 10
5.108774550377423
 20
7.812454165911769
 10
5.15309623880287
 20
7.772961335635588
 10
5.175331230549546
 20
7.751282450393622
 10
5.175331230549546
 20
7.751282450393622
 10
4.57236990931387
 20
7.751282450393622
 10
4.57236990931387
 20
7.751282450393622
 10
4.57236990931387
 20
7.751282450393622
 10
4.571343955783681
 20
7.836363656133711
 10
4.571343955783681
 20
7.836363656133711
 97
        0
 97
        0
 75
     2
 76
     1
 98
        0
  0
SPLINE
  5
8A
330
41
100
AcDbEntity
  8
Layer 1
 62
     7
420
 16777215
370
    50
100
AcDbSpline
210
0.0
220
0.0
230
1.0
 70
     8
 71
     3
 72
    11
 73
     7
 74
     0
 42
0.0000000001
 43
0.0000000001
 12
1.0
 22
0.0
 32
0.0
 13
1.0
 23
0.0
 33
0.0
 40
0.0
 40
0.0
 40
0.0
 40
0.0
 40
1.0
 40
1.0
 40
1.0
 40
2.0
 40
2.0
 40
2.0
 40
2.0
 10
4.497094468963092
 20
7.738760785595887
 30
0.0
 10
4.497094468963092
 20
7.74571520638536
 30
0.0
 10
4.506807795912033
 20
7.751282450393622
 30
0.0
 10
4.517398535346173
 20
7.751282450393622
 30
0.0
 10
4.517398535346173
 20
7.751282450393622
 30
0.0
 10
4.57236990931387
 20
7.751282450393622
 30
0.0
 10
4.57236990931387
 20
7.751282450393622
 30
0.0
  0
HATCH
  5
8B
330
41
100
AcDbEntity
  8
Layer 1
 62
   254
420
 13358815
100
AcDbHatch
 10
0.0
 20
0.0
 30
0.0
210
0.0
220
0.0
230
1.0
  2
SOLID
 70
     1
 71
     0
 91
        1
 92
        1
 93
        2
 72
     4
 94
        3
 73
     0
 74
     0
 95
       11
 96
        7
 40
0.0
 40
0.0
 40
0.0
 40
0.0
 40
0.0138888888888889
 40
0.0138888888888889
 40
0.0138888888888889
 40
0.0277777777777778
 40
0.0277777777777778
 40
0.0277777777777778
 40
0.0277777777777778
 10
4.497094468963092
 20
7.738760785595887
 10
4.497094468963092
 20
7.74571520638536
 10
4.506807795912033
 20
7.751282450393622
 10
4.517398535346173
 20
7.751282450393622
 10
4.517398535346173
 20
7.751282450393622
 10
4.57236990931387
 20
7.751282450393622
 10
4.57236990931387
 20
7.751282450393622
 97
        0
 72
     1
 10
4.57236990931387
 20
7.751282450393622
 11
4.497094468963092
 21
7.738760785595887
 97
        0
 75
     2
 76
     1
 98
        0
  0
SPLINE
  5
8C
330
41
100
AcDbEntity
  8
Layer 1
 62
     7
420
 16777215
370
    50
100
AcDbSpline
210
0.0
220
0.0
230
1.0
 70
    11
 71
     3
 72
    38
 73
    34
 74
     0
 42
0.0000000001
 43
0.0000000001
 12
1.0
 22
0.0
 32
0.0
 13
1.0
 23
0.0
 33
0.0
 40
0.0
 40
0.0
 40
0.0
 40
0.0
 40
1.0
 40
1.0
 40
1.0
 40
2.0
 40
2.0
 40
2.0
 40
3.0
 40
3.0
 40
3.0
 40
4.0
 40
4.0
 40
4.0
 40
5.0
 40
5.0
 40
5.0
 40
6.0
 40
6.0
 40
6.0
 40
7.0
 40
7.0
 40
7.0
 40
8.0
 40
8.0
 40
8.0
 40
9.0
 40
9.0
 40
9.0
 40
10.0
 40
10.0
 40
10.0
 40
11.0
 40
11.0
 40
11.0
 40
11.0
 10
4.497094468963092
 20
7.793824598003956
 30
0.0
 10
4.497094468963092
 20
7.793824598003956
 30
0.0
 10
4.497094468963092
 20
7.885860224533517
 30
0.0
 10
4.497094468963092
 20
7.885860224533517
 30
0.0
 10
4.497094468963092
 20
7.889752970066474
 30
0.0
 10
4.494860774502513
 20
7.895032892380641
 30
0.0
 10
4.490971118450109
 20
7.896148194870648
 30
0.0
 10
4.487109267722972
 20
7.897263497360655
 30
0.0
 10
4.483760270772361
 20
7.898366441928336
 30
0.0
 10
4.473469210954641
 20
7.898366441928336
 30
0.0
 10
4.46318124061751
 20
7.898366441928336
 30
0.0
 10
4.459832243666924
 20
7.897263497360655
 30
0.0
 10
4.455942587614522
 20
7.896148194870648
 30
0.0
 10
4.452049842081528
 20
7.895032892380641
 30
0.0
 10
4.449816147620973
 20
7.889752970066474
 30
0.0
 10
4.449816147620973
 20
7.885860224533517
 30
0.0
 10
4.449816147620973
 20
7.885860224533517
 30
0.0
 10
4.449816147620973
 20
7.701788971474393
 30
0.0
 10
4.449816147620973
 20
7.701788971474393
 30
0.0
 10
4.449816147620973
 20
7.697896225941425
 30
0.0
 10
4.452049842081528
 20
7.69261630362727
 30
0.0
 10
4.455942587614522
 20
7.691501001137251
 30
0.0
 10
4.459832243666924
 20
7.690382609166678
 30
0.0
 10
4.46318124061751
 20
7.689267306676684
 30
0.0
 10
4.473469210954641
 20
7.689267306676684
 30
0.0
 10
4.483760270772361
 20
7.689267306676684
 30
0.0
 10
4.487109267722972
 20
7.690382609166678
 30
0.0
 10
4.490971118450109
 20
7.691501001137251
 30
0.0
 10
4.494860774502513
 20
7.69261630362727
 30
0.0
 10
4.497094468963092
 20
7.697896225941425
 30
0.0
 10
4.497094468963092
 20
7.701788971474393
 30
0.0
 10
4.497094468963092
 20
7.701788971474393
 30
0.0
 10
4.497094468963092
 20
7.793824598003956
 30
0.0
 10
4.497094468963092
 20
7.793824598003956
 30
0.0
  0
HATCH
  5
8D
330
41
100
AcDbEntity
  8
Layer 1
 62
   254
420
 13358815
100
AcDbHatch
 10
0.0
 20
0.0
 30
0.0
210
0.0
220
0.0
230
1.0
  2
SOLID
 70
     1
 71
     0
 91
        1
 92
        1
 93
        1
 72
     4
 94
        3
 73
     0
 74
     1
 95
       38
 96
       34
 40
0.0
 40
0.0
 40
0.0
 40
0.0
 40
1.0
 40
1.0
 40
1.0
 40
2.0
 40
2.0
 40
2.0
 40
3.0
 40
3.0
 40
3.0
 40
4.0
 40
4.0
 40
4.0
 40
5.0
 40
5.0
 40
5.0
 40
6.0
 40
6.0
 40
6.0
 40
7.0
 40
7.0
 40
7.0
 40
8.0
 40
8.0
 40
8.0
 40
9.0
 40
9.0
 40
9.0
 40
10.0
 40
10.0
 40
10.0
 40
11.0
 40
11.0
 40
11.0
 40
11.0
 10
4.497094468963092
 20
7.793824598003956
 10
4.497094468963092
 20
7.793824598003956
 10
4.497094468963092
 20
7.885860224533517
 10
4.497094468963092
 20
7.885860224533517
 10
4.497094468963092
 20
7.889752970066474
 10
4.494860774502513
 20
7.895032892380641
 10
4.490971118450109
 20
7.896148194870648
 10
4.487109267722972
 20
7.897263497360655
 10
4.483760270772361
 20
7.898366441928336
 10
4.473469210954641
 20
7.898366441928336
 10
4.46318124061751
 20
7.898366441928336
 10
4.459832243666924
 20
7.897263497360655
 10
4.455942587614522
 20
7.896148194870648
 10
4.452049842081528
 20
7.895032892380641
 10
4.449816147620973
 20
7.889752970066474
 10
4.449816147620973
 20
7.885860224533517
 10
4.449816147620973
 20
7.885860224533517
 10
4.449816147620973
 20
7.701788971474393
 10
4.449816147620973
 20
7.701788971474393
 10
4.449816147620973
 20
7.697896225941425
 10
4.452049842081528
 20
7.69261630362727
 10
4.455942587614522
 20
7.691501001137251
 10
4.459832243666924
 20
7.690382609166678
 10
4.46318124061751
 20
7.689267306676684
 10
4.473469210954641
 20
7.689267306676684
 10
4.483760270772361
 20
7.689267306676684
 10
4.487109267722972
 20
7.690382609166678
 10
4.490971118450109
 20
7.691501001137251
 10
4.494860774502513
 20
7.69261630362727
 10
4.497094468963092
 20
7.697896225941425
 10
4.497094468963092
 20
7.701788971474393
 10
4.497094468963092
 20
7.701788971474393
 10
4.497094468963092
 20
7.793824598003956
 10
4.497094468963092
 20
7.793824598003956
 97
        0
 97
        0
 75
     2
 76
     1
 98
        0
  0
SPLINE
  5
8E
330
41
100
AcDbEntity
  8
Layer 1
 62
     7
420
 16777215
370
    50
100
AcDbSpline
210
0.0
220
0.0
230
1.0
 70
     8
 71
     3
 72
    11
 73
     7
 74
     0
 42
0.0000000001
 43
0.0000000001
 12
1.0
 22
0.0
 32
0.0
 13
1.0
 23
0.0
 33
0.0
 40
0.0
 40
0.0
 40
0.0
 40
0.0
 40
1.0
 40
1.0
 40
1.0
 40
2.0
 40
2.0
 40
2.0
 40
2.0
 10
4.497094468963092
 20
5.626390227453789
 30
0.0
 10
4.497094468963092
 20
5.633298306034527
 30
0.0
 10
4.506807795912033
 20
5.638880997445717
 30
0.0
 10
4.517398535346173
 20
5.638880997445717
 30
0.0
 10
4.517398535346173
 20
5.638880997445717
 30
0.0
 10
4.582688774717553
 20
5.638880997445717
 30
0.0
 10
4.582688774717553
 20
5.638880997445717
 30
0.0
  0
HATCH
  5
8F
330
41
100
AcDbEntity
  8
Layer 1
 62
   254
420
 13358815
100
AcDbHatch
 10
0.0
 20
0.0
 30
0.0
210
0.0
220
0.0
230
1.0
  2
SOLID
 70
     1
 71
     0
 91
        1
 92
        1
 93
        2
 72
     4
 94
        3
 73
     0
 74
     0
 95
       11
 96
        7
 40
0.0
 40
0.0
 40
0.0
 40
0.0
 40
0.0138888888888889
 40
0.0138888888888889
 40
0.0138888888888889
 40
0.0277777777777778
 40
0.0277777777777778
 40
0.0277777777777778
 40
0.0277777777777778
 10
4.497094468963092
 20
5.626390227453789
 10
4.497094468963092
 20
5.633298306034527
 10
4.506807795912033
 20
5.638880997445717
 10
4.517398535346173
 20
5.638880997445717
 10
4.517398535346173
 20
5.638880997445717
 10
4.582688774717553
 20
5.638880997445717
 10
4.582688774717553
 20
5.638880997445717
 97
        0
 72
     1
 10
4.582688774717553
 20
5.638880997445717
 11
4.497094468963092
 21
5.626390227453789
 97
        0
 75
     2
 76
     1
 98
        0
  0
SPLINE
  5
90
330
41
100
AcDbEntity
  8
Layer 1
370
     0
100
AcDbSpline
210
0.0
220
0.0
230
1.0
 70
    11
 71
     3
 72
    17
 73
    13
 74
     0
 42
0.0000000001
 43
0.0000000001
 12
1.0
 22
0.0
 32
0.0
 13
1.0
 23
0.0
 33
0.0
 40
0.0
 40
0.0
 40
0.0
 40
0.0
 40
1.0
 40
1.0
 40
1.0
 40
2.0
 40
2.0
 40
2.0
 40
3.0
 40
3.0
 40
3.0
 40
4.0
 40
4.0
 40
4.0
 40
4.0
 10
4.571495340332149
 20
5.723962203185793
 30
0.0
 10
4.571495340332149
 20
5.723962203185793
 30
0.0
 10
5.219442834295377
 20
5.723962203185793
 30
0.0
 10
5.219442834295377
 20
5.723962203185793
 30
0.0
 10
5.197204753068136
 20
5.702270960021527
 30
0.0
 10
5.15804275798665
 20
5.66277504026473
 30
0.0
 10
5.125247660839199
 20
5.638880997445717
 30
0.0
 10
5.125247660839199
 20
5.638880997445717
 30
0.0
 10
4.570318248230529
 20
5.638880997445717
 30
0.0
 10
4.570318248230529
 20
5.638880997445717
 30
0.0
 10
4.570318248230529
 20
5.638880997445717
 30
0.0
 10
4.571495340332149
 20
5.723962203185793
 30
0.0
 10
4.571495340332149
 20
5.723962203185793
 30
0.0
  0
HATCH
  5
91
330
41
100
AcDbEntity
  8
Layer 1
 62
   254
420
 16376262
100
AcDbHatch
 10
0.0
 20
0.0
 30
0.0
210
0.0
220
0.0
230
1.0
  2
SOLID
 70
     1
 71
     0
 91
        1
 92
        1
 93
        1
 72
     4
 94
        3
 73
     0
 74
     1
 95
       17
 96
       13
 40
0.0
 40
0.0
 40
0.0
 40
0.0
 40
1.0
 40
1.0
 40
1.0
 40
2.0
 40
2.0
 40
2.0
 40
3.0
 40
3.0
 40
3.0
 40
4.0
 40
4.0
 40
4.0
 40
4.0
 10
4.571495340332149
 20
5.723962203185793
 10
4.571495340332149
 20
5.723962203185793
 10
5.219442834295377
 20
5.723962203185793
 10
5.219442834295377
 20
5.723962203185793
 10
5.197204753068136
 20
5.702270960021527
 10
5.15804275798665
 20
5.66277504026473
 10
5.125247660839199
 20
5.638880997445717
 10
5.125247660839199
 20
5.638880997445717
 10
4.570318248230529
 20
5.638880997445717
 10
4.570318248230529
 20
5.638880997445717
 10
4.570318248230529
 20
5.638880997445717
 10
4.571495340332149
 20
5.723962203185793
 10
4.571495340332149
 20
5.723962203185793
 97
        0
 97
        0
 75
     2
 76
     1
 98
        0
  0
SPLINE
  5
92
330
41
100
AcDbEntity
  8
Layer 1
 62
     7
420
 16777215
370
    50
100
AcDbSpline
210
0.0
220
0.0
230
1.0
 70
     8
 71
     3
 72
    11
 73
     7
 74
     0
 42
0.0000000001
 43
0.0000000001
 12
1.0
 22
0.0
 32
0.0
 13
1.0
 23
0.0
 33
0.0
 40
0.0
 40
0.0
 40
0.0
 40
0.0
 40
1.0
 40
1.0
 40
1.0
 40
2.0
 40
2.0
 40
2.0
 40
2.0
 10
4.580757603116151
 20
5.723962203185793
 30
0.0
 10
4.580757603116151
 20
5.723962203185793
 30
0.0
 10
4.517398535346173
 20
5.723962203185793
 30
0.0
 10
4.517398535346173
 20
5.723962203185793
 30
0.0
 10
4.506807795912033
 20
5.723962203185793
 30
0.0
 10
4.497094468963092
 20
5.729513999791177
 30
0.0
 10
4.497094468963092
 20
5.736484158123454
 30
0.0
  0
HATCH
  5
93
330
41
100
AcDbEntity
  8
Layer 1
 62
   254
420
 13358815
100
AcDbHatch
 10
0.0
 20
0.0
 30
0.0
210
0.0
220
0.0
230
1.0
  2
SOLID
 70
     1
 71
     0
 91
        1
 92
        1
 93
        2
 72
     4
 94
        3
 73
     0
 74
     0
 95
       11
 96
        7
 40
0.0
 40
0.0
 40
0.0
 40
0.0
 40
0.0138888888888889
 40
0.0138888888888889
 40
0.0138888888888889
 40
0.0277777777777778
 40
0.0277777777777778
 40
0.0277777777777778
 40
0.0277777777777778
 10
4.580757603116151
 20
5.723962203185793
 10
4.580757603116151
 20
5.723962203185793
 10
4.517398535346173
 20
5.723962203185793
 10
4.517398535346173
 20
5.723962203185793
 10
4.506807795912033
 20
5.723962203185793
 10
4.497094468963092
 20
5.729513999791177
 10
4.497094468963092
 20
5.736484158123454
 97
        0
 72
     1
 10
4.497094468963092
 20
5.736484158123454
 11
4.580757603116151
 21
5.723962203185793
 97
        0
 75
     2
 76
     1
 98
        0
  0
SPLINE
  5
94
330
41
100
AcDbEntity
  8
Layer 1
 62
     7
420
 16777215
370
    50
100
AcDbSpline
210
0.0
220
0.0
230
1.0
 70
    11
 71
     3
 72
    38
 73
    34
 74
     0
 42
0.0000000001
 43
0.0000000001
 12
1.0
 22
0.0
 32
0.0
 13
1.0
 23
0.0
 33
0.0
 40
0.0
 40
0.0
 40
0.0
 40
0.0
 40
1.0
 40
1.0
 40
1.0
 40
2.0
 40
2.0
 40
2.0
 40
3.0
 40
3.0
 40
3.0
 40
4.0
 40
4.0
 40
4.0
 40
5.0
 40
5.0
 40
5.0
 40
6.0
 40
6.0
 40
6.0
 40
7.0
 40
7.0
 40
7.0
 40
8.0
 40
8.0
 40
8.0
 40
9.0
 40
9.0
 40
9.0
 40
10.0
 40
10.0
 40
10.0
 40
11.0
 40
11.0
 40
11.0
 40
11.0
 10
4.497094468963092
 20
5.681423145056038
 30
0.0
 10
4.497094468963092
 20
5.681423145056038
 30
0.0
 10
4.497094468963092
 20
5.589372071123585
 30
0.0
 10
4.497094468963092
 20
5.589372071123585
 30
0.0
 10
4.497094468963092
 20
5.585510220396423
 30
0.0
 10
4.494860774502513
 20
5.580230298082243
 30
0.0
 10
4.490971118450109
 20
5.57908410078643
 30
0.0
 10
4.487109267722972
 20
5.577996603621664
 30
0.0
 10
4.483760270772361
 20
5.576881587239667
 30
0.0
 10
4.473469210954641
 20
5.576881587239667
 30
0.0
 10
4.46318124061751
 20
5.576881587239667
 30
0.0
 10
4.459832243666924
 20
5.577996603621664
 30
0.0
 10
4.455942587614522
 20
5.57908410078643
 30
0.0
 10
4.452049842081528
 20
5.580230298082243
 30
0.0
 10
4.449816147620973
 20
5.585510220396423
 30
0.0
 10
4.449816147620973
 20
5.589372071123585
 30
0.0
 10
4.449816147620973
 20
5.589372071123585
 30
0.0
 10
4.449816147620973
 20
5.773471129507925
 30
0.0
 10
4.449816147620973
 20
5.773471129507925
 30
0.0
 10
4.449816147620973
 20
5.777332980235061
 30
0.0
 10
4.452049842081528
 20
5.782643797355048
 30
0.0
 10
4.455942587614522
 20
5.783762189325658
 30
0.0
 10
4.459832243666924
 20
5.78484659700982
 30
0.0
 10
4.46318124061751
 20
5.785992794305634
 30
0.0
 10
4.473469210954641
 20
5.785992794305634
 30
0.0
 10
4.483760270772361
 20
5.785992794305634
 30
0.0
 10
4.487109267722972
 20
5.78484659700982
 30
0.0
 10
4.490971118450109
 20
5.783762189325658
 30
0.0
 10
4.494860774502513
 20
5.782643797355048
 30
0.0
 10
4.497094468963092
 20
5.777332980235061
 30
0.0
 10
4.497094468963092
 20
5.773471129507925
 30
0.0
 10
4.497094468963092
 20
5.773471129507925
 30
0.0
 10
4.497094468963092
 20
5.681423145056038
 30
0.0
 10
4.497094468963092
 20
5.681423145056038
 30
0.0
  0
HATCH
  5
95
330
41
100
AcDbEntity
  8
Layer 1
 62
   254
420
 13358815
100
AcDbHatch
 10
0.0
 20
0.0
 30
0.0
210
0.0
220
0.0
230
1.0
  2
SOLID
 70
     1
 71
     0
 91
        1
 92
        1
 93
        1
 72
     4
 94
        3
 73
     0
 74
     1
 95
       38
 96
       34
 40
0.0
 40
0.0
 40
0.0
 40
0.0
 40
1.0
 40
1.0
 40
1.0
 40
2.0
 40
2.0
 40
2.0
 40
3.0
 40
3.0
 40
3.0
 40
4.0
 40
4.0
 40
4.0
 40
5.0
 40
5.0
 40
5.0
 40
6.0
 40
6.0
 40
6.0
 40
7.0
 40
7.0
 40
7.0
 40
8.0
 40
8.0
 40
8.0
 40
9.0
 40
9.0
 40
9.0
 40
10.0
 40
10.0
 40
10.0
 40
11.0
 40
11.0
 40
11.0
 40
11.0
 10
4.497094468963092
 20
5.681423145056038
 10
4.497094468963092
 20
5.681423145056038
 10
4.497094468963092
 20
5.589372071123585
 10
4.497094468963092
 20
5.589372071123585
 10
4.497094468963092
 20
5.585510220396423
 10
4.494860774502513
 20
5.580230298082243
 10
4.490971118450109
 20
5.57908410078643
 10
4.487109267722972
 20
5.577996603621664
 10
4.483760270772361
 20
5.576881587239667
 10
4.473469210954641
 20
5.576881587239667
 10
4.46318124061751
 20
5.576881587239667
 10
4.459832243666924
 20
5.577996603621664
 10
4.455942587614522
 20
5.57908410078643
 10
4.452049842081528
 20
5.580230298082243
 10
4.449816147620973
 20
5.585510220396423
 10
4.449816147620973
 20
5.589372071123585
 10
4.449816147620973
 20
5.589372071123585
 10
4.449816147620973
 20
5.773471129507925
 10
4.449816147620973
 20
5.773471129507925
 10
4.449816147620973
 20
5.777332980235061
 10
4.452049842081528
 20
5.782643797355048
 10
4.455942587614522
 20
5.783762189325658
 10
4.459832243666924
 20
5.78484659700982
 10
4.46318124061751
 20
5.785992794305634
 10
4.473469210954641
 20
5.785992794305634
 10
4.483760270772361
 20
5.785992794305634
 10
4.487109267722972
 20
5.78484659700982
 10
4.490971118450109
 20
5.783762189325658
 10
4.494860774502513
 20
5.782643797355048
 10
4.497094468963092
 20
5.777332980235061
 10
4.497094468963092
 20
5.773471129507925
 10
4.497094468963092
 20
5.773471129507925
 10
4.497094468963092
 20
5.681423145056038
 10
4.497094468963092
 20
5.681423145056038
 97
        0
 97
        0
 75
     2
 76
     1
 98
        0
  0
SPLINE
  5
96
330
41
100
AcDbEntity
  8
Layer 1
 62
     7
420
 16777215
370
    50
100
AcDbSpline
210
0.0
220
0.0
230
1.0
 70
    11
 71
     3
 72
    26
 73
    22
 74
     0
 42
0.0000000001
 43
0.0000000001
 12
1.0
 22
0.0
 32
0.0
 13
1.0
 23
0.0
 33
0.0
 40
0.0
 40
0.0
 40
0.0
 40
0.0
 40
1.0
 40
1.0
 40
1.0
 40
2.0
 40
2.0
 40
2.0
 40
3.0
 40
3.0
 40
3.0
 40
4.0
 40
4.0
 40
4.0
 40
5.0
 40
5.0
 40
5.0
 40
6.0
 40
6.0
 40
6.0
 40
7.0
 40
7.0
 40
7.0
 40
7.0
 10
3.947701405556851
 20
7.425048748366483
 30
0.0
 10
3.942782952470755
 20
7.420130295280374
 30
0.0
 10
3.945739585387476
 20
7.40931435616292
 30
0.0
 10
3.953207090289248
 20
7.401846749197741
 30
0.0
 10
3.953207090289248
 20
7.401846749197741
 30
0.0
 10
4.984651578526104
 20
6.370398941144534
 30
0.0
 10
4.984651578526104
 20
6.370398941144534
 30
0.0
 10
4.984651578526104
 20
6.370398941144534
 30
0.0
 10
5.058329511439069
 20
6.236562642344261
 30
0.0
 10
5.058329511439069
 20
6.236562642344261
 30
0.0
 10
5.058329511439069
 20
6.236562642344261
 30
0.0
 10
4.924493212638759
 20
6.310240575257214
 30
0.0
 10
4.924493212638759
 20
6.310240575257214
 30
0.0
 10
4.924493212638759
 20
6.310240575257214
 30
0.0
 10
3.893045404585589
 20
7.341685624520551
 30
0.0
 10
3.893045404585589
 20
7.341685624520551
 30
0.0
 10
3.885578358646853
 20
7.349152568395867
 30
0.0
 10
3.874761858502943
 20
7.352093753909659
 30
0.0
 10
3.869846494897426
 20
7.347175300823551
 30
0.0
 10
3.869846494897426
 20
7.347175300823551
 30
0.0
 10
3.947701405556851
 20
7.425048748366483
 30
0.0
 10
3.947701405556851
 20
7.425048748366483
 30
0.0
  0
HATCH
  5
97
330
41
100
AcDbEntity
  8
Layer 1
 62
   254
420
 13358815
100
AcDbHatch
 10
0.0
 20
0.0
 30
0.0
210
0.0
220
0.0
230
1.0
  2
SOLID
 70
     1
 71
     0
 91
        1
 92
        1
 93
        1
 72
     4
 94
        3
 73
     0
 74
     1
 95
       26
 96
       22
 40
0.0
 40
0.0
 40
0.0
 40
0.0
 40
1.0
 40
1.0
 40
1.0
 40
2.0
 40
2.0
 40
2.0
 40
3.0
 40
3.0
 40
3.0
 40
4.0
 40
4.0
 40
4.0
 40
5.0
 40
5.0
 40
5.0
 40
6.0
 40
6.0
 40
6.0
 40
7.0
 40
7.0
 40
7.0
 40
7.0
 10
3.947701405556851
 20
7.425048748366483
 10
3.942782952470755
 20
7.420130295280374
 10
3.945739585387476
 20
7.40931435616292
 10
3.953207090289248
 20
7.401846749197741
 10
3.953207090289248
 20
7.401846749197741
 10
4.984651578526104
 20
6.370398941144534
 10
4.984651578526104
 20
6.370398941144534
 10
4.984651578526104
 20
6.370398941144534
 10
5.058329511439069
 20
6.236562642344261
 10
5.058329511439069
 20
6.236562642344261
 10
5.058329511439069
 20
6.236562642344261
 10
4.924493212638759
 20
6.310240575257214
 10
4.924493212638759
 20
6.310240575257214
 10
4.924493212638759
 20
6.310240575257214
 10
3.893045404585589
 20
7.341685624520551
 10
3.893045404585589
 20
7.341685624520551
 10
3.885578358646853
 20
7.349152568395867
 10
3.874761858502943
 20
7.352093753909659
 10
3.869846494897426
 20
7.347175300823551
 10
3.869846494897426
 20
7.347175300823551
 10
3.947701405556851
 20
7.425048748366483
 10
3.947701405556851
 20
7.425048748366483
 97
        0
 97
        0
 75
     2
 76
     1
 98
        0
  0
SPLINE
  5
98
330
41
100
AcDbEntity
  8
Layer 1
 62
     7
420
 16777215
370
    50
100
AcDbSpline
210
0.0
220
0.0
230
1.0
 70
    11
 71
     3
 72
    26
 73
    22
 74
     0
 42
0.0000000001
 43
0.0000000001
 12
1.0
 22
0.0
 32
0.0
 13
1.0
 23
0.0
 33
0.0
 40
0.0
 40
0.0
 40
0.0
 40
0.0
 40
1.0
 40
1.0
 40
1.0
 40
2.0
 40
2.0
 40
2.0
 40
3.0
 40
3.0
 40
3.0
 40
4.0
 40
4.0
 40
4.0
 40
5.0
 40
5.0
 40
5.0
 40
6.0
 40
6.0
 40
6.0
 40
7.0
 40
7.0
 40
7.0
 40
7.0
 10
4.042029659257675
 20
7.242575084955105
 30
0.0
 10
4.037110973591957
 20
7.237656303682014
 30
0.0
 10
4.107937315927958
 20
7.247734517656934
 30
0.0
 10
4.115404824927231
 20
7.240251467370664
 30
0.0
 10
4.115404824927231
 20
7.240251467370664
 30
0.0
 10
4.984651578526104
 20
6.370398941144534
 30
0.0
 10
4.984651578526104
 20
6.370398941144534
 30
0.0
 10
4.984651578526104
 20
6.370398941144534
 30
0.0
 10
5.058329511439069
 20
6.236562642344261
 30
0.0
 10
5.058329511439069
 20
6.236562642344261
 30
0.0
 10
5.058329511439069
 20
6.236562642344261
 30
0.0
 10
4.924493212638759
 20
6.310240575257214
 30
0.0
 10
4.924493212638759
 20
6.310240575257214
 30
0.0
 10
4.924493212638759
 20
6.310240575257214
 30
0.0
 10
4.014996703484662
 20
7.219403980006821
 30
0.0
 10
4.014996703484662
 20
7.219403980006821
 30
0.0
 10
4.007529197021969
 20
7.226870926971211
 30
0.0
 10
3.992881969584005
 20
7.246723929189379
 30
0.0
 10
3.987963747711647
 20
7.241805476103283
 30
0.0
 10
3.987963747711647
 20
7.241805476103283
 30
0.0
 10
4.042029659257675
 20
7.242575084955105
 30
0.0
 10
4.042029659257675
 20
7.242575084955105
 30
0.0
  0
HATCH
  5
99
330
41
100
AcDbEntity
  8
Layer 1
 62
   254
420
 16376262
100
AcDbHatch
 10
0.0
 20
0.0
 30
0.0
210
0.0
220
0.0
230
1.0
  2
SOLID
 70
     1
 71
     0
 91
        1
 92
        1
 93
        1
 72
     4
 94
        3
 73
     0
 74
     1
 95
       26
 96
       22
 40
0.0
 40
0.0
 40
0.0
 40
0.0
 40
1.0
 40
1.0
 40
1.0
 40
2.0
 40
2.0
 40
2.0
 40
3.0
 40
3.0
 40
3.0
 40
4.0
 40
4.0
 40
4.0
 40
5.0
 40
5.0
 40
5.0
 40
6.0
 40
6.0
 40
6.0
 40
7.0
 40
7.0
 40
7.0
 40
7.0
 10
4.042029659257675
 20
7.242575084955105
 10
4.037110973591957
 20
7.237656303682014
 10
4.107937315927958
 20
7.247734517656934
 10
4.115404824927231
 20
7.240251467370664
 10
4.115404824927231
 20
7.240251467370664
 10
4.984651578526104
 20
6.370398941144534
 10
4.984651578526104
 20
6.370398941144534
 10
4.984651578526104
 20
6.370398941144534
 10
5.058329511439069
 20
6.236562642344261
 10
5.058329511439069
 20
6.236562642344261
 10
5.058329511439069
 20
6.236562642344261
 10
4.924493212638759
 20
6.310240575257214
 10
4.924493212638759
 20
6.310240575257214
 10
4.924493212638759
 20
6.310240575257214
 10
4.014996703484662
 20
7.219403980006821
 10
4.014996703484662
 20
7.219403980006821
 10
4.007529197021969
 20
7.226870926971211
 10
3.992881969584005
 20
7.246723929189379
 10
3.987963747711647
 20
7.241805476103283
 10
3.987963747711647
 20
7.241805476103283
 10
4.042029659257675
 20
7.242575084955105
 10
4.042029659257675
 20
7.242575084955105
 97
        0
 97
        0
 75
     2
 76
     1
 98
        0
  0
SPLINE
  5
9A
330
41
100
AcDbEntity
  8
Layer 1
 62
     7
420
 16777215
370
    50
100
AcDbSpline
210
0.0
220
0.0
230
1.0
 70
    11
 71
     3
 72
    38
 73
    34
 74
     0
 42
0.0000000001
 43
0.0000000001
 12
1.0
 22
0.0
 32
0.0
 13
1.0
 23
0.0
 33
0.0
 40
0.0
 40
0.0
 40
0.0
 40
0.0
 40
1.0
 40
1.0
 40
1.0
 40
2.0
 40
2.0
 40
2.0
 40
3.0
 40
3.0
 40
3.0
 40
4.0
 40
4.0
 40
4.0
 40
5.0
 40
5.0
 40
5.0
 40
6.0
 40
6.0
 40
6.0
 40
7.0
 40
7.0
 40
7.0
 40
8.0
 40
8.0
 40
8.0
 40
9.0
 40
9.0
 40
9.0
 40
10.0
 40
10.0
 40
10.0
 40
11.0
 40
11.0
 40
11.0
 40
11.0
 10
3.908780358401752
 20
7.386112356408047
 30
0.0
 10
3.908780358401752
 20
7.386112356408047
 30
0.0
 10
3.973860037642339
 20
7.451188843568464
 30
0.0
 10
3.973860037642339
 20
7.451188843568464
 30
0.0
 10
3.976603496398916
 20
7.453950839208497
 30
0.0
 10
3.978759953844929
 20
7.45924620892558
 30
0.0
 10
3.976801223156144
 20
7.462789843152816
 30
0.0
 10
3.974839402986718
 20
7.466336566860642
 30
0.0
 10
3.973269946851208
 20
7.469472389651084
 30
0.0
 10
3.965984951639509
 20
7.476760474343374
 30
0.0
 10
3.958712314350148
 20
7.484030022152183
 30
0.0
 10
3.955576491559668
 20
7.48559947828768
 30
0.0
 10
3.952029767851855
 20
7.487561298457081
 30
0.0
 10
3.948501581027509
 20
7.489538566029384
 30
0.0
 10
3.943175316504658
 20
7.48736357169984
 30
0.0
 10
3.94042876826749
 20
7.484620112943288
 30
0.0
 10
3.94042876826749
 20
7.484620112943288
 30
0.0
 10
3.810272040840042
 20
7.354463385515828
 30
0.0
 10
3.810272040840042
 20
7.354463385515828
 30
0.0
 10
3.807513134680549
 20
7.351701389875769
 30
0.0
 10
3.805356677234524
 20
7.346393662236373
 30
0.0
 10
3.807315407923321
 20
7.342862385931463
 30
0.0
 10
3.809292675495637
 20
7.339315662223649
 30
0.0
 10
3.810862131631148
 20
7.336179839433182
 30
0.0
 10
3.818131679439956
 20
7.328891754740905
 30
0.0
 10
3.825404316729317
 20
7.321622206932109
 30
0.0
 10
3.8285555869227
 20
7.320052750796586
 30
0.0
 10
3.832102310630502
 20
7.318090930627173
 30
0.0
 10
3.835630497454847
 20
7.316116752535486
 30
0.0
 10
3.84094131457482
 20
7.318288657384427
 30
0.0
 10
3.84368786281195
 20
7.321035205621582
 30
0.0
 10
3.84368786281195
 20
7.321035205621582
 30
0.0
 10
3.908780358401752
 20
7.386112356408047
 30
0.0
 10
3.908780358401752
 20
7.386112356408047
 30
0.0
  0
HATCH
  5
9B
330
41
100
AcDbEntity
  8
Layer 1
 62
   254
420
 13358815
100
AcDbHatch
 10
0.0
 20
0.0
 30
0.0
210
0.0
220
0.0
230
1.0
  2
SOLID
 70
     1
 71
     0
 91
        1
 92
        1
 93
        1
 72
     4
 94
        3
 73
     0
 74
     1
 95
       38
 96
       34
 40
0.0
 40
0.0
 40
0.0
 40
0.0
 40
1.0
 40
1.0
 40
1.0
 40
2.0
 40
2.0
 40
2.0
 40
3.0
 40
3.0
 40
3.0
 40
4.0
 40
4.0
 40
4.0
 40
5.0
 40
5.0
 40
5.0
 40
6.0
 40
6.0
 40
6.0
 40
7.0
 40
7.0
 40
7.0
 40
8.0
 40
8.0
 40
8.0
 40
9.0
 40
9.0
 40
9.0
 40
10.0
 40
10.0
 40
10.0
 40
11.0
 40
11.0
 40
11.0
 40
11.0
 10
3.908780358401752
 20
7.386112356408047
 10
3.908780358401752
 20
7.386112356408047
 10
3.973860037642339
 20
7.451188843568464
 10
3.973860037642339
 20
7.451188843568464
 10
3.976603496398916
 20
7.453950839208497
 10
3.978759953844929
 20
7.45924620892558
 10
3.976801223156144
 20
7.462789843152816
 10
3.974839402986718
 20
7.466336566860642
 10
3.973269946851208
 20
7.469472389651084
 10
3.965984951639509
 20
7.476760474343374
 10
3.958712314350148
 20
7.484030022152183
 10
3.955576491559668
 20
7.48559947828768
 10
3.952029767851855
 20
7.487561298457081
 10
3.948501581027509
 20
7.489538566029384
 10
3.943175316504658
 20
7.48736357169984
 10
3.94042876826749
 20
7.484620112943288
 10
3.94042876826749
 20
7.484620112943288
 10
3.810272040840042
 20
7.354463385515828
 10
3.810272040840042
 20
7.354463385515828
 10
3.807513134680549
 20
7.351701389875769
 10
3.805356677234524
 20
7.346393662236373
 10
3.807315407923321
 20
7.342862385931463
 10
3.809292675495637
 20
7.339315662223649
 10
3.810862131631148
 20
7.336179839433182
 10
3.818131679439956
 20
7.328891754740905
 10
3.825404316729317
 20
7.321622206932109
 10
3.8285555869227
 20
7.320052750796586
 10
3.832102310630502
 20
7.318090930627173
 10
3.835630497454847
 20
7.316116752535486
 10
3.84094131457482
 20
7.318288657384427
 10
3.84368786281195
 20
7.321035205621582
 10
3.84368786281195
 20
7.321035205621582
 10
3.908780358401752
 20
7.386112356408047
 10
3.908780358401752
 20
7.386112356408047
 97
        0
 97
        0
 75
     2
 76
     1
 98
        0
  0
SPLINE
  5
9C
330
41
100
AcDbEntity
  8
Layer 1
 62
     7
420
 16777215
370
    50
100
AcDbSpline
210
0.0
220
0.0
230
1.0
 70
    11
 71
     3
 72
    26
 73
    22
 74
     0
 42
0.0000000001
 43
0.0000000001
 12
1.0
 22
0.0
 32
0.0
 13
1.0
 23
0.0
 33
0.0
 40
0.0
 40
0.0
 40
0.0
 40
0.0
 40
1.0
 40
1.0
 40
1.0
 40
2.0
 40
2.0
 40
2.0
 40
3.0
 40
3.0
 40
3.0
 40
4.0
 40
4.0
 40
4.0
 40
5.0
 40
5.0
 40
5.0
 40
6.0
 40
6.0
 40
6.0
 40
7.0
 40
7.0
 40
7.0
 40
7.0
 10
3.947701405556851
 20
6.050198994693511
 30
0.0
 10
3.942782952470755
 20
6.055117447779606
 30
0.0
 10
3.945739585387476
 20
6.065946375681443
 30
0.0
 10
3.953207090289248
 20
6.073400993862252
 30
0.0
 10
3.953207090289248
 20
6.073400993862252
 30
0.0
 10
4.984651578526104
 20
7.104846037142528
 30
0.0
 10
4.984651578526104
 20
7.104846037142528
 30
0.0
 10
4.984651578526104
 20
7.104846037142528
 30
0.0
 10
5.058329511439069
 20
7.238682339323796
 30
0.0
 10
5.058329511439069
 20
7.238682339323796
 30
0.0
 10
5.058329511439069
 20
7.238682339323796
 30
0.0
 10
4.924493212638759
 20
7.165019525725104
 30
0.0
 10
4.924493212638759
 20
7.165019525725104
 30
0.0
 10
4.924493212638759
 20
7.165019525725104
 30
0.0
 10
3.893045404585589
 20
6.13355935974961
 30
0.0
 10
3.893045404585589
 20
6.13355935974961
 30
0.0
 10
3.885578358646853
 20
6.126076637780657
 30
0.0
 10
3.874761858502943
 20
6.123150899669755
 30
0.0
 10
3.869846494897426
 20
6.128069352755852
 30
0.0
 10
3.869846494897426
 20
6.128069352755852
 30
0.0
 10
3.947701405556851
 20
6.050198994693511
 30
0.0
 10
3.947701405556851
 20
6.050198994693511
 30
0.0
  0
HATCH
  5
9D
330
41
100
AcDbEntity
  8
Layer 1
 62
   254
420
 13358815
100
AcDbHatch
 10
0.0
 20
0.0
 30
0.0
210
0.0
220
0.0
230
1.0
  2
SOLID
 70
     1
 71
     0
 91
        1
 92
        1
 93
        1
 72
     4
 94
        3
 73
     0
 74
     1
 95
       26
 96
       22
 40
0.0
 40
0.0
 40
0.0
 40
0.0
 40
1.0
 40
1.0
 40
1.0
 40
2.0
 40
2.0
 40
2.0
 40
3.0
 40
3.0
 40
3.0
 40
4.0
 40
4.0
 40
4.0
 40
5.0
 40
5.0
 40
5.0
 40
6.0
 40
6.0
 40
6.0
 40
7.0
 40
7.0
 40
7.0
 40
7.0
 10
3.947701405556851
 20
6.050198994693511
 10
3.942782952470755
 20
6.055117447779606
 10
3.945739585387476
 20
6.065946375681443
 10
3.953207090289248
 20
6.073400993862252
 10
3.953207090289248
 20
6.073400993862252
 10
4.984651578526104
 20
7.104846037142528
 10
4.984651578526104
 20
7.104846037142528
 10
4.984651578526104
 20
7.104846037142528
 10
5.058329511439069
 20
7.238682339323796
 10
5.058329511439069
 20
7.238682339323796
 10
5.058329511439069
 20
7.238682339323796
 10
4.924493212638759
 20
7.165019525725104
 10
4.924493212638759
 20
7.165019525725104
 10
4.924493212638759
 20
7.165019525725104
 10
3.893045404585589
 20
6.13355935974961
 10
3.893045404585589
 20
6.13355935974961
 10
3.885578358646853
 20
6.126076637780657
 10
3.874761858502943
 20
6.123150899669755
 10
3.869846494897426
 20
6.128069352755852
 10
3.869846494897426
 20
6.128069352755852
 10
3.947701405556851
 20
6.050198994693511
 10
3.947701405556851
 20
6.050198994693511
 97
        0
 97
        0
 75
     2
 76
     1
 98
        0
  0
SPLINE
  5
9E
330
41
100
AcDbEntity
  8
Layer 1
 62
     7
420
 16777215
370
    50
100
AcDbSpline
210
0.0
220
0.0
230
1.0
 70
    11
 71
     3
 72
    20
 73
    16
 74
     0
 42
0.0000000001
 43
0.0000000001
 12
1.0
 22
0.0
 32
0.0
 13
1.0
 23
0.0
 33
0.0
 40
0.0
 40
0.0
 40
0.0
 40
0.0
 40
1.0
 40
1.0
 40
1.0
 40
2.0
 40
2.0
 40
2.0
 40
3.0
 40
3.0
 40
3.0
 40
4.0
 40
4.0
 40
4.0
 40
5.0
 40
5.0
 40
5.0
 40
5.0
 10
4.113866029164304
 20
6.233485519684879
 30
0.0
 10
4.113866029164304
 20
6.233485519684879
 30
0.0
 10
4.984651578526104
 20
7.104846037142528
 30
0.0
 10
4.984651578526104
 20
7.104846037142528
 30
0.0
 10
4.984651578526104
 20
7.104846037142528
 30
0.0
 10
5.058329511439069
 20
7.238682339323796
 30
0.0
 10
5.058329511439069
 20
7.238682339323796
 30
0.0
 10
5.058329511439069
 20
7.238682339323796
 30
0.0
 10
4.924493212638759
 20
7.165019525725104
 30
0.0
 10
4.924493212638759
 20
7.165019525725104
 30
0.0
 10
4.924493212638759
 20
7.165019525725104
 30
0.0
 10
3.995687449361084
 20
6.238101203673952
 30
0.0
 10
3.995687449361084
 20
6.238101203673952
 30
0.0
 10
3.988219943386159
 20
6.230618481705051
 30
0.0
 10
4.055938268256997
 20
6.23155459432131
 30
0.0
 10
4.113866029164304
 20
6.233485519684879
 30
0.0
  0
HATCH
  5
9F
330
41
100
AcDbEntity
  8
Layer 1
 62
   254
420
 16376262
100
AcDbHatch
 10
0.0
 20
0.0
 30
0.0
210
0.0
220
0.0
230
1.0
  2
SOLID
 70
     1
 71
     0
 91
        1
 92
        1
 93
        1
 72
     4
 94
        3
 73
     0
 74
     1
 95
       20
 96
       16
 40
0.0
 40
0.0
 40
0.0
 40
0.0
 40
1.0
 40
1.0
 40
1.0
 40
2.0
 40
2.0
 40
2.0
 40
3.0
 40
3.0
 40
3.0
 40
4.0
 40
4.0
 40
4.0
 40
5.0
 40
5.0
 40
5.0
 40
5.0
 10
4.113866029164304
 20
6.233485519684879
 10
4.113866029164304
 20
6.233485519684879
 10
4.984651578526104
 20
7.104846037142528
 10
4.984651578526104
 20
7.104846037142528
 10
4.984651578526104
 20
7.104846037142528
 10
5.058329511439069
 20
7.238682339323796
 10
5.058329511439069
 20
7.238682339323796
 10
5.058329511439069
 20
7.238682339323796
 10
4.924493212638759
 20
7.165019525725104
 10
4.924493212638759
 20
7.165019525725104
 10
4.924493212638759
 20
7.165019525725104
 10
3.995687449361084
 20
6.238101203673952
 10
3.995687449361084
 20
6.238101203673952
 10
3.988219943386159
 20
6.230618481705051
 10
4.055938268256997
 20
6.23155459432131
 10
4.113866029164304
 20
6.233485519684879
 97
        0
 97
        0
 75
     2
 76
     1
 98
        0
  0
SPLINE
  5
A0
330
41
100
AcDbEntity
  8
Layer 1
 62
     7
420
 16777215
370
    50
100
AcDbSpline
210
0.0
220
0.0
230
1.0
 70
    11
 71
     3
 72
    38
 73
    34
 74
     0
 42
0.0000000001
 43
0.0000000001
 12
1.0
 22
0.0
 32
0.0
 13
1.0
 23
0.0
 33
0.0
 40
0.0
 40
0.0
 40
0.0
 40
0.0
 40
1.0
 40
1.0
 40
1.0
 40
2.0
 40
2.0
 40
2.0
 40
3.0
 40
3.0
 40
3.0
 40
4.0
 40
4.0
 40
4.0
 40
5.0
 40
5.0
 40
5.0
 40
6.0
 40
6.0
 40
6.0
 40
7.0
 40
7.0
 40
7.0
 40
8.0
 40
8.0
 40
8.0
 40
9.0
 40
9.0
 40
9.0
 40
10.0
 40
10.0
 40
10.0
 40
11.0
 40
11.0
 40
11.0
 40
11.0
 10
3.908780358401752
 20
6.089117480629688
 30
0.0
 10
3.908780358401752
 20
6.089117480629688
 30
0.0
 10
3.973860037642339
 20
6.024040362608048
 30
0.0
 10
3.973860037642339
 20
6.024040362608048
 30
0.0
 10
3.976603496398916
 20
6.021293814370917
 30
0.0
 10
3.978759953844929
 20
6.015986086731522
 30
0.0
 10
3.976801223156144
 20
6.012454810426599
 30
0.0
 10
3.974839402986718
 20
6.008895728796447
 30
0.0
 10
3.973269946851208
 20
6.005756816525402
 30
0.0
 10
3.965984951639509
 20
5.998484179236053
 30
0.0
 10
3.958712314350148
 20
5.991214631427233
 30
0.0
 10
3.955576491559668
 20
5.989645175291735
 30
0.0
 10
3.952029767851855
 20
5.987683355122347
 30
0.0
 10
3.948501581027509
 20
5.985724624433512
 30
0.0
 10
3.943175316504658
 20
5.987896529282478
 30
0.0
 10
3.94042876826749
 20
5.990639988039043
 30
0.0
 10
3.94042876826749
 20
5.990639988039043
 30
0.0
 10
3.810272040840042
 20
6.120796715466491
 30
0.0
 10
3.810272040840042
 20
6.120796715466491
 30
0.0
 10
3.807513134680549
 20
6.123543263703633
 30
0.0
 10
3.805356677234524
 20
6.128854080823632
 30
0.0
 10
3.807315407923321
 20
6.132382267647952
 30
0.0
 10
3.809292675495637
 20
6.135913543952862
 30
0.0
 10
3.810862131631148
 20
6.139080261549136
 30
0.0
 10
3.818131679439956
 20
6.146352898838497
 30
0.0
 10
3.825404316729317
 20
6.153622446647305
 30
0.0
 10
3.8285555869227
 20
6.155191902782816
 30
0.0
 10
3.832102310630502
 20
6.157153722952241
 30
0.0
 10
3.835630497454847
 20
6.159143348446833
 30
0.0
 10
3.84094131457482
 20
6.156971443597905
 30
0.0
 10
3.84368786281195
 20
6.154227984841314
 30
0.0
 10
3.84368786281195
 20
6.154227984841314
 30
0.0
 10
3.908780358401752
 20
6.089117480629688
 30
0.0
 10
3.908780358401752
 20
6.089117480629688
 30
0.0
  0
HATCH
  5
A1
330
41
100
AcDbEntity
  8
Layer 1
 62
   254
420
 13358815
100
AcDbHatch
 10
0.0
 20
0.0
 30
0.0
210
0.0
220
0.0
230
1.0
  2
SOLID
 70
     1
 71
     0
 91
        1
 92
        1
 93
        1
 72
     4
 94
        3
 73
     0
 74
     1
 95
       38
 96
       34
 40
0.0
 40
0.0
 40
0.0
 40
0.0
 40
1.0
 40
1.0
 40
1.0
 40
2.0
 40
2.0
 40
2.0
 40
3.0
 40
3.0
 40
3.0
 40
4.0
 40
4.0
 40
4.0
 40
5.0
 40
5.0
 40
5.0
 40
6.0
 40
6.0
 40
6.0
 40
7.0
 40
7.0
 40
7.0
 40
8.0
 40
8.0
 40
8.0
 40
9.0
 40
9.0
 40
9.0
 40
10.0
 40
10.0
 40
10.0
 40
11.0
 40
11.0
 40
11.0
 40
11.0
 10
3.908780358401752
 20
6.089117480629688
 10
3.908780358401752
 20
6.089117480629688
 10
3.973860037642339
 20
6.024040362608048
 10
3.973860037642339
 20
6.024040362608048
 10
3.976603496398916
 20
6.021293814370917
 10
3.978759953844929
 20
6.015986086731522
 10
3.976801223156144
 20
6.012454810426599
 10
3.974839402986718
 20
6.008895728796447
 10
3.973269946851208
 20
6.005756816525402
 10
3.965984951639509
 20
5.998484179236053
 10
3.958712314350148
 20
5.991214631427233
 10
3.955576491559668
 20
5.989645175291735
 10
3.952029767851855
 20
5.987683355122347
 10
3.948501581027509
 20
5.985724624433512
 10
3.943175316504658
 20
5.987896529282478
 10
3.94042876826749
 20
5.990639988039043
 10
3.94042876826749
 20
5.990639988039043
 10
3.810272040840042
 20
6.120796715466491
 10
3.810272040840042
 20
6.120796715466491
 10
3.807513134680549
 20
6.123543263703633
 10
3.805356677234524
 20
6.128854080823632
 10
3.807315407923321
 20
6.132382267647952
 10
3.809292675495637
 20
6.135913543952862
 10
3.810862131631148
 20
6.139080261549136
 10
3.818131679439956
 20
6.146352898838497
 10
3.825404316729317
 20
6.153622446647305
 10
3.8285555869227
 20
6.155191902782816
 10
3.832102310630502
 20
6.157153722952241
 10
3.835630497454847
 20
6.159143348446833
 10
3.84094131457482
 20
6.156971443597905
 10
3.84368786281195
 20
6.154227984841314
 10
3.84368786281195
 20
6.154227984841314
 10
3.908780358401752
 20
6.089117480629688
 10
3.908780358401752
 20
6.089117480629688
 97
        0
 97
        0
 75
     2
 76
     1
 98
        0
  0
SPLINE
  5
A2
330
41
100
AcDbEntity
  8
Layer 1
 62
     7
420
 16777215
370
    90
100
AcDbSpline
210
0.0
220
0.0
230
1.0
 70
    11
 71
     3
 72
    17
 73
    13
 74
     0
 42
0.0000000001
 43
0.0000000001
 12
1.0
 22
0.0
 32
0.0
 13
1.0
 23
0.0
 33
0.0
 40
0.0
 40
0.0
 40
0.0
 40
0.0
 40
1.0
 40
1.0
 40
1.0
 40
2.0
 40
2.0
 40
2.0
 40
3.0
 40
3.0
 40
3.0
 40
4.0
 40
4.0
 40
4.0
 40
4.0
 10
4.173332587297915
 20
5.276562162224031
 30
0.0
 10
4.969055880549553
 20
5.276562162224031
 30
0.0
 10
5.614133247052349
 20
5.921639528726827
 30
0.0
 10
5.614133247052349
 20
6.717363372794074
 30
0.0
 10
5.614133247052349
 20
7.513086587023281
 30
0.0
 10
4.969055880549553
 20
8.158163953526076
 30
0.0
 10
4.173332587297915
 20
8.158163953526076
 30
0.0
 10
3.377608822253099
 20
8.158163953526076
 30
0.0
 10
2.732531455750303
 20
7.513086587023281
 30
0.0
 10
2.732531455750303
 20
6.717363372794074
 30
0.0
 10
2.732531455750303
 20
5.921639528726827
 30
0.0
 10
3.377608822253099
 20
5.276562162224031
 30
0.0
 10
4.173332587297915
 20
5.276562162224031
 30
0.0
  0
SPLINE
  5
A3
330
41
100
AcDbEntity
  8
Layer 1
 62
     7
420
 16777215
370
    50
100
AcDbSpline
210
0.0
220
0.0
230
1.0
 70
     8
 71
     3
 72
    14
 73
    10
 74
     0
 42
0.0000000001
 43
0.0000000001
 12
1.0
 22
0.0
 32
0.0
 13
1.0
 23
0.0
 33
0.0
 40
0.0
 40
0.0
 40
0.0
 40
0.0
 40
1.0
 40
1.0
 40
1.0
 40
2.0
 40
2.0
 40
2.0
 40
3.0
 40
3.0
 40
3.0
 40
3.0
 10
4.571343955783681
 20
7.836363656133711
 30
0.0
 10
4.571343955783681
 20
7.836363656133711
 30
0.0
 10
5.075948819196608
 20
7.836363656133711
 30
0.0
 10
5.075948819196608
 20
7.836363656133711
 30
0.0
 10
5.108774550377423
 20
7.812454165911769
 30
0.0
 10
5.15309623880287
 20
7.772961335635588
 30
0.0
 10
5.175331230549546
 20
7.751282450393622
 30
0.0
 10
5.175331230549546
 20
7.751282450393622
 30
0.0
 10
4.57236990931387
 20
7.751282450393622
 30
0.0
 10
4.57236990931387
 20
7.751282450393622
 30
0.0
  0
SPLINE
  5
A4
330
41
100
AcDbEntity
  8
Layer 1
 62
     7
420
 16777215
370
    50
100
AcDbSpline
210
0.0
220
0.0
230
1.0
 70
     8
 71
     3
 72
    14
 73
    10
 74
     0
 42
0.0000000001
 43
0.0000000001
 12
1.0
 22
0.0
 32
0.0
 13
1.0
 23
0.0
 33
0.0
 40
0.0
 40
0.0
 40
0.0
 40
0.0
 40
1.0
 40
1.0
 40
1.0
 40
2.0
 40
2.0
 40
2.0
 40
3.0
 40
3.0
 40
3.0
 40
3.0
 10
4.570318248230529
 20
5.638880997445717
 30
0.0
 10
4.570318248230529
 20
5.638880997445717
 30
0.0
 10
5.125247660839199
 20
5.638880997445717
 30
0.0
 10
5.125247660839199
 20
5.638880997445717
 30
0.0
 10
5.15804275798665
 20
5.66277504026473
 30
0.0
 10
5.197204753068136
 20
5.702270960021527
 30
0.0
 10
5.219442834295377
 20
5.723962203185793
 30
0.0
 10
5.219442834295377
 20
5.723962203185793
 30
0.0
 10
4.571495340332149
 20
5.723962203185793
 30
0.0
 10
4.571495340332149
 20
5.723962203185793
 30
0.0
  0
ENDBLK
  5
44
330
41
100
AcDbEntity
  8
0
100
AcDbBlockEnd
  0
BLOCK
  5
6A
330
68
100
AcDbEntity
  8
0
100
AcDbBlockBegin
  2
block 3
 70
     0
 10
0.0
 20
0.0
 30
0.0
  3
block 3
  1

  0
SPLINE
  5
6C
330
68
100
AcDbEntity
  8
Layer 1
 62
     7
420
 16777215
370
    15
100
AcDbSpline
210
0.0
220
0.0
230
1.0
 70
     8
 71
     3
 72
    20
 73
    16
 74
     0
 42
0.0000000001
 43
0.0000000001
 12
1.0
 22
0.0
 32
0.0
 13
1.0
 23
0.0
 33
0.0
 40
0.0
 40
0.0
 40
0.0
 40
0.0
 40
1.0
 40
1.0
 40
1.0
 40
2.0
 40
2.0
 40
2.0
 40
3.0
 40
3.0
 40
3.0
 40
4.0
 40
4.0
 40
4.0
 40
5.0
 40
5.0
 40
5.0
 40
5.0
 10
2.751463792755102
 20
6.513151480903692
 30
0.0
 10
2.841778578600636
 20
6.50470484099325
 30
0.0
 10
3.120721601363332
 20
6.507374152215852
 30
0.0
 10
3.186116636836687
 20
6.510936323326582
 30
0.0
 10
3.251511672310041
 20
6.514495404956733
 30
0.0
 10
3.482861246711258
 20
6.511371940088591
 30
0.0
 10
3.562495698185772
 20
6.50870262886599
 30
0.0
 10
3.64213323914089
 20
6.506048765046292
 30
0.0
 10
3.880600976802397
 20
6.503815070585688
 30
0.0
 10
3.976242027170833
 20
6.514495404956733
 30
0.0
 10
4.071898524942147
 20
6.525175739327765
 30
0.0
 10
4.321924009459912
 20
6.518928809591519
 30
0.0
 10
4.373966309859043
 20
6.514041251311229
 30
0.0
 10
4.426042594544571
 20
6.50915369303094
 30
0.0
 10
4.542139095844631
 20
6.507812858458465
 30
0.0
 10
4.580427028693925
 20
6.516274945771796
 30
0.0
  0
SPLINE
  5
6D
330
68
100
AcDbEntity
  8
Layer 1
 62
     7
420
 16777215
370
    15
100
AcDbSpline
210
0.0
220
0.0
230
1.0
 70
     8
 71
     3
 72
    20
 73
    16
 74
     0
 42
0.0000000001
 43
0.0000000001
 12
1.0
 22
0.0
 32
0.0
 13
1.0
 23
0.0
 33
0.0
 40
0.0
 40
0.0
 40
0.0
 40
0.0
 40
1.0
 40
1.0
 40
1.0
 40
2.0
 40
2.0
 40
2.0
 40
3.0
 40
3.0
 40
3.0
 40
4.0
 40
4.0
 40
4.0
 40
5.0
 40
5.0
 40
5.0
 40
5.0
 10
2.733223499400601
 20
6.658184057332114
 30
0.0
 10
2.8226516043192
 20
6.654621886221421
 30
0.0
 10
3.144751791240449
 20
6.662197292607793
 30
0.0
 10
3.204353840710597
 20
6.662632909369815
 30
0.0
 10
3.263971547496125
 20
6.663087063015306
 30
0.0
 10
3.47751975310435
 20
6.659073827739664
 30
0.0
 10
3.556718369497958
 20
6.658184057332114
 30
0.0
 10
3.635901756807546
 20
6.657294286924601
 30
0.0
 10
3.877041895172245
 20
6.659524891904614
 30
0.0
 10
3.966015846445316
 20
6.667535915053008
 30
0.0
 10
4.054986708237796
 20
6.675546938201427
 30
0.0
 10
4.317036451179622
 20
6.674203327977099
 30
0.0
 10
4.372217663849798
 20
6.671082952510712
 30
0.0
 10
4.427371071194758
 20
6.667974621295595
 30
0.0
 10
4.539485232024895
 20
6.663087063015306
 30
0.0
 10
4.580427028693925
 20
6.668864391703159
 30
0.0
  0
SPLINE
  5
6E
330
68
100
AcDbEntity
  8
Layer 1
 62
     7
420
 16777215
370
    15
100
AcDbSpline
210
0.0
220
0.0
230
1.0
 70
     8
 71
     3
 72
    20
 73
    16
 74
     0
 42
0.0000000001
 43
0.0000000001
 12
1.0
 22
0.0
 32
0.0
 13
1.0
 23
0.0
 33
0.0
 40
0.0
 40
0.0
 40
0.0
 40
0.0
 40
1.0
 40
1.0
 40
1.0
 40
2.0
 40
2.0
 40
2.0
 40
3.0
 40
3.0
 40
3.0
 40
4.0
 40
4.0
 40
4.0
 40
5.0
 40
5.0
 40
5.0
 40
5.0
 10
2.737221287273365
 20
6.803228991682898
 30
0.0
 10
2.825756532303811
 20
6.804572915735977
 30
0.0
 10
3.168769203370301
 20
6.817017343519132
 30
0.0
 10
3.222594134065098
 20
6.814360390218856
 30
0.0
 10
3.276431422682208
 20
6.811691078996255
 30
0.0
 10
3.472180912340251
 20
6.80678807331305
 30
0.0
 10
3.550925813580509
 20
6.8076778437206
 30
0.0
 10
3.629670274474215
 20
6.808567614128113
 30
0.0
 10
3.873479724061515
 20
6.815238120095601
 30
0.0
 10
3.955786576239234
 20
6.820576425149284
 30
0.0
 10
4.038077981014036
 20
6.825918137075089
 30
0.0
 10
4.312148892899333
 20
6.829477218705228
 30
0.0
 10
4.370407228228916
 20
6.828148742055077
 30
0.0
 10
4.428696458364306
 20
6.826807907482614
 30
0.0
 10
4.536797383918812
 20
6.818358495561988
 30
0.0
 10
4.580427028693925
 20
6.821466195556821
 30
0.0
  0
SPLINE
  5
6F
330
68
100
AcDbEntity
  8
Layer 1
 62
     7
420
 16777215
370
    15
100
AcDbSpline
210
0.0
220
0.0
230
1.0
 70
     8
 71
     3
 72
    20
 73
    16
 74
     0
 42
0.0000000001
 43
0.0000000001
 12
1.0
 22
0.0
 32
0.0
 13
1.0
 23
0.0
 33
0.0
 40
0.0
 40
0.0
 40
0.0
 40
0.0
 40
1.0
 40
1.0
 40
1.0
 40
2.0
 40
2.0
 40
2.0
 40
3.0
 40
3.0
 40
3.0
 40
4.0
 40
4.0
 40
4.0
 40
5.0
 40
5.0
 40
5.0
 40
5.0
 10
2.75235356316264
 20
6.948258478630779
 30
0.0
 10
2.83999903778556
 20
6.954489960964111
 30
0.0
 10
3.192799183334955
 20
6.971837394430495
 30
0.0
 10
3.240846785341925
 20
6.966060065742655
 30
0.0
 10
3.288894387348894
 20
6.960282737054828
 30
0.0
 10
3.466839200414445
 20
6.954489960964111
 30
0.0
 10
3.545148484746745
 20
6.957159272186724
 30
0.0
 10
3.623441881621463
 20
6.959828583409325
 30
0.0
 10
3.869920642431364
 20
6.970947945348067
 30
0.0
 10
3.945545178253042
 20
6.973616935245559
 30
0.0
 10
4.021181611712588
 20
6.976289335948738
 30
0.0
 10
4.307261573898964
 20
6.984751423262082
 30
0.0
 10
4.368658582219647
 20
6.98518704002413
 30
0.0
 10
4.430024935014444
 20
6.985641193669633
 30
0.0
 10
4.534143520099102
 20
6.973616935245559
 30
0.0
 10
4.580427028693925
 20
6.974071088891087
 30
0.0
  0
ENDBLK
  5
6B
330
68
100
AcDbEntity
  8
0
100
AcDbBlockEnd
  0
BLOCK
  5
7E
330
7C
100
AcDbEntity
  8
0
100
AcDbBlockBegin
  2
block 4
 70
     0
 10
0.0
 20
0.0
 30
0.0
  3
block 4
  1

  0
SPLINE
  5
80
330
7C
100
AcDbEntity
  8
Layer 1
 62
     7
420
 16777215
370
    15
100
AcDbSpline
210
0.0
220
0.0
230
1.0
 70
     8
 71
     3
 72
    23
 73
    19
 74
     0
 42
0.0000000001
 43
0.0000000001
 12
1.0
 22
0.0
 32
0.0
 13
1.0
 23
0.0
 33
0.0
 40
0.0
 40
0.0
 40
0.0
 40
0.0
 40
1.0
 40
1.0
 40
1.0
 40
2.0
 40
2.0
 40
2.0
 40
3.0
 40
3.0
 40
3.0
 40
4.0
 40
4.0
 40
4.0
 40
5.0
 40
5.0
 40
5.0
 40
6.0
 40
6.0
 40
6.0
 40
6.0
 10
4.807670683402066
 20
8.011883226942624
 30
0.0
 10
4.797021243836853
 20
7.905818269091443
 30
0.0
 10
4.794969828730573
 20
7.749351525030041
 30
0.0
 10
4.802876061339425
 20
7.682779397455053
 30
0.0
 10
4.815817643696063
 20
7.620235952558637
 30
0.0
 10
4.834011594841816
 20
7.322407265203587
 30
0.0
 10
4.816210007729928
 20
7.242333777282738
 30
0.0
 10
4.798408420618014
 20
7.162260619565611
 30
0.0
 10
4.812950605716221
 20
6.814422179830469
 30
0.0
 10
4.807309214173983
 20
6.757399636733604
 30
0.0
 10
4.80097268950087
 20
6.689999528362717
 30
0.0
 10
4.801457737952205
 20
6.374653155905586
 30
0.0
 10
4.811773765639574
 20
6.250230504437821
 30
0.0
 10
4.825079906480065
 20
6.104172220456247
 30
0.0
 10
4.842155465655272
 20
5.64443279405105
 30
0.0
 10
4.834011594841816
 20
5.551748376599335
 30
0.0
 10
4.827795559911388
 20
5.508483290532896
 30
0.0
 10
4.820522922622027
 20
5.463861922491055
 30
0.0
 10
4.815094705239921
 20
5.428471922427383
 30
0.0
  0
SPLINE
  5
81
330
7C
100
AcDbEntity
  8
Layer 1
 62
     7
420
 16777215
370
    15
100
AcDbSpline
210
0.0
220
0.0
230
1.0
 70
     8
 71
     3
 72
    20
 73
    16
 74
     0
 42
0.0000000001
 43
0.0000000001
 12
1.0
 22
0.0
 32
0.0
 13
1.0
 23
0.0
 33
0.0
 40
0.0
 40
0.0
 40
0.0
 40
0.0
 40
1.0
 40
1.0
 40
1.0
 40
2.0
 40
2.0
 40
2.0
 40
3.0
 40
3.0
 40
3.0
 40
4.0
 40
4.0
 40
4.0
 40
5.0
 40
5.0
 40
5.0
 40
5.0
 10
4.948267021188232
 20
7.933364077958092
 30
0.0
 10
4.945038258507211
 20
7.844556958636455
 30
0.0
 10
4.946545925031109
 20
7.745202693493209
 30
0.0
 10
4.94745114284155
 20
7.682779397455053
 30
0.0
 10
4.955598103135571
 20
7.619979525670348
 30
0.0
 10
4.97859001762476
 20
7.322407265203587
 30
0.0
 10
4.960819325318678
 20
7.242333777282738
 30
0.0
 10
4.942986843400982
 20
7.162260619565611
 30
0.0
 10
4.958767910212398
 20
6.840293808246352
 30
0.0
 10
4.951918531762733
 20
6.757399636733604
 30
0.0
 10
4.943709781857074
 20
6.653732115813871
 30
0.0
 10
4.94461499966754
 20
6.374501771357068
 30
0.0
 10
4.956351936397519
 20
6.250230504437821
 30
0.0
 10
4.974122628703602
 20
6.082663256646255
 30
0.0
 10
4.975633384708064
 20
5.630341673117806
 30
0.0
 10
4.97711015642613
 20
5.525045995931527
 30
0.0
  0
SPLINE
  5
82
330
7C
100
AcDbEntity
  8
Layer 1
 62
     7
420
 16777215
370
    15
100
AcDbSpline
210
0.0
220
0.0
230
1.0
 70
     8
 71
     3
 72
    20
 73
    16
 74
     0
 42
0.0000000001
 43
0.0000000001
 12
1.0
 22
0.0
 32
0.0
 13
1.0
 23
0.0
 33
0.0
 40
0.0
 40
0.0
 40
0.0
 40
0.0
 40
1.0
 40
1.0
 40
1.0
 40
2.0
 40
2.0
 40
2.0
 40
3.0
 40
3.0
 40
3.0
 40
4.0
 40
4.0
 40
4.0
 40
5.0
 40
5.0
 40
5.0
 40
5.0
 10
5.09450423957047
 20
7.826619434378951
 30
0.0
 10
5.09450423957047
 20
7.775630646858176
 30
0.0
 10
5.094414644633591
 20
7.72553162974494
 30
0.0
 10
5.092029565624468
 20
7.682779397455053
 30
0.0
 10
5.095350757249839
 20
7.619723098782073
 30
0.0
 10
5.123165350927112
 20
7.322407265203587
 30
0.0
 10
5.105394658621031
 20
7.242333777282738
 30
0.0
 10
5.087565266183901
 20
7.162260619565611
 30
0.0
 10
5.104582125228035
 20
6.866164800613205
 30
0.0
 10
5.096496954545652
 20
6.757399636733604
 30
0.0
 10
5.086449963693919
 20
6.617467792745578
 30
0.0
 10
5.087806245669273
 20
6.374353476289141
 30
0.0
 10
5.100930359180463
 20
6.250230504437821
 30
0.0
 10
5.119424249739495
 20
6.092830737240711
 30
0.0
 10
5.114839200759383
 20
5.795165462152782
 30
0.0
 10
5.11918301045729
 20
5.631821534316461
 30
0.0
  0
SPLINE
  5
83
330
7C
100
AcDbEntity
  8
Layer 1
 62
     7
420
 16777215
370
    15
100
AcDbSpline
210
0.0
220
0.0
230
1.0
 70
     8
 71
     3
 72
    17
 73
    13
 74
     0
 42
0.0000000001
 43
0.0000000001
 12
1.0
 22
0.0
 32
0.0
 13
1.0
 23
0.0
 33
0.0
 40
0.0
 40
0.0
 40
0.0
 40
0.0
 40
1.0
 40
1.0
 40
1.0
 40
2.0
 40
2.0
 40
2.0
 40
3.0
 40
3.0
 40
3.0
 40
4.0
 40
4.0
 40
4.0
 40
4.0
 10
5.2366082511646
 20
7.682779397455053
 30
0.0
 10
5.235131216689372
 20
7.619482119296688
 30
0.0
 10
5.267743773710056
 20
7.322407265203587
 30
0.0
 10
5.249973081403974
 20
7.242333777282738
 30
0.0
 10
5.232174583772651
 20
7.162260619565611
 30
0.0
 10
5.250365445437865
 20
6.892036111004548
 30
0.0
 10
5.241072287848005
 20
6.757399636733604
 30
0.0
 10
5.229156161244317
 20
6.581203469677322
 30
0.0
 10
5.230997491671031
 20
6.374202091740635
 30
0.0
 10
5.245539676769188
 20
6.250230504437821
 30
0.0
 10
5.262222871910504
 20
6.118504320874863
 30
0.0
 10
5.258602000668715
 20
5.929335424855897
 30
0.0
 10
5.258632895474546
 20
5.774197157444632
 30
0.0
  0
SPLINE
  5
84
330
7C
100
AcDbEntity
  8
Layer 1
 62
     7
420
 16777215
370
    15
100
AcDbSpline
210
0.0
220
0.0
230
1.0
 70
     8
 71
     3
 72
    17
 73
    13
 74
     0
 42
0.0000000001
 43
0.0000000001
 12
1.0
 22
0.0
 32
0.0
 13
1.0
 23
0.0
 33
0.0
 40
0.0
 40
0.0
 40
0.0
 40
0.0
 40
1.0
 40
1.0
 40
1.0
 40
2.0
 40
2.0
 40
2.0
 40
3.0
 40
3.0
 40
3.0
 40
4.0
 40
4.0
 40
4.0
 40
4.0
 10
5.390782337877201
 20
7.488602453413123
 30
0.0
 10
5.397749116588986
 20
7.390440386890001
 30
0.0
 10
5.4040856412621
 20
7.28524975204348
 30
0.0
 10
5.394551504186918
 20
7.242333777282738
 30
0.0
 10
5.376749917075004
 20
7.162260619565611
 30
0.0
 10
5.396182749934042
 20
6.917907421395928
 30
0.0
 10
5.385650710630974
 20
6.757399636733604
 30
0.0
 10
5.371862358794715
 20
6.544936057128476
 30
0.0
 10
5.374157842866958
 20
6.374050707192155
 30
0.0
 10
5.390118099552132
 20
6.250230504437821
 30
0.0
 10
5.401703651733593
 20
6.163790228176367
 30
0.0
 10
5.403514087354475
 20
6.064679688610921
 30
0.0
 10
5.4028189542236
 20
5.966956029899531
 30
0.0
  0
ENDBLK
  5
7F
330
7C
100
AcDbEntity
  8
0
100
AcDbBlockEnd
  0
BLOCK
  5
A7
330
A5
100
AcDbEntity
  8
0
100
AcDbBlockBegin
  2
block 5
 70
     0
 10
0.0
 20
0.0
 30
0.0
  3
block 5
  1

  0
SPLINE
  5
A9
330
A5
100
AcDbEntity
  8
Layer 1
370
     0
100
AcDbSpline
210
0.0
220
0.0
230
1.0
 70
    11
 71
     3
 72
    47
 73
    43
 74
     0
 42
0.0000000001
 43
0.0000000001
 12
1.0
 22
0.0
 32
0.0
 13
1.0
 23
0.0
 33
0.0
 40
0.0
 40
0.0
 40
0.0
 40
0.0
 40
1.0
 40
1.0
 40
1.0
 40
2.0
 40
2.0
 40
2.0
 40
3.0
 40
3.0
 40
3.0
 40
4.0
 40
4.0
 40
4.0
 40
5.0
 40
5.0
 40
5.0
 40
6.0
 40
6.0
 40
6.0
 40
7.0
 40
7.0
 40
7.0
 40
8.0
 40
8.0
 40
8.0
 40
9.0
 40
9.0
 40
9.0
 40
10.0
 40
10.0
 40
10.0
 40
11.0
 40
11.0
 40
11.0
 40
12.0
 40
12.0
 40
12.0
 40
13.0
 40
13.0
 40
13.0
 40
14.0
 40
14.0
 40
14.0
 40
14.0
 10
5.216424411767043
 20
7.927707239012963
 30
0.0
 10
5.216424411767043
 20
7.927707239012963
 30
0.0
 10
5.198684614266767
 20
7.927707239012963
 30
0.0
 10
5.198684614266767
 20
7.927707239012963
 30
0.0
 10
5.198684614266767
 20
7.927707239012963
 30
0.0
 10
5.198684614266767
 20
8.059037969061466
 30
0.0
 10
5.198684614266767
 20
8.059037969061466
 30
0.0
 10
5.198684614266767
 20
8.059037969061466
 30
0.0
 10
5.259417623542301
 20
8.059037969061466
 30
0.0
 10
5.259417623542301
 20
8.059037969061466
 30
0.0
 10
5.280988376963882
 20
8.059037969061466
 30
0.0
 10
5.302562219866078
 20
8.051542889170213
 30
0.0
 10
5.302562219866078
 20
8.023740653415263
 30
0.0
 10
5.302562219866078
 20
8.004338715362046
 30
0.0
 10
5.292694418888029
 20
7.997220552101768
 30
0.0
 10
5.284278937744905
 20
7.992271204209828
 30
0.0
 10
5.291789201077588
 20
7.989163186744614
 30
0.0
 10
5.299271923046541
 20
7.985875979405667
 30
0.0
 10
5.299997950983248
 20
7.967576985920105
 30
0.0
 10
5.299997950983248
 20
7.967576985920105
 30
0.0
 10
5.301113253473255
 20
7.943803432843739
 30
0.0
 10
5.301113253473255
 20
7.943803432843739
 30
0.0
 10
5.301295532827579
 20
7.93648445334563
 30
0.0
 10
5.30222882037818
 20
7.933740994589066
 30
0.0
 10
5.307721652437547
 20
7.930633322692643
 30
0.0
 10
5.307721652437547
 20
7.930633322692643
 30
0.0
 10
5.307721652437547
 20
7.927707239012963
 30
0.0
 10
5.307721652437547
 20
7.927707239012963
 30
0.0
 10
5.307721652437547
 20
7.927707239012963
 30
0.0
 10
5.28593772485581
 20
7.927707239012963
 30
0.0
 10
5.28593772485581
 20
7.927707239012963
 30
0.0
 10
5.283373455972979
 20
7.935746067486611
 30
0.0
 10
5.282829707390596
 20
7.955704112044536
 30
0.0
 10
5.282829707390596
 20
7.960638012533561
 30
0.0
 10
5.282829707390596
 20
7.971423389244351
 30
0.0
 10
5.280626907735823
 20
7.984050443300096
 30
0.0
 10
5.259417623542301
 20
7.984050443300096
 30
0.0
 10
5.259417623542301
 20
7.984050443300096
 30
0.0
 10
5.216424411767043
 20
7.984050443300096
 30
0.0
 10
5.216424411767043
 20
7.984050443300096
 30
0.0
 10
5.216424411767043
 20
7.984050443300096
 30
0.0
 10
5.216424411767043
 20
7.927707239012963
 30
0.0
 10
5.216424411767043
 20
7.927707239012963
 30
0.0
  0
SPLINE
  5
AA
330
A5
100
AcDbEntity
  8
Layer 1
370
     0
100
AcDbSpline
210
0.0
220
0.0
230
1.0
 70
    11
 71
     3
 72
    20
 73
    16
 74
     0
 42
0.0000000001
 43
0.0000000001
 12
1.0
 22
0.0
 32
0.0
 13
1.0
 23
0.0
 33
0.0
 40
0.0
 40
0.0
 40
0.0
 40
0.0
 40
1.0
 40
1.0
 40
1.0
 40
2.0
 40
2.0
 40
2.0
 40
3.0
 40
3.0
 40
3.0
 40
4.0
 40
4.0
 40
4.0
 40
5.0
 40
5.0
 40
5.0
 40
5.0
 10
5.216424411767043
 20
7.999225624999288
 30
0.0
 10
5.216424411767043
 20
7.999225624999288
 30
0.0
 10
5.257576293115587
 20
7.999225624999288
 30
0.0
 10
5.257576293115587
 20
7.999225624999288
 30
0.0
 10
5.270549022078259
 20
7.999225624999288
 30
0.0
 10
5.284278937744905
 20
8.002515921818839
 30
0.0
 10
5.284278937744905
 20
8.021914770391492
 30
0.0
 10
5.284278937744905
 20
8.042218836774571
 30
0.0
 10
5.269464614394059
 20
8.043862788873259
 30
0.0
 10
5.260684310580801
 20
8.043862788873259
 30
0.0
 10
5.260684310580801
 20
8.043862788873259
 30
0.0
 10
5.216424411767043
 20
8.043862788873259
 30
0.0
 10
5.216424411767043
 20
8.043862788873259
 30
0.0
 10
5.216424411767043
 20
8.043862788873259
 30
0.0
 10
5.216424411767043
 20
7.999225624999288
 30
0.0
 10
5.216424411767043
 20
7.999225624999288
 30
0.0
  0
HATCH
  5
AB
330
A5
100
AcDbEntity
  8
Layer 1
 62
   250
420
  2301728
100
AcDbHatch
 10
0.0
 20
0.0
 30
0.0
210
0.0
220
0.0
230
1.0
  2
SOLID
 70
     1
 71
     0
 91
        2
 92
        1
 93
        1
 72
     4
 94
        3
 73
     0
 74
     1
 95
       47
 96
       43
 40
0.0
 40
0.0
 40
0.0
 40
0.0
 40
1.0
 40
1.0
 40
1.0
 40
2.0
 40
2.0
 40
2.0
 40
3.0
 40
3.0
 40
3.0
 40
4.0
 40
4.0
 40
4.0
 40
5.0
 40
5.0
 40
5.0
 40
6.0
 40
6.0
 40
6.0
 40
7.0
 40
7.0
 40
7.0
 40
8.0
 40
8.0
 40
8.0
 40
9.0
 40
9.0
 40
9.0
 40
10.0
 40
10.0
 40
10.0
 40
11.0
 40
11.0
 40
11.0
 40
12.0
 40
12.0
 40
12.0
 40
13.0
 40
13.0
 40
13.0
 40
14.0
 40
14.0
 40
14.0
 40
14.0
 10
5.216424411767043
 20
7.927707239012963
 10
5.216424411767043
 20
7.927707239012963
 10
5.198684614266767
 20
7.927707239012963
 10
5.198684614266767
 20
7.927707239012963
 10
5.198684614266767
 20
7.927707239012963
 10
5.198684614266767
 20
8.059037969061466
 10
5.198684614266767
 20
8.059037969061466
 10
5.198684614266767
 20
8.059037969061466
 10
5.259417623542301
 20
8.059037969061466
 10
5.259417623542301
 20
8.059037969061466
 10
5.280988376963882
 20
8.059037969061466
 10
5.302562219866078
 20
8.051542889170213
 10
5.302562219866078
 20
8.023740653415263
 10
5.302562219866078
 20
8.004338715362046
 10
5.292694418888029
 20
7.997220552101768
 10
5.284278937744905
 20
7.992271204209828
 10
5.291789201077588
 20
7.989163186744614
 10
5.299271923046541
 20
7.985875979405667
 10
5.299997950983248
 20
7.967576985920105
 10
5.299997950983248
 20
7.967576985920105
 10
5.301113253473255
 20
7.943803432843739
 10
5.301113253473255
 20
7.943803432843739
 10
5.301295532827579
 20
7.93648445334563
 10
5.30222882037818
 20
7.933740994589066
 10
5.307721652437547
 20
7.930633322692643
 10
5.307721652437547
 20
7.930633322692643
 10
5.307721652437547
 20
7.927707239012963
 10
5.307721652437547
 20
7.927707239012963
 10
5.307721652437547
 20
7.927707239012963
 10
5.28593772485581
 20
7.927707239012963
 10
5.28593772485581
 20
7.927707239012963
 10
5.283373455972979
 20
7.935746067486611
 10
5.282829707390596
 20
7.955704112044536
 10
5.282829707390596
 20
7.960638012533561
 10
5.282829707390596
 20
7.971423389244351
 10
5.280626907735823
 20
7.984050443300096
 10
5.259417623542301
 20
7.984050443300096
 10
5.259417623542301
 20
7.984050443300096
 10
5.216424411767043
 20
7.984050443300096
 10
5.216424411767043
 20
7.984050443300096
 10
5.216424411767043
 20
7.984050443300096
 10
5.216424411767043
 20
7.927707239012963
 10
5.216424411767043
 20
7.927707239012963
 97
        0
 97
        0
 92
        1
 93
        1
 72
     4
 94
        3
 73
     0
 74
     1
 95
       20
 96
       16
 40
0.0
 40
0.0
 40
0.0
 40
0.0
 40
1.0
 40
1.0
 40
1.0
 40
2.0
 40
2.0
 40
2.0
 40
3.0
 40
3.0
 40
3.0
 40
4.0
 40
4.0
 40
4.0
 40
5.0
 40
5.0
 40
5.0
 40
5.0
 10
5.216424411767043
 20
7.999225624999288
 10
5.216424411767043
 20
7.999225624999288
 10
5.257576293115587
 20
7.999225624999288
 10
5.257576293115587
 20
7.999225624999288
 10
5.270549022078259
 20
7.999225624999288
 10
5.284278937744905
 20
8.002515921818839
 10
5.284278937744905
 20
8.021914770391492
 10
5.284278937744905
 20
8.042218836774571
 10
5.269464614394059
 20
8.043862788873259
 10
5.260684310580801
 20
8.043862788873259
 10
5.260684310580801
 20
8.043862788873259
 10
5.216424411767043
 20
8.043862788873259
 10
5.216424411767043
 20
8.043862788873259
 10
5.216424411767043
 20
8.043862788873259
 10
5.216424411767043
 20
7.999225624999288
 10
5.216424411767043
 20
7.999225624999288
 97
        0
 97
        0
 75
     2
 76
     1
 98
        0
  0
SPLINE
  5
AC
330
A5
100
AcDbEntity
  8
Layer 1
 62
   250
420
  2301728
370
    40
100
AcDbSpline
210
0.0
220
0.0
230
1.0
 70
    11
 71
     3
 72
    17
 73
    13
 74
     0
 42
0.0000000001
 43
0.0000000001
 12
1.0
 22
0.0
 32
0.0
 13
1.0
 23
0.0
 33
0.0
 40
0.0
 40
0.0
 40
0.0
 40
0.0
 40
1.0
 40
1.0
 40
1.0
 40
2.0
 40
2.0
 40
2.0
 40
3.0
 40
3.0
 40
3.0
 40
4.0
 40
4.0
 40
4.0
 40
4.0
 10
5.360669170647143
 20
7.991214601850894
 30
0.0
 10
5.360669170647143
 20
7.92793277109542
 30
0.0
 10
5.30934980870413
 20
7.876641214477659
 30
0.0
 10
5.246083425351571
 20
7.876641214477659
 30
0.0
 10
5.182813952518447
 20
7.876641214477659
 30
0.0
 10
5.131494590575433
 20
7.92793277109542
 30
0.0
 10
5.131494590575433
 20
7.991214601850894
 30
0.0
 10
5.131494590575433
 20
8.054499522086921
 30
0.0
 10
5.182813952518447
 20
8.105803436627006
 30
0.0
 10
5.246083425351571
 20
8.105803436627006
 30
0.0
 10
5.30934980870413
 20
8.105803436627006
 30
0.0
 10
5.360669170647143
 20
8.054499522086921
 30
0.0
 10
5.360669170647143
 20
7.991214601850894
 30
0.0
  0
ENDBLK
  5
A8
330
A5
100
AcDbEntity
  8
0
100
AcDbBlockEnd
  0
ENDSEC
  0
SECTION
  2
ENTITIES
  0
INSERT
  5
42
330
1F
100
AcDbEntity
  8
Layer 1
100
AcDbBlockReference
  2
block 2
 10
0.0
 20
0.0
 30
0.0
  0
INSERT
  5
A6
330
1F
100
AcDbEntity
  8
Layer 1
100
AcDbBlockReference
  2
block 5
 10
0.0
 20
0.0
 30
0.0
  0
MTEXT
  5
AD
330
1F
100
AcDbEntity
  8
Layer 1
 62
   250
420
  2301728
100
AcDbMText
 10
3.447265413072374
 20
4.815823819902207
 30
0.0
 40
0.118
 41
0.0
 46
0.0
 71
     7
 72
     1
  1
\fHelvetica Neue LT Std 55 Roman|b0|i0|c0|p34;\W1;SIMPSON Strong-Tie\H0.068794;®\H0.118; 
 73
     1
 44
1.0
  0
MTEXT
  5
AE
330
1F
100
AcDbEntity
  8
Layer 1
 62
   250
420
  2301728
100
AcDbMText
 10
3.347133848402235
 20
4.615831957923041
 30
0.0
 40
0.118
 41
0.0
 46
0.0
 71
     7
 72
     1
  1
\fHelvetica Neue LT Std 55 Roman|b0|i0|c0|p34;\W1;LUS46 / HUS48Z Double 
 73
     1
 44
1.0
  0
MTEXT
  5
AF
330
1F
100
AcDbEntity
  8
Layer 1
 62
   250
420
  2301728
100
AcDbMText
 10
3.361226187811957
 20
4.415826532575819
 30
0.0
 40
0.118
 41
0.0
 46
0.0
 71
     7
 72
     1
  1
\fHelvetica Neue LT Std 55 Roman|b0|i0|c0|p34;\W1;Shear Nailing Installation 
 73
     1
 44
1.0
  0
MTEXT
  5
B0
330
1F
100
AcDbEntity
  8
Layer 1
 62
   250
420
  2236191
100
AcDbMText
 10
2.309659401575724
 20
5.158054616716172
 30
0.0
 40
0.118
 41
0.0
 46
0.0
 71
     7
 72
     1
  1
\fHelvetica Neue LT Std 57 Condensed|b0|i0|c0|p34;\W1;LUS46 / HUS48Z
 73
     1
 44
1.0
  0
MTEXT
  5
B1
330
1F
100
AcDbEntity
  8
Layer 1
 62
   250
420
  2236191
100
AcDbMText
 10
2.716278553009033
 20
7.927705340915256
 30
0.0
 40
0.118
 41
0.0
 46
0.0
 71
     7
 72
     1
  1
\fHelvetica Neue LT Std 57 Condensed|b0|i0|c0|p34;\W1;Joist
 73
     1
 44
1.0
  0
MTEXT
  5
B2
330
1F
100
AcDbEntity
  8
Layer 1
 62
   250
420
  2236191
100
AcDbMText
 10
3.93526988559299
 20
8.370376798841688
 30
0.0
 40
0.118
 41
0.0
 46
0.0
 71
     7
 72
     1
  1
\fHelvetica Neue LT Std 57 Condensed|b0|i0|c0|p34;\W1;Nail
 73
     1
 44
1.0
  0
POLYLINE
  5
B3
330
1F
100
AcDbEntity
  8
Layer 1
 62
   250
420
  2236191
370
    18
100
AcDb2dPolyline
 66
     1
 10
0.0
 20
0.0
 30
0.0
  0
VERTEX
  5
B4
330
B3
100
AcDbEntity
  8
Layer 1
 62
   250
420
  2236191
370
    18
100
AcDbVertex
100
AcDb2dVertex
 10
2.785268889280335
 20
5.395833333333333
 30
0.0
  0
VERTEX
  5
B5
330
B3
100
AcDbEntity
  8
Layer 1
 62
   250
420
  2236191
370
    18
100
AcDbVertex
100
AcDb2dVertex
 10
3.383736559139783
 20
6.157274212694889
 30
0.0
  0
SEQEND
  5
B6
330
B3
100
AcDbEntity
  8
Layer 1
 62
   250
420
  2236191
370
    18
  0
POLYLINE
  5
B7
330
1F
100
AcDbEntity
  8
Layer 1
 62
   250
420
  2236191
370
    18
100
AcDb2dPolyline
 66
     1
 10
0.0
 20
0.0
 30
0.0
  0
VERTEX
  5
B8
330
B7
100
AcDbEntity
  8
Layer 1
 62
   250
420
  2236191
370
    18
100
AcDbVertex
100
AcDb2dVertex
 10
2.88105791962174
 20
7.842616764831127
 30
0.0
  0
VERTEX
  5
B9
330
B7
100
AcDbEntity
  8
Layer 1
 62
   250
420
  2236191
370
    18
100
AcDbVertex
100
AcDb2dVertex
 10
3.036455122203089
 20
7.243125195391965
 30
0.0
  0
SEQEND
  5
BA
330
B7
100
AcDbEntity
  8
Layer 1
 62
   250
420
  2236191
370
    18
  0
POLYLINE
  5
BB
330
1F
100
AcDbEntity
  8
Layer 1
 62
   250
420
  2236191
370
    18
100
AcDb2dPolyline
 66
     1
 10
0.0
 20
0.0
 30
0.0
  0
VERTEX
  5
BC
330
BB
100
AcDbEntity
  8
Layer 1
 62
   250
420
  2236191
370
    18
100
AcDbVertex
100
AcDb2dVertex
 10
3.999566331664785
 20
8.321870143068319
 30
0.0
  0
VERTEX
  5
BD
330
BB
100
AcDbEntity
  8
Layer 1
 62
   250
420
  2236191
370
    18
100
AcDbVertex
100
AcDb2dVertex
 10
3.955548184291526
 20
7.499556737588641
 30
0.0
  0
SEQEND
  5
BE
330
BB
100
AcDbEntity
  8
Layer 1
 62
   250
420
  2236191
370
    18
  0
POLYLINE
  5
BF
330
1F
100
AcDbEntity
  8
Layer 1
 62
   250
420
  2236191
370
    18
100
AcDb2dPolyline
 66
     1
 10
0.0
 20
0.0
 30
0.0
  0
VERTEX
  5
C0
330
BF
100
AcDbEntity
  8
Layer 1
 62
   250
420
  2236191
370
    18
100
AcDbVertex
100
AcDb2dVertex
 10
4.08732269503547
 20
8.321870143068319
 30
0.0
  0
VERTEX
  5
C1
330
BF
100
AcDbEntity
  8
Layer 1
 62
   250
420
  2236191
370
    18
100
AcDbVertex
100
AcDb2dVertex
 10
4.449816147620973
 20
7.826619434378951
 30
0.0
  0
SEQEND
  5
C2
330
BF
100
AcDbEntity
  8
Layer 1
 62
   250
420
  2236191
370
    18
  0
MTEXT
  5
C3
330
1F
100
AcDbEntity
  8
Layer 1
 62
   250
420
  2236191
100
AcDbMText
 10
5.334308200412326
 20
5.364902675151825
 30
0.0
 40
0.118
 41
0.0
 46
0.0
 71
     7
 72
     1
  1
\fHelvetica Neue LT Std 57 Condensed|b0|i0|c0|p34;\W1;Beam
 73
     1
 44
1.0
  0
POLYLINE
  5
C4
330
1F
100
AcDbEntity
  8
Layer 1
 62
   250
420
  2236191
370
    18
100
AcDb2dPolyline
 66
     1
 10
0.0
 20
0.0
 30
0.0
  0
VERTEX
  5
C5
330
C4
100
AcDbEntity
  8
Layer 1
 62
   250
420
  2236191
370
    18
100
AcDbVertex
100
AcDb2dVertex
 10
5.486258865248222
 20
5.576881587239667
 30
0.0
  0
VERTEX
  5
C6
330
C4
100
AcDbEntity
  8
Layer 1
 62
   250
420
  2236191
370
    18
100
AcDbVertex
100
AcDb2dVertex
 10
5.339165555694737
 20
6.052970887882894
 30
0.0
  0
SEQEND
  5
C7
330
C4
100
AcDbEntity
  8
Layer 1
 62
   250
420
  2236191
370
    18
  0
ENDSEC
  0
SECTION
  2
OBJECTS
  0
DICTIONARY
  5
C
330
0
100
AcDbDictionary
281
     1
  3
ACAD_GROUP
350
D
  3
ACAD_LAYOUT
350
1A
  3
ACAD_MATERIAL
350
3B
  3
ACAD_MLEADERSTYLE
350
C9
  3
ACAD_MLINESTYLE
350
17
  3
ACAD_PLOTSETTINGS
350
19
  3
ACAD_PLOTSTYLENAME
350
E
  3
ACAD_TABLESTYLE
350
C8
  3
ACAD_VISUALSTYLE
350
2A
  0
SUN
  5
3F
330
29
100
AcDbSun
 90
        1
290
     0
 63
     7
421
 16777215
 40
1.0
291
     1
 91
  2455826
 92
 54000000
292
     0
 70
     2
 71
   256
280
     1
  0
DICTIONARY
  5
D
102
{ACAD_REACTORS
330
C
102
}
330
C
100
AcDbDictionary
281
     1
  0
DICTIONARY
  5
1A
102
{ACAD_REACTORS
330
C
102
}
330
C
100
AcDbDictionary
281
     1
  3
Layout1
350
1E
  3
Layout2
350
26
  3
Model
350
22
  0
DICTIONARY
  5
3B
102
{ACAD_REACTORS
330
C
102
}
330
C
100
AcDbDictionary
281
     1
  3
ByBlock
350
3D
  3
ByLayer
350
3C
  3
Global
350
3E
  0
DICTIONARY
  5
C9
102
{ACAD_REACTORS
330
C
102
}
330
C
100
AcDbDictionary
281
     1
  0
DICTIONARY
  5
17
102
{ACAD_REACTORS
330
C
102
}
330
C
100
AcDbDictionary
281
     1
  3
Standard
350
18
  0
DICTIONARY
  5
19
102
{ACAD_REACTORS
330
C
102
}
330
C
100
AcDbDictionary
281
     1
  0
ACDBDICTIONARYWDFLT
  5
E
102
{ACAD_REACTORS
330
C
102
}
330
C
100
AcDbDictionary
281
     1
  3
Normal
350
F
100
AcDbDictionaryWithDefault
340
F
  0
DICTIONARY
  5
C8
102
{ACAD_REACTORS
330
C
102
}
330
C
100
AcDbDictionary
281
     1
  0
DICTIONARY
  5
2A
102
{ACAD_REACTORS
330
C
102
}
330
C
100
AcDbDictionary
281
     1
  3
2dWireframe
350
2F
  3
3D Hidden
350
31
  3
3dWireframe
350
30
  3
Basic
350
32
  3
Brighten
350
36
  3
ColorChange
350
3A
  3
Conceptual
350
34
  3
Dim
350
35
  3
Facepattern
350
39
  3
Flat
350
2B
  3
FlatWithEdges
350
2C
  3
Gouraud
350
2D
  3
GouraudWithEdges
350
2E
  3
Linepattern
350
38
  3
Realistic
350
33
  3
Thicken
350
37
  0
LAYOUT
  5
1E
102
{ACAD_REACTORS
330
1A
102
}
330
1A
100
AcDbPlotSettings
  1

  2
none_device
  4

  6

 40
0.0
 41
0.0
 42
0.0
 43
0.0
 44
0.0
 45
0.0
 46
0.0
 47
0.0
 48
0.0
 49
0.0
140
0.0
141
0.0
142
1.0
143
1.0
 70
   688
 72
     0
 73
     0
 74
     5
  7

 75
    16
 76
     0
 77
     2
 78
   300
147
1.0
148
0.0
149
0.0
100
AcDbLayout
  1
Layout1
 70
     1
 71
     1
 10
0.0
 20
0.0
 11
12.0
 21
9.0
 12
0.0
 22
0.0
 32
0.0
 14
1.000000000000000E+20
 24
1.000000000000000E+20
 34
1.000000000000000E+20
 15
-1.000000000000000E+20
 25
-1.000000000000000E+20
 35
-1.000000000000000E+20
146
0.0
 13
0.0
 23
0.0
 33
0.0
 16
1.0
 26
0.0
 36
0.0
 17
0.0
 27
1.0
 37
0.0
 76
     0
330
1B
  0
LAYOUT
  5
26
102
{ACAD_REACTORS
330
1A
102
}
330
1A
100
AcDbPlotSettings
  1

  2
none_device
  4

  6

 40
0.0
 41
0.0
 42
0.0
 43
0.0
 44
0.0
 45
0.0
 46
0.0
 47
0.0
 48
0.0
 49
0.0
140
0.0
141
0.0
142
1.0
143
1.0
 70
   688
 72
     0
 73
     0
 74
     5
  7

 75
    16
 76
     0
 77
     2
 78
   300
147
1.0
148
0.0
149
0.0
100
AcDbLayout
  1
Layout2
 70
     1
 71
     2
 10
0.0
 20
0.0
 11
0.0
 21
0.0
 12
0.0
 22
0.0
 32
0.0
 14
0.0
 24
0.0
 34
0.0
 15
0.0
 25
0.0
 35
0.0
146
0.0
 13
0.0
 23
0.0
 33
0.0
 16
1.0
 26
0.0
 36
0.0
 17
0.0
 27
1.0
 37
0.0
 76
     0
330
23
  0
LAYOUT
  5
22
102
{ACAD_REACTORS
330
1A
102
}
330
1A
100
AcDbPlotSettings
  1

  2
none_device
  4

  6

 40
0.0
 41
0.0
 42
0.0
 43
0.0
 44
0.0
 45
0.0
 46
0.0
 47
0.0
 48
0.0
 49
0.0
140
0.0
141
0.0
142
1.0
143
1.0
 70
  1712
 72
     0
 73
     0
 74
     0
  7

 75
     0
 76
     0
 77
     2
 78
   300
147
1.0
148
0.0
149
0.0
100
AcDbLayout
  1
Model
 70
     1
 71
     0
 10
0.0
 20
0.0
 11
12.0
 21
9.0
 12
0.0
 22
0.0
 32
0.0
 14
1.000000000000000E+20
 24
1.000000000000000E+20
 34
1.000000000000000E+20
 15
-1.000000000000000E+20
 25
-1.000000000000000E+20
 35
-1.000000000000000E+20
146
0.0
 13
0.0
 23
0.0
 33
0.0
 16
1.0
 26
0.0
 36
0.0
 17
0.0
 27
1.0
 37
0.0
 76
     0
330
1F
331
29
  0
MATERIAL
  5
3D
102
{ACAD_REACTORS
330
3B
102
}
330
3B
100
AcDbMaterial
  1
ByBlock
 72
     1
 94
      127
  0
MATERIAL
  5
3C
102
{ACAD_REACTORS
330
3B
102
}
330
3B
100
AcDbMaterial
  1
ByLayer
 72
     1
 94
      127
  0
MATERIAL
  5
3E
102
{ACAD_REACTORS
330
3B
102
}
330
3B
100
AcDbMaterial
  1
Global
 72
     1
 94
      127
  0
MLINESTYLE
  5
18
102
{ACAD_REACTORS
330
17
102
}
330
17
100
AcDbMlineStyle
  2
Standard
 70
     0
  3

 62
   256
 51
90.0
 52
90.0
 71
     2
 49
0.5
 62
   256
  6
BYLAYER
 49
-0.5
 62
   256
  6
BYLAYER
  0
ACDBPLACEHOLDER
  5
F
102
{ACAD_REACTORS
330
E
102
}
330
E
  0
VISUALSTYLE
  5
2F
102
{ACAD_REACTORS
330
2A
102
}
330
2A
100
AcDbVisualStyle
  2
2dWireframe
 70
     4
177
     2
291
     0
 71
     0
176
     1
 72
     2
176
     1
 73
     0
176
     1
 90
        0
176
     1
 40
-0.6
176
     1
 41
-30.0
176
     1
 62
     5
 63
     7
421
 16777215
176
     1
 74
     1
176
     1
 91
        4
176
     1
 64
     7
176
     1
 65
   257
176
     1
 75
     1
176
     1
175
     1
176
     1
 42
1.0
176
     1
 92
        0
176
     1
 66
   257
176
     1
 43
1.0
176
     1
 76
     1
176
     1
 77
     6
176
     1
 78
     2
176
     1
 67
     7
176
     1
 79
     5
176
     1
170
     0
176
     1
171
     0
176
     1
290
     0
176
     1
 93
        1
176
     1
 44
0.0
176
     1
173
     0
176
     1
  0
VISUALSTYLE
  5
31
102
{ACAD_REACTORS
330
2A
102
}
330
2A
100
AcDbVisualStyle
  2
3D Hidden
 70
     6
177
     2
291
     0
 71
     1
176
     1
 72
     2
176
     1
 73
     2
176
     1
 90
        0
176
     1
 40
-0.6
176
     1
 41
-30.0
176
     1
 62
     5
 63
     7
421
 16777215
176
     1
 74
     2
176
     1
 91
        2
176
     1
 64
     7
176
     1
 65
   257
176
     1
 75
     2
176
     1
175
     1
176
     1
 42
40.0
176
     1
 92
        0
176
     1
 66
   257
176
     1
 43
1.0
176
     1
 76
     1
176
     1
 77
     6
176
     1
 78
     2
176
     1
 67
     7
176
     1
 79
     3
176
     1
170
     0
176
     1
171
     0
176
     1
290
     0
176
     1
 93
        1
176
     1
 44
0.0
176
     1
173
     0
176
     1
  0
VISUALSTYLE
  5
30
102
{ACAD_REACTORS
330
2A
102
}
330
2A
100
AcDbVisualStyle
  2
3dWireframe
 70
     5
177
     2
291
     0
 71
     0
176
     1
 72
     2
176
     1
 73
     0
176
     1
 90
        0
176
     1
 40
-0.6
176
     1
 41
-30.0
176
     1
 62
     5
 63
     7
421
 16777215
176
     1
 74
     1
176
     1
 91
        4
176
     1
 64
     7
176
     1
 65
   257
176
     1
 75
     1
176
     1
175
     1
176
     1
 42
1.0
176
     1
 92
        0
176
     1
 66
   257
176
     1
 43
1.0
176
     1
 76
     1
176
     1
 77
     6
176
     1
 78
     2
176
     1
 67
     7
176
     1
 79
     5
176
     1
170
     0
176
     1
171
     0
176
     1
290
     0
176
     1
 93
        1
176
     1
 44
0.0
176
     1
173
     0
176
     1
  0
VISUALSTYLE
  5
32
102
{ACAD_REACTORS
330
2A
102
}
330
2A
100
AcDbVisualStyle
  2
Basic
 70
     7
177
     2
291
     1
 71
     1
176
     1
 72
     0
176
     1
 73
     1
176
     1
 90
        0
176
     1
 40
-0.6
176
     1
 41
-30.0
176
     1
 62
     5
 63
     7
421
 16777215
176
     1
 74
     0
176
     1
 91
        4
176
     1
 64
     7
176
     1
 65
   257
176
     1
 75
     1
176
     1
175
     1
176
     1
 42
1.0
176
     1
 92
        8
176
     1
 66
     7
176
     1
 43
1.0
176
     1
 76
     1
176
     1
 77
     6
176
     1
 78
     2
176
     1
 67
     7
176
     1
 79
     5
176
     1
170
     0
176
     1
171
     0
176
     1
290
     0
176
     1
 93
        1
176
     1
 44
0.0
176
     1
173
     0
176
     1
  0
VISUALSTYLE
  5
36
102
{ACAD_REACTORS
330
2A
102
}
330
2A
100
AcDbVisualStyle
  2
Brighten
 70
    12
177
     2
291
     1
 71
     2
176
     1
 72
     2
176
     1
 73
     0
176
     1
 90
        0
176
     1
 40
-0.6
176
     1
 41
-30.0
176
     1
 62
     5
 63
     7
421
 16777215
176
     1
 74
     1
176
     1
 91
        4
176
     1
 64
     7
176
     1
 65
   257
176
     1
 75
     1
176
     1
175
     1
176
     1
 42
1.0
176
     1
 92
        8
176
     1
 66
     7
176
     1
 43
1.0
176
     1
 76
     1
176
     1
 77
     6
176
     1
 78
     2
176
     1
 67
     7
176
     1
 79
     5
176
     1
170
     0
176
     1
171
     0
176
     1
290
     0
176
     1
 93
        1
176
     1
 44
50.0
176
     1
173
     0
176
     1
  0
VISUALSTYLE
  5
3A
102
{ACAD_REACTORS
330
2A
102
}
330
2A
100
AcDbVisualStyle
  2
ColorChange
 70
    16
177
     2
291
     1
 71
     2
176
     1
 72
     2
176
     1
 73
     3
176
     1
 90
        0
176
     1
 40
-0.6
176
     1
 41
-30.0
176
     1
 62
     5
 63
     8
421
  8421504
176
     1
 74
     1
176
     1
 91
        4
176
     1
 64
     7
176
     1
 65
   257
176
     1
 75
     1
176
     1
175
     1
176
     1
 42
1.0
176
     1
 92
        8
176
     1
 66
     8
424
  8421504
176
     1
 43
1.0
176
     1
 76
     1
176
     1
 77
     6
176
     1
 78
     2
176
     1
 67
     7
176
     1
 79
     5
176
     1
170
     0
176
     1
171
     0
176
     1
290
     0
176
     1
 93
        1
176
     1
 44
0.0
176
     1
173
     0
176
     1
  0
VISUALSTYLE
  5
34
102
{ACAD_REACTORS
330
2A
102
}
330
2A
100
AcDbVisualStyle
  2
Conceptual
 70
     9
177
     2
291
     0
 71
     3
176
     1
 72
     2
176
     1
 73
     0
176
     1
 90
        0
176
     1
 40
-0.6
176
     1
 41
-30.0
176
     1
 62
     5
 63
     7
421
 16777215
176
     1
 74
     2
176
     1
 91
        2
176
     1
 64
     7
176
     1
 65
   257
176
     1
 75
     1
176
     1
175
     1
176
     1
 42
40.0
176
     1
 92
        8
176
     1
 66
     7
176
     1
 43
1.0
176
     1
 76
     1
176
     1
 77
     6
176
     1
 78
     2
176
     1
 67
     7
176
     1
 79
     3
176
     1
170
     0
176
     1
171
     0
176
     1
290
     0
176
     1
 93
        1
176
     1
 44
0.0
176
     1
173
     0
176
     1
  0
VISUALSTYLE
  5
35
102
{ACAD_REACTORS
330
2A
102
}
330
2A
100
AcDbVisualStyle
  2
Dim
 70
    11
177
     2
291
     1
 71
     2
176
     1
 72
     2
176
     1
 73
     0
176
     1
 90
        0
176
     1
 40
-0.6
176
     1
 41
-30.0
176
     1
 62
     5
 63
     7
421
 16777215
176
     1
 74
     1
176
     1
 91
        4
176
     1
 64
     7
176
     1
 65
   257
176
     1
 75
     1
176
     1
175
     1
176
     1
 42
1.0
176
     1
 92
        8
176
     1
 66
     7
176
     1
 43
1.0
176
     1
 76
     1
176
     1
 77
     6
176
     1
 78
     2
176
     1
 67
     7
176
     1
 79
     5
176
     1
170
     0
176
     1
171
     0
176
     1
290
     0
176
     1
 93
        1
176
     1
 44
-50.0
176
     1
173
     0
176
     1
  0
VISUALSTYLE
  5
39
102
{ACAD_REACTORS
330
2A
102
}
330
2A
100
AcDbVisualStyle
  2
Facepattern
 70
    15
177
     2
291
     1
 71
     2
176
     1
 72
     2
176
     1
 73
     0
176
     1
 90
        0
176
     1
 40
-0.6
176
     1
 41
-30.0
176
     1
 62
     5
 63
     7
421
 16777215
176
     1
 74
     1
176
     1
 91
        4
176
     1
 64
     7
176
     1
 65
   257
176
     1
 75
     1
176
     1
175
     1
176
     1
 42
1.0
176
     1
 92
        8
176
     1
 66
     7
176
     1
 43
1.0
176
     1
 76
     1
176
     1
 77
     6
176
     1
 78
     2
176
     1
 67
     7
176
     1
 79
     5
176
     1
170
     0
176
     1
171
     0
176
     1
290
     0
176
     1
 93
        1
176
     1
 44
0.0
176
     1
173
     0
176
     1
  0
VISUALSTYLE
  5
2B
102
{ACAD_REACTORS
330
2A
102
}
330
2A
100
AcDbVisualStyle
  2
Flat
 70
     0
177
     2
291
     1
 71
     2
176
     1
 72
     1
176
     1
 73
     1
176
     1
 90
        2
176
     1
 40
-0.6
176
     1
 41
30.0
176
     1
 62
     5
 63
     7
421
 16777215
176
     1
 74
     0
176
     1
 91
        4
176
     1
 64
     7
176
     1
 65
   257
176
     1
 75
     1
176
     1
175
     1
176
     1
 42
1.0
176
     1
 92
        8
176
     1
 66
     7
176
     1
 43
1.0
176
     1
 76
     1
176
     1
 77
     6
176
     1
 78
     2
176
     1
 67
     7
176
     1
 79
     5
176
     1
170
     0
176
     1
171
     0
176
     1
290
     0
176
     1
 93
       13
176
     1
 44
0.0
176
     1
173
     0
176
     1
  0
VISUALSTYLE
  5
2C
102
{ACAD_REACTORS
330
2A
102
}
330
2A
100
AcDbVisualStyle
  2
FlatWithEdges
 70
     1
177
     2
291
     1
 71
     2
176
     1
 72
     1
176
     1
 73
     1
176
     1
 90
        2
176
     1
 40
-0.6
176
     1
 41
30.0
176
     1
 62
     5
 63
     7
421
 16777215
176
     1
 74
     1
176
     1
 91
        4
176
     1
 64
     7
176
     1
 65
   257
176
     1
 75
     1
176
     1
175
     1
176
     1
 42
1.0
176
     1
 92
        0
176
     1
 66
   257
176
     1
 43
1.0
176
     1
 76
     1
176
     1
 77
     6
176
     1
 78
     2
176
     1
 67
     7
176
     1
 79
     5
176
     1
170
     0
176
     1
171
     0
176
     1
290
     0
176
     1
 93
       13
176
     1
 44
0.0
176
     1
173
     0
176
     1
  0
VISUALSTYLE
  5
2D
102
{ACAD_REACTORS
330
2A
102
}
330
2A
100
AcDbVisualStyle
  2
Gouraud
 70
     2
177
     2
291
     1
 71
     2
176
     1
 72
     2
176
     1
 73
     1
176
     1
 90
        2
176
     1
 40
-0.6
176
     1
 41
30.0
176
     1
 62
     5
 63
     7
421
 16777215
176
     1
 74
     0
176
     1
 91
        4
176
     1
 64
     7
176
     1
 65
   257
176
     1
 75
     1
176
     1
175
     1
176
     1
 42
1.0
176
     1
 92
        0
176
     1
 66
     7
176
     1
 43
1.0
176
     1
 76
     1
176
     1
 77
     6
176
     1
 78
     2
176
     1
 67
     7
176
     1
 79
     5
176
     1
170
     0
176
     1
171
     0
176
     1
290
     0
176
     1
 93
       13
176
     1
 44
0.0
176
     1
173
     0
176
     1
  0
VISUALSTYLE
  5
2E
102
{ACAD_REACTORS
330
2A
102
}
330
2A
100
AcDbVisualStyle
  2
GouraudWithEdges
 70
     3
177
     2
291
     1
 71
     2
176
     1
 72
     2
176
     1
 73
     1
176
     1
 90
        2
176
     1
 40
-0.6
176
     1
 41
30.0
176
     1
 62
     5
 63
     7
421
 16777215
176
     1
 74
     1
176
     1
 91
        4
176
     1
 64
     7
176
     1
 65
   257
176
     1
 75
     1
176
     1
175
     1
176
     1
 42
1.0
176
     1
 92
        0
176
     1
 66
   257
176
     1
 43
1.0
176
     1
 76
     1
176
     1
 77
     6
176
     1
 78
     2
176
     1
 67
     7
176
     1
 79
     5
176
     1
170
     0
176
     1
171
     0
176
     1
290
     0
176
     1
 93
       13
176
     1
 44
0.0
176
     1
173
     0
176
     1
  0
VISUALSTYLE
  5
38
102
{ACAD_REACTORS
330
2A
102
}
330
2A
100
AcDbVisualStyle
  2
Linepattern
 70
    14
177
     2
291
     1
 71
     2
176
     1
 72
     2
176
     1
 73
     0
176
     1
 90
        0
176
     1
 40
-0.6
176
     1
 41
-30.0
176
     1
 62
     5
 63
     7
421
 16777215
176
     1
 74
     1
176
     1
 91
        4
176
     1
 64
     7
176
     1
 65
   257
176
     1
 75
     7
176
     1
175
     7
176
     1
 42
1.0
176
     1
 92
        8
176
     1
 66
     7
176
     1
 43
1.0
176
     1
 76
     1
176
     1
 77
     6
176
     1
 78
     2
176
     1
 67
     7
176
     1
 79
     5
176
     1
170
     0
176
     1
171
     0
176
     1
290
     0
176
     1
 93
        1
176
     1
 44
0.0
176
     1
173
     0
176
     1
  0
VISUALSTYLE
  5
33
102
{ACAD_REACTORS
330
2A
102
}
330
2A
100
AcDbVisualStyle
  2
Realistic
 70
     8
177
     2
291
     0
 71
     2
176
     1
 72
     2
176
     1
 73
     0
176
     1
 90
        0
176
     1
 40
-0.6
176
     1
 41
-30.0
176
     1
 62
     5
 63
     7
421
 16777215
176
     1
 74
     1
176
     1
 91
        0
176
     1
 64
     7
176
     1
 65
   257
176
     1
 75
     1
176
     1
175
     1
176
     1
 42
1.0
176
     1
 92
        8
176
     1
 66
     8
424
  7895160
176
     1
 43
1.0
176
     1
 76
     1
176
     1
 77
     6
176
     1
 78
     2
176
     1
 67
     7
176
     1
 79
     5
176
     1
170
     0
176
     1
171
     0
176
     1
290
     0
176
     1
 93
       13
176
     1
 44
0.0
176
     1
173
     0
176
     1
  0
VISUALSTYLE
  5
37
102
{ACAD_REACTORS
330
2A
102
}
330
2A
100
AcDbVisualStyle
  2
Thicken
 70
    13
177
     2
291
     1
 71
     2
176
     1
 72
     2
176
     1
 73
     0
176
     1
 90
        0
176
     1
 40
-0.6
176
     1
 41
-30.0
176
     1
 62
     5
 63
     7
421
 16777215
176
     1
 74
     1
176
     1
 91
        4
176
     1
 64
     7
176
     1
 65
   257
176
     1
 75
     1
176
     1
175
     1
176
     1
 42
1.0
176
     1
 92
       12
176
     1
 66
     7
176
     1
 43
1.0
176
     1
 76
     1
176
     1
 77
     6
176
     1
 78
     2
176
     1
 67
     7
176
     1
 79
     5
176
     1
170
     0
176
     1
171
     0
176
     1
290
     0
176
     1
 93
        1
176
     1
 44
0.0
176
     1
173
     0
176
     1
  0
ENDSEC
  0
EOF
