  0
SECTION
  2
HEADER
  9
$ACADVER
  1
AC1024
  9
$ACADMAINTVER
 70
     6
  9
$DWGCODEPAGE
  3
ANSI_1252
  9
$INSBASE
 10
0.0
 20
0.0
 30
0.0
  9
$EXTMIN
 10
1.000000000000000E+20
 20
1.000000000000000E+20
 30
1.000000000000000E+20
  9
$EXTMAX
 10
-1.000000000000000E+20
 20
-1.000000000000000E+20
 30
-1.000000000000000E+20
  9
$LIMMIN
 10
0.0
 20
0.0
  9
$LIMMAX
 10
12.0
 20
9.0
  9
$ORTHOMODE
 70
     0
  9
$REGENMODE
 70
     1
  9
$FILLMODE
 70
     1
  9
$QTEXTMODE
 70
     0
  9
$MIRRTEXT
 70
     1
  9
$LTSCALE
 40
1.0
  9
$ATTMODE
 70
     1
  9
$TEXTSIZE
 40
0.2
  9
$TRACEWID
 40
0.05
  9
$TEXTSTYLE
  7
Standard
  9
$CLAYER
  8
0
  9
$CELTYPE
  6
ByLayer
  9
$CECOLOR
 62
   256
  9
$CELTSCALE
 40
1.0
  9
$DISPSILH
 70
     0
  9
$DIMSCALE
 40
1.0
  9
$DIMASZ
 40
0.18
  9
$DIMEXO
 40
0.0625
  9
$DIMDLI
 40
0.38
  9
$DIMRND
 40
0.0
  9
$DIMDLE
 40
0.0
  9
$DIMEXE
 40
0.18
  9
$DIMTP
 40
0.0
  9
$DIMTM
 40
0.0
  9
$DIMTXT
 40
0.18
  9
$DIMCEN
 40
0.09
  9
$DIMTSZ
 40
0.0
  9
$DIMTOL
 70
     0
  9
$DIMLIM
 70
     0
  9
$DIMTIH
 70
     1
  9
$DIMTOH
 70
     1
  9
$DIMSE1
 70
     0
  9
$DIMSE2
 70
     0
  9
$DIMTAD
 70
     0
  9
$DIMZIN
 70
     0
  9
$DIMBLK
  1

  9
$DIMASO
 70
     1
  9
$DIMSHO
 70
     1
  9
$DIMPOST
  1

  9
$DIMAPOST
  1

  9
$DIMALT
 70
     0
  9
$DIMALTD
 70
     2
  9
$DIMALTF
 40
25.4
  9
$DIMLFAC
 40
1.0
  9
$DIMTOFL
 70
     0
  9
$DIMTVP
 40
0.0
  9
$DIMTIX
 70
     0
  9
$DIMSOXD
 70
     0
  9
$DIMSAH
 70
     0
  9
$DIMBLK1
  1

  9
$DIMBLK2
  1

  9
$DIMSTYLE
  2
Standard
  9
$DIMCLRD
 70
     0
  9
$DIMCLRE
 70
     0
  9
$DIMCLRT
 70
     0
  9
$DIMTFAC
 40
1.0
  9
$DIMGAP
 40
0.09
  9
$DIMJUST
 70
     0
  9
$DIMSD1
 70
     0
  9
$DIMSD2
 70
     0
  9
$DIMTOLJ
 70
     1
  9
$DIMTZIN
 70
     0
  9
$DIMALTZ
 70
     0
  9
$DIMALTTZ
 70
     0
  9
$DIMUPT
 70
     0
  9
$DIMDEC
 70
     4
  9
$DIMTDEC
 70
     4
  9
$DIMALTU
 70
     2
  9
$DIMALTTD
 70
     2
  9
$DIMTXSTY
  7
Standard
  9
$DIMAUNIT
 70
     0
  9
$DIMADEC
 70
     0
  9
$DIMALTRND
 40
0.0
  9
$DIMAZIN
 70
     0
  9
$DIMDSEP
 70
    46
  9
$DIMATFIT
 70
     3
  9
$DIMFRAC
 70
     0
  9
$DIMLDRBLK
  1

  9
$DIMLUNIT
 70
     2
  9
$DIMLWD
 70
    -2
  9
$DIMLWE
 70
    -2
  9
$DIMTMOVE
 70
     0
  9
$DIMFXL
 40
1.0
  9
$DIMFXLON
 70
     0
  9
$DIMJOGANG
 40
0.7853981633974483
  9
$DIMTFILL
 70
     0
  9
$DIMTFILLCLR
 70
     0
  9
$DIMARCSYM
 70
     0
  9
$DIMLTYPE
  6

  9
$DIMLTEX1
  6

  9
$DIMLTEX2
  6

  9
$DIMTXTDIRECTION
 70
     0
  9
$LUNITS
 70
     2
  9
$LUPREC
 70
     4
  9
$SKETCHINC
 40
0.1
  9
$FILLETRAD
 40
0.5
  9
$AUNITS
 70
     0
  9
$AUPREC
 70
     0
  9
$MENU
  1
.
  9
$ELEVATION
 40
0.0
  9
$PELEVATION
 40
0.0
  9
$THICKNESS
 40
0.0
  9
$LIMCHECK
 70
     0
  9
$CHAMFERA
 40
0.5
  9
$CHAMFERB
 40
0.5
  9
$CHAMFERC
 40
1.0
  9
$CHAMFERD
 40
0.0
  9
$SKPOLY
 70
     0
  9
$TDCREATE
 40
2458774.918279201
  9
$TDUCREATE
 40
2458774.376612535
  9
$TDUPDATE
 40
2458774.918279352
  9
$TDUUPDATE
 40
2458774.376612685
  9
$TDINDWG
 40
0.0000000116
  9
$TDUSRTIMER
 40
0.0000000116
  9
$USRTIMER
 70
     1
  9
$ANGBASE
 50
0.0
  9
$ANGDIR
 70
     0
  9
$PDMODE
 70
     0
  9
$PDSIZE
 40
0.0
  9
$PLINEWID
 40
0.0
  9
$SPLFRAME
 70
     0
  9
$SPLINETYPE
 70
     6
  9
$SPLINESEGS
 70
     8
  9
$HANDSEED
  5
195
  9
$SURFTAB1
 70
     6
  9
$SURFTAB2
 70
     6
  9
$SURFTYPE
 70
     6
  9
$SURFU
 70
     6
  9
$SURFV
 70
     6
  9
$UCSBASE
  2

  9
$UCSNAME
  2

  9
$UCSORG
 10
0.0
 20
0.0
 30
0.0
  9
$UCSXDIR
 10
1.0
 20
0.0
 30
0.0
  9
$UCSYDIR
 10
0.0
 20
1.0
 30
0.0
  9
$UCSORTHOREF
  2

  9
$UCSORTHOVIEW
 70
     0
  9
$UCSORGTOP
 10
0.0
 20
0.0
 30
0.0
  9
$UCSORGBOTTOM
 10
0.0
 20
0.0
 30
0.0
  9
$UCSORGLEFT
 10
0.0
 20
0.0
 30
0.0
  9
$UCSORGRIGHT
 10
0.0
 20
0.0
 30
0.0
  9
$UCSORGFRONT
 10
0.0
 20
0.0
 30
0.0
  9
$UCSORGBACK
 10
0.0
 20
0.0
 30
0.0
  9
$PUCSBASE
  2

  9
$PUCSNAME
  2

  9
$PUCSORG
 10
0.0
 20
0.0
 30
0.0
  9
$PUCSXDIR
 10
1.0
 20
0.0
 30
0.0
  9
$PUCSYDIR
 10
0.0
 20
1.0
 30
0.0
  9
$PUCSORTHOREF
  2

  9
$PUCSORTHOVIEW
 70
     0
  9
$PUCSORGTOP
 10
0.0
 20
0.0
 30
0.0
  9
$PUCSORGBOTTOM
 10
0.0
 20
0.0
 30
0.0
  9
$PUCSORGLEFT
 10
0.0
 20
0.0
 30
0.0
  9
$PUCSORGRIGHT
 10
0.0
 20
0.0
 30
0.0
  9
$PUCSORGFRONT
 10
0.0
 20
0.0
 30
0.0
  9
$PUCSORGBACK
 10
0.0
 20
0.0
 30
0.0
  9
$USERI1
 70
     0
  9
$USERI2
 70
     0
  9
$USERI3
 70
     0
  9
$USERI4
 70
     0
  9
$USERI5
 70
     0
  9
$USERR1
 40
0.0
  9
$USERR2
 40
0.0
  9
$USERR3
 40
0.0
  9
$USERR4
 40
0.0
  9
$USERR5
 40
0.0
  9
$WORLDVIEW
 70
     1
  9
$SHADEDGE
 70
     3
  9
$SHADEDIF
 70
    70
  9
$TILEMODE
 70
     1
  9
$MAXACTVP
 70
    64
  9
$PINSBASE
 10
0.0
 20
0.0
 30
0.0
  9
$PLIMCHECK
 70
     0
  9
$PEXTMIN
 10
1.000000000000000E+20
 20
1.000000000000000E+20
 30
1.000000000000000E+20
  9
$PEXTMAX
 10
-1.000000000000000E+20
 20
-1.000000000000000E+20
 30
-1.000000000000000E+20
  9
$PLIMMIN
 10
0.0
 20
0.0
  9
$PLIMMAX
 10
12.0
 20
9.0
  9
$UNITMODE
 70
     0
  9
$VISRETAIN
 70
     1
  9
$PLINEGEN
 70
     0
  9
$PSLTSCALE
 70
     1
  9
$TREEDEPTH
 70
  3020
  9
$CMLSTYLE
  2
Standard
  9
$CMLJUST
 70
     0
  9
$CMLSCALE
 40
1.0
  9
$PROXYGRAPHICS
 70
     1
  9
$MEASUREMENT
 70
     0
  9
$CELWEIGHT
370
    -1
  9
$ENDCAPS
280
     0
  9
$JOINSTYLE
280
     0
  9
$LWDISPLAY
290
     1
  9
$INSUNITS
 70
     1
  9
$HYPERLINKBASE
  1

  9
$STYLESHEET
  1

  9
$XEDIT
290
     1
  9
$CEPSNTYPE
380
     0
  9
$PSTYLEMODE
290
     1
  9
$FINGERPRINTGUID
  2
{4C9C67CC-DD4A-47C5-8927-D6F626EA1FC2}
  9
$VERSIONGUID
  2
{FAEB1C32-E019-11D5-929B-00C0DF256EC4}
  9
$EXTNAMES
290
     1
  9
$PSVPSCALE
 40
0.0
  9
$OLESTARTUP
290
     0
  9
$SORTENTS
280
   127
  9
$INDEXCTL
280
     0
  9
$HIDETEXT
280
     1
  9
$XCLIPFRAME
280
     2
  9
$HALOGAP
280
     0
  9
$OBSCOLOR
 70
   257
  9
$OBSLTYPE
280
     0
  9
$INTERSECTIONDISPLAY
280
     0
  9
$INTERSECTIONCOLOR
 70
   257
  9
$DIMASSOC
280
     2
  9
$PROJECTNAME
  1

  9
$CAMERADISPLAY
290
     0
  9
$LENSLENGTH
 40
50.0
  9
$CAMERAHEIGHT
 40
0.0
  9
$STEPSPERSEC
 40
2.0
  9
$STEPSIZE
 40
6.0
  9
$3DDWFPREC
 40
2.0
  9
$PSOLWIDTH
 40
0.25
  9
$PSOLHEIGHT
 40
4.0
  9
$LOFTANG1
 40
1.570796326794897
  9
$LOFTANG2
 40
1.570796326794897
  9
$LOFTMAG1
 40
0.0
  9
$LOFTMAG2
 40
0.0
  9
$LOFTPARAM
 70
     7
  9
$LOFTNORMALS
280
     1
  9
$LATITUDE
 40
37.795
  9
$LONGITUDE
 40
-122.394
  9
$NORTHDIRECTION
 40
0.0
  9
$TIMEZONE
 70
 -8000
  9
$LIGHTGLYPHDISPLAY
280
     1
  9
$TILEMODELIGHTSYNCH
280
     1
  9
$CMATERIAL
347
3C
  9
$SOLIDHIST
280
     1
  9
$SHOWHIST
280
     1
  9
$DWFFRAME
280
     2
  9
$DGNFRAME
280
     2
  9
$REALWORLDSCALE
290
     1
  9
$INTERFERECOLOR
 62
   256
  9
$CSHADOW
280
     0
  9
$SHADOWPLANELOCATION
 40
0.0
  0
ENDSEC
  0
SECTION
  2
CLASSES
  0
CLASS
  1
ACDBDICTIONARYWDFLT
  2
AcDbDictionaryWithDefault
  3
ObjectDBX Classes
 90
        0
 91
        4
280
     0
281
     0
  0
CLASS
  1
VISUALSTYLE
  2
AcDbVisualStyle
  3
ObjectDBX Classes
 90
     4095
 91
        4
280
     0
281
     0
  0
CLASS
  1
MATERIAL
  2
AcDbMaterial
  3
ObjectDBX Classes
 90
     1153
 91
        4
280
     0
281
     0
  0
CLASS
  1
SUN
  2
AcDbSun
  3
SCENEOE
 90
     1024
 91
        4
280
     0
281
     0
  0
ENDSEC
  0
SECTION
  2
TABLES
  0
TABLE
  2
VPORT
  5
8
330
0
100
AcDbSymbolTable
 70
     1
  0
VPORT
  5
29
330
8
100
AcDbSymbolTableRecord
100
AcDbViewportTableRecord
  2
*Active
 70
     0
 10
0.0
 20
0.0
 11
1.0
 21
1.0
 12
0.0
 22
0.0
 13
0.0
 23
0.0
 14
0.5
 24
0.5
 15
0.5
 25
0.5
 16
0.0
 26
0.0
 36
1.0
 17
1.591244409968914
 27
2.055036768650761
 37
0.0
 40
11.69291338582678
 41
0.7070707070707068
 42
50.0
 43
0.0
 44
0.0
 50
0.0
 51
0.0
 71
     0
 72
   100
 73
     1
 74
     3
 75
     0
 76
     0
 77
     0
 78
     0
281
     0
 65
     1
110
0.0
120
0.0
130
0.0
111
1.0
121
0.0
131
0.0
112
0.0
122
1.0
132
0.0
 79
     0
146
0.0
 60
     3
 61
     5
292
     1
282
     1
141
0.0
142
0.0
 63
   250
361
3F
  0
ENDTAB
  0
TABLE
  2
LTYPE
  5
5
330
0
100
AcDbSymbolTable
 70
    11
  0
LTYPE
  5
14
330
5
100
AcDbSymbolTableRecord
100
AcDbLinetypeTableRecord
  2
ByBlock
 70
     0
  3

 72
    65
 73
     0
 40
0.0
  0
LTYPE
  5
15
330
5
100
AcDbSymbolTableRecord
100
AcDbLinetypeTableRecord
  2
ByLayer
 70
     0
  3

 72
    65
 73
     0
 40
0.0
  0
LTYPE
  5
16
330
5
100
AcDbSymbolTableRecord
100
AcDbLinetypeTableRecord
  2
Continuous
 70
     0
  3
Solid line
 72
    65
 73
     0
 40
0.0
  0
LTYPE
  5
B0
330
5
100
AcDbSymbolTableRecord
100
AcDbLinetypeTableRecord
  2
AI-Linetype-1
 70
     0
  3
Adobe Illustrator Linetype No. 1
 72
    65
 73
     6
 40
0.1150000020861626
 49
0.0255555560191472
 74
     0
 49
-0.0127777780095736
 74
     0
 49
0.0255555560191472
 74
     0
 49
-0.0127777780095736
 74
     0
 49
0.0255555560191472
 74
     0
 49
-0.0127777780095736
 74
     0
  0
LTYPE
  5
B5
330
5
100
AcDbSymbolTableRecord
100
AcDbLinetypeTableRecord
  2
AI-Linetype-2
 70
     0
  3
Adobe Illustrator Linetype No. 2
 72
    65
 73
     6
 40
0.1150000020861626
 49
0.0255555560191472
 74
     0
 49
-0.0127777780095736
 74
     0
 49
0.0255555560191472
 74
     0
 49
-0.0127777780095736
 74
     0
 49
0.0255555560191472
 74
     0
 49
-0.0127777780095736
 74
     0
  0
LTYPE
  5
C9
330
5
100
AcDbSymbolTableRecord
100
AcDbLinetypeTableRecord
  2
AI-Linetype-3
 70
     0
  3
Adobe Illustrator Linetype No. 3
 72
    65
 73
     6
 40
0.1150000020861626
 49
0.0255555560191472
 74
     0
 49
-0.0127777780095736
 74
     0
 49
0.0255555560191472
 74
     0
 49
-0.0127777780095736
 74
     0
 49
0.0255555560191472
 74
     0
 49
-0.0127777780095736
 74
     0
  0
LTYPE
  5
D2
330
5
100
AcDbSymbolTableRecord
100
AcDbLinetypeTableRecord
  2
AI-Linetype-4
 70
     0
  3
Adobe Illustrator Linetype No. 4
 72
    65
 73
     6
 40
0.1341666653752327
 49
0.0319444437821706
 74
     0
 49
-0.0127777780095736
 74
     0
 49
0.0319444437821706
 74
     0
 49
-0.0127777780095736
 74
     0
 49
0.0319444437821706
 74
     0
 49
-0.0127777780095736
 74
     0
  0
LTYPE
  5
DB
330
5
100
AcDbSymbolTableRecord
100
AcDbLinetypeTableRecord
  2
AI-Linetype-5
 70
     0
  3
Adobe Illustrator Linetype No. 5
 72
    65
 73
     6
 40
0.1150000020861626
 49
0.0255555560191472
 74
     0
 49
-0.0127777780095736
 74
     0
 49
0.0255555560191472
 74
     0
 49
-0.0127777780095736
 74
     0
 49
0.0255555560191472
 74
     0
 49
-0.0127777780095736
 74
     0
  0
LTYPE
  5
E8
330
5
100
AcDbSymbolTableRecord
100
AcDbLinetypeTableRecord
  2
AI-Linetype-6
 70
     0
  3
Adobe Illustrator Linetype No. 6
 72
    65
 73
     6
 40
0.1341666653752327
 49
0.0319444437821706
 74
     0
 49
-0.0127777780095736
 74
     0
 49
0.0319444437821706
 74
     0
 49
-0.0127777780095736
 74
     0
 49
0.0319444437821706
 74
     0
 49
-0.0127777780095736
 74
     0
  0
LTYPE
  5
F1
330
5
100
AcDbSymbolTableRecord
100
AcDbLinetypeTableRecord
  2
AI-Linetype-7
 70
     0
  3
Adobe Illustrator Linetype No. 7
 72
    65
 73
     6
 40
0.1150000020861626
 49
0.0255555560191472
 74
     0
 49
-0.0127777780095736
 74
     0
 49
0.0255555560191472
 74
     0
 49
-0.0127777780095736
 74
     0
 49
0.0255555560191472
 74
     0
 49
-0.0127777780095736
 74
     0
  0
LTYPE
  5
FA
330
5
100
AcDbSymbolTableRecord
100
AcDbLinetypeTableRecord
  2
AI-Linetype-8
 70
     0
  3
Adobe Illustrator Linetype No. 8
 72
    65
 73
     6
 40
0.1150000020861626
 49
0.0255555560191472
 74
     0
 49
-0.0127777780095736
 74
     0
 49
0.0255555560191472
 74
     0
 49
-0.0127777780095736
 74
     0
 49
0.0255555560191472
 74
     0
 49
-0.0127777780095736
 74
     0
  0
LTYPE
  5
103
330
5
100
AcDbSymbolTableRecord
100
AcDbLinetypeTableRecord
  2
AI-Linetype-9
 70
     0
  3
Adobe Illustrator Linetype No. 9
 72
    65
 73
     6
 40
0.1150000020861626
 49
0.0255555560191472
 74
     0
 49
-0.0127777780095736
 74
     0
 49
0.0255555560191472
 74
     0
 49
-0.0127777780095736
 74
     0
 49
0.0255555560191472
 74
     0
 49
-0.0127777780095736
 74
     0
  0
LTYPE
  5
10C
330
5
100
AcDbSymbolTableRecord
100
AcDbLinetypeTableRecord
  2
AI-Linetype-10
 70
     0
  3
Adobe Illustrator Linetype No. 10
 72
    65
 73
     6
 40
0.1150000020861626
 49
0.0255555560191472
 74
     0
 49
-0.0127777780095736
 74
     0
 49
0.0255555560191472
 74
     0
 49
-0.0127777780095736
 74
     0
 49
0.0255555560191472
 74
     0
 49
-0.0127777780095736
 74
     0
  0
ENDTAB
  0
TABLE
  2
LAYER
  5
2
330
0
100
AcDbSymbolTable
 70
     6
  0
LAYER
  5
10
330
2
100
AcDbSymbolTableRecord
100
AcDbLayerTableRecord
  2
0
 70
     0
 62
     7
  6
Continuous
370
    -3
390
F
347
3E
  0
LAYER
  5
40
330
2
100
AcDbSymbolTableRecord
100
AcDbLayerTableRecord
  2
Layer 1
 70
     0
 62
     7
  6
Continuous
370
    -3
390
F
347
3E
  0
LAYER
  5
AB
330
2
100
AcDbSymbolTableRecord
100
AcDbLayerTableRecord
  2
xsection
 70
     1
 62
     7
  6
Continuous
370
    -3
390
F
347
3E
  0
LAYER
  5
123
330
2
100
AcDbSymbolTableRecord
100
AcDbLayerTableRecord
  2
line
 70
     0
 62
     7
  6
Continuous
370
    -3
390
F
347
3E
  0
LAYER
  5
128
330
2
100
AcDbSymbolTableRecord
100
AcDbLayerTableRecord
  2
RR
 70
     0
 62
     7
  6
Continuous
370
    -3
390
F
347
3E
  0
LAYER
  5
17C
330
2
100
AcDbSymbolTableRecord
100
AcDbLayerTableRecord
  2
callouts
 70
     0
 62
     7
  6
Continuous
370
    -3
390
F
347
3E
  0
ENDTAB
  0
TABLE
  2
STYLE
  5
3
330
0
100
AcDbSymbolTable
 70
     1
  0
STYLE
  5
11
330
3
100
AcDbSymbolTableRecord
100
AcDbTextStyleTableRecord
  2
Standard
 70
     0
 40
0.0
 41
1.0
 50
0.0
 71
     0
 42
0.2
  3
txt
  4

  0
ENDTAB
  0
TABLE
  2
VIEW
  5
6
330
0
100
AcDbSymbolTable
 70
     0
  0
ENDTAB
  0
TABLE
  2
UCS
  5
7
330
0
100
AcDbSymbolTable
 70
     0
  0
ENDTAB
  0
TABLE
  2
APPID
  5
9
330
0
100
AcDbSymbolTable
 70
     1
  0
APPID
  5
12
330
9
100
AcDbSymbolTableRecord
100
AcDbRegAppTableRecord
  2
ACAD
 70
     0
  0
ENDTAB
  0
TABLE
  2
DIMSTYLE
  5
A
330
0
100
AcDbSymbolTable
 70
     1
100
AcDbDimStyleTable
  0
DIMSTYLE
105
27
330
A
100
AcDbSymbolTableRecord
100
AcDbDimStyleTableRecord
  2
Standard
 70
     0
178
     0
340
11
  0
ENDTAB
  0
TABLE
  2
BLOCK_RECORD
  5
1
330
0
100
AcDbSymbolTable
 70
     8
  0
BLOCK_RECORD
  5
1F
330
1
100
AcDbSymbolTableRecord
100
AcDbBlockTableRecord
  2
*Model_Space
340
22
 70
     0
280
     1
281
     0
  0
BLOCK_RECORD
  5
1B
330
1
100
AcDbSymbolTableRecord
100
AcDbBlockTableRecord
  2
*Paper_Space
340
1E
 70
     0
280
     1
281
     0
  0
BLOCK_RECORD
  5
23
330
1
100
AcDbSymbolTableRecord
100
AcDbBlockTableRecord
  2
*Paper_Space0
340
26
 70
     0
280
     1
281
     0
  0
BLOCK_RECORD
  5
B7
330
1
100
AcDbSymbolTableRecord
100
AcDbBlockTableRecord
  2
block 2
340
0
102
{BLKREFS
331
B8
102
}
 70
     0
280
     1
281
     0
  0
BLOCK_RECORD
  5
BB
330
1
100
AcDbSymbolTableRecord
100
AcDbBlockTableRecord
  2
block 3
340
0
102
{BLKREFS
331
BC
102
}
 70
     0
280
     1
281
     0
  0
BLOCK_RECORD
  5
BF
330
1
100
AcDbSymbolTableRecord
100
AcDbBlockTableRecord
  2
block 4
340
0
102
{BLKREFS
331
C0
102
}
 70
     0
280
     1
281
     0
  0
BLOCK_RECORD
  5
DE
330
1
100
AcDbSymbolTableRecord
100
AcDbBlockTableRecord
  2
block 5
340
0
102
{BLKREFS
331
DF
102
}
 70
     0
280
     1
281
     0
  0
BLOCK_RECORD
  5
10F
330
1
100
AcDbSymbolTableRecord
100
AcDbBlockTableRecord
  2
block 6
340
0
102
{BLKREFS
331
110
102
}
 70
     0
280
     1
281
     0
  0
BLOCK_RECORD
  5
113
330
1
100
AcDbSymbolTableRecord
100
AcDbBlockTableRecord
  2
block 7
340
0
102
{BLKREFS
331
114
102
}
 70
     0
280
     1
281
     0
  0
BLOCK_RECORD
  5
11B
330
1
100
AcDbSymbolTableRecord
100
AcDbBlockTableRecord
  2
block 8
340
0
102
{BLKREFS
331
11C
102
}
 70
     0
280
     1
281
     0
  0
ENDTAB
  0
ENDSEC
  0
SECTION
  2
BLOCKS
  0
BLOCK
  5
20
330
1F
100
AcDbEntity
  8
0
100
AcDbBlockBegin
  2
*Model_Space
 70
     0
 10
0.0
 20
0.0
 30
0.0
  3
*Model_Space
  1

  0
ENDBLK
  5
21
330
1F
100
AcDbEntity
  8
0
100
AcDbBlockEnd
  0
BLOCK
  5
1C
330
1B
100
AcDbEntity
 67
     1
  8
0
100
AcDbBlockBegin
  2
*Paper_Space
 70
     0
 10
0.0
 20
0.0
 30
0.0
  3
*Paper_Space
  1

  0
ENDBLK
  5
1D
330
1B
100
AcDbEntity
 67
     1
  8
0
100
AcDbBlockEnd
  0
BLOCK
  5
24
330
23
100
AcDbEntity
  8
0
100
AcDbBlockBegin
  2
*Paper_Space0
 70
     0
 10
0.0
 20
0.0
 30
0.0
  3
*Paper_Space0
  1

  0
ENDBLK
  5
25
330
23
100
AcDbEntity
  8
0
100
AcDbBlockEnd
  0
BLOCK
  5
B9
330
B7
100
AcDbEntity
  8
0
100
AcDbBlockBegin
  2
block 2
 70
     0
 10
0.0
 20
0.0
 30
0.0
  3
block 2
  1

  0
INSERT
  5
BC
330
B7
100
AcDbEntity
  8
xsection
100
AcDbBlockReference
  2
block 3
 10
0.0
 20
0.0
 30
0.0
  0
INSERT
  5
110
330
B7
100
AcDbEntity
  8
xsection
100
AcDbBlockReference
  2
block 6
 10
0.0
 20
0.0
 30
0.0
  0
ENDBLK
  5
BA
330
B7
100
AcDbEntity
  8
0
100
AcDbBlockEnd
  0
BLOCK
  5
BD
330
BB
100
AcDbEntity
  8
0
100
AcDbBlockBegin
  2
block 3
 70
     0
 10
0.0
 20
0.0
 30
0.0
  3
block 3
  1

  0
INSERT
  5
C0
330
BB
100
AcDbEntity
  8
xsection
100
AcDbBlockReference
  2
block 4
 10
0.0
 20
0.0
 30
0.0
  0
INSERT
  5
DF
330
BB
100
AcDbEntity
  8
xsection
100
AcDbBlockReference
  2
block 5
 10
0.0
 20
0.0
 30
0.0
  0
POLYLINE
  5
FD
330
BB
100
AcDbEntity
  8
xsection
  6
AI-Linetype-9
 62
   250
420
  2301728
370
    13
100
AcDb2dPolyline
 66
     1
 10
0.0
 20
0.0
 30
0.0
  0
VERTEX
  5
FE
330
FD
100
AcDbEntity
  8
xsection
  6
AI-Linetype-9
 62
   250
420
  2301728
370
    13
100
AcDbVertex
100
AcDb2dVertex
 10
1.403112464554397
 20
2.261073553991587
 30
0.0
  0
VERTEX
  5
FF
330
FD
100
AcDbEntity
  8
xsection
  6
AI-Linetype-9
 62
   250
420
  2301728
370
    13
100
AcDbVertex
100
AcDb2dVertex
 10
1.365508333333335
 20
2.382494384257572
 30
0.0
  0
VERTEX
  5
100
330
FD
100
AcDbEntity
  8
xsection
  6
AI-Linetype-9
 62
   250
420
  2301728
370
    13
100
AcDbVertex
100
AcDb2dVertex
 10
1.368877777777773
 20
2.398609661628244
 30
0.0
  0
VERTEX
  5
101
330
FD
100
AcDbEntity
  8
xsection
  6
AI-Linetype-9
 62
   250
420
  2301728
370
    13
100
AcDbVertex
100
AcDb2dVertex
 10
1.381343055555564
 20
2.386305555555559
 30
0.0
  0
VERTEX
  5
102
330
FD
100
AcDbEntity
  8
xsection
  6
AI-Linetype-9
 62
   250
420
  2301728
370
    13
100
AcDbVertex
100
AcDb2dVertex
 10
1.424375000000004
 20
2.269091609344589
 30
0.0
  0
SEQEND
  5
105
330
FD
100
AcDbEntity
  8
xsection
  6
AI-Linetype-9
 62
   250
420
  2301728
370
    13
  0
HATCH
  5
104
330
BB
100
AcDbEntity
  8
xsection
 62
   254
420
 16376262
100
AcDbHatch
 10
0.0
 20
0.0
 30
0.0
210
0.0
220
0.0
230
1.0
  2
SOLID
 70
     1
 71
     0
 91
        1
 92
        1
 93
        5
 72
     1
 10
1.403112464554397
 20
2.261073553991587
 11
1.365508333333335
 21
2.382494384257572
 72
     1
 10
1.365508333333335
 20
2.382494384257572
 11
1.368877777777773
 21
2.398609661628244
 72
     1
 10
1.368877777777773
 20
2.398609661628244
 11
1.381343055555564
 21
2.386305555555559
 72
     1
 10
1.381343055555564
 20
2.386305555555559
 11
1.424375000000004
 21
2.269091609344589
 72
     1
 10
1.424375000000004
 20
2.269091609344589
 11
1.403112464554397
 21
2.261073553991587
 97
        0
 75
     2
 76
     1
 98
        0
  0
POLYLINE
  5
106
330
BB
100
AcDbEntity
  8
xsection
  6
AI-Linetype-10
 62
   250
420
  2301728
370
    13
100
AcDb2dPolyline
 66
     1
 10
0.0
 20
0.0
 30
0.0
  0
VERTEX
  5
107
330
106
100
AcDbEntity
  8
xsection
  6
AI-Linetype-10
 62
   250
420
  2301728
370
    13
100
AcDbVertex
100
AcDb2dVertex
 10
1.404016631198222
 20
1.972148561290447
 30
0.0
  0
VERTEX
  5
108
330
106
100
AcDbEntity
  8
xsection
  6
AI-Linetype-10
 62
   250
420
  2301728
370
    13
100
AcDbVertex
100
AcDb2dVertex
 10
1.365683333333335
 20
2.119093002022762
 30
0.0
  0
VERTEX
  5
109
330
106
100
AcDbEntity
  8
xsection
  6
AI-Linetype-10
 62
   250
420
  2301728
370
    13
100
AcDbVertex
100
AcDb2dVertex
 10
1.369676388888896
 20
2.135065223841492
 30
0.0
  0
VERTEX
  5
10A
330
106
100
AcDbEntity
  8
xsection
  6
AI-Linetype-10
 62
   250
420
  2301728
370
    13
100
AcDbVertex
100
AcDb2dVertex
 10
1.381655555555552
 20
2.122287446386508
 30
0.0
  0
VERTEX
  5
10B
330
106
100
AcDbEntity
  8
xsection
  6
AI-Linetype-10
 62
   250
420
  2301728
370
    13
100
AcDbVertex
100
AcDb2dVertex
 10
1.425579130653508
 20
1.979336061108875
 30
0.0
  0
SEQEND
  5
10E
330
106
100
AcDbEntity
  8
xsection
  6
AI-Linetype-10
 62
   250
420
  2301728
370
    13
  0
HATCH
  5
10D
330
BB
100
AcDbEntity
  8
xsection
 62
   254
420
 16376262
100
AcDbHatch
 10
0.0
 20
0.0
 30
0.0
210
0.0
220
0.0
230
1.0
  2
SOLID
 70
     1
 71
     0
 91
        1
 92
        1
 93
        5
 72
     1
 10
1.404016631198222
 20
1.972148561290447
 11
1.365683333333335
 21
2.119093002022762
 72
     1
 10
1.365683333333335
 20
2.119093002022762
 11
1.369676388888896
 21
2.135065223841492
 72
     1
 10
1.369676388888896
 20
2.135065223841492
 11
1.381655555555552
 21
2.122287446386508
 72
     1
 10
1.381655555555552
 20
2.122287446386508
 11
1.425579130653508
 21
1.979336061108875
 72
     1
 10
1.425579130653508
 20
1.979336061108875
 11
1.404016631198222
 21
1.972148561290447
 97
        0
 75
     2
 76
     1
 98
        0
  0
ENDBLK
  5
BE
330
BB
100
AcDbEntity
  8
0
100
AcDbBlockEnd
  0
BLOCK
  5
C1
330
BF
100
AcDbEntity
  8
0
100
AcDbBlockBegin
  2
block 4
 70
     0
 10
0.0
 20
0.0
 30
0.0
  3
block 4
  1

  0
POLYLINE
  5
C3
330
BF
100
AcDbEntity
  8
xsection
  6
AI-Linetype-3
 62
   250
420
  2301728
370
    13
100
AcDb2dPolyline
 66
     1
 10
0.0
 20
0.0
 30
0.0
  0
VERTEX
  5
C4
330
C3
100
AcDbEntity
  8
xsection
  6
AI-Linetype-3
 62
   250
420
  2301728
370
    13
100
AcDbVertex
100
AcDb2dVertex
 10
1.387856944444441
 20
2.305892997303797
 30
0.0
  0
VERTEX
  5
C5
330
C3
100
AcDbEntity
  8
xsection
  6
AI-Linetype-3
 62
   250
420
  2301728
370
    13
100
AcDbVertex
100
AcDb2dVertex
 10
1.19285555555555
 20
2.295398553124452
 30
0.0
  0
VERTEX
  5
C6
330
C3
100
AcDbEntity
  8
xsection
  6
AI-Linetype-3
 62
   250
420
  2301728
370
    13
100
AcDbVertex
100
AcDb2dVertex
 10
1.191395833333331
 20
2.312905497126647
 30
0.0
  0
VERTEX
  5
C7
330
C3
100
AcDbEntity
  8
xsection
  6
AI-Linetype-3
 62
   250
420
  2301728
370
    13
100
AcDbVertex
100
AcDb2dVertex
 10
1.383265277777784
 20
2.323237441310084
 30
0.0
  0
VERTEX
  5
C8
330
C3
100
AcDbEntity
  8
xsection
  6
AI-Linetype-3
 62
   250
420
  2301728
370
    13
100
AcDbVertex
100
AcDb2dVertex
 10
1.387856944444441
 20
2.305892997303797
 30
0.0
  0
SEQEND
  5
CB
330
C3
100
AcDbEntity
  8
xsection
  6
AI-Linetype-3
 62
   250
420
  2301728
370
    13
  0
HATCH
  5
CA
330
BF
100
AcDbEntity
  8
xsection
 62
   254
420
 16376262
100
AcDbHatch
 10
0.0
 20
0.0
 30
0.0
210
0.0
220
0.0
230
1.0
  2
SOLID
 70
     1
 71
     0
 91
        1
 92
        1
 93
        4
 72
     1
 10
1.387856944444441
 20
2.305892997303797
 11
1.19285555555555
 21
2.295398553124452
 72
     1
 10
1.19285555555555
 20
2.295398553124452
 11
1.191395833333331
 21
2.312905497126647
 72
     1
 10
1.191395833333331
 20
2.312905497126647
 11
1.383265277777784
 21
2.323237441310084
 72
     1
 10
1.383265277777784
 20
2.323237441310084
 11
1.387856944444441
 21
2.305892997303797
 97
        0
 75
     2
 76
     1
 98
        0
  0
POLYLINE
  5
CC
330
BF
100
AcDbEntity
  8
xsection
  6
AI-Linetype-4
 62
   250
420
  2301728
370
    13
100
AcDb2dPolyline
 66
     1
 10
0.0
 20
0.0
 30
0.0
  0
VERTEX
  5
CD
330
CC
100
AcDbEntity
  8
xsection
  6
AI-Linetype-4
 62
   250
420
  2301728
370
    13
100
AcDbVertex
100
AcDb2dVertex
 10
1.193856944444443
 20
2.280683275718426
 30
0.0
  0
VERTEX
  5
CE
330
CC
100
AcDbEntity
  8
xsection
  6
AI-Linetype-4
 62
   250
420
  2301728
370
    13
100
AcDbVertex
100
AcDb2dVertex
 10
1.182295833333329
 20
2.2800346646237
 30
0.0
  0
VERTEX
  5
CF
330
CC
100
AcDbEntity
  8
xsection
  6
AI-Linetype-4
 62
   250
420
  2301728
370
    13
100
AcDbVertex
100
AcDb2dVertex
 10
1.179656944444446
 20
2.327015218992427
 30
0.0
  0
VERTEX
  5
D0
330
CC
100
AcDbEntity
  8
xsection
  6
AI-Linetype-4
 62
   250
420
  2301728
370
    13
100
AcDbVertex
100
AcDb2dVertex
 10
1.19121805555556
 20
2.327663830087153
 30
0.0
  0
VERTEX
  5
D1
330
CC
100
AcDbEntity
  8
xsection
  6
AI-Linetype-4
 62
   250
420
  2301728
370
    13
100
AcDbVertex
100
AcDb2dVertex
 10
1.193856944444443
 20
2.280683275718426
 30
0.0
  0
SEQEND
  5
D4
330
CC
100
AcDbEntity
  8
xsection
  6
AI-Linetype-4
 62
   250
420
  2301728
370
    13
  0
HATCH
  5
D3
330
BF
100
AcDbEntity
  8
xsection
 62
   254
420
 16376262
100
AcDbHatch
 10
0.0
 20
0.0
 30
0.0
210
0.0
220
0.0
230
1.0
  2
SOLID
 70
     1
 71
     0
 91
        1
 92
        1
 93
        4
 72
     1
 10
1.193856944444443
 20
2.280683275718426
 11
1.182295833333329
 21
2.2800346646237
 72
     1
 10
1.182295833333329
 20
2.2800346646237
 11
1.179656944444446
 21
2.327015218992427
 72
     1
 10
1.179656944444446
 20
2.327015218992427
 11
1.19121805555556
 21
2.327663830087153
 72
     1
 10
1.19121805555556
 20
2.327663830087153
 11
1.193856944444443
 21
2.280683275718426
 97
        0
 75
     2
 76
     1
 98
        0
  0
POLYLINE
  5
D5
330
BF
100
AcDbEntity
  8
xsection
  6
AI-Linetype-5
 62
   250
420
  2301728
370
    13
100
AcDb2dPolyline
 66
     1
 10
0.0
 20
0.0
 30
0.0
  0
VERTEX
  5
D6
330
D5
100
AcDbEntity
  8
xsection
  6
AI-Linetype-5
 62
   250
420
  2301728
370
    13
100
AcDbVertex
100
AcDb2dVertex
 10
1.405606908935826
 20
2.324494385722776
 30
0.0
  0
VERTEX
  5
D7
330
D5
100
AcDbEntity
  8
xsection
  6
AI-Linetype-5
 62
   250
420
  2301728
370
    13
100
AcDbVertex
100
AcDb2dVertex
 10
1.429434686111664
 20
2.325830496800134
 30
0.0
  0
VERTEX
  5
D8
330
D5
100
AcDbEntity
  8
xsection
  6
AI-Linetype-5
 62
   250
420
  2301728
370
    13
100
AcDbVertex
100
AcDb2dVertex
 10
1.46102357420255
 20
2.318805555555552
 30
0.0
  0
VERTEX
  5
D9
330
D5
100
AcDbEntity
  8
xsection
  6
AI-Linetype-5
 62
   250
420
  2301728
370
    13
100
AcDbVertex
100
AcDb2dVertex
 10
1.429622186106927
 20
2.308241608355577
 30
0.0
  0
VERTEX
  5
DA
330
D5
100
AcDbEntity
  8
xsection
  6
AI-Linetype-5
 62
   250
420
  2301728
370
    13
100
AcDbVertex
100
AcDb2dVertex
 10
1.411279131014756
 20
2.307212441714922
 30
0.0
  0
SEQEND
  5
DD
330
D5
100
AcDbEntity
  8
xsection
  6
AI-Linetype-5
 62
   250
420
  2301728
370
    13
  0
HATCH
  5
DC
330
BF
100
AcDbEntity
  8
xsection
 62
   254
420
 16376262
100
AcDbHatch
 10
0.0
 20
0.0
 30
0.0
210
0.0
220
0.0
230
1.0
  2
SOLID
 70
     1
 71
     0
 91
        1
 92
        1
 93
        5
 72
     1
 10
1.405606908935826
 20
2.324494385722776
 11
1.429434686111664
 21
2.325830496800134
 72
     1
 10
1.429434686111664
 20
2.325830496800134
 11
1.46102357420255
 21
2.318805555555552
 72
     1
 10
1.46102357420255
 20
2.318805555555552
 11
1.429622186106927
 21
2.308241608355577
 72
     1
 10
1.429622186106927
 20
2.308241608355577
 11
1.411279131014756
 21
2.307212441714922
 72
     1
 10
1.411279131014756
 20
2.307212441714922
 11
1.405606908935826
 21
2.324494385722776
 97
        0
 75
     2
 76
     1
 98
        0
  0
ENDBLK
  5
C2
330
BF
100
AcDbEntity
  8
0
100
AcDbBlockEnd
  0
BLOCK
  5
E0
330
DE
100
AcDbEntity
  8
0
100
AcDbBlockBegin
  2
block 5
 70
     0
 10
0.0
 20
0.0
 30
0.0
  3
block 5
  1

  0
POLYLINE
  5
E2
330
DE
100
AcDbEntity
  8
xsection
  6
AI-Linetype-6
 62
   250
420
  2301728
370
    13
100
AcDb2dPolyline
 66
     1
 10
0.0
 20
0.0
 30
0.0
  0
VERTEX
  5
E3
330
E2
100
AcDbEntity
  8
xsection
  6
AI-Linetype-6
 62
   250
420
  2301728
370
    13
100
AcDbVertex
100
AcDb2dVertex
 10
1.201362499999997
 20
1.979223561111717
 30
0.0
  0
VERTEX
  5
E4
330
E2
100
AcDbEntity
  8
xsection
  6
AI-Linetype-6
 62
   250
420
  2301728
370
    13
100
AcDbVertex
100
AcDb2dVertex
 10
1.18984444444445
 20
1.978024950030886
 30
0.0
  0
VERTEX
  5
E5
330
E2
100
AcDbEntity
  8
xsection
  6
AI-Linetype-6
 62
   250
420
  2301728
370
    13
100
AcDbVertex
100
AcDb2dVertex
 10
1.184959722222225
 20
2.024819444444448
 30
0.0
  0
VERTEX
  5
E6
330
E2
100
AcDbEntity
  8
xsection
  6
AI-Linetype-6
 62
   250
420
  2301728
370
    13
100
AcDbVertex
100
AcDb2dVertex
 10
1.196477777777773
 20
2.026029115484865
 30
0.0
  0
VERTEX
  5
E7
330
E2
100
AcDbEntity
  8
xsection
  6
AI-Linetype-6
 62
   250
420
  2301728
370
    13
100
AcDbVertex
100
AcDb2dVertex
 10
1.201362499999997
 20
1.979223561111717
 30
0.0
  0
SEQEND
  5
EA
330
E2
100
AcDbEntity
  8
xsection
  6
AI-Linetype-6
 62
   250
420
  2301728
370
    13
  0
HATCH
  5
E9
330
DE
100
AcDbEntity
  8
xsection
 62
   254
420
 16376262
100
AcDbHatch
 10
0.0
 20
0.0
 30
0.0
210
0.0
220
0.0
230
1.0
  2
SOLID
 70
     1
 71
     0
 91
        1
 92
        1
 93
        4
 72
     1
 10
1.201362499999997
 20
1.979223561111717
 11
1.18984444444445
 21
1.978024950030886
 72
     1
 10
1.18984444444445
 20
1.978024950030886
 11
1.184959722222225
 21
2.024819444444448
 72
     1
 10
1.184959722222225
 20
2.024819444444448
 11
1.196477777777773
 21
2.026029115484865
 72
     1
 10
1.196477777777773
 20
2.026029115484865
 11
1.201362499999997
 21
1.979223561111717
 97
        0
 75
     2
 76
     1
 98
        0
  0
POLYLINE
  5
EB
330
DE
100
AcDbEntity
  8
xsection
  6
AI-Linetype-7
 62
   250
420
  2301728
370
    13
100
AcDb2dPolyline
 66
     1
 10
0.0
 20
0.0
 30
0.0
  0
VERTEX
  5
EC
330
EB
100
AcDbEntity
  8
xsection
  6
AI-Linetype-7
 62
   250
420
  2301728
370
    13
100
AcDbVertex
100
AcDb2dVertex
 10
1.389584687118359
 20
2.030920782027958
 30
0.0
  0
VERTEX
  5
ED
330
EB
100
AcDbEntity
  8
xsection
  6
AI-Linetype-7
 62
   250
420
  2301728
370
    13
100
AcDbVertex
100
AcDb2dVertex
 10
1.197231944444449
 20
2.011666666666668
 30
0.0
  0
VERTEX
  5
EE
330
EB
100
AcDbEntity
  8
xsection
  6
AI-Linetype-7
 62
   250
420
  2301728
370
    13
100
AcDbVertex
100
AcDb2dVertex
 10
1.200148611111116
 20
1.993430555555556
 30
0.0
  0
VERTEX
  5
EF
330
EB
100
AcDbEntity
  8
xsection
  6
AI-Linetype-7
 62
   250
420
  2301728
370
    13
100
AcDbVertex
100
AcDb2dVertex
 10
1.393634687016048
 20
2.013669393574876
 30
0.0
  0
VERTEX
  5
F0
330
EB
100
AcDbEntity
  8
xsection
  6
AI-Linetype-7
 62
   250
420
  2301728
370
    13
100
AcDbVertex
100
AcDb2dVertex
 10
1.389584687118359
 20
2.030920782027958
 30
0.0
  0
SEQEND
  5
F3
330
EB
100
AcDbEntity
  8
xsection
  6
AI-Linetype-7
 62
   250
420
  2301728
370
    13
  0
HATCH
  5
F2
330
DE
100
AcDbEntity
  8
xsection
 62
   254
420
 16376262
100
AcDbHatch
 10
0.0
 20
0.0
 30
0.0
210
0.0
220
0.0
230
1.0
  2
SOLID
 70
     1
 71
     0
 91
        1
 92
        1
 93
        4
 72
     1
 10
1.389584687118359
 20
2.030920782027958
 11
1.197231944444449
 21
2.011666666666668
 72
     1
 10
1.197231944444449
 20
2.011666666666668
 11
1.200148611111116
 21
1.993430555555556
 72
     1
 10
1.200148611111116
 20
1.993430555555556
 11
1.393634687016048
 21
2.013669393574876
 72
     1
 10
1.393634687016048
 20
2.013669393574876
 11
1.389584687118359
 21
2.030920782027958
 97
        0
 75
     2
 76
     1
 98
        0
  0
POLYLINE
  5
F4
330
DE
100
AcDbEntity
  8
xsection
  6
AI-Linetype-8
 62
   250
420
  2301728
370
    13
100
AcDb2dPolyline
 66
     1
 10
0.0
 20
0.0
 30
0.0
  0
VERTEX
  5
F5
330
F4
100
AcDbEntity
  8
xsection
  6
AI-Linetype-8
 62
   250
420
  2301728
370
    13
100
AcDbVertex
100
AcDb2dVertex
 10
1.40966246438893
 20
2.033023559752615
 30
0.0
  0
VERTEX
  5
F6
330
F4
100
AcDbEntity
  8
xsection
  6
AI-Linetype-8
 62
   250
420
  2301728
370
    13
100
AcDbVertex
100
AcDb2dVertex
 10
1.434506908205751
 20
2.035612448576103
 30
0.0
  0
VERTEX
  5
F7
330
F4
100
AcDbEntity
  8
xsection
  6
AI-Linetype-8
 62
   250
420
  2301728
370
    13
100
AcDbVertex
100
AcDb2dVertex
 10
1.466395796289059
 20
2.030104115381921
 30
0.0
  0
VERTEX
  5
F8
330
F4
100
AcDbEntity
  8
xsection
  6
AI-Linetype-8
 62
   250
420
  2301728
370
    13
100
AcDbVertex
100
AcDb2dVertex
 10
1.435536074846419
 20
2.018049949019769
 30
0.0
  0
VERTEX
  5
F9
330
F4
100
AcDbEntity
  8
xsection
  6
AI-Linetype-8
 62
   250
420
  2301728
370
    13
100
AcDbVertex
100
AcDb2dVertex
 10
1.41433051982656
 20
2.015834671297954
 30
0.0
  0
SEQEND
  5
FC
330
F4
100
AcDbEntity
  8
xsection
  6
AI-Linetype-8
 62
   250
420
  2301728
370
    13
  0
HATCH
  5
FB
330
DE
100
AcDbEntity
  8
xsection
 62
   254
420
 16376262
100
AcDbHatch
 10
0.0
 20
0.0
 30
0.0
210
0.0
220
0.0
230
1.0
  2
SOLID
 70
     1
 71
     0
 91
        1
 92
        1
 93
        5
 72
     1
 10
1.40966246438893
 20
2.033023559752615
 11
1.434506908205751
 21
2.035612448576103
 72
     1
 10
1.434506908205751
 20
2.035612448576103
 11
1.466395796289059
 21
2.030104115381922
 72
     1
 10
1.466395796289059
 20
2.030104115381921
 11
1.435536074846419
 21
2.018049949019769
 72
     1
 10
1.435536074846419
 20
2.018049949019769
 11
1.41433051982656
 21
2.015834671297954
 72
     1
 10
1.41433051982656
 20
2.015834671297954
 11
1.40966246438893
 21
2.033023559752615
 97
        0
 75
     2
 76
     1
 98
        0
  0
ENDBLK
  5
E1
330
DE
100
AcDbEntity
  8
0
100
AcDbBlockEnd
  0
BLOCK
  5
111
330
10F
100
AcDbEntity
  8
0
100
AcDbBlockBegin
  2
block 6
 70
     0
 10
0.0
 20
0.0
 30
0.0
  3
block 6
  1

  0
INSERT
  5
114
330
10F
100
AcDbEntity
  8
xsection
100
AcDbBlockReference
  2
block 7
 10
0.0
 20
0.0
 30
0.0
  0
INSERT
  5
11C
330
10F
100
AcDbEntity
  8
xsection
100
AcDbBlockReference
  2
block 8
 10
0.0
 20
0.0
 30
0.0
  0
ENDBLK
  5
112
330
10F
100
AcDbEntity
  8
0
100
AcDbBlockEnd
  0
BLOCK
  5
115
330
113
100
AcDbEntity
  8
0
100
AcDbBlockBegin
  2
block 7
 70
     0
 10
0.0
 20
0.0
 30
0.0
  3
block 7
  1

  0
SPLINE
  5
117
330
113
100
AcDbEntity
  8
xsection
 62
   250
420
  2301728
370
    15
100
AcDbSpline
210
0.0
220
0.0
230
1.0
 70
    11
 71
     3
 72
    23
 73
    19
 74
     0
 42
0.0000000001
 43
0.0000000001
 12
1.0
 22
0.0
 32
0.0
 13
1.0
 23
0.0
 33
0.0
 40
0.0
 40
0.0
 40
0.0
 40
0.0
 40
1.0
 40
1.0
 40
1.0
 40
2.0
 40
2.0
 40
2.0
 40
3.0
 40
3.0
 40
3.0
 40
4.0
 40
4.0
 40
4.0
 40
5.0
 40
5.0
 40
5.0
 40
6.0
 40
6.0
 40
6.0
 40
6.0
 10
1.443591630198474
 20
1.955863839479611
 30
0.0
 10
1.446149963467178
 20
1.946205506390268
 30
0.0
 10
1.439011074758633
 20
1.935923562205567
 30
0.0
 10
1.427644408379112
 20
1.932916666666668
 30
0.0
 10
1.416270797555323
 20
1.929909673468602
 30
0.0
 10
1.404977742285054
 20
1.935319444444442
 30
0.0
 10
1.402419409016349
 20
1.944970784199237
 30
0.0
 10
1.402419409016349
 20
1.944970784199237
 30
0.0
 10
1.400759686836055
 20
1.95052356183674
 30
0.0
 10
1.400759686836055
 20
1.95052356183674
 30
0.0
 10
1.398208333333337
 20
1.960194444444445
 30
0.0
 10
1.405351353386727
 20
1.970469394666199
 30
0.0
 10
1.416719408655101
 20
1.973483283478938
 30
0.0
 10
1.42809301947889
 20
1.976490227847433
 30
0.0
 10
1.439380519193744
 20
1.971087450206142
 30
0.0
 10
1.441937463573595
 20
1.961429117116785
 30
0.0
 10
1.441937463573595
 20
1.961429117116785
 30
0.0
 10
1.443591630198474
 20
1.955863839479611
 30
0.0
 10
1.443591630198474
 20
1.955863839479611
 30
0.0
  0
HATCH
  5
118
330
113
100
AcDbEntity
  8
xsection
 62
   254
420
 13358815
100
AcDbHatch
 10
0.0
 20
0.0
 30
0.0
210
0.0
220
0.0
230
1.0
  2
SOLID
 70
     1
 71
     0
 91
        1
 92
        1
 93
        1
 72
     4
 94
        3
 73
     0
 74
     1
 95
       23
 96
       19
 40
0.0
 40
0.0
 40
0.0
 40
0.0
 40
1.0
 40
1.0
 40
1.0
 40
2.0
 40
2.0
 40
2.0
 40
3.0
 40
3.0
 40
3.0
 40
4.0
 40
4.0
 40
4.0
 40
5.0
 40
5.0
 40
5.0
 40
6.0
 40
6.0
 40
6.0
 40
6.0
 10
1.443591630198474
 20
1.955863839479611
 10
1.446149963467178
 20
1.946205506390268
 10
1.439011074758633
 20
1.935923562205567
 10
1.427644408379112
 20
1.932916666666668
 10
1.416270797555323
 20
1.929909673468602
 10
1.404977742285054
 20
1.935319444444442
 10
1.402419409016349
 20
1.944970784199237
 10
1.402419409016349
 20
1.944970784199237
 10
1.400759686836055
 20
1.95052356183674
 10
1.400759686836055
 20
1.95052356183674
 10
1.398208333333337
 20
1.960194444444445
 10
1.405351353386727
 20
1.970469394666199
 10
1.416719408655101
 20
1.973483283478938
 10
1.42809301947889
 20
1.976490227847433
 10
1.439380519193744
 20
1.971087450206142
 10
1.441937463573595
 20
1.961429117116785
 10
1.441937463573595
 20
1.961429117116785
 10
1.443591630198474
 20
1.955863839479611
 10
1.443591630198474
 20
1.955863839479611
 97
        0
 97
        0
 75
     2
 76
     1
 98
        0
  0
SPLINE
  5
119
330
113
100
AcDbEntity
  8
xsection
 62
   250
420
  2301728
370
     9
100
AcDbSpline
210
0.0
220
0.0
230
1.0
 70
     8
 71
     3
 72
    11
 73
     7
 74
     0
 42
0.0000000001
 43
0.0000000001
 12
1.0
 22
0.0
 32
0.0
 13
1.0
 23
0.0
 33
0.0
 40
0.0
 40
0.0
 40
0.0
 40
0.0
 40
1.0
 40
1.0
 40
1.0
 40
2.0
 40
2.0
 40
2.0
 40
2.0
 10
1.403886075645965
 20
1.945033284197658
 30
0.0
 10
1.401515242372524
 20
1.954016617304054
 30
0.0
 10
1.408152777777786
 20
1.963574950395911
 30
0.0
 10
1.418734686381969
 20
1.966377728102897
 30
0.0
 10
1.429304130559406
 20
1.969165228032479
 30
0.0
 10
1.439804130294154
 20
1.964162450381082
 30
0.0
 10
1.442180555555549
 20
1.955165228386148
 30
0.0
  0
HATCH
  5
11A
330
113
100
AcDbEntity
  8
xsection
 62
   254
420
 13358815
100
AcDbHatch
 10
0.0
 20
0.0
 30
0.0
210
0.0
220
0.0
230
1.0
  2
SOLID
 70
     1
 71
     0
 91
        1
 92
        1
 93
        2
 72
     4
 94
        3
 73
     0
 74
     0
 95
       11
 96
        7
 40
0.0
 40
0.0
 40
0.0
 40
0.0
 40
0.0138888888888889
 40
0.0138888888888889
 40
0.0138888888888889
 40
0.0277777777777778
 40
0.0277777777777778
 40
0.0277777777777778
 40
0.0277777777777778
 10
1.403886075645965
 20
1.945033284197658
 10
1.401515242372524
 20
1.954016617304054
 10
1.408152777777786
 20
1.963574950395911
 10
1.418734686381969
 20
1.966377728102897
 10
1.429304130559406
 20
1.969165228032479
 10
1.439804130294154
 20
1.964162450381082
 10
1.442180555555549
 20
1.955165228386148
 97
        0
 72
     1
 10
1.442180555555549
 20
1.955165228386148
 11
1.403886075645965
 21
1.945033284197658
 97
        0
 75
     2
 76
     1
 98
        0
  0
ENDBLK
  5
116
330
113
100
AcDbEntity
  8
0
100
AcDbBlockEnd
  0
BLOCK
  5
11D
330
11B
100
AcDbEntity
  8
0
100
AcDbBlockBegin
  2
block 8
 70
     0
 10
0.0
 20
0.0
 30
0.0
  3
block 8
  1

  0
SPLINE
  5
11F
330
11B
100
AcDbEntity
  8
xsection
 62
   250
420
  2301728
370
    15
100
AcDbSpline
210
0.0
220
0.0
230
1.0
 70
    11
 71
     3
 72
    23
 73
    19
 74
     0
 42
0.0000000001
 43
0.0000000001
 12
1.0
 22
0.0
 32
0.0
 13
1.0
 23
0.0
 33
0.0
 40
0.0
 40
0.0
 40
0.0
 40
0.0
 40
1.0
 40
1.0
 40
1.0
 40
2.0
 40
2.0
 40
2.0
 40
3.0
 40
3.0
 40
3.0
 40
4.0
 40
4.0
 40
4.0
 40
5.0
 40
5.0
 40
5.0
 40
6.0
 40
6.0
 40
6.0
 40
6.0
 10
1.443286074650637
 20
2.246340221030449
 30
0.0
 10
1.446218019021014
 20
2.236788832382849
 30
0.0
 10
1.439486111111111
 20
2.226230499316241
 30
0.0
 10
1.428243019475101
 20
2.222787443847665
 30
0.0
 10
1.416994408648154
 20
2.219342999490234
 30
0.0
 10
1.405501353382937
 20
2.224309666031432
 30
0.0
 10
1.402569444444453
 20
2.233855499123605
 30
0.0
 10
1.402569444444453
 20
2.233855499123605
 30
0.0
 10
1.400697186837634
 20
2.239333333333333
 30
0.0
 10
1.400697186837634
 20
2.239333333333333
 30
0.0
 10
1.397770798022672
 20
2.248898554299153
 30
0.0
 10
1.404509686741322
 20
2.25944577625493
 30
0.0
 10
1.415752742012854
 20
2.262898553945484
 30
0.0
 10
1.427001352839802
 20
2.266348553858329
 30
0.0
 10
1.438487463660749
 20
2.261386053983693
 30
0.0
 10
1.44142079691998
 20
2.251834665336092
 30
0.0
 10
1.44142079691998
 20
2.251834665336092
 30
0.0
 10
1.443286074650637
 20
2.246340221030449
 30
0.0
 10
1.443286074650637
 20
2.246340221030449
 30
0.0
  0
HATCH
  5
120
330
11B
100
AcDbEntity
  8
xsection
 62
   254
420
 13358815
100
AcDbHatch
 10
0.0
 20
0.0
 30
0.0
210
0.0
220
0.0
230
1.0
  2
SOLID
 70
     1
 71
     0
 91
        1
 92
        1
 93
        1
 72
     4
 94
        3
 73
     0
 74
     1
 95
       23
 96
       19
 40
0.0
 40
0.0
 40
0.0
 40
0.0
 40
1.0
 40
1.0
 40
1.0
 40
2.0
 40
2.0
 40
2.0
 40
3.0
 40
3.0
 40
3.0
 40
4.0
 40
4.0
 40
4.0
 40
5.0
 40
5.0
 40
5.0
 40
6.0
 40
6.0
 40
6.0
 40
6.0
 10
1.443286074650637
 20
2.246340221030449
 10
1.446218019021014
 20
2.236788832382849
 10
1.439486111111111
 20
2.226230499316241
 10
1.428243019475101
 20
2.222787443847665
 10
1.416994408648154
 20
2.219342999490234
 10
1.405501353382937
 20
2.224309666031432
 10
1.402569444444453
 20
2.233855499123605
 10
1.402569444444453
 20
2.233855499123605
 10
1.400697186837634
 20
2.239333333333333
 10
1.400697186837634
 20
2.239333333333333
 10
1.397770798022672
 20
2.248898554299153
 10
1.404509686741322
 20
2.25944577625493
 10
1.415752742012854
 20
2.262898553945484
 10
1.427001352839802
 20
2.266348553858329
 10
1.438487463660749
 20
2.261386053983693
 10
1.44142079691998
 20
2.251834665336092
 10
1.44142079691998
 20
2.251834665336092
 10
1.443286074650637
 20
2.246340221030449
 10
1.443286074650637
 20
2.246340221030449
 97
        0
 97
        0
 75
     2
 76
     1
 98
        0
  0
SPLINE
  5
121
330
11B
100
AcDbEntity
  8
xsection
 62
   250
420
  2301728
370
     9
100
AcDbSpline
210
0.0
220
0.0
230
1.0
 70
     8
 71
     3
 72
    11
 73
     7
 74
     0
 42
0.0000000001
 43
0.0000000001
 12
1.0
 22
0.0
 32
0.0
 13
1.0
 23
0.0
 33
0.0
 40
0.0
 40
0.0
 40
0.0
 40
0.0
 40
1.0
 40
1.0
 40
1.0
 40
2.0
 40
2.0
 40
2.0
 40
2.0
 10
1.404034686753322
 20
2.233967999120776
 30
0.0
 10
1.401315242377576
 20
2.242852721118551
 30
0.0
 10
1.407579131108226
 20
2.252666666666667
 30
0.0
 10
1.418041666666669
 20
2.255876331900658
 30
0.0
 10
1.428493019468785
 20
2.259074942930978
 30
0.0
 10
1.439180555555544
 20
2.25448188749144
 30
0.0
 10
1.441906908018811
 20
2.24558466549398
 30
0.0
  0
HATCH
  5
122
330
11B
100
AcDbEntity
  8
xsection
 62
   254
420
 13358815
100
AcDbHatch
 10
0.0
 20
0.0
 30
0.0
210
0.0
220
0.0
230
1.0
  2
SOLID
 70
     1
 71
     0
 91
        1
 92
        1
 93
        2
 72
     4
 94
        3
 73
     0
 74
     0
 95
       11
 96
        7
 40
0.0
 40
0.0
 40
0.0
 40
0.0
 40
0.0138888888888889
 40
0.0138888888888889
 40
0.0138888888888889
 40
0.0277777777777778
 40
0.0277777777777778
 40
0.0277777777777778
 40
0.0277777777777778
 10
1.404034686753322
 20
2.233967999120776
 10
1.401315242377576
 20
2.242852721118551
 10
1.407579131108226
 20
2.252666666666667
 10
1.418041666666669
 20
2.255876331900658
 10
1.428493019468785
 20
2.259074942930978
 10
1.439180555555544
 20
2.25448188749144
 10
1.441906908018811
 20
2.24558466549398
 97
        0
 72
     1
 10
1.441906908018811
 20
2.24558466549398
 11
1.404034686753322
 21
2.233967999120776
 97
        0
 75
     2
 76
     1
 98
        0
  0
ENDBLK
  5
11E
330
11B
100
AcDbEntity
  8
0
100
AcDbBlockEnd
  0
ENDSEC
  0
SECTION
  2
ENTITIES
  0
POLYLINE
  5
41
330
1F
100
AcDbEntity
  8
Layer 1
 62
     7
420
 16777215
370
    30
100
AcDb2dPolyline
 66
     1
 10
0.0
 20
0.0
 30
0.0
  0
VERTEX
  5
42
330
41
100
AcDbEntity
  8
Layer 1
 62
     7
420
 16777215
370
    30
100
AcDbVertex
100
AcDb2dVertex
 10
1.411646950832897
 20
3.113154381401791
 30
0.0
  0
VERTEX
  5
43
330
41
100
AcDbEntity
  8
Layer 1
 62
     7
420
 16777215
370
    30
100
AcDbVertex
100
AcDb2dVertex
 10
2.304153146631506
 20
3.130923808629948
 30
0.0
  0
VERTEX
  5
44
330
41
100
AcDbEntity
  8
Layer 1
 62
     7
420
 16777215
370
    30
100
AcDbVertex
100
AcDb2dVertex
 10
2.572610480008456
 20
2.986916772387594
 30
0.0
  0
VERTEX
  5
45
330
41
100
AcDbEntity
  8
Layer 1
 62
     7
420
 16777215
370
    30
100
AcDbVertex
100
AcDb2dVertex
 10
2.576168922248573
 20
2.800228947644705
 30
0.0
  0
VERTEX
  5
46
330
41
100
AcDbEntity
  8
Layer 1
 62
     7
420
 16777215
370
    30
100
AcDbVertex
100
AcDb2dVertex
 10
2.503270566811478
 20
2.73088903444774
 30
0.0
  0
VERTEX
  5
47
330
41
100
AcDbEntity
  8
Layer 1
 62
     7
420
 16777215
370
    30
100
AcDbVertex
100
AcDb2dVertex
 10
2.670399289694362
 20
2.647332011034096
 30
0.0
  0
VERTEX
  5
48
330
41
100
AcDbEntity
  8
Layer 1
 62
     7
420
 16777215
370
    30
100
AcDbVertex
100
AcDb2dVertex
 10
2.567279030458924
 20
2.551322333886206
 30
0.0
  0
VERTEX
  5
49
330
41
100
AcDbEntity
  8
Layer 1
 62
     7
420
 16777215
370
    30
100
AcDbVertex
100
AcDb2dVertex
 10
2.569060322849206
 20
2.385974903393592
 30
0.0
  0
VERTEX
  5
4A
330
41
100
AcDbEntity
  8
Layer 1
 62
     7
420
 16777215
370
    30
100
AcDbVertex
100
AcDb2dVertex
 10
1.411646950832897
 20
3.113154381401791
 30
0.0
  0
SEQEND
  5
4C
330
41
100
AcDbEntity
  8
Layer 1
 62
     7
420
 16777215
370
    30
  0
HATCH
  5
4B
330
1F
100
AcDbEntity
  8
Layer 1
 62
    43
420
 15510365
100
AcDbHatch
 10
0.0
 20
0.0
 30
0.0
210
0.0
220
0.0
230
1.0
  2
SOLID
 70
     1
 71
     0
 91
        1
 92
        1
 93
        8
 72
     1
 10
1.411646950832897
 20
3.113154381401791
 11
2.304153146631506
 21
3.130923808629948
 72
     1
 10
2.304153146631506
 20
3.130923808629948
 11
2.572610480008456
 21
2.986916772387594
 72
     1
 10
2.572610480008456
 20
2.986916772387594
 11
2.576168922248573
 21
2.800228947644705
 72
     1
 10
2.576168922248573
 20
2.800228947644705
 11
2.503270566811478
 21
2.73088903444774
 72
     1
 10
2.503270566811478
 20
2.73088903444774
 11
2.670399289694362
 21
2.647332011034096
 72
     1
 10
2.670399289694362
 20
2.647332011034096
 11
2.567279030458924
 21
2.551322333886206
 72
     1
 10
2.567279030458924
 20
2.551322333886206
 11
2.569060322849206
 21
2.385974903393592
 72
     1
 10
2.569060322849206
 20
2.385974903393592
 11
1.411646950832897
 21
3.113154381401791
 97
        0
 75
     2
 76
     1
 98
        0
  0
POLYLINE
  5
4D
330
1F
100
AcDbEntity
  8
Layer 1
 62
     7
420
 16777215
370
    30
100
AcDb2dPolyline
 66
     1
 10
0.0
 20
0.0
 30
0.0
  0
VERTEX
  5
4E
330
4D
100
AcDbEntity
  8
Layer 1
 62
     7
420
 16777215
370
    30
100
AcDbVertex
100
AcDb2dVertex
 10
0.4293512235372089
 20
3.342501990460985
 30
0.0
  0
VERTEX
  5
4F
330
4D
100
AcDbEntity
  8
Layer 1
 62
     7
420
 16777215
370
    30
100
AcDbVertex
100
AcDb2dVertex
 10
0.7147059865878368
 20
3.491848858494399
 30
0.0
  0
VERTEX
  5
50
330
4D
100
AcDbEntity
  8
Layer 1
 62
     7
420
 16777215
370
    30
100
AcDbVertex
100
AcDb2dVertex
 10
2.739737131621117
 20
2.362865741535036
 30
0.0
  0
VERTEX
  5
51
330
4D
100
AcDbEntity
  8
Layer 1
 62
     7
420
 16777215
370
    30
100
AcDbVertex
100
AcDb2dVertex
 10
2.73261817587066
 20
1.550356144221774
 30
0.0
  0
VERTEX
  5
52
330
4D
100
AcDbEntity
  8
Layer 1
 62
     7
420
 16777215
370
    30
100
AcDbVertex
100
AcDb2dVertex
 10
2.458821107863337
 20
1.35123043896091
 30
0.0
  0
VERTEX
  5
53
330
4D
100
AcDbEntity
  8
Layer 1
 62
     7
420
 16777215
370
    30
100
AcDbVertex
100
AcDb2dVertex
 10
0.4355816045201537
 20
2.515762766727701
 30
0.0
  0
VERTEX
  5
54
330
4D
100
AcDbEntity
  8
Layer 1
 62
     7
420
 16777215
370
    30
100
AcDbVertex
100
AcDb2dVertex
 10
0.4320210909198623
 20
2.821569244734304
 30
0.0
  0
VERTEX
  5
55
330
4D
100
AcDbEntity
  8
Layer 1
 62
     7
420
 16777215
370
    30
100
AcDbVertex
100
AcDb2dVertex
 10
0.3235714506654656
 20
2.937137837999482
 30
0.0
  0
VERTEX
  5
56
330
4D
100
AcDbEntity
  8
Layer 1
 62
     7
420
 16777215
370
    30
100
AcDbVertex
100
AcDb2dVertex
 10
0.4871396641701216
 20
3.033145355295119
 30
0.0
  0
VERTEX
  5
57
330
4D
100
AcDbEntity
  8
Layer 1
 62
     7
420
 16777215
370
    30
100
AcDbVertex
100
AcDb2dVertex
 10
0.4266917125059358
 20
3.102485268492096
 30
0.0
  0
VERTEX
  5
58
330
4D
100
AcDbEntity
  8
Layer 1
 62
     7
420
 16777215
370
    30
100
AcDbVertex
100
AcDb2dVertex
 10
0.4293512235372089
 20
3.342501990460985
 30
0.0
  0
SEQEND
  5
5A
330
4D
100
AcDbEntity
  8
Layer 1
 62
     7
420
 16777215
370
    30
  0
HATCH
  5
59
330
1F
100
AcDbEntity
  8
Layer 1
 62
    43
420
 15510365
100
AcDbHatch
 10
0.0
 20
0.0
 30
0.0
210
0.0
220
0.0
230
1.0
  2
SOLID
 70
     1
 71
     0
 91
        1
 92
        1
 93
       10
 72
     1
 10
0.4293512235372089
 20
3.342501990460985
 11
0.7147059865878368
 21
3.491848858494399
 72
     1
 10
0.7147059865878368
 20
3.491848858494399
 11
2.739737131621117
 21
2.362865741535036
 72
     1
 10
2.739737131621117
 20
2.362865741535036
 11
2.73261817587066
 21
1.550356144221774
 72
     1
 10
2.73261817587066
 20
1.550356144221774
 11
2.458821107863337
 21
1.35123043896091
 72
     1
 10
2.458821107863337
 20
1.35123043896091
 11
0.4355816045201535
 21
2.515762766727701
 72
     1
 10
0.4355816045201537
 20
2.515762766727701
 11
0.4320210909198623
 21
2.821569244734304
 72
     1
 10
0.4320210909198623
 20
2.821569244734304
 11
0.3235714506654656
 21
2.937137837999482
 72
     1
 10
0.3235714506654656
 20
2.937137837999482
 11
0.4871396641701216
 21
3.033145355295119
 72
     1
 10
0.4871396641701216
 20
3.033145355295119
 11
0.4266917125059358
 21
3.102485268492096
 72
     1
 10
0.4266917125059358
 20
3.102485268492096
 11
0.4293512235372089
 21
3.342501990460985
 97
        0
 75
     2
 76
     1
 98
        0
  0
POLYLINE
  5
5B
330
1F
100
AcDbEntity
  8
Layer 1
 62
     7
420
 16777215
370
    30
100
AcDb2dPolyline
 66
     1
 10
0.0
 20
0.0
 30
0.0
  0
VERTEX
  5
5C
330
5B
100
AcDbEntity
  8
Layer 1
 62
     7
420
 16777215
370
    30
100
AcDbVertex
100
AcDb2dVertex
 10
0.3146815586512604
 20
2.046400506969829
 30
0.0
  0
VERTEX
  5
5D
330
5B
100
AcDbEntity
  8
Layer 1
 62
     7
420
 16777215
370
    30
100
AcDbVertex
100
AcDb2dVertex
 10
1.061401418790537
 20
2.942467312316567
 30
0.0
  0
VERTEX
  5
5E
330
5B
100
AcDbEntity
  8
Layer 1
 62
     7
420
 16777215
370
    30
100
AcDbVertex
100
AcDb2dVertex
 10
1.336977659356636
 20
2.787788898695844
 30
0.0
  0
VERTEX
  5
5F
330
5B
100
AcDbEntity
  8
Layer 1
 62
     7
420
 16777215
370
    30
100
AcDbVertex
100
AcDb2dVertex
 10
1.368976713004814
 20
1.984171264442428
 30
0.0
  0
VERTEX
  5
60
330
5B
100
AcDbEntity
  8
Layer 1
 62
     7
420
 16777215
370
    30
100
AcDbVertex
100
AcDb2dVertex
 10
0.583138898810009
 20
0.9191966560561771
 30
0.0
  0
VERTEX
  5
61
330
5B
100
AcDbEntity
  8
Layer 1
 62
     7
420
 16777215
370
    30
100
AcDbVertex
100
AcDb2dVertex
 10
0.3253423867493742
 20
1.066764306697425
 30
0.0
  0
VERTEX
  5
62
330
5B
100
AcDbEntity
  8
Layer 1
 62
     7
420
 16777215
370
    30
100
AcDbVertex
100
AcDb2dVertex
 10
0.3200130083354603
 20
1.392119384398711
 30
0.0
  0
VERTEX
  5
63
330
5B
100
AcDbEntity
  8
Layer 1
 62
     7
420
 16777215
370
    30
100
AcDbVertex
100
AcDb2dVertex
 10
0.2542336069870998
 20
1.537907810192009
 30
0.0
  0
VERTEX
  5
64
330
5B
100
AcDbEntity
  8
Layer 1
 62
     7
420
 16777215
370
    30
100
AcDbVertex
100
AcDb2dVertex
 10
0.3911321444491023
 20
1.625025435698047
 30
0.0
  0
VERTEX
  5
65
330
5B
100
AcDbEntity
  8
Layer 1
 62
     7
420
 16777215
370
    30
100
AcDbVertex
100
AcDb2dVertex
 10
0.3182317159001842
 20
1.719253731873601
 30
0.0
  0
VERTEX
  5
66
330
5B
100
AcDbEntity
  8
Layer 1
 62
     7
420
 16777215
370
    30
100
AcDbVertex
100
AcDb2dVertex
 10
0.3146815586512604
 20
2.046400506969829
 30
0.0
  0
SEQEND
  5
68
330
5B
100
AcDbEntity
  8
Layer 1
 62
     7
420
 16777215
370
    30
  0
HATCH
  5
67
330
1F
100
AcDbEntity
  8
Layer 1
 62
    43
420
 15510365
100
AcDbHatch
 10
0.0
 20
0.0
 30
0.0
210
0.0
220
0.0
230
1.0
  2
SOLID
 70
     1
 71
     0
 91
        1
 92
        1
 93
       10
 72
     1
 10
0.3146815586512604
 20
2.046400506969829
 11
1.061401418790537
 21
2.942467312316567
 72
     1
 10
1.061401418790537
 20
2.942467312316567
 11
1.336977659356636
 21
2.787788898695844
 72
     1
 10
1.336977659356636
 20
2.787788898695844
 11
1.368976713004814
 21
1.984171264442428
 72
     1
 10
1.368976713004814
 20
1.984171264442428
 11
0.583138898810009
 21
0.9191966560561771
 72
     1
 10
0.583138898810009
 20
0.9191966560561771
 11
0.3253423867493742
 21
1.066764306697425
 72
     1
 10
0.3253423867493742
 20
1.066764306697425
 11
0.3200130083354603
 21
1.392119384398711
 72
     1
 10
0.3200130083354603
 20
1.392119384398711
 11
0.2542336069870998
 21
1.537907810192009
 72
     1
 10
0.2542336069870998
 20
1.537907810192009
 11
0.3911321444491023
 21
1.625025435698047
 72
     1
 10
0.3911321444491023
 20
1.625025435698047
 11
0.3182317159001842
 21
1.719253731873601
 72
     1
 10
0.3182317159001842
 20
1.719253731873601
 11
0.3146815586512604
 21
2.046400506969829
 97
        0
 75
     2
 76
     1
 98
        0
  0
SPLINE
  5
69
330
1F
100
AcDbEntity
  8
Layer 1
 62
     7
420
 16777215
370
    13
100
AcDbSpline
210
0.0
220
0.0
230
1.0
 70
     8
 71
     3
 72
    20
 73
    16
 74
     0
 42
0.0000000001
 43
0.0000000001
 12
1.0
 22
0.0
 32
0.0
 13
1.0
 23
0.0
 33
0.0
 40
0.0
 40
0.0
 40
0.0
 40
0.0
 40
1.0
 40
1.0
 40
1.0
 40
2.0
 40
2.0
 40
2.0
 40
3.0
 40
3.0
 40
3.0
 40
4.0
 40
4.0
 40
4.0
 40
5.0
 40
5.0
 40
5.0
 40
5.0
 10
0.4160205280564545
 20
1.606357077193858
 30
0.0
 10
0.4160205280564545
 20
1.606357077193858
 30
0.0
 10
0.346682684378076
 20
1.56813592780102
 30
0.0
 10
0.3324613426796835
 20
1.560136682206525
 30
0.0
 10
0.3182317159001842
 20
1.552137436612055
 30
0.0
 10
0.2897931750439208
 20
1.538796385116939
 30
0.0
 10
0.2746729020467834
 20
1.52546776124316
 30
0.0
 10
0.2782334156470748
 20
1.513017355943197
 30
0.0
 10
0.2871233076612801
 20
1.504127464153561
 30
0.0
 10
0.2880139538789055
 20
1.497907439679137
 30
0.0
 10
0.2889025288262827
 20
1.491687474592684
 30
0.0
 10
0.3040124454720525
 20
1.461459297595689
 30
0.0
 10
0.3066823128546932
 20
1.451678759610912
 30
0.0
 10
0.3093418238859663
 20
1.441908577977251
 30
0.0
 10
0.3351229249812301
 20
1.400118629993206
 30
0.0
 10
0.3315727677323063
 20
1.389459873434614
 30
0.0
  0
SPLINE
  5
6A
330
1F
100
AcDbEntity
  8
Layer 1
 62
     7
420
 16777215
370
    13
100
AcDbSpline
210
0.0
220
0.0
230
1.0
 70
     8
 71
     3
 72
    41
 73
    37
 74
     0
 42
0.0000000001
 43
0.0000000001
 12
1.0
 22
0.0
 32
0.0
 13
1.0
 23
0.0
 33
0.0
 40
0.0
 40
0.0
 40
0.0
 40
0.0
 40
1.0
 40
1.0
 40
1.0
 40
2.0
 40
2.0
 40
2.0
 40
3.0
 40
3.0
 40
3.0
 40
4.0
 40
4.0
 40
4.0
 40
5.0
 40
5.0
 40
5.0
 40
6.0
 40
6.0
 40
6.0
 40
7.0
 40
7.0
 40
7.0
 40
8.0
 40
8.0
 40
8.0
 40
9.0
 40
9.0
 40
9.0
 40
10.0
 40
10.0
 40
10.0
 40
11.0
 40
11.0
 40
11.0
 40
12.0
 40
12.0
 40
12.0
 40
12.0
 10
0.3164628510865491
 20
1.817933255384332
 30
0.0
 10
0.3422418809115268
 20
1.814372674244345
 30
0.0
 10
0.398240744028044
 20
1.695253923819918
 30
0.0
 10
0.3849121198175504
 20
1.679255432630953
 30
0.0
 10
0.3920207193964794
 20
1.666815383682079
 30
0.0
 10
0.4026815474945932
 20
1.64814495390768
 30
0.0
 10
0.4169111742740925
 20
1.63303503764362
 30
0.0
 10
0.4311304447022116
 20
1.617916836298668
 30
0.0
 10
0.4551302533621866
 20
1.592135735854703
 30
0.0
 10
0.4595814131801287
 20
1.582357269140175
 30
0.0
 10
0.4489102287306221
 20
1.578807111980925
 30
0.0
 10
0.4444611401829787
 20
1.569026573996186
 30
0.0
 10
0.4178018204917432
 20
1.561915903326583
 30
0.0
 10
0.3911321444491023
 20
1.554796947576127
 30
0.0
 10
0.3573517975572839
 20
1.545917412137631
 30
0.0
 10
0.3431221707777846
 20
1.537907810192009
 30
0.0
 10
0.3289029003496656
 20
1.529906493327316
 30
0.0
 10
0.3084532489386144
 20
1.513908002138325
 30
0.0
 10
0.3049030916896905
 20
1.508578623859042
 30
0.0
 10
0.3093418238859663
 20
1.500577306994324
 30
0.0
 10
0.3164628510865491
 20
1.478348494030822
 30
0.0
 10
0.3244620968831163
 20
1.457909140436464
 30
0.0
 10
0.3324613426796835
 20
1.437459489542006
 30
0.0
 10
0.3626811759712104
 20
1.399230055068301
 30
0.0
 10
0.3662416895715018
 20
1.388569227239486
 30
0.0
 10
0.3697918468204256
 20
1.377900114329805
 30
0.0
 10
0.3662416895715018
 20
1.361899551870591
 30
0.0
 10
0.3662416895715018
 20
1.361899551870591
 30
0.0
 10
0.3662416895715018
 20
1.361899551870591
 30
0.0
 10
0.3671323357891399
 20
1.356559817240193
 30
0.0
 10
0.3591310187222865
 20
1.342340547171286
 30
0.0
 10
0.3511317729257194
 20
1.328121277102355
 30
0.0
 10
0.3564611513396458
 20
1.304111112697557
 30
0.0
 10
0.3457920381604506
 20
1.289889771358427
 30
0.0
 10
0.3351229249812301
 20
1.275670501289495
 30
0.0
 10
0.3289029003496656
 20
1.257002142785318
 30
0.0
 10
0.3244620968831163
 20
1.250771761959792
 30
0.0
  0
SPLINE
  5
6B
330
1F
100
AcDbEntity
  8
Layer 1
 62
     7
420
 16777215
370
    13
100
AcDbSpline
210
0.0
220
0.0
230
1.0
 70
     8
 71
     3
 72
    20
 73
    16
 74
     0
 42
0.0000000001
 43
0.0000000001
 12
1.0
 22
0.0
 32
0.0
 13
1.0
 23
0.0
 33
0.0
 40
0.0
 40
0.0
 40
0.0
 40
0.0
 40
1.0
 40
1.0
 40
1.0
 40
2.0
 40
2.0
 40
2.0
 40
3.0
 40
3.0
 40
3.0
 40
4.0
 40
4.0
 40
4.0
 40
5.0
 40
5.0
 40
5.0
 40
5.0
 10
0.3395720135288735
 20
2.026839431000288
 30
0.0
 10
0.3511317729257194
 20
2.000169755631406
 30
0.0
 10
0.3644624684064992
 20
1.993061156232051
 30
0.0
 10
0.374240935368069
 20
1.970830212947324
 30
0.0
 10
0.3840214735999123
 20
1.948611697283923
 30
0.0
 10
0.4044607686595958
 20
1.897942213861332
 30
0.0
 10
0.4062420610948846
 20
1.876601916771733
 30
0.0
 10
0.4080212822598873
 20
1.855271976033249
 30
0.0
 10
0.4249104200706471
 20
1.807264074844978
 30
0.0
 10
0.4320210909198623
 20
1.783264266791295
 30
0.0
 10
0.4391296904987914
 20
1.759264458737612
 30
0.0
 10
0.4489102287306221
 20
1.714814999789471
 30
0.0
 10
0.4480195825129966
 20
1.695253923819918
 30
0.0
 10
0.4471310075656194
 20
1.675694919120613
 30
0.0
 10
0.4675806589766959
 20
1.650806536141999
 30
0.0
 10
0.4675806589766959
 20
1.633915327487658
 30
0.0
  0
SPLINE
  5
6C
330
1F
100
AcDbEntity
  8
Layer 1
 62
     7
420
 16777215
370
    13
100
AcDbSpline
210
0.0
220
0.0
230
1.0
 70
     8
 71
     3
 72
    35
 73
    31
 74
     0
 42
0.0000000001
 43
0.0000000001
 12
1.0
 22
0.0
 32
0.0
 13
1.0
 23
0.0
 33
0.0
 40
0.0
 40
0.0
 40
0.0
 40
0.0
 40
1.0
 40
1.0
 40
1.0
 40
2.0
 40
2.0
 40
2.0
 40
3.0
 40
3.0
 40
3.0
 40
4.0
 40
4.0
 40
4.0
 40
5.0
 40
5.0
 40
5.0
 40
6.0
 40
6.0
 40
6.0
 40
7.0
 40
7.0
 40
7.0
 40
8.0
 40
8.0
 40
8.0
 40
9.0
 40
9.0
 40
9.0
 40
10.0
 40
10.0
 40
10.0
 40
10.0
 10
0.3262330329670249
 20
1.12276316981393
 30
0.0
 10
0.3369021461462328
 20
1.131653061828148
 30
0.0
 10
0.3689012006027749
 20
1.177881743064189
 30
0.0
 10
0.3786817388346183
 20
1.20277219794179
 30
0.0
 10
0.3884622770664742
 20
1.227662652819415
 30
0.0
 10
0.4026815474945932
 20
1.329009907305716
 30
0.0
 10
0.410691149642528
 20
1.33612052269685
 30
0.0
 10
0.4080212822598873
 20
1.348560571645723
 30
0.0
 10
0.3813516062172589
 20
1.390348448359545
 30
0.0
 10
0.3751315815856944
 20
1.403679200668269
 30
0.0
 10
0.3689012006027749
 20
1.417009838647548
 30
0.0
 10
0.3271216079143768
 20
1.485467390730264
 30
0.0
 10
0.3289029003496656
 20
1.491687474592684
 30
0.0
 10
0.3413512346938761
 20
1.498798085874265
 30
0.0
 10
0.481799929404815
 20
1.559246036011397
 30
0.0
 10
0.4986890672155874
 20
1.557466814891338
 30
0.0
 10
0.4915804676366709
 20
1.572576731155398
 30
0.0
 10
0.4213519777406418
 20
1.649915889946846
 30
0.0
 10
0.4213519777406418
 20
1.654365041879714
 30
0.0
 10
0.4213519777406418
 20
1.658805781736495
 30
0.0
 10
0.4160205280564545
 20
1.686364032030294
 30
0.0
 10
0.4142413068914518
 20
1.702364594489483
 30
0.0
 10
0.4124620857264492
 20
1.718365156948696
 30
0.0
 10
0.4053514148772339
 20
1.760153033662517
 30
0.0
 10
0.3973521690806668
 20
1.783264266791295
 30
0.0
 10
0.3893508520138261
 20
1.80637342864985
 30
0.0
 10
0.3662416895715018
 20
1.853492754913191
 30
0.0
 10
0.3600113085885697
 20
1.869493317372391
 30
0.0
 10
0.3537912839570178
 20
1.885491808561369
 30
0.0
 10
0.317343140952807
 20
1.925502535425355
 30
0.0
 10
0.3155722048688984
 20
1.929050621314369
 30
0.0
  0
SPLINE
  5
6D
330
1F
100
AcDbEntity
  8
Layer 1
 62
     7
420
 16777215
370
    13
100
AcDbSpline
210
0.0
220
0.0
230
1.0
 70
     8
 71
     3
 72
    50
 73
    46
 74
     0
 42
0.0000000001
 43
0.0000000001
 12
1.0
 22
0.0
 32
0.0
 13
1.0
 23
0.0
 33
0.0
 40
0.0
 40
0.0
 40
0.0
 40
0.0
 40
1.0
 40
1.0
 40
1.0
 40
2.0
 40
2.0
 40
2.0
 40
3.0
 40
3.0
 40
3.0
 40
4.0
 40
4.0
 40
4.0
 40
5.0
 40
5.0
 40
5.0
 40
6.0
 40
6.0
 40
6.0
 40
7.0
 40
7.0
 40
7.0
 40
8.0
 40
8.0
 40
8.0
 40
9.0
 40
9.0
 40
9.0
 40
10.0
 40
10.0
 40
10.0
 40
11.0
 40
11.0
 40
11.0
 40
12.0
 40
12.0
 40
12.0
 40
13.0
 40
13.0
 40
13.0
 40
14.0
 40
14.0
 40
14.0
 40
15.0
 40
15.0
 40
15.0
 40
15.0
 10
0.4142413068914518
 20
1.97883152981203
 30
0.0
 10
0.4311304447022116
 20
1.957501589073546
 30
0.0
 10
0.4302397984845862
 20
1.955720296683264
 30
0.0
 10
0.4391296904987914
 20
1.926391110350298
 30
0.0
 10
0.4480195825129966
 20
1.897051567666191
 30
0.0
 10
0.4595814131801287
 20
1.873942405807649
 30
0.0
 10
0.4640201453764045
 20
1.850822887597992
 30
0.0
 10
0.4684713051943213
 20
1.827713725739436
 30
0.0
 10
0.482690575622453
 20
1.787713422092793
 30
0.0
 10
0.4844697967874557
 20
1.761043679857671
 30
0.0
 10
0.4862510892227445
 20
1.734374004488776
 30
0.0
 10
0.50579973806479
 20
1.621475278538797
 30
0.0
 10
0.5013589345982407
 20
1.610806228026301
 30
0.0
 10
0.51291040891398
 20
1.595696249365043
 30
0.0
 10
0.5102488266124333
 20
1.592135735854703
 30
0.0
 10
0.5226992322269299
 20
1.579695748517123
 30
0.0
 10
0.5351392814900591
 20
1.5672474141729
 30
0.0
 10
0.5555889329011229
 20
1.54413819101756
 30
0.0
 10
0.5413593061216235
 20
1.533467006837655
 30
0.0
 10
0.5251371173389493
 20
1.532628142398026
 30
0.0
 10
0.5422499523392617
 20
1.53702758088136
 30
0.0
 10
0.5120301190477221
 20
1.530797139522444
 30
0.0
 10
0.481799929404815
 20
1.52457711504802
 30
0.0
 10
0.4480195825129966
 20
1.506797331468761
 30
0.0
 10
0.4373504693337887
 20
1.501467953189477
 30
0.0
 10
0.4266917125059358
 20
1.496128218559079
 30
0.0
 10
0.3804609599996209
 20
1.473019056700524
 30
0.0
 10
0.3769108027507097
 20
1.467687607151017
 30
0.0
 10
0.3849121198175504
 20
1.453457980730971
 30
0.0
 10
0.3929113656141175
 20
1.441017931782123
 30
0.0
 10
0.4035721937122313
 20
1.420568280887665
 30
0.0
 10
0.4142413068914518
 20
1.400118629993206
 30
0.0
 10
0.434690958302503
 20
1.371680089855368
 30
0.0
 10
0.4444611401829787
 20
1.353009660080968
 30
0.0
 10
0.4542499634959287
 20
1.334339230306568
 30
0.0
 10
0.4551302533621866
 20
1.316559446727322
 30
0.0
 10
0.4533510321971966
 20
1.313001004487205
 30
0.0
 10
0.451580096113288
 20
1.309450847327955
 30
0.0
 10
0.451580096113288
 20
1.285451093452315
 30
0.0
 10
0.4453600714817235
 20
1.266780609499872
 30
0.0
 10
0.4391296904987914
 20
1.248112250995695
 30
0.0
 10
0.4338003120848649
 20
1.20277219794179
 30
0.0
 10
0.4231311989056444
 20
1.181442256664468
 30
0.0
 10
0.4124620857264492
 20
1.160101959035779
 30
0.0
 10
0.3609019548062077
 20
1.057874414683207
 30
0.0
 10
0.3511317729257194
 20
1.051644033700288
 30
0.0
  0
SPLINE
  5
6E
330
1F
100
AcDbEntity
  8
Layer 1
 62
     7
420
 16777215
370
    13
100
AcDbSpline
210
0.0
220
0.0
230
1.0
 70
     8
 71
     3
 72
    14
 73
    10
 74
     0
 42
0.0000000001
 43
0.0000000001
 12
1.0
 22
0.0
 32
0.0
 13
1.0
 23
0.0
 33
0.0
 40
0.0
 40
0.0
 40
0.0
 40
0.0
 40
1.0
 40
1.0
 40
1.0
 40
2.0
 40
2.0
 40
2.0
 40
3.0
 40
3.0
 40
3.0
 40
3.0
 10
0.4746892585556123
 20
1.410789814173111
 30
0.0
 10
0.4986890672155874
 20
1.421458927082792
 30
0.0
 10
0.51291040891398
 20
1.439238710662064
 30
0.0
 10
0.5315787678897677
 20
1.441017931782123
 30
0.0
 10
0.5502491981358162
 20
1.442788867821289
 30
0.0
 10
0.5911485009579438
 20
1.463238518715747
 30
0.0
 10
0.6026979040034348
 20
1.466799032226087
 30
0.0
 10
0.6142576634002681
 20
1.470349189385299
 30
0.0
 10
0.6258070664457591
 20
1.477457847813184
 30
0.0
 10
0.6258070664457591
 20
1.477457847813184
 30
0.0
  0
SPLINE
  5
6F
330
1F
100
AcDbEntity
  8
Layer 1
 62
     7
420
 16777215
370
    13
100
AcDbSpline
210
0.0
220
0.0
230
1.0
 70
     8
 71
     3
 72
    14
 73
    10
 74
     0
 42
0.0000000001
 43
0.0000000001
 12
1.0
 22
0.0
 32
0.0
 13
1.0
 23
0.0
 33
0.0
 40
0.0
 40
0.0
 40
0.0
 40
0.0
 40
1.0
 40
1.0
 40
1.0
 40
2.0
 40
2.0
 40
2.0
 40
3.0
 40
3.0
 40
3.0
 40
3.0
 10
0.4666900127590452
 20
0.9849760574045628
 30
0.0
 10
0.4800207082398123
 20
1.004535062597951
 30
0.0
 10
0.4951409812369371
 20
1.031204738640604
 30
0.0
 10
0.5040205168997873
 20
1.05965363584821
 30
0.0
 10
0.51291040891398
 20
1.088094247974747
 30
0.0
 10
0.5333600603250563
 20
1.153881934404227
 30
0.0
 10
0.5378091488726997
 20
1.175211875681523
 30
0.0
 10
0.5422499523392617
 20
1.196552173310238
 30
0.0
 10
0.5440291735042643
 20
1.253441629274979
 30
0.0
 10
0.5440291735042643
 20
1.257890717710249
 30
0.0
  0
SPLINE
  5
70
330
1F
100
AcDbEntity
  8
Layer 1
 62
     7
420
 16777215
370
    13
100
AcDbSpline
210
0.0
220
0.0
230
1.0
 70
     8
 71
     3
 72
    14
 73
    10
 74
     0
 42
0.0000000001
 43
0.0000000001
 12
1.0
 22
0.0
 32
0.0
 13
1.0
 23
0.0
 33
0.0
 40
0.0
 40
0.0
 40
0.0
 40
0.0
 40
1.0
 40
1.0
 40
1.0
 40
2.0
 40
2.0
 40
2.0
 40
3.0
 40
3.0
 40
3.0
 40
3.0
 10
0.5155802762966459
 20
0.9574157351442711
 30
0.0
 10
0.5262493894758411
 20
0.9769747403377096
 30
0.0
 10
0.5360299277076971
 20
0.9920846569834794
 30
0.0
 10
0.5449198197218897
 20
1.004535062597951
 30
0.0
 10
0.5538097117361076
 20
1.016985468212473
 30
0.0
 10
0.5769188741784571
 20
1.056983768465569
 30
0.0
 10
0.5786980953434597
 20
1.076544844929281
 30
0.0
 10
0.5804793877787233
 20
1.096093493771327
 30
0.0
 10
0.5875879873576524
 20
1.138763732677338
 30
0.0
 10
0.5902578547402931
 20
1.157432091653113
 30
0.0
  0
SPLINE
  5
71
330
1F
100
AcDbEntity
  8
Layer 1
 62
     7
420
 16777215
370
    13
100
AcDbSpline
210
0.0
220
0.0
230
1.0
 70
     8
 71
     3
 72
    50
 73
    46
 74
     0
 42
0.0000000001
 43
0.0000000001
 12
1.0
 22
0.0
 32
0.0
 13
1.0
 23
0.0
 33
0.0
 40
0.0
 40
0.0
 40
0.0
 40
0.0
 40
1.0
 40
1.0
 40
1.0
 40
2.0
 40
2.0
 40
2.0
 40
3.0
 40
3.0
 40
3.0
 40
4.0
 40
4.0
 40
4.0
 40
5.0
 40
5.0
 40
5.0
 40
6.0
 40
6.0
 40
6.0
 40
7.0
 40
7.0
 40
7.0
 40
8.0
 40
8.0
 40
8.0
 40
9.0
 40
9.0
 40
9.0
 40
10.0
 40
10.0
 40
10.0
 40
11.0
 40
11.0
 40
11.0
 40
12.0
 40
12.0
 40
12.0
 40
13.0
 40
13.0
 40
13.0
 40
14.0
 40
14.0
 40
14.0
 40
15.0
 40
15.0
 40
15.0
 40
15.0
 10
0.4729100373905971
 20
1.947721051088769
 30
0.0
 10
0.481799929404815
 20
1.920160729524746
 30
0.0
 10
0.5022495808158661
 20
1.913942776320533
 30
0.0
 10
0.5031402270335043
 20
1.888161675876568
 30
0.0
 10
0.5040205168997873
 20
1.862382715455358
 30
0.0
 10
0.5262493894758411
 20
1.829492946859495
 30
0.0
 10
0.5271400356934919
 20
1.811713163280249
 30
0.0
 10
0.5280286106408564
 20
1.793933379700977
 30
0.0
 10
0.5315787678897677
 20
1.765484483212061
 30
0.0
 10
0.5395800849566209
 20
1.733485429563871
 30
0.0
 10
0.5475896871045557
 20
1.701484304645469
 30
0.0
 10
0.5484782620519076
 20
1.672144761961363
 30
0.0
 10
0.5484782620519076
 20
1.649915889946846
 30
0.0
 10
0.5484782620519076
 20
1.627695303013221
 30
0.0
 10
0.5555889329011229
 20
1.585027136455361
 30
0.0
 10
0.5538097117361076
 20
1.578807111980925
 30
0.0
 10
0.5609183113150493
 20
1.569026573996186
 30
0.0
 10
0.5698082033292419
 20
1.561915903326583
 30
0.0
 10
0.5769188741784571
 20
1.542356898627279
 30
0.0
 10
0.5840295450276471
 20
1.522797954101886
 30
0.0
 10
0.593808011989217
 20
1.507687977663889
 30
0.0
 10
0.5920287908242142
 20
1.503247174309536
 30
0.0
 10
0.5155802762966459
 20
1.509467198783947
 30
0.0
 10
0.4471310075656194
 20
1.442788867821289
 30
0.0
 10
0.4302397984845862
 20
1.435678197151724
 30
0.0
 10
0.4453600714817235
 20
1.424128794398004
 30
0.0
 10
0.446240361347994
 20
1.413459681488323
 30
0.0
 10
0.4542499634959287
 20
1.395679897909051
 30
0.0
 10
0.4622409242114018
 20
1.377900114329805
 30
0.0
 10
0.4933596888016735
 20
1.33612052269685
 30
0.0
 10
0.5013589345982407
 20
1.321000250081675
 30
0.0
 10
0.5093602516650814
 20
1.305890333817615
 30
0.0
 10
0.5146896300789952
 20
1.291671063748709
 30
0.0
 10
0.5137989838613571
 20
1.279220658448745
 30
0.0
 10
0.5013589345982407
 20
1.27478192636459
 30
0.0
 10
0.4986890672155874
 20
1.271221466672791
 30
0.0
 10
0.4951409812369371
 20
1.248112250995695
 30
0.0
 10
0.4915804676366709
 20
1.225001017866917
 30
0.0
 10
0.4862510892227445
 20
1.191212438544931
 30
0.0
 10
0.4764705509908885
 20
1.164542762502328
 30
0.0
 10
0.4666900127590452
 20
1.137883442811067
 30
0.0
 10
0.4649107915940425
 20
1.096984139988965
 30
0.0
 10
0.451580096113288
 20
1.078313709742916
 30
0.0
 10
0.4382411155514268
 20
1.05965363584821
 30
0.0
 10
0.4302397984845862
 20
1.024094067791389
 30
0.0
 10
0.4169111742740925
 20
1.015204175777197
 30
0.0
  0
SPLINE
  5
72
330
1F
100
AcDbEntity
  8
Layer 1
 62
     7
420
 16777215
370
    13
100
AcDbSpline
210
0.0
220
0.0
230
1.0
 70
     8
 71
     3
 72
    11
 73
     7
 74
     0
 42
0.0000000001
 43
0.0000000001
 12
1.0
 22
0.0
 32
0.0
 13
1.0
 23
0.0
 33
0.0
 40
0.0
 40
0.0
 40
0.0
 40
0.0
 40
1.0
 40
1.0
 40
1.0
 40
2.0
 40
2.0
 40
2.0
 40
2.0
 10
0.5502491981358162
 20
1.89972143498139
 30
0.0
 10
0.5493585519181907
 20
1.873942405807649
 30
0.0
 10
0.5511398443534669
 20
1.865052514018013
 30
0.0
 10
0.5618089575326747
 20
1.841042349613202
 30
0.0
 10
0.5724780707118826
 20
1.817042609166694
 30
0.0
 10
0.5778095203960826
 20
1.778823463436917
 30
0.0
 10
0.5858087661926498
 20
1.758373812542459
 30
0.0
  0
POLYLINE
  5
73
330
1F
100
AcDbEntity
  8
Layer 1
 62
     7
420
 16777215
370
    20
100
AcDb2dPolyline
 66
     1
 10
0.0
 20
0.0
 30
0.0
  0
VERTEX
  5
74
330
73
100
AcDbEntity
  8
Layer 1
 62
     7
420
 16777215
370
    20
100
AcDbVertex
100
AcDb2dVertex
 10
0.3217922295004503
 20
1.390348448359545
 30
0.0
  0
VERTEX
  5
75
330
73
100
AcDbEntity
  8
Layer 1
 62
     7
420
 16777215
370
    20
100
AcDbVertex
100
AcDb2dVertex
 10
0.593808011989217
 20
1.230332467416449
 30
0.0
  0
SEQEND
  5
76
330
73
100
AcDbEntity
  8
Layer 1
 62
     7
420
 16777215
370
    20
  0
POLYLINE
  5
77
330
1F
100
AcDbEntity
  8
Layer 1
 62
     7
420
 16777215
370
    20
100
AcDb2dPolyline
 66
     1
 10
0.0
 20
0.0
 30
0.0
  0
VERTEX
  5
78
330
77
100
AcDbEntity
  8
Layer 1
 62
     7
420
 16777215
370
    20
100
AcDbVertex
100
AcDb2dVertex
 10
0.2524543858220972
 20
1.537907810192009
 30
0.0
  0
VERTEX
  5
79
330
77
100
AcDbEntity
  8
Layer 1
 62
     7
420
 16777215
370
    20
100
AcDbVertex
100
AcDb2dVertex
 10
0.5226992322269299
 20
1.38145027148903
 30
0.0
  0
SEQEND
  5
7A
330
77
100
AcDbEntity
  8
Layer 1
 62
     7
420
 16777215
370
    20
  0
POLYLINE
  5
7B
330
1F
100
AcDbEntity
  8
Layer 1
 62
     7
420
 16777215
370
    20
100
AcDb2dPolyline
 66
     1
 10
0.0
 20
0.0
 30
0.0
  0
VERTEX
  5
7C
330
7B
100
AcDbEntity
  8
Layer 1
 62
     7
420
 16777215
370
    20
100
AcDbVertex
100
AcDb2dVertex
 10
0.3875716308488361
 20
1.625025435698047
 30
0.0
  0
VERTEX
  5
7D
330
7B
100
AcDbEntity
  8
Layer 1
 62
     7
420
 16777215
370
    20
100
AcDbVertex
100
AcDb2dVertex
 10
0.6569279023063043
 20
1.464129164910901
 30
0.0
  0
SEQEND
  5
7E
330
7B
100
AcDbEntity
  8
Layer 1
 62
     7
420
 16777215
370
    20
  0
POLYLINE
  5
7F
330
1F
100
AcDbEntity
  8
Layer 1
 62
     7
420
 16777215
370
    20
100
AcDb2dPolyline
 66
     1
 10
0.0
 20
0.0
 30
0.0
  0
VERTEX
  5
80
330
7F
100
AcDbEntity
  8
Layer 1
 62
     7
420
 16777215
370
    20
100
AcDbVertex
100
AcDb2dVertex
 10
0.3182317159001842
 20
1.717484867104657
 30
0.0
  0
VERTEX
  5
81
330
7F
100
AcDbEntity
  8
Layer 1
 62
     7
420
 16777215
370
    20
100
AcDbVertex
100
AcDb2dVertex
 10
0.5849181199750243
 20
1.559246036011397
 30
0.0
  0
SEQEND
  5
82
330
7F
100
AcDbEntity
  8
Layer 1
 62
     7
420
 16777215
370
    20
  0
POLYLINE
  5
83
330
1F
100
AcDbEntity
  8
Layer 1
 62
     7
420
 16777215
370
    20
100
AcDb2dPolyline
 66
     1
 10
0.0
 20
0.0
 30
0.0
  0
VERTEX
  5
84
330
83
100
AcDbEntity
  8
Layer 1
 62
     7
420
 16777215
370
    20
100
AcDbVertex
100
AcDb2dVertex
 10
0.3164628510865491
 20
2.04106077233943
 30
0.0
  0
VERTEX
  5
85
330
83
100
AcDbEntity
  8
Layer 1
 62
     7
420
 16777215
370
    20
100
AcDbVertex
100
AcDb2dVertex
 10
0.593808011989217
 20
1.873942405807649
 30
0.0
  0
VERTEX
  5
86
330
83
100
AcDbEntity
  8
Layer 1
 62
     7
420
 16777215
370
    20
100
AcDbVertex
100
AcDb2dVertex
 10
0.5866994124102878
 20
1.561027328401678
 30
0.0
  0
VERTEX
  5
87
330
83
100
AcDbEntity
  8
Layer 1
 62
     7
420
 16777215
370
    20
100
AcDbVertex
100
AcDb2dVertex
 10
0.6595874133375774
 20
1.463238518715747
 30
0.0
  0
VERTEX
  5
88
330
83
100
AcDbEntity
  8
Layer 1
 62
     7
420
 16777215
370
    20
100
AcDbVertex
100
AcDb2dVertex
 10
0.5226992322269299
 20
1.379679335449863
 30
0.0
  0
VERTEX
  5
89
330
83
100
AcDbEntity
  8
Layer 1
 62
     7
420
 16777215
370
    20
100
AcDbVertex
100
AcDb2dVertex
 10
0.5955893044245056
 20
1.228551175026168
 30
0.0
  0
VERTEX
  5
8A
330
83
100
AcDbEntity
  8
Layer 1
 62
     7
420
 16777215
370
    20
100
AcDbVertex
100
AcDb2dVertex
 10
0.583138898810009
 20
0.9227468133051135
 30
0.0
  0
SEQEND
  5
8B
330
83
100
AcDbEntity
  8
Layer 1
 62
     7
420
 16777215
370
    20
  0
POLYLINE
  5
8C
330
1F
100
AcDbEntity
  8
Layer 1
 62
     7
420
 16777215
370
    20
100
AcDb2dPolyline
 66
     1
 10
0.0
 20
0.0
 30
0.0
  0
VERTEX
  5
8D
330
8C
100
AcDbEntity
  8
Layer 1
 62
     7
420
 16777215
370
    20
100
AcDbVertex
100
AcDb2dVertex
 10
1.72100151472854
 20
2.962026220978095
 30
0.0
  0
VERTEX
  5
8E
330
8C
100
AcDbEntity
  8
Layer 1
 62
     7
420
 16777215
370
    20
100
AcDbVertex
100
AcDb2dVertex
 10
2.569060322849206
 20
2.976247562317238
 30
0.0
  0
SEQEND
  5
8F
330
8C
100
AcDbEntity
  8
Layer 1
 62
     7
420
 16777215
370
    20
  0
SPLINE
  5
90
330
1F
100
AcDbEntity
  8
Layer 1
 62
     7
420
 16777215
370
    13
100
AcDbSpline
210
0.0
220
0.0
230
1.0
 70
     8
 71
     3
 72
     8
 73
     4
 74
     0
 42
0.0000000001
 43
0.0000000001
 12
1.0
 22
0.0
 32
0.0
 13
1.0
 23
0.0
 33
0.0
 40
0.0
 40
0.0
 40
0.0
 40
0.0
 40
1.0
 40
1.0
 40
1.0
 40
1.0
 10
2.457940818019299
 20
1.417009838647548
 30
0.0
 10
2.472162159358428
 20
1.404569846885907
 30
0.0
 10
2.472162159358428
 20
1.376118821939523
 30
0.0
 10
2.487270004352265
 20
1.373448954624311
 30
0.0
  0
SPLINE
  5
91
330
1F
100
AcDbEntity
  8
Layer 1
 62
     7
420
 16777215
370
    13
100
AcDbSpline
210
0.0
220
0.0
230
1.0
 70
     8
 71
     3
 72
    11
 73
     7
 74
     0
 42
0.0000000001
 43
0.0000000001
 12
1.0
 22
0.0
 32
0.0
 13
1.0
 23
0.0
 33
0.0
 40
0.0
 40
0.0
 40
0.0
 40
0.0
 40
1.0
 40
1.0
 40
1.0
 40
2.0
 40
2.0
 40
2.0
 40
2.0
 10
2.460602400253618
 20
1.48723832676943
 30
0.0
 10
2.477491537637737
 20
1.467687607151017
 30
0.0
 10
2.483721918463263
 20
1.457018494241311
 30
0.0
 10
2.495271321216983
 20
1.434789680177447
 30
0.0
 10
2.506831080321818
 20
1.412569035293169
 30
0.0
 10
2.510381237481043
 20
1.409899167977983
 30
0.0
 10
2.520159704195597
 20
1.399230055068301
 30
0.0
  0
SPLINE
  5
92
330
1F
100
AcDbEntity
  8
Layer 1
 62
     7
420
 16777215
370
    13
100
AcDbSpline
210
0.0
220
0.0
230
1.0
 70
     8
 71
     3
 72
    11
 73
     7
 74
     0
 42
0.0000000001
 43
0.0000000001
 12
1.0
 22
0.0
 32
0.0
 13
1.0
 23
0.0
 33
0.0
 40
0.0
 40
0.0
 40
0.0
 40
0.0
 40
1.0
 40
1.0
 40
1.0
 40
2.0
 40
2.0
 40
2.0
 40
2.0
 10
2.458821107863337
 20
1.577025819590643
 30
0.0
 10
2.476600891442584
 20
1.546797701981657
 30
0.0
 10
2.482831272268135
 20
1.537907810192009
 30
0.0
 10
2.503270566811478
 20
1.500577306994324
 30
0.0
 10
2.523720217705936
 20
1.463238518715747
 30
0.0
 10
2.529940327840071
 20
1.431239465067569
 30
0.0
 10
2.546829379564492
 20
1.418789059767606
 30
0.0
  0
SPLINE
  5
93
330
1F
100
AcDbEntity
  8
Layer 1
 62
     7
420
 16777215
370
    13
100
AcDbSpline
210
0.0
220
0.0
230
1.0
 70
     8
 71
     3
 72
    14
 73
    10
 74
     0
 42
0.0000000001
 43
0.0000000001
 12
1.0
 22
0.0
 32
0.0
 13
1.0
 23
0.0
 33
0.0
 40
0.0
 40
0.0
 40
0.0
 40
0.0
 40
1.0
 40
1.0
 40
1.0
 40
2.0
 40
2.0
 40
2.0
 40
3.0
 40
3.0
 40
3.0
 40
3.0
 10
2.457940818019299
 20
1.681034653751011
 30
0.0
 10
2.476600891442584
 20
1.658805781736495
 30
0.0
 10
2.48638151398667
 20
1.624136860773117
 30
0.0
 10
2.498831834727323
 20
1.598366116680255
 30
0.0
 10
2.511269812405974
 20
1.572576731155398
 30
0.0
 10
2.521050350390725
 20
1.545917412137631
 30
0.0
 10
2.534391401885841
 20
1.521016661666585
 30
0.0
 10
2.54772002575962
 20
1.496128218559079
 30
0.0
 10
2.574389787911084
 20
1.451678759610912
 30
0.0
 10
2.578830504482867
 20
1.443679514016442
 30
0.0
  0
SPLINE
  5
94
330
1F
100
AcDbEntity
  8
Layer 1
 62
     7
420
 16777215
370
    13
100
AcDbSpline
210
0.0
220
0.0
230
1.0
 70
     8
 71
     3
 72
    14
 73
    10
 74
     0
 42
0.0000000001
 43
0.0000000001
 12
1.0
 22
0.0
 32
0.0
 13
1.0
 23
0.0
 33
0.0
 40
0.0
 40
0.0
 40
0.0
 40
0.0
 40
1.0
 40
1.0
 40
1.0
 40
2.0
 40
2.0
 40
2.0
 40
3.0
 40
3.0
 40
3.0
 40
3.0
 10
2.458821107863337
 20
1.782373620596167
 30
0.0
 10
2.475720601598545
 20
1.754813299032119
 30
0.0
 10
2.493500385177817
 20
1.717484867104657
 30
0.0
 10
2.502379920616325
 20
1.698814501950702
 30
0.0
 10
2.511269812405974
 20
1.680146078826081
 30
0.0
 10
2.520159704195597
 20
1.641036354508338
 30
0.0
 10
2.531719463300432
 20
1.616135543908412
 30
0.0
 10
2.543281293675464
 20
1.591247160929786
 30
0.0
 10
2.603729243812596
 20
1.486347680574302
 30
0.0
 10
2.616169292761444
 20
1.475678567664621
 30
0.0
  0
SPLINE
  5
95
330
1F
100
AcDbEntity
  8
Layer 1
 62
     7
420
 16777215
370
    13
100
AcDbSpline
210
0.0
220
0.0
230
1.0
 70
     8
 71
     3
 72
    17
 73
    13
 74
     0
 42
0.0000000001
 43
0.0000000001
 12
1.0
 22
0.0
 32
0.0
 13
1.0
 23
0.0
 33
0.0
 40
0.0
 40
0.0
 40
0.0
 40
0.0
 40
1.0
 40
1.0
 40
1.0
 40
2.0
 40
2.0
 40
2.0
 40
3.0
 40
3.0
 40
3.0
 40
4.0
 40
4.0
 40
4.0
 40
4.0
 10
2.459711754058465
 20
1.896162992741274
 30
0.0
 10
2.481940626072982
 20
1.869493317372391
 30
0.0
 10
2.497050542337042
 20
1.835712971333932
 30
0.0
 10
2.508610301441877
 20
1.805482782454697
 30
0.0
 10
2.520159704195597
 20
1.775262949926577
 30
0.0
 10
2.538830133969996
 20
1.743263962021779
 30
0.0
 10
2.550389893074806
 20
1.710363840083978
 30
0.0
 10
2.561939295828552
 20
1.677476211510894
 30
0.0
 10
2.592169484707761
 20
1.604586141154666
 30
0.0
 10
2.601059376497384
 20
1.585027136455361
 30
0.0
 10
2.609949268287032
 20
1.565466121737624
 30
0.0
 10
2.637509589851056
 20
1.5103578449791
 30
0.0
 10
2.652619506115116
 20
1.498798085874265
 30
0.0
  0
SPLINE
  5
96
330
1F
100
AcDbEntity
  8
Layer 1
 62
     7
420
 16777215
370
    13
100
AcDbSpline
210
0.0
220
0.0
230
1.0
 70
     8
 71
     3
 72
    17
 73
    13
 74
     0
 42
0.0000000001
 43
0.0000000001
 12
1.0
 22
0.0
 32
0.0
 13
1.0
 23
0.0
 33
0.0
 40
0.0
 40
0.0
 40
0.0
 40
0.0
 40
1.0
 40
1.0
 40
1.0
 40
2.0
 40
2.0
 40
2.0
 40
3.0
 40
3.0
 40
3.0
 40
4.0
 40
4.0
 40
4.0
 40
4.0
 10
2.692617895127063
 20
1.523686468852879
 30
0.0
 10
2.664168908868835
 20
1.559246036011397
 30
0.0
 10
2.630398919181491
 20
1.625916081893163
 30
0.0
 10
2.618839247982123
 20
1.649915889946846
 30
0.0
 10
2.607279400971821
 20
1.673926054351644
 30
0.0
 10
2.569060322849206
 20
1.760153033662517
 30
0.0
 10
2.555719271354115
 20
1.784152841716226
 30
0.0
 10
2.542390647480336
 20
1.808152649769909
 30
0.0
 10
2.521940996585878
 20
1.861492069237733
 30
0.0
 10
2.510381237481043
 20
1.894381700350992
 30
0.0
 10
2.498831834727323
 20
1.927271400194311
 30
0.0
 10
2.472162159358428
 20
1.988609996526583
 30
0.0
 10
2.461490975178524
 20
1.997499888316207
 30
0.0
  0
SPLINE
  5
97
330
1F
100
AcDbEntity
  8
Layer 1
 62
     7
420
 16777215
370
    13
100
AcDbSpline
210
0.0
220
0.0
230
1.0
 70
     8
 71
     3
 72
    17
 73
    13
 74
     0
 42
0.0000000001
 43
0.0000000001
 12
1.0
 22
0.0
 32
0.0
 13
1.0
 23
0.0
 33
0.0
 40
0.0
 40
0.0
 40
0.0
 40
0.0
 40
1.0
 40
1.0
 40
1.0
 40
2.0
 40
2.0
 40
2.0
 40
3.0
 40
3.0
 40
3.0
 40
4.0
 40
4.0
 40
4.0
 40
4.0
 10
2.462381621373677
 20
2.123739665761301
 30
0.0
 10
2.478382183832865
 20
2.090839609566855
 30
0.0
 10
2.507721726516946
 20
1.998390534511347
 30
0.0
 10
2.518390839426628
 20
1.979720176453687
 30
0.0
 10
2.529049681622432
 20
1.961051746232783
 30
0.0
 10
2.553940050234056
 20
1.91483135124545
 30
0.0
 10
2.557500563744396
 20
1.895272346546133
 30
0.0
 10
2.561050807349223
 20
1.875713341846815
 30
0.0
 10
2.611728489407091
 20
1.772593149095655
 30
0.0
 10
2.628619698061432
 20
1.744154608239392
 30
0.0
 10
2.645508835445551
 20
1.715705645984599
 30
0.0
 10
2.70595885685288
 20
1.56813592780102
 30
0.0
 10
2.722847994236998
 20
1.552137436612055
 30
0.0
  0
SPLINE
  5
98
330
1F
100
AcDbEntity
  8
Layer 1
 62
     7
420
 16777215
370
    13
100
AcDbSpline
210
0.0
220
0.0
230
1.0
 70
     8
 71
     3
 72
    14
 73
    10
 74
     0
 42
0.0000000001
 43
0.0000000001
 12
1.0
 22
0.0
 32
0.0
 13
1.0
 23
0.0
 33
0.0
 40
0.0
 40
0.0
 40
0.0
 40
0.0
 40
1.0
 40
1.0
 40
1.0
 40
2.0
 40
2.0
 40
2.0
 40
3.0
 40
3.0
 40
3.0
 40
3.0
 10
2.468601645848088
 20
2.187737850029369
 30
0.0
 10
2.481940626072982
 20
2.153957427019198
 30
0.0
 10
2.502379920616325
 20
2.115738348896583
 30
0.0
 10
2.513051104796255
 20
2.072179536143583
 30
0.0
 10
2.523720217705936
 20
2.028620723390569
 30
0.0
 10
2.624006979278697
 20
1.817599713249062
 30
0.0
 10
2.637509589851056
 20
1.79482402589613
 30
0.0
 10
2.657058238199271
 20
1.761923969701709
 30
0.0
 10
2.709506942741907
 20
1.659696427931623
 30
0.0
 10
2.728177372516307
 20
1.636585194802844
 30
0.0
  0
SPLINE
  5
99
330
1F
100
AcDbEntity
  8
Layer 1
 62
     7
420
 16777215
370
    13
100
AcDbSpline
210
0.0
220
0.0
230
1.0
 70
     8
 71
     3
 72
    14
 73
    10
 74
     0
 42
0.0000000001
 43
0.0000000001
 12
1.0
 22
0.0
 32
0.0
 13
1.0
 23
0.0
 33
0.0
 40
0.0
 40
0.0
 40
0.0
 40
0.0
 40
1.0
 40
1.0
 40
1.0
 40
2.0
 40
2.0
 40
2.0
 40
3.0
 40
3.0
 40
3.0
 40
3.0
 10
2.496159896141914
 20
2.204626910441776
 30
0.0
 10
2.5175001932315
 20
2.163737965003962
 30
0.0
 10
2.539720780165124
 20
2.095288698002125
 30
0.0
 10
2.554830696429184
 20
2.061510423233888
 30
0.0
 10
2.569948897774136
 20
2.027730077195429
 30
0.0
 10
2.617059938956598
 20
1.938831159299159
 30
0.0
 10
2.633058430145562
 20
1.904162238335769
 30
0.0
 10
2.649059081273688
 20
1.869493317372391
 30
0.0
 10
2.719287480726658
 20
1.758373812542459
 30
0.0
 10
2.731737886026622
 20
1.743263962021779
 30
0.0
  0
SPLINE
  5
9A
330
1F
100
AcDbEntity
  8
Layer 1
 62
     7
420
 16777215
370
    13
100
AcDbSpline
210
0.0
220
0.0
230
1.0
 70
     8
 71
     3
 72
    14
 73
    10
 74
     0
 42
0.0000000001
 43
0.0000000001
 12
1.0
 22
0.0
 32
0.0
 13
1.0
 23
0.0
 33
0.0
 40
0.0
 40
0.0
 40
0.0
 40
0.0
 40
1.0
 40
1.0
 40
1.0
 40
2.0
 40
2.0
 40
2.0
 40
3.0
 40
3.0
 40
3.0
 40
3.0
 10
2.529940327840071
 20
2.227746428651421
 30
0.0
 10
2.537939487774843
 20
2.203738335516846
 30
0.0
 10
2.561939295828552
 20
2.149518694935043
 30
0.0
 10
2.567279030458924
 20
2.128178397845444
 30
0.0
 10
2.572610480008456
 20
2.10684845710696
 30
0.0
 10
2.613499425446257
 20
2.040170126144289
 30
0.0
 10
2.622389317235881
 20
2.011729514736228
 30
0.0
 10
2.631279209025504
 20
1.983280618247287
 30
0.0
 10
2.714848748642503
 20
1.851713533793145
 30
0.0
 10
2.729956593636365
 20
1.840162059769189
 30
0.0
  0
SPLINE
  5
9B
330
1F
100
AcDbEntity
  8
Layer 1
 62
     7
420
 16777215
370
    13
100
AcDbSpline
210
0.0
220
0.0
230
1.0
 70
     8
 71
     3
 72
    11
 73
     7
 74
     0
 42
0.0000000001
 43
0.0000000001
 12
1.0
 22
0.0
 32
0.0
 13
1.0
 23
0.0
 33
0.0
 40
0.0
 40
0.0
 40
0.0
 40
0.0
 40
1.0
 40
1.0
 40
1.0
 40
2.0
 40
2.0
 40
2.0
 40
2.0
 10
2.55128053926996
 20
2.241967769990576
 30
0.0
 10
2.569060322849206
 20
2.220627472900964
 30
0.0
 10
2.601950022692538
 20
2.161068097688763
 30
0.0
 10
2.609058622091879
 20
2.129069044040585
 30
0.0
 10
2.616169292761444
 20
2.097069990392407
 30
0.0
 10
2.723728374636241
 20
1.943271962653512
 30
0.0
 10
2.730847239831494
 20
1.938831159299159
 30
0.0
  0
SPLINE
  5
9C
330
1F
100
AcDbEntity
  8
Layer 1
 62
     7
420
 16777215
370
    13
100
AcDbSpline
210
0.0
220
0.0
230
1.0
 70
     8
 71
     3
 72
    11
 73
     7
 74
     0
 42
0.0000000001
 43
0.0000000001
 12
1.0
 22
0.0
 32
0.0
 13
1.0
 23
0.0
 33
0.0
 40
0.0
 40
0.0
 40
0.0
 40
0.0
 40
1.0
 40
1.0
 40
1.0
 40
2.0
 40
2.0
 40
2.0
 40
2.0
 10
2.582388946722984
 20
2.259747553569822
 30
0.0
 10
2.606388754776693
 20
2.241967769990576
 30
0.0
 10
2.625949830746221
 20
2.190407640372844
 30
0.0
 10
2.633058430145562
 20
2.170848635673539
 30
0.0
 10
2.640169100815152
 20
2.151297916055101
 30
0.0
 10
2.706847521906563
 20
2.049950664129066
 30
0.0
 10
2.731737886026622
 20
2.033950101669865
 30
0.0
  0
SPLINE
  5
9D
330
1F
100
AcDbEntity
  8
Layer 1
 62
     7
420
 16777215
370
    13
100
AcDbSpline
210
0.0
220
0.0
230
1.0
 70
     8
 71
     3
 72
    11
 73
     7
 74
     0
 42
0.0000000001
 43
0.0000000001
 12
1.0
 22
0.0
 32
0.0
 13
1.0
 23
0.0
 33
0.0
 40
0.0
 40
0.0
 40
0.0
 40
0.0
 40
1.0
 40
1.0
 40
1.0
 40
2.0
 40
2.0
 40
2.0
 40
2.0
 10
2.615278646566316
 20
2.284635936548435
 30
0.0
 10
2.631279209025504
 20
2.249076369389917
 30
0.0
 10
2.663288708053187
 20
2.192186861492903
 30
0.0
 10
2.677507889093729
 20
2.166407832319161
 30
0.0
 10
2.691727248909425
 20
2.140628803145419
 30
0.0
 10
2.714848748642503
 20
2.080178781738065
 30
0.0
 10
2.737067355198102
 20
2.079290206813147
 30
0.0
  0
SPLINE
  5
9E
330
1F
100
AcDbEntity
  8
Layer 1
 62
     7
420
 16777215
370
    13
100
AcDbSpline
210
0.0
220
0.0
230
1.0
 70
     8
 71
     3
 72
    11
 73
     7
 74
     0
 42
0.0000000001
 43
0.0000000001
 12
1.0
 22
0.0
 32
0.0
 13
1.0
 23
0.0
 33
0.0
 40
0.0
 40
0.0
 40
0.0
 40
0.0
 40
1.0
 40
1.0
 40
1.0
 40
2.0
 40
2.0
 40
2.0
 40
2.0
 10
2.637509589851056
 20
2.298857277887578
 30
0.0
 10
2.650838213724834
 20
2.2730761774436
 30
0.0
 10
2.692617895127063
 20
2.211747937462443
 30
0.0
 10
2.699728476027353
 20
2.193077507688043
 30
0.0
 10
2.706847521906563
 20
2.174407077913656
 30
0.0
 10
2.716617613411472
 20
2.145067535229575
 30
0.0
 10
2.735288043185872
 20
2.139738156950279
 30
0.0
  0
SPLINE
  5
9F
330
1F
100
AcDbEntity
  8
Layer 1
 62
     7
420
 16777215
370
    13
100
AcDbSpline
210
0.0
220
0.0
230
1.0
 70
     8
 71
     3
 72
     8
 73
     4
 74
     0
 42
0.0000000001
 43
0.0000000001
 12
1.0
 22
0.0
 32
0.0
 13
1.0
 23
0.0
 33
0.0
 40
0.0
 40
0.0
 40
0.0
 40
0.0
 40
1.0
 40
1.0
 40
1.0
 40
1.0
 10
2.657058238199271
 20
2.312196258112458
 30
0.0
 10
2.669508643499234
 20
2.300636499007636
 30
0.0
 10
2.712176810057094
 20
2.211747937462443
 30
0.0
 10
2.735288043185872
 20
2.207296777756963
 30
0.0
  0
SPLINE
  5
A0
330
1F
100
AcDbEntity
  8
Layer 1
 62
     7
420
 16777215
370
    13
100
AcDbSpline
210
0.0
220
0.0
230
1.0
 70
     8
 71
     3
 72
    11
 73
     7
 74
     0
 42
0.0000000001
 43
0.0000000001
 12
1.0
 22
0.0
 32
0.0
 13
1.0
 23
0.0
 33
0.0
 40
0.0
 40
0.0
 40
0.0
 40
0.0
 40
1.0
 40
1.0
 40
1.0
 40
2.0
 40
2.0
 40
2.0
 40
2.0
 10
2.67928918148401
 20
2.326415528181378
 30
0.0
 10
2.689067648198538
 20
2.3104170369924
 30
0.0
 10
2.708618367816977
 20
2.277527416389072
 30
0.0
 10
2.712176810057094
 20
2.271307312674657
 30
0.0
 10
2.715737323567434
 20
2.26507693184913
 30
0.0
 10
2.728177372516307
 20
2.249967015585058
 30
0.0
 10
2.737067355198102
 20
2.247297148269859
 30
0.0
  0
SPLINE
  5
A1
330
1F
100
AcDbEntity
  8
Layer 1
 62
     7
420
 16777215
370
    13
100
AcDbSpline
210
0.0
220
0.0
230
1.0
 70
     8
 71
     3
 72
     8
 73
     4
 74
     0
 42
0.0000000001
 43
0.0000000001
 12
1.0
 22
0.0
 32
0.0
 13
1.0
 23
0.0
 33
0.0
 40
0.0
 40
0.0
 40
0.0
 40
0.0
 40
1.0
 40
1.0
 40
1.0
 40
1.0
 10
2.706847521906563
 20
2.344195311760636
 30
0.0
 10
2.712176810057094
 20
2.320195584024822
 30
0.0
 10
2.715737323567434
 20
2.295307120728353
 30
0.0
 10
2.73795800141574
 20
2.289087096253916
 30
0.0
  0
POLYLINE
  5
A2
330
1F
100
AcDbEntity
  8
Layer 1
 62
     7
420
 16777215
370
    20
100
AcDb2dPolyline
 66
     1
 10
0.0
 20
0.0
 30
0.0
  0
VERTEX
  5
A3
330
A2
100
AcDbEntity
  8
Layer 1
 62
     7
420
 16777215
370
    20
100
AcDbVertex
100
AcDb2dVertex
 10
0.4302397984845862
 20
3.340720698070704
 30
0.0
  0
VERTEX
  5
A4
330
A2
100
AcDbEntity
  8
Layer 1
 62
     7
420
 16777215
370
    20
100
AcDbVertex
100
AcDb2dVertex
 10
0.8499661492634357
 20
3.101665145543936
 30
0.0
  0
VERTEX
  5
A5
330
A2
100
AcDbEntity
  8
Layer 1
 62
     7
420
 16777215
370
    20
100
AcDbVertex
100
AcDb2dVertex
 10
1.649285854587788
 20
2.646399939410975
 30
0.0
  0
VERTEX
  5
A6
330
A2
100
AcDbEntity
  8
Layer 1
 62
     7
420
 16777215
370
    20
100
AcDbVertex
100
AcDb2dVertex
 10
2.462381621373677
 20
2.183296969703279
 30
0.0
  0
VERTEX
  5
A7
330
A2
100
AcDbEntity
  8
Layer 1
 62
     7
420
 16777215
370
    20
100
AcDbVertex
100
AcDb2dVertex
 10
2.736176708980464
 20
2.362865741535036
 30
0.0
  0
VERTEX
  5
A8
330
A2
100
AcDbEntity
  8
Layer 1
 62
     7
420
 16777215
370
    20
100
AcDbVertex
100
AcDb2dVertex
 10
2.460602400253618
 20
2.181517748583221
 30
0.0
  0
VERTEX
  5
A9
330
A2
100
AcDbEntity
  8
Layer 1
 62
     7
420
 16777215
370
    20
100
AcDbVertex
100
AcDb2dVertex
 10
2.457052326912768
 20
1.353009660080968
 30
0.0
  0
SEQEND
  5
AA
330
A2
100
AcDbEntity
  8
Layer 1
 62
     7
420
 16777215
370
    20
  0
POLYLINE
  5
AC
330
1F
100
AcDbEntity
  8
xsection
  6
AI-Linetype-1
 62
   250
420
  2301728
370
    13
100
AcDb2dPolyline
 66
     1
 10
0.0
 20
0.0
 30
0.0
  0
VERTEX
  5
AD
330
AC
100
AcDbEntity
  8
xsection
  6
AI-Linetype-1
 62
   250
420
  2301728
370
    13
100
AcDbVertex
100
AcDb2dVertex
 10
1.288994444444446
 20
2.54919444444445
 30
0.0
  0
VERTEX
  5
AE
330
AC
100
AcDbEntity
  8
xsection
  6
AI-Linetype-1
 62
   250
420
  2301728
370
    13
100
AcDbVertex
100
AcDb2dVertex
 10
1.310451388888901
 20
2.01032911588148
 30
0.0
  0
VERTEX
  5
AF
330
AC
100
AcDbEntity
  8
xsection
  6
AI-Linetype-1
 62
   250
420
  2301728
370
    13
100
AcDbVertex
100
AcDb2dVertex
 10
0.7954305555555518
 20
1.291443055555558
 30
0.0
  0
SEQEND
  5
B1
330
AC
100
AcDbEntity
  8
xsection
  6
AI-Linetype-1
 62
   250
420
  2301728
370
    13
  0
POLYLINE
  5
B2
330
1F
100
AcDbEntity
  8
xsection
  6
AI-Linetype-2
 62
   250
420
  2301728
370
    13
100
AcDb2dPolyline
 66
     1
 10
0.0
 20
0.0
 30
0.0
  0
VERTEX
  5
B3
330
B2
100
AcDbEntity
  8
xsection
  6
AI-Linetype-2
 62
   250
420
  2301728
370
    13
100
AcDbVertex
100
AcDb2dVertex
 10
1.310451388888901
 20
2.01032911588148
 30
0.0
  0
VERTEX
  5
B4
330
B2
100
AcDbEntity
  8
xsection
  6
AI-Linetype-2
 62
   250
420
  2301728
370
    13
100
AcDbVertex
100
AcDb2dVertex
 10
1.495238851115977
 20
1.906609674057209
 30
0.0
  0
SEQEND
  5
B6
330
B2
100
AcDbEntity
  8
xsection
  6
AI-Linetype-2
 62
   250
420
  2301728
370
    13
  0
INSERT
  5
B8
330
1F
100
AcDbEntity
  8
xsection
100
AcDbBlockReference
  2
block 2
 10
0.0
 20
0.0
 30
0.0
  0
POLYLINE
  5
124
330
1F
100
AcDbEntity
  8
line
 62
     7
420
 16777215
370
    20
100
AcDb2dPolyline
 66
     1
 10
0.0
 20
0.0
 30
0.0
  0
VERTEX
  5
125
330
124
100
AcDbEntity
  8
line
 62
     7
420
 16777215
370
    20
100
AcDbVertex
100
AcDb2dVertex
 10
0.5920287908242142
 20
1.875713341846815
 30
0.0
  0
VERTEX
  5
126
330
124
100
AcDbEntity
  8
line
 62
     7
420
 16777215
370
    20
100
AcDbVertex
100
AcDb2dVertex
 10
1.329858703606179
 20
2.786009677575786
 30
0.0
  0
SEQEND
  5
127
330
124
100
AcDbEntity
  8
line
 62
     7
420
 16777215
370
    20
  0
SPLINE
  5
129
330
1F
100
AcDbEntity
  8
RR
 62
     7
420
 16777215
370
    30
100
AcDbSpline
210
0.0
220
0.0
230
1.0
 70
    11
 71
     3
 72
   101
 73
    97
 74
     0
 42
0.0000000001
 43
0.0000000001
 12
1.0
 22
0.0
 32
0.0
 13
1.0
 23
0.0
 33
0.0
 40
0.0
 40
0.0
 40
0.0
 40
0.0
 40
1.0
 40
1.0
 40
1.0
 40
2.0
 40
2.0
 40
2.0
 40
3.0
 40
3.0
 40
3.0
 40
4.0
 40
4.0
 40
4.0
 40
5.0
 40
5.0
 40
5.0
 40
6.0
 40
6.0
 40
6.0
 40
7.0
 40
7.0
 40
7.0
 40
8.0
 40
8.0
 40
8.0
 40
9.0
 40
9.0
 40
9.0
 40
10.0
 40
10.0
 40
10.0
 40
11.0
 40
11.0
 40
11.0
 40
12.0
 40
12.0
 40
12.0
 40
13.0
 40
13.0
 40
13.0
 40
14.0
 40
14.0
 40
14.0
 40
15.0
 40
15.0
 40
15.0
 40
16.0
 40
16.0
 40
16.0
 40
17.0
 40
17.0
 40
17.0
 40
18.0
 40
18.0
 40
18.0
 40
19.0
 40
19.0
 40
19.0
 40
20.0
 40
20.0
 40
20.0
 40
21.0
 40
21.0
 40
21.0
 40
22.0
 40
22.0
 40
22.0
 40
23.0
 40
23.0
 40
23.0
 40
24.0
 40
24.0
 40
24.0
 40
25.0
 40
25.0
 40
25.0
 40
26.0
 40
26.0
 40
26.0
 40
27.0
 40
27.0
 40
27.0
 40
28.0
 40
28.0
 40
28.0
 40
29.0
 40
29.0
 40
29.0
 40
30.0
 40
30.0
 40
30.0
 40
31.0
 40
31.0
 40
31.0
 40
32.0
 40
32.0
 40
32.0
 40
32.0
 10
0.8391644747867101
 20
3.06603505513845
 30
0.0
 10
0.8391644747867101
 20
3.08025432520737
 30
0.0
 10
0.8453844994182873
 20
3.095374597822532
 30
0.0
 10
0.8578245486814163
 20
3.103373843417027
 30
0.0
 10
0.870274954295913
 20
3.111375160281732
 30
0.0
 10
1.034559827315181
 20
3.208929916432655
 30
0.0
 10
1.04095176737946
 20
3.213602702051806
 30
0.0
 10
1.050732305611291
 20
3.220713372721371
 30
0.0
 10
1.058731551407896
 20
3.22338324003657
 30
0.0
 10
1.074732114271278
 20
3.212714127126888
 30
0.0
 10
1.075620689218643
 20
3.220713372721371
 30
0.0
 10
1.076511335436281
 20
3.229603264511019
 30
0.0
 10
1.08184071385022
 20
3.230493910706147
 30
0.0
 10
1.080952138902856
 20
3.229603264511019
 30
0.0
 10
1.080952138902856
 20
3.238493259816651
 30
0.0
 10
1.08807109483314
 20
3.24205366981097
 30
0.0
 10
1.095181765682355
 20
3.245601755699984
 30
0.0
 10
1.147630471549948
 20
3.274943369654288
 30
0.0
 10
1.147630471549948
 20
3.274943369654288
 30
0.0
 10
1.147630471549948
 20
3.274943369654288
 30
0.0
 10
1.918339713788454
 20
2.851789077262437
 30
0.0
 10
1.928118180502982
 20
2.847348273908058
 30
0.0
 10
1.937898718487759
 20
2.842909541823903
 30
0.0
 10
1.94856783139744
 20
2.827789269208741
 30
0.0
 10
1.945897964082254
 20
2.8108980605544
 30
0.0
 10
1.932569340208475
 20
2.813567927869599
 30
0.0
 10
1.928118180502982
 20
2.817128441379939
 30
0.0
 10
1.918339713788454
 20
2.812679352944681
 30
0.0
 10
1.908569532154767
 20
2.808238549590303
 30
0.0
 10
1.738781298307787
 20
2.701559848114761
 30
0.0
 10
1.738781298307787
 20
2.701559848114761
 30
0.0
 10
1.738781298307787
 20
2.701559848114761
 30
0.0
 10
1.709441755623705
 20
2.717560410573962
 30
0.0
 10
1.709441755623705
 20
2.717560410573962
 30
0.0
 10
1.709441755623705
 20
2.717560410573962
 30
0.0
 10
1.709441755623705
 20
2.683780064535502
 30
0.0
 10
1.709441755623705
 20
2.683780064535502
 30
0.0
 10
1.709441755623705
 20
2.683780064535502
 30
0.0
 10
1.666773589065845
 20
2.658891681556888
 30
0.0
 10
1.658772272201127
 20
2.654440521851408
 30
0.0
 10
1.650773026606632
 20
2.650001789767265
 30
0.0
 10
1.639213267501822
 20
2.63844203066243
 30
0.0
 10
1.64010391369695
 20
2.62244146820323
 30
0.0
 10
1.640992551824891
 20
2.606440905744029
 30
0.0
 10
1.641883198042503
 20
2.440204983676065
 30
0.0
 10
1.641883198042503
 20
2.440204983676065
 30
0.0
 10
1.641883198042503
 20
2.440204983676065
 30
0.0
 10
1.616992680568172
 20
2.427764851377636
 30
0.0
 10
1.616992680568172
 20
2.427764851377636
 30
0.0
 10
1.616992680568172
 20
2.427764851377636
 30
0.0
 10
1.515655784993239
 20
2.484654443747091
 30
0.0
 10
1.515655784993239
 20
2.484654443747091
 30
0.0
 10
1.515655784993239
 20
2.484654443747091
 30
0.0
 10
1.411646950832897
 20
2.758449356011763
 30
0.0
 10
1.40897708351771
 20
2.768229893996527
 30
0.0
 10
1.415197107992122
 20
2.775338493395869
 30
0.0
 10
1.404536337392932
 20
2.787788898695844
 30
0.0
 10
1.391197356831071
 20
2.788679544890985
 30
0.0
 10
1.391924315786102
 20
2.787515583150012
 30
0.0
 10
1.39830589933778
 20
2.198406885967339
 30
0.0
 10
1.39830589933778
 20
2.198406885967339
 30
0.0
 10
1.39830589933778
 20
2.198406885967339
 30
0.0
 10
1.328968057411026
 20
2.108619393146126
 30
0.0
 10
1.328968057411026
 20
2.108619393146126
 30
0.0
 10
1.328968057411026
 20
2.108619393146126
 30
0.0
 10
1.298748224882906
 20
1.990391288916852
 30
0.0
 10
1.298748224882906
 20
1.990391288916852
 30
0.0
 10
1.298748224882906
 20
1.990391288916852
 30
0.0
 10
1.154741142399164
 20
1.8028232714906
 30
0.0
 10
1.154741142399164
 20
1.8028232714906
 30
0.0
 10
1.154741142399164
 20
1.8028232714906
 30
0.0
 10
1.128071466356535
 20
1.810822517085095
 30
0.0
 10
1.128071466356535
 20
1.810822517085095
 30
0.0
 10
1.128071466356535
 20
1.810822517085095
 30
0.0
 10
1.11296154971074
 20
2.312196258112458
 30
0.0
 10
1.11296154971074
 20
2.312196258112458
 30
0.0
 10
1.11296154971074
 20
2.312196258112458
 30
0.0
 10
1.355637732779921
 20
2.781568874221421
 30
0.0
 10
1.355637732779921
 20
2.781568874221421
 30
0.0
 10
1.355637732779921
 20
2.781568874221421
 30
0.0
 10
1.083622006285496
 20
2.933577324489154
 30
0.0
 10
1.074732114271278
 20
2.938026412924399
 30
0.0
 10
1.089842030917074
 20
2.952247754263542
 30
0.0
 10
1.068512089639727
 20
2.962916867173236
 30
0.0
 10
1.061401418790537
 20
2.953136329188459
 30
0.0
 10
1.054282462860253
 20
2.943357958534193
 30
0.0
 10
0.9307229059600609
 20
2.81178870674954
 30
0.0
 10
0.9307229059600609
 20
2.81178870674954
 30
0.0
 10
0.9307229059600609
 20
2.81178870674954
 30
0.0
 10
0.855165037650118
 20
2.85356839217449
 30
0.0
 10
0.8471657918535634
 20
2.857128811892822
 30
0.0
 10
0.8391644747867101
 20
2.860689325403162
 30
0.0
 10
0.8293860078251529
 20
2.872238728156895
 30
0.0
 10
0.8302745827725175
 20
2.890018511736141
 30
0.0
 10
0.831154872638788
 20
2.9077982953154
 30
0.0
 10
0.8391644747867101
 20
3.051815785069531
 30
0.0
 10
0.8391644747867101
 20
3.06603505513845
 30
0.0
  0
HATCH
  5
12A
330
1F
100
AcDbEntity
  8
RR
 62
   254
420
 13358815
100
AcDbHatch
 10
0.0
 20
0.0
 30
0.0
210
0.0
220
0.0
230
1.0
  2
SOLID
 70
     1
 71
     0
 91
        1
 92
        1
 93
        1
 72
     4
 94
        3
 73
     0
 74
     1
 95
      101
 96
       97
 40
0.0
 40
0.0
 40
0.0
 40
0.0
 40
1.0
 40
1.0
 40
1.0
 40
2.0
 40
2.0
 40
2.0
 40
3.0
 40
3.0
 40
3.0
 40
4.0
 40
4.0
 40
4.0
 40
5.0
 40
5.0
 40
5.0
 40
6.0
 40
6.0
 40
6.0
 40
7.0
 40
7.0
 40
7.0
 40
8.0
 40
8.0
 40
8.0
 40
9.0
 40
9.0
 40
9.0
 40
10.0
 40
10.0
 40
10.0
 40
11.0
 40
11.0
 40
11.0
 40
12.0
 40
12.0
 40
12.0
 40
13.0
 40
13.0
 40
13.0
 40
14.0
 40
14.0
 40
14.0
 40
15.0
 40
15.0
 40
15.0
 40
16.0
 40
16.0
 40
16.0
 40
17.0
 40
17.0
 40
17.0
 40
18.0
 40
18.0
 40
18.0
 40
19.0
 40
19.0
 40
19.0
 40
20.0
 40
20.0
 40
20.0
 40
21.0
 40
21.0
 40
21.0
 40
22.0
 40
22.0
 40
22.0
 40
23.0
 40
23.0
 40
23.0
 40
24.0
 40
24.0
 40
24.0
 40
25.0
 40
25.0
 40
25.0
 40
26.0
 40
26.0
 40
26.0
 40
27.0
 40
27.0
 40
27.0
 40
28.0
 40
28.0
 40
28.0
 40
29.0
 40
29.0
 40
29.0
 40
30.0
 40
30.0
 40
30.0
 40
31.0
 40
31.0
 40
31.0
 40
32.0
 40
32.0
 40
32.0
 40
32.0
 10
0.8391644747867101
 20
3.06603505513845
 10
0.8391644747867101
 20
3.08025432520737
 10
0.8453844994182873
 20
3.095374597822532
 10
0.8578245486814163
 20
3.103373843417027
 10
0.870274954295913
 20
3.111375160281732
 10
1.034559827315181
 20
3.208929916432655
 10
1.04095176737946
 20
3.213602702051806
 10
1.050732305611291
 20
3.220713372721371
 10
1.058731551407896
 20
3.22338324003657
 10
1.074732114271278
 20
3.212714127126888
 10
1.075620689218643
 20
3.220713372721371
 10
1.076511335436281
 20
3.229603264511019
 10
1.08184071385022
 20
3.230493910706147
 10
1.080952138902856
 20
3.229603264511019
 10
1.080952138902856
 20
3.238493259816651
 10
1.08807109483314
 20
3.24205366981097
 10
1.095181765682355
 20
3.245601755699984
 10
1.147630471549948
 20
3.274943369654288
 10
1.147630471549948
 20
3.274943369654288
 10
1.147630471549948
 20
3.274943369654288
 10
1.918339713788454
 20
2.851789077262437
 10
1.928118180502982
 20
2.847348273908058
 10
1.937898718487759
 20
2.842909541823903
 10
1.94856783139744
 20
2.827789269208741
 10
1.945897964082254
 20
2.8108980605544
 10
1.932569340208475
 20
2.813567927869599
 10
1.928118180502982
 20
2.817128441379939
 10
1.918339713788454
 20
2.812679352944681
 10
1.908569532154767
 20
2.808238549590303
 10
1.738781298307787
 20
2.701559848114761
 10
1.738781298307787
 20
2.701559848114761
 10
1.738781298307787
 20
2.701559848114761
 10
1.709441755623705
 20
2.717560410573962
 10
1.709441755623705
 20
2.717560410573962
 10
1.709441755623705
 20
2.717560410573962
 10
1.709441755623705
 20
2.683780064535502
 10
1.709441755623705
 20
2.683780064535502
 10
1.709441755623705
 20
2.683780064535502
 10
1.666773589065845
 20
2.658891681556888
 10
1.658772272201127
 20
2.654440521851408
 10
1.650773026606632
 20
2.650001789767265
 10
1.639213267501822
 20
2.63844203066243
 10
1.64010391369695
 20
2.62244146820323
 10
1.640992551824891
 20
2.606440905744029
 10
1.641883198042503
 20
2.440204983676065
 10
1.641883198042503
 20
2.440204983676065
 10
1.641883198042503
 20
2.440204983676065
 10
1.616992680568172
 20
2.427764851377636
 10
1.616992680568172
 20
2.427764851377636
 10
1.616992680568172
 20
2.427764851377636
 10
1.515655784993239
 20
2.484654443747091
 10
1.515655784993239
 20
2.484654443747091
 10
1.515655784993239
 20
2.484654443747091
 10
1.411646950832897
 20
2.758449356011763
 10
1.40897708351771
 20
2.768229893996527
 10
1.415197107992122
 20
2.775338493395869
 10
1.404536337392932
 20
2.787788898695844
 10
1.391197356831071
 20
2.788679544890985
 10
1.391924315786102
 20
2.787515583150012
 10
1.39830589933778
 20
2.198406885967339
 10
1.39830589933778
 20
2.198406885967339
 10
1.39830589933778
 20
2.198406885967339
 10
1.328968057411026
 20
2.108619393146126
 10
1.328968057411026
 20
2.108619393146126
 10
1.328968057411026
 20
2.108619393146126
 10
1.298748224882906
 20
1.990391288916852
 10
1.298748224882906
 20
1.990391288916852
 10
1.298748224882906
 20
1.990391288916852
 10
1.154741142399164
 20
1.8028232714906
 10
1.154741142399164
 20
1.8028232714906
 10
1.154741142399164
 20
1.8028232714906
 10
1.128071466356535
 20
1.810822517085095
 10
1.128071466356535
 20
1.810822517085095
 10
1.128071466356535
 20
1.810822517085095
 10
1.11296154971074
 20
2.312196258112458
 10
1.11296154971074
 20
2.312196258112458
 10
1.11296154971074
 20
2.312196258112458
 10
1.355637732779921
 20
2.781568874221421
 10
1.355637732779921
 20
2.781568874221421
 10
1.355637732779921
 20
2.781568874221421
 10
1.083622006285496
 20
2.933577324489154
 10
1.074732114271278
 20
2.938026412924399
 10
1.089842030917074
 20
2.952247754263542
 10
1.068512089639727
 20
2.962916867173236
 10
1.061401418790537
 20
2.953136329188459
 10
1.054282462860253
 20
2.943357958534193
 10
0.9307229059600609
 20
2.81178870674954
 10
0.9307229059600609
 20
2.81178870674954
 10
0.9307229059600609
 20
2.81178870674954
 10
0.855165037650118
 20
2.85356839217449
 10
0.8471657918535634
 20
2.857128811892822
 10
0.8391644747867101
 20
2.860689325403162
 10
0.8293860078251529
 20
2.872238728156895
 10
0.8302745827725175
 20
2.890018511736141
 10
0.831154872638788
 20
2.9077982953154
 10
0.8391644747867101
 20
3.051815785069531
 10
0.8391644747867101
 20
3.06603505513845
 97
        0
 97
        0
 75
     2
 76
     1
 98
        0
  0
SPLINE
  5
12B
330
1F
100
AcDbEntity
  8
RR
 62
     7
420
 16777215
370
    20
100
AcDbSpline
210
0.0
220
0.0
230
1.0
 70
     8
 71
     3
 72
    11
 73
     7
 74
     0
 42
0.0000000001
 43
0.0000000001
 12
1.0
 22
0.0
 32
0.0
 13
1.0
 23
0.0
 33
0.0
 40
0.0
 40
0.0
 40
0.0
 40
0.0
 40
1.0
 40
1.0
 40
1.0
 40
2.0
 40
2.0
 40
2.0
 40
2.0
 10
1.077401981653919
 20
2.940687995158719
 30
0.0
 10
1.128960041303875
 20
2.9540269753836
 30
0.0
 10
1.058731551407896
 20
3.003805812611037
 30
0.0
 10
1.060510772572899
 20
2.963807513368377
 30
0.0
 10
1.060229079815675
 20
2.964474462379624
 30
0.0
 10
0.9191631465632275
 20
2.820678598539164
 30
0.0
 10
0.9191631465632275
 20
2.820678598539164
 30
0.0
  0
SPLINE
  5
12C
330
1F
100
AcDbEntity
  8
RR
 62
     7
420
 16777215
370
    20
100
AcDbSpline
210
0.0
220
0.0
230
1.0
 70
     8
 71
     3
 72
     8
 73
     4
 74
     0
 42
0.0000000001
 43
0.0000000001
 12
1.0
 22
0.0
 32
0.0
 13
1.0
 23
0.0
 33
0.0
 40
0.0
 40
0.0
 40
0.0
 40
0.0
 40
1.0
 40
1.0
 40
1.0
 40
1.0
 10
1.409865658442615
 20
2.770899761311726
 30
0.0
 10
1.454315117390757
 20
2.785119031380633
 30
0.0
 10
1.379637540833604
 20
2.838458382118422
 30
0.0
 10
1.377866604794437
 20
2.788679544890985
 30
0.0
  0
POLYLINE
  5
12D
330
1F
100
AcDbEntity
  8
RR
 62
     7
420
 16777215
370
    20
100
AcDb2dPolyline
 66
     1
 10
0.0
 20
0.0
 30
0.0
  0
VERTEX
  5
12E
330
12D
100
AcDbEntity
  8
RR
 62
     7
420
 16777215
370
    20
100
AcDbVertex
100
AcDb2dVertex
 10
1.147630471549948
 20
3.167374021983594
 30
0.0
  0
VERTEX
  5
12F
330
12D
100
AcDbEntity
  8
RR
 62
     7
420
 16777215
370
    20
100
AcDbVertex
100
AcDb2dVertex
 10
1.160070520813052
 20
3.182483938247653
 30
0.0
  0
SEQEND
  5
130
330
12D
100
AcDbEntity
  8
RR
 62
     7
420
 16777215
370
    20
  0
POLYLINE
  5
131
330
1F
100
AcDbEntity
  8
RR
 62
     7
420
 16777215
370
    20
100
AcDb2dPolyline
 66
     1
 10
0.0
 20
0.0
 30
0.0
  0
VERTEX
  5
132
330
131
100
AcDbEntity
  8
RR
 62
     7
420
 16777215
370
    20
100
AcDbVertex
100
AcDb2dVertex
 10
1.149401407633882
 20
3.063365187823251
 30
0.0
  0
VERTEX
  5
133
330
131
100
AcDbEntity
  8
RR
 62
     7
420
 16777215
370
    20
100
AcDbVertex
100
AcDb2dVertex
 10
1.163631034413381
 20
3.08025432520737
 30
0.0
  0
SEQEND
  5
134
330
131
100
AcDbEntity
  8
RR
 62
     7
420
 16777215
370
    20
  0
POLYLINE
  5
135
330
1F
100
AcDbEntity
  8
RR
 62
     7
420
 16777215
370
    20
100
AcDb2dPolyline
 66
     1
 10
0.0
 20
0.0
 30
0.0
  0
VERTEX
  5
136
330
135
100
AcDbEntity
  8
RR
 62
     7
420
 16777215
370
    20
100
AcDbVertex
100
AcDb2dVertex
 10
1.344088330026201
 20
2.957577132542838
 30
0.0
  0
VERTEX
  5
137
330
135
100
AcDbEntity
  8
RR
 62
     7
420
 16777215
370
    20
100
AcDbVertex
100
AcDb2dVertex
 10
1.344976904951131
 20
2.977136137242155
 30
0.0
  0
SEQEND
  5
138
330
135
100
AcDbEntity
  8
RR
 62
     7
420
 16777215
370
    20
  0
POLYLINE
  5
139
330
1F
100
AcDbEntity
  8
RR
 62
     7
420
 16777215
370
    20
100
AcDb2dPolyline
 66
     1
 10
0.0
 20
0.0
 30
0.0
  0
VERTEX
  5
13A
330
139
100
AcDbEntity
  8
RR
 62
     7
420
 16777215
370
    20
100
AcDbVertex
100
AcDb2dVertex
 10
1.616104105643267
 20
2.86157790032808
 30
0.0
  0
VERTEX
  5
13B
330
139
100
AcDbEntity
  8
RR
 62
     7
420
 16777215
370
    20
100
AcDbVertex
100
AcDb2dVertex
 10
1.628544217480642
 20
2.87668781659214
 30
0.0
  0
SEQEND
  5
13C
330
139
100
AcDbEntity
  8
RR
 62
     7
420
 16777215
370
    20
  0
POLYLINE
  5
13D
330
1F
100
AcDbEntity
  8
RR
 62
     7
420
 16777215
370
    20
100
AcDb2dPolyline
 66
     1
 10
0.0
 20
0.0
 30
0.0
  0
VERTEX
  5
13E
330
13D
100
AcDbEntity
  8
RR
 62
     7
420
 16777215
370
    20
100
AcDbVertex
100
AcDb2dVertex
 10
1.448086807835453
 20
2.960246999858037
 30
0.0
  0
VERTEX
  5
13F
330
13D
100
AcDbEntity
  8
RR
 62
     7
420
 16777215
370
    20
100
AcDbVertex
100
AcDb2dVertex
 10
1.448975382760358
 20
2.979806004557367
 30
0.0
  0
SEQEND
  5
140
330
13D
100
AcDbEntity
  8
RR
 62
     7
420
 16777215
370
    20
  0
POLYLINE
  5
141
330
1F
100
AcDbEntity
  8
RR
 62
     7
420
 16777215
370
    20
100
AcDb2dPolyline
 66
     1
 10
0.0
 20
0.0
 30
0.0
  0
VERTEX
  5
142
330
141
100
AcDbEntity
  8
RR
 62
     7
420
 16777215
370
    20
100
AcDbVertex
100
AcDb2dVertex
 10
1.626773218552949
 20
2.763789090642161
 30
0.0
  0
VERTEX
  5
143
330
141
100
AcDbEntity
  8
RR
 62
     7
420
 16777215
370
    20
100
AcDbVertex
100
AcDb2dVertex
 10
1.643662355937067
 20
2.779789745029575
 30
0.0
  0
SEQEND
  5
144
330
141
100
AcDbEntity
  8
RR
 62
     7
420
 16777215
370
    20
  0
POLYLINE
  5
145
330
1F
100
AcDbEntity
  8
RR
 62
     7
420
 16777215
370
    20
100
AcDb2dPolyline
 66
     1
 10
0.0
 20
0.0
 30
0.0
  0
VERTEX
  5
146
330
145
100
AcDbEntity
  8
RR
 62
     7
420
 16777215
370
    20
100
AcDbVertex
100
AcDb2dVertex
 10
1.7361114309926
 20
2.729120169678784
 30
0.0
  0
VERTEX
  5
147
330
145
100
AcDbEntity
  8
RR
 62
     7
420
 16777215
370
    20
100
AcDbVertex
100
AcDb2dVertex
 10
1.737002077187728
 20
2.702450494309902
 30
0.0
  0
SEQEND
  5
148
330
145
100
AcDbEntity
  8
RR
 62
     7
420
 16777215
370
    20
  0
SPLINE
  5
149
330
1F
100
AcDbEntity
  8
RR
 62
     7
420
 16777215
370
    20
100
AcDbSpline
210
0.0
220
0.0
230
1.0
 70
     8
 71
     3
 72
    32
 73
    28
 74
     0
 42
0.0000000001
 43
0.0000000001
 12
1.0
 22
0.0
 32
0.0
 13
1.0
 23
0.0
 33
0.0
 40
0.0
 40
0.0
 40
0.0
 40
0.0
 40
1.0
 40
1.0
 40
1.0
 40
2.0
 40
2.0
 40
2.0
 40
3.0
 40
3.0
 40
3.0
 40
4.0
 40
4.0
 40
4.0
 40
5.0
 40
5.0
 40
5.0
 40
6.0
 40
6.0
 40
6.0
 40
7.0
 40
7.0
 40
7.0
 40
8.0
 40
8.0
 40
8.0
 40
9.0
 40
9.0
 40
9.0
 40
9.0
 10
1.08184071385022
 20
3.231382485631065
 30
0.0
 10
1.08184071385022
 20
3.231382485631065
 30
0.0
 10
1.161849741978055
 20
3.183374584442794
 30
0.0
 10
1.161849741978055
 20
3.183374584442794
 30
0.0
 10
1.161849741978055
 20
3.183374584442794
 30
0.0
 10
1.165399899227016
 20
3.08025432520737
 30
0.0
 10
1.165399899227016
 20
3.08025432520737
 30
0.0
 10
1.165399899227016
 20
3.08025432520737
 30
0.0
 10
1.345857250542394
 20
2.978026783437296
 30
0.0
 10
1.345857250542394
 20
2.978026783437296
 30
0.0
 10
1.345857250542394
 20
2.978026783437296
 30
0.0
 10
1.45075667515064
 20
2.981587296947636
 30
0.0
 10
1.45075667515064
 20
2.981587296947636
 30
0.0
 10
1.45075667515064
 20
2.981587296947636
 30
0.0
 10
1.630323375712174
 20
2.877578462787281
 30
0.0
 10
1.630323375712174
 20
2.877578462787281
 30
0.0
 10
1.630323375712174
 20
2.877578462787281
 30
0.0
 10
1.644553002132221
 20
2.779789745029575
 30
0.0
 10
1.644553002132221
 20
2.779789745029575
 30
0.0
 10
1.644553002132221
 20
2.779789745029575
 30
0.0
 10
1.737002077187728
 20
2.728229523483643
 30
0.0
 10
1.737002077187728
 20
2.728229523483643
 30
0.0
 10
1.737002077187728
 20
2.728229523483643
 30
0.0
 10
1.904120443719522
 20
2.832238357643999
 30
0.0
 10
1.909449891983614
 20
2.834908224959197
 30
0.0
 10
1.914789556629204
 20
2.837567735923282
 30
0.0
 10
1.927229605578077
 20
2.846457627712918
 30
0.0
 10
1.937008072292631
 20
2.837567735923282
 30
0.0
  0
SPLINE
  5
14A
330
1F
100
AcDbEntity
  8
RR
 62
     7
420
 16777215
370
    20
100
AcDbSpline
210
0.0
220
0.0
230
1.0
 70
     8
 71
     3
 72
    35
 73
    31
 74
     0
 42
0.0000000001
 43
0.0000000001
 12
1.0
 22
0.0
 32
0.0
 13
1.0
 23
0.0
 33
0.0
 40
0.0
 40
0.0
 40
0.0
 40
0.0
 40
1.0
 40
1.0
 40
1.0
 40
2.0
 40
2.0
 40
2.0
 40
3.0
 40
3.0
 40
3.0
 40
4.0
 40
4.0
 40
4.0
 40
5.0
 40
5.0
 40
5.0
 40
6.0
 40
6.0
 40
6.0
 40
7.0
 40
7.0
 40
7.0
 40
8.0
 40
8.0
 40
8.0
 40
9.0
 40
9.0
 40
9.0
 40
10.0
 40
10.0
 40
10.0
 40
10.0
 10
1.616992680568172
 20
2.429533716146592
 30
0.0
 10
1.616992680568172
 20
2.429533716146592
 30
0.0
 10
1.616992680568172
 20
2.600222952539828
 30
0.0
 10
1.616992680568172
 20
2.614442222608747
 30
0.0
 10
1.616992680568172
 20
2.628661492677666
 30
0.0
 10
1.62499399743289
 20
2.664778231525714
 30
0.0
 10
1.64010391369695
 20
2.672777477120184
 30
0.0
 10
1.65521382996101
 20
2.680776722714679
 30
0.0
 10
1.709624027403177
 20
2.717742682353421
 30
0.0
 10
1.709624027403177
 20
2.717742682353421
 30
0.0
 10
1.709624027403177
 20
2.717742682353421
 30
0.0
 10
1.625882572357821
 20
2.762900515717244
 30
0.0
 10
1.625882572357821
 20
2.762900515717244
 30
0.0
 10
1.625882572357821
 20
2.762900515717244
 30
0.0
 10
1.616992680568172
 20
2.860689325403162
 30
0.0
 10
1.616992680568172
 20
2.860689325403162
 30
0.0
 10
1.616992680568172
 20
2.860689325403162
 30
0.0
 10
1.448086807835453
 20
2.959356353662909
 30
0.0
 10
1.448086807835453
 20
2.959356353662909
 30
0.0
 10
1.448086807835453
 20
2.959356353662909
 30
0.0
 10
1.344976904951131
 20
2.955806292878404
 30
0.0
 10
1.344976904951131
 20
2.955806292878404
 30
0.0
 10
1.344976904951131
 20
2.955806292878404
 30
0.0
 10
1.149401407633882
 20
3.06247454162811
 30
0.0
 10
1.149401407633882
 20
3.06247454162811
 30
0.0
 10
1.149401407633882
 20
3.06247454162811
 30
0.0
 10
1.14673982533231
 20
3.166483375788453
 30
0.0
 10
1.14673982533231
 20
3.166483375788453
 30
0.0
 10
1.14673982533231
 20
3.166483375788453
 30
0.0
 10
1.072950821836002
 20
3.213602702051806
 30
0.0
 10
1.072950821836002
 20
3.213602702051806
 30
0.0
  0
POLYLINE
  5
14B
330
1F
100
AcDbEntity
  8
RR
 62
     7
420
 16777215
370
    20
100
AcDb2dPolyline
 66
     1
 10
0.0
 20
0.0
 30
0.0
  0
VERTEX
  5
14C
330
14B
100
AcDbEntity
  8
RR
 62
     7
420
 16777215
370
    20
100
AcDbVertex
100
AcDb2dVertex
 10
1.114730414524375
 20
2.313086904307599
 30
0.0
  0
VERTEX
  5
14D
330
14B
100
AcDbEntity
  8
RR
 62
     7
420
 16777215
370
    20
100
AcDbVertex
100
AcDb2dVertex
 10
1.141400090567029
 20
2.313086904307599
 30
0.0
  0
SEQEND
  5
14E
330
14B
100
AcDbEntity
  8
RR
 62
     7
420
 16777215
370
    20
  0
SPLINE
  5
14F
330
1F
100
AcDbEntity
  8
RR
 62
     7
420
 16777215
370
    20
100
AcDbSpline
210
0.0
220
0.0
230
1.0
 70
     8
 71
     3
 72
    14
 73
    10
 74
     0
 42
0.0000000001
 43
0.0000000001
 12
1.0
 22
0.0
 32
0.0
 13
1.0
 23
0.0
 33
0.0
 40
0.0
 40
0.0
 40
0.0
 40
0.0
 40
1.0
 40
1.0
 40
1.0
 40
2.0
 40
2.0
 40
2.0
 40
3.0
 40
3.0
 40
3.0
 40
3.0
 10
1.390306710613433
 20
2.788679544890985
 30
0.0
 10
1.384977275464002
 20
2.786900323770927
 30
0.0
 10
1.37875725098959
 20
2.787788898695844
 30
0.0
 10
1.376087383674379
 20
2.781568874221421
 30
0.0
 10
1.373417516359192
 20
2.775338493395869
 30
0.0
 10
1.142290736784667
 20
2.311305611917318
 30
0.0
 10
1.142290736784667
 20
2.311305611917318
 30
0.0
 10
1.142290736784667
 20
2.311305611917318
 30
0.0
 10
1.155629717346528
 20
1.806008885090907
 30
0.0
 10
1.155629717346528
 20
1.806008885090907
 30
0.0
  0
POLYLINE
  5
150
330
1F
100
AcDbEntity
  8
RR
 62
     7
420
 16777215
370
    13
100
AcDb2dPolyline
 66
     1
 10
0.0
 20
0.0
 30
0.0
  0
VERTEX
  5
151
330
150
100
AcDbEntity
  8
RR
 62
     7
420
 16777215
370
    13
100
AcDbVertex
100
AcDb2dVertex
 10
1.127787702329038
 20
2.935023071103589
 30
0.0
  0
VERTEX
  5
152
330
150
100
AcDbEntity
  8
RR
 62
     7
420
 16777215
370
    13
100
AcDbVertex
100
AcDb2dVertex
 10
1.32480066172588
 20
2.824239205100588
 30
0.0
  0
SEQEND
  5
153
330
150
100
AcDbEntity
  8
RR
 62
     7
420
 16777215
370
    13
  0
POLYLINE
  5
154
330
1F
100
AcDbEntity
  8
RR
 62
     7
420
 16777215
370
    13
100
AcDb2dPolyline
 66
     1
 10
0.0
 20
0.0
 30
0.0
  0
VERTEX
  5
155
330
154
100
AcDbEntity
  8
RR
 62
     7
420
 16777215
370
    13
100
AcDbVertex
100
AcDb2dVertex
 10
0.8756043327098268
 20
3.076704168048145
 30
0.0
  0
VERTEX
  5
156
330
154
100
AcDbEntity
  8
RR
 62
     7
420
 16777215
370
    13
100
AcDbVertex
100
AcDb2dVertex
 10
1.023010424269715
 20
2.993915497304543
 30
0.0
  0
SEQEND
  5
157
330
154
100
AcDbEntity
  8
RR
 62
     7
420
 16777215
370
    13
  0
POLYLINE
  5
158
330
1F
100
AcDbEntity
  8
RR
 62
     7
420
 16777215
370
    13
100
AcDb2dPolyline
 66
     1
 10
0.0
 20
0.0
 30
0.0
  0
VERTEX
  5
159
330
158
100
AcDbEntity
  8
RR
 62
     7
420
 16777215
370
    13
100
AcDbVertex
100
AcDb2dVertex
 10
1.459089395250759
 20
2.748730956133639
 30
0.0
  0
VERTEX
  5
15A
330
158
100
AcDbEntity
  8
RR
 62
     7
420
 16777215
370
    13
100
AcDbVertex
100
AcDb2dVertex
 10
1.598324384189103
 20
2.670441084310609
 30
0.0
  0
SEQEND
  5
15B
330
158
100
AcDbEntity
  8
RR
 62
     7
420
 16777215
370
    13
  0
SPLINE
  5
15C
330
1F
100
AcDbEntity
  8
RR
 62
     7
420
 16777215
370
    15
100
AcDbSpline
210
0.0
220
0.0
230
1.0
 70
    11
 71
     3
 72
    17
 73
    13
 74
     0
 42
0.0000000001
 43
0.0000000001
 12
1.0
 22
0.0
 32
0.0
 13
1.0
 23
0.0
 33
0.0
 40
0.0
 40
0.0
 40
0.0
 40
0.0
 40
1.0
 40
1.0
 40
1.0
 40
2.0
 40
2.0
 40
2.0
 40
3.0
 40
3.0
 40
3.0
 40
4.0
 40
4.0
 40
4.0
 40
4.0
 10
1.058184736055637
 20
3.148330864807702
 30
0.0
 10
1.076774386761043
 20
3.148330864807702
 30
0.0
 10
1.091834592920249
 20
3.157645265754367
 30
0.0
 10
1.091834592920249
 20
3.169124245320555
 30
0.0
 10
1.091834592920249
 20
3.18060322488677
 30
0.0
 10
1.076774386761043
 20
3.189907370720637
 30
0.0
 10
1.058184736055637
 20
3.189907370720637
 30
0.0
 10
1.039607512971922
 20
3.189907370720637
 30
0.0
 10
1.024547306812716
 20
3.18060322488677
 30
0.0
 10
1.024547306812716
 20
3.169124245320555
 30
0.0
 10
1.024547306812716
 20
3.157645265754367
 30
0.0
 10
1.039607512971922
 20
3.148330864807702
 30
0.0
 10
1.058184736055637
 20
3.148330864807702
 30
0.0
  0
HATCH
  5
15D
330
1F
100
AcDbEntity
  8
RR
 62
     7
420
 16777215
100
AcDbHatch
 10
0.0
 20
0.0
 30
0.0
210
0.0
220
0.0
230
1.0
  2
SOLID
 70
     1
 71
     0
 91
        1
 92
        1
 93
        1
 72
     4
 94
        3
 73
     0
 74
     1
 95
       17
 96
       13
 40
0.0
 40
0.0
 40
0.0
 40
0.0
 40
1.0
 40
1.0
 40
1.0
 40
2.0
 40
2.0
 40
2.0
 40
3.0
 40
3.0
 40
3.0
 40
4.0
 40
4.0
 40
4.0
 40
4.0
 10
1.058184736055637
 20
3.148330864807702
 10
1.076774386761043
 20
3.148330864807702
 10
1.091834592920249
 20
3.157645265754367
 10
1.091834592920249
 20
3.169124245320555
 10
1.091834592920249
 20
3.18060322488677
 10
1.076774386761043
 20
3.189907370720637
 10
1.058184736055637
 20
3.189907370720637
 10
1.039607512971922
 20
3.189907370720637
 10
1.024547306812716
 20
3.18060322488677
 10
1.024547306812716
 20
3.169124245320555
 10
1.024547306812716
 20
3.157645265754367
 10
1.039607512971922
 20
3.148330864807702
 10
1.058184736055637
 20
3.148330864807702
 97
        0
 97
        0
 75
     2
 76
     1
 98
        0
  0
SPLINE
  5
15E
330
1F
100
AcDbEntity
  8
RR
 62
     7
420
 16777215
370
    15
100
AcDbSpline
210
0.0
220
0.0
230
1.0
 70
    11
 71
     3
 72
    17
 73
    13
 74
     0
 42
0.0000000001
 43
0.0000000001
 12
1.0
 22
0.0
 32
0.0
 13
1.0
 23
0.0
 33
0.0
 40
0.0
 40
0.0
 40
0.0
 40
0.0
 40
1.0
 40
1.0
 40
1.0
 40
2.0
 40
2.0
 40
2.0
 40
3.0
 40
3.0
 40
3.0
 40
4.0
 40
4.0
 40
4.0
 40
4.0
 10
1.058994602732608
 20
3.157077737713735
 30
0.0
 10
1.077573897086646
 20
3.157077737713735
 30
0.0
 10
1.092642388326921
 20
3.166381883547615
 30
0.0
 10
1.092642388326921
 20
3.177860863113816
 30
0.0
 10
1.092642388326921
 20
3.189339842680018
 30
0.0
 10
1.077573897086646
 20
3.198654344865
 30
0.0
 10
1.058994602732608
 20
3.198654344865
 30
0.0
 10
1.040415308378619
 20
3.198654344865
 30
0.0
 10
1.025346817138294
 20
3.189339842680018
 30
0.0
 10
1.025346817138294
 20
3.177860863113816
 30
0.0
 10
1.025346817138294
 20
3.166381883547615
 30
0.0
 10
1.040415308378619
 20
3.157077737713735
 30
0.0
 10
1.058994602732608
 20
3.157077737713735
 30
0.0
  0
HATCH
  5
15F
330
1F
100
AcDbEntity
  8
RR
 62
   254
420
 13358815
100
AcDbHatch
 10
0.0
 20
0.0
 30
0.0
210
0.0
220
0.0
230
1.0
  2
SOLID
 70
     1
 71
     0
 91
        1
 92
        1
 93
        1
 72
     4
 94
        3
 73
     0
 74
     1
 95
       17
 96
       13
 40
0.0
 40
0.0
 40
0.0
 40
0.0
 40
1.0
 40
1.0
 40
1.0
 40
2.0
 40
2.0
 40
2.0
 40
3.0
 40
3.0
 40
3.0
 40
4.0
 40
4.0
 40
4.0
 40
4.0
 10
1.058994602732608
 20
3.157077737713735
 10
1.077573897086646
 20
3.157077737713735
 10
1.092642388326921
 20
3.166381883547615
 10
1.092642388326921
 20
3.177860863113816
 10
1.092642388326921
 20
3.189339842680018
 10
1.077573897086646
 20
3.198654344865
 10
1.058994602732608
 20
3.198654344865
 10
1.040415308378619
 20
3.198654344865
 10
1.025346817138294
 20
3.189339842680018
 10
1.025346817138294
 20
3.177860863113816
 10
1.025346817138294
 20
3.166381883547615
 10
1.040415308378619
 20
3.157077737713735
 10
1.058994602732608
 20
3.157077737713735
 97
        0
 97
        0
 75
     2
 76
     1
 98
        0
  0
SPLINE
  5
160
330
1F
100
AcDbEntity
  8
RR
 62
     7
420
 16777215
370
    15
100
AcDbSpline
210
0.0
220
0.0
230
1.0
 70
    11
 71
     3
 72
    17
 73
    13
 74
     0
 42
0.0000000001
 43
0.0000000001
 12
1.0
 22
0.0
 32
0.0
 13
1.0
 23
0.0
 33
0.0
 40
0.0
 40
0.0
 40
0.0
 40
0.0
 40
1.0
 40
1.0
 40
1.0
 40
2.0
 40
2.0
 40
2.0
 40
3.0
 40
3.0
 40
3.0
 40
4.0
 40
4.0
 40
4.0
 40
4.0
 10
1.285185547474132
 20
3.038364956252697
 30
0.0
 10
1.303764841358795
 20
3.038364956252697
 30
0.0
 10
1.318822975867331
 20
3.047669102086577
 30
0.0
 10
1.318822975867331
 20
3.059148081652766
 30
0.0
 10
1.318822975867331
 20
3.070627061218968
 30
0.0
 10
1.303764841358795
 20
3.079931207052848
 30
0.0
 10
1.285185547474132
 20
3.079931207052848
 30
0.0
 10
1.266597968508576
 20
3.079931207052848
 30
0.0
 10
1.251537762729842
 20
3.070627061218968
 30
0.0
 10
1.251537762729842
 20
3.059148081652766
 30
0.0
 10
1.251537762729842
 20
3.047669102086577
 30
0.0
 10
1.266597968508576
 20
3.038364956252697
 30
0.0
 10
1.285185547474132
 20
3.038364956252697
 30
0.0
  0
HATCH
  5
161
330
1F
100
AcDbEntity
  8
RR
 62
     7
420
 16777215
100
AcDbHatch
 10
0.0
 20
0.0
 30
0.0
210
0.0
220
0.0
230
1.0
  2
SOLID
 70
     1
 71
     0
 91
        1
 92
        1
 93
        1
 72
     4
 94
        3
 73
     0
 74
     1
 95
       17
 96
       13
 40
0.0
 40
0.0
 40
0.0
 40
0.0
 40
1.0
 40
1.0
 40
1.0
 40
2.0
 40
2.0
 40
2.0
 40
3.0
 40
3.0
 40
3.0
 40
4.0
 40
4.0
 40
4.0
 40
4.0
 10
1.285185547474132
 20
3.038364956252697
 10
1.303764841358795
 20
3.038364956252697
 10
1.318822975867331
 20
3.047669102086577
 10
1.318822975867331
 20
3.059148081652766
 10
1.318822975867331
 20
3.070627061218968
 10
1.303764841358795
 20
3.079931207052848
 10
1.285185547474132
 20
3.079931207052848
 10
1.266597968508576
 20
3.079931207052848
 10
1.251537762729842
 20
3.070627061218968
 10
1.251537762729842
 20
3.059148081652766
 10
1.251537762729842
 20
3.047669102086577
 10
1.266597968508576
 20
3.038364956252697
 10
1.285185547474132
 20
3.038364956252697
 97
        0
 97
        0
 75
     2
 76
     1
 98
        0
  0
SPLINE
  5
162
330
1F
100
AcDbEntity
  8
RR
 62
     7
420
 16777215
370
    15
100
AcDbSpline
210
0.0
220
0.0
230
1.0
 70
    11
 71
     3
 72
    17
 73
    13
 74
     0
 42
0.0000000001
 43
0.0000000001
 12
1.0
 22
0.0
 32
0.0
 13
1.0
 23
0.0
 33
0.0
 40
0.0
 40
0.0
 40
0.0
 40
0.0
 40
1.0
 40
1.0
 40
1.0
 40
2.0
 40
2.0
 40
2.0
 40
3.0
 40
3.0
 40
3.0
 40
4.0
 40
4.0
 40
4.0
 40
4.0
 10
1.285985057779549
 20
3.047103645316168
 30
0.0
 10
1.304564351664213
 20
3.047103645316168
 30
0.0
 10
1.319632842523838
 20
3.0564078900662
 30
0.0
 10
1.319632842523838
 20
3.06788677071625
 30
0.0
 10
1.319632842523838
 20
3.079376106633554
 30
0.0
 10
1.304564351664213
 20
3.088680252467434
 30
0.0
 10
1.285985057779549
 20
3.088680252467434
 30
0.0
 10
1.267405763894885
 20
3.088680252467434
 30
0.0
 10
1.252337273035234
 20
3.079376106633554
 30
0.0
 10
1.252337273035234
 20
3.06788677071625
 30
0.0
 10
1.252337273035234
 20
3.0564078900662
 30
0.0
 10
1.267405763894885
 20
3.047103645316168
 30
0.0
 10
1.285985057779549
 20
3.047103645316168
 30
0.0
  0
HATCH
  5
163
330
1F
100
AcDbEntity
  8
RR
 62
   254
420
 13358815
100
AcDbHatch
 10
0.0
 20
0.0
 30
0.0
210
0.0
220
0.0
230
1.0
  2
SOLID
 70
     1
 71
     0
 91
        1
 92
        1
 93
        1
 72
     4
 94
        3
 73
     0
 74
     1
 95
       17
 96
       13
 40
0.0
 40
0.0
 40
0.0
 40
0.0
 40
1.0
 40
1.0
 40
1.0
 40
2.0
 40
2.0
 40
2.0
 40
3.0
 40
3.0
 40
3.0
 40
4.0
 40
4.0
 40
4.0
 40
4.0
 10
1.285985057779549
 20
3.047103645316168
 10
1.304564351664213
 20
3.047103645316168
 10
1.319632842523838
 20
3.0564078900662
 10
1.319632842523838
 20
3.06788677071625
 10
1.319632842523838
 20
3.079376106633554
 10
1.304564351664213
 20
3.088680252467434
 10
1.285985057779549
 20
3.088680252467434
 10
1.267405763894885
 20
3.088680252467434
 10
1.252337273035234
 20
3.079376106633554
 10
1.252337273035234
 20
3.06788677071625
 10
1.252337273035234
 20
3.0564078900662
 10
1.267405763894885
 20
3.047103645316168
 10
1.285985057779549
 20
3.047103645316168
 97
        0
 97
        0
 75
     2
 76
     1
 98
        0
  0
SPLINE
  5
164
330
1F
100
AcDbEntity
  8
RR
 62
     7
420
 16777215
370
    15
100
AcDbSpline
210
0.0
220
0.0
230
1.0
 70
    11
 71
     3
 72
    17
 73
    13
 74
     0
 42
0.0000000001
 43
0.0000000001
 12
1.0
 22
0.0
 32
0.0
 13
1.0
 23
0.0
 33
0.0
 40
0.0
 40
0.0
 40
0.0
 40
0.0
 40
1.0
 40
1.0
 40
1.0
 40
2.0
 40
2.0
 40
2.0
 40
3.0
 40
3.0
 40
3.0
 40
4.0
 40
4.0
 40
4.0
 40
4.0
 10
1.468526102378797
 20
2.871681556467365
 30
0.0
 10
1.487113681344353
 20
2.871681556467365
 30
0.0
 10
1.502173887123086
 20
2.880985702301246
 30
0.0
 10
1.502173887123086
 20
2.892464681867447
 30
0.0
 10
1.502173887123086
 20
2.903943661433648
 30
0.0
 10
1.487113681344353
 20
2.913258163618619
 30
0.0
 10
1.468526102378797
 20
2.913258163618619
 30
0.0
 10
1.449946808494133
 20
2.913258163618619
 30
0.0
 10
1.434888673985597
 20
2.903943661433648
 30
0.0
 10
1.434888673985597
 20
2.892464681867447
 30
0.0
 10
1.434888673985597
 20
2.880985702301246
 30
0.0
 10
1.449946808494133
 20
2.871681556467365
 30
0.0
 10
1.468526102378797
 20
2.871681556467365
 30
0.0
  0
HATCH
  5
165
330
1F
100
AcDbEntity
  8
RR
 62
     7
420
 16777215
100
AcDbHatch
 10
0.0
 20
0.0
 30
0.0
210
0.0
220
0.0
230
1.0
  2
SOLID
 70
     1
 71
     0
 91
        1
 92
        1
 93
        1
 72
     4
 94
        3
 73
     0
 74
     1
 95
       17
 96
       13
 40
0.0
 40
0.0
 40
0.0
 40
0.0
 40
1.0
 40
1.0
 40
1.0
 40
2.0
 40
2.0
 40
2.0
 40
3.0
 40
3.0
 40
3.0
 40
4.0
 40
4.0
 40
4.0
 40
4.0
 10
1.468526102378797
 20
2.871681556467365
 10
1.487113681344353
 20
2.871681556467365
 10
1.502173887123086
 20
2.880985702301246
 10
1.502173887123086
 20
2.892464681867447
 10
1.502173887123086
 20
2.903943661433648
 10
1.487113681344353
 20
2.913258163618619
 10
1.468526102378797
 20
2.913258163618619
 10
1.449946808494133
 20
2.913258163618619
 10
1.434888673985597
 20
2.903943661433648
 10
1.434888673985597
 20
2.892464681867447
 10
1.434888673985597
 20
2.880985702301246
 10
1.449946808494133
 20
2.871681556467365
 10
1.468526102378797
 20
2.871681556467365
 97
        0
 97
        0
 75
     2
 76
     1
 98
        0
  0
SPLINE
  5
166
330
1F
100
AcDbEntity
  8
RR
 62
     7
420
 16777215
370
    15
100
AcDbSpline
210
0.0
220
0.0
230
1.0
 70
    11
 71
     3
 72
    17
 73
    13
 74
     0
 42
0.0000000001
 43
0.0000000001
 12
1.0
 22
0.0
 32
0.0
 13
1.0
 23
0.0
 33
0.0
 40
0.0
 40
0.0
 40
0.0
 40
0.0
 40
1.0
 40
1.0
 40
1.0
 40
2.0
 40
2.0
 40
2.0
 40
3.0
 40
3.0
 40
3.0
 40
4.0
 40
4.0
 40
4.0
 40
4.0
 10
1.469333897765081
 20
2.880420245530849
 30
0.0
 10
1.487913191649745
 20
2.880420245530849
 30
0.0
 10
1.502973397428504
 20
2.889724391364742
 30
0.0
 10
1.502973397428504
 20
2.901213727282033
 30
0.0
 10
1.502973397428504
 20
2.912692706848222
 30
0.0
 10
1.487913191649745
 20
2.921996852682115
 30
0.0
 10
1.469333897765081
 20
2.921996852682115
 30
0.0
 10
1.450746377196512
 20
2.921996852682115
 30
0.0
 10
1.435686113020792
 20
2.912692706848222
 30
0.0
 10
1.435686113020792
 20
2.901213727282033
 30
0.0
 10
1.435686113020792
 20
2.889724391364742
 30
0.0
 10
1.450746377196512
 20
2.880420245530849
 30
0.0
 10
1.469333897765081
 20
2.880420245530849
 30
0.0
  0
HATCH
  5
167
330
1F
100
AcDbEntity
  8
RR
 62
   254
420
 13358815
100
AcDbHatch
 10
0.0
 20
0.0
 30
0.0
210
0.0
220
0.0
230
1.0
  2
SOLID
 70
     1
 71
     0
 91
        1
 92
        1
 93
        1
 72
     4
 94
        3
 73
     0
 74
     1
 95
       17
 96
       13
 40
0.0
 40
0.0
 40
0.0
 40
0.0
 40
1.0
 40
1.0
 40
1.0
 40
2.0
 40
2.0
 40
2.0
 40
3.0
 40
3.0
 40
3.0
 40
4.0
 40
4.0
 40
4.0
 40
4.0
 10
1.469333897765081
 20
2.880420245530849
 10
1.487913191649745
 20
2.880420245530849
 10
1.502973397428504
 20
2.889724391364742
 10
1.502973397428504
 20
2.901213727282033
 10
1.502973397428504
 20
2.912692706848222
 10
1.487913191649745
 20
2.921996852682115
 10
1.469333897765081
 20
2.921996852682115
 10
1.450746377196512
 20
2.921996852682115
 10
1.435686113020792
 20
2.912692706848222
 10
1.435686113020792
 20
2.901213727282033
 10
1.435686113020792
 20
2.889724391364742
 10
1.450746377196512
 20
2.880420245530849
 10
1.469333897765081
 20
2.880420245530849
 97
        0
 97
        0
 75
     2
 76
     1
 98
        0
  0
SPLINE
  5
168
330
1F
100
AcDbEntity
  8
RR
 62
     7
420
 16777215
370
    15
100
AcDbSpline
210
0.0
220
0.0
230
1.0
 70
    11
 71
     3
 72
    17
 73
    13
 74
     0
 42
0.0000000001
 43
0.0000000001
 12
1.0
 22
0.0
 32
0.0
 13
1.0
 23
0.0
 33
0.0
 40
0.0
 40
0.0
 40
0.0
 40
0.0
 40
1.0
 40
1.0
 40
1.0
 40
2.0
 40
2.0
 40
2.0
 40
3.0
 40
3.0
 40
3.0
 40
4.0
 40
4.0
 40
4.0
 40
4.0
 10
1.73058942458273
 20
2.78278263857107
 30
0.0
 10
1.749168718467394
 20
2.78278263857107
 30
0.0
 10
1.764237209327019
 20
2.79208678440495
 30
0.0
 10
1.764237209327019
 20
2.803576120322254
 30
0.0
 10
1.764237209327019
 20
2.815055099888455
 30
0.0
 10
1.749168718467394
 20
2.824359245722336
 30
0.0
 10
1.73058942458273
 20
2.824359245722336
 30
0.0
 10
1.712001845617174
 20
2.824359245722336
 30
0.0
 10
1.696941639838416
 20
2.815055099888455
 30
0.0
 10
1.696941639838416
 20
2.803576120322254
 30
0.0
 10
1.696941639838416
 20
2.79208678440495
 30
0.0
 10
1.712001845617174
 20
2.78278263857107
 30
0.0
 10
1.73058942458273
 20
2.78278263857107
 30
0.0
  0
HATCH
  5
169
330
1F
100
AcDbEntity
  8
RR
 62
     7
420
 16777215
100
AcDbHatch
 10
0.0
 20
0.0
 30
0.0
210
0.0
220
0.0
230
1.0
  2
SOLID
 70
     1
 71
     0
 91
        1
 92
        1
 93
        1
 72
     4
 94
        3
 73
     0
 74
     1
 95
       17
 96
       13
 40
0.0
 40
0.0
 40
0.0
 40
0.0
 40
1.0
 40
1.0
 40
1.0
 40
2.0
 40
2.0
 40
2.0
 40
3.0
 40
3.0
 40
3.0
 40
4.0
 40
4.0
 40
4.0
 40
4.0
 10
1.73058942458273
 20
2.78278263857107
 10
1.749168718467394
 20
2.78278263857107
 10
1.764237209327019
 20
2.79208678440495
 10
1.764237209327019
 20
2.803576120322254
 10
1.764237209327019
 20
2.815055099888455
 10
1.749168718467394
 20
2.824359245722336
 10
1.73058942458273
 20
2.824359245722336
 10
1.712001845617174
 20
2.824359245722336
 10
1.696941639838416
 20
2.815055099888455
 10
1.696941639838416
 20
2.803576120322254
 10
1.696941639838416
 20
2.79208678440495
 10
1.712001845617174
 20
2.78278263857107
 10
1.73058942458273
 20
2.78278263857107
 97
        0
 97
        0
 75
     2
 76
     1
 98
        0
  0
SPLINE
  5
16A
330
1F
100
AcDbEntity
  8
RR
 62
     7
420
 16777215
370
    15
100
AcDbSpline
210
0.0
220
0.0
230
1.0
 70
    11
 71
     3
 72
    17
 73
    13
 74
     0
 42
0.0000000001
 43
0.0000000001
 12
1.0
 22
0.0
 32
0.0
 13
1.0
 23
0.0
 33
0.0
 40
0.0
 40
0.0
 40
0.0
 40
0.0
 40
1.0
 40
1.0
 40
1.0
 40
2.0
 40
2.0
 40
2.0
 40
3.0
 40
3.0
 40
3.0
 40
4.0
 40
4.0
 40
4.0
 40
4.0
 10
1.731388934888122
 20
2.791521327634554
 30
0.0
 10
1.749978585123901
 20
2.791521327634554
 30
0.0
 10
1.765036719632437
 20
2.800835829819536
 30
0.0
 10
1.765036719632437
 20
2.812314809385738
 30
0.0
 10
1.765036719632437
 20
2.823793788951939
 30
0.0
 10
1.749978585123901
 20
2.833097934785819
 30
0.0
 10
1.731388934888122
 20
2.833097934785819
 30
0.0
 10
1.712809641003458
 20
2.833097934785819
 30
0.0
 10
1.697741150143833
 20
2.823793788951939
 30
0.0
 10
1.697741150143833
 20
2.812314809385738
 30
0.0
 10
1.697741150143833
 20
2.800835829819536
 30
0.0
 10
1.712809641003458
 20
2.791521327634554
 30
0.0
 10
1.731388934888122
 20
2.791521327634554
 30
0.0
  0
HATCH
  5
16B
330
1F
100
AcDbEntity
  8
RR
 62
   254
420
 13358815
100
AcDbHatch
 10
0.0
 20
0.0
 30
0.0
210
0.0
220
0.0
230
1.0
  2
SOLID
 70
     1
 71
     0
 91
        1
 92
        1
 93
        1
 72
     4
 94
        3
 73
     0
 74
     1
 95
       17
 96
       13
 40
0.0
 40
0.0
 40
0.0
 40
0.0
 40
1.0
 40
1.0
 40
1.0
 40
2.0
 40
2.0
 40
2.0
 40
3.0
 40
3.0
 40
3.0
 40
4.0
 40
4.0
 40
4.0
 40
4.0
 10
1.731388934888122
 20
2.791521327634554
 10
1.749978585123901
 20
2.791521327634554
 10
1.765036719632437
 20
2.800835829819536
 10
1.765036719632437
 20
2.812314809385738
 10
1.765036719632437
 20
2.823793788951939
 10
1.749978585123901
 20
2.833097934785819
 10
1.731388934888122
 20
2.833097934785819
 10
1.712809641003458
 20
2.833097934785819
 10
1.697741150143833
 20
2.823793788951939
 10
1.697741150143833
 20
2.812314809385738
 10
1.697741150143833
 20
2.800835829819536
 10
1.712809641003458
 20
2.791521327634554
 10
1.731388934888122
 20
2.791521327634554
 97
        0
 97
        0
 75
     2
 76
     1
 98
        0
  0
SPLINE
  5
16C
330
1F
100
AcDbEntity
  8
RR
 62
     7
420
 16777215
370
    15
100
AcDbSpline
210
0.0
220
0.0
230
1.0
 70
    11
 71
     3
 72
    17
 73
    13
 74
     0
 42
0.0000000001
 43
0.0000000001
 12
1.0
 22
0.0
 32
0.0
 13
1.0
 23
0.0
 33
0.0
 40
0.0
 40
0.0
 40
0.0
 40
0.0
 40
1.0
 40
1.0
 40
1.0
 40
2.0
 40
2.0
 40
2.0
 40
3.0
 40
3.0
 40
3.0
 40
4.0
 40
4.0
 40
4.0
 40
4.0
 10
1.565393196816255
 20
2.483834136267028
 30
0.0
 10
1.578075584381016
 20
2.48398533899318
 30
0.0
 10
1.586663132548842
 20
2.49727460873276
 30
0.0
 10
1.584569016524635
 20
2.513496797105618
 30
0.0
 10
1.582466677250068
 20
2.529729341829605
 30
0.0
 10
1.570490592830765
 20
2.542755560251092
 30
0.0
 10
1.557808205266029
 20
2.542594001173825
 30
0.0
 10
1.545115461350179
 20
2.542442884379991
 30
0.0
 10
1.536540402634172
 20
2.529163885059208
 30
0.0
 10
1.538632385557649
 20
2.512931340335222
 30
0.0
 10
1.540726439751325
 20
2.496709236739333
 30
0.0
 10
1.552710809251519
 20
2.483672577189774
 30
0.0
 10
1.565393196816255
 20
2.483834136267028
 30
0.0
  0
HATCH
  5
16D
330
1F
100
AcDbEntity
  8
RR
 62
     7
420
 16777215
100
AcDbHatch
 10
0.0
 20
0.0
 30
0.0
210
0.0
220
0.0
230
1.0
  2
SOLID
 70
     1
 71
     0
 91
        1
 92
        1
 93
        1
 72
     4
 94
        3
 73
     0
 74
     1
 95
       17
 96
       13
 40
0.0
 40
0.0
 40
0.0
 40
0.0
 40
1.0
 40
1.0
 40
1.0
 40
2.0
 40
2.0
 40
2.0
 40
3.0
 40
3.0
 40
3.0
 40
4.0
 40
4.0
 40
4.0
 40
4.0
 10
1.565393196816255
 20
2.483834136267028
 10
1.578075584381016
 20
2.48398533899318
 10
1.586663132548842
 20
2.49727460873276
 10
1.584569016524635
 20
2.513496797105618
 10
1.582466677250068
 20
2.529729341829605
 10
1.570490592830765
 20
2.542755560251092
 10
1.557808205266029
 20
2.542594001173825
 10
1.545115461350179
 20
2.542442884379991
 10
1.536540402634172
 20
2.529163885059208
 10
1.538632385557649
 20
2.512931340335222
 10
1.540726439751325
 20
2.496709236739333
 10
1.552710809251519
 20
2.483672577189774
 10
1.565393196816255
 20
2.483834136267028
 97
        0
 97
        0
 75
     2
 76
     1
 98
        0
  0
SPLINE
  5
16E
330
1F
100
AcDbEntity
  8
RR
 62
     7
420
 16777215
370
    15
100
AcDbSpline
210
0.0
220
0.0
230
1.0
 70
    11
 71
     3
 72
    17
 73
    13
 74
     0
 42
0.0000000001
 43
0.0000000001
 12
1.0
 22
0.0
 32
0.0
 13
1.0
 23
0.0
 33
0.0
 40
0.0
 40
0.0
 40
0.0
 40
0.0
 40
1.0
 40
1.0
 40
1.0
 40
2.0
 40
2.0
 40
2.0
 40
3.0
 40
3.0
 40
3.0
 40
4.0
 40
4.0
 40
4.0
 40
4.0
 10
1.558821056404213
 20
2.480760455632776
 30
0.0
 10
1.571503443968974
 20
2.480921930335942
 30
0.0
 10
1.58008885903607
 20
2.494200843724419
 30
0.0
 10
1.57799480484237
 20
2.51042303209729
 30
0.0
 10
1.575892527126244
 20
2.526655576821263
 30
0.0
 10
1.5639163811485
 20
2.539681795242738
 30
0.0
 10
1.551233993583764
 20
2.539520236165484
 30
0.0
 10
1.538551606019003
 20
2.539369033439332
 30
0.0
 10
1.529966190951907
 20
2.526090120050867
 30
0.0
 10
1.532060245145582
 20
2.509857575326881
 30
0.0
 10
1.53415222806906
 20
2.49363538695401
 30
0.0
 10
1.546136597569254
 20
2.480609168532535
 30
0.0
 10
1.558821056404213
 20
2.480760455632776
 30
0.0
  0
HATCH
  5
16F
330
1F
100
AcDbEntity
  8
RR
 62
   254
420
 13358815
100
AcDbHatch
 10
0.0
 20
0.0
 30
0.0
210
0.0
220
0.0
230
1.0
  2
SOLID
 70
     1
 71
     0
 91
        1
 92
        1
 93
        1
 72
     4
 94
        3
 73
     0
 74
     1
 95
       17
 96
       13
 40
0.0
 40
0.0
 40
0.0
 40
0.0
 40
1.0
 40
1.0
 40
1.0
 40
2.0
 40
2.0
 40
2.0
 40
3.0
 40
3.0
 40
3.0
 40
4.0
 40
4.0
 40
4.0
 40
4.0
 10
1.558821056404213
 20
2.480760455632776
 10
1.571503443968974
 20
2.480921930335942
 10
1.58008885903607
 20
2.494200843724419
 10
1.57799480484237
 20
2.51042303209729
 10
1.575892527126244
 20
2.526655576821263
 10
1.5639163811485
 20
2.539681795242738
 10
1.551233993583764
 20
2.539520236165484
 10
1.538551606019003
 20
2.539369033439332
 10
1.529966190951907
 20
2.526090120050867
 10
1.532060245145582
 20
2.509857575326881
 10
1.53415222806906
 20
2.49363538695401
 10
1.546136597569254
 20
2.480609168532535
 10
1.558821056404213
 20
2.480760455632776
 97
        0
 97
        0
 75
     2
 76
     1
 98
        0
  0
SPLINE
  5
170
330
1F
100
AcDbEntity
  8
RR
 62
     7
420
 16777215
370
    15
100
AcDbSpline
210
0.0
220
0.0
230
1.0
 70
    11
 71
     3
 72
    17
 73
    13
 74
     0
 42
0.0000000001
 43
0.0000000001
 12
1.0
 22
0.0
 32
0.0
 13
1.0
 23
0.0
 33
0.0
 40
0.0
 40
0.0
 40
0.0
 40
0.0
 40
1.0
 40
1.0
 40
1.0
 40
2.0
 40
2.0
 40
2.0
 40
3.0
 40
3.0
 40
3.0
 40
4.0
 40
4.0
 40
4.0
 40
4.0
 10
0.897247035798475
 20
2.853294890713275
 30
0.0
 10
0.9099294236836056
 20
2.853446093439427
 30
0.0
 10
0.9185169102378646
 20
2.866735363179019
 30
0.0
 10
0.9164124996398944
 20
2.882957551551878
 30
0.0
 10
0.914318445393317
 20
2.899179739924762
 30
0.0
 10
0.9023340755903871
 20
2.912216314697338
 30
0.0
 10
0.8896516877052312
 20
2.912054755620084
 30
0.0
 10
0.8769692998201005
 20
2.911903552893932
 30
0.0
 10
0.8683942408874827
 20
2.898624639505455
 30
0.0
 10
0.8704862238638118
 20
2.882392094781481
 30
0.0
 10
0.8725802781103892
 20
2.86616990640861
 30
0.0
 10
0.8845646479133443
 20
2.853133425417039
 30
0.0
 10
0.897247035798475
 20
2.853294890713275
 30
0.0
  0
HATCH
  5
171
330
1F
100
AcDbEntity
  8
RR
 62
     7
420
 16777215
100
AcDbHatch
 10
0.0
 20
0.0
 30
0.0
210
0.0
220
0.0
230
1.0
  2
SOLID
 70
     1
 71
     0
 91
        1
 92
        1
 93
        1
 72
     4
 94
        3
 73
     0
 74
     1
 95
       17
 96
       13
 40
0.0
 40
0.0
 40
0.0
 40
0.0
 40
1.0
 40
1.0
 40
1.0
 40
2.0
 40
2.0
 40
2.0
 40
3.0
 40
3.0
 40
3.0
 40
4.0
 40
4.0
 40
4.0
 40
4.0
 10
0.897247035798475
 20
2.853294890713275
 10
0.9099294236836056
 20
2.853446093439427
 10
0.9185169102378646
 20
2.866735363179019
 10
0.9164124996398944
 20
2.882957551551878
 10
0.914318445393317
 20
2.899179739924762
 10
0.9023340755903871
 20
2.912216314697338
 10
0.8896516877052312
 20
2.912054755620084
 10
0.8769692998201005
 20
2.911903552893932
 10
0.8683942408874827
 20
2.898624639505455
 10
0.8704862238638118
 20
2.882392094781481
 10
0.8725802781103892
 20
2.86616990640861
 10
0.8845646479133443
 20
2.853133425417039
 10
0.897247035798475
 20
2.853294890713275
 97
        0
 97
        0
 75
     2
 76
     1
 98
        0
  0
SPLINE
  5
172
330
1F
100
AcDbEntity
  8
RR
 62
     7
420
 16777215
370
    15
100
AcDbSpline
210
0.0
220
0.0
230
1.0
 70
    11
 71
     3
 72
    17
 73
    13
 74
     0
 42
0.0000000001
 43
0.0000000001
 12
1.0
 22
0.0
 32
0.0
 13
1.0
 23
0.0
 33
0.0
 40
0.0
 40
0.0
 40
0.0
 40
0.0
 40
1.0
 40
1.0
 40
1.0
 40
2.0
 40
2.0
 40
2.0
 40
3.0
 40
3.0
 40
3.0
 40
4.0
 40
4.0
 40
4.0
 40
4.0
 10
0.8906728239501263
 20
2.850221125704934
 30
0.0
 10
0.9033552118352569
 20
2.850382684782188
 30
0.0
 10
0.9119426983895158
 20
2.863661598170665
 30
0.0
 10
0.9098382877915708
 20
2.879883786543536
 30
0.0
 10
0.9077463048152418
 20
2.896116331267522
 30
0.0
 10
0.8957702200933807
 20
2.909142549688997
 30
0.0
 10
0.8830774758569078
 20
2.90898099061173
 30
0.0
 10
0.870395087971777
 20
2.908829883073609
 30
0.0
 10
0.8618200290391592
 20
2.895550874497113
 30
0.0
 10
0.8639120120154631
 20
2.87931832977314
 30
0.0
 10
0.8660060662620405
 20
2.863096235432964
 30
0.0
 10
0.8779904360649703
 20
2.850069922978782
 30
0.0
 10
0.8906728239501263
 20
2.850221125704934
 30
0.0
  0
HATCH
  5
173
330
1F
100
AcDbEntity
  8
RR
 62
   254
420
 13358815
100
AcDbHatch
 10
0.0
 20
0.0
 30
0.0
210
0.0
220
0.0
230
1.0
  2
SOLID
 70
     1
 71
     0
 91
        1
 92
        1
 93
        1
 72
     4
 94
        3
 73
     0
 74
     1
 95
       17
 96
       13
 40
0.0
 40
0.0
 40
0.0
 40
0.0
 40
1.0
 40
1.0
 40
1.0
 40
2.0
 40
2.0
 40
2.0
 40
3.0
 40
3.0
 40
3.0
 40
4.0
 40
4.0
 40
4.0
 40
4.0
 10
0.8906728239501263
 20
2.850221125704934
 10
0.9033552118352569
 20
2.850382684782188
 10
0.9119426983895158
 20
2.863661598170665
 10
0.9098382877915708
 20
2.879883786543536
 10
0.9077463048152418
 20
2.896116331267522
 10
0.8957702200933807
 20
2.909142549688997
 10
0.8830774758569078
 20
2.90898099061173
 10
0.870395087971777
 20
2.908829883073609
 10
0.8618200290391592
 20
2.895550874497113
 10
0.8639120120154631
 20
2.87931832977314
 10
0.8660060662620405
 20
2.863096235432964
 10
0.8779904360649703
 20
2.850069922978782
 10
0.8906728239501263
 20
2.850221125704934
 97
        0
 97
        0
 75
     2
 76
     1
 98
        0
  0
SPLINE
  5
174
330
1F
100
AcDbEntity
  8
RR
 62
     7
420
 16777215
370
    15
100
AcDbSpline
210
0.0
220
0.0
230
1.0
 70
    11
 71
     3
 72
    17
 73
    13
 74
     0
 42
0.0000000001
 43
0.0000000001
 12
1.0
 22
0.0
 32
0.0
 13
1.0
 23
0.0
 33
0.0
 40
0.0
 40
0.0
 40
0.0
 40
0.0
 40
1.0
 40
1.0
 40
1.0
 40
2.0
 40
2.0
 40
2.0
 40
3.0
 40
3.0
 40
3.0
 40
4.0
 40
4.0
 40
4.0
 40
4.0
 10
1.194314832246164
 20
2.224774155883918
 30
0.0
 10
1.204793388560195
 20
2.224774155883918
 30
0.0
 10
1.213287615553908
 20
2.239407679997094
 30
0.0
 10
1.213287615553908
 20
2.257450514894458
 30
0.0
 10
1.213287615553908
 20
2.275493349791809
 30
0.0
 10
1.204793388560195
 20
2.290118588824094
 30
0.0
 10
1.194314832246164
 20
2.290118588824094
 30
0.0
 10
1.183827990851038
 20
2.290118588824094
 30
0.0
 10
1.175331640188814
 20
2.275493349791809
 30
0.0
 10
1.175331640188814
 20
2.257450514894458
 30
0.0
 10
1.175331640188814
 20
2.239407679997094
 30
0.0
 10
1.183827990851038
 20
2.224774155883918
 30
0.0
 10
1.194314832246164
 20
2.224774155883918
 30
0.0
  0
HATCH
  5
175
330
1F
100
AcDbEntity
  8
RR
 62
     7
420
 16777215
100
AcDbHatch
 10
0.0
 20
0.0
 30
0.0
210
0.0
220
0.0
230
1.0
  2
SOLID
 70
     1
 71
     0
 91
        1
 92
        1
 93
        1
 72
     4
 94
        3
 73
     0
 74
     1
 95
       17
 96
       13
 40
0.0
 40
0.0
 40
0.0
 40
0.0
 40
1.0
 40
1.0
 40
1.0
 40
2.0
 40
2.0
 40
2.0
 40
3.0
 40
3.0
 40
3.0
 40
4.0
 40
4.0
 40
4.0
 40
4.0
 10
1.194314832246164
 20
2.224774155883918
 10
1.204793388560195
 20
2.224774155883918
 10
1.213287615553908
 20
2.239407679997094
 10
1.213287615553908
 20
2.257450514894458
 10
1.213287615553908
 20
2.275493349791809
 10
1.204793388560195
 20
2.290118588824094
 10
1.194314832246164
 20
2.290118588824094
 10
1.183827990851038
 20
2.290118588824094
 10
1.175331640188814
 20
2.275493349791809
 10
1.175331640188814
 20
2.257450514894458
 10
1.175331640188814
 20
2.239407679997094
 10
1.183827990851038
 20
2.224774155883918
 10
1.194314832246164
 20
2.224774155883918
 97
        0
 97
        0
 75
     2
 76
     1
 98
        0
  0
SPLINE
  5
176
330
1F
100
AcDbEntity
  8
RR
 62
     7
420
 16777215
370
    15
100
AcDbSpline
210
0.0
220
0.0
230
1.0
 70
    11
 71
     3
 72
    17
 73
    13
 74
     0
 42
0.0000000001
 43
0.0000000001
 12
1.0
 22
0.0
 32
0.0
 13
1.0
 23
0.0
 33
0.0
 40
0.0
 40
0.0
 40
0.0
 40
0.0
 40
1.0
 40
1.0
 40
1.0
 40
2.0
 40
2.0
 40
2.0
 40
3.0
 40
3.0
 40
3.0
 40
4.0
 40
4.0
 40
4.0
 40
4.0
 10
1.204468199127253
 20
2.223904222390994
 30
0.0
 10
1.214946703001134
 20
2.223904222390994
 30
0.0
 10
1.223443053448717
 20
2.238529461423278
 30
0.0
 10
1.223443053448717
 20
2.256580581401522
 30
0.0
 10
1.223443053448717
 20
2.274623416298886
 30
0.0
 10
1.214946703001134
 20
2.28924865533117
 30
0.0
 10
1.204468199127253
 20
2.28924865533117
 30
0.0
 10
1.193981357732127
 20
2.28924865533117
 30
0.0
 10
1.185485007069903
 20
2.274623416298886
 30
0.0
 10
1.185485007069903
 20
2.256580581401522
 30
0.0
 10
1.185485007069903
 20
2.238529461423278
 30
0.0
 10
1.193981357732127
 20
2.223904222390994
 30
0.0
 10
1.204468199127253
 20
2.223904222390994
 30
0.0
  0
HATCH
  5
177
330
1F
100
AcDbEntity
  8
RR
 62
   254
420
 13358815
100
AcDbHatch
 10
0.0
 20
0.0
 30
0.0
210
0.0
220
0.0
230
1.0
  2
SOLID
 70
     1
 71
     0
 91
        1
 92
        1
 93
        1
 72
     4
 94
        3
 73
     0
 74
     1
 95
       17
 96
       13
 40
0.0
 40
0.0
 40
0.0
 40
0.0
 40
1.0
 40
1.0
 40
1.0
 40
2.0
 40
2.0
 40
2.0
 40
3.0
 40
3.0
 40
3.0
 40
4.0
 40
4.0
 40
4.0
 40
4.0
 10
1.204468199127253
 20
2.223904222390994
 10
1.214946703001134
 20
2.223904222390994
 10
1.223443053448717
 20
2.238529461423278
 10
1.223443053448717
 20
2.256580581401522
 10
1.223443053448717
 20
2.274623416298886
 10
1.214946703001134
 20
2.28924865533117
 10
1.204468199127253
 20
2.28924865533117
 10
1.193981357732127
 20
2.28924865533117
 10
1.185485007069903
 20
2.274623416298886
 10
1.185485007069903
 20
2.256580581401522
 10
1.185485007069903
 20
2.238529461423278
 10
1.193981357732127
 20
2.223904222390994
 10
1.204468199127253
 20
2.223904222390994
 97
        0
 97
        0
 75
     2
 76
     1
 98
        0
  0
SPLINE
  5
178
330
1F
100
AcDbEntity
  8
RR
 62
     7
420
 16777215
370
    15
100
AcDbSpline
210
0.0
220
0.0
230
1.0
 70
    11
 71
     3
 72
    17
 73
    13
 74
     0
 42
0.0000000001
 43
0.0000000001
 12
1.0
 22
0.0
 32
0.0
 13
1.0
 23
0.0
 33
0.0
 40
0.0
 40
0.0
 40
0.0
 40
0.0
 40
1.0
 40
1.0
 40
1.0
 40
2.0
 40
2.0
 40
2.0
 40
3.0
 40
3.0
 40
3.0
 40
4.0
 40
4.0
 40
4.0
 40
4.0
 10
1.216564365043925
 20
1.994142359287556
 30
0.0
 10
1.227042921093269
 20
1.994142359287556
 30
0.0
 10
1.235537200270629
 20
2.008777954670942
 30
0.0
 10
1.235537200270629
 20
2.026820862474905
 30
0.0
 10
1.235537200270629
 20
2.044863624465658
 30
0.0
 10
1.227042921093269
 20
2.059497148578834
 30
0.0
 10
1.216564365043925
 20
2.059497148578834
 30
0.0
 10
1.206087932481195
 20
2.059497148578834
 30
0.0
 10
1.197591581818971
 20
2.044863624465658
 30
0.0
 10
1.197591581818971
 20
2.026820862474905
 30
0.0
 10
1.197591581818971
 20
2.008777954670942
 30
0.0
 10
1.206087932481195
 20
1.994142359287556
 30
0.0
 10
1.216564365043925
 20
1.994142359287556
 30
0.0
  0
HATCH
  5
179
330
1F
100
AcDbEntity
  8
RR
 62
     7
420
 16777215
100
AcDbHatch
 10
0.0
 20
0.0
 30
0.0
210
0.0
220
0.0
230
1.0
  2
SOLID
 70
     1
 71
     0
 91
        1
 92
        1
 93
        1
 72
     4
 94
        3
 73
     0
 74
     1
 95
       17
 96
       13
 40
0.0
 40
0.0
 40
0.0
 40
0.0
 40
1.0
 40
1.0
 40
1.0
 40
2.0
 40
2.0
 40
2.0
 40
3.0
 40
3.0
 40
3.0
 40
4.0
 40
4.0
 40
4.0
 40
4.0
 10
1.216564365043925
 20
1.994142359287556
 10
1.227042921093269
 20
1.994142359287556
 10
1.235537200270629
 20
2.008777954670942
 10
1.235537200270629
 20
2.026820862474905
 10
1.235537200270629
 20
2.044863624465658
 10
1.227042921093269
 20
2.059497148578834
 10
1.216564365043925
 20
2.059497148578834
 10
1.206087932481195
 20
2.059497148578834
 10
1.197591581818971
 20
2.044863624465658
 10
1.197591581818971
 20
2.026820862474905
 10
1.197591581818971
 20
2.008777954670942
 10
1.206087932481195
 20
1.994142359287556
 10
1.216564365043925
 20
1.994142359287556
 97
        0
 97
        0
 75
     2
 76
     1
 98
        0
  0
SPLINE
  5
17A
330
1F
100
AcDbEntity
  8
RR
 62
     7
420
 16777215
370
    15
100
AcDbSpline
210
0.0
220
0.0
230
1.0
 70
    11
 71
     3
 72
    17
 73
    13
 74
     0
 42
0.0000000001
 43
0.0000000001
 12
1.0
 22
0.0
 32
0.0
 13
1.0
 23
0.0
 33
0.0
 40
0.0
 40
0.0
 40
0.0
 40
0.0
 40
1.0
 40
1.0
 40
1.0
 40
2.0
 40
2.0
 40
2.0
 40
3.0
 40
3.0
 40
3.0
 40
4.0
 40
4.0
 40
4.0
 40
4.0
 10
1.22671980293876
 20
1.993272425794619
 30
0.0
 10
1.237196287717855
 20
1.993272425794619
 30
0.0
 10
1.245692638165464
 20
2.007908021178019
 30
0.0
 10
1.245692638165464
 20
2.025950928960002
 30
0.0
 10
1.245692638165464
 20
2.043993690972735
 30
0.0
 10
1.237196287717855
 20
2.058616858734795
 30
0.0
 10
1.22671980293876
 20
2.058616858734795
 30
0.0
 10
1.216241246889417
 20
2.058616858734795
 30
0.0
 10
1.20774494870006
 20
2.043993690972735
 30
0.0
 10
1.20774494870006
 20
2.025950928960002
 30
0.0
 10
1.20774494870006
 20
2.007908021178019
 30
0.0
 10
1.216241246889417
 20
1.993272425794619
 30
0.0
 10
1.22671980293876
 20
1.993272425794619
 30
0.0
  0
HATCH
  5
17B
330
1F
100
AcDbEntity
  8
RR
 62
   254
420
 13358815
100
AcDbHatch
 10
0.0
 20
0.0
 30
0.0
210
0.0
220
0.0
230
1.0
  2
SOLID
 70
     1
 71
     0
 91
        1
 92
        1
 93
        1
 72
     4
 94
        3
 73
     0
 74
     1
 95
       17
 96
       13
 40
0.0
 40
0.0
 40
0.0
 40
0.0
 40
1.0
 40
1.0
 40
1.0
 40
2.0
 40
2.0
 40
2.0
 40
3.0
 40
3.0
 40
3.0
 40
4.0
 40
4.0
 40
4.0
 40
4.0
 10
1.22671980293876
 20
1.993272425794619
 10
1.237196287717855
 20
1.993272425794619
 10
1.245692638165464
 20
2.007908021178019
 10
1.245692638165464
 20
2.025950928960002
 10
1.245692638165464
 20
2.043993690972735
 10
1.237196287717855
 20
2.058616858734795
 10
1.22671980293876
 20
2.058616858734795
 10
1.216241246889417
 20
2.058616858734795
 10
1.20774494870006
 20
2.043993690972735
 10
1.20774494870006
 20
2.025950928960002
 10
1.20774494870006
 20
2.007908021178019
 10
1.216241246889417
 20
1.993272425794619
 10
1.22671980293876
 20
1.993272425794619
 97
        0
 97
        0
 75
     2
 76
     1
 98
        0
  0
MTEXT
  5
17D
330
1F
100
AcDbEntity
  8
callouts
 62
   250
420
  2236191
100
AcDbMText
 10
0.5104025734795464
 20
0.3939175672001309
 30
0.0
 40
0.118
 41
0.0
 46
0.0
 71
     7
 72
     1
  1
\fHelvetica Neue LT Std 55 Roman|b0|i0|c0|p34;\W1;SIMPSON Strong-Tie\H0.068794;®\H0.118; ^C
 73
     1
 44
1.0
  0
MTEXT
  5
17E
330
1F
100
AcDbEntity
  8
callouts
 62
   250
420
  2236191
100
AcDbMText
 10
0.1958545049031575
 20
0.1939257052209642
 30
0.0
 40
0.118
 41
0.0
 46
0.0
 71
     7
 72
     1
  1
\fHelvetica Neue LT Std 55 Roman|b0|i0|c0|p34;\W1;RR47 Ridge Rafter Connection 
 73
     1
 44
1.0
  0
MTEXT
  5
17F
330
1F
100
AcDbEntity
  8
callouts
 62
   250
420
  2236191
100
AcDbMText
 10
1.226717207166884
 20
1.157429615656535
 30
0.0
 40
0.118
 41
0.0
 46
0.0
 71
     7
 72
     1
  1
\fHelvetica Neue LT Std 57 Condensed|b0|i0|c0|p34;\W1;RR47
 73
     1
 44
1.0
  0
MTEXT
  5
180
330
1F
100
AcDbEntity
  8
callouts
 62
   250
420
  2236191
100
AcDbMText
 10
-0.074531979031033
 20
2.48383002811008
 30
0.0
 40
0.118
 41
0.0
 46
0.0
 71
     7
 72
     1
  1
\fHelvetica Neue LT Std 57 Condensed|b0|i0|c0|p34;\W1;Rafter
 73
     1
 44
1.0
  0
MTEXT
  5
181
330
1F
100
AcDbEntity
  8
callouts
 62
   250
420
  2236191
100
AcDbMText
 10
-0.0745357407463921
 20
3.572591569688585
 30
0.0
 40
0.118
 41
0.0
 46
0.0
 71
     7
 72
     1
  1
\fHelvetica Neue LT Std 57 Condensed|b0|i0|c0|p34;\W1;Ridge
 73
     1
 44
1.0
  0
MTEXT
  5
182
330
1F
100
AcDbEntity
  8
callouts
 62
   250
420
  2236191
100
AcDbMText
 10
1.696940316094292
 20
3.491848415798611
 30
0.0
 40
0.118
 41
0.0
 46
0.0
 71
     7
 72
     1
  1
\fHelvetica Neue LT Std 57 Condensed|b0|i0|c0|p34;\W1;RR47
 73
     1
 44
1.0
  0
POLYLINE
  5
183
330
1F
100
AcDbEntity
  8
callouts
 62
   250
420
  2236191
370
    18
100
AcDb2dPolyline
 66
     1
 10
0.0
 20
0.0
 30
0.0
  0
VERTEX
  5
184
330
183
100
AcDbEntity
  8
callouts
 62
   250
420
  2236191
370
    18
100
AcDbVertex
100
AcDb2dVertex
 10
1.391287424619602
 20
1.323286052009469
 30
0.0
  0
VERTEX
  5
185
330
183
100
AcDbEntity
  8
callouts
 62
   250
420
  2236191
370
    18
100
AcDbVertex
100
AcDb2dVertex
 10
1.189685730634538
 20
1.843471235652651
 30
0.0
  0
SEQEND
  5
186
330
183
100
AcDbEntity
  8
callouts
 62
   250
420
  2236191
370
    18
  0
POLYLINE
  5
187
330
1F
100
AcDbEntity
  8
callouts
 62
   250
420
  2236191
370
    18
100
AcDb2dPolyline
 66
     1
 10
0.0
 20
0.0
 30
0.0
  0
VERTEX
  5
188
330
187
100
AcDbEntity
  8
callouts
 62
   250
420
  2236191
370
    18
100
AcDbVertex
100
AcDb2dVertex
 10
0.145685579196235
 20
2.421539648727654
 30
0.0
  0
VERTEX
  5
189
330
187
100
AcDbEntity
  8
callouts
 62
   250
420
  2236191
370
    18
100
AcDbVertex
100
AcDb2dVertex
 10
0.4302397984845862
 20
2.205458007324915
 30
0.0
  0
SEQEND
  5
18A
330
187
100
AcDbEntity
  8
callouts
 62
   250
420
  2236191
370
    18
  0
POLYLINE
  5
18B
330
1F
100
AcDbEntity
  8
callouts
 62
   250
420
  2236191
370
    18
100
AcDb2dPolyline
 66
     1
 10
0.0
 20
0.0
 30
0.0
  0
VERTEX
  5
18C
330
18B
100
AcDbEntity
  8
callouts
 62
   250
420
  2236191
370
    18
100
AcDbVertex
100
AcDb2dVertex
 10
0.3235714506654656
 20
3.591607565011852
 30
0.0
  0
VERTEX
  5
18D
330
18B
100
AcDbEntity
  8
callouts
 62
   250
420
  2236191
370
    18
100
AcDbVertex
100
AcDb2dVertex
 10
0.5245193620790916
 20
3.383808037793023
 30
0.0
  0
SEQEND
  5
18E
330
18B
100
AcDbEntity
  8
callouts
 62
   250
420
  2236191
370
    18
  0
POLYLINE
  5
18F
330
1F
100
AcDbEntity
  8
callouts
 62
   250
420
  2236191
370
    18
100
AcDb2dPolyline
 66
     1
 10
0.0
 20
0.0
 30
0.0
  0
VERTEX
  5
190
330
18F
100
AcDbEntity
  8
callouts
 62
   250
420
  2236191
370
    18
100
AcDbVertex
100
AcDb2dVertex
 10
1.765036719632437
 20
3.45330969267142
 30
0.0
  0
VERTEX
  5
191
330
18F
100
AcDbEntity
  8
callouts
 62
   250
420
  2236191
370
    18
100
AcDbVertex
100
AcDb2dVertex
 10
1.391739562331496
 20
3.159963499758709
 30
0.0
  0
SEQEND
  5
192
330
18F
100
AcDbEntity
  8
callouts
 62
   250
420
  2236191
370
    18
  0
ENDSEC
  0
SECTION
  2
OBJECTS
  0
DICTIONARY
  5
C
330
0
100
AcDbDictionary
281
     1
  3
ACAD_GROUP
350
D
  3
ACAD_LAYOUT
350
1A
  3
ACAD_MATERIAL
350
3B
  3
ACAD_MLEADERSTYLE
350
194
  3
ACAD_MLINESTYLE
350
17
  3
ACAD_PLOTSETTINGS
350
19
  3
ACAD_PLOTSTYLENAME
350
E
  3
ACAD_TABLESTYLE
350
193
  3
ACAD_VISUALSTYLE
350
2A
  0
SUN
  5
3F
330
29
100
AcDbSun
 90
        1
290
     0
 63
     7
421
 16777215
 40
1.0
291
     1
 91
  2455826
 92
 54000000
292
     0
 70
     2
 71
   256
280
     1
  0
DICTIONARY
  5
D
102
{ACAD_REACTORS
330
C
102
}
330
C
100
AcDbDictionary
281
     1
  0
DICTIONARY
  5
1A
102
{ACAD_REACTORS
330
C
102
}
330
C
100
AcDbDictionary
281
     1
  3
Layout1
350
1E
  3
Layout2
350
26
  3
Model
350
22
  0
DICTIONARY
  5
3B
102
{ACAD_REACTORS
330
C
102
}
330
C
100
AcDbDictionary
281
     1
  3
ByBlock
350
3D
  3
ByLayer
350
3C
  3
Global
350
3E
  0
DICTIONARY
  5
194
102
{ACAD_REACTORS
330
C
102
}
330
C
100
AcDbDictionary
281
     1
  0
DICTIONARY
  5
17
102
{ACAD_REACTORS
330
C
102
}
330
C
100
AcDbDictionary
281
     1
  3
Standard
350
18
  0
DICTIONARY
  5
19
102
{ACAD_REACTORS
330
C
102
}
330
C
100
AcDbDictionary
281
     1
  0
ACDBDICTIONARYWDFLT
  5
E
102
{ACAD_REACTORS
330
C
102
}
330
C
100
AcDbDictionary
281
     1
  3
Normal
350
F
100
AcDbDictionaryWithDefault
340
F
  0
DICTIONARY
  5
193
102
{ACAD_REACTORS
330
C
102
}
330
C
100
AcDbDictionary
281
     1
  0
DICTIONARY
  5
2A
102
{ACAD_REACTORS
330
C
102
}
330
C
100
AcDbDictionary
281
     1
  3
2dWireframe
350
2F
  3
3D Hidden
350
31
  3
3dWireframe
350
30
  3
Basic
350
32
  3
Brighten
350
36
  3
ColorChange
350
3A
  3
Conceptual
350
34
  3
Dim
350
35
  3
Facepattern
350
39
  3
Flat
350
2B
  3
FlatWithEdges
350
2C
  3
Gouraud
350
2D
  3
GouraudWithEdges
350
2E
  3
Linepattern
350
38
  3
Realistic
350
33
  3
Thicken
350
37
  0
LAYOUT
  5
1E
102
{ACAD_REACTORS
330
1A
102
}
330
1A
100
AcDbPlotSettings
  1

  2
none_device
  4

  6

 40
0.0
 41
0.0
 42
0.0
 43
0.0
 44
0.0
 45
0.0
 46
0.0
 47
0.0
 48
0.0
 49
0.0
140
0.0
141
0.0
142
1.0
143
1.0
 70
   688
 72
     0
 73
     0
 74
     5
  7

 75
    16
 76
     0
 77
     2
 78
   300
147
1.0
148
0.0
149
0.0
100
AcDbLayout
  1
Layout1
 70
     1
 71
     1
 10
0.0
 20
0.0
 11
12.0
 21
9.0
 12
0.0
 22
0.0
 32
0.0
 14
1.000000000000000E+20
 24
1.000000000000000E+20
 34
1.000000000000000E+20
 15
-1.000000000000000E+20
 25
-1.000000000000000E+20
 35
-1.000000000000000E+20
146
0.0
 13
0.0
 23
0.0
 33
0.0
 16
1.0
 26
0.0
 36
0.0
 17
0.0
 27
1.0
 37
0.0
 76
     0
330
1B
  0
LAYOUT
  5
26
102
{ACAD_REACTORS
330
1A
102
}
330
1A
100
AcDbPlotSettings
  1

  2
none_device
  4

  6

 40
0.0
 41
0.0
 42
0.0
 43
0.0
 44
0.0
 45
0.0
 46
0.0
 47
0.0
 48
0.0
 49
0.0
140
0.0
141
0.0
142
1.0
143
1.0
 70
   688
 72
     0
 73
     0
 74
     5
  7

 75
    16
 76
     0
 77
     2
 78
   300
147
1.0
148
0.0
149
0.0
100
AcDbLayout
  1
Layout2
 70
     1
 71
     2
 10
0.0
 20
0.0
 11
0.0
 21
0.0
 12
0.0
 22
0.0
 32
0.0
 14
0.0
 24
0.0
 34
0.0
 15
0.0
 25
0.0
 35
0.0
146
0.0
 13
0.0
 23
0.0
 33
0.0
 16
1.0
 26
0.0
 36
0.0
 17
0.0
 27
1.0
 37
0.0
 76
     0
330
23
  0
LAYOUT
  5
22
102
{ACAD_REACTORS
330
1A
102
}
330
1A
100
AcDbPlotSettings
  1

  2
none_device
  4

  6

 40
0.0
 41
0.0
 42
0.0
 43
0.0
 44
0.0
 45
0.0
 46
0.0
 47
0.0
 48
0.0
 49
0.0
140
0.0
141
0.0
142
1.0
143
1.0
 70
  1712
 72
     0
 73
     0
 74
     0
  7

 75
     0
 76
     0
 77
     2
 78
   300
147
1.0
148
0.0
149
0.0
100
AcDbLayout
  1
Model
 70
     1
 71
     0
 10
0.0
 20
0.0
 11
12.0
 21
9.0
 12
0.0
 22
0.0
 32
0.0
 14
1.000000000000000E+20
 24
1.000000000000000E+20
 34
1.000000000000000E+20
 15
-1.000000000000000E+20
 25
-1.000000000000000E+20
 35
-1.000000000000000E+20
146
0.0
 13
0.0
 23
0.0
 33
0.0
 16
1.0
 26
0.0
 36
0.0
 17
0.0
 27
1.0
 37
0.0
 76
     0
330
1F
331
29
  0
MATERIAL
  5
3D
102
{ACAD_REACTORS
330
3B
102
}
330
3B
100
AcDbMaterial
  1
ByBlock
 72
     1
 94
      127
  0
MATERIAL
  5
3C
102
{ACAD_REACTORS
330
3B
102
}
330
3B
100
AcDbMaterial
  1
ByLayer
 72
     1
 94
      127
  0
MATERIAL
  5
3E
102
{ACAD_REACTORS
330
3B
102
}
330
3B
100
AcDbMaterial
  1
Global
 72
     1
 94
      127
  0
MLINESTYLE
  5
18
102
{ACAD_REACTORS
330
17
102
}
330
17
100
AcDbMlineStyle
  2
Standard
 70
     0
  3

 62
   256
 51
90.0
 52
90.0
 71
     2
 49
0.5
 62
   256
  6
BYLAYER
 49
-0.5
 62
   256
  6
BYLAYER
  0
ACDBPLACEHOLDER
  5
F
102
{ACAD_REACTORS
330
E
102
}
330
E
  0
VISUALSTYLE
  5
2F
102
{ACAD_REACTORS
330
2A
102
}
330
2A
100
AcDbVisualStyle
  2
2dWireframe
 70
     4
177
     2
291
     0
 71
     0
176
     1
 72
     2
176
     1
 73
     0
176
     1
 90
        0
176
     1
 40
-0.6
176
     1
 41
-30.0
176
     1
 62
     5
 63
     7
421
 16777215
176
     1
 74
     1
176
     1
 91
        4
176
     1
 64
     7
176
     1
 65
   257
176
     1
 75
     1
176
     1
175
     1
176
     1
 42
1.0
176
     1
 92
        0
176
     1
 66
   257
176
     1
 43
1.0
176
     1
 76
     1
176
     1
 77
     6
176
     1
 78
     2
176
     1
 67
     7
176
     1
 79
     5
176
     1
170
     0
176
     1
171
     0
176
     1
290
     0
176
     1
 93
        1
176
     1
 44
0.0
176
     1
173
     0
176
     1
  0
VISUALSTYLE
  5
31
102
{ACAD_REACTORS
330
2A
102
}
330
2A
100
AcDbVisualStyle
  2
3D Hidden
 70
     6
177
     2
291
     0
 71
     1
176
     1
 72
     2
176
     1
 73
     2
176
     1
 90
        0
176
     1
 40
-0.6
176
     1
 41
-30.0
176
     1
 62
     5
 63
     7
421
 16777215
176
     1
 74
     2
176
     1
 91
        2
176
     1
 64
     7
176
     1
 65
   257
176
     1
 75
     2
176
     1
175
     1
176
     1
 42
40.0
176
     1
 92
        0
176
     1
 66
   257
176
     1
 43
1.0
176
     1
 76
     1
176
     1
 77
     6
176
     1
 78
     2
176
     1
 67
     7
176
     1
 79
     3
176
     1
170
     0
176
     1
171
     0
176
     1
290
     0
176
     1
 93
        1
176
     1
 44
0.0
176
     1
173
     0
176
     1
  0
VISUALSTYLE
  5
30
102
{ACAD_REACTORS
330
2A
102
}
330
2A
100
AcDbVisualStyle
  2
3dWireframe
 70
     5
177
     2
291
     0
 71
     0
176
     1
 72
     2
176
     1
 73
     0
176
     1
 90
        0
176
     1
 40
-0.6
176
     1
 41
-30.0
176
     1
 62
     5
 63
     7
421
 16777215
176
     1
 74
     1
176
     1
 91
        4
176
     1
 64
     7
176
     1
 65
   257
176
     1
 75
     1
176
     1
175
     1
176
     1
 42
1.0
176
     1
 92
        0
176
     1
 66
   257
176
     1
 43
1.0
176
     1
 76
     1
176
     1
 77
     6
176
     1
 78
     2
176
     1
 67
     7
176
     1
 79
     5
176
     1
170
     0
176
     1
171
     0
176
     1
290
     0
176
     1
 93
        1
176
     1
 44
0.0
176
     1
173
     0
176
     1
  0
VISUALSTYLE
  5
32
102
{ACAD_REACTORS
330
2A
102
}
330
2A
100
AcDbVisualStyle
  2
Basic
 70
     7
177
     2
291
     1
 71
     1
176
     1
 72
     0
176
     1
 73
     1
176
     1
 90
        0
176
     1
 40
-0.6
176
     1
 41
-30.0
176
     1
 62
     5
 63
     7
421
 16777215
176
     1
 74
     0
176
     1
 91
        4
176
     1
 64
     7
176
     1
 65
   257
176
     1
 75
     1
176
     1
175
     1
176
     1
 42
1.0
176
     1
 92
        8
176
     1
 66
     7
176
     1
 43
1.0
176
     1
 76
     1
176
     1
 77
     6
176
     1
 78
     2
176
     1
 67
     7
176
     1
 79
     5
176
     1
170
     0
176
     1
171
     0
176
     1
290
     0
176
     1
 93
        1
176
     1
 44
0.0
176
     1
173
     0
176
     1
  0
VISUALSTYLE
  5
36
102
{ACAD_REACTORS
330
2A
102
}
330
2A
100
AcDbVisualStyle
  2
Brighten
 70
    12
177
     2
291
     1
 71
     2
176
     1
 72
     2
176
     1
 73
     0
176
     1
 90
        0
176
     1
 40
-0.6
176
     1
 41
-30.0
176
     1
 62
     5
 63
     7
421
 16777215
176
     1
 74
     1
176
     1
 91
        4
176
     1
 64
     7
176
     1
 65
   257
176
     1
 75
     1
176
     1
175
     1
176
     1
 42
1.0
176
     1
 92
        8
176
     1
 66
     7
176
     1
 43
1.0
176
     1
 76
     1
176
     1
 77
     6
176
     1
 78
     2
176
     1
 67
     7
176
     1
 79
     5
176
     1
170
     0
176
     1
171
     0
176
     1
290
     0
176
     1
 93
        1
176
     1
 44
50.0
176
     1
173
     0
176
     1
  0
VISUALSTYLE
  5
3A
102
{ACAD_REACTORS
330
2A
102
}
330
2A
100
AcDbVisualStyle
  2
ColorChange
 70
    16
177
     2
291
     1
 71
     2
176
     1
 72
     2
176
     1
 73
     3
176
     1
 90
        0
176
     1
 40
-0.6
176
     1
 41
-30.0
176
     1
 62
     5
 63
     8
421
  8421504
176
     1
 74
     1
176
     1
 91
        4
176
     1
 64
     7
176
     1
 65
   257
176
     1
 75
     1
176
     1
175
     1
176
     1
 42
1.0
176
     1
 92
        8
176
     1
 66
     8
424
  8421504
176
     1
 43
1.0
176
     1
 76
     1
176
     1
 77
     6
176
     1
 78
     2
176
     1
 67
     7
176
     1
 79
     5
176
     1
170
     0
176
     1
171
     0
176
     1
290
     0
176
     1
 93
        1
176
     1
 44
0.0
176
     1
173
     0
176
     1
  0
VISUALSTYLE
  5
34
102
{ACAD_REACTORS
330
2A
102
}
330
2A
100
AcDbVisualStyle
  2
Conceptual
 70
     9
177
     2
291
     0
 71
     3
176
     1
 72
     2
176
     1
 73
     0
176
     1
 90
        0
176
     1
 40
-0.6
176
     1
 41
-30.0
176
     1
 62
     5
 63
     7
421
 16777215
176
     1
 74
     2
176
     1
 91
        2
176
     1
 64
     7
176
     1
 65
   257
176
     1
 75
     1
176
     1
175
     1
176
     1
 42
40.0
176
     1
 92
        8
176
     1
 66
     7
176
     1
 43
1.0
176
     1
 76
     1
176
     1
 77
     6
176
     1
 78
     2
176
     1
 67
     7
176
     1
 79
     3
176
     1
170
     0
176
     1
171
     0
176
     1
290
     0
176
     1
 93
        1
176
     1
 44
0.0
176
     1
173
     0
176
     1
  0
VISUALSTYLE
  5
35
102
{ACAD_REACTORS
330
2A
102
}
330
2A
100
AcDbVisualStyle
  2
Dim
 70
    11
177
     2
291
     1
 71
     2
176
     1
 72
     2
176
     1
 73
     0
176
     1
 90
        0
176
     1
 40
-0.6
176
     1
 41
-30.0
176
     1
 62
     5
 63
     7
421
 16777215
176
     1
 74
     1
176
     1
 91
        4
176
     1
 64
     7
176
     1
 65
   257
176
     1
 75
     1
176
     1
175
     1
176
     1
 42
1.0
176
     1
 92
        8
176
     1
 66
     7
176
     1
 43
1.0
176
     1
 76
     1
176
     1
 77
     6
176
     1
 78
     2
176
     1
 67
     7
176
     1
 79
     5
176
     1
170
     0
176
     1
171
     0
176
     1
290
     0
176
     1
 93
        1
176
     1
 44
-50.0
176
     1
173
     0
176
     1
  0
VISUALSTYLE
  5
39
102
{ACAD_REACTORS
330
2A
102
}
330
2A
100
AcDbVisualStyle
  2
Facepattern
 70
    15
177
     2
291
     1
 71
     2
176
     1
 72
     2
176
     1
 73
     0
176
     1
 90
        0
176
     1
 40
-0.6
176
     1
 41
-30.0
176
     1
 62
     5
 63
     7
421
 16777215
176
     1
 74
     1
176
     1
 91
        4
176
     1
 64
     7
176
     1
 65
   257
176
     1
 75
     1
176
     1
175
     1
176
     1
 42
1.0
176
     1
 92
        8
176
     1
 66
     7
176
     1
 43
1.0
176
     1
 76
     1
176
     1
 77
     6
176
     1
 78
     2
176
     1
 67
     7
176
     1
 79
     5
176
     1
170
     0
176
     1
171
     0
176
     1
290
     0
176
     1
 93
        1
176
     1
 44
0.0
176
     1
173
     0
176
     1
  0
VISUALSTYLE
  5
2B
102
{ACAD_REACTORS
330
2A
102
}
330
2A
100
AcDbVisualStyle
  2
Flat
 70
     0
177
     2
291
     1
 71
     2
176
     1
 72
     1
176
     1
 73
     1
176
     1
 90
        2
176
     1
 40
-0.6
176
     1
 41
30.0
176
     1
 62
     5
 63
     7
421
 16777215
176
     1
 74
     0
176
     1
 91
        4
176
     1
 64
     7
176
     1
 65
   257
176
     1
 75
     1
176
     1
175
     1
176
     1
 42
1.0
176
     1
 92
        8
176
     1
 66
     7
176
     1
 43
1.0
176
     1
 76
     1
176
     1
 77
     6
176
     1
 78
     2
176
     1
 67
     7
176
     1
 79
     5
176
     1
170
     0
176
     1
171
     0
176
     1
290
     0
176
     1
 93
       13
176
     1
 44
0.0
176
     1
173
     0
176
     1
  0
VISUALSTYLE
  5
2C
102
{ACAD_REACTORS
330
2A
102
}
330
2A
100
AcDbVisualStyle
  2
FlatWithEdges
 70
     1
177
     2
291
     1
 71
     2
176
     1
 72
     1
176
     1
 73
     1
176
     1
 90
        2
176
     1
 40
-0.6
176
     1
 41
30.0
176
     1
 62
     5
 63
     7
421
 16777215
176
     1
 74
     1
176
     1
 91
        4
176
     1
 64
     7
176
     1
 65
   257
176
     1
 75
     1
176
     1
175
     1
176
     1
 42
1.0
176
     1
 92
        0
176
     1
 66
   257
176
     1
 43
1.0
176
     1
 76
     1
176
     1
 77
     6
176
     1
 78
     2
176
     1
 67
     7
176
     1
 79
     5
176
     1
170
     0
176
     1
171
     0
176
     1
290
     0
176
     1
 93
       13
176
     1
 44
0.0
176
     1
173
     0
176
     1
  0
VISUALSTYLE
  5
2D
102
{ACAD_REACTORS
330
2A
102
}
330
2A
100
AcDbVisualStyle
  2
Gouraud
 70
     2
177
     2
291
     1
 71
     2
176
     1
 72
     2
176
     1
 73
     1
176
     1
 90
        2
176
     1
 40
-0.6
176
     1
 41
30.0
176
     1
 62
     5
 63
     7
421
 16777215
176
     1
 74
     0
176
     1
 91
        4
176
     1
 64
     7
176
     1
 65
   257
176
     1
 75
     1
176
     1
175
     1
176
     1
 42
1.0
176
     1
 92
        0
176
     1
 66
     7
176
     1
 43
1.0
176
     1
 76
     1
176
     1
 77
     6
176
     1
 78
     2
176
     1
 67
     7
176
     1
 79
     5
176
     1
170
     0
176
     1
171
     0
176
     1
290
     0
176
     1
 93
       13
176
     1
 44
0.0
176
     1
173
     0
176
     1
  0
VISUALSTYLE
  5
2E
102
{ACAD_REACTORS
330
2A
102
}
330
2A
100
AcDbVisualStyle
  2
GouraudWithEdges
 70
     3
177
     2
291
     1
 71
     2
176
     1
 72
     2
176
     1
 73
     1
176
     1
 90
        2
176
     1
 40
-0.6
176
     1
 41
30.0
176
     1
 62
     5
 63
     7
421
 16777215
176
     1
 74
     1
176
     1
 91
        4
176
     1
 64
     7
176
     1
 65
   257
176
     1
 75
     1
176
     1
175
     1
176
     1
 42
1.0
176
     1
 92
        0
176
     1
 66
   257
176
     1
 43
1.0
176
     1
 76
     1
176
     1
 77
     6
176
     1
 78
     2
176
     1
 67
     7
176
     1
 79
     5
176
     1
170
     0
176
     1
171
     0
176
     1
290
     0
176
     1
 93
       13
176
     1
 44
0.0
176
     1
173
     0
176
     1
  0
VISUALSTYLE
  5
38
102
{ACAD_REACTORS
330
2A
102
}
330
2A
100
AcDbVisualStyle
  2
Linepattern
 70
    14
177
     2
291
     1
 71
     2
176
     1
 72
     2
176
     1
 73
     0
176
     1
 90
        0
176
     1
 40
-0.6
176
     1
 41
-30.0
176
     1
 62
     5
 63
     7
421
 16777215
176
     1
 74
     1
176
     1
 91
        4
176
     1
 64
     7
176
     1
 65
   257
176
     1
 75
     7
176
     1
175
     7
176
     1
 42
1.0
176
     1
 92
        8
176
     1
 66
     7
176
     1
 43
1.0
176
     1
 76
     1
176
     1
 77
     6
176
     1
 78
     2
176
     1
 67
     7
176
     1
 79
     5
176
     1
170
     0
176
     1
171
     0
176
     1
290
     0
176
     1
 93
        1
176
     1
 44
0.0
176
     1
173
     0
176
     1
  0
VISUALSTYLE
  5
33
102
{ACAD_REACTORS
330
2A
102
}
330
2A
100
AcDbVisualStyle
  2
Realistic
 70
     8
177
     2
291
     0
 71
     2
176
     1
 72
     2
176
     1
 73
     0
176
     1
 90
        0
176
     1
 40
-0.6
176
     1
 41
-30.0
176
     1
 62
     5
 63
     7
421
 16777215
176
     1
 74
     1
176
     1
 91
        0
176
     1
 64
     7
176
     1
 65
   257
176
     1
 75
     1
176
     1
175
     1
176
     1
 42
1.0
176
     1
 92
        8
176
     1
 66
     8
424
  7895160
176
     1
 43
1.0
176
     1
 76
     1
176
     1
 77
     6
176
     1
 78
     2
176
     1
 67
     7
176
     1
 79
     5
176
     1
170
     0
176
     1
171
     0
176
     1
290
     0
176
     1
 93
       13
176
     1
 44
0.0
176
     1
173
     0
176
     1
  0
VISUALSTYLE
  5
37
102
{ACAD_REACTORS
330
2A
102
}
330
2A
100
AcDbVisualStyle
  2
Thicken
 70
    13
177
     2
291
     1
 71
     2
176
     1
 72
     2
176
     1
 73
     0
176
     1
 90
        0
176
     1
 40
-0.6
176
     1
 41
-30.0
176
     1
 62
     5
 63
     7
421
 16777215
176
     1
 74
     1
176
     1
 91
        4
176
     1
 64
     7
176
     1
 65
   257
176
     1
 75
     1
176
     1
175
     1
176
     1
 42
1.0
176
     1
 92
       12
176
     1
 66
     7
176
     1
 43
1.0
176
     1
 76
     1
176
     1
 77
     6
176
     1
 78
     2
176
     1
 67
     7
176
     1
 79
     5
176
     1
170
     0
176
     1
171
     0
176
     1
290
     0
176
     1
 93
        1
176
     1
 44
0.0
176
     1
173
     0
176
     1
  0
ENDSEC
  0
EOF
