  0
SECTION
  2
HEADER
  9
$ACADVER
  1
AC1032
  9
$ACADMAINTVER
 90
      228
  9
$DWGCODEPAGE
  3
ANSI_1252
  9
$REQUIREDVERSIONS
160
                 0
  9
$INSBASE
 10
0.0
 20
0.0
 30
0.0
  9
$EXTMIN
 10
1.000000000000000E+20
 20
1.000000000000000E+20
 30
1.000000000000000E+20
  9
$EXTMAX
 10
-1.000000000000000E+20
 20
-1.000000000000000E+20
 30
-1.000000000000000E+20
  9
$LIMMIN
 10
0.0
 20
0.0
  9
$LIMMAX
 10
12.0
 20
9.0
  9
$ORTHOMODE
 70
     0
  9
$REGENMODE
 70
     1
  9
$FILLMODE
 70
     1
  9
$QTEXTMODE
 70
     0
  9
$MIRRTEXT
 70
     0
  9
$LTSCALE
 40
1.0
  9
$ATTMODE
 70
     1
  9
$TEXTSIZE
 40
0.2
  9
$TRACEWID
 40
0.05
  9
$TEXTSTYLE
  7
Standard
  9
$CLAYER
  8
0
  9
$CELTYPE
  6
ByLayer
  9
$CECOLOR
 62
   256
  9
$CELTSCALE
 40
1.0
  9
$DISPSILH
 70
     0
  9
$DIMSCALE
 40
1.0
  9
$DIMASZ
 40
0.18
  9
$DIMEXO
 40
0.0625
  9
$DIMDLI
 40
0.38
  9
$DIMRND
 40
0.0
  9
$DIMDLE
 40
0.0
  9
$DIMEXE
 40
0.18
  9
$DIMTP
 40
0.0
  9
$DIMTM
 40
0.0
  9
$DIMTXT
 40
0.18
  9
$DIMCEN
 40
0.09
  9
$DIMTSZ
 40
0.0
  9
$DIMTOL
 70
     0
  9
$DIMLIM
 70
     0
  9
$DIMTIH
 70
     1
  9
$DIMTOH
 70
     1
  9
$DIMSE1
 70
     0
  9
$DIMSE2
 70
     0
  9
$DIMTAD
 70
     0
  9
$DIMZIN
 70
     0
  9
$DIMBLK
  1

  9
$DIMASO
 70
     1
  9
$DIMSHO
 70
     1
  9
$DIMPOST
  1

  9
$DIMAPOST
  1

  9
$DIMALT
 70
     0
  9
$DIMALTD
 70
     2
  9
$DIMALTF
 40
25.4
  9
$DIMLFAC
 40
1.0
  9
$DIMTOFL
 70
     0
  9
$DIMTVP
 40
0.0
  9
$DIMTIX
 70
     0
  9
$DIMSOXD
 70
     0
  9
$DIMSAH
 70
     0
  9
$DIMBLK1
  1

  9
$DIMBLK2
  1

  9
$DIMSTYLE
  2
Standard
  9
$DIMCLRD
 70
     0
  9
$DIMCLRE
 70
     0
  9
$DIMCLRT
 70
     0
  9
$DIMTFAC
 40
1.0
  9
$DIMGAP
 40
0.09
  9
$DIMJUST
 70
     0
  9
$DIMSD1
 70
     0
  9
$DIMSD2
 70
     0
  9
$DIMTOLJ
 70
     1
  9
$DIMTZIN
 70
     0
  9
$DIMALTZ
 70
     0
  9
$DIMALTTZ
 70
     0
  9
$DIMUPT
 70
     0
  9
$DIMDEC
 70
     4
  9
$DIMTDEC
 70
     4
  9
$DIMALTU
 70
     2
  9
$DIMALTTD
 70
     2
  9
$DIMTXSTY
  7
Standard
  9
$DIMAUNIT
 70
     0
  9
$DIMADEC
 70
     0
  9
$DIMALTRND
 40
0.0
  9
$DIMAZIN
 70
     0
  9
$DIMDSEP
 70
    46
  9
$DIMATFIT
 70
     3
  9
$DIMFRAC
 70
     0
  9
$DIMLDRBLK
  1

  9
$DIMLUNIT
 70
     2
  9
$DIMLWD
 70
    -2
  9
$DIMLWE
 70
    -2
  9
$DIMTMOVE
 70
     0
  9
$DIMFXL
 40
1.0
  9
$DIMFXLON
 70
     0
  9
$DIMJOGANG
 40
0.7853981633974483
  9
$DIMTFILL
 70
     0
  9
$DIMTFILLCLR
 70
     0
  9
$DIMARCSYM
 70
     0
  9
$DIMLTYPE
  6

  9
$DIMLTEX1
  6

  9
$DIMLTEX2
  6

  9
$DIMTXTDIRECTION
 70
     0
  9
$LUNITS
 70
     2
  9
$LUPREC
 70
     4
  9
$SKETCHINC
 40
0.1
  9
$FILLETRAD
 40
0.0
  9
$AUNITS
 70
     0
  9
$AUPREC
 70
     0
  9
$MENU
  1
.
  9
$ELEVATION
 40
0.0
  9
$PELEVATION
 40
0.0
  9
$THICKNESS
 40
0.0
  9
$LIMCHECK
 70
     0
  9
$CHAMFERA
 40
0.0
  9
$CHAMFERB
 40
0.0
  9
$CHAMFERC
 40
0.0
  9
$CHAMFERD
 40
0.0
  9
$SKPOLY
 70
     0
  9
$TDCREATE
 40
2459829.439571759
  9
$TDUCREATE
 40
2459828.939571759
  9
$TDUPDATE
 40
2459829.439571759
  9
$TDUUPDATE
 40
2459828.939571759
  9
$TDINDWG
 40
0.0000000000
  9
$TDUSRTIMER
 40
0.0000000000
  9
$USRTIMER
 70
     1
  9
$ANGBASE
 50
0.0
  9
$ANGDIR
 70
     0
  9
$PDMODE
 70
     0
  9
$PDSIZE
 40
0.0
  9
$PLINEWID
 40
0.0
  9
$SPLFRAME
 70
     0
  9
$SPLINETYPE
 70
     6
  9
$SPLINESEGS
 70
     8
  9
$HANDSEED
  5
14B
  9
$SURFTAB1
 70
     6
  9
$SURFTAB2
 70
     6
  9
$SURFTYPE
 70
     6
  9
$SURFU
 70
     6
  9
$SURFV
 70
     6
  9
$UCSBASE
  2

  9
$UCSNAME
  2

  9
$UCSORG
 10
0.0
 20
0.0
 30
0.0
  9
$UCSXDIR
 10
1.0
 20
0.0
 30
0.0
  9
$UCSYDIR
 10
0.0
 20
1.0
 30
0.0
  9
$UCSORTHOREF
  2

  9
$UCSORTHOVIEW
 70
     0
  9
$UCSORGTOP
 10
0.0
 20
0.0
 30
0.0
  9
$UCSORGBOTTOM
 10
0.0
 20
0.0
 30
0.0
  9
$UCSORGLEFT
 10
0.0
 20
0.0
 30
0.0
  9
$UCSORGRIGHT
 10
0.0
 20
0.0
 30
0.0
  9
$UCSORGFRONT
 10
0.0
 20
0.0
 30
0.0
  9
$UCSORGBACK
 10
0.0
 20
0.0
 30
0.0
  9
$PUCSBASE
  2

  9
$PUCSNAME
  2

  9
$PUCSORG
 10
0.0
 20
0.0
 30
0.0
  9
$PUCSXDIR
 10
1.0
 20
0.0
 30
0.0
  9
$PUCSYDIR
 10
0.0
 20
1.0
 30
0.0
  9
$PUCSORTHOREF
  2

  9
$PUCSORTHOVIEW
 70
     0
  9
$PUCSORGTOP
 10
0.0
 20
0.0
 30
0.0
  9
$PUCSORGBOTTOM
 10
0.0
 20
0.0
 30
0.0
  9
$PUCSORGLEFT
 10
0.0
 20
0.0
 30
0.0
  9
$PUCSORGRIGHT
 10
0.0
 20
0.0
 30
0.0
  9
$PUCSORGFRONT
 10
0.0
 20
0.0
 30
0.0
  9
$PUCSORGBACK
 10
0.0
 20
0.0
 30
0.0
  9
$USERI1
 70
     0
  9
$USERI2
 70
     0
  9
$USERI3
 70
     0
  9
$USERI4
 70
     0
  9
$USERI5
 70
     0
  9
$USERR1
 40
0.0
  9
$USERR2
 40
0.0
  9
$USERR3
 40
0.0
  9
$USERR4
 40
0.0
  9
$USERR5
 40
0.0
  9
$WORLDVIEW
 70
     1
  9
$SHADEDGE
 70
     3
  9
$SHADEDIF
 70
    70
  9
$TILEMODE
 70
     1
  9
$MAXACTVP
 70
    64
  9
$PINSBASE
 10
0.0
 20
0.0
 30
0.0
  9
$PLIMCHECK
 70
     0
  9
$PEXTMIN
 10
1.000000000000000E+20
 20
1.000000000000000E+20
 30
1.000000000000000E+20
  9
$PEXTMAX
 10
-1.000000000000000E+20
 20
-1.000000000000000E+20
 30
-1.000000000000000E+20
  9
$PLIMMIN
 10
0.0
 20
0.0
  9
$PLIMMAX
 10
12.0
 20
9.0
  9
$UNITMODE
 70
     0
  9
$VISRETAIN
 70
     1
  9
$PLINEGEN
 70
     0
  9
$PSLTSCALE
 70
     1
  9
$TREEDEPTH
 70
  3020
  9
$CMLSTYLE
  2
Standard
  9
$CMLJUST
 70
     0
  9
$CMLSCALE
 40
1.0
  9
$PROXYGRAPHICS
 70
     1
  9
$MEASUREMENT
 70
     0
  9
$CELWEIGHT
370
    -1
  9
$ENDCAPS
280
     0
  9
$JOINSTYLE
280
     0
  9
$LWDISPLAY
290
     1
  9
$INSUNITS
 70
     1
  9
$HYPERLINKBASE
  1

  9
$STYLESHEET
  1

  9
$XEDIT
290
     1
  9
$CEPSNTYPE
380
     0
  9
$PSTYLEMODE
290
     1
  9
$FINGERPRINTGUID
  2
{FBA0853A-87F8-FE47-83C3-093AF1A4AB55}
  9
$VERSIONGUID
  2
{8C15A4F2-60ED-BE40-AAB7-4F2AC57E7005}
  9
$EXTNAMES
290
     1
  9
$PSVPSCALE
 40
0.0
  9
$OLESTARTUP
290
     0
  9
$SORTENTS
280
   127
  9
$INDEXCTL
280
     0
  9
$HIDETEXT
280
     1
  9
$XCLIPFRAME
280
     2
  9
$HALOGAP
280
     0
  9
$OBSCOLOR
 70
   257
  9
$OBSLTYPE
280
     0
  9
$INTERSECTIONDISPLAY
280
     0
  9
$INTERSECTIONCOLOR
 70
   257
  9
$DIMASSOC
280
     2
  9
$PROJECTNAME
  1

  9
$CAMERADISPLAY
290
     0
  9
$LENSLENGTH
 40
50.0
  9
$CAMERAHEIGHT
 40
0.0
  9
$STEPSPERSEC
 40
2.0
  9
$STEPSIZE
 40
6.0
  9
$3DDWFPREC
 40
2.0
  9
$PSOLWIDTH
 40
0.25
  9
$PSOLHEIGHT
 40
4.0
  9
$LOFTANG1
 40
1.570796326794896
  9
$LOFTANG2
 40
1.570796326794896
  9
$LOFTMAG1
 40
0.0
  9
$LOFTMAG2
 40
0.0
  9
$LOFTPARAM
 70
     7
  9
$LOFTNORMALS
280
     1
  9
$LATITUDE
 40
37.795
  9
$LONGITUDE
 40
-122.394
  9
$NORTHDIRECTION
 40
0.0
  9
$TIMEZONE
 70
 -8000
  9
$LIGHTGLYPHDISPLAY
280
     1
  9
$TILEMODELIGHTSYNCH
280
     1
  9
$CMATERIAL
347
11
  9
$SOLIDHIST
280
     0
  9
$SHOWHIST
280
     1
  9
$DWFFRAME
280
     2
  9
$DGNFRAME
280
     0
  9
$REALWORLDSCALE
290
     1
  9
$INTERFERECOLOR
 62
     1
  9
$INTERFEREOBJVS
345
33
  9
$INTERFEREVPVS
346
30
  9
$CSHADOW
280
     0
  9
$SHADOWPLANELOCATION
 40
0.0
  0
ENDSEC
  0
SECTION
  2
CLASSES
  0
CLASS
  1
ACDBDICTIONARYWDFLT
  2
AcDbDictionaryWithDefault
  3
ObjectDBX Classes
 90
        0
 91
        1
280
     0
281
     0
  0
CLASS
  1
MATERIAL
  2
AcDbMaterial
  3
ObjectDBX Classes
 90
     1153
 91
        3
280
     0
281
     0
  0
CLASS
  1
VISUALSTYLE
  2
AcDbVisualStyle
  3
ObjectDBX Classes
 90
     4095
 91
       24
280
     0
281
     0
  0
CLASS
  1
SCALE
  2
AcDbScale
  3
ObjectDBX Classes
 90
     1153
 91
       17
280
     0
281
     0
  0
CLASS
  1
TABLESTYLE
  2
AcDbTableStyle
  3
ObjectDBX Classes
 90
     4095
 91
        1
280
     0
281
     0
  0
CLASS
  1
MLEADERSTYLE
  2
AcDbMLeaderStyle
  3
ACDB_MLEADERSTYLE_CLASS
 90
     4095
 91
        1
280
     0
281
     0
  0
CLASS
  1
ACDBSECTIONVIEWSTYLE
  2
AcDbSectionViewStyle
  3
ObjectDBX Classes
 90
     1025
 91
        1
280
     0
281
     0
  0
CLASS
  1
ACDBDETAILVIEWSTYLE
  2
AcDbDetailViewStyle
  3
ObjectDBX Classes
 90
     1025
 91
        1
280
     0
281
     0
  0
CLASS
  1
DICTIONARYVAR
  2
AcDbDictionaryVar
  3
ObjectDBX Classes
 90
        0
 91
        5
280
     0
281
     0
  0
CLASS
  1
CELLSTYLEMAP
  2
AcDbCellStyleMap
  3
ObjectDBX Classes
 90
     1152
 91
        1
280
     0
281
     0
  0
ENDSEC
  0
SECTION
  2
TABLES
  0
TABLE
  2
VPORT
  5
8
330
0
100
AcDbSymbolTable
 70
     1
  0
VPORT
  5
57
330
8
100
AcDbSymbolTableRecord
100
AcDbViewportTableRecord
  2
*Active
 70
     0
 10
0.0
 20
0.0
 11
1.0
 21
1.0
 12
0.0
 22
0.0
 13
0.0
 23
0.0
 14
1.0
 24
1.0
 15
0.0
 25
0.0
 16
0.0
 26
0.0
 36
1.0
 17
4.35505373355444
 27
5.913852344009101
 37
0.0
 40
11.9267716535433
 41
0.7070707070707066
 42
50.0
 43
0.0
 44
0.0
 50
0.0
 51
0.0
 71
     0
 72
   100
 73
     1
 74
     1
 75
     0
 76
     0
 77
     0
 78
     0
281
     0
 65
     1
110
0.0
120
0.0
130
0.0
111
1.0
121
0.0
131
0.0
112
0.0
122
1.0
132
0.0
 79
     0
146
0.0
 60
     3
 61
     5
292
     1
282
     1
141
0.0
142
0.0
 63
   250
421
  3355443
  0
ENDTAB
  0
TABLE
  2
LTYPE
  5
5
330
0
100
AcDbSymbolTable
 70
     1
  0
LTYPE
  5
5B
330
5
100
AcDbSymbolTableRecord
100
AcDbLinetypeTableRecord
  2
ByBlock
 70
     0
  3

 72
    65
 73
     0
 40
0.0
  0
LTYPE
  5
5C
330
5
100
AcDbSymbolTableRecord
100
AcDbLinetypeTableRecord
  2
ByLayer
 70
     0
  3

 72
    65
 73
     0
 40
0.0
  0
LTYPE
  5
5D
330
5
100
AcDbSymbolTableRecord
100
AcDbLinetypeTableRecord
  2
Continuous
 70
     0
  3
Solid line
 72
    65
 73
     0
 40
0.0
  0
ENDTAB
  0
TABLE
  2
LAYER
  5
2
330
0
100
AcDbSymbolTable
 70
     3
  0
LAYER
  5
54
330
2
100
AcDbSymbolTableRecord
100
AcDbLayerTableRecord
  2
0
 70
     0
 62
     7
  6
Continuous
370
    -3
390
F
347
21
348
0
  0
LAYER
  5
78
330
2
100
AcDbSymbolTableRecord
100
AcDbLayerTableRecord
  2
Layer 1
 70
     0
 62
     7
  6
Continuous
370
     0
390
F
347
21
348
0
  0
LAYER
  5
126
330
2
100
AcDbSymbolTableRecord
100
AcDbLayerTableRecord
  2
Callout
 70
     0
 62
     7
  6
Continuous
370
     0
390
F
347
21
348
0
  0
ENDTAB
  0
TABLE
  2
STYLE
  5
3
330
0
100
AcDbSymbolTable
 70
     2
  0
STYLE
  5
55
330
3
100
AcDbSymbolTableRecord
100
AcDbTextStyleTableRecord
  2
Standard
 70
     0
 40
0.0
 41
1.0
 50
0.0
 71
     0
 42
0.2
  3
txt
  4

  0
STYLE
  5
5A
330
3
100
AcDbSymbolTableRecord
100
AcDbTextStyleTableRecord
  2
Annotative
 70
     0
 40
0.0
 41
1.0
 50
0.0
 71
     0
 42
0.2
  3
txt
  4

1001
AcadAnnotative
1000
AnnotativeData
1002
{
1070
     1
1070
     1
1002
}
  0
ENDTAB
  0
TABLE
  2
VIEW
  5
6
330
0
100
AcDbSymbolTable
 70
     0
  0
ENDTAB
  0
TABLE
  2
UCS
  5
7
330
0
100
AcDbSymbolTable
 70
     0
  0
ENDTAB
  0
TABLE
  2
APPID
  5
9
330
0
100
AcDbSymbolTable
 70
     2
  0
APPID
  5
56
330
9
100
AcDbSymbolTableRecord
100
AcDbRegAppTableRecord
  2
ACAD
 70
     0
  0
APPID
  5
5E
330
9
100
AcDbSymbolTableRecord
100
AcDbRegAppTableRecord
  2
AcadAnnotative
 70
     0
  0
ENDTAB
  0
TABLE
  2
DIMSTYLE
  5
A
330
0
100
AcDbSymbolTable
 70
     2
100
AcDbDimStyleTable
 71
     0
  0
DIMSTYLE
105
58
330
A
100
AcDbSymbolTableRecord
100
AcDbDimStyleTableRecord
  2
Standard
 70
     0
340
55
  0
DIMSTYLE
105
59
330
A
100
AcDbSymbolTableRecord
100
AcDbDimStyleTableRecord
  2
Annotative
 70
     0
340
55
1001
AcadAnnotative
1000
AnnotativeData
1002
{
1070
     1
1070
     1
1002
}
  0
ENDTAB
  0
TABLE
  2
BLOCK_RECORD
  5
1
330
0
100
AcDbSymbolTable
 70
    10
  0
BLOCK_RECORD
  5
70
330
1
100
AcDbSymbolTableRecord
100
AcDbBlockTableRecord
  2
*Model_Space
340
73
 70
     0
280
     1
281
     0
  0
BLOCK_RECORD
  5
6C
330
1
100
AcDbSymbolTableRecord
100
AcDbBlockTableRecord
  2
*Paper_Space
340
6F
 70
     0
280
     1
281
     0
  0
BLOCK_RECORD
  5
74
330
1
100
AcDbSymbolTableRecord
100
AcDbBlockTableRecord
  2
*Paper_Space0
340
77
 70
     0
280
     1
281
     0
  0
BLOCK_RECORD
  5
D4
330
1
100
AcDbSymbolTableRecord
100
AcDbBlockTableRecord
  2
Block_0
340
0
102
{BLKREFS
331
D5
102
}
 70
     0
280
     1
281
     0
  0
BLOCK_RECORD
  5
E0
330
1
100
AcDbSymbolTableRecord
100
AcDbBlockTableRecord
  2
Block_1
340
0
102
{BLKREFS
331
E1
102
}
 70
     0
280
     1
281
     0
  0
BLOCK_RECORD
  5
FF
330
1
100
AcDbSymbolTableRecord
100
AcDbBlockTableRecord
  2
Block_2
340
0
102
{BLKREFS
331
100
102
}
 70
     0
280
     1
281
     0
  0
BLOCK_RECORD
  5
107
330
1
100
AcDbSymbolTableRecord
100
AcDbBlockTableRecord
  2
Block_3
340
0
102
{BLKREFS
331
108
102
}
 70
     0
280
     1
281
     0
  0
BLOCK_RECORD
  5
10F
330
1
100
AcDbSymbolTableRecord
100
AcDbBlockTableRecord
  2
Block_4
340
0
102
{BLKREFS
331
110
102
}
 70
     0
280
     1
281
     0
  0
BLOCK_RECORD
  5
117
330
1
100
AcDbSymbolTableRecord
100
AcDbBlockTableRecord
  2
Block_5
340
0
102
{BLKREFS
331
118
102
}
 70
     0
280
     1
281
     0
  0
BLOCK_RECORD
  5
11F
330
1
100
AcDbSymbolTableRecord
100
AcDbBlockTableRecord
  2
Block_6
340
0
102
{BLKREFS
331
120
102
}
 70
     0
280
     1
281
     0
  0
BLOCK_RECORD
  5
12C
330
1
100
AcDbSymbolTableRecord
100
AcDbBlockTableRecord
  2
Block_7
340
0
102
{BLKREFS
331
12D
102
}
 70
     0
280
     1
281
     0
  0
BLOCK_RECORD
  5
136
330
1
100
AcDbSymbolTableRecord
100
AcDbBlockTableRecord
  2
Block_8
340
0
102
{BLKREFS
331
137
102
}
 70
     0
280
     1
281
     0
  0
ENDTAB
  0
ENDSEC
  0
SECTION
  2
BLOCKS
  0
BLOCK
  5
71
330
70
100
AcDbEntity
  8
0
100
AcDbBlockBegin
  2
*Model_Space
 70
     0
 10
0.0
 20
0.0
 30
0.0
  3
*Model_Space
  1

  0
ENDBLK
  5
72
330
70
100
AcDbEntity
  8
0
100
AcDbBlockEnd
  0
BLOCK
  5
6D
330
6C
100
AcDbEntity
 67
     1
  8
0
100
AcDbBlockBegin
  2
*Paper_Space
 70
     0
 10
0.0
 20
0.0
 30
0.0
  3
*Paper_Space
  1

  0
ENDBLK
  5
6E
330
6C
100
AcDbEntity
 67
     1
  8
0
100
AcDbBlockEnd
  0
BLOCK
  5
75
330
74
100
AcDbEntity
 67
     1
  8
0
100
AcDbBlockBegin
  2
*Paper_Space0
 70
     0
 10
0.0
 20
0.0
 30
0.0
  3
*Paper_Space0
  1

  0
ENDBLK
  5
76
330
74
100
AcDbEntity
 67
     1
  8
0
100
AcDbBlockEnd
  0
BLOCK
  5
D6
330
D4
100
AcDbEntity
  8
0
100
AcDbBlockBegin
  2
Block_0
 70
     0
 10
0.0
 20
0.0
 30
0.0
  3
Block_0
  1

  0
SPLINE
  5
D8
330
D4
100
AcDbEntity
  8
Layer 1
 62
   250
420
  2301728
370
    35
100
AcDbSpline
210
0.0
220
0.0
230
1.0
 70
     8
 71
     3
 72
    17
 73
    13
 74
     0
 42
0.0000000001
 43
0.0000000001
 40
0.0
 40
0.0
 40
0.0
 40
0.0
 40
1.0
 40
1.0
 40
1.0
 40
2.0
 40
2.0
 40
2.0
 40
3.0
 40
3.0
 40
3.0
 40
4.0
 40
4.0
 40
4.0
 40
4.0
 10
5.322930555555558
 20
5.62901513557689
 30
0.0
 10
5.334974865227195
 20
5.623847222222226
 30
0.0
 10
5.342434587260968
 20
5.616685969221685
 30
0.0
 10
5.342434587260968
 20
5.608777777777782
 30
0.0
 10
5.342434587260968
 20
5.593044303152256
 30
0.0
 10
5.312824865786751
 20
5.580281803474664
 30
0.0
 10
5.27629986670945
 20
5.580281803474664
 30
0.0
 10
5.239799867631518
 20
5.580281803474664
 30
0.0
 10
5.210205423934691
 20
5.593044303152256
 30
0.0
 10
5.210205423934691
 20
5.608777777777782
 30
0.0
 10
5.210205423934691
 20
5.616617913667848
 30
0.0
 10
5.217515145972255
 20
5.623698469044547
 30
0.0
 10
5.22936931233946
 20
5.628851246692142
 30
0.0
  0
SPLINE
  5
D9
330
D4
100
AcDbEntity
  8
Layer 1
 62
   250
420
  2301728
370
    25
100
AcDbSpline
210
0.0
220
0.0
230
1.0
 70
     8
 71
     3
 72
    11
 73
     7
 74
     0
 42
0.0000000001
 43
0.0000000001
 40
0.0
 40
0.0
 40
0.0
 40
0.0
 40
1.0
 40
1.0
 40
1.0
 40
2.0
 40
2.0
 40
2.0
 40
2.0
 10
5.324570698823359
 20
5.615274858146221
 30
0.0
 10
5.324570698823359
 20
5.60378735843642
 30
0.0
 10
5.302965143813606
 20
5.594469303116258
 30
0.0
 10
5.27629986670945
 20
5.594469303116258
 30
0.0
 10
5.249647089604978
 20
5.594469303116258
 30
0.0
 10
5.228067923483447
 20
5.60378735843642
 30
0.0
 10
5.228067923483447
 20
5.615274858146221
 30
0.0
  0
SPLINE
  5
DA
330
D4
100
AcDbEntity
  8
Layer 1
 62
   250
420
  2301728
370
    25
100
AcDbSpline
210
0.0
220
0.0
230
1.0
 70
     9
 71
     3
 72
    17
 73
    13
 74
     0
 42
0.0000000001
 43
0.0000000001
 40
0.0
 40
0.0
 40
0.0
 40
0.0
 40
1.0
 40
1.0
 40
1.0
 40
2.0
 40
2.0
 40
2.0
 40
3.0
 40
3.0
 40
3.0
 40
4.0
 40
4.0
 40
4.0
 40
4.0
 10
5.324570698823359
 20
5.654323468270882
 30
0.0
 10
5.324570698823359
 20
5.64283596856108
 30
0.0
 10
5.302965143813606
 20
5.633517913240918
 30
0.0
 10
5.27629986670945
 20
5.633517913240918
 30
0.0
 10
5.249647089604978
 20
5.633517913240918
 30
0.0
 10
5.228067923483447
 20
5.64283596856108
 30
0.0
 10
5.228067923483447
 20
5.654323468270882
 30
0.0
 10
5.228067923483447
 20
5.665838745757759
 30
0.0
 10
5.249647089604978
 20
5.675144301078236
 30
0.0
 10
5.27629986670945
 20
5.675144301078236
 30
0.0
 10
5.302965143813606
 20
5.675144301078236
 30
0.0
 10
5.324570698823359
 20
5.665838745757759
 30
0.0
 10
5.324570698823359
 20
5.654323468270882
 30
0.0
  0
SPLINE
  5
DB
330
D4
100
AcDbEntity
  8
Layer 1
 62
   250
420
  2301728
370
    18
100
AcDbSpline
210
0.0
220
0.0
230
1.0
 70
    11
 71
     3
 72
    17
 73
    13
 74
     0
 42
0.0000000001
 43
0.0000000001
 40
0.0
 40
0.0
 40
0.0
 40
0.0
 40
1.0
 40
1.0
 40
1.0
 40
2.0
 40
2.0
 40
2.0
 40
3.0
 40
3.0
 40
3.0
 40
4.0
 40
4.0
 40
4.0
 40
4.0
 10
5.307684588138827
 20
5.65433735715942
 30
0.0
 10
5.307684588138827
 20
5.646863746237108
 30
0.0
 10
5.293619310716368
 20
5.640815135278797
 30
0.0
 10
5.27629986670945
 20
5.640815135278797
 30
0.0
 10
5.258979033813678
 20
5.640815135278797
 30
0.0
 10
5.244954034167979
 20
5.646863746237108
 30
0.0
 10
5.244954034167979
 20
5.65433735715942
 30
0.0
 10
5.244954034167979
 20
5.661810968081732
 30
0.0
 10
5.258979033813678
 20
5.66787346792858
 30
0.0
 10
5.27629986670945
 20
5.66787346792858
 30
0.0
 10
5.293619310716368
 20
5.66787346792858
 30
0.0
 10
5.307684588138827
 20
5.661810968081732
 30
0.0
 10
5.307684588138827
 20
5.65433735715942
 30
0.0
  0
LINE
  5
DC
330
D4
100
AcDbEntity
  8
Layer 1
 62
   250
420
  2301728
370
    18
100
AcDbLine
 10
5.301486111111115
 20
5.635294302084932
 30
0.0
 11
5.301486111111115
 21
5.597031803051524
 31
0.0
  0
LINE
  5
DD
330
D4
100
AcDbEntity
  8
Layer 1
 62
   250
420
  2301728
370
    25
100
AcDbLine
 10
5.228216534590804
 20
5.650295690594854
 30
0.0
 11
5.228216534590804
 21
5.614094302620489
 31
0.0
  0
LINE
  5
DE
330
D4
100
AcDbEntity
  8
Layer 1
 62
   250
420
  2301728
370
    25
100
AcDbLine
 10
5.324177643277733
 20
5.647609579551599
 30
0.0
 11
5.324177643277733
 21
5.611205413804579
 31
0.0
  0
LINE
  5
DF
330
D4
100
AcDbEntity
  8
Layer 1
 62
   250
420
  2301728
370
    18
100
AcDbLine
 10
5.243041666666663
 20
5.636000000000004
 30
0.0
 11
5.243041666666663
 21
5.601372080719657
 31
0.0
  0
ENDBLK
  5
D7
330
D4
100
AcDbEntity
  8
0
100
AcDbBlockEnd
  0
BLOCK
  5
E2
330
E0
100
AcDbEntity
  8
0
100
AcDbBlockBegin
  2
Block_1
 70
     0
 10
0.0
 20
0.0
 30
0.0
  3
Block_1
  1

  0
SPLINE
  5
E4
330
E0
100
AcDbEntity
  8
Layer 1
 62
   250
420
  2301728
370
    35
100
AcDbSpline
210
0.0
220
0.0
230
1.0
 70
     8
 71
     3
 72
    14
 73
    10
 74
     0
 42
0.0000000001
 43
0.0000000001
 40
0.0
 40
0.0
 40
0.0
 40
0.0
 40
1.0
 40
1.0
 40
1.0
 40
2.0
 40
2.0
 40
2.0
 40
3.0
 40
3.0
 40
3.0
 40
3.0
 10
5.006144317978598
 20
5.470500000000002
 30
0.0
 10
5.018188762118774
 20
5.465331806378546
 30
0.0
 10
5.025648484152548
 20
5.458184584336877
 30
0.0
 10
5.025648484152548
 20
5.450304028980402
 30
0.0
 10
5.025648484152548
 20
5.43454291826745
 30
0.0
 10
4.996052651566868
 20
5.421780418589857
 30
0.0
 10
4.959526263600714
 20
5.421780418589857
 30
0.0
 10
4.940781819629793
 20
5.421780418589857
 30
0.0
 10
4.923869320057039
 20
5.425156807393451
 30
0.0
 10
4.911824875916863
 20
5.430555555555555
 30
0.0
  0
SPLINE
  5
E5
330
E0
100
AcDbEntity
  8
Layer 1
 62
   250
420
  2301728
370
    25
100
AcDbSpline
210
0.0
220
0.0
230
1.0
 70
     8
 71
     3
 72
    11
 73
     7
 74
     0
 42
0.0000000001
 43
0.0000000001
 40
0.0
 40
0.0
 40
0.0
 40
0.0
 40
1.0
 40
1.0
 40
1.0
 40
2.0
 40
2.0
 40
2.0
 40
2.0
 10
5.007798484603477
 20
5.456787362149952
 30
0.0
 10
5.007798484603477
 20
5.445298473551297
 30
0.0
 10
4.986205429593407
 20
5.435980418231135
 30
0.0
 10
4.959526263600714
 20
5.435980418231135
 30
0.0
 10
4.932874999999992
 20
5.435980418231135
 30
0.0
 10
4.911295709263564
 20
5.445298473551297
 30
0.0
 10
4.911295709263564
 20
5.456787362149952
 30
0.0
  0
SPLINE
  5
E6
330
E0
100
AcDbEntity
  8
Layer 1
 62
   250
420
  2301728
370
    25
100
AcDbSpline
210
0.0
220
0.0
230
1.0
 70
     9
 71
     3
 72
    17
 73
    13
 74
     0
 42
0.0000000001
 43
0.0000000001
 40
0.0
 40
0.0
 40
0.0
 40
0.0
 40
1.0
 40
1.0
 40
1.0
 40
2.0
 40
2.0
 40
2.0
 40
3.0
 40
3.0
 40
3.0
 40
4.0
 40
4.0
 40
4.0
 40
4.0
 10
5.007798484603477
 20
5.495835972274613
 30
0.0
 10
5.007798484603477
 20
5.484347222222216
 30
0.0
 10
4.986205429593407
 20
5.475016528356111
 30
0.0
 10
4.959526263600714
 20
5.475016528356111
 30
0.0
 10
4.932874999999992
 20
5.475016528356111
 30
0.0
 10
4.911295709263564
 20
5.484347222222216
 30
0.0
 10
4.911295709263564
 20
5.495835972274613
 30
0.0
 10
4.911295709263564
 20
5.507337360872952
 30
0.0
 10
4.932874999999992
 20
5.516655416193113
 30
0.0
 10
4.959526263600714
 20
5.516655416193113
 30
0.0
 10
4.986205429593407
 20
5.516655416193113
 30
0.0
 10
5.007798484603477
 20
5.507337360872952
 30
0.0
 10
5.007798484603477
 20
5.495835972274613
 30
0.0
  0
SPLINE
  5
E7
330
E0
100
AcDbEntity
  8
Layer 1
 62
   250
420
  2301728
370
    18
100
AcDbSpline
210
0.0
220
0.0
230
1.0
 70
     9
 71
     3
 72
    17
 73
    13
 74
     0
 42
0.0000000001
 43
0.0000000001
 40
0.0
 40
0.0
 40
0.0
 40
0.0
 40
1.0
 40
1.0
 40
1.0
 40
2.0
 40
2.0
 40
2.0
 40
3.0
 40
3.0
 40
3.0
 40
4.0
 40
4.0
 40
4.0
 40
4.0
 10
4.990912373918945
 20
5.495835972274613
 30
0.0
 10
4.990912373918945
 20
5.488376250240839
 30
0.0
 10
4.97686111111112
 20
5.48231375039399
 30
0.0
 10
4.959526263600714
 20
5.48231375039399
 30
0.0
 10
4.942219319593479
 20
5.48231375039399
 30
0.0
 10
4.928195708836634
 20
5.488376250240839
 30
0.0
 10
4.928195708836634
 20
5.495835972274613
 30
0.0
 10
4.928195708836634
 20
5.503309583196924
 30
0.0
 10
4.942219319593479
 20
5.509372083043772
 30
0.0
 10
4.959526263600714
 20
5.509372083043772
 30
0.0
 10
4.97686111111112
 20
5.509372083043772
 30
0.0
 10
4.990912373918945
 20
5.503309583196924
 30
0.0
 10
4.990912373918945
 20
5.495835972274613
 30
0.0
  0
LINE
  5
E8
330
E0
100
AcDbEntity
  8
Layer 1
 62
   250
420
  2301728
370
    25
100
AcDbLine
 10
4.984713762964424
 20
5.478054028279378
 30
0.0
 11
4.984713762964424
 21
5.438544307055255
 31
0.0
  0
LINE
  5
E9
330
E0
100
AcDbEntity
  8
Layer 1
 62
   250
420
  2301728
370
    25
100
AcDbLine
 10
5.007772095715254
 20
5.491074861283777
 30
0.0
 11
5.007772095715254
 21
5.456448473269625
 31
0.0
  0
LINE
  5
EA
330
E0
100
AcDbEntity
  8
Layer 1
 62
   250
420
  2301728
370
    25
100
AcDbLine
 10
4.926283208884948
 20
5.477512361626395
 30
0.0
 11
4.926283208884948
 21
5.44287069583485
 31
0.0
  0
ENDBLK
  5
E3
330
E0
100
AcDbEntity
  8
0
100
AcDbBlockEnd
  0
BLOCK
  5
101
330
FF
100
AcDbEntity
  8
0
100
AcDbBlockBegin
  2
Block_2
 70
     0
 10
0.0
 20
0.0
 30
0.0
  3
Block_2
  1

  0
SPLINE
  5
103
330
FF
100
AcDbEntity
  8
Layer 1
 62
   250
420
  2301728
370
    25
100
AcDbSpline
210
0.0
220
0.0
230
1.0
 70
     9
 71
     3
 72
    17
 73
    13
 74
     0
 42
0.0000000001
 43
0.0000000001
 40
0.0
 40
0.0
 40
0.0
 40
0.0
 40
1.0
 40
1.0
 40
1.0
 40
2.0
 40
2.0
 40
2.0
 40
3.0
 40
3.0
 40
3.0
 40
4.0
 40
4.0
 40
4.0
 40
4.0
 10
4.323744335217472
 20
5.280924866592613
 30
0.0
 10
4.331841557235141
 20
5.248385978525726
 30
0.0
 10
4.31551100209213
 20
5.216606812661868
 30
0.0
 10
4.287163780586019
 20
5.209960979496423
 30
0.0
 10
4.258829059079592
 20
5.203301257442439
 30
0.0
 10
4.229295726492333
 20
5.22427070135715
 30
0.0
 10
4.221130448920828
 20
5.256876256089021
 30
0.0
 10
4.212965171349322
 20
5.289415144155908
 30
0.0
 10
4.229295726492333
 20
5.321180555555555
 30
0.0
 10
4.257595725777415
 20
5.327840143185211
 30
0.0
 10
4.285983225060286
 20
5.334486111111118
 30
0.0
 10
4.315579057645966
 20
5.31350403243626
 30
0.0
 10
4.323744335217472
 20
5.280924866592613
 30
0.0
  0
HATCH
  5
104
330
FF
100
AcDbEntity
  8
Layer 1
 62
   254
420
 13358815
440
 33554687
100
AcDbHatch
 10
0.0
 20
0.0
 30
0.0
210
0.0
220
0.0
230
1.0
  2
SOLID
 70
     1
 71
     1
 91
        1
 92
        1
 93
        1
 72
     4
 94
        3
 73
     0
 74
     0
 95
       17
 96
       13
 40
0.0
 40
0.0
 40
0.0
 40
0.0
 40
1.0
 40
1.0
 40
1.0
 40
2.0
 40
2.0
 40
2.0
 40
3.0
 40
3.0
 40
3.0
 40
4.0
 40
4.0
 40
4.0
 40
4.0
 10
4.323744335217472
 20
5.280924866592613
 10
4.331841557235141
 20
5.248385978525726
 10
4.31551100209213
 20
5.216606812661868
 10
4.287163780586019
 20
5.209960979496423
 10
4.258829059079592
 20
5.203301257442439
 10
4.229295726492333
 20
5.22427070135715
 10
4.221130448920828
 20
5.256876256089021
 10
4.212965171349322
 20
5.289415144155908
 10
4.229295726492333
 20
5.321180555555555
 10
4.257595725777415
 20
5.327840143185211
 10
4.285983225060286
 20
5.334486111111118
 10
4.315579057645966
 20
5.31350403243626
 10
4.323744335217472
 20
5.280924866592613
 97
        0
 97
        1
330
103
 75
     2
 76
     1
 98
        1
 10
0.0
 20
0.0
450
        0
451
        0
460
0.0
461
0.0
452
        0
462
0.0
453
        0
470

  0
SPLINE
  5
105
330
FF
100
AcDbEntity
  8
Layer 1
 62
   250
420
  2301728
370
    25
100
AcDbSpline
210
0.0
220
0.0
230
1.0
 70
     8
 71
     3
 72
     8
 73
     4
 74
     0
 42
0.0000000001
 43
0.0000000001
 40
0.0
 40
0.0
 40
0.0
 40
0.0
 40
1.0
 40
1.0
 40
1.0
 40
1.0
 10
4.226576282116588
 20
5.277506811123404
 30
0.0
 10
4.226576282116588
 20
5.277506811123404
 30
0.0
 10
4.233920726375496
 20
5.252942922855051
 30
0.0
 10
4.285820725064391
 20
5.246690145235232
 30
0.0
  0
SPLINE
  5
106
330
FF
100
AcDbEntity
  8
Layer 1
 62
   250
420
  2301728
370
    25
100
AcDbSpline
210
0.0
220
0.0
230
1.0
 70
     8
 71
     3
 72
     8
 73
     4
 74
     0
 42
0.0000000001
 43
0.0000000001
 40
0.0
 40
0.0
 40
0.0
 40
0.0
 40
1.0
 40
1.0
 40
1.0
 40
1.0
 10
4.260063781270623
 20
5.295830421771622
 30
0.0
 10
4.261136003465758
 20
5.296806810635845
 30
0.0
 10
4.235852670771135
 20
5.25691666666666
 30
0.0
 10
4.26405128116989
 20
5.22648042352355
 30
0.0
  0
ENDBLK
  5
102
330
FF
100
AcDbEntity
  8
0
100
AcDbBlockEnd
  0
BLOCK
  5
109
330
107
100
AcDbEntity
  8
0
100
AcDbBlockBegin
  2
Block_3
 70
     0
 10
0.0
 20
0.0
 30
0.0
  3
Block_3
  1

  0
SPLINE
  5
10B
330
107
100
AcDbEntity
  8
Layer 1
 62
   250
420
  2301728
370
    25
100
AcDbSpline
210
0.0
220
0.0
230
1.0
 70
     9
 71
     3
 72
    17
 73
    13
 74
     0
 42
0.0000000001
 43
0.0000000001
 40
0.0
 40
0.0
 40
0.0
 40
0.0
 40
1.0
 40
1.0
 40
1.0
 40
2.0
 40
2.0
 40
2.0
 40
3.0
 40
3.0
 40
3.0
 40
4.0
 40
4.0
 40
4.0
 40
4.0
 10
4.855672099557623
 20
6.124376234174127
 30
0.0
 10
4.856377655095355
 20
6.15791789999346
 30
0.0
 10
4.880520710041006
 20
6.184183177107721
 30
0.0
 10
4.90970833333333
 20
6.183152777777776
 30
0.0
 10
4.938747097458972
 20
6.182088732716199
 30
0.0
 10
4.961723485767429
 20
6.154066511201865
 30
0.0
 10
4.960991541341475
 20
6.120462345384112
 30
0.0
 10
4.960217930249907
 20
6.086941512897586
 30
0.0
 10
4.93611654196987
 20
6.060587346896681
 30
0.0
 10
4.907009598260729
 20
6.061672069091501
 30
0.0
 10
4.877916666666654
 20
6.062751235730906
 30
0.0
 10
4.85494015513167
 20
6.090772068356373
 30
0.0
 10
4.855672099557623
 20
6.124376234174127
 30
0.0
  0
HATCH
  5
10C
330
107
100
AcDbEntity
  8
Layer 1
 62
   254
420
 13358815
440
 33554687
100
AcDbHatch
 10
0.0
 20
0.0
 30
0.0
210
0.0
220
0.0
230
1.0
  2
SOLID
 70
     1
 71
     1
 91
        1
 92
        1
 93
        1
 72
     4
 94
        3
 73
     0
 74
     0
 95
       17
 96
       13
 40
0.0
 40
0.0
 40
0.0
 40
0.0
 40
1.0
 40
1.0
 40
1.0
 40
2.0
 40
2.0
 40
2.0
 40
3.0
 40
3.0
 40
3.0
 40
4.0
 40
4.0
 40
4.0
 40
4.0
 10
4.855672099557623
 20
6.124376234174127
 10
4.856377655095355
 20
6.15791789999346
 10
4.880520710041006
 20
6.184183177107721
 10
4.90970833333333
 20
6.183152777777776
 10
4.938747097458972
 20
6.182088732716199
 10
4.961723485767429
 20
6.154066511201865
 10
4.960991541341475
 20
6.120462345384112
 10
4.960217930249907
 20
6.086941512897586
 10
4.93611654196987
 20
6.060587346896681
 10
4.907009598260729
 20
6.061672069091501
 10
4.877916666666654
 20
6.062751235730906
 10
4.85494015513167
 20
6.090772068356373
 10
4.855672099557623
 20
6.124376234174127
 97
        0
 97
        1
330
10B
 75
     2
 76
     1
 98
        1
 10
0.0
 20
0.0
450
        0
451
        0
460
0.0
461
0.0
452
        0
462
0.0
453
        0
470

  0
SPLINE
  5
10D
330
107
100
AcDbEntity
  8
Layer 1
 62
   250
420
  2301728
370
    25
100
AcDbSpline
210
0.0
220
0.0
230
1.0
 70
     8
 71
     3
 72
     8
 73
     4
 74
     0
 42
0.0000000001
 43
0.0000000001
 40
0.0
 40
0.0
 40
0.0
 40
0.0
 40
1.0
 40
1.0
 40
1.0
 40
1.0
 10
4.950290152722926
 20
6.101990123628537
 30
0.0
 10
4.950290152722926
 20
6.101990123628537
 30
0.0
 10
4.949638888888885
 20
6.127651234091394
 30
0.0
 10
4.901217931740372
 20
6.147406789147882
 30
0.0
  0
SPLINE
  5
10E
330
107
100
AcDbEntity
  8
Layer 1
 62
   250
420
  2301728
370
    25
100
AcDbSpline
210
0.0
220
0.0
230
1.0
 70
     8
 71
     3
 72
     8
 73
     4
 74
     0
 42
0.0000000001
 43
0.0000000001
 40
0.0
 40
0.0
 40
0.0
 40
0.0
 40
1.0
 40
1.0
 40
1.0
 40
1.0
 10
4.913140153661414
 20
6.093140123852107
 30
0.0
 10
4.911797098139786
 20
6.092522068312164
 30
0.0
 10
4.946749999999989
 20
6.124308178620291
 30
0.0
 10
4.927626264406575
 20
6.161105399912937
 30
0.0
  0
ENDBLK
  5
10A
330
107
100
AcDbEntity
  8
0
100
AcDbBlockEnd
  0
BLOCK
  5
111
330
10F
100
AcDbEntity
  8
0
100
AcDbBlockBegin
  2
Block_4
 70
     0
 10
0.0
 20
0.0
 30
0.0
  3
Block_4
  1

  0
SPLINE
  5
113
330
10F
100
AcDbEntity
  8
Layer 1
 62
   250
420
  2301728
370
    25
100
AcDbSpline
210
0.0
220
0.0
230
1.0
 70
     9
 71
     3
 72
    17
 73
    13
 74
     0
 42
0.0000000001
 43
0.0000000001
 40
0.0
 40
0.0
 40
0.0
 40
0.0
 40
1.0
 40
1.0
 40
1.0
 40
2.0
 40
2.0
 40
2.0
 40
3.0
 40
3.0
 40
3.0
 40
4.0
 40
4.0
 40
4.0
 40
4.0
 10
5.004977651341404
 20
6.181667899393485
 30
0.0
 10
5.005683206879135
 20
6.215209565212817
 30
0.0
 10
5.029826261824786
 20
6.241474842327079
 30
0.0
 10
5.059013888888885
 20
6.240444444444442
 30
0.0
 10
5.088052649242753
 20
6.239380397935544
 30
0.0
 10
5.111029037551209
 20
6.211358176421223
 30
0.0
 10
5.110297093125255
 20
6.177754010603469
 30
0.0
 10
5.109523482033687
 20
6.144233178116943
 30
0.0
 10
5.08542209375365
 20
6.117879012116039
 30
0.0
 10
5.056315150044509
 20
6.118963734310859
 30
0.0
 10
5.027222222222209
 20
6.120042900950263
 30
0.0
 10
5.004245706915449
 20
6.148063733575731
 30
0.0
 10
5.004977651341404
 20
6.181667899393485
 30
0.0
  0
HATCH
  5
114
330
10F
100
AcDbEntity
  8
Layer 1
 62
   254
420
 13358815
440
 33554687
100
AcDbHatch
 10
0.0
 20
0.0
 30
0.0
210
0.0
220
0.0
230
1.0
  2
SOLID
 70
     1
 71
     1
 91
        1
 92
        1
 93
        1
 72
     4
 94
        3
 73
     0
 74
     0
 95
       17
 96
       13
 40
0.0
 40
0.0
 40
0.0
 40
0.0
 40
1.0
 40
1.0
 40
1.0
 40
2.0
 40
2.0
 40
2.0
 40
3.0
 40
3.0
 40
3.0
 40
4.0
 40
4.0
 40
4.0
 40
4.0
 10
5.004977651341404
 20
6.181667899393485
 10
5.005683206879135
 20
6.215209565212817
 10
5.029826261824786
 20
6.241474842327079
 10
5.059013888888885
 20
6.240444444444442
 10
5.088052649242753
 20
6.239380397935544
 10
5.111029037551209
 20
6.211358176421223
 10
5.110297093125255
 20
6.177754010603469
 10
5.109523482033687
 20
6.144233178116943
 10
5.08542209375365
 20
6.117879012116039
 10
5.056315150044509
 20
6.118963734310859
 10
5.027222222222209
 20
6.120042900950263
 10
5.004245706915449
 20
6.148063733575731
 10
5.004977651341404
 20
6.181667899393485
 97
        0
 97
        1
330
113
 75
     2
 76
     1
 98
        1
 10
0.0
 20
0.0
450
        0
451
        0
460
0.0
461
0.0
452
        0
462
0.0
453
        0
470

  0
SPLINE
  5
115
330
10F
100
AcDbEntity
  8
Layer 1
 62
   250
420
  2301728
370
    25
100
AcDbSpline
210
0.0
220
0.0
230
1.0
 70
     8
 71
     3
 72
     8
 73
     4
 74
     0
 42
0.0000000001
 43
0.0000000001
 40
0.0
 40
0.0
 40
0.0
 40
0.0
 40
1.0
 40
1.0
 40
1.0
 40
1.0
 10
5.099595704506706
 20
6.159281788847894
 30
0.0
 10
5.099595704506706
 20
6.159281788847894
 30
0.0
 10
5.098944444444441
 20
6.184942899310751
 30
0.0
 10
5.050523483524153
 20
6.20469845436724
 30
0.0
  0
SPLINE
  5
116
330
10F
100
AcDbEntity
  8
Layer 1
 62
   250
420
  2301728
370
    25
100
AcDbSpline
210
0.0
220
0.0
230
1.0
 70
     8
 71
     3
 72
     8
 73
     4
 74
     0
 42
0.0000000001
 43
0.0000000001
 40
0.0
 40
0.0
 40
0.0
 40
0.0
 40
1.0
 40
1.0
 40
1.0
 40
1.0
 10
5.062445705445194
 20
6.150431789071476
 30
0.0
 10
5.061102649923567
 20
6.149813733531522
 30
0.0
 10
5.096055555555545
 20
6.181599843839649
 30
0.0
 10
5.076931816190355
 20
6.218397065132294
 30
0.0
  0
ENDBLK
  5
112
330
10F
100
AcDbEntity
  8
0
100
AcDbBlockEnd
  0
BLOCK
  5
119
330
117
100
AcDbEntity
  8
0
100
AcDbBlockBegin
  2
Block_5
 70
     0
 10
0.0
 20
0.0
 30
0.0
  3
Block_5
  1

  0
SPLINE
  5
11B
330
117
100
AcDbEntity
  8
Layer 1
 62
   250
420
  2301728
370
    25
100
AcDbSpline
210
0.0
220
0.0
230
1.0
 70
     9
 71
     3
 72
    17
 73
    13
 74
     0
 42
0.0000000001
 43
0.0000000001
 40
0.0
 40
0.0
 40
0.0
 40
0.0
 40
1.0
 40
1.0
 40
1.0
 40
2.0
 40
2.0
 40
2.0
 40
3.0
 40
3.0
 40
3.0
 40
4.0
 40
4.0
 40
4.0
 40
4.0
 10
4.708970714374723
 20
6.075765124291036
 30
0.0
 10
4.709676269912455
 20
6.109306790110369
 30
0.0
 10
4.733819444444431
 20
6.13557206722463
 30
0.0
 10
4.763006824120767
 20
6.134541666666664
 30
0.0
 10
4.792045712276072
 20
6.133477622833096
 30
0.0
 10
4.815022100584529
 20
6.105455401318774
 30
0.0
 10
4.814290156158575
 20
6.071851235501021
 30
0.0
 10
4.813516545067007
 20
6.038330403014494
 30
0.0
 10
4.78941515678697
 20
6.01197623701359
 30
0.0
 10
4.760308213077829
 20
6.01306095920841
 30
0.0
 10
4.731215158257226
 20
6.014140125847815
 30
0.0
 10
4.70823876994877
 20
6.042160958473282
 30
0.0
 10
4.708970714374723
 20
6.075765124291036
 30
0.0
  0
HATCH
  5
11C
330
117
100
AcDbEntity
  8
Layer 1
 62
   254
420
 13358815
440
 33554687
100
AcDbHatch
 10
0.0
 20
0.0
 30
0.0
210
0.0
220
0.0
230
1.0
  2
SOLID
 70
     1
 71
     1
 91
        1
 92
        1
 93
        1
 72
     4
 94
        3
 73
     0
 74
     0
 95
       17
 96
       13
 40
0.0
 40
0.0
 40
0.0
 40
0.0
 40
1.0
 40
1.0
 40
1.0
 40
2.0
 40
2.0
 40
2.0
 40
3.0
 40
3.0
 40
3.0
 40
4.0
 40
4.0
 40
4.0
 40
4.0
 10
4.708970714374723
 20
6.075765124291036
 10
4.709676269912455
 20
6.109306790110369
 10
4.733819444444431
 20
6.13557206722463
 10
4.763006824120767
 20
6.134541666666664
 10
4.792045712276072
 20
6.133477622833096
 10
4.815022100584529
 20
6.105455401318774
 10
4.814290156158575
 20
6.071851235501021
 10
4.813516545067007
 20
6.038330403014494
 10
4.78941515678697
 20
6.01197623701359
 10
4.760308213077829
 20
6.01306095920841
 10
4.731215158257226
 20
6.014140125847815
 10
4.70823876994877
 20
6.042160958473282
 10
4.708970714374723
 20
6.075765124291036
 97
        0
 97
        1
330
11B
 75
     2
 76
     1
 98
        1
 10
0.0
 20
0.0
450
        0
451
        0
460
0.0
461
0.0
452
        0
462
0.0
453
        0
470

  0
SPLINE
  5
11D
330
117
100
AcDbEntity
  8
Layer 1
 62
   250
420
  2301728
370
    25
100
AcDbSpline
210
0.0
220
0.0
230
1.0
 70
     8
 71
     3
 72
     8
 73
     4
 74
     0
 42
0.0000000001
 43
0.0000000001
 40
0.0
 40
0.0
 40
0.0
 40
0.0
 40
1.0
 40
1.0
 40
1.0
 40
1.0
 10
4.803588767540026
 20
6.053379013745446
 30
0.0
 10
4.803588767540026
 20
6.053379013745446
 30
0.0
 10
4.802937378667593
 20
6.079040124208303
 30
0.0
 10
4.754516546557472
 20
6.098795679264791
 30
0.0
  0
SPLINE
  5
11E
330
117
100
AcDbEntity
  8
Layer 1
 62
   250
420
  2301728
370
    25
100
AcDbSpline
210
0.0
220
0.0
230
1.0
 70
     8
 71
     3
 72
     8
 73
     4
 74
     0
 42
0.0000000001
 43
0.0000000001
 40
0.0
 40
0.0
 40
0.0
 40
0.0
 40
1.0
 40
1.0
 40
1.0
 40
1.0
 10
4.766438768478514
 20
6.044529013969015
 30
0.0
 10
4.765095712956886
 20
6.043910958429074
 30
0.0
 10
4.800048489851683
 20
6.075697068737199
 30
0.0
 10
4.780924879223675
 20
6.112494290029846
 30
0.0
  0
ENDBLK
  5
11A
330
117
100
AcDbEntity
  8
0
100
AcDbBlockEnd
  0
BLOCK
  5
121
330
11F
100
AcDbEntity
  8
0
100
AcDbBlockBegin
  2
Block_6
 70
     0
 10
0.0
 20
0.0
 30
0.0
  3
Block_6
  1

  0
SPLINE
  5
123
330
11F
100
AcDbEntity
  8
Layer 1
 62
   250
420
  2301728
370
    25
100
AcDbSpline
210
0.0
220
0.0
230
1.0
 70
     9
 71
     3
 72
    17
 73
    13
 74
     0
 42
0.0000000001
 43
0.0000000001
 40
0.0
 40
0.0
 40
0.0
 40
0.0
 40
1.0
 40
1.0
 40
1.0
 40
2.0
 40
2.0
 40
2.0
 40
3.0
 40
3.0
 40
3.0
 40
4.0
 40
4.0
 40
4.0
 40
4.0
 10
4.814480433931546
 20
5.145508203346858
 30
0.0
 10
4.822577655949215
 20
5.112969315279971
 30
0.0
 10
4.806247100806204
 20
5.081190149416114
 30
0.0
 10
4.777899879300093
 20
5.074544316250668
 30
0.0
 10
4.74956654668252
 20
5.067884594196685
 30
0.0
 10
4.720038769650677
 20
5.088854038111397
 30
0.0
 10
4.711873492079171
 20
5.121459592843266
 30
0.0
 10
4.703708333333325
 20
5.153998480910154
 30
0.0
 10
4.720038769650677
 20
5.185763888888888
 30
0.0
 10
4.748331824491489
 20
5.192423479939457
 30
0.0
 10
4.776719323774361
 20
5.199069444444451
 30
0.0
 10
4.806315156360041
 20
5.178087369190507
 30
0.0
 10
4.814480433931546
 20
5.145508203346858
 30
0.0
  0
SPLINE
  5
124
330
11F
100
AcDbEntity
  8
Layer 1
 62
   250
420
  2301728
370
    25
100
AcDbSpline
210
0.0
220
0.0
230
1.0
 70
     8
 71
     3
 72
     8
 73
     4
 74
     0
 42
0.0000000001
 43
0.0000000001
 40
0.0
 40
0.0
 40
0.0
 40
0.0
 40
1.0
 40
1.0
 40
1.0
 40
1.0
 10
4.717312380830662
 20
5.142090147877651
 30
0.0
 10
4.717312380830662
 20
5.142090147877651
 30
0.0
 10
4.724649880645301
 20
5.117526259609298
 30
0.0
 10
4.776556823778466
 20
5.111273481989479
 30
0.0
  0
SPLINE
  5
125
330
11F
100
AcDbEntity
  8
Layer 1
 62
   250
420
  2301728
370
    25
100
AcDbSpline
210
0.0
220
0.0
230
1.0
 70
     8
 71
     3
 72
     8
 73
     4
 74
     0
 42
0.0000000001
 43
0.0000000001
 40
0.0
 40
0.0
 40
0.0
 40
0.0
 40
1.0
 40
1.0
 40
1.0
 40
1.0
 10
4.750799879984697
 20
5.160413758525868
 30
0.0
 10
4.751872102179832
 20
5.161390147390092
 30
0.0
 10
4.726590158374063
 20
5.121499999999993
 30
0.0
 10
4.754787379883964
 20
5.091063760277797
 30
0.0
  0
ENDBLK
  5
122
330
11F
100
AcDbEntity
  8
0
100
AcDbBlockEnd
  0
BLOCK
  5
12E
330
12C
100
AcDbEntity
  8
0
100
AcDbBlockBegin
  2
Block_7
 70
     0
 10
0.0
 20
0.0
 30
0.0
  3
Block_7
  1

  0
SPLINE
  5
130
330
12C
100
AcDbEntity
  8
Callout
 62
   250
420
  2301728
370
    70
100
AcDbSpline
210
0.0
220
0.0
230
1.0
 70
    24
 71
     3
 72
     8
 73
     4
 74
     0
 42
0.0000000001
 43
0.0000000001
 40
0.0
 40
0.0
 40
0.0
 40
0.0
 40
1.0
 40
1.0
 40
1.0
 40
1.0
 10
5.790517909274765
 20
6.081984568578364
 30
0.0
 10
5.790517909274765
 20
6.081984568578364
 30
0.0
 10
6.250587342096878
 20
6.305048451832185
 30
0.0
 10
6.250587342096878
 20
6.305048451832185
 30
0.0
  0
LWPOLYLINE
  5
131
330
12C
100
AcDbEntity
  8
Callout
100
AcDbPolyline
 90
        4
 70
     0
 43
0.0
 10
5.831370686020514
 20
6.175041666666666
 10
5.837392908090603
 20
6.039926236307514
 10
5.678231801000239
 20
6.028556792150285
 10
5.831370686020514
 20
6.175041666666666
  0
HATCH
  5
132
330
12C
100
AcDbEntity
  8
Callout
 62
   250
420
  2301728
440
 33554687
100
AcDbHatch
 10
0.0
 20
0.0
 30
0.0
210
0.0
220
0.0
230
1.0
  2
SOLID
 70
     1
 71
     1
 91
        1
 92
        3
 72
     0
 73
     1
 93
        4
 10
5.831370686020514
 20
6.175041666666666
 10
5.837392908090603
 20
6.039926236307514
 10
5.678231801000239
 20
6.028556792150285
 10
5.831370686020514
 20
6.175041666666666
 97
        0
 75
     2
 76
     1
 98
        1
 10
0.0
 20
0.0
450
        0
451
        0
460
0.0
461
0.0
452
        0
462
0.0
453
        0
470

  0
LWPOLYLINE
  5
133
330
12C
100
AcDbEntity
  8
Callout
100
AcDbPolyline
 90
        4
 70
     0
 43
0.0
 10
6.206208333333329
 20
6.357163728293421
 10
6.206208333333329
 20
6.213730398583518
 10
6.370379005737352
 20
6.369284561320555
 10
6.206208333333329
 20
6.357163728293421
  0
HATCH
  5
134
330
12C
100
AcDbEntity
  8
Callout
 62
   250
420
  2301728
440
 33554687
100
AcDbHatch
 10
0.0
 20
0.0
 30
0.0
210
0.0
220
0.0
230
1.0
  2
SOLID
 70
     1
 71
     1
 91
        1
 92
        3
 72
     0
 73
     1
 93
        4
 10
6.206208333333329
 20
6.357163728293421
 10
6.206208333333329
 20
6.213730398583518
 10
6.370379005737352
 20
6.369284561320555
 10
6.206208333333329
 20
6.357163728293421
 97
        0
 75
     2
 76
     1
 98
        1
 10
0.0
 20
0.0
450
        0
451
        0
460
0.0
461
0.0
452
        0
462
0.0
453
        0
470

  0
MTEXT
  5
135
330
12C
100
AcDbEntity
  8
Callout
100
AcDbMText
 10
5.981065787533426
 20
5.875536103137063
 30
0.0
 40
0.2
 41
0.0
 46
0.0
 71
     7
 72
     1
  1
\C250;\c2105123;\FHelvetica Neue LT Std 67 Medium Condensed|b0|i0|c1;\H0.171627;\W0.999999;F\H0.145883;4
 11
0.8726810707464007
 21
0.4882906396408966
 31
0.0
 73
     1
 44
1.0
  0
ENDBLK
  5
12F
330
12C
100
AcDbEntity
  8
0
100
AcDbBlockEnd
  0
BLOCK
  5
138
330
136
100
AcDbEntity
  8
0
100
AcDbBlockBegin
  2
Block_8
 70
     0
 10
0.0
 20
0.0
 30
0.0
  3
Block_8
  1

  0
SPLINE
  5
13A
330
136
100
AcDbEntity
  8
Callout
 62
   250
420
  2301728
370
    70
100
AcDbSpline
210
0.0
220
0.0
230
1.0
 70
    24
 71
     3
 72
     8
 73
     4
 74
     0
 42
0.0000000001
 43
0.0000000001
 40
0.0
 40
0.0
 40
0.0
 40
0.0
 40
1.0
 40
1.0
 40
1.0
 40
1.0
 10
2.649054099745929
 20
5.379383197438679
 30
0.0
 10
2.649054099745929
 20
5.379383197438679
 30
0.0
 10
2.979166666666666
 20
5.239988756515635
 30
0.0
 10
2.979166666666666
 20
5.239988756515635
 30
0.0
  0
LWPOLYLINE
  5
13B
330
136
100
AcDbEntity
  8
Callout
100
AcDbPolyline
 90
        4
 70
     0
 43
0.0
 10
2.934787425861031
 20
5.332361111111114
 10
2.934787425861031
 20
5.188927646694436
 10
3.098958333333333
 20
5.195560979860197
 10
2.934787425861031
 20
5.332361111111114
  0
HATCH
  5
13C
330
136
100
AcDbEntity
  8
Callout
 62
   250
420
  2301728
440
 33554687
100
AcDbHatch
 10
0.0
 20
0.0
 30
0.0
210
0.0
220
0.0
230
1.0
  2
SOLID
 70
     1
 71
     1
 91
        1
 92
        3
 72
     0
 73
     1
 93
        4
 10
2.934787425861031
 20
5.332361111111114
 10
2.934787425861031
 20
5.188927646694436
 10
3.098958333333333
 20
5.195560979860197
 10
2.934787425861031
 20
5.332361111111114
 97
        0
 75
     2
 76
     1
 98
        1
 10
0.0
 20
0.0
450
        0
451
        0
460
0.0
461
0.0
452
        0
462
0.0
453
        0
470

  0
MTEXT
  5
13D
330
136
100
AcDbEntity
  8
Callout
100
AcDbMText
 10
2.339730500336574
 20
5.443276947463244
 30
0.0
 40
0.2
 41
0.0
 46
0.0
 71
     7
 72
     1
  1
\C250;\c2105123;\FHelvetica Neue LT Std 67 Medium Condensed|b0|i0|c1;\H0.185765;\W1.000003;F\H0.157900;1
 11
0.9445669283031532
 21
-0.3283189271972388
 31
0.0
 73
     1
 44
1.0
  0
ENDBLK
  5
139
330
136
100
AcDbEntity
  8
0
100
AcDbBlockEnd
  0
ENDSEC
  0
SECTION
  2
ENTITIES
  0
SPLINE
  5
79
330
70
100
AcDbEntity
  8
Layer 1
 62
   250
420
  2301728
370
    35
100
AcDbSpline
210
0.0
220
0.0
230
1.0
 70
    11
 71
     3
 72
    86
 73
    82
 74
     0
 42
0.0000000001
 43
0.0000000001
 40
0.0
 40
0.0
 40
0.0
 40
0.0
 40
1.0
 40
1.0
 40
1.0
 40
2.0
 40
2.0
 40
2.0
 40
3.0
 40
3.0
 40
3.0
 40
4.0
 40
4.0
 40
4.0
 40
5.0
 40
5.0
 40
5.0
 40
6.0
 40
6.0
 40
6.0
 40
7.0
 40
7.0
 40
7.0
 40
8.0
 40
8.0
 40
8.0
 40
9.0
 40
9.0
 40
9.0
 40
10.0
 40
10.0
 40
10.0
 40
11.0
 40
11.0
 40
11.0
 40
12.0
 40
12.0
 40
12.0
 40
13.0
 40
13.0
 40
13.0
 40
14.0
 40
14.0
 40
14.0
 40
15.0
 40
15.0
 40
15.0
 40
16.0
 40
16.0
 40
16.0
 40
17.0
 40
17.0
 40
17.0
 40
18.0
 40
18.0
 40
18.0
 40
19.0
 40
19.0
 40
19.0
 40
20.0
 40
20.0
 40
20.0
 40
21.0
 40
21.0
 40
21.0
 40
22.0
 40
22.0
 40
22.0
 40
23.0
 40
23.0
 40
23.0
 40
24.0
 40
24.0
 40
24.0
 40
25.0
 40
25.0
 40
25.0
 40
26.0
 40
26.0
 40
26.0
 40
27.0
 40
27.0
 40
27.0
 40
27.0
 10
4.4328611111111
 20
5.993055555555555
 30
0.0
 10
4.4328611111111
 20
5.993055555555555
 30
0.0
 10
5.690972222222222
 20
5.644097222222222
 30
0.0
 10
5.690972222222222
 20
5.644097222222222
 30
0.0
 10
5.690972222222222
 20
5.644097222222222
 30
0.0
 10
6.277777777777777
 20
5.475694444444443
 30
0.0
 10
6.277777777777777
 20
5.475694444444443
 30
0.0
 10
6.277777777777777
 20
5.475694444444443
 30
0.0
 10
6.296875
 20
5.473958333333333
 30
0.0
 10
6.296875
 20
5.442708333333333
 30
0.0
 10
6.296875
 20
5.442708333333333
 30
0.0
 10
6.296875
 20
5.0625
 30
0.0
 10
6.296875
 20
5.0625
 30
0.0
 10
6.296875
 20
5.0625
 30
0.0
 10
6.26736111111111
 20
5.041666666666666
 30
0.0
 10
6.26736111111111
 20
5.041666666666666
 30
0.0
 10
6.26736111111111
 20
5.041666666666666
 30
0.0
 10
5.828125
 20
5.192708333333333
 30
0.0
 10
5.828125
 20
5.192708333333333
 30
0.0
 10
5.828125
 20
5.192708333333333
 30
0.0
 10
5.828125
 20
5.17361111111111
 30
0.0
 10
5.828125
 20
5.17361111111111
 30
0.0
 10
5.828125
 20
5.17361111111111
 30
0.0
 10
5.613430555555547
 20
5.046291666666673
 30
0.0
 10
5.613430555555547
 20
5.046291666666673
 30
0.0
 10
5.613430555555547
 20
5.046291666666673
 30
0.0
 10
5.601847222222229
 20
5.03470833333333
 30
0.0
 10
5.601847222222229
 20
5.018513888888896
 30
0.0
 10
5.601847222222229
 20
5.018513888888896
 30
0.0
 10
5.601847222222229
 20
4.618055555555555
 30
0.0
 10
5.601847222222229
 20
4.618055555555555
 30
0.0
 10
5.601847222222229
 20
4.618055555555555
 30
0.0
 10
5.56438458165404
 20
4.589030439626892
 30
0.0
 10
5.56438458165404
 20
4.589030439626892
 30
0.0
 10
5.56438458165404
 20
4.589030439626892
 30
0.0
 10
5.196194444444446
 20
4.73122765825691
 30
0.0
 10
5.196194444444446
 20
4.73122765825691
 30
0.0
 10
5.196194444444446
 20
4.73122765825691
 30
0.0
 10
5.196763888888881
 20
4.619709605518537
 30
0.0
 10
5.196763888888881
 20
4.619709605518537
 30
0.0
 10
5.195272090978606
 20
4.590590161809712
 30
0.0
 10
5.180555555555555
 20
4.585652777777769
 30
0.0
 10
5.180555555555555
 20
4.585652777777769
 30
0.0
 10
5.180555555555555
 20
4.585652777777769
 30
0.0
 10
4.990192929492675
 20
4.463962387230822
 30
0.0
 10
4.990192929492675
 20
4.463962387230822
 30
0.0
 10
4.990192929492675
 20
4.463962387230822
 30
0.0
 10
4.953708333333325
 20
4.476847222222229
 30
0.0
 10
4.953708333333325
 20
4.476847222222229
 30
0.0
 10
4.953708333333325
 20
4.476847222222229
 30
0.0
 10
4.928236111111118
 20
4.506944444444443
 30
0.0
 10
4.928236111111118
 20
4.506944444444443
 30
0.0
 10
4.928236111111118
 20
4.506944444444443
 30
0.0
 10
4.858791666666673
 20
4.25
 30
0.0
 10
4.858791666666673
 20
4.25
 30
0.0
 10
4.858791666666673
 20
4.25
 30
0.0
 10
4.82640277777778
 20
4.270833333333333
 30
0.0
 10
4.82640277777778
 20
4.270833333333333
 30
0.0
 10
4.82640277777778
 20
4.270833333333333
 30
0.0
 10
4.774549879384721
 20
4.323174890787413
 30
0.0
 10
4.774549879384721
 20
4.323174890787413
 30
0.0
 10
4.774549879384721
 20
4.323174890787413
 30
0.0
 10
4.506944444444443
 20
4.155097222222214
 30
0.0
 10
4.506944444444443
 20
4.155097222222214
 30
0.0
 10
4.481486111111103
 20
4.13890277777778
 30
0.0
 10
4.46295833333334
 20
4.15045833333334
 30
0.0
 10
4.46295833333334
 20
4.15045833333334
 30
0.0
 10
4.46295833333334
 20
4.15045833333334
 30
0.0
 10
4.11342350719729
 20
4.314819444444436
 30
0.0
 10
4.11342350719729
 20
4.314819444444436
 30
0.0
 10
4.099534618659264
 20
4.321763888888881
 30
0.0
 10
4.099487396438235
 20
4.336697112668035
 30
0.0
 10
4.099487396438235
 20
4.336697112668035
 30
0.0
 10
4.099487396438235
 20
4.336697112668035
 30
0.0
 10
4.099487396438235
 20
5.154758203113184
 30
0.0
 10
4.099487396438235
 20
5.154758203113184
 30
0.0
 10
4.099487396438235
 20
5.154758203113184
 30
0.0
 10
3.625047130645826
 20
5.345024864973311
 30
0.0
 10
3.625047130645826
 20
5.345024864973311
 30
0.0
 10
3.625047130645826
 20
5.345024864973311
 30
0.0
 10
4.4328611111111
 20
5.993055555555555
 30
0.0
 10
4.4328611111111
 20
5.993055555555555
 30
0.0
  0
HATCH
  5
7A
330
70
100
AcDbEntity
  8
Layer 1
 62
   253
420
 10987948
440
 33554687
100
AcDbHatch
 10
0.0
 20
0.0
 30
0.0
210
0.0
220
0.0
230
1.0
  2
SOLID
 70
     1
 71
     1
 91
        1
 92
        1
 93
        1
 72
     4
 94
        3
 73
     0
 74
     0
 95
       86
 96
       82
 40
0.0
 40
0.0
 40
0.0
 40
0.0
 40
1.0
 40
1.0
 40
1.0
 40
2.0
 40
2.0
 40
2.0
 40
3.0
 40
3.0
 40
3.0
 40
4.0
 40
4.0
 40
4.0
 40
5.0
 40
5.0
 40
5.0
 40
6.0
 40
6.0
 40
6.0
 40
7.0
 40
7.0
 40
7.0
 40
8.0
 40
8.0
 40
8.0
 40
9.0
 40
9.0
 40
9.0
 40
10.0
 40
10.0
 40
10.0
 40
11.0
 40
11.0
 40
11.0
 40
12.0
 40
12.0
 40
12.0
 40
13.0
 40
13.0
 40
13.0
 40
14.0
 40
14.0
 40
14.0
 40
15.0
 40
15.0
 40
15.0
 40
16.0
 40
16.0
 40
16.0
 40
17.0
 40
17.0
 40
17.0
 40
18.0
 40
18.0
 40
18.0
 40
19.0
 40
19.0
 40
19.0
 40
20.0
 40
20.0
 40
20.0
 40
21.0
 40
21.0
 40
21.0
 40
22.0
 40
22.0
 40
22.0
 40
23.0
 40
23.0
 40
23.0
 40
24.0
 40
24.0
 40
24.0
 40
25.0
 40
25.0
 40
25.0
 40
26.0
 40
26.0
 40
26.0
 40
27.0
 40
27.0
 40
27.0
 40
27.0
 10
4.4328611111111
 20
5.993055555555555
 10
4.4328611111111
 20
5.993055555555555
 10
5.690972222222222
 20
5.644097222222222
 10
5.690972222222222
 20
5.644097222222222
 10
5.690972222222222
 20
5.644097222222222
 10
6.277777777777777
 20
5.475694444444443
 10
6.277777777777777
 20
5.475694444444443
 10
6.277777777777777
 20
5.475694444444443
 10
6.296875
 20
5.473958333333333
 10
6.296875
 20
5.442708333333333
 10
6.296875
 20
5.442708333333333
 10
6.296875
 20
5.0625
 10
6.296875
 20
5.0625
 10
6.296875
 20
5.0625
 10
6.26736111111111
 20
5.041666666666666
 10
6.26736111111111
 20
5.041666666666666
 10
6.26736111111111
 20
5.041666666666666
 10
5.828125
 20
5.192708333333333
 10
5.828125
 20
5.192708333333333
 10
5.828125
 20
5.192708333333333
 10
5.828125
 20
5.17361111111111
 10
5.828125
 20
5.17361111111111
 10
5.828125
 20
5.17361111111111
 10
5.613430555555547
 20
5.046291666666673
 10
5.613430555555547
 20
5.046291666666673
 10
5.613430555555547
 20
5.046291666666673
 10
5.601847222222229
 20
5.03470833333333
 10
5.601847222222229
 20
5.018513888888896
 10
5.601847222222229
 20
5.018513888888896
 10
5.601847222222229
 20
4.618055555555555
 10
5.601847222222229
 20
4.618055555555555
 10
5.601847222222229
 20
4.618055555555555
 10
5.56438458165404
 20
4.589030439626892
 10
5.56438458165404
 20
4.589030439626892
 10
5.56438458165404
 20
4.589030439626892
 10
5.196194444444446
 20
4.73122765825691
 10
5.196194444444446
 20
4.73122765825691
 10
5.196194444444446
 20
4.73122765825691
 10
5.196763888888881
 20
4.619709605518537
 10
5.196763888888881
 20
4.619709605518537
 10
5.195272090978606
 20
4.590590161809712
 10
5.180555555555555
 20
4.585652777777769
 10
5.180555555555555
 20
4.585652777777769
 10
5.180555555555555
 20
4.585652777777769
 10
4.990192929492675
 20
4.463962387230822
 10
4.990192929492675
 20
4.463962387230822
 10
4.990192929492675
 20
4.463962387230822
 10
4.953708333333325
 20
4.476847222222229
 10
4.953708333333325
 20
4.476847222222229
 10
4.953708333333325
 20
4.476847222222229
 10
4.928236111111118
 20
4.506944444444443
 10
4.928236111111118
 20
4.506944444444443
 10
4.928236111111118
 20
4.506944444444443
 10
4.858791666666673
 20
4.25
 10
4.858791666666673
 20
4.25
 10
4.858791666666673
 20
4.25
 10
4.82640277777778
 20
4.270833333333333
 10
4.82640277777778
 20
4.270833333333333
 10
4.82640277777778
 20
4.270833333333333
 10
4.774549879384721
 20
4.323174890787413
 10
4.774549879384721
 20
4.323174890787413
 10
4.774549879384721
 20
4.323174890787413
 10
4.506944444444443
 20
4.155097222222214
 10
4.506944444444443
 20
4.155097222222214
 10
4.481486111111103
 20
4.13890277777778
 10
4.46295833333334
 20
4.15045833333334
 10
4.46295833333334
 20
4.15045833333334
 10
4.46295833333334
 20
4.15045833333334
 10
4.11342350719729
 20
4.314819444444436
 10
4.11342350719729
 20
4.314819444444436
 10
4.099534618659264
 20
4.321763888888881
 10
4.099487396438235
 20
4.336697112668035
 10
4.099487396438235
 20
4.336697112668035
 10
4.099487396438235
 20
4.336697112668035
 10
4.099487396438235
 20
5.154758203113184
 10
4.099487396438235
 20
5.154758203113184
 10
4.099487396438235
 20
5.154758203113184
 10
3.625047130645826
 20
5.345024864973311
 10
3.625047130645826
 20
5.345024864973311
 10
3.625047130645826
 20
5.345024864973311
 10
4.4328611111111
 20
5.993055555555555
 10
4.4328611111111
 20
5.993055555555555
 97
        0
 97
        1
330
79
 75
     2
 76
     1
 98
        1
 10
0.0
 20
0.0
450
        0
451
        0
460
0.0
461
0.0
452
        0
462
0.0
453
        0
470

  0
SPLINE
  5
7B
330
70
100
AcDbEntity
  8
Layer 1
100
AcDbSpline
210
0.0
220
0.0
230
1.0
 70
    11
 71
     3
 72
    50
 73
    46
 74
     0
 42
0.0000000001
 43
0.0000000001
 40
0.0
 40
0.0
 40
0.0
 40
0.0
 40
1.0
 40
1.0
 40
1.0
 40
2.0
 40
2.0
 40
2.0
 40
3.0
 40
3.0
 40
3.0
 40
4.0
 40
4.0
 40
4.0
 40
5.0
 40
5.0
 40
5.0
 40
6.0
 40
6.0
 40
6.0
 40
7.0
 40
7.0
 40
7.0
 40
8.0
 40
8.0
 40
8.0
 40
9.0
 40
9.0
 40
9.0
 40
10.0
 40
10.0
 40
10.0
 40
11.0
 40
11.0
 40
11.0
 40
12.0
 40
12.0
 40
12.0
 40
13.0
 40
13.0
 40
13.0
 40
14.0
 40
14.0
 40
14.0
 40
15.0
 40
15.0
 40
15.0
 40
15.0
 10
3.364583333333333
 20
6.326388888888888
 30
0.0
 10
3.364583333333333
 20
6.326388888888888
 30
0.0
 10
3.201388888888888
 20
6.375
 30
0.0
 10
3.201388888888888
 20
6.375
 30
0.0
 10
3.180555555555555
 20
6.381944444444443
 30
0.0
 10
3.152777777777777
 20
6.378472222222221
 30
0.0
 10
3.152777777777777
 20
6.378472222222221
 30
0.0
 10
3.152777777777777
 20
6.378472222222221
 30
0.0
 10
2.97408742486823
 20
6.327779006813519
 30
0.0
 10
2.97408742486823
 20
6.327779006813519
 30
0.0
 10
2.97408742486823
 20
6.327779006813519
 30
0.0
 10
2.972222222222221
 20
6.284722222222221
 30
0.0
 10
2.972222222222221
 20
6.284722222222221
 30
0.0
 10
2.972222222222221
 20
6.284722222222221
 30
0.0
 10
2.710645764856672
 20
6.300923451936391
 30
0.0
 10
2.710645764856672
 20
6.300923451936391
 30
0.0
 10
2.710645764856672
 20
6.300923451936391
 30
0.0
 10
2.709798542655852
 20
6.252813730929523
 30
0.0
 10
2.709798542655852
 20
6.252813730929523
 30
0.0
 10
2.709798542655852
 20
6.252813730929523
 30
0.0
 10
2.430555555555555
 20
6.17361111111111
 30
0.0
 10
2.430555555555555
 20
6.17361111111111
 30
0.0
 10
2.405069444444443
 20
6.166354010891457
 30
0.0
 10
2.407409661405949
 20
6.149305555555555
 30
0.0
 10
2.407409661405949
 20
6.149305555555555
 30
0.0
 10
2.407409661405949
 20
6.149305555555555
 30
0.0
 10
2.407409661405949
 20
5.833333333333333
 30
0.0
 10
2.407409661405949
 20
5.833333333333333
 30
0.0
 10
2.407409661405949
 20
5.833333333333333
 30
0.0
 10
3.007038812924696
 20
5.592861111111106
 30
0.0
 10
3.007038812924696
 20
5.592861111111106
 30
0.0
 10
3.007038812924696
 20
5.592861111111106
 30
0.0
 10
3.368055555555555
 20
5.729166666666666
 30
0.0
 10
3.368055555555555
 20
5.729166666666666
 30
0.0
 10
3.368055555555555
 20
5.729166666666666
 30
0.0
 10
3.368055555555555
 20
5.99479845966976
 30
0.0
 10
3.368055555555555
 20
5.99479845966976
 30
0.0
 10
3.368055555555555
 20
5.99479845966976
 30
0.0
 10
3.442708333333333
 20
6.118055555555555
 30
0.0
 10
3.442708333333333
 20
6.118055555555555
 30
0.0
 10
3.442708333333333
 20
6.118055555555555
 30
0.0
 10
3.263888888888888
 20
6.175347222222222
 30
0.0
 10
3.263888888888888
 20
6.175347222222222
 30
0.0
 10
3.263888888888888
 20
6.175347222222222
 30
0.0
 10
3.364583333333333
 20
6.326388888888888
 30
0.0
 10
3.364583333333333
 20
6.326388888888888
 30
0.0
  0
HATCH
  5
7C
330
70
100
AcDbEntity
  8
Layer 1
 62
   253
420
 10987948
440
 33554687
100
AcDbHatch
 10
0.0
 20
0.0
 30
0.0
210
0.0
220
0.0
230
1.0
  2
SOLID
 70
     1
 71
     1
 91
        1
 92
        1
 93
        1
 72
     4
 94
        3
 73
     0
 74
     0
 95
       50
 96
       46
 40
0.0
 40
0.0
 40
0.0
 40
0.0
 40
1.0
 40
1.0
 40
1.0
 40
2.0
 40
2.0
 40
2.0
 40
3.0
 40
3.0
 40
3.0
 40
4.0
 40
4.0
 40
4.0
 40
5.0
 40
5.0
 40
5.0
 40
6.0
 40
6.0
 40
6.0
 40
7.0
 40
7.0
 40
7.0
 40
8.0
 40
8.0
 40
8.0
 40
9.0
 40
9.0
 40
9.0
 40
10.0
 40
10.0
 40
10.0
 40
11.0
 40
11.0
 40
11.0
 40
12.0
 40
12.0
 40
12.0
 40
13.0
 40
13.0
 40
13.0
 40
14.0
 40
14.0
 40
14.0
 40
15.0
 40
15.0
 40
15.0
 40
15.0
 10
3.364583333333333
 20
6.326388888888888
 10
3.364583333333333
 20
6.326388888888888
 10
3.201388888888888
 20
6.375
 10
3.201388888888888
 20
6.375
 10
3.180555555555555
 20
6.381944444444443
 10
3.152777777777777
 20
6.378472222222221
 10
3.152777777777777
 20
6.378472222222221
 10
3.152777777777777
 20
6.378472222222221
 10
2.97408742486823
 20
6.327779006813519
 10
2.97408742486823
 20
6.327779006813519
 10
2.97408742486823
 20
6.327779006813519
 10
2.972222222222221
 20
6.284722222222221
 10
2.972222222222221
 20
6.284722222222221
 10
2.972222222222221
 20
6.284722222222221
 10
2.710645764856672
 20
6.300923451936391
 10
2.710645764856672
 20
6.300923451936391
 10
2.710645764856672
 20
6.300923451936391
 10
2.709798542655852
 20
6.252813730929523
 10
2.709798542655852
 20
6.252813730929523
 10
2.709798542655852
 20
6.252813730929523
 10
2.430555555555555
 20
6.17361111111111
 10
2.430555555555555
 20
6.17361111111111
 10
2.405069444444443
 20
6.166354010891457
 10
2.407409661405949
 20
6.149305555555555
 10
2.407409661405949
 20
6.149305555555555
 10
2.407409661405949
 20
6.149305555555555
 10
2.407409661405949
 20
5.833333333333333
 10
2.407409661405949
 20
5.833333333333333
 10
2.407409661405949
 20
5.833333333333333
 10
3.007038812924696
 20
5.592861111111106
 10
3.007038812924696
 20
5.592861111111106
 10
3.007038812924696
 20
5.592861111111106
 10
3.368055555555555
 20
5.729166666666666
 10
3.368055555555555
 20
5.729166666666666
 10
3.368055555555555
 20
5.729166666666666
 10
3.368055555555555
 20
5.99479845966976
 10
3.368055555555555
 20
5.99479845966976
 10
3.368055555555555
 20
5.99479845966976
 10
3.442708333333333
 20
6.118055555555555
 10
3.442708333333333
 20
6.118055555555555
 10
3.442708333333333
 20
6.118055555555555
 10
3.263888888888888
 20
6.175347222222222
 10
3.263888888888888
 20
6.175347222222222
 10
3.263888888888888
 20
6.175347222222222
 10
3.364583333333333
 20
6.326388888888888
 10
3.364583333333333
 20
6.326388888888888
 97
        0
 97
        1
330
7B
 75
     2
 76
     1
 98
        1
 10
0.0
 20
0.0
450
        0
451
        0
460
0.0
461
0.0
452
        0
462
0.0
453
        0
470

  0
SPLINE
  5
7D
330
70
100
AcDbEntity
  8
Layer 1
 62
   250
420
  2301728
370
    35
100
AcDbSpline
210
0.0
220
0.0
230
1.0
 70
     8
 71
     3
 72
    80
 73
    76
 74
     0
 42
0.0000000001
 43
0.0000000001
 40
0.0
 40
0.0
 40
0.0
 40
0.0
 40
1.0
 40
1.0
 40
1.0
 40
2.0
 40
2.0
 40
2.0
 40
3.0
 40
3.0
 40
3.0
 40
4.0
 40
4.0
 40
4.0
 40
5.0
 40
5.0
 40
5.0
 40
6.0
 40
6.0
 40
6.0
 40
7.0
 40
7.0
 40
7.0
 40
8.0
 40
8.0
 40
8.0
 40
9.0
 40
9.0
 40
9.0
 40
10.0
 40
10.0
 40
10.0
 40
11.0
 40
11.0
 40
11.0
 40
12.0
 40
12.0
 40
12.0
 40
13.0
 40
13.0
 40
13.0
 40
14.0
 40
14.0
 40
14.0
 40
15.0
 40
15.0
 40
15.0
 40
16.0
 40
16.0
 40
16.0
 40
17.0
 40
17.0
 40
17.0
 40
18.0
 40
18.0
 40
18.0
 40
19.0
 40
19.0
 40
19.0
 40
20.0
 40
20.0
 40
20.0
 40
21.0
 40
21.0
 40
21.0
 40
22.0
 40
22.0
 40
22.0
 40
23.0
 40
23.0
 40
23.0
 40
24.0
 40
24.0
 40
24.0
 40
25.0
 40
25.0
 40
25.0
 40
25.0
 10
5.690972222222222
 20
5.644097222222222
 30
0.0
 10
5.690972222222222
 20
5.644097222222222
 30
0.0
 10
6.277777777777777
 20
5.475694444444443
 30
0.0
 10
6.277777777777777
 20
5.475694444444443
 30
0.0
 10
6.277777777777777
 20
5.475694444444443
 30
0.0
 10
6.296875
 20
5.473958333333333
 30
0.0
 10
6.296875
 20
5.442708333333333
 30
0.0
 10
6.296875
 20
5.442708333333333
 30
0.0
 10
6.296875
 20
5.0625
 30
0.0
 10
6.296875
 20
5.0625
 30
0.0
 10
6.296875
 20
5.0625
 30
0.0
 10
6.26736111111111
 20
5.041666666666666
 30
0.0
 10
6.26736111111111
 20
5.041666666666666
 30
0.0
 10
6.26736111111111
 20
5.041666666666666
 30
0.0
 10
5.828125
 20
5.192708333333333
 30
0.0
 10
5.828125
 20
5.192708333333333
 30
0.0
 10
5.828125
 20
5.192708333333333
 30
0.0
 10
5.828125
 20
5.17361111111111
 30
0.0
 10
5.828125
 20
5.17361111111111
 30
0.0
 10
5.828125
 20
5.17361111111111
 30
0.0
 10
5.613430555555547
 20
5.046291666666673
 30
0.0
 10
5.613430555555547
 20
5.046291666666673
 30
0.0
 10
5.613430555555547
 20
5.046291666666673
 30
0.0
 10
5.601847222222229
 20
5.03470833333333
 30
0.0
 10
5.601847222222229
 20
5.018513888888896
 30
0.0
 10
5.601847222222229
 20
5.018513888888896
 30
0.0
 10
5.601847222222229
 20
4.618055555555555
 30
0.0
 10
5.601847222222229
 20
4.618055555555555
 30
0.0
 10
5.601847222222229
 20
4.618055555555555
 30
0.0
 10
5.56438458165404
 20
4.589030439626892
 30
0.0
 10
5.56438458165404
 20
4.589030439626892
 30
0.0
 10
5.56438458165404
 20
4.589030439626892
 30
0.0
 10
5.196194444444446
 20
4.73122765825691
 30
0.0
 10
5.196194444444446
 20
4.73122765825691
 30
0.0
 10
5.196194444444446
 20
4.73122765825691
 30
0.0
 10
5.196763888888881
 20
4.619709605518537
 30
0.0
 10
5.196763888888881
 20
4.619709605518537
 30
0.0
 10
5.195272090978606
 20
4.590590161809712
 30
0.0
 10
5.180555555555555
 20
4.585652777777769
 30
0.0
 10
5.180555555555555
 20
4.585652777777769
 30
0.0
 10
5.180555555555555
 20
4.585652777777769
 30
0.0
 10
4.990192929492675
 20
4.463962387230822
 30
0.0
 10
4.990192929492675
 20
4.463962387230822
 30
0.0
 10
4.990192929492675
 20
4.463962387230822
 30
0.0
 10
4.953708333333325
 20
4.476847222222229
 30
0.0
 10
4.953708333333325
 20
4.476847222222229
 30
0.0
 10
4.953708333333325
 20
4.476847222222229
 30
0.0
 10
4.928236111111118
 20
4.506944444444443
 30
0.0
 10
4.928236111111118
 20
4.506944444444443
 30
0.0
 10
4.928236111111118
 20
4.506944444444443
 30
0.0
 10
4.858791666666673
 20
4.25
 30
0.0
 10
4.858791666666673
 20
4.25
 30
0.0
 10
4.858791666666673
 20
4.25
 30
0.0
 10
4.82640277777778
 20
4.270833333333333
 30
0.0
 10
4.82640277777778
 20
4.270833333333333
 30
0.0
 10
4.82640277777778
 20
4.270833333333333
 30
0.0
 10
4.774549879384721
 20
4.323174890787413
 30
0.0
 10
4.774549879384721
 20
4.323174890787413
 30
0.0
 10
4.774549879384721
 20
4.323174890787413
 30
0.0
 10
4.506944444444443
 20
4.155097222222214
 30
0.0
 10
4.506944444444443
 20
4.155097222222214
 30
0.0
 10
4.481486111111103
 20
4.13890277777778
 30
0.0
 10
4.46295833333334
 20
4.15045833333334
 30
0.0
 10
4.46295833333334
 20
4.15045833333334
 30
0.0
 10
4.46295833333334
 20
4.15045833333334
 30
0.0
 10
4.11342350719729
 20
4.314819444444436
 30
0.0
 10
4.11342350719729
 20
4.314819444444436
 30
0.0
 10
4.099534618659264
 20
4.321763888888881
 30
0.0
 10
4.099487396438235
 20
4.336697112668035
 30
0.0
 10
4.099487396438235
 20
4.336697112668035
 30
0.0
 10
4.099487396438235
 20
4.336697112668035
 30
0.0
 10
4.099487396438235
 20
5.154758203113184
 30
0.0
 10
4.099487396438235
 20
5.154758203113184
 30
0.0
 10
4.099487396438235
 20
5.154758203113184
 30
0.0
 10
3.625047130645826
 20
5.345024864973311
 30
0.0
 10
3.625047130645826
 20
5.345024864973311
 30
0.0
  0
LINE
  5
7E
330
70
100
AcDbEntity
  8
Layer 1
 62
   250
420
  2301728
370
    25
100
AcDbLine
 10
3.366319444444444
 20
6.322916666666666
 30
0.0
 11
3.390625
 21
6.3125
 31
0.0
  0
LINE
  5
7F
330
70
100
AcDbEntity
  8
Layer 1
 62
   250
420
  2301728
370
    35
100
AcDbLine
 10
3.434027777777777
 20
6.119791666666666
 30
0.0
 11
3.472222222222221
 21
6.105902777777777
 31
0.0
  0
LINE
  5
80
330
70
100
AcDbEntity
  8
Layer 1
 62
   250
420
  2301728
370
    25
100
AcDbLine
 10
3.367187414937689
 20
5.992194444444445
 30
0.0
 11
3.394097222222221
 21
5.980902777777777
 31
0.0
  0
LINE
  5
81
330
70
100
AcDbEntity
  8
Layer 1
 62
   250
420
  2301728
370
    25
100
AcDbLine
 10
2.940972222222221
 20
5.5625
 30
0.0
 11
2.970486111111111
 21
5.550347222222222
 31
0.0
  0
SPLINE
  5
82
330
70
100
AcDbEntity
  8
Layer 1
 62
   250
420
  2301728
370
    35
100
AcDbSpline
210
0.0
220
0.0
230
1.0
 70
     8
 71
     3
 72
    92
 73
    88
 74
     0
 42
0.0000000001
 43
0.0000000001
 40
0.0
 40
0.0
 40
0.0
 40
0.0
 40
1.0
 40
1.0
 40
1.0
 40
2.0
 40
2.0
 40
2.0
 40
3.0
 40
3.0
 40
3.0
 40
4.0
 40
4.0
 40
4.0
 40
5.0
 40
5.0
 40
5.0
 40
6.0
 40
6.0
 40
6.0
 40
7.0
 40
7.0
 40
7.0
 40
8.0
 40
8.0
 40
8.0
 40
9.0
 40
9.0
 40
9.0
 40
10.0
 40
10.0
 40
10.0
 40
11.0
 40
11.0
 40
11.0
 40
12.0
 40
12.0
 40
12.0
 40
13.0
 40
13.0
 40
13.0
 40
14.0
 40
14.0
 40
14.0
 40
15.0
 40
15.0
 40
15.0
 40
16.0
 40
16.0
 40
16.0
 40
17.0
 40
17.0
 40
17.0
 40
18.0
 40
18.0
 40
18.0
 40
19.0
 40
19.0
 40
19.0
 40
20.0
 40
20.0
 40
20.0
 40
21.0
 40
21.0
 40
21.0
 40
22.0
 40
22.0
 40
22.0
 40
23.0
 40
23.0
 40
23.0
 40
24.0
 40
24.0
 40
24.0
 40
25.0
 40
25.0
 40
25.0
 40
26.0
 40
26.0
 40
26.0
 40
27.0
 40
27.0
 40
27.0
 40
28.0
 40
28.0
 40
28.0
 40
29.0
 40
29.0
 40
29.0
 40
29.0
 10
5.479248472693648
 20
6.16648317755486
 30
0.0
 10
5.479248472693648
 20
6.16648317755486
 30
0.0
 10
5.934027777777777
 20
6.368055555555555
 30
0.0
 10
5.934027777777777
 20
6.368055555555555
 30
0.0
 10
5.934027777777777
 20
6.368055555555555
 30
0.0
 10
5.951388888888888
 20
6.378472222222221
 30
0.0
 10
5.951388888888888
 20
6.416666666666666
 30
0.0
 10
5.951388888888888
 20
6.416666666666666
 30
0.0
 10
5.951388888888888
 20
6.864583333333333
 30
0.0
 10
5.951388888888888
 20
6.864583333333333
 30
0.0
 10
5.951388888888888
 20
6.864583333333333
 30
0.0
 10
6.024305555555555
 20
6.947916666666666
 30
0.0
 10
6.024305555555555
 20
6.947916666666666
 30
0.0
 10
6.024305555555555
 20
6.947916666666666
 30
0.0
 10
5.895833333333333
 20
7.027777777777777
 30
0.0
 10
5.895833333333333
 20
7.027777777777777
 30
0.0
 10
5.895833333333333
 20
7.027777777777777
 30
0.0
 10
5.951388888888888
 20
7.098958333333333
 30
0.0
 10
5.951388888888888
 20
7.098958333333333
 30
0.0
 10
5.951388888888888
 20
7.098958333333333
 30
0.0
 10
5.951388888888888
 20
7.61111111111111
 30
0.0
 10
5.951388888888888
 20
7.61111111111111
 30
0.0
 10
5.951388888888888
 20
7.61111111111111
 30
0.0
 10
5.947916666666666
 20
7.628472222222221
 30
0.0
 10
5.927083333333333
 20
7.631944444444443
 30
0.0
 10
5.927083333333333
 20
7.631944444444443
 30
0.0
 10
5.600694444444443
 20
7.680555555555555
 30
0.0
 10
5.600694444444443
 20
7.680555555555555
 30
0.0
 10
5.600694444444443
 20
7.680555555555555
 30
0.0
 10
5.5625
 20
7.684027777777777
 30
0.0
 10
5.539930555555555
 20
7.675347222222221
 30
0.0
 10
5.539930555555555
 20
7.675347222222221
 30
0.0
 10
3.001736111111111
 20
7.119791666666666
 30
0.0
 10
3.001736111111111
 20
7.119791666666666
 30
0.0
 10
3.001736111111111
 20
7.119791666666666
 30
0.0
 10
2.9375
 20
7.125
 30
0.0
 10
2.9375
 20
7.069444444444443
 30
0.0
 10
2.9375
 20
7.069444444444443
 30
0.0
 10
2.9375
 20
7.027777777777777
 30
0.0
 10
2.9375
 20
7.027777777777777
 30
0.0
 10
2.9375
 20
7.027777777777777
 30
0.0
 10
2.972222222222221
 20
7.013888888888888
 30
0.0
 10
2.972222222222221
 20
7.013888888888888
 30
0.0
 10
2.972222222222221
 20
7.013888888888888
 30
0.0
 10
3.135416666666666
 20
7.052083333333333
 30
0.0
 10
3.135416666666666
 20
7.052083333333333
 30
0.0
 10
3.135416666666666
 20
7.052083333333333
 30
0.0
 10
3.344516582177068
 20
7.004719267490346
 30
0.0
 10
3.344516582177068
 20
7.004719267490346
 30
0.0
 10
3.344516582177068
 20
7.004719267490346
 30
0.0
 10
3.367044359385747
 20
7.001342878686752
 30
0.0
 10
3.368055555555555
 20
6.961805555555555
 30
0.0
 10
3.368055555555555
 20
6.961805555555555
 30
0.0
 10
3.368055555555555
 20
6.324652777777777
 30
0.0
 10
3.368055555555555
 20
6.324652777777777
 30
0.0
 10
3.368055555555555
 20
6.324652777777777
 30
0.0
 10
3.263888888888888
 20
6.175347222222222
 30
0.0
 10
3.263888888888888
 20
6.175347222222222
 30
0.0
 10
3.263888888888888
 20
6.175347222222222
 30
0.0
 10
3.442708333333333
 20
6.118055555555555
 30
0.0
 10
3.442708333333333
 20
6.118055555555555
 30
0.0
 10
3.442708333333333
 20
6.118055555555555
 30
0.0
 10
3.368055555555555
 20
5.99479845966976
 30
0.0
 10
3.368055555555555
 20
5.99479845966976
 30
0.0
 10
3.368055555555555
 20
5.99479845966976
 30
0.0
 10
3.368055555555555
 20
5.991319444444443
 30
0.0
 10
3.368055555555555
 20
5.991319444444443
 30
0.0
 10
3.368055555555555
 20
5.991319444444443
 30
0.0
 10
3.368055555555555
 20
5.729166666666666
 30
0.0
 10
3.368055555555555
 20
5.729166666666666
 30
0.0
 10
3.368055555555555
 20
5.729166666666666
 30
0.0
 10
2.9375
 20
5.5625
 30
0.0
 10
2.9375
 20
5.5625
 30
0.0
 10
2.9375
 20
5.5625
 30
0.0
 10
2.9375
 20
5.458333333333333
 30
0.0
 10
2.9375
 20
5.458333333333333
 30
0.0
 10
2.9375
 20
5.458333333333333
 30
0.0
 10
2.934027777777777
 20
5.430555555555555
 30
0.0
 10
2.961805555555555
 20
5.416666666666666
 30
0.0
 10
2.961805555555555
 20
5.416666666666666
 30
0.0
 10
3.34375
 20
5.246527777777777
 30
0.0
 10
3.34375
 20
5.246527777777777
 30
0.0
 10
3.34375
 20
5.246527777777777
 30
0.0
 10
3.370991581508254
 20
5.234483201099161
 30
0.0
 10
3.395833333333333
 20
5.243055555555555
 30
0.0
 10
3.395833333333333
 20
5.243055555555555
 30
0.0
 10
4.487969331068799
 20
5.727125
 30
0.0
 10
4.487969331068799
 20
5.727125
 30
0.0
  0
HATCH
  5
83
330
70
100
AcDbEntity
  8
Layer 1
 62
   253
420
 10987948
440
 33554687
100
AcDbHatch
 10
0.0
 20
0.0
 30
0.0
210
0.0
220
0.0
230
1.0
  2
SOLID
 70
     1
 71
     1
 91
        1
 92
        1
 93
        2
 72
     4
 94
        3
 73
     0
 74
     0
 95
       92
 96
       88
 40
0.0
 40
0.0
 40
0.0
 40
0.0
 40
1.0
 40
1.0
 40
1.0
 40
2.0
 40
2.0
 40
2.0
 40
3.0
 40
3.0
 40
3.0
 40
4.0
 40
4.0
 40
4.0
 40
5.0
 40
5.0
 40
5.0
 40
6.0
 40
6.0
 40
6.0
 40
7.0
 40
7.0
 40
7.0
 40
8.0
 40
8.0
 40
8.0
 40
9.0
 40
9.0
 40
9.0
 40
10.0
 40
10.0
 40
10.0
 40
11.0
 40
11.0
 40
11.0
 40
12.0
 40
12.0
 40
12.0
 40
13.0
 40
13.0
 40
13.0
 40
14.0
 40
14.0
 40
14.0
 40
15.0
 40
15.0
 40
15.0
 40
16.0
 40
16.0
 40
16.0
 40
17.0
 40
17.0
 40
17.0
 40
18.0
 40
18.0
 40
18.0
 40
19.0
 40
19.0
 40
19.0
 40
20.0
 40
20.0
 40
20.0
 40
21.0
 40
21.0
 40
21.0
 40
22.0
 40
22.0
 40
22.0
 40
23.0
 40
23.0
 40
23.0
 40
24.0
 40
24.0
 40
24.0
 40
25.0
 40
25.0
 40
25.0
 40
26.0
 40
26.0
 40
26.0
 40
27.0
 40
27.0
 40
27.0
 40
28.0
 40
28.0
 40
28.0
 40
29.0
 40
29.0
 40
29.0
 40
29.0
 10
5.479248472693648
 20
6.16648317755486
 10
5.479248472693648
 20
6.16648317755486
 10
5.934027777777777
 20
6.368055555555555
 10
5.934027777777777
 20
6.368055555555555
 10
5.934027777777777
 20
6.368055555555555
 10
5.951388888888888
 20
6.378472222222221
 10
5.951388888888888
 20
6.416666666666666
 10
5.951388888888888
 20
6.416666666666666
 10
5.951388888888888
 20
6.864583333333333
 10
5.951388888888888
 20
6.864583333333333
 10
5.951388888888888
 20
6.864583333333333
 10
6.024305555555555
 20
6.947916666666666
 10
6.024305555555555
 20
6.947916666666666
 10
6.024305555555555
 20
6.947916666666666
 10
5.895833333333333
 20
7.027777777777777
 10
5.895833333333333
 20
7.027777777777777
 10
5.895833333333333
 20
7.027777777777777
 10
5.951388888888888
 20
7.098958333333333
 10
5.951388888888888
 20
7.098958333333333
 10
5.951388888888888
 20
7.098958333333333
 10
5.951388888888888
 20
7.61111111111111
 10
5.951388888888888
 20
7.61111111111111
 10
5.951388888888888
 20
7.61111111111111
 10
5.947916666666666
 20
7.628472222222221
 10
5.927083333333333
 20
7.631944444444443
 10
5.927083333333333
 20
7.631944444444443
 10
5.600694444444443
 20
7.680555555555555
 10
5.600694444444443
 20
7.680555555555555
 10
5.600694444444443
 20
7.680555555555555
 10
5.5625
 20
7.684027777777777
 10
5.539930555555555
 20
7.675347222222221
 10
5.539930555555555
 20
7.675347222222221
 10
3.001736111111111
 20
7.119791666666666
 10
3.001736111111111
 20
7.119791666666666
 10
3.001736111111111
 20
7.119791666666666
 10
2.9375
 20
7.125
 10
2.9375
 20
7.069444444444443
 10
2.9375
 20
7.069444444444443
 10
2.9375
 20
7.027777777777777
 10
2.9375
 20
7.027777777777777
 10
2.9375
 20
7.027777777777777
 10
2.972222222222221
 20
7.013888888888888
 10
2.972222222222221
 20
7.013888888888888
 10
2.972222222222221
 20
7.013888888888888
 10
3.135416666666666
 20
7.052083333333333
 10
3.135416666666666
 20
7.052083333333333
 10
3.135416666666666
 20
7.052083333333333
 10
3.344516582177068
 20
7.004719267490346
 10
3.344516582177068
 20
7.004719267490346
 10
3.344516582177068
 20
7.004719267490346
 10
3.367044359385747
 20
7.001342878686752
 10
3.368055555555555
 20
6.961805555555555
 10
3.368055555555555
 20
6.961805555555555
 10
3.368055555555555
 20
6.324652777777777
 10
3.368055555555555
 20
6.324652777777777
 10
3.368055555555555
 20
6.324652777777777
 10
3.263888888888888
 20
6.175347222222222
 10
3.263888888888888
 20
6.175347222222222
 10
3.263888888888888
 20
6.175347222222222
 10
3.442708333333333
 20
6.118055555555555
 10
3.442708333333333
 20
6.118055555555555
 10
3.442708333333333
 20
6.118055555555555
 10
3.368055555555555
 20
5.99479845966976
 10
3.368055555555555
 20
5.99479845966976
 10
3.368055555555555
 20
5.99479845966976
 10
3.368055555555555
 20
5.991319444444443
 10
3.368055555555555
 20
5.991319444444443
 10
3.368055555555555
 20
5.991319444444443
 10
3.368055555555555
 20
5.729166666666666
 10
3.368055555555555
 20
5.729166666666666
 10
3.368055555555555
 20
5.729166666666666
 10
2.9375
 20
5.5625
 10
2.9375
 20
5.5625
 10
2.9375
 20
5.5625
 10
2.9375
 20
5.458333333333333
 10
2.9375
 20
5.458333333333333
 10
2.9375
 20
5.458333333333333
 10
2.934027777777777
 20
5.430555555555555
 10
2.961805555555555
 20
5.416666666666666
 10
2.961805555555555
 20
5.416666666666666
 10
3.34375
 20
5.246527777777777
 10
3.34375
 20
5.246527777777777
 10
3.34375
 20
5.246527777777777
 10
3.370991581508254
 20
5.234483201099161
 10
3.395833333333333
 20
5.243055555555555
 10
3.395833333333333
 20
5.243055555555555
 10
4.487969331068799
 20
5.727125
 10
4.487969331068799
 20
5.727125
 97
        0
 72
     1
 10
4.487969331068799
 20
5.727125
 11
5.479248472693648
 21
6.16648317755486
 97
        0
 75
     2
 76
     1
 98
        1
 10
0.0
 20
0.0
450
        0
451
        0
460
0.0
461
0.0
452
        0
462
0.0
453
        0
470

  0
SPLINE
  5
84
330
70
100
AcDbEntity
  8
Layer 1
 62
   250
420
  2301728
370
    35
100
AcDbSpline
210
0.0
220
0.0
230
1.0
 70
     8
 71
     3
 72
    92
 73
    88
 74
     0
 42
0.0000000001
 43
0.0000000001
 40
0.0
 40
0.0
 40
0.0
 40
0.0
 40
1.0
 40
1.0
 40
1.0
 40
2.0
 40
2.0
 40
2.0
 40
3.0
 40
3.0
 40
3.0
 40
4.0
 40
4.0
 40
4.0
 40
5.0
 40
5.0
 40
5.0
 40
6.0
 40
6.0
 40
6.0
 40
7.0
 40
7.0
 40
7.0
 40
8.0
 40
8.0
 40
8.0
 40
9.0
 40
9.0
 40
9.0
 40
10.0
 40
10.0
 40
10.0
 40
11.0
 40
11.0
 40
11.0
 40
12.0
 40
12.0
 40
12.0
 40
13.0
 40
13.0
 40
13.0
 40
14.0
 40
14.0
 40
14.0
 40
15.0
 40
15.0
 40
15.0
 40
16.0
 40
16.0
 40
16.0
 40
17.0
 40
17.0
 40
17.0
 40
18.0
 40
18.0
 40
18.0
 40
19.0
 40
19.0
 40
19.0
 40
20.0
 40
20.0
 40
20.0
 40
21.0
 40
21.0
 40
21.0
 40
22.0
 40
22.0
 40
22.0
 40
23.0
 40
23.0
 40
23.0
 40
24.0
 40
24.0
 40
24.0
 40
25.0
 40
25.0
 40
25.0
 40
26.0
 40
26.0
 40
26.0
 40
27.0
 40
27.0
 40
27.0
 40
28.0
 40
28.0
 40
28.0
 40
29.0
 40
29.0
 40
29.0
 40
29.0
 10
5.479248472693648
 20
6.16648317755486
 30
0.0
 10
5.479248472693648
 20
6.16648317755486
 30
0.0
 10
5.934027777777777
 20
6.368055555555555
 30
0.0
 10
5.934027777777777
 20
6.368055555555555
 30
0.0
 10
5.934027777777777
 20
6.368055555555555
 30
0.0
 10
5.951388888888888
 20
6.378472222222221
 30
0.0
 10
5.951388888888888
 20
6.416666666666666
 30
0.0
 10
5.951388888888888
 20
6.416666666666666
 30
0.0
 10
5.951388888888888
 20
6.864583333333333
 30
0.0
 10
5.951388888888888
 20
6.864583333333333
 30
0.0
 10
5.951388888888888
 20
6.864583333333333
 30
0.0
 10
6.024305555555555
 20
6.947916666666666
 30
0.0
 10
6.024305555555555
 20
6.947916666666666
 30
0.0
 10
6.024305555555555
 20
6.947916666666666
 30
0.0
 10
5.895833333333333
 20
7.027777777777777
 30
0.0
 10
5.895833333333333
 20
7.027777777777777
 30
0.0
 10
5.895833333333333
 20
7.027777777777777
 30
0.0
 10
5.951388888888888
 20
7.098958333333333
 30
0.0
 10
5.951388888888888
 20
7.098958333333333
 30
0.0
 10
5.951388888888888
 20
7.098958333333333
 30
0.0
 10
5.951388888888888
 20
7.61111111111111
 30
0.0
 10
5.951388888888888
 20
7.61111111111111
 30
0.0
 10
5.951388888888888
 20
7.61111111111111
 30
0.0
 10
5.947916666666666
 20
7.628472222222221
 30
0.0
 10
5.927083333333333
 20
7.631944444444443
 30
0.0
 10
5.927083333333333
 20
7.631944444444443
 30
0.0
 10
5.600694444444443
 20
7.680555555555555
 30
0.0
 10
5.600694444444443
 20
7.680555555555555
 30
0.0
 10
5.600694444444443
 20
7.680555555555555
 30
0.0
 10
5.5625
 20
7.684027777777777
 30
0.0
 10
5.539930555555555
 20
7.675347222222221
 30
0.0
 10
5.539930555555555
 20
7.675347222222221
 30
0.0
 10
3.001736111111111
 20
7.119791666666666
 30
0.0
 10
3.001736111111111
 20
7.119791666666666
 30
0.0
 10
3.001736111111111
 20
7.119791666666666
 30
0.0
 10
2.9375
 20
7.125
 30
0.0
 10
2.9375
 20
7.069444444444443
 30
0.0
 10
2.9375
 20
7.069444444444443
 30
0.0
 10
2.9375
 20
7.027777777777777
 30
0.0
 10
2.9375
 20
7.027777777777777
 30
0.0
 10
2.9375
 20
7.027777777777777
 30
0.0
 10
2.972222222222221
 20
7.013888888888888
 30
0.0
 10
2.972222222222221
 20
7.013888888888888
 30
0.0
 10
2.972222222222221
 20
7.013888888888888
 30
0.0
 10
3.135416666666666
 20
7.052083333333333
 30
0.0
 10
3.135416666666666
 20
7.052083333333333
 30
0.0
 10
3.135416666666666
 20
7.052083333333333
 30
0.0
 10
3.344516582177068
 20
7.004719267490346
 30
0.0
 10
3.344516582177068
 20
7.004719267490346
 30
0.0
 10
3.344516582177068
 20
7.004719267490346
 30
0.0
 10
3.367044359385747
 20
7.001342878686752
 30
0.0
 10
3.368055555555555
 20
6.961805555555555
 30
0.0
 10
3.368055555555555
 20
6.961805555555555
 30
0.0
 10
3.368055555555555
 20
6.324652777777777
 30
0.0
 10
3.368055555555555
 20
6.324652777777777
 30
0.0
 10
3.368055555555555
 20
6.324652777777777
 30
0.0
 10
3.263888888888888
 20
6.175347222222222
 30
0.0
 10
3.263888888888888
 20
6.175347222222222
 30
0.0
 10
3.263888888888888
 20
6.175347222222222
 30
0.0
 10
3.442708333333333
 20
6.118055555555555
 30
0.0
 10
3.442708333333333
 20
6.118055555555555
 30
0.0
 10
3.442708333333333
 20
6.118055555555555
 30
0.0
 10
3.368055555555555
 20
5.99479845966976
 30
0.0
 10
3.368055555555555
 20
5.99479845966976
 30
0.0
 10
3.368055555555555
 20
5.99479845966976
 30
0.0
 10
3.368055555555555
 20
5.991319444444443
 30
0.0
 10
3.368055555555555
 20
5.991319444444443
 30
0.0
 10
3.368055555555555
 20
5.991319444444443
 30
0.0
 10
3.368055555555555
 20
5.729166666666666
 30
0.0
 10
3.368055555555555
 20
5.729166666666666
 30
0.0
 10
3.368055555555555
 20
5.729166666666666
 30
0.0
 10
2.9375
 20
5.5625
 30
0.0
 10
2.9375
 20
5.5625
 30
0.0
 10
2.9375
 20
5.5625
 30
0.0
 10
2.9375
 20
5.458333333333333
 30
0.0
 10
2.9375
 20
5.458333333333333
 30
0.0
 10
2.9375
 20
5.458333333333333
 30
0.0
 10
2.934027777777777
 20
5.430555555555555
 30
0.0
 10
2.961805555555555
 20
5.416666666666666
 30
0.0
 10
2.961805555555555
 20
5.416666666666666
 30
0.0
 10
3.34375
 20
5.246527777777777
 30
0.0
 10
3.34375
 20
5.246527777777777
 30
0.0
 10
3.34375
 20
5.246527777777777
 30
0.0
 10
3.370991581508254
 20
5.234483201099161
 30
0.0
 10
3.395833333333333
 20
5.243055555555555
 30
0.0
 10
3.395833333333333
 20
5.243055555555555
 30
0.0
 10
4.487969331068799
 20
5.727125
 30
0.0
 10
4.487969331068799
 20
5.727125
 30
0.0
  0
SPLINE
  5
85
330
70
100
AcDbEntity
  8
Layer 1
 62
   250
420
  2301728
370
    35
100
AcDbSpline
210
0.0
220
0.0
230
1.0
 70
     8
 71
     3
 72
    11
 73
     7
 74
     0
 42
0.0000000001
 43
0.0000000001
 40
0.0
 40
0.0
 40
0.0
 40
0.0
 40
1.0
 40
1.0
 40
1.0
 40
2.0
 40
2.0
 40
2.0
 40
2.0
 10
2.972222222222221
 20
7.083333333333333
 30
0.0
 10
2.977430555555555
 20
7.092013888888888
 30
0.0
 10
2.987847222222221
 20
7.086805555555555
 30
0.0
 10
2.987847222222221
 20
7.086805555555555
 30
0.0
 10
2.987847222222221
 20
7.086805555555555
 30
0.0
 10
3.196947141460542
 20
7.039441488835412
 30
0.0
 10
3.196947141460542
 20
7.039441488835412
 30
0.0
  0
SPLINE
  5
86
330
70
100
AcDbEntity
  8
Layer 1
 62
   250
420
  2301728
370
    25
100
AcDbSpline
210
0.0
220
0.0
230
1.0
 70
     8
 71
     3
 72
    32
 73
    28
 74
     0
 42
0.0000000001
 43
0.0000000001
 40
0.0
 40
0.0
 40
0.0
 40
0.0
 40
1.0
 40
1.0
 40
1.0
 40
2.0
 40
2.0
 40
2.0
 40
3.0
 40
3.0
 40
3.0
 40
4.0
 40
4.0
 40
4.0
 40
5.0
 40
5.0
 40
5.0
 40
6.0
 40
6.0
 40
6.0
 40
7.0
 40
7.0
 40
7.0
 40
8.0
 40
8.0
 40
8.0
 40
9.0
 40
9.0
 40
9.0
 40
9.0
 10
2.944444444444444
 20
7.097222222222221
 30
0.0
 10
2.944444444444444
 20
7.097222222222221
 30
0.0
 10
2.951388888888888
 20
7.128472222222221
 30
0.0
 10
3.017361111111111
 20
7.114583333333333
 30
0.0
 10
3.017361111111111
 20
7.114583333333333
 30
0.0
 10
3.354166666666666
 20
7.03125
 30
0.0
 10
3.354166666666666
 20
7.03125
 30
0.0
 10
3.354166666666666
 20
7.03125
 30
0.0
 10
3.388448525511698
 20
7.026685933602088
 30
0.0
 10
3.39236111111111
 20
6.974378990479029
 30
0.0
 10
3.39236111111111
 20
6.974378990479029
 30
0.0
 10
3.39236111111111
 20
6.317708333333333
 30
0.0
 10
3.39236111111111
 20
6.317708333333333
 30
0.0
 10
3.39236111111111
 20
6.317708333333333
 30
0.0
 10
3.289930555555555
 20
6.168402777777777
 30
0.0
 10
3.289930555555555
 20
6.168402777777777
 30
0.0
 10
3.289930555555555
 20
6.168402777777777
 30
0.0
 10
3.467013888888888
 20
6.11111111111111
 30
0.0
 10
3.467013888888888
 20
6.11111111111111
 30
0.0
 10
3.467013888888888
 20
6.11111111111111
 30
0.0
 10
3.39236111111111
 20
5.98438179326624
 30
0.0
 10
3.39236111111111
 20
5.98438179326624
 30
0.0
 10
3.39236111111111
 20
5.98438179326624
 30
0.0
 10
3.39236111111111
 20
5.276462366705345
 30
0.0
 10
3.39236111111111
 20
5.276462366705345
 30
0.0
 10
3.39236111111111
 20
5.276462366705345
 30
0.0
 10
3.391269358773772
 20
5.226602645742685
 30
0.0
 10
3.34375
 20
5.246527777777777
 30
0.0
  0
SPLINE
  5
87
330
70
100
AcDbEntity
  8
Layer 1
 62
   250
420
  2301728
370
    25
100
AcDbSpline
210
0.0
220
0.0
230
1.0
 70
     8
 71
     3
 72
    11
 73
     7
 74
     0
 42
0.0000000001
 43
0.0000000001
 40
0.0
 40
0.0
 40
0.0
 40
0.0
 40
1.0
 40
1.0
 40
1.0
 40
2.0
 40
2.0
 40
2.0
 40
2.0
 10
2.965277777777777
 20
7.015625
 30
0.0
 10
2.965277777777777
 20
7.015625
 30
0.0
 10
2.965277777777777
 20
7.072265099117329
 30
0.0
 10
2.965277777777777
 20
7.072265099117329
 30
0.0
 10
2.965277777777777
 20
7.072265099117329
 30
0.0
 10
2.967013888888888
 20
7.082681765520848
 30
0.0
 10
2.973958333333333
 20
7.084417876588101
 30
0.0
  0
LINE
  5
88
330
70
100
AcDbEntity
  8
Layer 1
 62
   250
420
  2301728
370
    25
100
AcDbLine
 10
3.430216580012104
 20
7.017055555555556
 30
0.0
 11
3.409722222222221
 21
7.012152777777777
 31
0.0
  0
LINE
  5
89
330
70
100
AcDbEntity
  8
Layer 1
 62
   250
420
  2301728
370
    25
100
AcDbLine
 10
5.8676345739933
 20
7.600599807992693
 30
0.0
 11
3.458027777777778
 21
7.023708333333337
 31
0.0
  0
LINE
  5
8A
330
70
100
AcDbEntity
  8
Layer 1
 62
   250
420
  2301728
370
    25
100
AcDbLine
 10
5.911458333333333
 20
7.61111111111111
 30
0.0
 11
5.895127628854323
 21
7.60719147449284
 31
0.0
  0
SPLINE
  5
8B
330
70
100
AcDbEntity
  8
Layer 1
 62
   250
420
  2301728
370
    25
100
AcDbSpline
210
0.0
220
0.0
230
1.0
 70
     8
 71
     3
 72
    20
 73
    16
 74
     0
 42
0.0000000001
 43
0.0000000001
 40
0.0
 40
0.0
 40
0.0
 40
0.0
 40
1.0
 40
1.0
 40
1.0
 40
2.0
 40
2.0
 40
2.0
 40
3.0
 40
3.0
 40
3.0
 40
4.0
 40
4.0
 40
4.0
 40
5.0
 40
5.0
 40
5.0
 40
5.0
 10
3.366319444444444
 20
5.703125
 30
0.0
 10
3.366319444444444
 20
5.703125
 30
0.0
 10
2.965277777777777
 20
5.546875
 30
0.0
 10
2.965277777777777
 20
5.546875
 30
0.0
 10
2.965277777777777
 20
5.546875
 30
0.0
 10
2.965277777777777
 20
5.465277777777777
 30
0.0
 10
2.965277777777777
 20
5.465277777777777
 30
0.0
 10
2.965277777777777
 20
5.465277777777777
 30
0.0
 10
2.961805555555555
 20
5.447916666666666
 30
0.0
 10
2.975694444444444
 20
5.440972222222222
 30
0.0
 10
2.975694444444444
 20
5.440972222222222
 30
0.0
 10
3.34375
 20
5.276041666666666
 30
0.0
 10
3.34375
 20
5.276041666666666
 30
0.0
 10
3.34375
 20
5.276041666666666
 30
0.0
 10
3.36111111111111
 20
5.272569444444443
 30
0.0
 10
3.364583333333333
 20
5.28125
 30
0.0
  0
LINE
  5
8C
330
70
100
AcDbEntity
  8
Layer 1
 62
   250
420
  2301728
370
    25
100
AcDbLine
 10
3.041842978712136
 20
5.47879986159387
 30
0.0
 11
3.366319444444444
 21
5.605902777777777
 31
0.0
  0
LINE
  5
8D
330
70
100
AcDbEntity
  8
Layer 1
 62
   250
420
  2301728
370
    25
100
AcDbLine
 10
2.989583333333333
 20
5.458333333333333
 30
0.0
 11
3.01569992381701
 21
5.468559584074783
 31
0.0
  0
SPLINE
  5
8E
330
70
100
AcDbEntity
  8
Layer 1
 62
   250
420
  2301728
370
    35
100
AcDbSpline
210
0.0
220
0.0
230
1.0
 70
     8
 71
     3
 72
    11
 73
     7
 74
     0
 42
0.0000000001
 43
0.0000000001
 40
0.0
 40
0.0
 40
0.0
 40
0.0
 40
1.0
 40
1.0
 40
1.0
 40
2.0
 40
2.0
 40
2.0
 40
2.0
 10
3.368055555555555
 20
5.743055555555555
 30
0.0
 10
3.368055555555555
 20
5.743055555555555
 30
0.0
 10
3.368055555555555
 20
5.289930555555555
 30
0.0
 10
3.368055555555555
 20
5.289930555555555
 30
0.0
 10
3.368055555555555
 20
5.289930555555555
 30
0.0
 10
3.368055555555555
 20
5.28125
 30
0.0
 10
3.357638888888888
 20
5.277777777777777
 30
0.0
  0
SPLINE
  5
8F
330
70
100
AcDbEntity
  8
Layer 1
 62
   250
420
  2301728
370
    35
100
AcDbSpline
210
0.0
220
0.0
230
1.0
 70
    24
 71
     3
 72
     8
 73
     4
 74
     0
 42
0.0000000001
 43
0.0000000001
 40
0.0
 40
0.0
 40
0.0
 40
0.0
 40
1.0
 40
1.0
 40
1.0
 40
1.0
 10
4.752806824378441
 20
5.857469296472319
 30
0.0
 10
4.752806824378441
 20
5.857469296472319
 30
0.0
 10
4.754367935450115
 20
6.014966514715827
 30
0.0
 10
4.754367935450115
 20
6.014966514715827
 30
0.0
  0
SPLINE
  5
90
330
70
100
AcDbEntity
  8
Layer 1
 62
   250
420
  2301728
370
    35
100
AcDbSpline
210
0.0
220
0.0
230
1.0
 70
    24
 71
     3
 72
     8
 73
     4
 74
     0
 42
0.0000000001
 43
0.0000000001
 40
0.0
 40
0.0
 40
0.0
 40
0.0
 40
1.0
 40
1.0
 40
1.0
 40
1.0
 10
4.727538769461211
 20
6.02167345899084
 30
0.0
 10
4.727538769461211
 20
6.02167345899084
 30
0.0
 10
4.726765158369643
 20
5.918233183826183
 30
0.0
 10
4.726765158369643
 20
5.918233183826183
 30
0.0
  0
SPLINE
  5
91
330
70
100
AcDbEntity
  8
Layer 1
 62
   250
420
  2301728
370
    35
100
AcDbSpline
210
0.0
220
0.0
230
1.0
 70
    24
 71
     3
 72
     8
 73
     4
 74
     0
 42
0.0000000001
 43
0.0000000001
 40
0.0
 40
0.0
 40
0.0
 40
0.0
 40
1.0
 40
1.0
 40
1.0
 40
1.0
 10
4.753024879928489
 20
6.134338733922453
 30
0.0
 10
4.753024879928489
 20
6.134338733922453
 30
0.0
 10
4.754542935445694
 20
6.427687337622955
 30
0.0
 10
4.754542935445694
 20
6.427687337622955
 30
0.0
  0
SPLINE
  5
92
330
70
100
AcDbEntity
  8
Layer 1
 62
   250
420
  2301728
370
    35
100
AcDbSpline
210
0.0
220
0.0
230
1.0
 70
     8
 71
     3
 72
    14
 73
    10
 74
     0
 42
0.0000000001
 43
0.0000000001
 40
0.0
 40
0.0
 40
0.0
 40
0.0
 40
1.0
 40
1.0
 40
1.0
 40
2.0
 40
2.0
 40
2.0
 40
3.0
 40
3.0
 40
3.0
 40
3.0
 10
5.023640150869949
 20
6.131659567323468
 30
0.0
 10
5.023640150869949
 20
6.131659567323468
 30
0.0
 10
5.023640150869949
 20
5.837998463630861
 30
0.0
 10
5.023640150869949
 20
5.837998463630861
 30
0.0
 10
5.023640150869949
 20
5.837998463630861
 30
0.0
 10
5.042737372609735
 20
5.807691519952046
 30
0.0
 10
5.049681816878748
 20
5.832079019335954
 30
0.0
 10
5.049681816878748
 20
5.832079019335954
 30
0.0
 10
5.049681816878748
 20
6.12227345644947
 30
0.0
 10
5.049681816878748
 20
6.12227345644947
 30
0.0
  0
SPLINE
  5
93
330
70
100
AcDbEntity
  8
Layer 1
 62
   250
420
  2301728
370
    35
100
AcDbSpline
210
0.0
220
0.0
230
1.0
 70
     8
 71
     3
 72
    17
 73
    13
 74
     0
 42
0.0000000001
 43
0.0000000001
 40
0.0
 40
0.0
 40
0.0
 40
0.0
 40
1.0
 40
1.0
 40
1.0
 40
2.0
 40
2.0
 40
2.0
 40
3.0
 40
3.0
 40
3.0
 40
4.0
 40
4.0
 40
4.0
 40
4.0
 10
5.049681816878748
 20
6.242980397844601
 30
0.0
 10
5.049681816878748
 20
6.242980397844601
 30
0.0
 10
5.051417927946001
 20
6.544548445781906
 30
0.0
 10
5.051417927946001
 20
6.544548445781906
 30
0.0
 10
5.051417927946001
 20
6.544548445781906
 30
0.0
 10
5.050848483515943
 20
6.561041666666672
 30
0.0
 10
5.034736111111113
 20
6.549648445653069
 30
0.0
 10
5.034736111111113
 20
6.549648445653069
 30
0.0
 10
5.024237373077085
 20
6.541035945870639
 30
0.0
 10
5.024129039746488
 20
6.511942891050036
 30
0.0
 10
5.024047095304113
 20
6.491109558242997
 30
0.0
 10
5.023640150869949
 20
6.224209564985458
 30
0.0
 10
5.023640150869949
 20
6.224209564985458
 30
0.0
  0
SPLINE
  5
94
330
70
100
AcDbEntity
  8
Layer 1
 62
   250
420
  2301728
370
    35
100
AcDbSpline
210
0.0
220
0.0
230
1.0
 70
     8
 71
     3
 72
    14
 73
    10
 74
     0
 42
0.0000000001
 43
0.0000000001
 40
0.0
 40
0.0
 40
0.0
 40
0.0
 40
1.0
 40
1.0
 40
1.0
 40
2.0
 40
2.0
 40
2.0
 40
3.0
 40
3.0
 40
3.0
 40
3.0
 10
4.876070710153422
 20
6.074727624317246
 30
0.0
 10
4.876070710153422
 20
6.074727624317246
 30
0.0
 10
4.876070710153422
 20
5.763529021067685
 30
0.0
 10
4.876070710153422
 20
5.763529021067685
 30
0.0
 10
4.876070710153422
 20
5.763529021067685
 30
0.0
 10
4.891370709766912
 20
5.744330410441559
 30
0.0
 10
4.902112376162222
 20
5.771192909762955
 30
0.0
 10
4.902112376162222
 20
5.771192909762955
 30
0.0
 10
4.902112376162222
 20
6.061916666666661
 30
0.0
 10
4.902112376162222
 20
6.061916666666661
 30
0.0
  0
SPLINE
  5
95
330
70
100
AcDbEntity
  8
Layer 1
 62
   250
420
  2301728
370
    35
100
AcDbSpline
210
0.0
220
0.0
230
1.0
 70
     8
 71
     3
 72
    17
 73
    13
 74
     0
 42
0.0000000001
 43
0.0000000001
 40
0.0
 40
0.0
 40
0.0
 40
0.0
 40
1.0
 40
1.0
 40
1.0
 40
2.0
 40
2.0
 40
2.0
 40
3.0
 40
3.0
 40
3.0
 40
4.0
 40
4.0
 40
4.0
 40
4.0
 10
4.902112376162222
 20
6.185309565968155
 30
0.0
 10
4.902112376162222
 20
6.185309565968155
 30
0.0
 10
4.903848487229475
 20
6.480312336293536
 30
0.0
 10
4.903848487229475
 20
6.480312336293536
 30
0.0
 10
4.903848487229475
 20
6.480312336293536
 30
0.0
 10
4.903279042799415
 20
6.49680555555556
 30
0.0
 10
4.887166666666669
 20
6.485412336164699
 30
0.0
 10
4.887166666666669
 20
6.485412336164699
 30
0.0
 10
4.876667932360557
 20
6.476799836382269
 30
0.0
 10
4.876559599029961
 20
6.447706781561666
 30
0.0
 10
4.876477654587587
 20
6.426873448754626
 30
0.0
 10
4.876070710153422
 20
6.165188733143117
 30
0.0
 10
4.876070710153422
 20
6.165188733143117
 30
0.0
  0
SPLINE
  5
96
330
70
100
AcDbEntity
  8
Layer 1
 62
   250
420
  2301728
370
    35
100
AcDbSpline
210
0.0
220
0.0
230
1.0
 70
     8
 71
     3
 72
    14
 73
    10
 74
     0
 42
0.0000000001
 43
0.0000000001
 40
0.0
 40
0.0
 40
0.0
 40
0.0
 40
1.0
 40
1.0
 40
1.0
 40
2.0
 40
2.0
 40
2.0
 40
3.0
 40
3.0
 40
3.0
 40
3.0
 10
4.726765158369643
 20
6.032151236503927
 30
0.0
 10
4.726765158369643
 20
6.032151236503927
 30
0.0
 10
4.726765158369643
 20
5.918233183826183
 30
0.0
 10
4.726765158369643
 20
5.918233183826183
 30
0.0
 10
4.726765158369643
 20
5.918233183826183
 30
0.0
 10
4.752806824378441
 20
5.857469296472319
 30
0.0
 10
4.752806824378441
 20
5.857469296472319
 30
0.0
 10
4.752806824378441
 20
5.857469296472319
 30
0.0
 10
4.752806824378441
 20
6.019767903483435
 30
0.0
 10
4.752806824378441
 20
6.019767903483435
 30
0.0
  0
SPLINE
  5
97
330
70
100
AcDbEntity
  8
Layer 1
 62
   250
420
  2301728
370
    35
100
AcDbSpline
210
0.0
220
0.0
230
1.0
 70
     8
 71
     3
 72
    17
 73
    13
 74
     0
 42
0.0000000001
 43
0.0000000001
 40
0.0
 40
0.0
 40
0.0
 40
0.0
 40
1.0
 40
1.0
 40
1.0
 40
2.0
 40
2.0
 40
2.0
 40
3.0
 40
3.0
 40
3.0
 40
4.0
 40
4.0
 40
4.0
 40
4.0
 10
4.752806824378441
 20
6.143887344792346
 30
0.0
 10
4.752806824378441
 20
6.143887344792346
 30
0.0
 10
4.754542935445694
 20
6.427687337622955
 30
0.0
 10
4.754542935445694
 20
6.427687337622955
 30
0.0
 10
4.754542935445694
 20
6.427687337622955
 30
0.0
 10
4.748141546718518
 20
6.442687337244024
 30
0.0
 10
4.734930555555567
 20
6.430833333333339
 30
0.0
 10
4.734930555555567
 20
6.430833333333339
 30
0.0
 10
4.726765158369643
 20
6.414245671295866
 30
0.0
 10
4.726765158369643
 20
6.393412338488815
 30
0.0
 10
4.726765158369643
 20
6.378058172210026
 30
0.0
 10
4.726765158369643
 20
6.121174845366113
 30
0.0
 10
4.726765158369643
 20
6.121174845366113
 30
0.0
  0
SPLINE
  5
98
330
70
100
AcDbEntity
  8
Layer 1
 62
   250
420
  2301728
370
    35
100
AcDbSpline
210
0.0
220
0.0
230
1.0
 70
    11
 71
     3
 72
    68
 73
    64
 74
     0
 42
0.0000000001
 43
0.0000000001
 40
0.0
 40
0.0
 40
0.0
 40
0.0
 40
1.0
 40
1.0
 40
1.0
 40
2.0
 40
2.0
 40
2.0
 40
3.0
 40
3.0
 40
3.0
 40
4.0
 40
4.0
 40
4.0
 40
5.0
 40
5.0
 40
5.0
 40
6.0
 40
6.0
 40
6.0
 40
7.0
 40
7.0
 40
7.0
 40
8.0
 40
8.0
 40
8.0
 40
9.0
 40
9.0
 40
9.0
 40
10.0
 40
10.0
 40
10.0
 40
11.0
 40
11.0
 40
11.0
 40
12.0
 40
12.0
 40
12.0
 40
13.0
 40
13.0
 40
13.0
 40
14.0
 40
14.0
 40
14.0
 40
15.0
 40
15.0
 40
15.0
 40
16.0
 40
16.0
 40
16.0
 40
17.0
 40
17.0
 40
17.0
 40
18.0
 40
18.0
 40
18.0
 40
19.0
 40
19.0
 40
19.0
 40
20.0
 40
20.0
 40
20.0
 40
21.0
 40
21.0
 40
21.0
 40
21.0
 10
5.269870700205197
 20
6.584316500332836
 30
0.0
 10
5.269870700205197
 20
6.584316500332836
 30
0.0
 10
5.633233191025889
 20
5.845180555555556
 30
0.0
 10
5.633233191025889
 20
5.845180555555556
 30
0.0
 10
5.633233191025889
 20
5.845180555555556
 30
0.0
 10
5.633233191025889
 20
5.67748318990804
 30
0.0
 10
5.633233191025889
 20
5.67748318990804
 30
0.0
 10
5.633233191025889
 20
5.67748318990804
 30
0.0
 10
5.689113745169783
 20
5.661940134745135
 30
0.0
 10
5.689113745169783
 20
5.661940134745135
 30
0.0
 10
5.689113745169783
 20
5.661940134745135
 30
0.0
 10
5.698445689378482
 20
5.602938747346747
 30
0.0
 10
5.698445689378482
 20
5.602938747346747
 30
0.0
 10
5.698445689378482
 20
5.602938747346747
 30
0.0
 10
5.698445689378482
 20
5.578091525752218
 30
0.0
 10
5.698445689378482
 20
5.578091525752218
 30
0.0
 10
5.698445689378482
 20
5.578091525752218
 30
0.0
 10
5.179809591369221
 20
5.295491532891294
 30
0.0
 10
5.179809591369221
 20
5.295491532891294
 30
0.0
 10
5.179809591369221
 20
5.295491532891294
 30
0.0
 10
5.005899873540329
 20
5.27994847772839
 30
0.0
 10
5.005899873540329
 20
5.27994847772839
 30
0.0
 10
5.005899873540329
 20
5.27994847772839
 30
0.0
 10
4.912719320338712
 20
5.314127643531618
 30
0.0
 10
4.912719320338712
 20
5.314127643531618
 30
0.0
 10
4.912719320338712
 20
5.314127643531618
 30
0.0
 10
4.912719320338712
 20
4.913302653657309
 30
0.0
 10
4.912719320338712
 20
4.913302653657309
 30
0.0
 10
4.912719320338712
 20
4.913302653657309
 30
0.0
 10
4.807115156339831
 20
4.838785988873092
 30
0.0
 10
4.807115156339831
 20
4.838785988873092
 30
0.0
 10
4.807115156339831
 20
4.838785988873092
 30
0.0
 10
4.565972222222222
 20
4.940972222222222
 30
0.0
 10
4.565972222222222
 20
4.940972222222222
 30
0.0
 10
4.565972222222222
 20
4.940972222222222
 30
0.0
 10
4.521416666666659
 20
5.01890681765619
 30
0.0
 10
4.521416666666659
 20
5.01890681765619
 30
0.0
 10
4.521416666666659
 20
5.01890681765619
 30
0.0
 10
4.518297108080433
 20
5.453884584445504
 30
0.0
 10
4.518297108080433
 20
5.453884584445504
 30
0.0
 10
4.490356831008486
 20
5.463188750877129
 30
0.0
 10
4.487237386642846
 20
5.491122083504806
 30
0.0
 10
4.487237386642846
 20
5.491122083504806
 30
0.0
 10
4.487237386642846
 20
5.491122083504806
 30
0.0
 10
4.487237386642846
 20
6.348287339628768
 30
0.0
 10
4.487237386642846
 20
6.348287339628768
 30
0.0
 10
4.487237386642846
 20
6.363816505903135
 30
0.0
 10
4.496567941962691
 20
6.39177067186362
 30
0.0
 10
4.496567941962691
 20
6.39177067186362
 30
0.0
 10
4.496567941962691
 20
6.39177067186362
 30
0.0
 10
4.580416666666678
 20
6.534634557143463
 30
0.0
 10
4.580416666666678
 20
6.534634557143463
 30
0.0
 10
4.580416666666678
 20
6.534634557143463
 30
0.0
 10
5.139417925722934
 20
6.720980385769305
 30
0.0
 10
5.139417925722934
 20
6.720980385769305
 30
0.0
 10
5.139417925722934
 20
6.720980385769305
 30
0.0
 10
5.173597222222219
 20
6.711649830449459
 30
0.0
 10
5.173597222222219
 20
6.711649830449459
 30
0.0
 10
5.173597222222219
 20
6.711649830449459
 30
0.0
 10
5.241929034244397
 20
6.609165110816219
 30
0.0
 10
5.241929034244397
 20
6.609165110816219
 30
0.0
 10
5.26056514488472
 20
6.599859555495741
 30
0.0
 10
5.269870700205197
 20
6.584316500332836
 30
0.0
 10
5.269870700205197
 20
6.584316500332836
 30
0.0
  0
HATCH
  5
99
330
70
100
AcDbEntity
  8
Layer 1
 62
   254
420
 13358815
440
 33554687
100
AcDbHatch
 10
0.0
 20
0.0
 30
0.0
210
0.0
220
0.0
230
1.0
  2
SOLID
 70
     1
 71
     1
 91
       10
 92
        1
 93
        1
 72
     4
 94
        3
 73
     0
 74
     0
 95
       68
 96
       64
 40
0.0
 40
0.0
 40
0.0
 40
0.0
 40
1.0
 40
1.0
 40
1.0
 40
2.0
 40
2.0
 40
2.0
 40
3.0
 40
3.0
 40
3.0
 40
4.0
 40
4.0
 40
4.0
 40
5.0
 40
5.0
 40
5.0
 40
6.0
 40
6.0
 40
6.0
 40
7.0
 40
7.0
 40
7.0
 40
8.0
 40
8.0
 40
8.0
 40
9.0
 40
9.0
 40
9.0
 40
10.0
 40
10.0
 40
10.0
 40
11.0
 40
11.0
 40
11.0
 40
12.0
 40
12.0
 40
12.0
 40
13.0
 40
13.0
 40
13.0
 40
14.0
 40
14.0
 40
14.0
 40
15.0
 40
15.0
 40
15.0
 40
16.0
 40
16.0
 40
16.0
 40
17.0
 40
17.0
 40
17.0
 40
18.0
 40
18.0
 40
18.0
 40
19.0
 40
19.0
 40
19.0
 40
20.0
 40
20.0
 40
20.0
 40
21.0
 40
21.0
 40
21.0
 40
21.0
 10
5.269870700205197
 20
6.584316500332836
 10
5.269870700205197
 20
6.584316500332836
 10
5.633233191025889
 20
5.845180555555556
 10
5.633233191025889
 20
5.845180555555556
 10
5.633233191025889
 20
5.845180555555556
 10
5.633233191025889
 20
5.67748318990804
 10
5.633233191025889
 20
5.67748318990804
 10
5.633233191025889
 20
5.67748318990804
 10
5.689113745169783
 20
5.661940134745135
 10
5.689113745169783
 20
5.661940134745135
 10
5.689113745169783
 20
5.661940134745135
 10
5.698445689378482
 20
5.602938747346747
 10
5.698445689378482
 20
5.602938747346747
 10
5.698445689378482
 20
5.602938747346747
 10
5.698445689378482
 20
5.578091525752218
 10
5.698445689378482
 20
5.578091525752218
 10
5.698445689378482
 20
5.578091525752218
 10
5.179809591369221
 20
5.295491532891294
 10
5.179809591369221
 20
5.295491532891294
 10
5.179809591369221
 20
5.295491532891294
 10
5.005899873540329
 20
5.27994847772839
 10
5.005899873540329
 20
5.27994847772839
 10
5.005899873540329
 20
5.27994847772839
 10
4.912719320338712
 20
5.314127643531618
 10
4.912719320338712
 20
5.314127643531618
 10
4.912719320338712
 20
5.314127643531618
 10
4.912719320338712
 20
4.913302653657309
 10
4.912719320338712
 20
4.913302653657309
 10
4.912719320338712
 20
4.913302653657309
 10
4.807115156339831
 20
4.838785988873092
 10
4.807115156339831
 20
4.838785988873092
 10
4.807115156339831
 20
4.838785988873092
 10
4.565972222222222
 20
4.940972222222222
 10
4.565972222222222
 20
4.940972222222222
 10
4.565972222222222
 20
4.940972222222222
 10
4.521416666666659
 20
5.01890681765619
 10
4.521416666666659
 20
5.01890681765619
 10
4.521416666666659
 20
5.01890681765619
 10
4.518297108080433
 20
5.453884584445504
 10
4.518297108080433
 20
5.453884584445504
 10
4.490356831008486
 20
5.463188750877129
 10
4.487237386642846
 20
5.491122083504806
 10
4.487237386642846
 20
5.491122083504806
 10
4.487237386642846
 20
5.491122083504806
 10
4.487237386642846
 20
6.348287339628768
 10
4.487237386642846
 20
6.348287339628768
 10
4.487237386642846
 20
6.363816505903135
 10
4.496567941962691
 20
6.39177067186362
 10
4.496567941962691
 20
6.39177067186362
 10
4.496567941962691
 20
6.39177067186362
 10
4.580416666666678
 20
6.534634557143463
 10
4.580416666666678
 20
6.534634557143463
 10
4.580416666666678
 20
6.534634557143463
 10
5.139417925722934
 20
6.720980385769305
 10
5.139417925722934
 20
6.720980385769305
 10
5.139417925722934
 20
6.720980385769305
 10
5.173597222222219
 20
6.711649830449459
 10
5.173597222222219
 20
6.711649830449459
 10
5.173597222222219
 20
6.711649830449459
 10
5.241929034244397
 20
6.609165110816219
 10
5.241929034244397
 20
6.609165110816219
 10
5.26056514488472
 20
6.599859555495741
 10
5.269870700205197
 20
6.584316500332836
 10
5.269870700205197
 20
6.584316500332836
 97
        0
 97
        1
330
98
 92
        1
 93
        2
 72
     4
 94
        3
 73
     0
 74
     0
 95
        8
 96
        4
 40
0.0
 40
0.0
 40
0.0
 40
0.0
 40
1.0
 40
1.0
 40
1.0
 40
1.0
 10
4.752806824378441
 20
5.857469296472319
 10
4.752806824378441
 20
5.857469296472319
 10
4.754367935450115
 20
6.014966514715827
 10
4.754367935450115
 20
6.014966514715827
 97
        0
 72
     1
 10
4.754367935450115
 20
6.014966514715827
 11
4.752806824378441
 21
5.857469296472319
 97
        0
 92
        1
 93
        2
 72
     4
 94
        3
 73
     0
 74
     0
 95
        8
 96
        4
 40
0.0
 40
0.0
 40
0.0
 40
0.0
 40
1.0
 40
1.0
 40
1.0
 40
1.0
 10
4.727538769461211
 20
6.02167345899084
 10
4.727538769461211
 20
6.02167345899084
 10
4.726765158369643
 20
5.918233183826183
 10
4.726765158369643
 20
5.918233183826183
 97
        0
 72
     1
 10
4.726765158369643
 20
5.918233183826183
 11
4.727538769461211
 21
6.02167345899084
 97
        0
 92
        1
 93
        2
 72
     4
 94
        3
 73
     0
 74
     0
 95
        8
 96
        4
 40
0.0
 40
0.0
 40
0.0
 40
0.0
 40
1.0
 40
1.0
 40
1.0
 40
1.0
 10
4.753024879928489
 20
6.134338733922453
 10
4.753024879928489
 20
6.134338733922453
 10
4.754542935445694
 20
6.427687337622955
 10
4.754542935445694
 20
6.427687337622955
 97
        0
 72
     1
 10
4.754542935445694
 20
6.427687337622955
 11
4.753024879928489
 21
6.134338733922453
 97
        0
 92
        1
 93
        2
 72
     4
 94
        3
 73
     0
 74
     0
 95
       14
 96
       10
 40
0.0
 40
0.0
 40
0.0
 40
0.0
 40
1.0
 40
1.0
 40
1.0
 40
2.0
 40
2.0
 40
2.0
 40
3.0
 40
3.0
 40
3.0
 40
3.0
 10
5.023640150869949
 20
6.131659567323468
 10
5.023640150869949
 20
6.131659567323468
 10
5.023640150869949
 20
5.837998463630861
 10
5.023640150869949
 20
5.837998463630861
 10
5.023640150869949
 20
5.837998463630861
 10
5.042737372609735
 20
5.807691519952046
 10
5.049681816878748
 20
5.832079019335954
 10
5.049681816878748
 20
5.832079019335954
 10
5.049681816878748
 20
6.12227345644947
 10
5.049681816878748
 20
6.12227345644947
 97
        0
 72
     1
 10
5.049681816878748
 20
6.12227345644947
 11
5.023640150869949
 21
6.131659567323468
 97
        0
 92
        1
 93
        2
 72
     4
 94
        3
 73
     0
 74
     0
 95
       17
 96
       13
 40
0.0
 40
0.0
 40
0.0
 40
0.0
 40
1.0
 40
1.0
 40
1.0
 40
2.0
 40
2.0
 40
2.0
 40
3.0
 40
3.0
 40
3.0
 40
4.0
 40
4.0
 40
4.0
 40
4.0
 10
5.049681816878748
 20
6.242980397844601
 10
5.049681816878748
 20
6.242980397844601
 10
5.051417927946001
 20
6.544548445781906
 10
5.051417927946001
 20
6.544548445781906
 10
5.051417927946001
 20
6.544548445781906
 10
5.050848483515943
 20
6.561041666666672
 10
5.034736111111113
 20
6.549648445653069
 10
5.034736111111113
 20
6.549648445653069
 10
5.024237373077085
 20
6.541035945870639
 10
5.024129039746488
 20
6.511942891050036
 10
5.024047095304113
 20
6.491109558242997
 10
5.023640150869949
 20
6.224209564985458
 10
5.023640150869949
 20
6.224209564985458
 97
        0
 72
     1
 10
5.023640150869949
 20
6.224209564985458
 11
5.049681816878748
 21
6.242980397844601
 97
        0
 92
        1
 93
        2
 72
     4
 94
        3
 73
     0
 74
     0
 95
       14
 96
       10
 40
0.0
 40
0.0
 40
0.0
 40
0.0
 40
1.0
 40
1.0
 40
1.0
 40
2.0
 40
2.0
 40
2.0
 40
3.0
 40
3.0
 40
3.0
 40
3.0
 10
4.876070710153422
 20
6.074727624317246
 10
4.876070710153422
 20
6.074727624317246
 10
4.876070710153422
 20
5.763529021067685
 10
4.876070710153422
 20
5.763529021067685
 10
4.876070710153422
 20
5.763529021067685
 10
4.891370709766912
 20
5.744330410441559
 10
4.902112376162222
 20
5.771192909762955
 10
4.902112376162222
 20
5.771192909762955
 10
4.902112376162222
 20
6.061916666666661
 10
4.902112376162222
 20
6.061916666666661
 97
        0
 72
     1
 10
4.902112376162222
 20
6.061916666666661
 11
4.876070710153422
 21
6.074727624317246
 97
        0
 92
        1
 93
        2
 72
     4
 94
        3
 73
     0
 74
     0
 95
       17
 96
       13
 40
0.0
 40
0.0
 40
0.0
 40
0.0
 40
1.0
 40
1.0
 40
1.0
 40
2.0
 40
2.0
 40
2.0
 40
3.0
 40
3.0
 40
3.0
 40
4.0
 40
4.0
 40
4.0
 40
4.0
 10
4.902112376162222
 20
6.185309565968155
 10
4.902112376162222
 20
6.185309565968155
 10
4.903848487229475
 20
6.480312336293536
 10
4.903848487229475
 20
6.480312336293536
 10
4.903848487229475
 20
6.480312336293536
 10
4.903279042799415
 20
6.49680555555556
 10
4.887166666666669
 20
6.485412336164699
 10
4.887166666666669
 20
6.485412336164699
 10
4.876667932360557
 20
6.476799836382269
 10
4.876559599029961
 20
6.447706781561666
 10
4.876477654587587
 20
6.426873448754626
 10
4.876070710153422
 20
6.165188733143117
 10
4.876070710153422
 20
6.165188733143117
 97
        0
 72
     1
 10
4.876070710153422
 20
6.165188733143116
 11
4.902112376162222
 21
6.185309565968155
 97
        0
 92
        1
 93
        2
 72
     4
 94
        3
 73
     0
 74
     0
 95
       14
 96
       10
 40
0.0
 40
0.0
 40
0.0
 40
0.0
 40
1.0
 40
1.0
 40
1.0
 40
2.0
 40
2.0
 40
2.0
 40
3.0
 40
3.0
 40
3.0
 40
3.0
 10
4.726765158369643
 20
6.032151236503927
 10
4.726765158369643
 20
6.032151236503927
 10
4.726765158369643
 20
5.918233183826183
 10
4.726765158369643
 20
5.918233183826183
 10
4.726765158369643
 20
5.918233183826183
 10
4.752806824378441
 20
5.857469296472319
 10
4.752806824378441
 20
5.857469296472319
 10
4.752806824378441
 20
5.857469296472319
 10
4.752806824378441
 20
6.019767903483435
 10
4.752806824378441
 20
6.019767903483435
 97
        0
 72
     1
 10
4.752806824378441
 20
6.019767903483435
 11
4.726765158369643
 21
6.032151236503927
 97
        0
 92
        1
 93
        2
 72
     4
 94
        3
 73
     0
 74
     0
 95
       17
 96
       13
 40
0.0
 40
0.0
 40
0.0
 40
0.0
 40
1.0
 40
1.0
 40
1.0
 40
2.0
 40
2.0
 40
2.0
 40
3.0
 40
3.0
 40
3.0
 40
4.0
 40
4.0
 40
4.0
 40
4.0
 10
4.752806824378441
 20
6.143887344792346
 10
4.752806824378441
 20
6.143887344792346
 10
4.754542935445694
 20
6.427687337622955
 10
4.754542935445694
 20
6.427687337622955
 10
4.754542935445694
 20
6.427687337622955
 10
4.748141546718518
 20
6.442687337244024
 10
4.734930555555567
 20
6.430833333333339
 10
4.734930555555567
 20
6.430833333333339
 10
4.726765158369643
 20
6.414245671295866
 10
4.726765158369643
 20
6.393412338488815
 10
4.726765158369643
 20
6.378058172210026
 10
4.726765158369643
 20
6.121174845366113
 10
4.726765158369643
 20
6.121174845366113
 97
        0
 72
     1
 10
4.726765158369643
 20
6.121174845366113
 11
4.752806824378441
 21
6.143887344792346
 97
        0
 75
     2
 76
     1
 98
        1
 10
0.0
 20
0.0
450
        0
451
        0
460
0.0
461
0.0
452
        0
462
0.0
453
        0
470

  0
SPLINE
  5
9A
330
70
100
AcDbEntity
  8
Layer 1
100
AcDbSpline
210
0.0
220
0.0
230
1.0
 70
    11
 71
     3
 72
    26
 73
    22
 74
     0
 42
0.0000000001
 43
0.0000000001
 40
0.0
 40
0.0
 40
0.0
 40
0.0
 40
1.0
 40
1.0
 40
1.0
 40
2.0
 40
2.0
 40
2.0
 40
3.0
 40
3.0
 40
3.0
 40
4.0
 40
4.0
 40
4.0
 40
5.0
 40
5.0
 40
5.0
 40
6.0
 40
6.0
 40
6.0
 40
7.0
 40
7.0
 40
7.0
 40
7.0
 10
4.911458333333333
 20
5.46875
 30
0.0
 10
4.911458333333333
 20
5.46875
 30
0.0
 10
4.911458333333333
 20
5.496527777777777
 30
0.0
 10
4.911458333333333
 20
5.496527777777777
 30
0.0
 10
4.911458333333333
 20
5.496527777777777
 30
0.0
 10
4.914930555555555
 20
5.513888888888888
 30
0.0
 10
4.960069444444443
 20
5.515625
 30
0.0
 10
5.005208333333333
 20
5.51736111111111
 30
0.0
 10
5.006944444444443
 20
5.489583333333333
 30
0.0
 10
5.006944444444443
 20
5.489583333333333
 30
0.0
 10
5.006944444444443
 20
5.489583333333333
 30
0.0
 10
5.012152777777777
 20
5.467013888888888
 30
0.0
 10
5.012152777777777
 20
5.467013888888888
 30
0.0
 10
5.012152777777777
 20
5.467013888888888
 30
0.0
 10
5.029513888888888
 20
5.458333333333333
 30
0.0
 10
5.029513888888888
 20
5.451388888888888
 30
0.0
 10
5.029513888888888
 20
5.444444444444443
 30
0.0
 10
4.998019318183852
 20
5.42445125185572
 30
0.0
 10
4.965277777777777
 20
5.420138888888888
 30
0.0
 10
4.899305555555555
 20
5.411458333333333
 30
0.0
 10
4.911458333333333
 20
5.46875
 30
0.0
 10
4.911458333333333
 20
5.46875
 30
0.0
  0
HATCH
  5
9B
330
70
100
AcDbEntity
  8
Layer 1
 62
   254
420
 14474718
440
 33554687
100
AcDbHatch
 10
0.0
 20
0.0
 30
0.0
210
0.0
220
0.0
230
1.0
  2
SOLID
 70
     1
 71
     1
 91
        1
 92
        1
 93
        1
 72
     4
 94
        3
 73
     0
 74
     0
 95
       26
 96
       22
 40
0.0
 40
0.0
 40
0.0
 40
0.0
 40
1.0
 40
1.0
 40
1.0
 40
2.0
 40
2.0
 40
2.0
 40
3.0
 40
3.0
 40
3.0
 40
4.0
 40
4.0
 40
4.0
 40
5.0
 40
5.0
 40
5.0
 40
6.0
 40
6.0
 40
6.0
 40
7.0
 40
7.0
 40
7.0
 40
7.0
 10
4.911458333333333
 20
5.46875
 10
4.911458333333333
 20
5.46875
 10
4.911458333333333
 20
5.496527777777777
 10
4.911458333333333
 20
5.496527777777777
 10
4.911458333333333
 20
5.496527777777777
 10
4.914930555555555
 20
5.513888888888888
 10
4.960069444444443
 20
5.515625
 10
5.005208333333333
 20
5.51736111111111
 10
5.006944444444443
 20
5.489583333333333
 10
5.006944444444443
 20
5.489583333333333
 10
5.006944444444443
 20
5.489583333333333
 10
5.012152777777777
 20
5.467013888888888
 10
5.012152777777777
 20
5.467013888888888
 10
5.012152777777777
 20
5.467013888888888
 10
5.029513888888888
 20
5.458333333333333
 10
5.029513888888888
 20
5.451388888888888
 10
5.029513888888888
 20
5.444444444444443
 10
4.998019318183852
 20
5.42445125185572
 10
4.965277777777777
 20
5.420138888888888
 10
4.899305555555555
 20
5.411458333333333
 10
4.911458333333333
 20
5.46875
 10
4.911458333333333
 20
5.46875
 97
        0
 97
        1
330
9A
 75
     2
 76
     1
 98
        1
 10
0.0
 20
0.0
450
        0
451
        0
460
0.0
461
0.0
452
        0
462
0.0
453
        0
470

  0
SPLINE
  5
9C
330
70
100
AcDbEntity
  8
Layer 1
 62
   250
420
  2301728
370
    35
100
AcDbSpline
210
0.0
220
0.0
230
1.0
 70
     8
 71
     3
 72
    17
 73
    13
 74
     0
 42
0.0000000001
 43
0.0000000001
 40
0.0
 40
0.0
 40
0.0
 40
0.0
 40
1.0
 40
1.0
 40
1.0
 40
2.0
 40
2.0
 40
2.0
 40
3.0
 40
3.0
 40
3.0
 40
4.0
 40
4.0
 40
4.0
 40
4.0
 10
5.689113745169783
 20
5.661940134745135
 30
0.0
 10
5.689113745169783
 20
5.661940134745135
 30
0.0
 10
5.238917923209353
 20
5.785122076077741
 30
0.0
 10
5.238917923209353
 20
5.785122076077741
 30
0.0
 10
5.238917923209353
 20
5.785122076077741
 30
0.0
 10
5.220662368114972
 20
5.786533187153205
 30
0.0
 10
5.221015145883837
 20
5.798413742408633
 30
0.0
 10
5.221015145883837
 20
5.798413742408633
 30
0.0
 10
5.21963181258545
 20
5.809956797672586
 30
0.0
 10
5.22871931235588
 20
5.808912353254527
 30
0.0
 10
5.22871931235588
 20
5.808912353254527
 30
0.0
 10
5.239569444444441
 20
5.809956797672586
 30
0.0
 10
5.238863756544055
 20
5.788622075989324
 30
0.0
  0
LINE
  5
9D
330
70
100
AcDbEntity
  8
Layer 1
 62
   250
420
  2301728
370
    35
100
AcDbLine
 10
4.912719320338712
 20
5.289279033048235
 30
0.0
 11
4.912719320338712
 21
5.494241527870447
 31
0.0
  0
SPLINE
  5
9E
330
70
100
AcDbEntity
  8
Layer 1
 62
   250
420
  2301728
370
    35
100
AcDbSpline
210
0.0
220
0.0
230
1.0
 70
     8
 71
     3
 72
    11
 73
     7
 74
     0
 42
0.0000000001
 43
0.0000000001
 40
0.0
 40
0.0
 40
0.0
 40
0.0
 40
1.0
 40
1.0
 40
1.0
 40
2.0
 40
2.0
 40
2.0
 40
2.0
 10
4.518297108080433
 20
6.376254005588937
 30
0.0
 10
4.518297108080433
 20
6.376254005588937
 30
0.0
 10
4.533813774355116
 20
6.363830394791685
 30
0.0
 10
4.543144329674961
 20
6.33898178430829
 30
0.0
 10
4.543144329674961
 20
6.33898178430829
 30
0.0
 10
4.912719320338712
 20
5.491122083504806
 30
0.0
 10
4.912719320338712
 20
5.491122083504806
 30
0.0
  0
LWPOLYLINE
  5
9F
330
70
100
AcDbEntity
  8
Layer 1
 62
   250
420
  2301728
370
    25
100
AcDbPolyline
 90
        3
 70
     0
 43
0.0
 10
5.164265147317463
 20
6.707010941677758
 10
4.599052661595932
 20
6.519104001980243
 10
4.518297108080433
 20
6.376254005588937
  0
SPLINE
  5
A0
330
70
100
AcDbEntity
  8
Layer 1
 62
   250
420
  2301728
370
    25
100
AcDbSpline
210
0.0
220
0.0
230
1.0
 70
     8
 71
     3
 72
    17
 73
    13
 74
     0
 42
0.0000000001
 43
0.0000000001
 40
0.0
 40
0.0
 40
0.0
 40
0.0
 40
1.0
 40
1.0
 40
1.0
 40
2.0
 40
2.0
 40
2.0
 40
3.0
 40
3.0
 40
3.0
 40
4.0
 40
4.0
 40
4.0
 40
4.0
 10
4.496567941962691
 20
6.39177067186362
 30
0.0
 10
4.496567941962691
 20
6.39177067186362
 30
0.0
 10
4.494126275357706
 20
6.361524839294361
 30
0.0
 10
4.508015163895732
 20
6.352844283958094
 30
0.0
 10
4.508015163895732
 20
6.352844283958094
 30
0.0
 10
4.516695719231998
 20
6.347635950756334
 30
0.0
 10
4.518431830299252
 20
6.340691506487321
 30
0.0
 10
4.518431830299252
 20
6.340691506487321
 30
0.0
 10
4.889959598691448
 20
5.486510972510182
 30
0.0
 10
4.889959598691448
 20
5.486510972510182
 30
0.0
 10
4.889959598691448
 20
5.486510972510182
 30
0.0
 10
4.889959598691448
 20
4.895588765215911
 30
0.0
 10
4.889959598691448
 20
4.895588765215911
 30
0.0
  0
LINE
  5
A1
330
70
100
AcDbEntity
  8
Layer 1
 62
   250
420
  2301728
370
    25
100
AcDbLine
 10
4.889959598691448
 20
5.486510972510182
 30
0.0
 11
4.909056820431234
 21
5.493455416779195
 31
0.0
  0
SPLINE
  5
A2
330
70
100
AcDbEntity
  8
Layer 1
 62
   250
420
  2301728
370
    25
100
AcDbSpline
210
0.0
220
0.0
230
1.0
 70
     8
 71
     3
 72
    11
 73
     7
 74
     0
 42
0.0000000001
 43
0.0000000001
 40
0.0
 40
0.0
 40
0.0
 40
0.0
 40
1.0
 40
1.0
 40
1.0
 40
2.0
 40
2.0
 40
2.0
 40
2.0
 10
4.487181831088693
 20
5.509080416384474
 30
0.0
 10
4.487181831088693
 20
5.509080416384474
 30
0.0
 10
4.487181831088693
 20
5.493455416779195
 30
0.0
 10
4.504542941761226
 20
5.484781805887197
 30
0.0
 10
4.504542941761226
 20
5.484781805887197
 30
0.0
 10
4.520167941366505
 20
5.483045694819944
 30
0.0
 10
4.520167941366505
 20
5.448323473474879
 30
0.0
  0
LWPOLYLINE
  5
A3
330
70
100
AcDbEntity
  8
Layer 1
 62
   250
420
  2301728
370
    25
100
AcDbPolyline
 90
        4
 70
     0
 43
0.0
 10
4.912529042565741
 20
5.34242069837243
 10
5.011487373399177
 20
5.309434588094618
 10
5.179890146922742
 20
5.323323476632645
 10
5.698445689378482
 20
5.602938747346747
  0
LINE
  5
A4
330
70
100
AcDbEntity
  8
Layer 1
 62
   250
420
  2301728
370
    25
100
AcDbLine
 10
5.00801515126467
 20
5.309434588094618
 30
0.0
 11
5.00801515126467
 21
5.280572088823746
 31
0.0
  0
LINE
  5
A5
330
70
100
AcDbEntity
  8
Layer 1
 62
   250
420
  2301728
370
    25
100
AcDbLine
 10
5.178154035855489
 20
5.321262365573602
 30
0.0
 11
5.178154035855489
 21
5.297606810615635
 31
0.0
  0
SPLINE
  5
A6
330
70
100
AcDbEntity
  8
Layer 1
 62
   250
420
  2301728
370
    25
100
AcDbSpline
210
0.0
220
0.0
230
1.0
 70
     8
 71
     3
 72
    14
 73
    10
 74
     0
 42
0.0000000001
 43
0.0000000001
 40
0.0
 40
0.0
 40
0.0
 40
0.0
 40
1.0
 40
1.0
 40
1.0
 40
2.0
 40
2.0
 40
2.0
 40
3.0
 40
3.0
 40
3.0
 40
3.0
 10
5.241929034244397
 20
6.609165110816219
 30
0.0
 10
5.241929034244397
 20
6.609165110816219
 30
0.0
 10
5.244126256411113
 20
6.582010944835523
 30
0.0
 10
5.251070700680125
 20
6.568122056297498
 30
0.0
 10
5.251070700680125
 20
6.568122056297498
 30
0.0
 10
5.608709580534296
 20
5.838941519162593
 30
0.0
 10
5.608709580534296
 20
5.838941519162593
 30
0.0
 10
5.608709580534296
 20
5.838941519162593
 30
0.0
 10
5.608709580534296
 20
5.680955412042546
 30
0.0
 10
5.608709580534296
 20
5.680955412042546
 30
0.0
  0
LINE
  5
A7
330
70
100
AcDbEntity
  8
Layer 1
 62
   250
420
  2301728
370
    25
100
AcDbLine
 10
5.608709580534296
 20
5.838941519162593
 30
0.0
 11
5.633233191025889
 21
5.845180555555556
 31
0.0
  0
LINE
  5
A8
330
70
100
AcDbEntity
  8
Layer 1
 62
   250
420
  2301728
370
    25
100
AcDbLine
 10
5.238917923209353
 20
5.847622074498858
 30
0.0
 11
5.238917923209353
 21
5.833733185960833
 31
0.0
  0
LINE
  5
A9
330
70
100
AcDbEntity
  8
Layer 1
 62
   250
420
  2301728
370
    25
100
AcDbLine
 10
5.238917923209353
 20
6.503885946809127
 30
0.0
 11
5.238917923209353
 21
5.868469296194436
 31
0.0
  0
LINE
  5
AA
330
70
100
AcDbEntity
  8
Layer 1
 62
   250
420
  2301728
370
    25
100
AcDbLine
 10
5.238917923209353
 20
6.543816501355952
 30
0.0
 11
5.238917923209353
 21
6.529927612817926
 31
0.0
  0
SPLINE
  5
AB
330
70
100
AcDbEntity
  8
Layer 1
 62
   250
420
  2301728
370
    25
100
AcDbSpline
210
0.0
220
0.0
230
1.0
 70
     8
 71
     3
 72
    14
 73
    10
 74
     0
 42
0.0000000001
 43
0.0000000001
 40
0.0
 40
0.0
 40
0.0
 40
0.0
 40
1.0
 40
1.0
 40
1.0
 40
2.0
 40
2.0
 40
2.0
 40
3.0
 40
3.0
 40
3.0
 40
3.0
 10
4.72622349171666
 20
6.407491504799824
 30
0.0
 10
4.72622349171666
 20
6.407491504799824
 30
0.0
 10
4.726630436150824
 20
6.438388888888892
 30
0.0
 10
4.748141546718518
 20
6.442687337244024
 30
0.0
 10
4.748141546718518
 20
6.442687337244024
 30
0.0
 10
4.775105434926242
 20
6.450906781480827
 30
0.0
 10
4.775376268252734
 20
6.418816504513718
 30
0.0
 10
4.775376268252734
 20
6.418816504513718
 30
0.0
 10
4.773098490532498
 20
6.130574845128649
 30
0.0
 10
4.773098490532498
 20
6.130574845128649
 30
0.0
  0
LINE
  5
AC
330
70
100
AcDbEntity
  8
Layer 1
 62
   250
420
  2301728
370
    25
100
AcDbLine
 10
4.77364015718548
 20
6.024719292247229
 30
0.0
 11
4.77364015718548
 21
5.811272075417137
 31
0.0
  0
SPLINE
  5
AD
330
70
100
AcDbEntity
  8
Layer 1
 62
   250
420
  2301728
370
    25
100
AcDbSpline
210
0.0
220
0.0
230
1.0
 70
     8
 71
     3
 72
    14
 73
    10
 74
     0
 42
0.0000000001
 43
0.0000000001
 40
0.0
 40
0.0
 40
0.0
 40
0.0
 40
1.0
 40
1.0
 40
1.0
 40
2.0
 40
2.0
 40
2.0
 40
3.0
 40
3.0
 40
3.0
 40
3.0
 10
4.875529043500439
 20
6.457838725750156
 30
0.0
 10
4.875529043500439
 20
6.457838725750156
 30
0.0
 10
4.875935987934604
 20
6.488736111111115
 30
0.0
 10
4.897447098502298
 20
6.493034558194367
 30
0.0
 10
4.897447098502298
 20
6.493034558194367
 30
0.0
 10
4.924410986710022
 20
6.501254002431172
 30
0.0
 10
4.924681820036513
 20
6.469163725464063
 30
0.0
 10
4.924681820036513
 20
6.469163725464063
 30
0.0
 10
4.922404042316277
 20
6.183573454900902
 30
0.0
 10
4.922404042316277
 20
6.183573454900902
 30
0.0
  0
SPLINE
  5
AE
330
70
100
AcDbEntity
  8
Layer 1
 62
   250
420
  2301728
370
    25
100
AcDbSpline
210
0.0
220
0.0
230
1.0
 70
     8
 71
     3
 72
    14
 73
    10
 74
     0
 42
0.0000000001
 43
0.0000000001
 40
0.0
 40
0.0
 40
0.0
 40
0.0
 40
1.0
 40
1.0
 40
1.0
 40
2.0
 40
2.0
 40
2.0
 40
3.0
 40
3.0
 40
3.0
 40
3.0
 10
4.92294570896926
 20
6.075066513197573
 30
0.0
 10
4.92294570896926
 20
6.075066513197573
 30
0.0
 10
4.92294570896926
 20
5.771233187539715
 30
0.0
 10
4.92294570896926
 20
5.771233187539715
 30
0.0
 10
4.92294570896926
 20
5.771233187539715
 30
0.0
 10
4.92294570896926
 20
5.74692763259817
 30
0.0
 10
4.900376265094968
 20
5.734774855127398
 30
0.0
 10
4.893431820825955
 20
5.734774855127398
 30
0.0
 10
4.876451265699365
 20
5.724181799839445
 30
0.0
 10
4.874334599086169
 20
5.769497076472462
 30
0.0
  0
SPLINE
  5
AF
330
70
100
AcDbEntity
  8
Layer 1
 62
   250
420
  2301728
370
    25
100
AcDbSpline
210
0.0
220
0.0
230
1.0
 70
     8
 71
     3
 72
    14
 73
    10
 74
     0
 42
0.0000000001
 43
0.0000000001
 40
0.0
 40
0.0
 40
0.0
 40
0.0
 40
1.0
 40
1.0
 40
1.0
 40
2.0
 40
2.0
 40
2.0
 40
3.0
 40
3.0
 40
3.0
 40
3.0
 10
5.023098484216967
 20
6.522074835238527
 30
0.0
 10
5.023098484216967
 20
6.522074835238527
 30
0.0
 10
5.02350542865113
 20
6.552972222222225
 30
0.0
 10
5.045016539218825
 20
6.557270667682738
 30
0.0
 10
5.045016539218825
 20
6.557270667682738
 30
0.0
 10
5.071980427426549
 20
6.565490111919542
 30
0.0
 10
5.072251260753041
 20
6.533399834952433
 30
0.0
 10
5.072251260753041
 20
6.533399834952433
 30
0.0
 10
5.069973483032804
 20
6.238477620180573
 30
0.0
 10
5.069973483032804
 20
6.238477620180573
 30
0.0
  0
SPLINE
  5
B0
330
70
100
AcDbEntity
  8
Layer 1
 62
   250
420
  2301728
370
    25
100
AcDbSpline
210
0.0
220
0.0
230
1.0
 70
     8
 71
     3
 72
    14
 73
    10
 74
     0
 42
0.0000000001
 43
0.0000000001
 40
0.0
 40
0.0
 40
0.0
 40
0.0
 40
1.0
 40
1.0
 40
1.0
 40
2.0
 40
2.0
 40
2.0
 40
3.0
 40
3.0
 40
3.0
 40
3.0
 10
5.070515149685787
 20
6.124952623048455
 30
0.0
 10
5.070515149685787
 20
6.124952623048455
 30
0.0
 10
5.070515149685787
 20
5.835469297028086
 30
0.0
 10
5.070515149685787
 20
5.835469297028086
 30
0.0
 10
5.070515149685787
 20
5.835469297028086
 30
0.0
 10
5.070515149685787
 20
5.811163742086541
 30
0.0
 10
5.047945705811494
 20
5.799010964615768
 30
0.0
 10
5.041001261542482
 20
5.799010964615768
 30
0.0
 10
5.02270542867134
 20
5.789095687088471
 30
0.0
 10
5.021904039802696
 20
5.836852630326474
 30
0.0
  0
SPLINE
  5
B1
330
70
100
AcDbEntity
  8
Layer 1
 62
   250
420
  2301728
370
    25
100
AcDbSpline
210
0.0
220
0.0
230
1.0
 70
     8
 71
     3
 72
    26
 73
    22
 74
     0
 42
0.0000000001
 43
0.0000000001
 40
0.0
 40
0.0
 40
0.0
 40
0.0
 40
1.0
 40
1.0
 40
1.0
 40
2.0
 40
2.0
 40
2.0
 40
3.0
 40
3.0
 40
3.0
 40
4.0
 40
4.0
 40
4.0
 40
5.0
 40
5.0
 40
5.0
 40
6.0
 40
6.0
 40
6.0
 40
7.0
 40
7.0
 40
7.0
 40
7.0
 10
5.447251251279744
 20
5.621927635755936
 30
0.0
 10
5.447251251279744
 20
5.621927635755936
 30
0.0
 10
5.476656806092452
 20
5.611762358234955
 30
0.0
 10
5.502806805431847
 20
5.630608191092202
 30
0.0
 10
5.502806805431847
 20
5.630608191092202
 30
0.0
 10
5.511487360768114
 20
5.649705412831988
 30
0.0
 10
5.471556806221289
 20
5.660122079235507
 30
0.0
 10
5.471556806221289
 20
5.660122079235507
 30
0.0
 10
5.169473480519223
 20
5.750399854732677
 30
0.0
 10
5.169473480519223
 20
5.750399854732677
 30
0.0
 10
5.169473480519223
 20
5.750399854732677
 30
0.0
 10
5.15211236984669
 20
5.753872076867183
 30
0.0
 10
5.15211236984669
 20
5.779913742875982
 30
0.0
 10
5.15211236984669
 20
5.779913742875982
 30
0.0
 10
5.15211236984669
 20
6.61152483297883
 30
0.0
 10
5.15211236984669
 20
6.61152483297883
 30
0.0
 10
5.15211236984669
 20
6.61152483297883
 30
0.0
 10
5.15732070304845
 20
6.641038721122135
 30
0.0
 10
5.126070703837891
 20
6.632358165785868
 30
0.0
 10
5.126070703837891
 20
6.632358165785868
 30
0.0
 10
5.101765148896346
 20
6.627149832584109
 30
0.0
 10
5.101765148896346
 20
6.602844277642563
 30
0.0
  0
SPLINE
  5
B2
330
70
100
AcDbEntity
  8
Layer 1
 62
   250
420
  2301728
370
    25
100
AcDbSpline
210
0.0
220
0.0
230
1.0
 70
     8
 71
     3
 72
     8
 73
     4
 74
     0
 42
0.0000000001
 43
0.0000000001
 40
0.0
 40
0.0
 40
0.0
 40
0.0
 40
1.0
 40
1.0
 40
1.0
 40
1.0
 10
5.340901253966371
 20
5.652756801643792
 30
0.0
 10
5.362875000000005
 20
5.646409579581914
 30
0.0
 10
5.383287364006719
 20
5.640495690842436
 30
0.0
 10
5.400241530245087
 20
5.635572079855692
 30
0.0
  0
SPLINE
  5
B3
330
70
100
AcDbEntity
  8
Layer 1
 62
   250
420
  2301728
370
    25
100
AcDbSpline
210
0.0
220
0.0
230
1.0
 70
     8
 71
     3
 72
     8
 73
     4
 74
     0
 42
0.0000000001
 43
0.0000000001
 40
0.0
 40
0.0
 40
0.0
 40
0.0
 40
1.0
 40
1.0
 40
1.0
 40
1.0
 10
5.154012369798692
 20
5.705938744744748
 30
0.0
 10
5.180324869133983
 20
5.698723467149243
 30
0.0
 10
5.22014709035021
 20
5.687438745212097
 30
0.0
 10
5.262030422625482
 20
5.67544152329295
 30
0.0
  0
SPLINE
  5
B4
330
70
100
AcDbEntity
  8
Layer 1
 62
   250
420
  2301728
370
    25
100
AcDbSpline
210
0.0
220
0.0
230
1.0
 70
     8
 71
     3
 72
     8
 73
     4
 74
     0
 42
0.0000000001
 43
0.0000000001
 40
0.0
 40
0.0
 40
0.0
 40
0.0
 40
1.0
 40
1.0
 40
1.0
 40
1.0
 10
5.101765148896346
 20
5.745191521530917
 30
0.0
 10
5.101765148896346
 20
5.745191521530917
 30
0.0
 10
5.098972222222224
 20
5.713941522320358
 30
0.0
 10
5.122598481703385
 20
5.713941522320358
 30
0.0
  0
SPLINE
  5
B5
330
70
100
AcDbEntity
  8
Layer 1
 62
   250
420
  2301728
370
    25
100
AcDbSpline
210
0.0
220
0.0
230
1.0
 70
    24
 71
     3
 72
     8
 73
     4
 74
     0
 42
0.0000000001
 43
0.0000000001
 40
0.0
 40
0.0
 40
0.0
 40
0.0
 40
1.0
 40
1.0
 40
1.0
 40
1.0
 10
5.101765148896346
 20
6.028191514381735
 30
0.0
 10
5.101765148896346
 20
5.92250540594048
 30
0.0
 10
5.101765148896346
 20
5.830247074937788
 30
0.0
 10
5.101765148896346
 20
5.781649853943235
 30
0.0
  0
LINE
  5
B6
330
70
100
AcDbEntity
  8
Layer 1
 62
   250
420
  2301728
370
    25
100
AcDbLine
 10
5.101765148896346
 20
6.118245678773442
 30
0.0
 11
5.101765148896346
 21
6.066385957861307
 31
0.0
  0
LINE
  5
B7
330
70
100
AcDbEntity
  8
Layer 1
 62
   250
420
  2301728
370
    25
100
AcDbLine
 10
5.101765148896346
 20
6.245205397788392
 30
0.0
 11
5.101765148896346
 21
6.215223454101356
 31
0.0
  0
SPLINE
  5
B8
330
70
100
AcDbEntity
  8
Layer 1
 62
   250
420
  2301728
370
    25
100
AcDbSpline
210
0.0
220
0.0
230
1.0
 70
    24
 71
     3
 72
     8
 73
     4
 74
     0
 42
0.0000000001
 43
0.0000000001
 40
0.0
 40
0.0
 40
0.0
 40
0.0
 40
1.0
 40
1.0
 40
1.0
 40
1.0
 10
5.101765148896346
 20
6.573330389499258
 30
0.0
 10
5.101765148896346
 20
6.521856779688479
 30
0.0
 10
5.101765148896346
 20
6.410244282508048
 30
0.0
 10
5.101765148896346
 20
6.285135952335217
 30
0.0
  0
SPLINE
  5
B9
330
70
100
AcDbEntity
  8
Layer 1
 62
   250
420
  2301728
370
    25
100
AcDbSpline
210
0.0
220
0.0
230
1.0
 70
     8
 71
     3
 72
    26
 73
    22
 74
     0
 42
0.0000000001
 43
0.0000000001
 40
0.0
 40
0.0
 40
0.0
 40
0.0
 40
1.0
 40
1.0
 40
1.0
 40
2.0
 40
2.0
 40
2.0
 40
3.0
 40
3.0
 40
3.0
 40
4.0
 40
4.0
 40
4.0
 40
5.0
 40
5.0
 40
5.0
 40
6.0
 40
6.0
 40
6.0
 40
7.0
 40
7.0
 40
7.0
 40
7.0
 10
5.06123876103124
 20
5.611510969352416
 30
0.0
 10
5.06123876103124
 20
5.611510969352416
 30
0.0
 10
5.094631815743215
 20
5.602315136251389
 30
0.0
 10
5.116794315183343
 20
5.620191524688682
 30
0.0
 10
5.116794315183343
 20
5.620191524688682
 30
0.0
 10
5.12547487051961
 20
5.639288746428468
 30
0.0
 10
5.085544315972785
 20
5.649705412831988
 30
0.0
 10
5.085544315972785
 20
5.649705412831988
 30
0.0
 10
5.016695706600936
 20
5.671597222222215
 30
0.0
 10
5.016695706600936
 20
5.671597222222215
 30
0.0
 10
5.016695706600936
 20
5.671597222222215
 30
0.0
 10
4.999334595928403
 20
5.675069444444438
 30
0.0
 10
4.999334595928403
 20
5.701111111111104
 30
0.0
 10
4.999334595928403
 20
5.701111111111104
 30
0.0
 10
4.999334595928403
 20
6.546691501283324
 30
0.0
 10
4.999334595928403
 20
6.546691501283324
 30
0.0
 10
4.999334595928403
 20
6.546691501283324
 30
0.0
 10
5.004542929130163
 20
6.576205389426629
 30
0.0
 10
4.973292929919605
 20
6.567524834090363
 30
0.0
 10
4.973292929919605
 20
6.567524834090363
 30
0.0
 10
4.948987374978059
 20
6.562316500888615
 30
0.0
 10
4.948987374978059
 20
6.538010945947057
 30
0.0
  0
SPLINE
  5
BA
330
70
100
AcDbEntity
  8
Layer 1
 62
   250
420
  2301728
370
    25
100
AcDbSpline
210
0.0
220
0.0
230
1.0
 70
     8
 71
     3
 72
     8
 73
     4
 74
     0
 42
0.0000000001
 43
0.0000000001
 40
0.0
 40
0.0
 40
0.0
 40
0.0
 40
1.0
 40
1.0
 40
1.0
 40
1.0
 10
4.948987374978059
 20
5.675638888888884
 30
0.0
 10
4.948987374978059
 20
5.675638888888884
 30
0.0
 10
4.945515152843553
 20
5.645663746267422
 30
0.0
 10
4.959404041381579
 20
5.645663746267422
 30
0.0
  0
SPLINE
  5
BB
330
70
100
AcDbEntity
  8
Layer 1
 62
   250
420
  2301728
370
    25
100
AcDbSpline
210
0.0
220
0.0
230
1.0
 70
    24
 71
     3
 72
     8
 73
     4
 74
     0
 42
0.0000000001
 43
0.0000000001
 40
0.0
 40
0.0
 40
0.0
 40
0.0
 40
1.0
 40
1.0
 40
1.0
 40
1.0
 10
4.948987374978059
 20
5.963372071574768
 30
0.0
 10
4.948987374978059
 20
5.857685963133513
 30
0.0
 10
4.948987374978059
 20
5.765427632130821
 30
0.0
 10
4.948987374978059
 20
5.716844300024805
 30
0.0
  0
LINE
  5
BC
330
70
100
AcDbEntity
  8
Layer 1
 62
   250
420
  2301728
370
    25
100
AcDbLine
 10
4.948987374978059
 20
6.068630402249052
 30
0.0
 11
4.948987374978059
 21
6.001552626165802
 31
0.0
  0
LINE
  5
BD
330
70
100
AcDbEntity
  8
Layer 1
 62
   250
420
  2301728
370
    25
100
AcDbLine
 10
4.948987374978059
 20
6.19251789911939
 30
0.0
 11
4.948987374978059
 21
6.175923455094157
 31
0.0
  0
SPLINE
  5
BE
330
70
100
AcDbEntity
  8
Layer 1
 62
   250
420
  2301728
370
    25
100
AcDbSpline
210
0.0
220
0.0
230
1.0
 70
    24
 71
     3
 72
     8
 73
     4
 74
     0
 42
0.0000000001
 43
0.0000000001
 40
0.0
 40
0.0
 40
0.0
 40
0.0
 40
1.0
 40
1.0
 40
1.0
 40
1.0
 10
4.948987374978059
 20
6.508497057803752
 30
0.0
 10
4.948987374978059
 20
6.457037336881512
 30
0.0
 10
4.948987374978059
 20
6.345410950812542
 30
0.0
 10
4.948987374978059
 20
6.220302620639712
 30
0.0
  0
SPLINE
  5
BF
330
70
100
AcDbEntity
  8
Layer 1
 62
   250
420
  2301728
370
    25
100
AcDbSpline
210
0.0
220
0.0
230
1.0
 70
     8
 71
     3
 72
    14
 73
    10
 74
     0
 42
0.0000000001
 43
0.0000000001
 40
0.0
 40
0.0
 40
0.0
 40
0.0
 40
1.0
 40
1.0
 40
1.0
 40
2.0
 40
2.0
 40
2.0
 40
3.0
 40
3.0
 40
3.0
 40
3.0
 10
4.845092933158209
 20
5.648498468418034
 30
0.0
 10
4.845092933158209
 20
5.648498468418034
 30
0.0
 10
4.846556822010117
 20
6.505038724557796
 30
0.0
 10
4.846556822010117
 20
6.505038724557796
 30
0.0
 10
4.846556822010117
 20
6.505038724557796
 30
0.0
 10
4.851765155211877
 20
6.534552612701089
 30
0.0
 10
4.820515156001318
 20
6.525872057364822
 30
0.0
 10
4.820515156001318
 20
6.525872057364822
 30
0.0
 10
4.796209601059772
 20
6.520663724163063
 30
0.0
 10
4.796209601059772
 20
6.496358169221517
 30
0.0
  0
SPLINE
  5
C0
330
70
100
AcDbEntity
  8
Layer 1
 62
   250
420
  2301728
370
    25
100
AcDbSpline
210
0.0
220
0.0
230
1.0
 70
     8
 71
     3
 72
    14
 73
    10
 74
     0
 42
0.0000000001
 43
0.0000000001
 40
0.0
 40
0.0
 40
0.0
 40
0.0
 40
1.0
 40
1.0
 40
1.0
 40
2.0
 40
2.0
 40
2.0
 40
3.0
 40
3.0
 40
3.0
 40
3.0
 10
5.133015148106904
 20
5.470323472919113
 30
0.0
 10
5.133015148106904
 20
5.470323472919113
 30
0.0
 10
5.174681813720982
 20
5.470323472919113
 30
0.0
 10
5.188570702259008
 20
5.479004028255379
 30
0.0
 10
5.188570702259008
 20
5.479004028255379
 30
0.0
 10
5.197251257595275
 20
5.498094305550895
 30
0.0
 10
5.15732070304845
 20
5.508510971954415
 30
0.0
 10
5.15732070304845
 20
5.508510971954415
 30
0.0
 10
4.86391793268265
 20
5.601935969594301
 30
0.0
 10
4.86391793268265
 20
5.601935969594301
 30
0.0
  0
SPLINE
  5
C1
330
70
100
AcDbEntity
  8
Layer 1
 62
   250
420
  2301728
370
    25
100
AcDbSpline
210
0.0
220
0.0
230
1.0
 70
     8
 71
     3
 72
     8
 73
     4
 74
     0
 42
0.0000000001
 43
0.0000000001
 40
0.0
 40
0.0
 40
0.0
 40
0.0
 40
1.0
 40
1.0
 40
1.0
 40
1.0
 10
5.010416666666666
 20
5.506944444444443
 30
0.0
 10
5.03917070603317
 20
5.497863750001164
 30
0.0
 10
5.057399872239329
 20
5.492255416809509
 30
0.0
 10
5.086005427072247
 20
5.483967917018869
 30
0.0
  0
LINE
  5
C2
330
70
100
AcDbEntity
  8
Layer 1
 62
   250
420
  2301728
370
    25
100
AcDbLine
 10
4.887830432078569
 20
5.542270693323795
 30
0.0
 11
4.950099874949955
 21
5.525173471533485
 31
0.0
  0
SPLINE
  5
C3
330
70
100
AcDbEntity
  8
Layer 1
 62
   250
420
  2301728
370
    25
100
AcDbSpline
210
0.0
220
0.0
230
1.0
 70
    24
 71
     3
 72
     8
 73
     4
 74
     0
 42
0.0000000001
 43
0.0000000001
 40
0.0
 40
0.0
 40
0.0
 40
0.0
 40
1.0
 40
1.0
 40
1.0
 40
1.0
 10
4.796209601059772
 20
5.92170540596069
 30
0.0
 10
4.796209601059772
 20
5.816019297519434
 30
0.0
 10
4.796209601059772
 20
5.807745686617332
 30
0.0
 10
4.796209601059772
 20
5.759162354511317
 30
0.0
  0
LINE
  5
C4
330
70
100
AcDbEntity
  8
Layer 1
 62
   250
420
  2301728
370
    25
100
AcDbLine
 10
4.796209601059772
 20
6.019076236834229
 30
0.0
 11
4.796209601059772
 21
5.959899849440262
 31
0.0
  0
LINE
  5
C5
330
70
100
AcDbEntity
  8
Layer 1
 62
   250
420
  2301728
370
    25
100
AcDbLine
 10
4.796209601059772
 20
6.138719289367347
 30
0.0
 11
4.796209601059772
 21
6.104424845789253
 31
0.0
  0
SPLINE
  5
C6
330
70
100
AcDbEntity
  8
Layer 1
 62
   250
420
  2301728
370
    25
100
AcDbSpline
210
0.0
220
0.0
230
1.0
 70
    24
 71
     3
 72
     8
 73
     4
 74
     0
 42
0.0000000001
 43
0.0000000001
 40
0.0
 40
0.0
 40
0.0
 40
0.0
 40
1.0
 40
1.0
 40
1.0
 40
1.0
 10
4.796209601059772
 20
6.466844281078212
 30
0.0
 10
4.796209601059772
 20
6.415370671267433
 30
0.0
 10
4.796209601059772
 20
6.303758174087002
 30
0.0
 10
4.796209601059772
 20
6.178649843914172
 30
0.0
  0
SPLINE
  5
C7
330
70
100
AcDbEntity
  8
Layer 1
 62
   250
420
  2301728
370
    25
100
AcDbSpline
210
0.0
220
0.0
230
1.0
 70
     8
 71
     3
 72
    14
 73
    10
 74
     0
 42
0.0000000001
 43
0.0000000001
 40
0.0
 40
0.0
 40
0.0
 40
0.0
 40
1.0
 40
1.0
 40
1.0
 40
2.0
 40
2.0
 40
2.0
 40
3.0
 40
3.0
 40
3.0
 40
3.0
 10
4.686834603822817
 20
6.016770681336916
 30
0.0
 10
4.686834603822817
 20
6.016770681336916
 30
0.0
 10
4.686834603822817
 20
6.456427614674693
 30
0.0
 10
4.686834603822817
 20
6.456427614674693
 30
0.0
 10
4.686834603822817
 20
6.456427614674693
 30
0.0
 10
4.692042937024577
 20
6.485941502817998
 30
0.0
 10
4.660792937814019
 20
6.477260947481731
 30
0.0
 10
4.660792937814019
 20
6.477260947481731
 30
0.0
 10
4.636487382872473
 20
6.472052614279972
 30
0.0
 10
4.636487382872473
 20
6.447747059338426
 30
0.0
  0
SPLINE
  5
C8
330
70
100
AcDbEntity
  8
Layer 1
 62
   250
420
  2301728
370
    25
100
AcDbSpline
210
0.0
220
0.0
230
1.0
 70
    24
 71
     3
 72
     8
 73
     4
 74
     0
 42
0.0000000001
 43
0.0000000001
 40
0.0
 40
0.0
 40
0.0
 40
0.0
 40
1.0
 40
1.0
 40
1.0
 40
1.0
 10
4.636487382872473
 20
6.418233171195121
 30
0.0
 10
4.636487382872473
 20
6.366759561384342
 30
0.0
 10
4.636487382872473
 20
6.255147064203911
 30
0.0
 10
4.636487382872473
 20
6.130038734031081
 30
0.0
  0
LINE
  5
C9
330
70
100
AcDbEntity
  8
Layer 1
 62
   250
420
  2301728
370
    25
100
AcDbLine
 10
4.980237374188618
 20
5.638719301998421
 30
0.0
 11
5.038099872726888
 21
5.61788596919137
 31
0.0
  0
LINE
  5
CA
330
70
100
AcDbEntity
  8
Layer 1
 62
   250
420
  2301728
370
    25
100
AcDbLine
 10
5.176229035904118
 20
5.762715132199344
 30
0.0
 11
5.202459590797034
 21
5.775288742992819
 31
0.0
  0
LINE
  5
CB
330
70
100
AcDbEntity
  8
Layer 1
 62
   250
420
  2301728
370
    25
100
AcDbLine
 10
5.019490150974787
 20
5.687520689654471
 30
0.0
 11
5.080091538332756
 21
5.716599855586537
 31
0.0
  0
LINE
  5
CC
330
70
100
AcDbEntity
  8
Layer 1
 62
   250
420
  2301728
370
    25
100
AcDbLine
 10
4.859849877229862
 20
5.610941524922357
 30
0.0
 11
4.927069444444441
 21
5.643195690774215
 31
0.0
  0
SPLINE
  5
CD
330
70
100
AcDbEntity
  8
Layer 1
 62
   250
420
  2301728
370
    25
100
AcDbSpline
210
0.0
220
0.0
230
1.0
 70
     8
 71
     3
 72
    11
 73
     7
 74
     0
 42
0.0000000001
 43
0.0000000001
 40
0.0
 40
0.0
 40
0.0
 40
0.0
 40
1.0
 40
1.0
 40
1.0
 40
2.0
 40
2.0
 40
2.0
 40
2.0
 10
6.270833333333333
 20
5.052111111111116
 30
0.0
 10
6.270833333333333
 20
5.052111111111116
 30
0.0
 10
6.270833333333333
 20
5.428236111111118
 30
0.0
 10
6.270833333333333
 20
5.428236111111118
 30
0.0
 10
6.270833333333333
 20
5.428236111111118
 30
0.0
 10
6.263902777777779
 20
5.4375
 30
0.0
 10
6.252319444444436
 20
5.435180555555562
 30
0.0
  0
SPLINE
  5
CE
330
70
100
AcDbEntity
  8
Layer 1
 62
   250
420
  2301728
370
    25
100
AcDbSpline
210
0.0
220
0.0
230
1.0
 70
     8
 71
     3
 72
    14
 73
    10
 74
     0
 42
0.0000000001
 43
0.0000000001
 40
0.0
 40
0.0
 40
0.0
 40
0.0
 40
1.0
 40
1.0
 40
1.0
 40
2.0
 40
2.0
 40
2.0
 40
3.0
 40
3.0
 40
3.0
 40
3.0
 10
5.831556797126924
 20
5.212022090555465
 30
0.0
 10
5.831556797126924
 20
5.212022090555465
 30
0.0
 10
5.583333333333333
 20
5.064805555555545
 30
0.0
 10
5.583333333333333
 20
5.064805555555545
 30
0.0
 10
5.583333333333333
 20
5.064805555555545
 30
0.0
 10
5.567125000000006
 20
5.055541666666663
 30
0.0
 10
5.567125000000006
 20
5.030083333333323
 30
0.0
 10
5.567125000000006
 20
5.030083333333323
 30
0.0
 10
5.567125000000006
 20
4.588392939642996
 30
0.0
 10
5.567125000000006
 20
4.588392939642996
 30
0.0
  0
SPLINE
  5
CF
330
70
100
AcDbEntity
  8
Layer 1
 62
   250
420
  2301728
370
    25
100
AcDbSpline
210
0.0
220
0.0
230
1.0
 70
     8
 71
     3
 72
    11
 73
     7
 74
     0
 42
0.0000000001
 43
0.0000000001
 40
0.0
 40
0.0
 40
0.0
 40
0.0
 40
1.0
 40
1.0
 40
1.0
 40
2.0
 40
2.0
 40
2.0
 40
2.0
 10
6.293986111111102
 20
5.456013888888896
 30
0.0
 10
6.293986111111102
 20
5.456013888888896
 30
0.0
 10
6.282402777777784
 20
5.476847222222229
 30
0.0
 10
6.254625000000006
 20
5.46295833333334
 30
0.0
 10
6.254625000000006
 20
5.46295833333334
 30
0.0
 10
6.04497623617994
 20
5.338609587357596
 30
0.0
 10
6.04497623617994
 20
5.338609587357596
 30
0.0
  0
LWPOLYLINE
  5
D0
330
70
100
AcDbEntity
  8
Layer 1
 62
   250
420
  2301728
370
    25
100
AcDbPolyline
 90
        3
 70
     0
 43
0.0
 10
5.817125000000006
 20
5.247680555555562
 10
5.79861111111111
 20
5.289347222222229
 10
6.071180555555555
 20
5.273830422327389
  0
LINE
  5
D1
330
70
100
AcDbEntity
  8
Layer 1
 62
   250
420
  2301728
370
    25
100
AcDbLine
 10
2.439812438365152
 20
6.157409566672968
 30
0.0
 11
2.454324937998535
 21
6.152283177913583
 31
0.0
  0
SPLINE
  5
D2
330
70
100
AcDbEntity
  8
Layer 1
100
AcDbSpline
210
0.0
220
0.0
230
1.0
 70
    11
 71
     3
 72
    29
 73
    25
 74
     0
 42
0.0000000001
 43
0.0000000001
 40
0.0
 40
0.0
 40
0.0
 40
0.0
 40
1.0
 40
1.0
 40
1.0
 40
2.0
 40
2.0
 40
2.0
 40
3.0
 40
3.0
 40
3.0
 40
4.0
 40
4.0
 40
4.0
 40
5.0
 40
5.0
 40
5.0
 40
6.0
 40
6.0
 40
6.0
 40
7.0
 40
7.0
 40
7.0
 40
8.0
 40
8.0
 40
8.0
 40
8.0
 10
5.227430555555555
 20
5.628472222222222
 30
0.0
 10
5.227430555555555
 20
5.628472222222222
 30
0.0
 10
5.227430555555555
 20
5.65625
 30
0.0
 10
5.227430555555555
 20
5.65625
 30
0.0
 10
5.227430555555555
 20
5.65625
 30
0.0
 10
5.230902777777777
 20
5.67361111111111
 30
0.0
 10
5.276041666666666
 20
5.675347222222222
 30
0.0
 10
5.321180555555555
 20
5.677083333333333
 30
0.0
 10
5.322916666666666
 20
5.649305555555555
 30
0.0
 10
5.322916666666666
 20
5.649305555555555
 30
0.0
 10
5.322916666666666
 20
5.649305555555555
 30
0.0
 10
5.328125
 20
5.62673611111111
 30
0.0
 10
5.328125
 20
5.62673611111111
 30
0.0
 10
5.328125
 20
5.62673611111111
 30
0.0
 10
5.34548611111111
 20
5.618055555555555
 30
0.0
 10
5.34548611111111
 20
5.61111111111111
 30
0.0
 10
5.34548611111111
 20
5.604166666666666
 30
0.0
 10
5.31423611111111
 20
5.578125
 30
0.0
 10
5.28125
 20
5.57986111111111
 30
0.0
 10
5.248263888888888
 20
5.581597222222222
 30
0.0
 10
5.208333333333333
 20
5.592013888888888
 30
0.0
 10
5.208333333333333
 20
5.609375
 30
0.0
 10
5.208333333333333
 20
5.62673611111111
 30
0.0
 10
5.227430555555555
 20
5.628472222222222
 30
0.0
 10
5.227430555555555
 20
5.628472222222222
 30
0.0
  0
HATCH
  5
D3
330
70
100
AcDbEntity
  8
Layer 1
 62
   254
420
 14474718
440
 33554687
100
AcDbHatch
 10
0.0
 20
0.0
 30
0.0
210
0.0
220
0.0
230
1.0
  2
SOLID
 70
     1
 71
     1
 91
        1
 92
        1
 93
        1
 72
     4
 94
        3
 73
     0
 74
     0
 95
       29
 96
       25
 40
0.0
 40
0.0
 40
0.0
 40
0.0
 40
1.0
 40
1.0
 40
1.0
 40
2.0
 40
2.0
 40
2.0
 40
3.0
 40
3.0
 40
3.0
 40
4.0
 40
4.0
 40
4.0
 40
5.0
 40
5.0
 40
5.0
 40
6.0
 40
6.0
 40
6.0
 40
7.0
 40
7.0
 40
7.0
 40
8.0
 40
8.0
 40
8.0
 40
8.0
 10
5.227430555555555
 20
5.628472222222222
 10
5.227430555555555
 20
5.628472222222222
 10
5.227430555555555
 20
5.65625
 10
5.227430555555555
 20
5.65625
 10
5.227430555555555
 20
5.65625
 10
5.230902777777777
 20
5.67361111111111
 10
5.276041666666666
 20
5.675347222222222
 10
5.321180555555555
 20
5.677083333333333
 10
5.322916666666666
 20
5.649305555555555
 10
5.322916666666666
 20
5.649305555555555
 10
5.322916666666666
 20
5.649305555555555
 10
5.328125
 20
5.62673611111111
 10
5.328125
 20
5.62673611111111
 10
5.328125
 20
5.62673611111111
 10
5.34548611111111
 20
5.618055555555555
 10
5.34548611111111
 20
5.61111111111111
 10
5.34548611111111
 20
5.604166666666666
 10
5.31423611111111
 20
5.578125
 10
5.28125
 20
5.57986111111111
 10
5.248263888888888
 20
5.581597222222222
 10
5.208333333333333
 20
5.592013888888888
 10
5.208333333333333
 20
5.609375
 10
5.208333333333333
 20
5.62673611111111
 10
5.227430555555555
 20
5.628472222222222
 10
5.227430555555555
 20
5.628472222222222
 97
        0
 97
        1
330
D2
 75
     2
 76
     1
 98
        1
 10
0.0
 20
0.0
450
        0
451
        0
460
0.0
461
0.0
452
        0
462
0.0
453
        0
470

  0
INSERT
  5
D5
330
70
100
AcDbEntity
  8
Layer 1
100
AcDbBlockReference
  2
Block_0
 10
0.0
 20
0.0
 30
0.0
  0
INSERT
  5
E1
330
70
100
AcDbEntity
  8
Layer 1
100
AcDbBlockReference
  2
Block_1
 10
0.0
 20
0.0
 30
0.0
  0
LINE
  5
EB
330
70
100
AcDbEntity
  8
Layer 1
 62
   250
420
  2301728
370
    25
100
AcDbLine
 10
4.796209601059772
 20
6.138719289367347
 30
0.0
 11
4.795938767733281
 21
6.11958873429507
 31
0.0
  0
LINE
  5
EC
330
70
100
AcDbEntity
  8
Layer 1
 62
   250
420
  2301728
370
    35
100
AcDbLine
 10
4.9375
 20
4.527791666666669
 30
0.0
 11
4.98611111111111
 21
4.472222222222222
 31
0.0
  0
LINE
  5
ED
330
70
100
AcDbEntity
  8
Layer 1
 62
   250
420
  2301728
370
    35
100
AcDbLine
 10
4.789347222222229
 20
4.342597222222214
 30
0.0
 11
4.86111111111111
 21
4.268513888888896
 31
0.0
  0
LINE
  5
EE
330
70
100
AcDbEntity
  8
Layer 1
 62
   250
420
  2301728
370
    35
100
AcDbLine
 10
4.747680555555562
 20
4.305555555555555
 30
0.0
 11
4.793049878917372
 21
4.337063779325439
 31
0.0
  0
LINE
  5
EF
330
70
100
AcDbEntity
  8
Layer 1
 62
   250
420
  2301728
370
    35
100
AcDbLine
 10
4.921291666666673
 20
4.479166666666666
 30
0.0
 11
4.935180555555562
 21
4.537041666666659
 31
0.0
  0
LINE
  5
F0
330
70
100
AcDbEntity
  8
Layer 1
 62
   250
420
  2301728
370
    35
100
AcDbLine
 10
5.828125
 20
5.206705424023109
 30
0.0
 11
5.828125
 21
5.17361111111111
 31
0.0
  0
LWPOLYLINE
  5
F1
330
70
100
AcDbEntity
  8
Layer 1
 62
   250
420
  2301728
370
    35
100
AcDbPolyline
 90
        5
 70
     0
 43
0.0
 10
6.046291666666673
 20
5.33795833333334
 10
6.071180555555555
 20
5.273830422327389
 10
6.071180555555555
 20
5.240736111111118
 10
5.8125
 20
5.259263888888881
 10
5.828125
 20
5.206705424023109
  0
SPLINE
  5
F2
330
70
100
AcDbEntity
  8
Layer 1
 62
   250
420
  2301728
370
    35
100
AcDbSpline
210
0.0
220
0.0
230
1.0
 70
     8
 71
     3
 72
    11
 73
     7
 74
     0
 42
0.0000000001
 43
0.0000000001
 40
0.0
 40
0.0
 40
0.0
 40
0.0
 40
1.0
 40
1.0
 40
1.0
 40
2.0
 40
2.0
 40
2.0
 40
2.0
 10
6.057874999999992
 20
5.3125
 30
0.0
 10
6.057874999999992
 20
5.3125
 30
0.0
 10
6.252319444444436
 20
5.428236111111118
 30
0.0
 10
6.252319444444436
 20
5.428236111111118
 30
0.0
 10
6.252319444444436
 20
5.428236111111118
 30
0.0
 10
6.261583333333343
 20
5.437486111111107
 30
0.0
 10
6.266208333333325
 20
5.428236111111118
 30
0.0
  0
LINE
  5
F3
330
70
100
AcDbEntity
  8
Layer 1
 62
   250
420
  2301728
370
    35
100
AcDbLine
 10
5.024223484188547
 20
5.82982763050394
 30
0.0
 11
5.048272094692138
 21
5.840983185777682
 31
0.0
  0
LINE
  5
F4
330
70
100
AcDbEntity
  8
Layer 1
 62
   250
420
  2301728
370
    35
100
AcDbLine
 10
4.874334599086169
 20
5.769497076472462
 30
0.0
 11
4.901462376178642
 21
5.783467909452863
 31
0.0
  0
LINE
  5
F5
330
70
100
AcDbEntity
  8
Layer 1
 62
   250
420
  2301728
370
    35
100
AcDbLine
 10
4.53658044095189
 20
4.983899874096096
 30
0.0
 11
4.490138888888901
 21
5.001708333333326
 31
0.0
  0
LINE
  5
F6
330
70
100
AcDbEntity
  8
Layer 1
 62
   250
420
  2301728
370
    35
100
AcDbLine
 10
5.206434590696617
 20
4.726887380588777
 30
0.0
 11
4.84296376654533
 21
4.866347222222227
 31
0.0
  0
LINE
  5
F7
330
70
100
AcDbEntity
  8
Layer 1
 62
   250
420
  2301728
370
    35
100
AcDbLine
 10
4.093627674364041
 20
5.153617925364212
 30
0.0
 11
4.490138888888901
 21
5.001708333333326
 31
0.0
  0
LINE
  5
F8
330
70
100
AcDbEntity
  8
Layer 1
 62
   250
420
  2301728
370
    25
100
AcDbLine
 10
4.486016553340353
 20
4.223375000000006
 30
0.0
 11
4.486016553340353
 21
5.003933206923344
 31
0.0
  0
LINE
  5
F9
330
70
100
AcDbEntity
  8
Layer 1
 62
   250
420
  2301728
370
    25
100
AcDbLine
 10
4.486016553340353
 20
4.170138888888888
 30
0.0
 11
4.486016553340353
 21
4.190972222222222
 31
0.0
  0
LINE
  5
FA
330
70
100
AcDbEntity
  8
Layer 1
 62
   250
420
  2301728
370
    25
100
AcDbLine
 10
3.365526303868541
 20
5.834933185930518
 30
0.0
 11
2.477023548536231
 21
6.144259567005165
 31
0.0
  0
LINE
  5
FB
330
70
100
AcDbEntity
  8
Layer 1
 62
   250
420
  2301728
370
    25
100
AcDbLine
 10
4.515394330375985
 20
5.434611111111103
 30
0.0
 11
4.132087395614689
 21
5.568060970450056
 31
0.0
  0
LINE
  5
FC
330
70
100
AcDbEntity
  8
Layer 1
 62
   250
420
  2301728
370
    25
100
AcDbLine
 10
5.511392916326055
 20
5.089612371425573
 30
0.0
 11
4.912258209239249
 21
5.297145699516173
 31
0.0
  0
LINE
  5
FD
330
70
100
AcDbEntity
  8
Layer 1
 62
   250
420
  2301728
370
    25
100
AcDbLine
 10
5.553236111111118
 20
5.075059594015429
 30
0.0
 11
5.534870693510734
 21
5.081448482742922
 31
0.0
  0
SPLINE
  5
FE
330
70
100
AcDbEntity
  8
Layer 1
 62
   250
420
  2301728
370
    35
100
AcDbSpline
210
0.0
220
0.0
230
1.0
 70
     8
 71
     3
 72
    35
 73
    31
 74
     0
 42
0.0000000001
 43
0.0000000001
 40
0.0
 40
0.0
 40
0.0
 40
0.0
 40
1.0
 40
1.0
 40
1.0
 40
2.0
 40
2.0
 40
2.0
 40
3.0
 40
3.0
 40
3.0
 40
4.0
 40
4.0
 40
4.0
 40
5.0
 40
5.0
 40
5.0
 40
6.0
 40
6.0
 40
6.0
 40
7.0
 40
7.0
 40
7.0
 40
8.0
 40
8.0
 40
8.0
 40
9.0
 40
9.0
 40
9.0
 40
10.0
 40
10.0
 40
10.0
 40
10.0
 10
3.007038812924696
 20
5.592861111111106
 30
0.0
 10
3.007038812924696
 20
5.592861111111106
 30
0.0
 10
2.407409661405949
 20
5.833333333333333
 30
0.0
 10
2.407409661405949
 20
5.833333333333333
 30
0.0
 10
2.407409661405949
 20
5.833333333333333
 30
0.0
 10
2.407409661405949
 20
6.149305555555555
 30
0.0
 10
2.407409661405949
 20
6.149305555555555
 30
0.0
 10
2.407409661405949
 20
6.149305555555555
 30
0.0
 10
2.405069444444443
 20
6.166354010891457
 30
0.0
 10
2.430555555555555
 20
6.17361111111111
 30
0.0
 10
2.430555555555555
 20
6.17361111111111
 30
0.0
 10
2.709798542655852
 20
6.252813730929523
 30
0.0
 10
2.709798542655852
 20
6.252813730929523
 30
0.0
 10
2.709798542655852
 20
6.252813730929523
 30
0.0
 10
2.710645764856672
 20
6.300923451936391
 30
0.0
 10
2.710645764856672
 20
6.300923451936391
 30
0.0
 10
2.710645764856672
 20
6.300923451936391
 30
0.0
 10
2.972222222222221
 20
6.284722222222221
 30
0.0
 10
2.972222222222221
 20
6.284722222222221
 30
0.0
 10
2.972222222222221
 20
6.284722222222221
 30
0.0
 10
2.97408742486823
 20
6.327779006813519
 30
0.0
 10
2.97408742486823
 20
6.327779006813519
 30
0.0
 10
2.97408742486823
 20
6.327779006813519
 30
0.0
 10
3.152777777777777
 20
6.378472222222221
 30
0.0
 10
3.152777777777777
 20
6.378472222222221
 30
0.0
 10
3.152777777777777
 20
6.378472222222221
 30
0.0
 10
3.180555555555555
 20
6.381944444444443
 30
0.0
 10
3.201388888888888
 20
6.375
 30
0.0
 10
3.201388888888888
 20
6.375
 30
0.0
 10
3.364583333333333
 20
6.326388888888888
 30
0.0
 10
3.364583333333333
 20
6.326388888888888
 30
0.0
  0
INSERT
  5
100
330
70
100
AcDbEntity
  8
Layer 1
100
AcDbBlockReference
  2
Block_2
 10
0.0
 20
0.0
 30
0.0
  0
INSERT
  5
108
330
70
100
AcDbEntity
  8
Layer 1
100
AcDbBlockReference
  2
Block_3
 10
0.0
 20
0.0
 30
0.0
  0
INSERT
  5
110
330
70
100
AcDbEntity
  8
Layer 1
100
AcDbBlockReference
  2
Block_4
 10
0.0
 20
0.0
 30
0.0
  0
INSERT
  5
118
330
70
100
AcDbEntity
  8
Layer 1
100
AcDbBlockReference
  2
Block_5
 10
0.0
 20
0.0
 30
0.0
  0
INSERT
  5
120
330
70
100
AcDbEntity
  8
Layer 1
100
AcDbBlockReference
  2
Block_6
 10
0.0
 20
0.0
 30
0.0
  0
LINE
  5
127
330
70
100
AcDbEntity
  8
Callout
 62
   250
420
  2301728
370
    35
100
AcDbLine
 10
4.467583333333323
 20
5.490749999999997
 30
0.0
 11
3.17361111111111
 21
4.90625
 31
0.0
  0
LINE
  5
128
330
70
100
AcDbEntity
  8
Callout
 62
   250
420
  2301728
370
    35
100
AcDbLine
 10
3.328694444444446
 20
5.212986111111098
 30
0.0
 11
2.973958333333333
 21
5.04861111111111
 31
0.0
  0
MTEXT
  5
129
330
70
100
AcDbEntity
  8
Callout
100
AcDbMText
 10
2.878676679399278
 20
4.479166666666666
 30
0.0
 40
0.2
 41
0.0
 46
0.0
 71
     7
 72
     1
  1
\C250;\c2105123;\FHelvetica Neue LT Std 67 Medium Condensed|b0|i0|c1;\H0.147500;\W1.000330;32mm vertical
 73
     1
 44
1.0
  0
MTEXT
  5
12A
330
70
100
AcDbEntity
  8
Callout
100
AcDbMText
 10
3.084885835647583
 20
4.284722222222222
 30
0.0
 40
0.2
 41
0.0
 46
0.0
 71
     7
 72
     1
  1
\C250;\c2105123;\FHelvetica Neue LT Std 67 Medium Condensed|b0|i0|c1;\H0.147500;\W1.000330;gap max.
 73
     1
 44
1.0
  0
SPLINE
  5
12B
330
70
100
AcDbEntity
  8
Callout
 62
   250
420
  2301728
370
    35
100
AcDbSpline
210
0.0
220
0.0
230
1.0
 70
     8
 71
     3
 72
     8
 73
     4
 74
     0
 42
0.0000000001
 43
0.0000000001
 40
0.0
 40
0.0
 40
0.0
 40
0.0
 40
1.0
 40
1.0
 40
1.0
 40
1.0
 10
3.106523532633723
 20
4.988869318415001
 30
0.0
 10
3.106523532633723
 20
4.988869318415001
 30
0.0
 10
2.770611229566447
 20
4.895280241814311
 30
0.0
 10
2.921274926202386
 20
4.588392939642996
 30
0.0
  0
INSERT
  5
12D
330
70
100
AcDbEntity
  8
Callout
100
AcDbBlockReference
  2
Block_7
 10
0.0
 20
0.0
 30
0.0
  0
INSERT
  5
137
330
70
100
AcDbEntity
  8
Callout
100
AcDbBlockReference
  2
Block_8
 10
0.0
 20
0.0
 30
0.0
  0
SPLINE
  5
13E
330
70
100
AcDbEntity
  8
Callout
100
AcDbSpline
210
0.0
220
0.0
230
1.0
 70
     9
 71
     3
 72
    17
 73
    13
 74
     0
 42
0.0000000001
 43
0.0000000001
 40
0.0
 40
0.0
 40
0.0
 40
0.0
 40
1.0
 40
1.0
 40
1.0
 40
2.0
 40
2.0
 40
2.0
 40
3.0
 40
3.0
 40
3.0
 40
4.0
 40
4.0
 40
4.0
 40
4.0
 10
3.157919364668689
 20
4.993451262743696
 30
0.0
 10
3.157919364668689
 20
4.966467930092019
 30
0.0
 10
3.136045754110151
 20
4.944592930644628
 30
0.0
 10
3.10906103256962
 20
4.944592930644628
 30
0.0
 10
3.082079088806797
 20
4.944592930644628
 30
0.0
 10
3.06020547824826
 20
4.966467930092019
 30
0.0
 10
3.06020547824826
 20
4.993451262743696
 30
0.0
 10
3.06020547824826
 20
5.020433206506519
 30
0.0
 10
3.082079088806797
 20
5.04230820595391
 30
0.0
 10
3.10906103256962
 20
5.04230820595391
 30
0.0
 10
3.136045754110151
 20
5.04230820595391
 30
0.0
 10
3.157919364668689
 20
5.020433206506519
 30
0.0
 10
3.157919364668689
 20
4.993451262743696
 30
0.0
  0
HATCH
  5
13F
330
70
100
AcDbEntity
  8
Callout
 62
   250
420
  2301728
440
 33554687
100
AcDbHatch
 10
0.0
 20
0.0
 30
0.0
210
0.0
220
0.0
230
1.0
  2
SOLID
 70
     1
 71
     1
 91
        1
 92
        1
 93
        1
 72
     4
 94
        3
 73
     0
 74
     0
 95
       17
 96
       13
 40
0.0
 40
0.0
 40
0.0
 40
0.0
 40
1.0
 40
1.0
 40
1.0
 40
2.0
 40
2.0
 40
2.0
 40
3.0
 40
3.0
 40
3.0
 40
4.0
 40
4.0
 40
4.0
 40
4.0
 10
3.157919364668689
 20
4.993451262743696
 10
3.157919364668689
 20
4.966467930092019
 10
3.136045754110151
 20
4.944592930644628
 10
3.10906103256962
 20
4.944592930644628
 10
3.082079088806797
 20
4.944592930644628
 10
3.06020547824826
 20
4.966467930092019
 10
3.06020547824826
 20
4.993451262743696
 10
3.06020547824826
 20
5.020433206506519
 10
3.082079088806797
 20
5.04230820595391
 10
3.10906103256962
 20
5.04230820595391
 10
3.136045754110151
 20
5.04230820595391
 10
3.157919364668689
 20
5.020433206506519
 10
3.157919364668689
 20
4.993451262743696
 97
        0
 97
        1
330
13E
 75
     2
 76
     1
 98
        1
 10
0.0
 20
0.0
450
        0
451
        0
460
0.0
461
0.0
452
        0
462
0.0
453
        0
470

  0
MTEXT
  5
140
330
70
100
AcDbEntity
  8
Callout
100
AcDbMText
 10
3.70289029015435
 20
3.609934594896104
 30
0.0
 40
0.2
 41
0.0
 46
0.0
 71
     7
 72
     1
  1
\C250;\c2105123;\FHelvetica Neue LT Std 55 Roman|b0|i0|c1;\H0.118000;\W1.000000;SIMPSON Strong-Tie\H0.068794;®\H0.118000; ^C
 73
     1
 44
1.0
  0
MTEXT
  5
141
330
70
100
AcDbEntity
  8
Callout
100
AcDbMText
 10
3.81592739952935
 20
3.409929169548882
 30
0.0
 40
0.2
 41
0.0
 46
0.0
 71
     7
 72
     1
  1
\C250;\c2105123;\FHelvetica Neue LT Std 55 Roman|b0|i0|c1;\H0.118000;\W1.000000;S/HTC4 Installation 
 73
     1
 44
1.0
  0
ENDSEC
  0
SECTION
  2
OBJECTS
  0
DICTIONARY
  5
C
330
0
100
AcDbDictionary
281
     1
  3
ACAD_COLOR
350
63
  3
ACAD_DETAILVIEWSTYLE
350
6A
  3
ACAD_GROUP
350
D
  3
ACAD_LAYOUT
350
62
  3
ACAD_MATERIAL
350
10
  3
ACAD_MLEADERSTYLE
350
66
  3
ACAD_MLINESTYLE
350
5F
  3
ACAD_PLOTSETTINGS
350
61
  3
ACAD_PLOTSTYLENAME
350
E
  3
ACAD_SCALELIST
350
42
  3
ACAD_SECTIONVIEWSTYLE
350
68
  3
ACAD_TABLESTYLE
350
64
  3
ACAD_VISUALSTYLE
350
29
  3
ACDB_RECOMPOSE_DATA
350
14A
  3
AcDbVariableDictionary
350
142
  0
DICTIONARY
  5
63
102
{ACAD_REACTORS
330
C
102
}
330
C
100
AcDbDictionary
281
     1
  0
DICTIONARY
  5
6A
102
{ACAD_REACTORS
330
C
102
}
330
C
100
AcDbDictionary
281
     1
  3
Imperial24
350
6B
  0
DICTIONARY
  5
D
102
{ACAD_REACTORS
330
C
102
}
330
C
100
AcDbDictionary
281
     1
  0
DICTIONARY
  5
62
102
{ACAD_REACTORS
330
C
102
}
330
C
100
AcDbDictionary
281
     1
  3
Layout1
350
6F
  3
Layout2
350
77
  3
Model
350
73
  0
DICTIONARY
  5
10
102
{ACAD_REACTORS
330
C
102
}
330
C
100
AcDbDictionary
281
     1
  3
ByBlock
350
19
  3
ByLayer
350
11
  3
Global
350
21
  0
DICTIONARY
  5
66
102
{ACAD_REACTORS
330
C
102
}
330
C
100
AcDbDictionary
281
     1
  3
Standard
350
67
  0
DICTIONARY
  5
5F
102
{ACAD_REACTORS
330
C
102
}
330
C
100
AcDbDictionary
281
     1
  3
Standard
350
60
  0
DICTIONARY
  5
61
102
{ACAD_REACTORS
330
C
102
}
330
C
100
AcDbDictionary
281
     1
  0
ACDBDICTIONARYWDFLT
  5
E
102
{ACAD_REACTORS
330
C
102
}
330
C
100
AcDbDictionary
281
     1
  3
Normal
350
F
100
AcDbDictionaryWithDefault
340
F
  0
DICTIONARY
  5
42
102
{ACAD_REACTORS
330
C
102
}
330
C
100
AcDbDictionary
281
     1
  3
A0
350
43
  3
A1
350
44
  3
A2
350
45
  3
A3
350
46
  3
A4
350
47
  3
A5
350
48
  3
A6
350
49
  3
A7
350
4A
  3
A8
350
4B
  3
A9
350
4C
  3
B0
350
4D
  3
B1
350
4E
  3
B2
350
4F
  3
B3
350
50
  3
B4
350
51
  3
B5
350
52
  3
B6
350
53
  0
DICTIONARY
  5
68
102
{ACAD_REACTORS
330
C
102
}
330
C
100
AcDbDictionary
281
     1
  3
Imperial24
350
69
  0
DICTIONARY
  5
64
102
{ACAD_REACTORS
330
C
102
}
330
C
100
AcDbDictionary
281
     1
  3
Standard
350
65
  0
DICTIONARY
  5
29
102
{ACAD_REACTORS
330
C
102
}
330
C
100
AcDbDictionary
281
     1
  3
2dWireframe
350
2F
  3
Basic
350
2E
  3
Brighten
350
35
  3
ColorChange
350
39
  3
Conceptual
350
32
  3
Dim
350
34
  3
EdgeColorOff
350
41
  3
Facepattern
350
38
  3
Flat
350
2A
  3
FlatWithEdges
350
2B
  3
Gouraud
350
2C
  3
GouraudWithEdges
350
2D
  3
Hidden
350
31
  3
JitterOff
350
3F
  3
Linepattern
350
37
  3
OverhangOff
350
40
  3
Realistic
350
33
  3
Shaded
350
3E
  3
Shaded with edges
350
3D
  3
Shades of Gray
350
3A
  3
Sketchy
350
3B
  3
Thicken
350
36
  3
Wireframe
350
30
  3
X-Ray
350
3C
  0
XRECORD
  5
14A
102
{ACAD_REACTORS
330
C
102
}
330
C
100
AcDbXrecord
280
     1
 90
        1
330
65
  0
DICTIONARY
  5
142
102
{ACAD_REACTORS
330
C
102
}
330
C
100
AcDbDictionary
281
     1
  3
CANNOSCALE
350
147
  3
CMLEADERSTYLE
350
144
  3
CTABLESTYLE
350
143
  3
CVIEWDETAILSTYLE
350
145
  3
CVIEWSECTIONSTYLE
350
146
  0
ACDBDETAILVIEWSTYLE
  5
6B
102
{ACAD_REACTORS
330
6A
102
}
330
6A
100
AcDbModelDocViewStyle
 70
     0
  3
Imperial24
290
     1
300
Imperial24
 90
        0
100
AcDbDetailViewStyle
 70
     0
 71
     0
 90
        3
 71
     1
340
55
 62
   256
 40
0.24
340
0
 62
   256
 40
0.24
300

 40
0.36
280
     3
 71
     2
340
5D
 90
       25
 62
   256
 71
     3
340
55
 62
   256
 40
0.24
 90
        1
 40
0.75
 90
        1
300
%<\AcVar ViewType \f "%tc1">% %<\AcVar ViewDetailId>%\PSCALE %<\AcVar ViewScale \f "%sn">%
 71
     4
340
5D
 90
       25
 62
   256
340
5D
 90
       25
 62
   256
280
     0
  0
LAYOUT
  5
6F
102
{ACAD_REACTORS
330
62
102
}
330
62
100
AcDbPlotSettings
  1

  2

  4

  6

 40
0.0
 41
0.0
 42
0.0
 43
0.0
 44
0.0
 45
0.0
 46
0.0
 47
0.0
 48
0.0
 49
0.0
140
0.0
141
0.0
142
1.0
143
1.0
 70
   688
 72
     0
 73
     0
 74
     5
  7

 75
    16
147
1.0
 76
     0
 77
     2
 78
   300
148
0.0
149
0.0
100
AcDbLayout
  1
Layout1
 70
     1
 71
     1
 10
0.0
 20
0.0
 11
12.0
 21
9.0
 12
0.0
 22
0.0
 32
0.0
 14
0.0
 24
0.0
 34
0.0
 15
0.0
 25
0.0
 35
0.0
146
0.0
 13
0.0
 23
0.0
 33
0.0
 16
1.0
 26
0.0
 36
0.0
 17
0.0
 27
1.0
 37
0.0
 76
     0
330
6C
  0
LAYOUT
  5
77
102
{ACAD_REACTORS
330
62
102
}
330
62
100
AcDbPlotSettings
  1

  2

  4

  6

 40
0.0
 41
0.0
 42
0.0
 43
0.0
 44
0.0
 45
0.0
 46
0.0
 47
0.0
 48
0.0
 49
0.0
140
0.0
141
0.0
142
1.0
143
1.0
 70
   688
 72
     0
 73
     0
 74
     5
  7

 75
    16
147
1.0
 76
     0
 77
     2
 78
   300
148
0.0
149
0.0
100
AcDbLayout
  1
Layout2
 70
     1
 71
     2
 10
0.0
 20
0.0
 11
12.0
 21
9.0
 12
0.0
 22
0.0
 32
0.0
 14
0.0
 24
0.0
 34
0.0
 15
0.0
 25
0.0
 35
0.0
146
0.0
 13
0.0
 23
0.0
 33
0.0
 16
1.0
 26
0.0
 36
0.0
 17
0.0
 27
1.0
 37
0.0
 76
     0
330
74
  0
LAYOUT
  5
73
102
{ACAD_REACTORS
330
62
102
}
330
62
100
AcDbPlotSettings
  1

  2

  4

  6

 40
0.0
 41
0.0
 42
0.0
 43
0.0
 44
0.0
 45
0.0
 46
0.0
 47
0.0
 48
0.0
 49
0.0
140
0.0
141
0.0
142
1.0
143
1.0
 70
  1712
 72
     0
 73
     0
 74
     0
  7

 75
     0
147
1.0
 76
     0
 77
     2
 78
   300
148
0.0
149
0.0
100
AcDbLayout
  1
Model
 70
     1
 71
     0
 10
0.0
 20
0.0
 11
12.0
 21
9.0
 12
0.0
 22
0.0
 32
0.0
 14
0.0
 24
0.0
 34
0.0
 15
0.0
 25
0.0
 35
0.0
146
0.0
 13
0.0
 23
0.0
 33
0.0
 16
1.0
 26
0.0
 36
0.0
 17
0.0
 27
1.0
 37
0.0
 76
     0
330
70
  0
MATERIAL
  5
19
102
{ACAD_XDICTIONARY
360
1A
102
}
102
{ACAD_REACTORS
330
10
102
}
330
10
100
AcDbMaterial
  1
ByBlock
 72
     0
 43
0.0208333333333333
 43
0.0
 43
0.0
 43
0.0
 43
0.0
 43
0.0208333333333333
 43
0.0
 43
0.0
 43
0.0
 43
0.0
 43
1.0
 43
0.0
 43
0.0
 43
0.0
 43
0.0
 43
1.0
 77
     0
 47
0.0208333333333333
 47
0.0
 47
0.0
 47
0.0
 47
0.0
 47
0.0208333333333333
 47
0.0
 47
0.0
 47
0.0
 47
0.0
 47
1.0
 47
0.0
 47
0.0
 47
0.0
 47
0.0
 47
1.0
171
     0
 49
0.0208333333333333
 49
0.0
 49
0.0
 49
0.0
 49
0.0
 49
0.0208333333333333
 49
0.0
 49
0.0
 49
0.0
 49
0.0
 49
1.0
 49
0.0
 49
0.0
 49
0.0
 49
0.0
 49
1.0
175
     0
142
0.0208333333333333
142
0.0
142
0.0
142
0.0
142
0.0
142
0.0208333333333333
142
0.0
142
0.0
142
0.0
142
0.0
142
1.0
142
0.0
142
0.0
142
0.0
142
0.0
142
1.0
179
     0
144
0.0208333333333333
144
0.0
144
0.0
144
0.0
144
0.0
144
0.0208333333333333
144
0.0
144
0.0
144
0.0
144
0.0
144
1.0
144
0.0
144
0.0
144
0.0
144
0.0
144
1.0
147
0.0208333333333333
147
0.0
147
0.0
147
0.0
147
0.0
147
0.0208333333333333
147
0.0
147
0.0
147
0.0
147
0.0
147
1.0
147
0.0
147
0.0
147
0.0
147
0.0
147
1.0
  0
MATERIAL
  5
11
102
{ACAD_XDICTIONARY
360
12
102
}
102
{ACAD_REACTORS
330
10
102
}
330
10
100
AcDbMaterial
  1
ByLayer
 72
     0
 43
0.0208333333333333
 43
0.0
 43
0.0
 43
0.0
 43
0.0
 43
0.0208333333333333
 43
0.0
 43
0.0
 43
0.0
 43
0.0
 43
1.0
 43
0.0
 43
0.0
 43
0.0
 43
0.0
 43
1.0
 77
     0
 47
0.0208333333333333
 47
0.0
 47
0.0
 47
0.0
 47
0.0
 47
0.0208333333333333
 47
0.0
 47
0.0
 47
0.0
 47
0.0
 47
1.0
 47
0.0
 47
0.0
 47
0.0
 47
0.0
 47
1.0
171
     0
 49
0.0208333333333333
 49
0.0
 49
0.0
 49
0.0
 49
0.0
 49
0.0208333333333333
 49
0.0
 49
0.0
 49
0.0
 49
0.0
 49
1.0
 49
0.0
 49
0.0
 49
0.0
 49
0.0
 49
1.0
175
     0
142
0.0208333333333333
142
0.0
142
0.0
142
0.0
142
0.0
142
0.0208333333333333
142
0.0
142
0.0
142
0.0
142
0.0
142
1.0
142
0.0
142
0.0
142
0.0
142
0.0
142
1.0
179
     0
144
0.0208333333333333
144
0.0
144
0.0
144
0.0
144
0.0
144
0.0208333333333333
144
0.0
144
0.0
144
0.0
144
0.0
144
1.0
144
0.0
144
0.0
144
0.0
144
0.0
144
1.0
147
0.0208333333333333
147
0.0
147
0.0
147
0.0
147
0.0
147
0.0208333333333333
147
0.0
147
0.0
147
0.0
147
0.0
147
1.0
147
0.0
147
0.0
147
0.0
147
0.0
147
1.0
  0
MATERIAL
  5
21
102
{ACAD_XDICTIONARY
360
22
102
}
102
{ACAD_REACTORS
330
10
102
}
330
10
100
AcDbMaterial
  1
Global
 72
     0
 43
0.0208333333333333
 43
0.0
 43
0.0
 43
0.0
 43
0.0
 43
0.0208333333333333
 43
0.0
 43
0.0
 43
0.0
 43
0.0
 43
1.0
 43
0.0
 43
0.0
 43
0.0
 43
0.0
 43
1.0
 77
     0
 47
0.0208333333333333
 47
0.0
 47
0.0
 47
0.0
 47
0.0
 47
0.0208333333333333
 47
0.0
 47
0.0
 47
0.0
 47
0.0
 47
1.0
 47
0.0
 47
0.0
 47
0.0
 47
0.0
 47
1.0
171
     0
 49
0.0208333333333333
 49
0.0
 49
0.0
 49
0.0
 49
0.0
 49
0.0208333333333333
 49
0.0
 49
0.0
 49
0.0
 49
0.0
 49
1.0
 49
0.0
 49
0.0
 49
0.0
 49
0.0
 49
1.0
175
     0
142
0.0208333333333333
142
0.0
142
0.0
142
0.0
142
0.0
142
0.0208333333333333
142
0.0
142
0.0
142
0.0
142
0.0
142
1.0
142
0.0
142
0.0
142
0.0
142
0.0
142
1.0
179
     0
144
0.0208333333333333
144
0.0
144
0.0
144
0.0
144
0.0
144
0.0208333333333333
144
0.0
144
0.0
144
0.0
144
0.0
144
1.0
144
0.0
144
0.0
144
0.0
144
0.0
144
1.0
147
0.0208333333333333
147
0.0
147
0.0
147
0.0
147
0.0
147
0.0208333333333333
147
0.0
147
0.0
147
0.0
147
0.0
147
1.0
147
0.0
147
0.0
147
0.0
147
0.0
147
1.0
  0
MLEADERSTYLE
  5
67
102
{ACAD_REACTORS
330
66
102
}
330
66
100
AcDbMLeaderStyle
179
     2
170
     2
171
     1
172
     0
 90
        2
 40
0.0
 41
0.0
173
     1
 91
-1056964608
340
5B
 92
       -2
290
     1
 42
0.09
291
     1
 43
0.36
  3
Standard
 44
0.18
300

342
55
174
     1
178
     6
175
     1
176
     0
 93
-1056964608
 45
0.18
292
     0
297
     0
 46
0.18
 94
-1056964608
 47
1.0
 49
1.0
140
1.0
293
     1
141
0.0
294
     1
177
     0
142
1.0
295
     1
296
     0
143
0.125
271
     0
272
     9
273
     9
298
     1
  0
MLINESTYLE
  5
60
102
{ACAD_REACTORS
330
5F
102
}
330
5F
100
AcDbMlineStyle
  2
STANDARD
 70
     0
  3

 62
   256
 51
90.0
 52
90.0
 71
     2
 49
0.5
 62
   256
  6
BYLAYER
 49
-0.5
 62
   256
  6
BYLAYER
  0
ACDBPLACEHOLDER
  5
F
102
{ACAD_REACTORS
330
E
102
}
330
E
  0
SCALE
  5
43
102
{ACAD_REACTORS
330
42
102
}
330
42
100
AcDbScale
 70
     0
300
1:1
140
1.0
141
1.0
290
     1
  0
SCALE
  5
44
102
{ACAD_REACTORS
330
42
102
}
330
42
100
AcDbScale
 70
     0
300
1/128" = 1'-0"
140
0.0078125
141
12.0
290
     0
  0
SCALE
  5
45
102
{ACAD_REACTORS
330
42
102
}
330
42
100
AcDbScale
 70
     0
300
1/64" = 1'-0"
140
0.015625
141
12.0
290
     0
  0
SCALE
  5
46
102
{ACAD_REACTORS
330
42
102
}
330
42
100
AcDbScale
 70
     0
300
1/32" = 1'-0"
140
0.03125
141
12.0
290
     0
  0
SCALE
  5
47
102
{ACAD_REACTORS
330
42
102
}
330
42
100
AcDbScale
 70
     0
300
1/16" = 1'-0"
140
0.0625
141
12.0
290
     0
  0
SCALE
  5
48
102
{ACAD_REACTORS
330
42
102
}
330
42
100
AcDbScale
 70
     0
300
3/32" = 1'-0"
140
0.09375
141
12.0
290
     0
  0
SCALE
  5
49
102
{ACAD_REACTORS
330
42
102
}
330
42
100
AcDbScale
 70
     0
300
1/8" = 1'-0"
140
0.125
141
12.0
290
     0
  0
SCALE
  5
4A
102
{ACAD_REACTORS
330
42
102
}
330
42
100
AcDbScale
 70
     0
300
3/16" = 1'-0"
140
0.1875
141
12.0
290
     0
  0
SCALE
  5
4B
102
{ACAD_REACTORS
330
42
102
}
330
42
100
AcDbScale
 70
     0
300
1/4" = 1'-0"
140
0.25
141
12.0
290
     0
  0
SCALE
  5
4C
102
{ACAD_REACTORS
330
42
102
}
330
42
100
AcDbScale
 70
     0
300
3/8" = 1'-0"
140
0.375
141
12.0
290
     0
  0
SCALE
  5
4D
102
{ACAD_REACTORS
330
42
102
}
330
42
100
AcDbScale
 70
     0
300
1/2" = 1'-0"
140
0.5
141
12.0
290
     0
  0
SCALE
  5
4E
102
{ACAD_REACTORS
330
42
102
}
330
42
100
AcDbScale
 70
     0
300
3/4" = 1'-0"
140
0.75
141
12.0
290
     0
  0
SCALE
  5
4F
102
{ACAD_REACTORS
330
42
102
}
330
42
100
AcDbScale
 70
     0
300
1" = 1'-0"
140
1.0
141
12.0
290
     0
  0
SCALE
  5
50
102
{ACAD_REACTORS
330
42
102
}
330
42
100
AcDbScale
 70
     0
300
1-1/2" = 1'-0"
140
1.5
141
12.0
290
     0
  0
SCALE
  5
51
102
{ACAD_REACTORS
330
42
102
}
330
42
100
AcDbScale
 70
     0
300
3" = 1'-0"
140
3.0
141
12.0
290
     0
  0
SCALE
  5
52
102
{ACAD_REACTORS
330
42
102
}
330
42
100
AcDbScale
 70
     0
300
6" = 1'-0"
140
6.0
141
12.0
290
     0
  0
SCALE
  5
53
102
{ACAD_REACTORS
330
42
102
}
330
42
100
AcDbScale
 70
     0
300
1'-0" = 1'-0"
140
12.0
141
12.0
290
     0
  0
ACDBSECTIONVIEWSTYLE
  5
69
102
{ACAD_REACTORS
330
68
102
}
330
68
100
AcDbModelDocViewStyle
 70
     0
  3
Imperial24
290
     1
300
Imperial24
 90
        0
100
AcDbSectionViewStyle
 70
     0
 71
     0
 90
       78
 71
     1
340
55
 62
   256
 40
0.24
340
0
340
0
 62
   256
 40
0.24
300
I, O, Q, S, X, Z
 40
0.48
 90
        3
 40
0.18
 90
        1
 71
     2
340
5D
 90
       25
 62
   256
340
5D
 90
       50
 62
   256
 40
0.24
 40
0.0
 40
0.24
 71
     3
340
55
 62
   256
 40
0.24
 90
        1
 40
0.75
 90
        1
300
%<\AcVar ViewType \f "%tc1">% %<\AcVar ViewSectionStartId>%-%<\AcVar ViewSectionEndId>%\PSCALE %<\AcVar ViewScale \f "%sn">%
 71
     4
 62
   256
 62
   257
300
ANSI31
 40
1.0
 90
        0
290
     0
290
     0
 90
        6
 40
0.0
 40
1.570796326794896
 40
0.2617993877991494
 40
1.308996938995747
 40
-0.2617993877991494
 40
1.832595714594046
  0
TABLESTYLE
  5
65
102
{ACAD_XDICTIONARY
360
148
102
}
102
{ACAD_REACTORS
330
64
102
}
330
64
100
AcDbTableStyle
280
     0
  3
Standard
 70
     0
 71
     0
 40
0.06
 41
0.06
280
     0
281
     0
  7
Standard
140
0.18
170
     2
 62
     0
 63
     7
283
     0
 90
      512
 91
        0
  1

274
    -2
284
     1
 64
     0
275
    -2
285
     1
 65
     0
276
    -2
286
     1
 66
     0
277
    -2
287
     1
 67
     0
278
    -2
288
     1
 68
     0
279
    -2
289
     1
 69
     0
  7
Standard
140
0.25
170
     5
 62
     0
 63
     7
283
     0
 90
      512
 91
        0
  1

274
    -2
284
     1
 64
     0
275
    -2
285
     1
 65
     0
276
    -2
286
     1
 66
     0
277
    -2
287
     1
 67
     0
278
    -2
288
     1
 68
     0
279
    -2
289
     1
 69
     0
  7
Standard
140
0.18
170
     5
 62
     0
 63
     7
283
     0
 90
      512
 91
        0
  1

274
    -2
284
     1
 64
     0
275
    -2
285
     1
 65
     0
276
    -2
286
     1
 66
     0
277
    -2
287
     1
 67
     0
278
    -2
288
     1
 68
     0
279
    -2
289
     1
 69
     0
  0
VISUALSTYLE
  5
2F
102
{ACAD_REACTORS
330
29
102
}
330
29
100
AcDbVisualStyle
  2
2dWireframe
 70
     4
177
     3
291
     0
 70
    58
 90
        0
176
     1
 90
        2
176
     1
 90
        0
176
     1
 90
        0
176
     1
 40
0.6
176
     1
 40
30.0
176
     1
 62
     7
420
 16777215
176
     1
 90
        1
176
     1
 90
        4
176
     1
 62
     7
176
     1
 62
   257
176
     1
 90
        1
176
     1
 90
        1
176
     1
 40
1.0
176
     1
 90
        0
176
     1
 62
   257
176
     1
 40
1.0
176
     1
 90
        1
176
     1
 90
        6
176
     1
 90
        2
176
     1
 62
     7
176
     1
 90
        5
176
     1
 90
        0
176
     1
 90
        0
176
     1
290
     0
176
     1
 90
        1
176
     1
 40
0.0
176
     1
 90
        0
176
     1
290
     1
176
     1
290
     1
176
     1
290
     0
176
     1
290
     0
176
     1
290
     0
176
     1
290
     0
176
     1
290
     0
176
     1
290
     0
176
     1
290
     0
176
     1
 90
       50
176
     1
 40
0.0
176
     1
 40
1.0
176
     1
 90
        0
176
     1
 62
    18
420
        0
176
     1
 90
       50
176
     1
 90
        3
176
     1
 62
     5
420
      255
176
     1
290
     0
176
     1
 90
       50
176
     1
 90
       50
176
     1
 90
       50
176
     1
290
     0
176
     1
 90
       50
176
     1
 62
   256
176
     0
 40
1.0
176
     0
 90
        2
176
     1
  1
strokes_ogs.tif
176
     1
290
     0
176
     1
 40
1.0
176
     1
 40
1.0
176
     1
  0
VISUALSTYLE
  5
2E
102
{ACAD_REACTORS
330
29
102
}
330
29
100
AcDbVisualStyle
  2
Basic
 70
     7
177
     3
291
     1
 70
    58
 90
        1
176
     1
 90
        0
176
     1
 90
        1
176
     1
 90
        0
176
     1
 40
0.6
176
     1
 40
30.0
176
     1
 62
     7
420
 16777215
176
     1
 90
        0
176
     1
 90
        4
176
     1
 62
     7
176
     1
 62
   257
176
     1
 90
        1
176
     1
 90
        1
176
     1
 40
1.0
176
     1
 90
        8
176
     1
 62
     7
176
     1
 40
1.0
176
     1
 90
        1
176
     1
 90
        6
176
     1
 90
        2
176
     1
 62
     7
176
     1
 90
        5
176
     1
 90
        0
176
     1
 90
        0
176
     1
290
     0
176
     1
 90
        1
176
     1
 40
0.0
176
     1
 90
        0
176
     1
290
     0
176
     1
290
     1
176
     1
290
     1
176
     1
290
     0
176
     1
290
     0
176
     1
290
     0
176
     1
290
     0
176
     1
290
     0
176
     1
290
     0
176
     1
 90
       50
176
     1
 40
0.0
176
     1
 40
1.0
176
     1
 90
        0
176
     1
 62
    18
420
        0
176
     1
 90
       50
176
     1
 90
        3
176
     1
 62
     5
420
      255
176
     1
290
     0
176
     1
 90
       50
176
     1
 90
       50
176
     1
 90
       50
176
     1
290
     0
176
     1
 90
       50
176
     1
 62
   256
176
     0
 40
1.0
176
     0
 90
        2
176
     1
  1
strokes_ogs.tif
176
     1
290
     0
176
     1
 40
1.0
176
     1
 40
1.0
176
     1
  0
VISUALSTYLE
  5
35
102
{ACAD_REACTORS
330
29
102
}
330
29
100
AcDbVisualStyle
  2
Brighten
 70
    12
177
     3
291
     1
 70
    58
 90
        2
176
     1
 90
        2
176
     1
 90
        0
176
     1
 90
        0
176
     1
 40
0.6
176
     1
 40
30.0
176
     1
 62
     7
420
 16777215
176
     1
 90
        1
176
     1
 90
        4
176
     1
 62
     7
176
     1
 62
   257
176
     1
 90
        1
176
     1
 90
        1
176
     1
 40
1.0
176
     1
 90
        8
176
     1
 62
     7
176
     1
 40
1.0
176
     1
 90
        1
176
     1
 90
        6
176
     1
 90
        2
176
     1
 62
     7
176
     1
 90
        5
176
     1
 90
        0
176
     1
 90
        0
176
     1
290
     0
176
     1
 90
        1
176
     1
 40
50.0
176
     1
 90
        0
176
     1
290
     0
176
     1
290
     1
176
     1
290
     1
176
     1
290
     0
176
     1
290
     0
176
     1
290
     0
176
     1
290
     0
176
     1
290
     0
176
     1
290
     0
176
     1
 90
       50
176
     1
 40
0.0
176
     1
 40
1.0
176
     1
 90
        0
176
     1
 62
    18
420
        0
176
     1
 90
       50
176
     1
 90
        3
176
     1
 62
     5
420
      255
176
     1
290
     0
176
     1
 90
       50
176
     1
 90
       50
176
     1
 90
       50
176
     1
290
     0
176
     1
 90
       50
176
     1
 62
   256
176
     0
 40
1.0
176
     0
 90
        2
176
     1
  1
strokes_ogs.tif
176
     1
290
     0
176
     1
 40
1.0
176
     1
 40
1.0
176
     1
  0
VISUALSTYLE
  5
39
102
{ACAD_REACTORS
330
29
102
}
330
29
100
AcDbVisualStyle
  2
ColorChange
 70
    16
177
     3
291
     1
 70
    58
 90
        2
176
     1
 90
        2
176
     1
 90
        3
176
     1
 90
        0
176
     1
 40
0.6
176
     1
 40
30.0
176
     1
 62
     8
420
  8421504
176
     1
 90
        1
176
     1
 90
        4
176
     1
 62
     7
176
     1
 62
   257
176
     1
 90
        1
176
     1
 90
        1
176
     1
 40
1.0
176
     1
 90
        8
176
     1
 62
     8
420
  8421504
176
     1
 40
1.0
176
     1
 90
        1
176
     1
 90
        6
176
     1
 90
        2
176
     1
 62
     7
176
     1
 90
        5
176
     1
 90
        0
176
     1
 90
        0
176
     1
290
     0
176
     1
 90
        1
176
     1
 40
0.0
176
     1
 90
        0
176
     1
290
     0
176
     1
290
     1
176
     1
290
     1
176
     1
290
     0
176
     1
290
     0
176
     1
290
     0
176
     1
290
     0
176
     1
290
     0
176
     1
290
     0
176
     1
 90
       50
176
     1
 40
0.0
176
     1
 40
1.0
176
     1
 90
        0
176
     1
 62
    18
420
        0
176
     1
 90
       50
176
     1
 90
        3
176
     1
 62
     5
420
      255
176
     1
290
     0
176
     1
 90
       50
176
     1
 90
       50
176
     1
 90
       50
176
     1
290
     0
176
     1
 90
       50
176
     1
 62
   256
176
     0
 40
1.0
176
     0
 90
        2
176
     1
  1
strokes_ogs.tif
176
     1
290
     0
176
     1
 40
1.0
176
     1
 40
1.0
176
     1
  0
VISUALSTYLE
  5
32
102
{ACAD_REACTORS
330
29
102
}
330
29
100
AcDbVisualStyle
  2
Conceptual
 70
     9
177
     3
291
     0
 70
    58
 90
        3
176
     1
 90
        2
176
     1
 90
        0
176
     1
 90
        0
176
     1
 40
0.6
176
     1
 40
30.0
176
     1
 62
     7
420
 16777215
176
     1
 90
        2
176
     1
 90
        2
176
     1
 62
     7
176
     1
 62
   257
176
     1
 90
        1
176
     1
 90
        1
176
     1
 40
179.0
176
     1
 90
        8
176
     1
 62
     7
176
     1
 40
1.0
176
     1
 90
        1
176
     1
 90
        6
176
     1
 90
        2
176
     1
 62
     7
176
     1
 90
        3
176
     1
 90
        0
176
     1
 90
        0
176
     1
290
     0
176
     1
 90
        1
176
     1
 40
0.0
176
     1
 90
        0
176
     1
290
     0
176
     1
290
     1
176
     1
290
     1
176
     1
290
     0
176
     1
290
     0
176
     1
290
     0
176
     1
290
     0
176
     1
290
     0
176
     1
290
     0
176
     1
 90
       50
176
     1
 40
0.0
176
     1
 40
1.0
176
     1
 90
        0
176
     1
 62
    18
420
        0
176
     1
 90
       50
176
     1
 90
        3
176
     1
 62
     5
420
      255
176
     1
290
     0
176
     1
 90
       50
176
     1
 90
       50
176
     1
 90
       50
176
     1
290
     0
176
     1
 90
       50
176
     1
 62
   256
176
     0
 40
1.0
176
     0
 90
        2
176
     1
  1
strokes_ogs.tif
176
     1
290
     0
176
     1
 40
1.0
176
     1
 40
1.0
176
     1
  0
VISUALSTYLE
  5
34
102
{ACAD_REACTORS
330
29
102
}
330
29
100
AcDbVisualStyle
  2
Dim
 70
    11
177
     3
291
     1
 70
    58
 90
        2
176
     1
 90
        2
176
     1
 90
        0
176
     1
 90
        0
176
     1
 40
0.6
176
     1
 40
30.0
176
     1
 62
     7
420
 16777215
176
     1
 90
        1
176
     1
 90
        4
176
     1
 62
     7
176
     1
 62
   257
176
     1
 90
        1
176
     1
 90
        1
176
     1
 40
1.0
176
     1
 90
        8
176
     1
 62
     7
176
     1
 40
1.0
176
     1
 90
        1
176
     1
 90
        6
176
     1
 90
        2
176
     1
 62
     7
176
     1
 90
        5
176
     1
 90
        0
176
     1
 90
        0
176
     1
290
     0
176
     1
 90
        1
176
     1
 40
-50.0
176
     1
 90
        0
176
     1
290
     0
176
     1
290
     1
176
     1
290
     1
176
     1
290
     0
176
     1
290
     0
176
     1
290
     0
176
     1
290
     0
176
     1
290
     0
176
     1
290
     0
176
     1
 90
       50
176
     1
 40
0.0
176
     1
 40
1.0
176
     1
 90
        0
176
     1
 62
    18
420
        0
176
     1
 90
       50
176
     1
 90
        3
176
     1
 62
     5
420
      255
176
     1
290
     0
176
     1
 90
       50
176
     1
 90
       50
176
     1
 90
       50
176
     1
290
     0
176
     1
 90
       50
176
     1
 62
   256
176
     0
 40
1.0
176
     0
 90
        2
176
     1
  1
strokes_ogs.tif
176
     1
290
     0
176
     1
 40
1.0
176
     1
 40
1.0
176
     1
  0
VISUALSTYLE
  5
41
102
{ACAD_REACTORS
330
29
102
}
330
29
100
AcDbVisualStyle
  2
EdgeColorOff
 70
    22
177
     3
291
     1
 70
    58
 90
        2
176
     0
 90
        2
176
     0
 90
        0
176
     0
 90
        0
176
     0
 40
0.6
176
     0
 40
30.0
176
     0
 62
     7
420
 16777215
176
     0
 90
        1
176
     0
 90
        4
176
     0
 62
     7
176
     0
 62
   257
176
     0
 90
        1
176
     0
 90
        1
176
     0
 40
1.0
176
     0
 90
        8
176
     2
 62
     7
176
     0
 40
1.0
176
     0
 90
        1
176
     0
 90
        6
176
     0
 90
        2
176
     0
 62
     7
176
     0
 90
        5
176
     0
 90
        0
176
     0
 90
        0
176
     0
290
     0
176
     0
 90
        1
176
     0
 40
0.0
176
     0
 90
        0
176
     0
290
     0
176
     0
290
     1
176
     0
290
     1
176
     0
290
     0
176
     0
290
     0
176
     0
290
     0
176
     0
290
     0
176
     0
290
     0
176
     0
290
     0
176
     0
 90
       50
176
     0
 40
0.0
176
     0
 40
1.0
176
     0
 90
        0
176
     0
 62
    18
420
        0
176
     0
 90
       50
176
     0
 90
        3
176
     0
 62
     5
420
      255
176
     0
290
     0
176
     0
 90
       50
176
     0
 90
       50
176
     0
 90
       50
176
     0
290
     0
176
     0
 90
       50
176
     0
 62
   256
176
     0
 40
1.0
176
     0
 90
        2
176
     0
  1
strokes_ogs.tif
176
     0
290
     0
176
     0
 40
1.0
176
     0
 40
1.0
176
     0
  0
VISUALSTYLE
  5
38
102
{ACAD_REACTORS
330
29
102
}
330
29
100
AcDbVisualStyle
  2
Facepattern
 70
    15
177
     3
291
     1
 70
    58
 90
        2
176
     1
 90
        2
176
     1
 90
        0
176
     1
 90
        0
176
     1
 40
0.6
176
     1
 40
30.0
176
     1
 62
     7
420
 16777215
176
     1
 90
        1
176
     1
 90
        4
176
     1
 62
     7
176
     1
 62
   257
176
     1
 90
        1
176
     1
 90
        1
176
     1
 40
1.0
176
     1
 90
        8
176
     1
 62
     7
176
     1
 40
1.0
176
     1
 90
        1
176
     1
 90
        6
176
     1
 90
        2
176
     1
 62
     7
176
     1
 90
        5
176
     1
 90
        0
176
     1
 90
        0
176
     1
290
     0
176
     1
 90
        1
176
     1
 40
0.0
176
     1
 90
        0
176
     1
290
     0
176
     1
290
     1
176
     1
290
     1
176
     1
290
     0
176
     1
290
     0
176
     1
290
     0
176
     1
290
     0
176
     1
290
     0
176
     1
290
     0
176
     1
 90
       50
176
     1
 40
0.0
176
     1
 40
1.0
176
     1
 90
        0
176
     1
 62
    18
420
        0
176
     1
 90
       50
176
     1
 90
        3
176
     1
 62
     5
420
      255
176
     1
290
     0
176
     1
 90
       50
176
     1
 90
       50
176
     1
 90
       50
176
     1
290
     0
176
     1
 90
       50
176
     1
 62
   256
176
     0
 40
1.0
176
     0
 90
        2
176
     1
  1
strokes_ogs.tif
176
     1
290
     0
176
     1
 40
1.0
176
     1
 40
1.0
176
     1
  0
VISUALSTYLE
  5
2A
102
{ACAD_REACTORS
330
29
102
}
330
29
100
AcDbVisualStyle
  2
Flat
 70
     0
177
     3
291
     1
 70
    58
 90
        2
176
     1
 90
        1
176
     1
 90
        1
176
     1
 90
        2
176
     1
 40
0.6
176
     1
 40
30.0
176
     1
 62
     7
420
 16777215
176
     1
 90
        0
176
     1
 90
        0
176
     1
 62
     7
176
     1
 62
   257
176
     1
 90
        1
176
     1
 90
        1
176
     1
 40
1.0
176
     1
 90
        8
176
     1
 62
     7
176
     1
 40
1.0
176
     1
 90
        1
176
     1
 90
        6
176
     1
 90
        2
176
     1
 62
     7
176
     1
 90
        5
176
     1
 90
        0
176
     1
 90
        0
176
     1
290
     0
176
     1
 90
       13
176
     1
 40
0.0
176
     1
 90
        0
176
     1
290
     0
176
     1
290
     1
176
     1
290
     1
176
     1
290
     0
176
     1
290
     0
176
     1
290
     0
176
     1
290
     0
176
     1
290
     0
176
     1
290
     0
176
     1
 90
       50
176
     1
 40
0.0
176
     1
 40
1.0
176
     1
 90
        0
176
     1
 62
    18
420
        0
176
     1
 90
       50
176
     1
 90
        3
176
     1
 62
     5
420
      255
176
     1
290
     0
176
     1
 90
       50
176
     1
 90
       50
176
     1
 90
       50
176
     1
290
     0
176
     1
 90
       50
176
     1
 62
   256
176
     0
 40
1.0
176
     0
 90
        2
176
     1
  1
strokes_ogs.tif
176
     1
290
     0
176
     1
 40
1.0
176
     1
 40
1.0
176
     1
  0
VISUALSTYLE
  5
2B
102
{ACAD_REACTORS
330
29
102
}
330
29
100
AcDbVisualStyle
  2
FlatWithEdges
 70
     1
177
     3
291
     1
 70
    58
 90
        2
176
     1
 90
        1
176
     1
 90
        1
176
     1
 90
        2
176
     1
 40
0.6
176
     1
 40
30.0
176
     1
 62
     7
420
 16777215
176
     1
 90
        1
176
     1
 90
        0
176
     1
 62
     7
176
     1
 62
   257
176
     1
 90
        1
176
     1
 90
        1
176
     1
 40
1.0
176
     1
 90
        0
176
     1
 62
   257
176
     1
 40
1.0
176
     1
 90
        1
176
     1
 90
        6
176
     1
 90
        2
176
     1
 62
     7
176
     1
 90
        5
176
     1
 90
        0
176
     1
 90
        0
176
     1
290
     0
176
     1
 90
       13
176
     1
 40
0.0
176
     1
 90
        0
176
     1
290
     0
176
     1
290
     1
176
     1
290
     1
176
     1
290
     0
176
     1
290
     0
176
     1
290
     0
176
     1
290
     0
176
     1
290
     0
176
     1
290
     0
176
     1
 90
       50
176
     1
 40
0.0
176
     1
 40
1.0
176
     1
 90
        0
176
     1
 62
    18
420
        0
176
     1
 90
       50
176
     1
 90
        3
176
     1
 62
     5
420
      255
176
     1
290
     0
176
     1
 90
       50
176
     1
 90
       50
176
     1
 90
       50
176
     1
290
     0
176
     1
 90
       50
176
     1
 62
   256
176
     0
 40
1.0
176
     0
 90
        2
176
     1
  1
strokes_ogs.tif
176
     1
290
     0
176
     1
 40
1.0
176
     1
 40
1.0
176
     1
  0
VISUALSTYLE
  5
2C
102
{ACAD_REACTORS
330
29
102
}
330
29
100
AcDbVisualStyle
  2
Gouraud
 70
     2
177
     3
291
     1
 70
    58
 90
        2
176
     1
 90
        2
176
     1
 90
        1
176
     1
 90
        2
176
     1
 40
0.6
176
     1
 40
30.0
176
     1
 62
     7
420
 16777215
176
     1
 90
        0
176
     1
 90
        0
176
     1
 62
     7
176
     1
 62
   257
176
     1
 90
        1
176
     1
 90
        1
176
     1
 40
1.0
176
     1
 90
        0
176
     1
 62
     7
176
     1
 40
1.0
176
     1
 90
        1
176
     1
 90
        6
176
     1
 90
        2
176
     1
 62
     7
176
     1
 90
        5
176
     1
 90
        0
176
     1
 90
        0
176
     1
290
     0
176
     1
 90
       13
176
     1
 40
0.0
176
     1
 90
        0
176
     1
290
     0
176
     1
290
     1
176
     1
290
     1
176
     1
290
     0
176
     1
290
     0
176
     1
290
     0
176
     1
290
     0
176
     1
290
     0
176
     1
290
     0
176
     1
 90
       50
176
     1
 40
0.0
176
     1
 40
1.0
176
     1
 90
        0
176
     1
 62
    18
420
        0
176
     1
 90
       50
176
     1
 90
        3
176
     1
 62
     5
420
      255
176
     1
290
     0
176
     1
 90
       50
176
     1
 90
       50
176
     1
 90
       50
176
     1
290
     0
176
     1
 90
       50
176
     1
 62
   256
176
     0
 40
1.0
176
     0
 90
        2
176
     1
  1
strokes_ogs.tif
176
     1
290
     0
176
     1
 40
1.0
176
     1
 40
1.0
176
     1
  0
VISUALSTYLE
  5
2D
102
{ACAD_REACTORS
330
29
102
}
330
29
100
AcDbVisualStyle
  2
GouraudWithEdges
 70
     3
177
     3
291
     1
 70
    58
 90
        2
176
     1
 90
        2
176
     1
 90
        1
176
     1
 90
        2
176
     1
 40
0.6
176
     1
 40
30.0
176
     1
 62
     7
420
 16777215
176
     1
 90
        1
176
     1
 90
        0
176
     1
 62
     7
176
     1
 62
   257
176
     1
 90
        1
176
     1
 90
        1
176
     1
 40
1.0
176
     1
 90
        0
176
     1
 62
   257
176
     1
 40
1.0
176
     1
 90
        1
176
     1
 90
        6
176
     1
 90
        2
176
     1
 62
     7
176
     1
 90
        5
176
     1
 90
        0
176
     1
 90
        0
176
     1
290
     0
176
     1
 90
       13
176
     1
 40
0.0
176
     1
 90
        0
176
     1
290
     0
176
     1
290
     1
176
     1
290
     1
176
     1
290
     0
176
     1
290
     0
176
     1
290
     0
176
     1
290
     0
176
     1
290
     0
176
     1
290
     0
176
     1
 90
       50
176
     1
 40
0.0
176
     1
 40
1.0
176
     1
 90
        0
176
     1
 62
    18
420
        0
176
     1
 90
       50
176
     1
 90
        3
176
     1
 62
     5
420
      255
176
     1
290
     0
176
     1
 90
       50
176
     1
 90
       50
176
     1
 90
       50
176
     1
290
     0
176
     1
 90
       50
176
     1
 62
   256
176
     0
 40
1.0
176
     0
 90
        2
176
     1
  1
strokes_ogs.tif
176
     1
290
     0
176
     1
 40
1.0
176
     1
 40
1.0
176
     1
  0
VISUALSTYLE
  5
31
102
{ACAD_REACTORS
330
29
102
}
330
29
100
AcDbVisualStyle
  2
Hidden
 70
     6
177
     3
291
     0
 70
    58
 90
        1
176
     1
 90
        2
176
     1
 90
        2
176
     1
 90
        0
176
     1
 40
0.6
176
     1
 40
30.0
176
     1
 62
     7
420
 16777215
176
     1
 90
        2
176
     1
 90
        2
176
     1
 62
     7
176
     1
 62
   257
176
     1
 90
        2
176
     1
 90
        1
176
     1
 40
40.0
176
     1
 90
        0
176
     1
 62
   257
176
     1
 40
1.0
176
     1
 90
        1
176
     1
 90
        6
176
     1
 90
        2
176
     1
 62
     7
176
     1
 90
        3
176
     1
 90
        0
176
     1
 90
        0
176
     1
290
     0
176
     1
 90
        1
176
     1
 40
0.0
176
     1
 90
        0
176
     1
290
     0
176
     1
290
     1
176
     1
290
     1
176
     1
290
     0
176
     1
290
     0
176
     1
290
     0
176
     1
290
     0
176
     1
290
     0
176
     1
290
     0
176
     1
 90
       50
176
     1
 40
0.0
176
     1
 40
1.0
176
     1
 90
        0
176
     1
 62
    18
420
        0
176
     1
 90
       50
176
     1
 90
        3
176
     1
 62
     5
420
      255
176
     1
290
     0
176
     1
 90
       50
176
     1
 90
       50
176
     1
 90
       50
176
     1
290
     0
176
     1
 90
       50
176
     1
 62
   256
176
     0
 40
1.0
176
     0
 90
        2
176
     1
  1
strokes_ogs.tif
176
     1
290
     0
176
     1
 40
1.0
176
     1
 40
1.0
176
     1
  0
VISUALSTYLE
  5
3F
102
{ACAD_REACTORS
330
29
102
}
330
29
100
AcDbVisualStyle
  2
JitterOff
 70
    20
177
     3
291
     1
 70
    58
 90
        2
176
     0
 90
        2
176
     0
 90
        0
176
     0
 90
        0
176
     0
 40
0.6
176
     0
 40
30.0
176
     0
 62
     7
420
 16777215
176
     0
 90
        1
176
     0
 90
        4
176
     0
 62
     7
176
     0
 62
   257
176
     0
 90
        1
176
     0
 90
        1
176
     0
 40
1.0
176
     0
 90
       10
176
     2
 62
     7
176
     0
 40
1.0
176
     0
 90
        1
176
     0
 90
        6
176
     0
 90
        2
176
     0
 62
     7
176
     0
 90
        5
176
     0
 90
        0
176
     0
 90
        0
176
     0
290
     0
176
     0
 90
        1
176
     0
 40
0.0
176
     0
 90
        0
176
     0
290
     0
176
     0
290
     1
176
     0
290
     1
176
     0
290
     0
176
     0
290
     0
176
     0
290
     0
176
     0
290
     0
176
     0
290
     0
176
     0
290
     0
176
     0
 90
       50
176
     0
 40
0.0
176
     0
 40
1.0
176
     0
 90
        0
176
     0
 62
    18
420
        0
176
     0
 90
       50
176
     0
 90
        3
176
     0
 62
     5
420
      255
176
     0
290
     0
176
     0
 90
       50
176
     0
 90
       50
176
     0
 90
       50
176
     0
290
     0
176
     0
 90
       50
176
     0
 62
   256
176
     0
 40
1.0
176
     0
 90
        2
176
     0
  1
strokes_ogs.tif
176
     0
290
     0
176
     0
 40
1.0
176
     0
 40
1.0
176
     0
  0
VISUALSTYLE
  5
37
102
{ACAD_REACTORS
330
29
102
}
330
29
100
AcDbVisualStyle
  2
Linepattern
 70
    14
177
     3
291
     1
 70
    58
 90
        2
176
     1
 90
        2
176
     1
 90
        0
176
     1
 90
        0
176
     1
 40
0.6
176
     1
 40
30.0
176
     1
 62
     7
420
 16777215
176
     1
 90
        1
176
     1
 90
        4
176
     1
 62
     7
176
     1
 62
   257
176
     1
 90
        7
176
     1
 90
        7
176
     1
 40
1.0
176
     1
 90
        8
176
     1
 62
     7
176
     1
 40
1.0
176
     1
 90
        1
176
     1
 90
        6
176
     1
 90
        2
176
     1
 62
     7
176
     1
 90
        5
176
     1
 90
        0
176
     1
 90
        0
176
     1
290
     0
176
     1
 90
        1
176
     1
 40
0.0
176
     1
 90
        0
176
     1
290
     0
176
     1
290
     1
176
     1
290
     1
176
     1
290
     0
176
     1
290
     0
176
     1
290
     0
176
     1
290
     0
176
     1
290
     0
176
     1
290
     0
176
     1
 90
       50
176
     1
 40
0.0
176
     1
 40
1.0
176
     1
 90
        0
176
     1
 62
    18
420
        0
176
     1
 90
       50
176
     1
 90
        3
176
     1
 62
     5
420
      255
176
     1
290
     0
176
     1
 90
       50
176
     1
 90
       50
176
     1
 90
       50
176
     1
290
     0
176
     1
 90
       50
176
     1
 62
   256
176
     0
 40
1.0
176
     0
 90
        2
176
     1
  1
strokes_ogs.tif
176
     1
290
     0
176
     1
 40
1.0
176
     1
 40
1.0
176
     1
  0
VISUALSTYLE
  5
40
102
{ACAD_REACTORS
330
29
102
}
330
29
100
AcDbVisualStyle
  2
OverhangOff
 70
    21
177
     3
291
     1
 70
    58
 90
        2
176
     0
 90
        2
176
     0
 90
        0
176
     0
 90
        0
176
     0
 40
0.6
176
     0
 40
30.0
176
     0
 62
     7
420
 16777215
176
     0
 90
        1
176
     0
 90
        4
176
     0
 62
     7
176
     0
 62
   257
176
     0
 90
        1
176
     0
 90
        1
176
     0
 40
1.0
176
     0
 90
        9
176
     2
 62
     7
176
     0
 40
1.0
176
     0
 90
        1
176
     0
 90
        6
176
     0
 90
        2
176
     0
 62
     7
176
     0
 90
        5
176
     0
 90
        0
176
     0
 90
        0
176
     0
290
     0
176
     0
 90
        1
176
     0
 40
0.0
176
     0
 90
        0
176
     0
290
     0
176
     0
290
     1
176
     0
290
     1
176
     0
290
     0
176
     0
290
     0
176
     0
290
     0
176
     0
290
     0
176
     0
290
     0
176
     0
290
     0
176
     0
 90
       50
176
     0
 40
0.0
176
     0
 40
1.0
176
     0
 90
        0
176
     0
 62
    18
420
        0
176
     0
 90
       50
176
     0
 90
        3
176
     0
 62
     5
420
      255
176
     0
290
     0
176
     0
 90
       50
176
     0
 90
       50
176
     0
 90
       50
176
     0
290
     0
176
     0
 90
       50
176
     0
 62
   256
176
     0
 40
1.0
176
     0
 90
        2
176
     0
  1
strokes_ogs.tif
176
     0
290
     0
176
     0
 40
1.0
176
     0
 40
1.0
176
     0
  0
VISUALSTYLE
  5
33
102
{ACAD_REACTORS
330
29
102
}
330
29
100
AcDbVisualStyle
  2
Realistic
 70
     8
177
     3
291
     0
 70
    58
 90
        2
176
     1
 90
        3
176
     1
 90
        0
176
     1
 90
        2
176
     1
 40
0.6
176
     1
 40
30.0
176
     1
 62
     7
420
 16777215
176
     1
 90
        0
176
     1
 90
        0
176
     1
 62
     7
176
     1
 62
   257
176
     1
 90
        1
176
     1
 90
        1
176
     1
 40
1.0
176
     1
 90
        8
176
     1
 62
   257
176
     1
 40
1.0
176
     1
 90
        1
176
     1
 90
        6
176
     1
 90
        2
176
     1
 62
     7
176
     1
 90
        3
176
     1
 90
        0
176
     1
 90
        0
176
     1
290
     0
176
     1
 90
       13
176
     1
 40
0.0
176
     1
 90
        0
176
     1
290
     0
176
     1
290
     1
176
     1
290
     1
176
     1
290
     0
176
     1
290
     0
176
     1
290
     0
176
     1
290
     0
176
     1
290
     0
176
     1
290
     0
176
     1
 90
       50
176
     1
 40
0.0
176
     1
 40
1.0
176
     1
 90
        0
176
     1
 62
    18
420
        0
176
     1
 90
       50
176
     1
 90
        3
176
     1
 62
     5
420
      255
176
     1
290
     0
176
     1
 90
       50
176
     1
 90
       50
176
     1
 90
       50
176
     1
290
     0
176
     1
 90
       50
176
     1
 62
   256
176
     0
 40
1.0
176
     0
 90
        2
176
     1
  1
strokes_ogs.tif
176
     1
290
     0
176
     1
 40
1.0
176
     1
 40
1.0
176
     1
  0
VISUALSTYLE
  5
3E
102
{ACAD_REACTORS
330
29
102
}
330
29
100
AcDbVisualStyle
  2
Shaded
 70
    27
177
     3
291
     0
 70
    58
 90
        2
176
     1
 90
        2
176
     1
 90
        1
176
     1
 90
        2
176
     1
 40
0.6
176
     1
 40
30.0
176
     1
 62
     7
420
 16777215
176
     1
 90
        0
176
     1
 90
        4
176
     1
 62
     7
176
     1
 62
   257
176
     1
 90
        1
176
     1
 90
        1
176
     1
 40
1.0
176
     1
 90
        8
176
     1
 62
   257
176
     1
 40
1.0
176
     1
 90
        1
176
     1
 90
        6
176
     1
 90
        2
176
     1
 62
     8
420
  7895160
176
     1
 90
        3
176
     1
 90
        0
176
     1
 90
        0
176
     1
290
     0
176
     1
 90
        5
176
     1
 40
0.0
176
     1
 90
        0
176
     1
290
     0
176
     1
290
     1
176
     1
290
     1
176
     1
290
     0
176
     1
290
     0
176
     1
290
     0
176
     1
290
     0
176
     1
290
     0
176
     1
290
     0
176
     1
 90
       50
176
     1
 40
0.0
176
     1
 40
1.0
176
     1
 90
        0
176
     1
 62
    18
420
        0
176
     1
 90
       50
176
     1
 90
        3
176
     1
 62
     5
420
      255
176
     1
290
     0
176
     1
 90
       50
176
     1
 90
       50
176
     1
 90
       50
176
     1
290
     0
176
     1
 90
       50
176
     1
 62
   256
176
     0
 40
1.0
176
     0
 90
        2
176
     1
  1
strokes_ogs.tif
176
     1
290
     0
176
     1
 40
1.0
176
     1
 40
1.0
176
     1
  0
VISUALSTYLE
  5
3D
102
{ACAD_REACTORS
330
29
102
}
330
29
100
AcDbVisualStyle
  2
Shaded with edges
 70
    26
177
     3
291
     0
 70
    58
 90
        2
176
     1
 90
        2
176
     1
 90
        1
176
     1
 90
        2
176
     1
 40
0.6
176
     1
 40
30.0
176
     1
 62
     7
420
 16777215
176
     1
 90
        1
176
     1
 90
        2
176
     1
 62
     7
176
     1
 62
   257
176
     1
 90
        2
176
     1
 90
        1
176
     1
 40
1.0
176
     1
 90
        8
176
     1
 62
   257
176
     1
 40
1.0
176
     1
 90
        1
176
     1
 90
        6
176
     1
 90
        2
176
     1
 62
     7
176
     1
 90
        3
176
     1
 90
        0
176
     1
 90
        0
176
     1
290
     0
176
     1
 90
        5
176
     1
 40
0.0
176
     1
 90
        0
176
     1
290
     0
176
     1
290
     1
176
     1
290
     1
176
     1
290
     0
176
     1
290
     0
176
     1
290
     0
176
     1
290
     0
176
     1
290
     0
176
     1
290
     0
176
     1
 90
       50
176
     1
 40
0.0
176
     1
 40
1.0
176
     1
 90
        0
176
     1
 62
    18
420
        0
176
     1
 90
       50
176
     1
 90
        3
176
     1
 62
     5
420
      255
176
     1
290
     0
176
     1
 90
       50
176
     1
 90
       50
176
     1
 90
       50
176
     1
290
     0
176
     1
 90
       50
176
     1
 62
   256
176
     0
 40
1.0
176
     0
 90
        2
176
     1
  1
strokes_ogs.tif
176
     1
290
     0
176
     1
 40
1.0
176
     1
 40
1.0
176
     1
  0
VISUALSTYLE
  5
3A
102
{ACAD_REACTORS
330
29
102
}
330
29
100
AcDbVisualStyle
  2
Shades of Gray
 70
    23
177
     3
291
     0
 70
    58
 90
        2
176
     1
 90
        2
176
     1
 90
        3
176
     1
 90
        0
176
     1
 40
0.6
176
     1
 40
30.0
176
     1
 62
     7
420
 16777215
176
     1
 90
        2
176
     1
 90
        2
176
     1
 62
     7
176
     1
 62
     7
176
     1
 90
        1
176
     1
 90
        1
176
     1
 40
40.0
176
     1
 90
        8
176
     1
 62
     7
176
     1
 40
1.0
176
     1
 90
        1
176
     1
 90
        6
176
     1
 90
        2
176
     1
 62
     7
176
     1
 90
        3
176
     1
 90
        0
176
     1
 90
        0
176
     1
290
     0
176
     1
 90
        1
176
     1
 40
0.0
176
     1
 90
        0
176
     1
290
     0
176
     1
290
     1
176
     1
290
     1
176
     1
290
     0
176
     1
290
     0
176
     1
290
     0
176
     1
290
     0
176
     1
290
     0
176
     1
290
     0
176
     1
 90
       50
176
     1
 40
0.0
176
     1
 40
1.0
176
     1
 90
        0
176
     1
 62
    18
420
        0
176
     1
 90
       50
176
     1
 90
        3
176
     1
 62
     5
420
      255
176
     1
290
     0
176
     1
 90
       50
176
     1
 90
       50
176
     1
 90
       50
176
     1
290
     0
176
     1
 90
       50
176
     1
 62
   256
176
     0
 40
1.0
176
     0
 90
        2
176
     1
  1
strokes_ogs.tif
176
     1
290
     0
176
     1
 40
1.0
176
     1
 40
1.0
176
     1
  0
VISUALSTYLE
  5
3B
102
{ACAD_REACTORS
330
29
102
}
330
29
100
AcDbVisualStyle
  2
Sketchy
 70
    24
177
     3
291
     0
 70
    58
 90
        1
176
     1
 90
        2
176
     1
 90
        2
176
     1
 90
        0
176
     1
 40
0.6
176
     1
 40
30.0
176
     1
 62
     7
420
 16777215
176
     1
 90
        2
176
     1
 90
        2
176
     1
 62
     7
176
     1
 62
     7
176
     1
 90
        1
176
     1
 90
        1
176
     1
 40
40.0
176
     1
 90
       11
176
     1
 62
     7
176
     1
 40
1.0
176
     1
 90
        1
176
     1
 90
        6
176
     1
 90
        2
176
     1
 62
     7
176
     1
 90
        6
176
     1
 90
        0
176
     1
 90
        0
176
     1
290
     0
176
     1
 90
        1
176
     1
 40
0.0
176
     1
 90
        0
176
     1
290
     0
176
     1
290
     1
176
     1
290
     1
176
     1
290
     0
176
     1
290
     0
176
     1
290
     0
176
     1
290
     0
176
     1
290
     0
176
     1
290
     0
176
     1
 90
       50
176
     1
 40
0.0
176
     1
 40
1.0
176
     1
 90
        0
176
     1
 62
    18
420
        0
176
     1
 90
       50
176
     1
 90
        3
176
     1
 62
     5
420
      255
176
     1
290
     0
176
     1
 90
       50
176
     1
 90
       50
176
     1
 90
       50
176
     1
290
     0
176
     1
 90
       50
176
     1
 62
   256
176
     0
 40
1.0
176
     0
 90
        2
176
     1
  1
strokes_ogs.tif
176
     1
290
     0
176
     1
 40
1.0
176
     1
 40
1.0
176
     1
  0
VISUALSTYLE
  5
36
102
{ACAD_REACTORS
330
29
102
}
330
29
100
AcDbVisualStyle
  2
Thicken
 70
    13
177
     3
291
     1
 70
    58
 90
        2
176
     1
 90
        2
176
     1
 90
        0
176
     1
 90
        0
176
     1
 40
0.6
176
     1
 40
30.0
176
     1
 62
     7
420
 16777215
176
     1
 90
        1
176
     1
 90
        4
176
     1
 62
     7
176
     1
 62
   257
176
     1
 90
        1
176
     1
 90
        1
176
     1
 40
1.0
176
     1
 90
       12
176
     1
 62
     7
176
     1
 40
1.0
176
     1
 90
        1
176
     1
 90
        6
176
     1
 90
        2
176
     1
 62
     7
176
     1
 90
        5
176
     1
 90
        0
176
     1
 90
        0
176
     1
290
     0
176
     1
 90
        1
176
     1
 40
0.0
176
     1
 90
        0
176
     1
290
     0
176
     1
290
     1
176
     1
290
     1
176
     1
290
     0
176
     1
290
     0
176
     1
290
     0
176
     1
290
     0
176
     1
290
     0
176
     1
290
     0
176
     1
 90
       50
176
     1
 40
0.0
176
     1
 40
1.0
176
     1
 90
        0
176
     1
 62
    18
420
        0
176
     1
 90
       50
176
     1
 90
        3
176
     1
 62
     5
420
      255
176
     1
290
     0
176
     1
 90
       50
176
     1
 90
       50
176
     1
 90
       50
176
     1
290
     0
176
     1
 90
       50
176
     1
 62
   256
176
     0
 40
1.0
176
     0
 90
        2
176
     1
  1
strokes_ogs.tif
176
     1
290
     0
176
     1
 40
1.0
176
     1
 40
1.0
176
     1
  0
VISUALSTYLE
  5
30
102
{ACAD_REACTORS
330
29
102
}
330
29
100
AcDbVisualStyle
  2
Wireframe
 70
     5
177
     3
291
     0
 70
    58
 90
        0
176
     1
 90
        2
176
     1
 90
        0
176
     1
 90
        0
176
     1
 40
0.6
176
     1
 40
30.0
176
     1
 62
     7
420
 16777215
176
     1
 90
        1
176
     1
 90
        4
176
     1
 62
     7
176
     1
 62
   257
176
     1
 90
        1
176
     1
 90
        1
176
     1
 40
1.0
176
     1
 90
        0
176
     1
 62
   257
176
     1
 40
1.0
176
     1
 90
        1
176
     1
 90
        6
176
     1
 90
        2
176
     1
 62
     7
176
     1
 90
        3
176
     1
 90
        0
176
     1
 90
        0
176
     1
290
     0
176
     1
 90
        1
176
     1
 40
0.0
176
     1
 90
        0
176
     1
290
     0
176
     1
290
     1
176
     1
290
     1
176
     1
290
     0
176
     1
290
     0
176
     1
290
     0
176
     1
290
     0
176
     1
290
     0
176
     1
290
     0
176
     1
 90
       50
176
     1
 40
0.0
176
     1
 40
1.0
176
     1
 90
        0
176
     1
 62
    18
420
        0
176
     1
 90
       50
176
     1
 90
        3
176
     1
 62
     5
420
      255
176
     1
290
     0
176
     1
 90
       50
176
     1
 90
       50
176
     1
 90
       50
176
     1
290
     0
176
     1
 90
       50
176
     1
 62
   256
176
     0
 40
1.0
176
     0
 90
        2
176
     1
  1
strokes_ogs.tif
176
     1
290
     0
176
     1
 40
1.0
176
     1
 40
1.0
176
     1
  0
VISUALSTYLE
  5
3C
102
{ACAD_REACTORS
330
29
102
}
330
29
100
AcDbVisualStyle
  2
X-Ray
 70
    25
177
     3
291
     0
 70
    58
 90
        2
176
     1
 90
        2
176
     1
 90
        1
176
     1
 90
        1
176
     1
 40
0.5
176
     1
 40
30.0
176
     1
 62
     7
420
 16777215
176
     1
 90
        1
176
     1
 90
        0
176
     1
 62
     7
176
     1
 62
   257
176
     1
 90
        1
176
     1
 90
        1
176
     1
 40
1.0
176
     1
 90
        8
176
     1
 62
     7
176
     1
 40
1.0
176
     1
 90
        1
176
     1
 90
        6
176
     1
 90
        2
176
     1
 62
     7
176
     1
 90
        3
176
     1
 90
        0
176
     1
 90
        0
176
     1
290
     0
176
     1
 90
       13
176
     1
 40
0.0
176
     1
 90
        0
176
     1
290
     0
176
     1
290
     1
176
     1
290
     1
176
     1
290
     0
176
     1
290
     0
176
     1
290
     0
176
     1
290
     0
176
     1
290
     0
176
     1
290
     0
176
     1
 90
       50
176
     1
 40
0.0
176
     1
 40
1.0
176
     1
 90
        0
176
     1
 62
    18
420
        0
176
     1
 90
       50
176
     1
 90
        3
176
     1
 62
     5
420
      255
176
     1
290
     0
176
     1
 90
       50
176
     1
 90
       50
176
     1
 90
       50
176
     1
290
     0
176
     1
 90
       50
176
     1
 62
   256
176
     0
 40
1.0
176
     0
 90
        2
176
     1
  1
strokes_ogs.tif
176
     1
290
     0
176
     1
 40
1.0
176
     1
 40
1.0
176
     1
  0
DICTIONARYVAR
  5
147
102
{ACAD_REACTORS
330
142
102
}
330
142
100
DictionaryVariables
280
     0
  1
1:1
  0
DICTIONARYVAR
  5
144
102
{ACAD_REACTORS
330
142
102
}
330
142
100
DictionaryVariables
280
     0
  1
STANDARD
  0
DICTIONARYVAR
  5
143
102
{ACAD_REACTORS
330
142
102
}
330
142
100
DictionaryVariables
280
     0
  1
STANDARD
  0
DICTIONARYVAR
  5
145
102
{ACAD_REACTORS
330
142
102
}
330
142
100
DictionaryVariables
280
     0
  1
Imperial24
  0
DICTIONARYVAR
  5
146
102
{ACAD_REACTORS
330
142
102
}
330
142
100
DictionaryVariables
280
     0
  1
Imperial24
  0
DICTIONARY
  5
1A
330
19
100
AcDbDictionary
280
     1
281
     1
  3
BUMPTILE
360
1C
  3
DIFFUSETILE
360
1B
  3
OPACITYTILE
360
1F
  3
REFLECTIONTILE
360
1E
  3
REFRACTIONTILE
360
20
  3
SPECULARTILE
360
1D
  0
DICTIONARY
  5
12
330
11
100
AcDbDictionary
280
     1
281
     1
  3
BUMPTILE
360
14
  3
DIFFUSETILE
360
13
  3
OPACITYTILE
360
17
  3
REFLECTIONTILE
360
16
  3
REFRACTIONTILE
360
18
  3
SPECULARTILE
360
15
  0
DICTIONARY
  5
22
330
21
100
AcDbDictionary
280
     1
281
     1
  3
BUMPTILE
360
24
  3
DIFFUSETILE
360
23
  3
OPACITYTILE
360
27
  3
REFLECTIONTILE
360
26
  3
REFRACTIONTILE
360
28
  3
SPECULARTILE
360
25
  0
DICTIONARY
  5
148
330
65
100
AcDbDictionary
280
     1
281
     1
  3
ACAD_ROUNDTRIP_2008_TABLESTYLE_CELLSTYLEMAP
360
149
  0
XRECORD
  5
1C
102
{ACAD_REACTORS
330
1A
102
}
330
1A
100
AcDbXrecord
280
     1
270
     1
271
     1
  0
XRECORD
  5
1B
102
{ACAD_REACTORS
330
1A
102
}
330
1A
100
AcDbXrecord
280
     1
270
     1
271
     1
  0
XRECORD
  5
1F
102
{ACAD_REACTORS
330
1A
102
}
330
1A
100
AcDbXrecord
280
     1
270
     1
271
     1
  0
XRECORD
  5
1E
102
{ACAD_REACTORS
330
1A
102
}
330
1A
100
AcDbXrecord
280
     1
270
     1
271
     1
  0
XRECORD
  5
20
102
{ACAD_REACTORS
330
1A
102
}
330
1A
100
AcDbXrecord
280
     1
270
     1
271
     1
  0
XRECORD
  5
1D
102
{ACAD_REACTORS
330
1A
102
}
330
1A
100
AcDbXrecord
280
     1
270
     1
271
     1
  0
XRECORD
  5
14
102
{ACAD_REACTORS
330
12
102
}
330
12
100
AcDbXrecord
280
     1
270
     1
271
     1
  0
XRECORD
  5
13
102
{ACAD_REACTORS
330
12
102
}
330
12
100
AcDbXrecord
280
     1
270
     1
271
     1
  0
XRECORD
  5
17
102
{ACAD_REACTORS
330
12
102
}
330
12
100
AcDbXrecord
280
     1
270
     1
271
     1
  0
XRECORD
  5
16
102
{ACAD_REACTORS
330
12
102
}
330
12
100
AcDbXrecord
280
     1
270
     1
271
     1
  0
XRECORD
  5
18
102
{ACAD_REACTORS
330
12
102
}
330
12
100
AcDbXrecord
280
     1
270
     1
271
     1
  0
XRECORD
  5
15
102
{ACAD_REACTORS
330
12
102
}
330
12
100
AcDbXrecord
280
     1
270
     1
271
     1
  0
XRECORD
  5
24
102
{ACAD_REACTORS
330
22
102
}
330
22
100
AcDbXrecord
280
     1
270
     1
271
     1
  0
XRECORD
  5
23
102
{ACAD_REACTORS
330
22
102
}
330
22
100
AcDbXrecord
280
     1
270
     1
271
     1
  0
XRECORD
  5
27
102
{ACAD_REACTORS
330
22
102
}
330
22
100
AcDbXrecord
280
     1
270
     1
271
     1
  0
XRECORD
  5
26
102
{ACAD_REACTORS
330
22
102
}
330
22
100
AcDbXrecord
280
     1
270
     1
271
     1
  0
XRECORD
  5
28
102
{ACAD_REACTORS
330
22
102
}
330
22
100
AcDbXrecord
280
     1
270
     1
271
     1
  0
XRECORD
  5
25
102
{ACAD_REACTORS
330
22
102
}
330
22
100
AcDbXrecord
280
     1
270
     1
271
     1
  0
CELLSTYLEMAP
  5
149
102
{ACAD_REACTORS
330
148
102
}
330
148
100
AcDbCellStyleMap
 90
        3
300
CELLSTYLE
  1
TABLEFORMAT_BEGIN
 90
        5
170
     1
 91
        0
 92
    32768
 62
   257
 93
        1
300
CONTENTFORMAT
  1
CONTENTFORMAT_BEGIN
 90
        0
 91
        0
 92
      512
 93
        0
300

 40
0.0
140
1.0
 94
        5
 62
     0
340
55
144
0.25
309
CONTENTFORMAT_END
171
     0
 94
        0
309
TABLEFORMAT_END
  1
CELLSTYLE_BEGIN
 90
        1
 91
        1
300
_TITLE
309
CELLSTYLE_END
300
CELLSTYLE
  1
TABLEFORMAT_BEGIN
 90
        5
170
     1
 91
        0
 92
        0
 62
   257
 93
        1
300
CONTENTFORMAT
  1
CONTENTFORMAT_BEGIN
 90
        0
 91
        0
 92
      512
 93
        0
300

 40
0.0
140
1.0
 94
        5
 62
     0
340
55
144
0.18
309
CONTENTFORMAT_END
171
     0
 94
        0
309
TABLEFORMAT_END
  1
CELLSTYLE_BEGIN
 90
        2
 91
        1
300
_HEADER
309
CELLSTYLE_END
300
CELLSTYLE
  1
TABLEFORMAT_BEGIN
 90
        5
170
     1
 91
        0
 92
        0
 62
   257
 93
        1
300
CONTENTFORMAT
  1
CONTENTFORMAT_BEGIN
 90
        0
 91
        0
 92
      512
 93
        0
300

 40
0.0
140
1.0
 94
        2
 62
     0
340
55
144
0.18
309
CONTENTFORMAT_END
171
     0
 94
        0
309
TABLEFORMAT_END
  1
CELLSTYLE_BEGIN
 90
        3
 91
        2
300
_DATA
309
CELLSTYLE_END
  0
ENDSEC
  0
EOF
