  0
SECTION
  2
HEADER
  9
$ACADVER
  1
AC1024
  9
$ACADMAINTVER
 70
     6
  9
$DWGCODEPAGE
  3
ANSI_1252
  9
$INSBASE
 10
0.0
 20
0.0
 30
0.0
  9
$EXTMIN
 10
1.000000000000000E+20
 20
1.000000000000000E+20
 30
1.000000000000000E+20
  9
$EXTMAX
 10
-1.000000000000000E+20
 20
-1.000000000000000E+20
 30
-1.000000000000000E+20
  9
$LIMMIN
 10
0.0
 20
0.0
  9
$LIMMAX
 10
12.0
 20
9.0
  9
$ORTHOMODE
 70
     0
  9
$REGENMODE
 70
     1
  9
$FILLMODE
 70
     1
  9
$QTEXTMODE
 70
     0
  9
$MIRRTEXT
 70
     1
  9
$LTSCALE
 40
1.0
  9
$ATTMODE
 70
     1
  9
$TEXTSIZE
 40
0.2
  9
$TRACEWID
 40
0.05
  9
$TEXTSTYLE
  7
Standard
  9
$CLAYER
  8
0
  9
$CELTYPE
  6
ByLayer
  9
$CECOLOR
 62
   256
  9
$CELTSCALE
 40
1.0
  9
$DISPSILH
 70
     0
  9
$DIMSCALE
 40
1.0
  9
$DIMASZ
 40
0.18
  9
$DIMEXO
 40
0.0625
  9
$DIMDLI
 40
0.38
  9
$DIMRND
 40
0.0
  9
$DIMDLE
 40
0.0
  9
$DIMEXE
 40
0.18
  9
$DIMTP
 40
0.0
  9
$DIMTM
 40
0.0
  9
$DIMTXT
 40
0.18
  9
$DIMCEN
 40
0.09
  9
$DIMTSZ
 40
0.0
  9
$DIMTOL
 70
     0
  9
$DIMLIM
 70
     0
  9
$DIMTIH
 70
     1
  9
$DIMTOH
 70
     1
  9
$DIMSE1
 70
     0
  9
$DIMSE2
 70
     0
  9
$DIMTAD
 70
     0
  9
$DIMZIN
 70
     0
  9
$DIMBLK
  1

  9
$DIMASO
 70
     1
  9
$DIMSHO
 70
     1
  9
$DIMPOST
  1

  9
$DIMAPOST
  1

  9
$DIMALT
 70
     0
  9
$DIMALTD
 70
     2
  9
$DIMALTF
 40
25.4
  9
$DIMLFAC
 40
1.0
  9
$DIMTOFL
 70
     0
  9
$DIMTVP
 40
0.0
  9
$DIMTIX
 70
     0
  9
$DIMSOXD
 70
     0
  9
$DIMSAH
 70
     0
  9
$DIMBLK1
  1

  9
$DIMBLK2
  1

  9
$DIMSTYLE
  2
Standard
  9
$DIMCLRD
 70
     0
  9
$DIMCLRE
 70
     0
  9
$DIMCLRT
 70
     0
  9
$DIMTFAC
 40
1.0
  9
$DIMGAP
 40
0.09
  9
$DIMJUST
 70
     0
  9
$DIMSD1
 70
     0
  9
$DIMSD2
 70
     0
  9
$DIMTOLJ
 70
     1
  9
$DIMTZIN
 70
     0
  9
$DIMALTZ
 70
     0
  9
$DIMALTTZ
 70
     0
  9
$DIMUPT
 70
     0
  9
$DIMDEC
 70
     4
  9
$DIMTDEC
 70
     4
  9
$DIMALTU
 70
     2
  9
$DIMALTTD
 70
     2
  9
$DIMTXSTY
  7
Standard
  9
$DIMAUNIT
 70
     0
  9
$DIMADEC
 70
     0
  9
$DIMALTRND
 40
0.0
  9
$DIMAZIN
 70
     0
  9
$DIMDSEP
 70
    46
  9
$DIMATFIT
 70
     3
  9
$DIMFRAC
 70
     0
  9
$DIMLDRBLK
  1

  9
$DIMLUNIT
 70
     2
  9
$DIMLWD
 70
    -2
  9
$DIMLWE
 70
    -2
  9
$DIMTMOVE
 70
     0
  9
$DIMFXL
 40
1.0
  9
$DIMFXLON
 70
     0
  9
$DIMJOGANG
 40
0.7853981633974483
  9
$DIMTFILL
 70
     0
  9
$DIMTFILLCLR
 70
     0
  9
$DIMARCSYM
 70
     0
  9
$DIMLTYPE
  6

  9
$DIMLTEX1
  6

  9
$DIMLTEX2
  6

  9
$DIMTXTDIRECTION
 70
     0
  9
$LUNITS
 70
     2
  9
$LUPREC
 70
     4
  9
$SKETCHINC
 40
0.1
  9
$FILLETRAD
 40
0.5
  9
$AUNITS
 70
     0
  9
$AUPREC
 70
     0
  9
$MENU
  1
.
  9
$ELEVATION
 40
0.0
  9
$PELEVATION
 40
0.0
  9
$THICKNESS
 40
0.0
  9
$LIMCHECK
 70
     0
  9
$CHAMFERA
 40
0.5
  9
$CHAMFERB
 40
0.5
  9
$CHAMFERC
 40
1.0
  9
$CHAMFERD
 40
0.0
  9
$SKPOLY
 70
     0
  9
$TDCREATE
 40
2458787.977600614
  9
$TDUCREATE
 40
2458787.435933947
  9
$TDUPDATE
 40
2458787.977600741
  9
$TDUUPDATE
 40
2458787.435934074
  9
$TDINDWG
 40
0.0000000116
  9
$TDUSRTIMER
 40
0.0000000116
  9
$USRTIMER
 70
     1
  9
$ANGBASE
 50
0.0
  9
$ANGDIR
 70
     0
  9
$PDMODE
 70
     0
  9
$PDSIZE
 40
0.0
  9
$PLINEWID
 40
0.0
  9
$SPLFRAME
 70
     0
  9
$SPLINETYPE
 70
     6
  9
$SPLINESEGS
 70
     8
  9
$HANDSEED
  5
20A
  9
$SURFTAB1
 70
     6
  9
$SURFTAB2
 70
     6
  9
$SURFTYPE
 70
     6
  9
$SURFU
 70
     6
  9
$SURFV
 70
     6
  9
$UCSBASE
  2

  9
$UCSNAME
  2

  9
$UCSORG
 10
0.0
 20
0.0
 30
0.0
  9
$UCSXDIR
 10
1.0
 20
0.0
 30
0.0
  9
$UCSYDIR
 10
0.0
 20
1.0
 30
0.0
  9
$UCSORTHOREF
  2

  9
$UCSORTHOVIEW
 70
     0
  9
$UCSORGTOP
 10
0.0
 20
0.0
 30
0.0
  9
$UCSORGBOTTOM
 10
0.0
 20
0.0
 30
0.0
  9
$UCSORGLEFT
 10
0.0
 20
0.0
 30
0.0
  9
$UCSORGRIGHT
 10
0.0
 20
0.0
 30
0.0
  9
$UCSORGFRONT
 10
0.0
 20
0.0
 30
0.0
  9
$UCSORGBACK
 10
0.0
 20
0.0
 30
0.0
  9
$PUCSBASE
  2

  9
$PUCSNAME
  2

  9
$PUCSORG
 10
0.0
 20
0.0
 30
0.0
  9
$PUCSXDIR
 10
1.0
 20
0.0
 30
0.0
  9
$PUCSYDIR
 10
0.0
 20
1.0
 30
0.0
  9
$PUCSORTHOREF
  2

  9
$PUCSORTHOVIEW
 70
     0
  9
$PUCSORGTOP
 10
0.0
 20
0.0
 30
0.0
  9
$PUCSORGBOTTOM
 10
0.0
 20
0.0
 30
0.0
  9
$PUCSORGLEFT
 10
0.0
 20
0.0
 30
0.0
  9
$PUCSORGRIGHT
 10
0.0
 20
0.0
 30
0.0
  9
$PUCSORGFRONT
 10
0.0
 20
0.0
 30
0.0
  9
$PUCSORGBACK
 10
0.0
 20
0.0
 30
0.0
  9
$USERI1
 70
     0
  9
$USERI2
 70
     0
  9
$USERI3
 70
     0
  9
$USERI4
 70
     0
  9
$USERI5
 70
     0
  9
$USERR1
 40
0.0
  9
$USERR2
 40
0.0
  9
$USERR3
 40
0.0
  9
$USERR4
 40
0.0
  9
$USERR5
 40
0.0
  9
$WORLDVIEW
 70
     1
  9
$SHADEDGE
 70
     3
  9
$SHADEDIF
 70
    70
  9
$TILEMODE
 70
     1
  9
$MAXACTVP
 70
    64
  9
$PINSBASE
 10
0.0
 20
0.0
 30
0.0
  9
$PLIMCHECK
 70
     0
  9
$PEXTMIN
 10
1.000000000000000E+20
 20
1.000000000000000E+20
 30
1.000000000000000E+20
  9
$PEXTMAX
 10
-1.000000000000000E+20
 20
-1.000000000000000E+20
 30
-1.000000000000000E+20
  9
$PLIMMIN
 10
0.0
 20
0.0
  9
$PLIMMAX
 10
12.0
 20
9.0
  9
$UNITMODE
 70
     0
  9
$VISRETAIN
 70
     1
  9
$PLINEGEN
 70
     0
  9
$PSLTSCALE
 70
     1
  9
$TREEDEPTH
 70
  3020
  9
$CMLSTYLE
  2
Standard
  9
$CMLJUST
 70
     0
  9
$CMLSCALE
 40
1.0
  9
$PROXYGRAPHICS
 70
     1
  9
$MEASUREMENT
 70
     0
  9
$CELWEIGHT
370
    -1
  9
$ENDCAPS
280
     0
  9
$JOINSTYLE
280
     0
  9
$LWDISPLAY
290
     1
  9
$INSUNITS
 70
     1
  9
$HYPERLINKBASE
  1

  9
$STYLESHEET
  1

  9
$XEDIT
290
     1
  9
$CEPSNTYPE
380
     0
  9
$PSTYLEMODE
290
     1
  9
$FINGERPRINTGUID
  2
{FF56DFEA-5765-4CE4-9930-2BEA224F3BD2}
  9
$VERSIONGUID
  2
{FAEB1C32-E019-11D5-929B-00C0DF256EC4}
  9
$EXTNAMES
290
     1
  9
$PSVPSCALE
 40
0.0
  9
$OLESTARTUP
290
     0
  9
$SORTENTS
280
   127
  9
$INDEXCTL
280
     0
  9
$HIDETEXT
280
     1
  9
$XCLIPFRAME
280
     2
  9
$HALOGAP
280
     0
  9
$OBSCOLOR
 70
   257
  9
$OBSLTYPE
280
     0
  9
$INTERSECTIONDISPLAY
280
     0
  9
$INTERSECTIONCOLOR
 70
   257
  9
$DIMASSOC
280
     2
  9
$PROJECTNAME
  1

  9
$CAMERADISPLAY
290
     0
  9
$LENSLENGTH
 40
50.0
  9
$CAMERAHEIGHT
 40
0.0
  9
$STEPSPERSEC
 40
2.0
  9
$STEPSIZE
 40
6.0
  9
$3DDWFPREC
 40
2.0
  9
$PSOLWIDTH
 40
0.25
  9
$PSOLHEIGHT
 40
4.0
  9
$LOFTANG1
 40
1.570796326794897
  9
$LOFTANG2
 40
1.570796326794897
  9
$LOFTMAG1
 40
0.0
  9
$LOFTMAG2
 40
0.0
  9
$LOFTPARAM
 70
     7
  9
$LOFTNORMALS
280
     1
  9
$LATITUDE
 40
37.795
  9
$LONGITUDE
 40
-122.394
  9
$NORTHDIRECTION
 40
0.0
  9
$TIMEZONE
 70
 -8000
  9
$LIGHTGLYPHDISPLAY
280
     1
  9
$TILEMODELIGHTSYNCH
280
     1
  9
$CMATERIAL
347
3C
  9
$SOLIDHIST
280
     1
  9
$SHOWHIST
280
     1
  9
$DWFFRAME
280
     2
  9
$DGNFRAME
280
     2
  9
$REALWORLDSCALE
290
     1
  9
$INTERFERECOLOR
 62
   256
  9
$CSHADOW
280
     0
  9
$SHADOWPLANELOCATION
 40
0.0
  0
ENDSEC
  0
SECTION
  2
CLASSES
  0
CLASS
  1
ACDBDICTIONARYWDFLT
  2
AcDbDictionaryWithDefault
  3
ObjectDBX Classes
 90
        0
 91
        4
280
     0
281
     0
  0
CLASS
  1
VISUALSTYLE
  2
AcDbVisualStyle
  3
ObjectDBX Classes
 90
     4095
 91
        4
280
     0
281
     0
  0
CLASS
  1
MATERIAL
  2
AcDbMaterial
  3
ObjectDBX Classes
 90
     1153
 91
        4
280
     0
281
     0
  0
CLASS
  1
SUN
  2
AcDbSun
  3
SCENEOE
 90
     1024
 91
        4
280
     0
281
     0
  0
ENDSEC
  0
SECTION
  2
TABLES
  0
TABLE
  2
VPORT
  5
8
330
0
100
AcDbSymbolTable
 70
     1
  0
VPORT
  5
29
330
8
100
AcDbSymbolTableRecord
100
AcDbViewportTableRecord
  2
*Active
 70
     0
 10
0.0
 20
0.0
 11
1.0
 21
1.0
 12
0.0
 22
0.0
 13
0.0
 23
0.0
 14
0.5
 24
0.5
 15
0.5
 25
0.5
 16
0.0
 26
0.0
 36
1.0
 17
4.198856838372397
 27
5.821624999999989
 37
0.0
 40
11.69291338582677
 41
0.7070707070707065
 42
50.0
 43
0.0
 44
0.0
 50
0.0
 51
0.0
 71
     0
 72
   100
 73
     1
 74
     3
 75
     0
 76
     0
 77
     0
 78
     0
281
     0
 65
     1
110
0.0
120
0.0
130
0.0
111
1.0
121
0.0
131
0.0
112
0.0
122
1.0
132
0.0
 79
     0
146
0.0
 60
     3
 61
     5
292
     1
282
     1
141
0.0
142
0.0
 63
   250
361
3F
  0
ENDTAB
  0
TABLE
  2
LTYPE
  5
5
330
0
100
AcDbSymbolTable
 70
     1
  0
LTYPE
  5
14
330
5
100
AcDbSymbolTableRecord
100
AcDbLinetypeTableRecord
  2
ByBlock
 70
     0
  3

 72
    65
 73
     0
 40
0.0
  0
LTYPE
  5
15
330
5
100
AcDbSymbolTableRecord
100
AcDbLinetypeTableRecord
  2
ByLayer
 70
     0
  3

 72
    65
 73
     0
 40
0.0
  0
LTYPE
  5
16
330
5
100
AcDbSymbolTableRecord
100
AcDbLinetypeTableRecord
  2
Continuous
 70
     0
  3
Solid line
 72
    65
 73
     0
 40
0.0
  0
ENDTAB
  0
TABLE
  2
LAYER
  5
2
330
0
100
AcDbSymbolTable
 70
     3
  0
LAYER
  5
10
330
2
100
AcDbSymbolTableRecord
100
AcDbLayerTableRecord
  2
0
 70
     0
 62
     7
  6
Continuous
370
    -3
390
F
347
3E
  0
LAYER
  5
40
330
2
100
AcDbSymbolTableRecord
100
AcDbLayerTableRecord
  2
Wood
 70
     0
 62
     7
  6
Continuous
370
    -3
390
F
347
3E
  0
LAYER
  5
1B6
330
2
100
AcDbSymbolTableRecord
100
AcDbLayerTableRecord
  2
HU8
 70
     0
 62
     7
  6
Continuous
370
    -3
390
F
347
3E
  0
ENDTAB
  0
TABLE
  2
STYLE
  5
3
330
0
100
AcDbSymbolTable
 70
     1
  0
STYLE
  5
11
330
3
100
AcDbSymbolTableRecord
100
AcDbTextStyleTableRecord
  2
Standard
 70
     0
 40
0.0
 41
1.0
 50
0.0
 71
     0
 42
0.2
  3
txt
  4

  0
ENDTAB
  0
TABLE
  2
VIEW
  5
6
330
0
100
AcDbSymbolTable
 70
     0
  0
ENDTAB
  0
TABLE
  2
UCS
  5
7
330
0
100
AcDbSymbolTable
 70
     0
  0
ENDTAB
  0
TABLE
  2
APPID
  5
9
330
0
100
AcDbSymbolTable
 70
     1
  0
APPID
  5
12
330
9
100
AcDbSymbolTableRecord
100
AcDbRegAppTableRecord
  2
ACAD
 70
     0
  0
ENDTAB
  0
TABLE
  2
DIMSTYLE
  5
A
330
0
100
AcDbSymbolTable
 70
     1
100
AcDbDimStyleTable
  0
DIMSTYLE
105
27
330
A
100
AcDbSymbolTableRecord
100
AcDbDimStyleTableRecord
  2
Standard
 70
     0
178
     0
340
11
  0
ENDTAB
  0
TABLE
  2
BLOCK_RECORD
  5
1
330
0
100
AcDbSymbolTable
 70
     7
  0
BLOCK_RECORD
  5
1F
330
1
100
AcDbSymbolTableRecord
100
AcDbBlockTableRecord
  2
*Model_Space
340
22
 70
     0
280
     1
281
     0
  0
BLOCK_RECORD
  5
1B
330
1
100
AcDbSymbolTableRecord
100
AcDbBlockTableRecord
  2
*Paper_Space
340
1E
 70
     0
280
     1
281
     0
  0
BLOCK_RECORD
  5
23
330
1
100
AcDbSymbolTableRecord
100
AcDbBlockTableRecord
  2
*Paper_Space0
340
26
 70
     0
280
     1
281
     0
  0
BLOCK_RECORD
  5
1C7
330
1
100
AcDbSymbolTableRecord
100
AcDbBlockTableRecord
  2
block 2
340
0
102
{BLKREFS
331
1C8
102
}
 70
     0
280
     1
281
     0
  0
BLOCK_RECORD
  5
1D7
330
1
100
AcDbSymbolTableRecord
100
AcDbBlockTableRecord
  2
block 3
340
0
102
{BLKREFS
331
1D8
102
}
 70
     0
280
     1
281
     0
  0
BLOCK_RECORD
  5
1DD
330
1
100
AcDbSymbolTableRecord
100
AcDbBlockTableRecord
  2
block 4
340
0
102
{BLKREFS
331
1DE
102
}
 70
     0
280
     1
281
     0
  0
BLOCK_RECORD
  5
1E3
330
1
100
AcDbSymbolTableRecord
100
AcDbBlockTableRecord
  2
block 5
340
0
102
{BLKREFS
331
1E4
102
}
 70
     0
280
     1
281
     0
  0
BLOCK_RECORD
  5
1F1
330
1
100
AcDbSymbolTableRecord
100
AcDbBlockTableRecord
  2
block 6
340
0
102
{BLKREFS
331
1F2
102
}
 70
     0
280
     1
281
     0
  0
BLOCK_RECORD
  5
1F5
330
1
100
AcDbSymbolTableRecord
100
AcDbBlockTableRecord
  2
block 7
340
0
102
{BLKREFS
331
1F6
102
}
 70
     0
280
     1
281
     0
  0
ENDTAB
  0
ENDSEC
  0
SECTION
  2
BLOCKS
  0
BLOCK
  5
20
330
1F
100
AcDbEntity
  8
0
100
AcDbBlockBegin
  2
*Model_Space
 70
     0
 10
0.0
 20
0.0
 30
0.0
  3
*Model_Space
  1

  0
ENDBLK
  5
21
330
1F
100
AcDbEntity
  8
0
100
AcDbBlockEnd
  0
BLOCK
  5
1C
330
1B
100
AcDbEntity
 67
     1
  8
0
100
AcDbBlockBegin
  2
*Paper_Space
 70
     0
 10
0.0
 20
0.0
 30
0.0
  3
*Paper_Space
  1

  0
ENDBLK
  5
1D
330
1B
100
AcDbEntity
 67
     1
  8
0
100
AcDbBlockEnd
  0
BLOCK
  5
24
330
23
100
AcDbEntity
  8
0
100
AcDbBlockBegin
  2
*Paper_Space0
 70
     0
 10
0.0
 20
0.0
 30
0.0
  3
*Paper_Space0
  1

  0
ENDBLK
  5
25
330
23
100
AcDbEntity
  8
0
100
AcDbBlockEnd
  0
BLOCK
  5
1C9
330
1C7
100
AcDbEntity
  8
0
100
AcDbBlockBegin
  2
block 2
 70
     0
 10
0.0
 20
0.0
 30
0.0
  3
block 2
  1

  0
POLYLINE
  5
1CB
330
1C7
100
AcDbEntity
  8
HU8
 62
   250
420
  2301728
370
    18
100
AcDb2dPolyline
 66
     1
 10
0.0
 20
0.0
 30
0.0
  0
VERTEX
  5
1CC
330
1CB
100
AcDbEntity
  8
HU8
 62
   250
420
  2301728
370
    18
100
AcDbVertex
100
AcDb2dVertex
 10
4.280097222222214
 20
5.4375
 30
0.0
  0
VERTEX
  5
1CD
330
1CB
100
AcDbEntity
  8
HU8
 62
   250
420
  2301728
370
    18
100
AcDbVertex
100
AcDb2dVertex
 10
4.280097222222214
 20
5.412041666666659
 30
0.0
  0
SEQEND
  5
1CE
330
1CB
100
AcDbEntity
  8
HU8
 62
   250
420
  2301728
370
    18
  0
POLYLINE
  5
1CF
330
1C7
100
AcDbEntity
  8
HU8
 62
   250
420
  2301728
370
    18
100
AcDb2dPolyline
 66
     1
 10
0.0
 20
0.0
 30
0.0
  0
VERTEX
  5
1D0
330
1CF
100
AcDbEntity
  8
HU8
 62
   250
420
  2301728
370
    18
100
AcDbVertex
100
AcDb2dVertex
 10
4.280097222222214
 20
6.581013888888883
 30
0.0
  0
VERTEX
  5
1D1
330
1CF
100
AcDbEntity
  8
HU8
 62
   250
420
  2301728
370
    18
100
AcDbVertex
100
AcDb2dVertex
 10
4.280097222222214
 20
5.458333333333333
 30
0.0
  0
SEQEND
  5
1D2
330
1CF
100
AcDbEntity
  8
HU8
 62
   250
420
  2301728
370
    18
  0
POLYLINE
  5
1D3
330
1C7
100
AcDbEntity
  8
HU8
 62
   250
420
  2301728
370
    18
100
AcDb2dPolyline
 66
     1
 10
0.0
 20
0.0
 30
0.0
  0
VERTEX
  5
1D4
330
1D3
100
AcDbEntity
  8
HU8
 62
   250
420
  2301728
370
    18
100
AcDbVertex
100
AcDb2dVertex
 10
4.280097222222214
 20
6.631951235386218
 30
0.0
  0
VERTEX
  5
1D5
330
1D3
100
AcDbEntity
  8
HU8
 62
   250
420
  2301728
370
    18
100
AcDbVertex
100
AcDb2dVertex
 10
4.280097222222214
 20
6.606486111111116
 30
0.0
  0
SEQEND
  5
1D6
330
1D3
100
AcDbEntity
  8
HU8
 62
   250
420
  2301728
370
    18
  0
ENDBLK
  5
1CA
330
1C7
100
AcDbEntity
  8
0
100
AcDbBlockEnd
  0
BLOCK
  5
1D9
330
1D7
100
AcDbEntity
  8
0
100
AcDbBlockBegin
  2
block 3
 70
     0
 10
0.0
 20
0.0
 30
0.0
  3
block 3
  1

  0
SPLINE
  5
1DB
330
1D7
100
AcDbEntity
  8
HU8
 62
   250
420
  2301728
370
    18
100
AcDbSpline
210
0.0
220
0.0
230
1.0
 70
    11
 71
     3
 72
    17
 73
    13
 74
     0
 42
0.0000000001
 43
0.0000000001
 12
1.0
 22
0.0
 32
0.0
 13
1.0
 23
0.0
 33
0.0
 40
0.0
 40
0.0
 40
0.0
 40
0.0
 40
1.0
 40
1.0
 40
1.0
 40
2.0
 40
2.0
 40
2.0
 40
3.0
 40
3.0
 40
3.0
 40
4.0
 40
4.0
 40
4.0
 40
4.0
 10
4.050767953224547
 20
6.526949849149887
 30
0.0
 10
4.047166666666663
 20
6.509134571822162
 30
0.0
 10
4.055209619779008
 20
6.492486111111108
 30
0.0
 10
4.068712397215677
 20
6.489752627867347
 30
0.0
 10
4.08222073020776
 20
6.487033183491601
 30
0.0
 10
4.096095729857248
 20
6.49925401651621
 30
0.0
 10
4.09969017421089
 20
6.517055555555556
 30
0.0
 10
4.103291666666665
 20
6.534865126727709
 30
0.0
 10
4.09524850765643
 20
6.551513888888886
 30
0.0
 10
4.081752674664029
 20
6.554240126238255
 30
0.0
 10
4.068244341671945
 20
6.556973459502538
 30
0.0
 10
4.054362397578188
 20
6.54474568203366
 30
0.0
 10
4.050767953224547
 20
6.526949849149887
 30
0.0
  0
SPLINE
  5
1DC
330
1D7
100
AcDbEntity
  8
HU8
 62
   250
420
  2301728
370
    25
100
AcDbSpline
210
0.0
220
0.0
230
1.0
 70
    11
 71
     3
 72
    23
 73
    19
 74
     0
 42
0.0000000001
 43
0.0000000001
 12
1.0
 22
0.0
 32
0.0
 13
1.0
 23
0.0
 33
0.0
 40
0.0
 40
0.0
 40
0.0
 40
0.0
 40
1.0
 40
1.0
 40
1.0
 40
2.0
 40
2.0
 40
2.0
 40
3.0
 40
3.0
 40
3.0
 40
4.0
 40
4.0
 40
4.0
 40
5.0
 40
5.0
 40
5.0
 40
6.0
 40
6.0
 40
6.0
 40
6.0
 10
4.081888888888885
 20
6.554897070666116
 30
0.0
 10
4.081522119114311
 20
6.554972222222217
 30
0.0
 10
4.074584619289555
 20
6.559705403877969
 30
0.0
 10
4.070712397165153
 20
6.560486111111104
 30
0.0
 10
4.056924897513454
 20
6.563273459343387
 30
0.0
 10
4.042765175648936
 20
6.550794292991971
 30
0.0
 10
4.03909573129719
 20
6.532633182339648
 30
0.0
 10
4.035420731390028
 20
6.514458333333335
 30
0.0
 10
4.043626286738294
 20
6.497470683227927
 30
0.0
 10
4.057406841945723
 20
6.494683183298346
 30
0.0
 10
4.057766564158858
 20
6.49460818330024
 30
0.0
 10
4.064711008427872
 20
6.48988179453075
 30
0.0
 10
4.068583333333335
 20
6.489094294550644
 30
0.0
 10
4.082363785759703
 20
6.486313739065331
 30
0.0
 10
4.09652350762422
 20
6.498785960972491
 30
0.0
 10
4.100192951975966
 20
6.516954016069071
 30
0.0
 10
4.103867951883128
 20
6.535122071165662
 30
0.0
 10
4.095662396534863
 20
6.552111111111117
 30
0.0
 10
4.081888888888885
 20
6.554897070666116
 30
0.0
  0
ENDBLK
  5
1DA
330
1D7
100
AcDbEntity
  8
0
100
AcDbBlockEnd
  0
BLOCK
  5
1DF
330
1DD
100
AcDbEntity
  8
0
100
AcDbBlockBegin
  2
block 4
 70
     0
 10
0.0
 20
0.0
 30
0.0
  3
block 4
  1

  0
SPLINE
  5
1E1
330
1DD
100
AcDbEntity
  8
HU8
 62
   250
420
  2301728
370
    18
100
AcDbSpline
210
0.0
220
0.0
230
1.0
 70
    11
 71
     3
 72
    17
 73
    13
 74
     0
 42
0.0000000001
 43
0.0000000001
 12
1.0
 22
0.0
 32
0.0
 13
1.0
 23
0.0
 33
0.0
 40
0.0
 40
0.0
 40
0.0
 40
0.0
 40
1.0
 40
1.0
 40
1.0
 40
2.0
 40
2.0
 40
2.0
 40
3.0
 40
3.0
 40
3.0
 40
4.0
 40
4.0
 40
4.0
 40
4.0
 10
4.347284612400573
 20
6.567784570340538
 30
0.0
 10
4.350891556753898
 20
6.549969293012825
 30
0.0
 10
4.342836001401843
 20
6.533319444444449
 30
0.0
 10
4.329340168409443
 20
6.530587349057996
 30
0.0
 10
4.315830446528505
 20
6.527867904682251
 30
0.0
 10
4.301955446879017
 20
6.54008734881802
 30
0.0
 10
4.29836111111111
 20
6.557890126146061
 30
0.0
 10
4.294766558171735
 20
6.575698459029505
 30
0.0
 10
4.302797113524422
 20
6.592347222222227
 30
0.0
 10
4.316305555555547
 20
6.595073458540051
 30
0.0
 10
4.329815168397444
 20
6.597806791804335
 30
0.0
 10
4.343690168046932
 20
6.585579014335457
 30
0.0
 10
4.347284612400573
 20
6.567784570340538
 30
0.0
  0
SPLINE
  5
1E2
330
1DD
100
AcDbEntity
  8
HU8
 62
   250
420
  2301728
370
    25
100
AcDbSpline
210
0.0
220
0.0
230
1.0
 70
    11
 71
     3
 72
    23
 73
    19
 74
     0
 42
0.0000000001
 43
0.0000000001
 12
1.0
 22
0.0
 32
0.0
 13
1.0
 23
0.0
 33
0.0
 40
0.0
 40
0.0
 40
0.0
 40
0.0
 40
1.0
 40
1.0
 40
1.0
 40
2.0
 40
2.0
 40
2.0
 40
3.0
 40
3.0
 40
3.0
 40
4.0
 40
4.0
 40
4.0
 40
5.0
 40
5.0
 40
5.0
 40
6.0
 40
6.0
 40
6.0
 40
6.0
 10
4.316169335408833
 20
6.595731791856754
 30
0.0
 10
4.316522113177699
 20
6.59580679185486
 30
0.0
 10
4.323466557446712
 20
6.600540125068619
 30
0.0
 10
4.327345724015382
 20
6.601319444444445
 30
0.0
 10
4.341126279222812
 20
6.604106791645184
 30
0.0
 10
4.35528600108733
 20
6.591629014182621
 30
0.0
 10
4.358948500994807
 20
6.573467903530311
 30
0.0
 10
4.362637389790507
 20
6.555292903989438
 30
0.0
 10
4.354417945553703
 20
6.538304015529724
 30
0.0
 10
4.340638888888886
 20
6.535516515600142
 30
0.0
 10
4.340286001466262
 20
6.535442904490891
 30
0.0
 10
4.333341557197248
 20
6.530715126832547
 30
0.0
 10
4.329462390628578
 20
6.529929015741295
 30
0.0
 10
4.315681835421148
 20
6.527148460255981
 30
0.0
 10
4.301522113556631
 20
6.539619293274275
 30
0.0
 10
4.297859613649154
 20
6.557787348370867
 30
0.0
 10
4.294183224853137
 20
6.575956792356313
 30
0.0
 10
4.302390169090257
 20
6.592944444444444
 30
0.0
 10
4.316169335408833
 20
6.595731791856754
 30
0.0
  0
ENDBLK
  5
1E0
330
1DD
100
AcDbEntity
  8
0
100
AcDbBlockEnd
  0
BLOCK
  5
1E5
330
1E3
100
AcDbEntity
  8
0
100
AcDbBlockBegin
  2
block 5
 70
     0
 10
0.0
 20
0.0
 30
0.0
  3
block 5
  1

  0
SPLINE
  5
1E7
330
1E3
100
AcDbEntity
  8
HU8
 62
   250
420
  2301728
370
    18
100
AcDbSpline
210
0.0
220
0.0
230
1.0
 70
    11
 71
     3
 72
    17
 73
    13
 74
     0
 42
0.0000000001
 43
0.0000000001
 12
1.0
 22
0.0
 32
0.0
 13
1.0
 23
0.0
 33
0.0
 40
0.0
 40
0.0
 40
0.0
 40
0.0
 40
1.0
 40
1.0
 40
1.0
 40
2.0
 40
2.0
 40
2.0
 40
3.0
 40
3.0
 40
3.0
 40
4.0
 40
4.0
 40
4.0
 40
4.0
 10
4.528342941159988
 20
6.458838739759408
 30
0.0
 10
4.531949885513313
 20
6.441023462431682
 30
0.0
 10
4.523894330161258
 20
6.424373462852296
 30
0.0
 10
4.510398497168858
 20
6.421641518476867
 30
0.0
 10
4.496888888888886
 20
6.418922074101121
 30
0.0
 10
4.483013888888889
 20
6.431141518236877
 30
0.0
 10
4.479419331284791
 20
6.448944444444439
 30
0.0
 10
4.47582488693115
 20
6.466752628448376
 30
0.0
 10
4.483855442283836
 20
6.483401239138907
 30
0.0
 10
4.497363775275921
 20
6.486127627958922
 30
0.0
 10
4.510873497156859
 20
6.488861111111115
 30
0.0
 10
4.524748496806347
 20
6.476633183754327
 30
0.0
 10
4.528342941159988
 20
6.458838739759408
 30
0.0
  0
SPLINE
  5
1E8
330
1E3
100
AcDbEntity
  8
HU8
 62
   250
420
  2301728
370
    25
100
AcDbSpline
210
0.0
220
0.0
230
1.0
 70
    11
 71
     3
 72
    23
 73
    19
 74
     0
 42
0.0000000001
 43
0.0000000001
 12
1.0
 22
0.0
 32
0.0
 13
1.0
 23
0.0
 33
0.0
 40
0.0
 40
0.0
 40
0.0
 40
0.0
 40
1.0
 40
1.0
 40
1.0
 40
2.0
 40
2.0
 40
2.0
 40
3.0
 40
3.0
 40
3.0
 40
4.0
 40
4.0
 40
4.0
 40
5.0
 40
5.0
 40
5.0
 40
6.0
 40
6.0
 40
6.0
 40
6.0
 10
4.497227664168248
 20
6.486785961275624
 30
0.0
 10
4.497580441937114
 20
6.486861111111112
 30
0.0
 10
4.504524886206127
 20
6.491594294487489
 30
0.0
 10
4.508404052774797
 20
6.492373461134472
 30
0.0
 10
4.522184607982227
 20
6.495160961064053
 30
0.0
 10
4.536344329846744
 20
6.482683183601491
 30
0.0
 10
4.540006829754222
 20
6.464522072949168
 30
0.0
 10
4.543695718549921
 20
6.446347222222218
 30
0.0
 10
4.535476274313118
 20
6.429358184948594
 30
0.0
 10
4.521697107994542
 20
6.426570685019012
 30
0.0
 10
4.521344330225676
 20
6.42649707390976
 30
0.0
 10
4.514399885956664
 20
6.421769296251417
 30
0.0
 10
4.510520719387992
 20
6.420983185160164
 30
0.0
 10
4.496740164180563
 20
6.418202629674852
 30
0.0
 10
4.482580442316046
 20
6.430673462693145
 30
0.0
 10
4.478917942408568
 20
6.448841517789737
 30
0.0
 10
4.475241553612553
 20
6.467010961775182
 30
0.0
 10
4.483448497849673
 20
6.483998461346042
 30
0.0
 10
4.497227664168248
 20
6.486785961275624
 30
0.0
  0
ENDBLK
  5
1E6
330
1E3
100
AcDbEntity
  8
0
100
AcDbBlockEnd
  0
BLOCK
  5
1F3
330
1F1
100
AcDbEntity
  8
0
100
AcDbBlockBegin
  2
block 6
 70
     0
 10
0.0
 20
0.0
 30
0.0
  3
block 6
  1

  0
INSERT
  5
1F6
330
1F1
100
AcDbEntity
  8
HU8
100
AcDbBlockReference
  2
block 7
 10
0.0
 20
0.0
 30
0.0
  0
SPLINE
  5
1FB
330
1F1
100
AcDbEntity
  8
HU8
 62
   250
420
  2301728
370
    18
100
AcDbSpline
210
0.0
220
0.0
230
1.0
 70
     8
 71
     3
 72
    11
 73
     7
 74
     0
 42
0.0000000001
 43
0.0000000001
 12
1.0
 22
0.0
 32
0.0
 13
1.0
 23
0.0
 33
0.0
 40
0.0
 40
0.0
 40
0.0
 40
0.0
 40
1.0
 40
1.0
 40
1.0
 40
2.0
 40
2.0
 40
2.0
 40
2.0
 10
4.43461794352768
 20
6.375656797416316
 30
0.0
 10
4.43461794352768
 20
6.375656797416316
 30
0.0
 10
4.397886000011163
 20
6.349938742510453
 30
0.0
 10
4.375967945009304
 20
6.404191518917691
 30
0.0
 10
4.37052072292469
 20
6.418597222222224
 30
0.0
 10
4.368155445206664
 20
6.472960961624873
 30
0.0
 10
4.413077666294056
 20
6.472960961624873
 30
0.0
  0
ENDBLK
  5
1F4
330
1F1
100
AcDbEntity
  8
0
100
AcDbBlockEnd
  0
BLOCK
  5
1F7
330
1F5
100
AcDbEntity
  8
0
100
AcDbBlockBegin
  2
block 7
 70
     0
 10
0.0
 20
0.0
 30
0.0
  3
block 7
  1

  0
SPLINE
  5
1F9
330
1F5
100
AcDbEntity
  8
HU8
 62
   250
420
  2301728
370
    25
100
AcDbSpline
210
0.0
220
0.0
230
1.0
 70
    11
 71
     3
 72
    17
 73
    13
 74
     0
 42
0.0000000001
 43
0.0000000001
 12
1.0
 22
0.0
 32
0.0
 13
1.0
 23
0.0
 33
0.0
 40
0.0
 40
0.0
 40
0.0
 40
0.0
 40
1.0
 40
1.0
 40
1.0
 40
2.0
 40
2.0
 40
2.0
 40
3.0
 40
3.0
 40
3.0
 40
4.0
 40
4.0
 40
4.0
 40
4.0
 10
4.388148500257153
 20
6.416590129715587
 30
0.0
 10
4.382738778171592
 20
6.443312351262748
 30
0.0
 10
4.394822111199675
 20
6.468287350631827
 30
0.0
 10
4.415065166243847
 20
6.472395683861375
 30
0.0
 10
4.435330443509681
 20
6.476465128203017
 30
0.0
 10
4.456142942983913
 20
6.458135961999384
 30
0.0
 10
4.461534609514374
 20
6.431431796007321
 30
0.0
 10
4.466926276044837
 20
6.404719296682136
 30
0.0
 10
4.454880443015806
 20
6.379745686201911
 30
0.0
 10
4.43461794352768
 20
6.375656797416316
 30
0.0
 10
4.414352666261847
 20
6.371556797519891
 30
0.0
 10
4.393540166787615
 20
6.389898463723208
 30
0.0
 10
4.388148500257153
 20
6.416590129715587
 30
0.0
  0
HATCH
  5
1FA
330
1F5
100
AcDbEntity
  8
HU8
 62
    43
420
 15510108
100
AcDbHatch
 10
0.0
 20
0.0
 30
0.0
210
0.0
220
0.0
230
1.0
  2
SOLID
 70
     1
 71
     0
 91
        1
 92
        1
 93
        1
 72
     4
 94
        3
 73
     0
 74
     1
 95
       17
 96
       13
 40
0.0
 40
0.0
 40
0.0
 40
0.0
 40
1.0
 40
1.0
 40
1.0
 40
2.0
 40
2.0
 40
2.0
 40
3.0
 40
3.0
 40
3.0
 40
4.0
 40
4.0
 40
4.0
 40
4.0
 10
4.388148500257153
 20
6.416590129715587
 10
4.382738778171592
 20
6.443312351262748
 10
4.394822111199675
 20
6.468287350631827
 10
4.415065166243847
 20
6.472395683861375
 10
4.435330443509681
 20
6.476465128203017
 10
4.456142942983913
 20
6.458135961999384
 10
4.461534609514374
 20
6.431431796007321
 10
4.466926276044837
 20
6.404719296682136
 10
4.454880443015806
 20
6.379745686201911
 10
4.43461794352768
 20
6.375656797416316
 10
4.414352666261847
 20
6.371556797519891
 10
4.393540166787615
 20
6.389898463723208
 10
4.388148500257153
 20
6.416590129715587
 97
        0
 97
        0
 75
     2
 76
     1
 98
        0
  0
ENDBLK
  5
1F8
330
1F5
100
AcDbEntity
  8
0
100
AcDbBlockEnd
  0
ENDSEC
  0
SECTION
  2
ENTITIES
  0
POLYLINE
  5
41
330
1F
100
AcDbEntity
  8
Wood
370
     0
100
AcDb2dPolyline
 66
     1
 10
0.0
 20
0.0
 30
0.0
  0
VERTEX
  5
42
330
41
100
AcDbEntity
  8
Wood
370
     0
100
AcDbVertex
100
AcDb2dVertex
 10
3.44907630175789
 20
7.699076208428373
 30
0.0
  0
VERTEX
  5
43
330
41
100
AcDbEntity
  8
Wood
370
     0
100
AcDbVertex
100
AcDb2dVertex
 10
2.861111111111111
 20
7.592590100007328
 30
0.0
  0
VERTEX
  5
44
330
41
100
AcDbEntity
  8
Wood
370
     0
100
AcDbVertex
100
AcDb2dVertex
 10
2.861111111111111
 20
6.809027777777778
 30
0.0
  0
VERTEX
  5
45
330
41
100
AcDbEntity
  8
Wood
370
     0
100
AcDbVertex
100
AcDb2dVertex
 10
2.798611111111111
 20
6.784729009304505
 30
0.0
  0
VERTEX
  5
46
330
41
100
AcDbEntity
  8
Wood
370
     0
100
AcDbVertex
100
AcDb2dVertex
 10
2.916666666666667
 20
6.677083333333333
 30
0.0
  0
VERTEX
  5
47
330
41
100
AcDbEntity
  8
Wood
370
     0
100
AcDbVertex
100
AcDb2dVertex
 10
2.861111111111111
 20
6.638888888888888
 30
0.0
  0
VERTEX
  5
48
330
41
100
AcDbEntity
  8
Wood
370
     0
100
AcDbVertex
100
AcDb2dVertex
 10
2.861111111111111
 20
5.851847222222229
 30
0.0
  0
VERTEX
  5
49
330
41
100
AcDbEntity
  8
Wood
370
     0
100
AcDbVertex
100
AcDb2dVertex
 10
2.976847222222217
 20
5.81043875613937
 30
0.0
  0
VERTEX
  5
4A
330
41
100
AcDbEntity
  8
Wood
370
     0
100
AcDbVertex
100
AcDb2dVertex
 10
2.976847222222217
 20
5.212972222222232
 30
0.0
  0
VERTEX
  5
4B
330
41
100
AcDbEntity
  8
Wood
370
     0
100
AcDbVertex
100
AcDb2dVertex
 10
3.379624999999995
 20
5.055555555555555
 30
0.0
  0
VERTEX
  5
4C
330
41
100
AcDbEntity
  8
Wood
370
     0
100
AcDbVertex
100
AcDb2dVertex
 10
4.28568461395672
 20
5.342176267968676
 30
0.0
  0
VERTEX
  5
4D
330
41
100
AcDbEntity
  8
Wood
370
     0
100
AcDbVertex
100
AcDb2dVertex
 10
4.944444444444444
 20
5.106486111111104
 30
0.0
  0
VERTEX
  5
4E
330
41
100
AcDbEntity
  8
Wood
370
     0
100
AcDbVertex
100
AcDb2dVertex
 10
5.532402777777785
 20
5.324069444444452
 30
0.0
  0
VERTEX
  5
4F
330
41
100
AcDbEntity
  8
Wood
370
     0
100
AcDbVertex
100
AcDb2dVertex
 10
5.532402777777785
 20
6.170145691496852
 30
0.0
  0
VERTEX
  5
50
330
41
100
AcDbEntity
  8
Wood
370
     0
100
AcDbVertex
100
AcDb2dVertex
 10
5.600694444444444
 20
6.190972222222222
 30
0.0
  0
VERTEX
  5
51
330
41
100
AcDbEntity
  8
Wood
370
     0
100
AcDbVertex
100
AcDb2dVertex
 10
5.479166666666666
 20
6.357638888888888
 30
0.0
  0
VERTEX
  5
52
330
41
100
AcDbEntity
  8
Wood
370
     0
100
AcDbVertex
100
AcDb2dVertex
 10
5.532402777777785
 20
6.371527777777778
 30
0.0
  0
VERTEX
  5
53
330
41
100
AcDbEntity
  8
Wood
370
     0
100
AcDbVertex
100
AcDb2dVertex
 10
5.532402777777785
 20
7.208333333333333
 30
0.0
  0
VERTEX
  5
54
330
41
100
AcDbEntity
  8
Wood
370
     0
100
AcDbVertex
100
AcDb2dVertex
 10
3.44907630175789
 20
7.699076208428373
 30
0.0
  0
SEQEND
  5
56
330
41
100
AcDbEntity
  8
Wood
370
     0
  0
HATCH
  5
55
330
1F
100
AcDbEntity
  8
Wood
 62
    43
420
 15510365
100
AcDbHatch
 10
0.0
 20
0.0
 30
0.0
210
0.0
220
0.0
230
1.0
  2
SOLID
 70
     1
 71
     0
 91
        1
 92
        1
 93
       18
 72
     1
 10
3.44907630175789
 20
7.699076208428373
 11
2.861111111111111
 21
7.592590100007328
 72
     1
 10
2.861111111111111
 20
7.592590100007328
 11
2.861111111111111
 21
6.809027777777778
 72
     1
 10
2.861111111111111
 20
6.809027777777778
 11
2.798611111111111
 21
6.784729009304505
 72
     1
 10
2.798611111111111
 20
6.784729009304505
 11
2.916666666666667
 21
6.677083333333333
 72
     1
 10
2.916666666666667
 20
6.677083333333333
 11
2.861111111111111
 21
6.638888888888888
 72
     1
 10
2.861111111111111
 20
6.638888888888888
 11
2.861111111111111
 21
5.851847222222229
 72
     1
 10
2.861111111111111
 20
5.851847222222229
 11
2.976847222222217
 21
5.81043875613937
 72
     1
 10
2.976847222222217
 20
5.81043875613937
 11
2.976847222222217
 21
5.212972222222232
 72
     1
 10
2.976847222222217
 20
5.212972222222232
 11
3.379624999999995
 21
5.055555555555555
 72
     1
 10
3.379624999999995
 20
5.055555555555555
 11
4.28568461395672
 21
5.342176267968676
 72
     1
 10
4.28568461395672
 20
5.342176267968676
 11
4.944444444444444
 21
5.106486111111104
 72
     1
 10
4.944444444444444
 20
5.106486111111104
 11
5.532402777777785
 21
5.324069444444452
 72
     1
 10
5.532402777777785
 20
5.324069444444452
 11
5.532402777777785
 21
6.170145691496852
 72
     1
 10
5.532402777777785
 20
6.170145691496852
 11
5.600694444444444
 21
6.190972222222222
 72
     1
 10
5.600694444444444
 20
6.190972222222222
 11
5.479166666666666
 21
6.357638888888888
 72
     1
 10
5.479166666666666
 20
6.357638888888888
 11
5.532402777777785
 21
6.371527777777778
 72
     1
 10
5.532402777777785
 20
6.371527777777778
 11
5.532402777777785
 21
7.208333333333333
 72
     1
 10
5.532402777777785
 20
7.208333333333333
 11
3.44907630175789
 21
7.699076208428373
 97
        0
 75
     2
 76
     1
 98
        0
  0
POLYLINE
  5
57
330
1F
100
AcDbEntity
  8
Wood
 62
   250
420
  2301728
370
    35
100
AcDb2dPolyline
 66
     1
 10
0.0
 20
0.0
 30
0.0
  0
VERTEX
  5
58
330
57
100
AcDbEntity
  8
Wood
 62
   250
420
  2301728
370
    35
100
AcDbVertex
100
AcDb2dVertex
 10
3.44907630175789
 20
7.699076208428373
 30
0.0
  0
VERTEX
  5
59
330
57
100
AcDbEntity
  8
Wood
 62
   250
420
  2301728
370
    35
100
AcDbVertex
100
AcDb2dVertex
 10
2.861111111111111
 20
7.592590100007328
 30
0.0
  0
VERTEX
  5
5A
330
57
100
AcDbEntity
  8
Wood
 62
   250
420
  2301728
370
    35
100
AcDbVertex
100
AcDb2dVertex
 10
2.861111111111111
 20
6.809027777777778
 30
0.0
  0
VERTEX
  5
5B
330
57
100
AcDbEntity
  8
Wood
 62
   250
420
  2301728
370
    35
100
AcDbVertex
100
AcDb2dVertex
 10
2.798611111111111
 20
6.784729009304505
 30
0.0
  0
VERTEX
  5
5C
330
57
100
AcDbEntity
  8
Wood
 62
   250
420
  2301728
370
    35
100
AcDbVertex
100
AcDb2dVertex
 10
2.916666666666667
 20
6.677083333333333
 30
0.0
  0
VERTEX
  5
5D
330
57
100
AcDbEntity
  8
Wood
 62
   250
420
  2301728
370
    35
100
AcDbVertex
100
AcDb2dVertex
 10
2.861111111111111
 20
6.638888888888888
 30
0.0
  0
VERTEX
  5
5E
330
57
100
AcDbEntity
  8
Wood
 62
   250
420
  2301728
370
    35
100
AcDbVertex
100
AcDb2dVertex
 10
2.861111111111111
 20
5.851847222222229
 30
0.0
  0
VERTEX
  5
5F
330
57
100
AcDbEntity
  8
Wood
 62
   250
420
  2301728
370
    35
100
AcDbVertex
100
AcDb2dVertex
 10
2.976847222222217
 20
5.81043875613937
 30
0.0
  0
VERTEX
  5
60
330
57
100
AcDbEntity
  8
Wood
 62
   250
420
  2301728
370
    35
100
AcDbVertex
100
AcDb2dVertex
 10
2.976847222222217
 20
5.212972222222232
 30
0.0
  0
VERTEX
  5
61
330
57
100
AcDbEntity
  8
Wood
 62
   250
420
  2301728
370
    35
100
AcDbVertex
100
AcDb2dVertex
 10
3.379624999999995
 20
5.055555555555555
 30
0.0
  0
VERTEX
  5
62
330
57
100
AcDbEntity
  8
Wood
 62
   250
420
  2301728
370
    35
100
AcDbVertex
100
AcDb2dVertex
 10
4.28568461395672
 20
5.342176267968676
 30
0.0
  0
VERTEX
  5
63
330
57
100
AcDbEntity
  8
Wood
 62
   250
420
  2301728
370
    35
100
AcDbVertex
100
AcDb2dVertex
 10
4.944444444444444
 20
5.106486111111104
 30
0.0
  0
VERTEX
  5
64
330
57
100
AcDbEntity
  8
Wood
 62
   250
420
  2301728
370
    35
100
AcDbVertex
100
AcDb2dVertex
 10
5.532402777777785
 20
5.324069444444452
 30
0.0
  0
VERTEX
  5
65
330
57
100
AcDbEntity
  8
Wood
 62
   250
420
  2301728
370
    35
100
AcDbVertex
100
AcDb2dVertex
 10
5.532402777777785
 20
6.170145691496852
 30
0.0
  0
VERTEX
  5
66
330
57
100
AcDbEntity
  8
Wood
 62
   250
420
  2301728
370
    35
100
AcDbVertex
100
AcDb2dVertex
 10
5.600694444444444
 20
6.190972222222222
 30
0.0
  0
VERTEX
  5
67
330
57
100
AcDbEntity
  8
Wood
 62
   250
420
  2301728
370
    35
100
AcDbVertex
100
AcDb2dVertex
 10
5.479166666666666
 20
6.357638888888888
 30
0.0
  0
VERTEX
  5
68
330
57
100
AcDbEntity
  8
Wood
 62
   250
420
  2301728
370
    35
100
AcDbVertex
100
AcDb2dVertex
 10
5.532402777777785
 20
6.371527777777778
 30
0.0
  0
VERTEX
  5
69
330
57
100
AcDbEntity
  8
Wood
 62
   250
420
  2301728
370
    35
100
AcDbVertex
100
AcDb2dVertex
 10
5.532402777777785
 20
7.208333333333333
 30
0.0
  0
VERTEX
  5
6A
330
57
100
AcDbEntity
  8
Wood
 62
   250
420
  2301728
370
    35
100
AcDbVertex
100
AcDb2dVertex
 10
3.44907630175789
 20
7.699076208428373
 30
0.0
  0
SEQEND
  5
6B
330
57
100
AcDbEntity
  8
Wood
 62
   250
420
  2301728
370
    35
  0
POLYLINE
  5
6C
330
1F
100
AcDbEntity
  8
Wood
 62
   250
420
  2301728
370
    35
100
AcDb2dPolyline
 66
     1
 10
0.0
 20
0.0
 30
0.0
  0
VERTEX
  5
6D
330
6C
100
AcDbEntity
  8
Wood
 62
   250
420
  2301728
370
    35
100
AcDbVertex
100
AcDb2dVertex
 10
4.934027777777778
 20
5.989583333333333
 30
0.0
  0
VERTEX
  5
6E
330
6C
100
AcDbEntity
  8
Wood
 62
   250
420
  2301728
370
    35
100
AcDbVertex
100
AcDb2dVertex
 10
5.600694444444444
 20
6.190972222222222
 30
0.0
  0
SEQEND
  5
6F
330
6C
100
AcDbEntity
  8
Wood
 62
   250
420
  2301728
370
    35
  0
POLYLINE
  5
70
330
1F
100
AcDbEntity
  8
Wood
 62
   250
420
  2301728
370
    35
100
AcDb2dPolyline
 66
     1
 10
0.0
 20
0.0
 30
0.0
  0
VERTEX
  5
71
330
70
100
AcDbEntity
  8
Wood
 62
   250
420
  2301728
370
    35
100
AcDbVertex
100
AcDb2dVertex
 10
4.868055555555555
 20
6.180555555555555
 30
0.0
  0
VERTEX
  5
72
330
70
100
AcDbEntity
  8
Wood
 62
   250
420
  2301728
370
    35
100
AcDbVertex
100
AcDb2dVertex
 10
5.532402777777785
 20
6.371527777777778
 30
0.0
  0
SEQEND
  5
73
330
70
100
AcDbEntity
  8
Wood
 62
   250
420
  2301728
370
    35
  0
POLYLINE
  5
74
330
1F
100
AcDbEntity
  8
Wood
 62
   250
420
  2301728
370
    35
100
AcDb2dPolyline
 66
     1
 10
0.0
 20
0.0
 30
0.0
  0
VERTEX
  5
75
330
74
100
AcDbEntity
  8
Wood
 62
   250
420
  2301728
370
    35
100
AcDbVertex
100
AcDb2dVertex
 10
2.976847222222217
 20
5.787055555555551
 30
0.0
  0
VERTEX
  5
76
330
74
100
AcDbEntity
  8
Wood
 62
   250
420
  2301728
370
    35
100
AcDbVertex
100
AcDb2dVertex
 10
2.976847222222217
 20
6.059034583192644
 30
0.0
  0
VERTEX
  5
77
330
74
100
AcDbEntity
  8
Wood
 62
   250
420
  2301728
370
    35
100
AcDbVertex
100
AcDb2dVertex
 10
3.03125
 20
6.152777777777778
 30
0.0
  0
VERTEX
  5
78
330
74
100
AcDbEntity
  8
Wood
 62
   250
420
  2301728
370
    35
100
AcDbVertex
100
AcDb2dVertex
 10
2.916666666666667
 20
6.197916666666666
 30
0.0
  0
VERTEX
  5
79
330
74
100
AcDbEntity
  8
Wood
 62
   250
420
  2301728
370
    35
100
AcDbVertex
100
AcDb2dVertex
 10
2.976847222222217
 20
6.295145688339087
 30
0.0
  0
VERTEX
  5
7A
330
74
100
AcDbEntity
  8
Wood
 62
   250
420
  2301728
370
    35
100
AcDbVertex
100
AcDb2dVertex
 10
2.976847222222217
 20
7.134263888888894
 30
0.0
  0
VERTEX
  5
7B
330
74
100
AcDbEntity
  8
Wood
 62
   250
420
  2301728
370
    35
100
AcDbVertex
100
AcDb2dVertex
 10
3.891201290588874
 20
7.328701217784833
 30
0.0
  0
SEQEND
  5
7C
330
74
100
AcDbEntity
  8
Wood
 62
   250
420
  2301728
370
    35
  0
POLYLINE
  5
7D
330
1F
100
AcDbEntity
  8
Wood
 62
   250
420
  2301728
370
    35
100
AcDb2dPolyline
 66
     1
 10
0.0
 20
0.0
 30
0.0
  0
VERTEX
  5
7E
330
7D
100
AcDbEntity
  8
Wood
 62
   250
420
  2301728
370
    35
100
AcDbVertex
100
AcDb2dVertex
 10
3.430555555555555
 20
6.017361111111111
 30
0.0
  0
VERTEX
  5
7F
330
7D
100
AcDbEntity
  8
Wood
 62
   250
420
  2301728
370
    35
100
AcDbVertex
100
AcDb2dVertex
 10
2.916666666666667
 20
6.197916666666666
 30
0.0
  0
SEQEND
  5
80
330
7D
100
AcDbEntity
  8
Wood
 62
   250
420
  2301728
370
    35
  0
POLYLINE
  5
81
330
1F
100
AcDbEntity
  8
Wood
 62
   250
420
  2301728
370
    25
100
AcDb2dPolyline
 66
     1
 10
0.0
 20
0.0
 30
0.0
  0
VERTEX
  5
82
330
81
100
AcDbEntity
  8
Wood
 62
   250
420
  2301728
370
    25
100
AcDbVertex
100
AcDb2dVertex
 10
2.861111111111111
 20
7.592590100007328
 30
0.0
  0
VERTEX
  5
83
330
81
100
AcDbEntity
  8
Wood
 62
   250
420
  2301728
370
    25
100
AcDbVertex
100
AcDb2dVertex
 10
4.935180555555562
 20
7.064819444444449
 30
0.0
  0
VERTEX
  5
84
330
81
100
AcDbEntity
  8
Wood
 62
   250
420
  2301728
370
    25
100
AcDbVertex
100
AcDb2dVertex
 10
5.532402777777785
 20
7.208333333333333
 30
0.0
  0
SEQEND
  5
85
330
81
100
AcDbEntity
  8
Wood
 62
   250
420
  2301728
370
    25
  0
POLYLINE
  5
86
330
1F
100
AcDbEntity
  8
Wood
 62
   250
420
  2301728
370
    25
100
AcDb2dPolyline
 66
     1
 10
0.0
 20
0.0
 30
0.0
  0
VERTEX
  5
87
330
86
100
AcDbEntity
  8
Wood
 62
   250
420
  2301728
370
    25
100
AcDbVertex
100
AcDb2dVertex
 10
4.935180555555562
 20
7.064819444444449
 30
0.0
  0
VERTEX
  5
88
330
86
100
AcDbEntity
  8
Wood
 62
   250
420
  2301728
370
    25
100
AcDbVertex
100
AcDb2dVertex
 10
4.935180555555562
 20
6.197916666666666
 30
0.0
  0
VERTEX
  5
89
330
86
100
AcDbEntity
  8
Wood
 62
   250
420
  2301728
370
    25
100
AcDbVertex
100
AcDb2dVertex
 10
4.871527777777778
 20
6.184027777777778
 30
0.0
  0
VERTEX
  5
8A
330
86
100
AcDbEntity
  8
Wood
 62
   250
420
  2301728
370
    25
100
AcDbVertex
100
AcDb2dVertex
 10
5.006944444444444
 20
6.013888888888888
 30
0.0
  0
VERTEX
  5
8B
330
86
100
AcDbEntity
  8
Wood
 62
   250
420
  2301728
370
    25
100
AcDbVertex
100
AcDb2dVertex
 10
4.935180555555562
 20
5.989583333333333
 30
0.0
  0
VERTEX
  5
8C
330
86
100
AcDbEntity
  8
Wood
 62
   250
420
  2301728
370
    25
100
AcDbVertex
100
AcDb2dVertex
 10
4.935180555555562
 20
5.106486111111104
 30
0.0
  0
SEQEND
  5
8D
330
86
100
AcDbEntity
  8
Wood
 62
   250
420
  2301728
370
    25
  0
POLYLINE
  5
8E
330
1F
100
AcDbEntity
  8
Wood
 62
   250
420
  2301728
370
    25
100
AcDb2dPolyline
 66
     1
 10
0.0
 20
0.0
 30
0.0
  0
VERTEX
  5
8F
330
8E
100
AcDbEntity
  8
Wood
 62
   250
420
  2301728
370
    25
100
AcDbVertex
100
AcDb2dVertex
 10
4.28568461395672
 20
5.342176267968676
 30
0.0
  0
VERTEX
  5
90
330
8E
100
AcDbEntity
  8
Wood
 62
   250
420
  2301728
370
    25
100
AcDbVertex
100
AcDb2dVertex
 10
4.28568461395672
 20
7.230881775811516
 30
0.0
  0
SEQEND
  5
91
330
8E
100
AcDbEntity
  8
Wood
 62
   250
420
  2301728
370
    25
  0
POLYLINE
  5
92
330
1F
100
AcDbEntity
  8
Wood
 62
   250
420
  2301728
370
    25
100
AcDb2dPolyline
 66
     1
 10
0.0
 20
0.0
 30
0.0
  0
VERTEX
  5
93
330
92
100
AcDbEntity
  8
Wood
 62
   250
420
  2301728
370
    25
100
AcDbVertex
100
AcDb2dVertex
 10
2.976847222222217
 20
7.134263888888894
 30
0.0
  0
VERTEX
  5
94
330
92
100
AcDbEntity
  8
Wood
 62
   250
420
  2301728
370
    25
100
AcDbVertex
100
AcDb2dVertex
 10
3.379624999999995
 20
7.027784558719961
 30
0.0
  0
VERTEX
  5
95
330
92
100
AcDbEntity
  8
Wood
 62
   250
420
  2301728
370
    25
100
AcDbVertex
100
AcDb2dVertex
 10
4.284586002873362
 20
7.22972899806286
 30
0.0
  0
SEQEND
  5
96
330
92
100
AcDbEntity
  8
Wood
 62
   250
420
  2301728
370
    25
  0
POLYLINE
  5
97
330
1F
100
AcDbEntity
  8
Wood
 62
   250
420
  2301728
370
    25
100
AcDb2dPolyline
 66
     1
 10
0.0
 20
0.0
 30
0.0
  0
VERTEX
  5
98
330
97
100
AcDbEntity
  8
Wood
 62
   250
420
  2301728
370
    25
100
AcDbVertex
100
AcDb2dVertex
 10
3.379624999999995
 20
7.027784558719961
 30
0.0
  0
VERTEX
  5
99
330
97
100
AcDbEntity
  8
Wood
 62
   250
420
  2301728
370
    25
100
AcDbVertex
100
AcDb2dVertex
 10
3.379624999999995
 20
6.156256802958826
 30
0.0
  0
VERTEX
  5
9A
330
97
100
AcDbEntity
  8
Wood
 62
   250
420
  2301728
370
    25
100
AcDbVertex
100
AcDb2dVertex
 10
3.309027777777778
 20
6.059027777777778
 30
0.0
  0
VERTEX
  5
9B
330
97
100
AcDbEntity
  8
Wood
 62
   250
420
  2301728
370
    25
100
AcDbVertex
100
AcDb2dVertex
 10
3.430555555555555
 20
6.017361111111111
 30
0.0
  0
VERTEX
  5
9C
330
97
100
AcDbEntity
  8
Wood
 62
   250
420
  2301728
370
    25
100
AcDbVertex
100
AcDb2dVertex
 10
3.379624999999995
 20
5.913194444444444
 30
0.0
  0
VERTEX
  5
9D
330
97
100
AcDbEntity
  8
Wood
 62
   250
420
  2301728
370
    25
100
AcDbVertex
100
AcDb2dVertex
 10
3.379624999999995
 20
5.055555555555555
 30
0.0
  0
SEQEND
  5
9E
330
97
100
AcDbEntity
  8
Wood
 62
   250
420
  2301728
370
    25
  0
POLYLINE
  5
9F
330
1F
100
AcDbEntity
  8
Wood
 62
   250
420
  2301728
370
    25
100
AcDb2dPolyline
 66
     1
 10
0.0
 20
0.0
 30
0.0
  0
VERTEX
  5
A0
330
9F
100
AcDbEntity
  8
Wood
 62
   250
420
  2301728
370
    25
100
AcDbVertex
100
AcDb2dVertex
 10
2.976847222222217
 20
6.295145688339087
 30
0.0
  0
VERTEX
  5
A1
330
9F
100
AcDbEntity
  8
Wood
 62
   250
420
  2301728
370
    25
100
AcDbVertex
100
AcDb2dVertex
 10
3.379624999999995
 20
6.156256802958826
 30
0.0
  0
SEQEND
  5
A2
330
9F
100
AcDbEntity
  8
Wood
 62
   250
420
  2301728
370
    25
  0
POLYLINE
  5
A3
330
1F
100
AcDbEntity
  8
Wood
 62
   250
420
  2301728
370
    25
100
AcDb2dPolyline
 66
     1
 10
0.0
 20
0.0
 30
0.0
  0
VERTEX
  5
A4
330
A3
100
AcDbEntity
  8
Wood
 62
   250
420
  2301728
370
    25
100
AcDbVertex
100
AcDb2dVertex
 10
2.976847222222217
 20
6.059034583192644
 30
0.0
  0
VERTEX
  5
A5
330
A3
100
AcDbEntity
  8
Wood
 62
   250
420
  2301728
370
    25
100
AcDbVertex
100
AcDb2dVertex
 10
3.379624999999995
 20
5.913194444444444
 30
0.0
  0
SEQEND
  5
A6
330
A3
100
AcDbEntity
  8
Wood
 62
   250
420
  2301728
370
    25
  0
POLYLINE
  5
A7
330
1F
100
AcDbEntity
  8
Wood
 62
   250
420
  2301728
370
    18
100
AcDb2dPolyline
 66
     1
 10
0.0
 20
0.0
 30
0.0
  0
VERTEX
  5
A8
330
A7
100
AcDbEntity
  8
Wood
 62
   250
420
  2301728
370
    18
100
AcDbVertex
100
AcDb2dVertex
 10
4.934027777777778
 20
6.96875
 30
0.0
  0
VERTEX
  5
A9
330
A7
100
AcDbEntity
  8
Wood
 62
   250
420
  2301728
370
    18
100
AcDbVertex
100
AcDb2dVertex
 10
4.958333333333333
 20
6.84375
 30
0.0
  0
VERTEX
  5
AA
330
A7
100
AcDbEntity
  8
Wood
 62
   250
420
  2301728
370
    18
100
AcDbVertex
100
AcDb2dVertex
 10
4.934027777777778
 20
6.659722222222221
 30
0.0
  0
SEQEND
  5
AB
330
A7
100
AcDbEntity
  8
Wood
 62
   250
420
  2301728
370
    18
  0
POLYLINE
  5
AC
330
1F
100
AcDbEntity
  8
Wood
 62
   250
420
  2301728
370
    18
100
AcDb2dPolyline
 66
     1
 10
0.0
 20
0.0
 30
0.0
  0
VERTEX
  5
AD
330
AC
100
AcDbEntity
  8
Wood
 62
   250
420
  2301728
370
    18
100
AcDbVertex
100
AcDb2dVertex
 10
4.975694444444444
 20
7.076388888888888
 30
0.0
  0
VERTEX
  5
AE
330
AC
100
AcDbEntity
  8
Wood
 62
   250
420
  2301728
370
    18
100
AcDbVertex
100
AcDb2dVertex
 10
5.013888888888888
 20
6.784722222222221
 30
0.0
  0
VERTEX
  5
AF
330
AC
100
AcDbEntity
  8
Wood
 62
   250
420
  2301728
370
    18
100
AcDbVertex
100
AcDb2dVertex
 10
4.934027777777778
 20
6.305555555555555
 30
0.0
  0
SEQEND
  5
B0
330
AC
100
AcDbEntity
  8
Wood
 62
   250
420
  2301728
370
    18
  0
POLYLINE
  5
B1
330
1F
100
AcDbEntity
  8
Wood
 62
   250
420
  2301728
370
    18
100
AcDb2dPolyline
 66
     1
 10
0.0
 20
0.0
 30
0.0
  0
VERTEX
  5
B2
330
B1
100
AcDbEntity
  8
Wood
 62
   250
420
  2301728
370
    18
100
AcDbVertex
100
AcDb2dVertex
 10
5.03125
 20
7.086805555555555
 30
0.0
  0
VERTEX
  5
B3
330
B1
100
AcDbEntity
  8
Wood
 62
   250
420
  2301728
370
    18
100
AcDbVertex
100
AcDb2dVertex
 10
5.065972222222222
 20
6.663194444444444
 30
0.0
  0
VERTEX
  5
B4
330
B1
100
AcDbEntity
  8
Wood
 62
   250
420
  2301728
370
    18
100
AcDbVertex
100
AcDb2dVertex
 10
4.979166666666666
 20
6.215277777777778
 30
0.0
  0
SEQEND
  5
B5
330
B1
100
AcDbEntity
  8
Wood
 62
   250
420
  2301728
370
    18
  0
POLYLINE
  5
B6
330
1F
100
AcDbEntity
  8
Wood
 62
   250
420
  2301728
370
    18
100
AcDb2dPolyline
 66
     1
 10
0.0
 20
0.0
 30
0.0
  0
VERTEX
  5
B7
330
B6
100
AcDbEntity
  8
Wood
 62
   250
420
  2301728
370
    18
100
AcDbVertex
100
AcDb2dVertex
 10
5.083333333333333
 20
7.100694444444444
 30
0.0
  0
VERTEX
  5
B8
330
B6
100
AcDbEntity
  8
Wood
 62
   250
420
  2301728
370
    18
100
AcDbVertex
100
AcDb2dVertex
 10
5.131944444444444
 20
6.618055555555555
 30
0.0
  0
VERTEX
  5
B9
330
B6
100
AcDbEntity
  8
Wood
 62
   250
420
  2301728
370
    18
100
AcDbVertex
100
AcDb2dVertex
 10
5.052083333333333
 20
6.239583333333333
 30
0.0
  0
SEQEND
  5
BA
330
B6
100
AcDbEntity
  8
Wood
 62
   250
420
  2301728
370
    18
  0
POLYLINE
  5
BB
330
1F
100
AcDbEntity
  8
Wood
 62
   250
420
  2301728
370
    18
100
AcDb2dPolyline
 66
     1
 10
0.0
 20
0.0
 30
0.0
  0
VERTEX
  5
BC
330
BB
100
AcDbEntity
  8
Wood
 62
   250
420
  2301728
370
    18
100
AcDbVertex
100
AcDb2dVertex
 10
5.135416666666666
 20
7.111111111111111
 30
0.0
  0
VERTEX
  5
BD
330
BB
100
AcDbEntity
  8
Wood
 62
   250
420
  2301728
370
    18
100
AcDbVertex
100
AcDb2dVertex
 10
5.190972222222222
 20
6.565972222222221
 30
0.0
  0
VERTEX
  5
BE
330
BB
100
AcDbEntity
  8
Wood
 62
   250
420
  2301728
370
    18
100
AcDbVertex
100
AcDb2dVertex
 10
5.121527777777778
 20
6.260416666666666
 30
0.0
  0
SEQEND
  5
BF
330
BB
100
AcDbEntity
  8
Wood
 62
   250
420
  2301728
370
    18
  0
POLYLINE
  5
C0
330
1F
100
AcDbEntity
  8
Wood
 62
   250
420
  2301728
370
    18
100
AcDb2dPolyline
 66
     1
 10
0.0
 20
0.0
 30
0.0
  0
VERTEX
  5
C1
330
C0
100
AcDbEntity
  8
Wood
 62
   250
420
  2301728
370
    18
100
AcDbVertex
100
AcDb2dVertex
 10
5.177083333333333
 20
7.121527777777778
 30
0.0
  0
VERTEX
  5
C2
330
C0
100
AcDbEntity
  8
Wood
 62
   250
420
  2301728
370
    18
100
AcDbVertex
100
AcDb2dVertex
 10
5.267361111111111
 20
6.524305555555555
 30
0.0
  0
VERTEX
  5
C3
330
C0
100
AcDbEntity
  8
Wood
 62
   250
420
  2301728
370
    18
100
AcDbVertex
100
AcDb2dVertex
 10
5.204861111111111
 20
6.28125
 30
0.0
  0
SEQEND
  5
C4
330
C0
100
AcDbEntity
  8
Wood
 62
   250
420
  2301728
370
    18
  0
SPLINE
  5
C5
330
1F
100
AcDbEntity
  8
Wood
 62
   250
420
  2301728
370
    18
100
AcDbSpline
210
0.0
220
0.0
230
1.0
 70
     8
 71
     3
 72
    11
 73
     7
 74
     0
 42
0.0000000001
 43
0.0000000001
 12
1.0
 22
0.0
 32
0.0
 13
1.0
 23
0.0
 33
0.0
 40
0.0
 40
0.0
 40
0.0
 40
0.0
 40
1.0
 40
1.0
 40
1.0
 40
2.0
 40
2.0
 40
2.0
 40
2.0
 10
5.236111111111111
 20
7.135416666666666
 30
0.0
 10
5.239583333333333
 20
7.125
 30
0.0
 10
5.336805555555555
 20
6.482638888888888
 30
0.0
 10
5.336805555555555
 20
6.482638888888888
 30
0.0
 10
5.336805555555555
 20
6.482638888888888
 30
0.0
 10
5.298611111111111
 20
6.309027777777778
 30
0.0
 10
5.298611111111111
 20
6.309027777777778
 30
0.0
  0
POLYLINE
  5
C6
330
1F
100
AcDbEntity
  8
Wood
 62
   250
420
  2301728
370
    18
100
AcDb2dPolyline
 66
     1
 10
0.0
 20
0.0
 30
0.0
  0
VERTEX
  5
C7
330
C6
100
AcDbEntity
  8
Wood
 62
   250
420
  2301728
370
    18
100
AcDbVertex
100
AcDb2dVertex
 10
5.291666666666666
 20
7.152777777777778
 30
0.0
  0
VERTEX
  5
C8
330
C6
100
AcDbEntity
  8
Wood
 62
   250
420
  2301728
370
    18
100
AcDbVertex
100
AcDb2dVertex
 10
5.409722222222222
 20
6.46875
 30
0.0
  0
VERTEX
  5
C9
330
C6
100
AcDbEntity
  8
Wood
 62
   250
420
  2301728
370
    18
100
AcDbVertex
100
AcDb2dVertex
 10
5.385416666666666
 20
6.333333333333333
 30
0.0
  0
SEQEND
  5
CA
330
C6
100
AcDbEntity
  8
Wood
 62
   250
420
  2301728
370
    18
  0
SPLINE
  5
CB
330
1F
100
AcDbEntity
  8
Wood
 62
   250
420
  2301728
370
    18
100
AcDbSpline
210
0.0
220
0.0
230
1.0
 70
     8
 71
     3
 72
    11
 73
     7
 74
     0
 42
0.0000000001
 43
0.0000000001
 12
1.0
 22
0.0
 32
0.0
 13
1.0
 23
0.0
 33
0.0
 40
0.0
 40
0.0
 40
0.0
 40
0.0
 40
1.0
 40
1.0
 40
1.0
 40
2.0
 40
2.0
 40
2.0
 40
2.0
 10
5.354166666666666
 20
7.163194444444444
 30
0.0
 10
5.357638888888888
 20
7.149305555555555
 30
0.0
 10
5.472222222222222
 20
6.427083333333333
 30
0.0
 10
5.472222222222222
 20
6.427083333333333
 30
0.0
 10
5.472222222222222
 20
6.427083333333333
 30
0.0
 10
5.465277777777778
 20
6.357638888888888
 30
0.0
 10
5.465277777777778
 20
6.357638888888888
 30
0.0
  0
POLYLINE
  5
CC
330
1F
100
AcDbEntity
  8
Wood
 62
   250
420
  2301728
370
    18
100
AcDb2dPolyline
 66
     1
 10
0.0
 20
0.0
 30
0.0
  0
VERTEX
  5
CD
330
CC
100
AcDbEntity
  8
Wood
 62
   250
420
  2301728
370
    18
100
AcDbVertex
100
AcDb2dVertex
 10
5.399305555555555
 20
7.173611111111111
 30
0.0
  0
VERTEX
  5
CE
330
CC
100
AcDbEntity
  8
Wood
 62
   250
420
  2301728
370
    18
100
AcDbVertex
100
AcDb2dVertex
 10
5.53125
 20
6.402777777777778
 30
0.0
  0
SEQEND
  5
CF
330
CC
100
AcDbEntity
  8
Wood
 62
   250
420
  2301728
370
    18
  0
POLYLINE
  5
D0
330
1F
100
AcDbEntity
  8
Wood
 62
   250
420
  2301728
370
    18
100
AcDb2dPolyline
 66
     1
 10
0.0
 20
0.0
 30
0.0
  0
VERTEX
  5
D1
330
D0
100
AcDbEntity
  8
Wood
 62
   250
420
  2301728
370
    18
100
AcDbVertex
100
AcDb2dVertex
 10
5.447916666666666
 20
7.190972222222221
 30
0.0
  0
VERTEX
  5
D2
330
D0
100
AcDbEntity
  8
Wood
 62
   250
420
  2301728
370
    18
100
AcDbVertex
100
AcDb2dVertex
 10
5.534722222222222
 20
6.631944444444444
 30
0.0
  0
SEQEND
  5
D3
330
D0
100
AcDbEntity
  8
Wood
 62
   250
420
  2301728
370
    18
  0
POLYLINE
  5
D4
330
1F
100
AcDbEntity
  8
Wood
 62
   250
420
  2301728
370
    18
100
AcDb2dPolyline
 66
     1
 10
0.0
 20
0.0
 30
0.0
  0
VERTEX
  5
D5
330
D4
100
AcDbEntity
  8
Wood
 62
   250
420
  2301728
370
    18
100
AcDbVertex
100
AcDb2dVertex
 10
5.493055555555555
 20
7.201388888888888
 30
0.0
  0
VERTEX
  5
D6
330
D4
100
AcDbEntity
  8
Wood
 62
   250
420
  2301728
370
    18
100
AcDbVertex
100
AcDb2dVertex
 10
5.527777777777778
 20
6.902777777777778
 30
0.0
  0
SEQEND
  5
D7
330
D4
100
AcDbEntity
  8
Wood
 62
   250
420
  2301728
370
    18
  0
POLYLINE
  5
D8
330
1F
100
AcDbEntity
  8
Wood
 62
   250
420
  2301728
370
    18
100
AcDb2dPolyline
 66
     1
 10
0.0
 20
0.0
 30
0.0
  0
VERTEX
  5
D9
330
D8
100
AcDbEntity
  8
Wood
 62
   250
420
  2301728
370
    18
100
AcDbVertex
100
AcDb2dVertex
 10
4.935180555555562
 20
6.197916666666666
 30
0.0
  0
VERTEX
  5
DA
330
D8
100
AcDbEntity
  8
Wood
 62
   250
420
  2301728
370
    18
100
AcDbVertex
100
AcDb2dVertex
 10
5.0625
 20
6.03125
 30
0.0
  0
SEQEND
  5
DB
330
D8
100
AcDbEntity
  8
Wood
 62
   250
420
  2301728
370
    18
  0
POLYLINE
  5
DC
330
1F
100
AcDbEntity
  8
Wood
 62
   250
420
  2301728
370
    18
100
AcDb2dPolyline
 66
     1
 10
0.0
 20
0.0
 30
0.0
  0
VERTEX
  5
DD
330
DC
100
AcDbEntity
  8
Wood
 62
   250
420
  2301728
370
    18
100
AcDbVertex
100
AcDb2dVertex
 10
4.994208333333341
 20
6.222222222222221
 30
0.0
  0
VERTEX
  5
DE
330
DC
100
AcDbEntity
  8
Wood
 62
   250
420
  2301728
370
    18
100
AcDbVertex
100
AcDb2dVertex
 10
5.121527777777778
 20
6.055555555555555
 30
0.0
  0
SEQEND
  5
DF
330
DC
100
AcDbEntity
  8
Wood
 62
   250
420
  2301728
370
    18
  0
POLYLINE
  5
E0
330
1F
100
AcDbEntity
  8
Wood
 62
   250
420
  2301728
370
    18
100
AcDb2dPolyline
 66
     1
 10
0.0
 20
0.0
 30
0.0
  0
VERTEX
  5
E1
330
E0
100
AcDbEntity
  8
Wood
 62
   250
420
  2301728
370
    18
100
AcDbVertex
100
AcDb2dVertex
 10
5.063652777777785
 20
6.236111111111111
 30
0.0
  0
VERTEX
  5
E2
330
E0
100
AcDbEntity
  8
Wood
 62
   250
420
  2301728
370
    18
100
AcDbVertex
100
AcDb2dVertex
 10
5.190972222222222
 20
6.069444444444444
 30
0.0
  0
SEQEND
  5
E3
330
E0
100
AcDbEntity
  8
Wood
 62
   250
420
  2301728
370
    18
  0
POLYLINE
  5
E4
330
1F
100
AcDbEntity
  8
Wood
 62
   250
420
  2301728
370
    18
100
AcDb2dPolyline
 66
     1
 10
0.0
 20
0.0
 30
0.0
  0
VERTEX
  5
E5
330
E4
100
AcDbEntity
  8
Wood
 62
   250
420
  2301728
370
    18
100
AcDbVertex
100
AcDb2dVertex
 10
5.108791666666674
 20
6.25
 30
0.0
  0
VERTEX
  5
E6
330
E4
100
AcDbEntity
  8
Wood
 62
   250
420
  2301728
370
    18
100
AcDbVertex
100
AcDb2dVertex
 10
5.236111111111111
 20
6.083333333333333
 30
0.0
  0
SEQEND
  5
E7
330
E4
100
AcDbEntity
  8
Wood
 62
   250
420
  2301728
370
    18
  0
POLYLINE
  5
E8
330
1F
100
AcDbEntity
  8
Wood
 62
   250
420
  2301728
370
    18
100
AcDb2dPolyline
 66
     1
 10
0.0
 20
0.0
 30
0.0
  0
VERTEX
  5
E9
330
E8
100
AcDbEntity
  8
Wood
 62
   250
420
  2301728
370
    18
100
AcDbVertex
100
AcDb2dVertex
 10
5.174763888888896
 20
6.267361111111111
 30
0.0
  0
VERTEX
  5
EA
330
E8
100
AcDbEntity
  8
Wood
 62
   250
420
  2301728
370
    18
100
AcDbVertex
100
AcDb2dVertex
 10
5.302083333333333
 20
6.100694444444444
 30
0.0
  0
SEQEND
  5
EB
330
E8
100
AcDbEntity
  8
Wood
 62
   250
420
  2301728
370
    18
  0
POLYLINE
  5
EC
330
1F
100
AcDbEntity
  8
Wood
 62
   250
420
  2301728
370
    18
100
AcDb2dPolyline
 66
     1
 10
0.0
 20
0.0
 30
0.0
  0
VERTEX
  5
ED
330
EC
100
AcDbEntity
  8
Wood
 62
   250
420
  2301728
370
    18
100
AcDbVertex
100
AcDb2dVertex
 10
5.230319444444452
 20
6.284722222222221
 30
0.0
  0
VERTEX
  5
EE
330
EC
100
AcDbEntity
  8
Wood
 62
   250
420
  2301728
370
    18
100
AcDbVertex
100
AcDb2dVertex
 10
5.357638888888888
 20
6.118055555555555
 30
0.0
  0
SEQEND
  5
EF
330
EC
100
AcDbEntity
  8
Wood
 62
   250
420
  2301728
370
    18
  0
POLYLINE
  5
F0
330
1F
100
AcDbEntity
  8
Wood
 62
   250
420
  2301728
370
    18
100
AcDb2dPolyline
 66
     1
 10
0.0
 20
0.0
 30
0.0
  0
VERTEX
  5
F1
330
F0
100
AcDbEntity
  8
Wood
 62
   250
420
  2301728
370
    18
100
AcDbVertex
100
AcDb2dVertex
 10
5.282402777777785
 20
6.298611111111111
 30
0.0
  0
VERTEX
  5
F2
330
F0
100
AcDbEntity
  8
Wood
 62
   250
420
  2301728
370
    18
100
AcDbVertex
100
AcDb2dVertex
 10
5.40625
 20
6.138888888888888
 30
0.0
  0
SEQEND
  5
F3
330
F0
100
AcDbEntity
  8
Wood
 62
   250
420
  2301728
370
    18
  0
POLYLINE
  5
F4
330
1F
100
AcDbEntity
  8
Wood
 62
   250
420
  2301728
370
    18
100
AcDb2dPolyline
 66
     1
 10
0.0
 20
0.0
 30
0.0
  0
VERTEX
  5
F5
330
F4
100
AcDbEntity
  8
Wood
 62
   250
420
  2301728
370
    18
100
AcDbVertex
100
AcDb2dVertex
 10
5.344902777777785
 20
6.315972222222221
 30
0.0
  0
VERTEX
  5
F6
330
F4
100
AcDbEntity
  8
Wood
 62
   250
420
  2301728
370
    18
100
AcDbVertex
100
AcDb2dVertex
 10
5.46875
 20
6.152777777777778
 30
0.0
  0
SEQEND
  5
F7
330
F4
100
AcDbEntity
  8
Wood
 62
   250
420
  2301728
370
    18
  0
POLYLINE
  5
F8
330
1F
100
AcDbEntity
  8
Wood
 62
   250
420
  2301728
370
    18
100
AcDb2dPolyline
 66
     1
 10
0.0
 20
0.0
 30
0.0
  0
VERTEX
  5
F9
330
F8
100
AcDbEntity
  8
Wood
 62
   250
420
  2301728
370
    18
100
AcDbVertex
100
AcDb2dVertex
 10
5.421291666666674
 20
6.340277777777778
 30
0.0
  0
VERTEX
  5
FA
330
F8
100
AcDbEntity
  8
Wood
 62
   250
420
  2301728
370
    18
100
AcDbVertex
100
AcDb2dVertex
 10
5.545138888888888
 20
6.177083333333333
 30
0.0
  0
SEQEND
  5
FB
330
F8
100
AcDbEntity
  8
Wood
 62
   250
420
  2301728
370
    18
  0
POLYLINE
  5
FC
330
1F
100
AcDbEntity
  8
Wood
 62
   250
420
  2301728
370
    18
100
AcDb2dPolyline
 66
     1
 10
0.0
 20
0.0
 30
0.0
  0
VERTEX
  5
FD
330
FC
100
AcDbEntity
  8
Wood
 62
   250
420
  2301728
370
    18
100
AcDbVertex
100
AcDb2dVertex
 10
4.975694444444444
 20
6.003472222222222
 30
0.0
  0
VERTEX
  5
FE
330
FC
100
AcDbEntity
  8
Wood
 62
   250
420
  2301728
370
    18
100
AcDbVertex
100
AcDb2dVertex
 10
4.934027777777778
 20
5.684027777777778
 30
0.0
  0
SEQEND
  5
FF
330
FC
100
AcDbEntity
  8
Wood
 62
   250
420
  2301728
370
    18
  0
POLYLINE
  5
100
330
1F
100
AcDbEntity
  8
Wood
 62
   250
420
  2301728
370
    18
100
AcDb2dPolyline
 66
     1
 10
0.0
 20
0.0
 30
0.0
  0
VERTEX
  5
101
330
100
100
AcDbEntity
  8
Wood
 62
   250
420
  2301728
370
    18
100
AcDbVertex
100
AcDb2dVertex
 10
5.048611111111111
 20
6.024305555555555
 30
0.0
  0
VERTEX
  5
102
330
100
100
AcDbEntity
  8
Wood
 62
   250
420
  2301728
370
    18
100
AcDbVertex
100
AcDb2dVertex
 10
4.934027777777778
 20
5.416666666666666
 30
0.0
  0
SEQEND
  5
103
330
100
100
AcDbEntity
  8
Wood
 62
   250
420
  2301728
370
    18
  0
POLYLINE
  5
104
330
1F
100
AcDbEntity
  8
Wood
 62
   250
420
  2301728
370
    18
100
AcDb2dPolyline
 66
     1
 10
0.0
 20
0.0
 30
0.0
  0
VERTEX
  5
105
330
104
100
AcDbEntity
  8
Wood
 62
   250
420
  2301728
370
    18
100
AcDbVertex
100
AcDb2dVertex
 10
5.107638888888888
 20
6.041666666666666
 30
0.0
  0
VERTEX
  5
106
330
104
100
AcDbEntity
  8
Wood
 62
   250
420
  2301728
370
    18
100
AcDbVertex
100
AcDb2dVertex
 10
4.979166666666666
 20
5.420138888888888
 30
0.0
  0
VERTEX
  5
107
330
104
100
AcDbEntity
  8
Wood
 62
   250
420
  2301728
370
    18
100
AcDbVertex
100
AcDb2dVertex
 10
5.020833333333333
 20
5.135416666666666
 30
0.0
  0
SEQEND
  5
108
330
104
100
AcDbEntity
  8
Wood
 62
   250
420
  2301728
370
    18
  0
POLYLINE
  5
109
330
1F
100
AcDbEntity
  8
Wood
 62
   250
420
  2301728
370
    18
100
AcDb2dPolyline
 66
     1
 10
0.0
 20
0.0
 30
0.0
  0
VERTEX
  5
10A
330
109
100
AcDbEntity
  8
Wood
 62
   250
420
  2301728
370
    18
100
AcDbVertex
100
AcDb2dVertex
 10
4.934027777777778
 20
5.232638888888888
 30
0.0
  0
VERTEX
  5
10B
330
109
100
AcDbEntity
  8
Wood
 62
   250
420
  2301728
370
    18
100
AcDbVertex
100
AcDb2dVertex
 10
4.961805555555555
 20
5.114583333333333
 30
0.0
  0
SEQEND
  5
10C
330
109
100
AcDbEntity
  8
Wood
 62
   250
420
  2301728
370
    18
  0
POLYLINE
  5
10D
330
1F
100
AcDbEntity
  8
Wood
 62
   250
420
  2301728
370
    18
100
AcDb2dPolyline
 66
     1
 10
0.0
 20
0.0
 30
0.0
  0
VERTEX
  5
10E
330
10D
100
AcDbEntity
  8
Wood
 62
   250
420
  2301728
370
    18
100
AcDbVertex
100
AcDb2dVertex
 10
5.177083333333333
 20
6.059027777777778
 30
0.0
  0
VERTEX
  5
10F
330
10D
100
AcDbEntity
  8
Wood
 62
   250
420
  2301728
370
    18
100
AcDbVertex
100
AcDb2dVertex
 10
5.055555555555555
 20
5.486111111111111
 30
0.0
  0
VERTEX
  5
110
330
10D
100
AcDbEntity
  8
Wood
 62
   250
420
  2301728
370
    18
100
AcDbVertex
100
AcDb2dVertex
 10
5.131944444444444
 20
5.177083333333333
 30
0.0
  0
SEQEND
  5
111
330
10D
100
AcDbEntity
  8
Wood
 62
   250
420
  2301728
370
    18
  0
POLYLINE
  5
112
330
1F
100
AcDbEntity
  8
Wood
 62
   250
420
  2301728
370
    18
100
AcDb2dPolyline
 66
     1
 10
0.0
 20
0.0
 30
0.0
  0
VERTEX
  5
113
330
112
100
AcDbEntity
  8
Wood
 62
   250
420
  2301728
370
    18
100
AcDbVertex
100
AcDb2dVertex
 10
5.253472222222222
 20
6.090277777777778
 30
0.0
  0
VERTEX
  5
114
330
112
100
AcDbEntity
  8
Wood
 62
   250
420
  2301728
370
    18
100
AcDbVertex
100
AcDb2dVertex
 10
5.135416666666666
 20
5.555555555555555
 30
0.0
  0
VERTEX
  5
115
330
112
100
AcDbEntity
  8
Wood
 62
   250
420
  2301728
370
    18
100
AcDbVertex
100
AcDb2dVertex
 10
5.21875
 20
5.208333333333333
 30
0.0
  0
SEQEND
  5
116
330
112
100
AcDbEntity
  8
Wood
 62
   250
420
  2301728
370
    18
  0
POLYLINE
  5
117
330
1F
100
AcDbEntity
  8
Wood
 62
   250
420
  2301728
370
    18
100
AcDb2dPolyline
 66
     1
 10
0.0
 20
0.0
 30
0.0
  0
VERTEX
  5
118
330
117
100
AcDbEntity
  8
Wood
 62
   250
420
  2301728
370
    18
100
AcDbVertex
100
AcDb2dVertex
 10
5.315972222222222
 20
6.104166666666666
 30
0.0
  0
VERTEX
  5
119
330
117
100
AcDbEntity
  8
Wood
 62
   250
420
  2301728
370
    18
100
AcDbVertex
100
AcDb2dVertex
 10
5.197916666666666
 20
5.621527777777778
 30
0.0
  0
VERTEX
  5
11A
330
117
100
AcDbEntity
  8
Wood
 62
   250
420
  2301728
370
    18
100
AcDbVertex
100
AcDb2dVertex
 10
5.302083333333333
 20
5.243055555555555
 30
0.0
  0
SEQEND
  5
11B
330
117
100
AcDbEntity
  8
Wood
 62
   250
420
  2301728
370
    18
  0
POLYLINE
  5
11C
330
1F
100
AcDbEntity
  8
Wood
 62
   250
420
  2301728
370
    18
100
AcDb2dPolyline
 66
     1
 10
0.0
 20
0.0
 30
0.0
  0
VERTEX
  5
11D
330
11C
100
AcDbEntity
  8
Wood
 62
   250
420
  2301728
370
    18
100
AcDbVertex
100
AcDb2dVertex
 10
5.385416666666666
 20
6.125
 30
0.0
  0
VERTEX
  5
11E
330
11C
100
AcDbEntity
  8
Wood
 62
   250
420
  2301728
370
    18
100
AcDbVertex
100
AcDb2dVertex
 10
5.270833333333333
 20
5.704861111111111
 30
0.0
  0
VERTEX
  5
11F
330
11C
100
AcDbEntity
  8
Wood
 62
   250
420
  2301728
370
    18
100
AcDbVertex
100
AcDb2dVertex
 10
5.371527777777778
 20
5.267361111111111
 30
0.0
  0
SEQEND
  5
120
330
11C
100
AcDbEntity
  8
Wood
 62
   250
420
  2301728
370
    18
  0
POLYLINE
  5
121
330
1F
100
AcDbEntity
  8
Wood
 62
   250
420
  2301728
370
    18
100
AcDb2dPolyline
 66
     1
 10
0.0
 20
0.0
 30
0.0
  0
VERTEX
  5
122
330
121
100
AcDbEntity
  8
Wood
 62
   250
420
  2301728
370
    18
100
AcDbVertex
100
AcDb2dVertex
 10
5.444444444444444
 20
6.145833333333333
 30
0.0
  0
VERTEX
  5
123
330
121
100
AcDbEntity
  8
Wood
 62
   250
420
  2301728
370
    18
100
AcDbVertex
100
AcDb2dVertex
 10
5.340277777777778
 20
5.763888888888888
 30
0.0
  0
VERTEX
  5
124
330
121
100
AcDbEntity
  8
Wood
 62
   250
420
  2301728
370
    18
100
AcDbVertex
100
AcDb2dVertex
 10
5.447916666666666
 20
5.298611111111111
 30
0.0
  0
SEQEND
  5
125
330
121
100
AcDbEntity
  8
Wood
 62
   250
420
  2301728
370
    18
  0
POLYLINE
  5
126
330
1F
100
AcDbEntity
  8
Wood
 62
   250
420
  2301728
370
    18
100
AcDb2dPolyline
 66
     1
 10
0.0
 20
0.0
 30
0.0
  0
VERTEX
  5
127
330
126
100
AcDbEntity
  8
Wood
 62
   250
420
  2301728
370
    18
100
AcDbVertex
100
AcDb2dVertex
 10
5.496527777777778
 20
6.163194444444444
 30
0.0
  0
VERTEX
  5
128
330
126
100
AcDbEntity
  8
Wood
 62
   250
420
  2301728
370
    18
100
AcDbVertex
100
AcDb2dVertex
 10
5.413194444444444
 20
5.840277777777778
 30
0.0
  0
VERTEX
  5
129
330
126
100
AcDbEntity
  8
Wood
 62
   250
420
  2301728
370
    18
100
AcDbVertex
100
AcDb2dVertex
 10
5.513888888888888
 20
5.319444444444444
 30
0.0
  0
SEQEND
  5
12A
330
126
100
AcDbEntity
  8
Wood
 62
   250
420
  2301728
370
    18
  0
SPLINE
  5
12B
330
1F
100
AcDbEntity
  8
Wood
 62
   250
420
  2301728
370
    18
100
AcDbSpline
210
0.0
220
0.0
230
1.0
 70
     8
 71
     3
 72
    11
 73
     7
 74
     0
 42
0.0000000001
 43
0.0000000001
 12
1.0
 22
0.0
 32
0.0
 13
1.0
 23
0.0
 33
0.0
 40
0.0
 40
0.0
 40
0.0
 40
0.0
 40
1.0
 40
1.0
 40
1.0
 40
2.0
 40
2.0
 40
2.0
 40
2.0
 10
5.527777777777778
 20
6.121527777777778
 30
0.0
 10
5.524305555555555
 20
6.111111111111111
 30
0.0
 10
5.486111111111111
 20
5.899305555555555
 30
0.0
 10
5.486111111111111
 20
5.899305555555555
 30
0.0
 10
5.486111111111111
 20
5.899305555555555
 30
0.0
 10
5.527777777777778
 20
5.635416666666666
 30
0.0
 10
5.527777777777778
 20
5.635416666666666
 30
0.0
  0
POLYLINE
  5
12C
330
1F
100
AcDbEntity
  8
Wood
 62
   250
420
  2301728
370
    18
100
AcDb2dPolyline
 66
     1
 10
0.0
 20
0.0
 30
0.0
  0
VERTEX
  5
12D
330
12C
100
AcDbEntity
  8
Wood
 62
   250
420
  2301728
370
    18
100
AcDbVertex
100
AcDb2dVertex
 10
3.019022145955306
 20
7.121955389674339
 30
0.0
  0
VERTEX
  5
12E
330
12C
100
AcDbEntity
  8
Wood
 62
   250
420
  2301728
370
    18
100
AcDbVertex
100
AcDb2dVertex
 10
2.973306869332393
 20
6.614488735827358
 30
0.0
  0
SEQEND
  5
12F
330
12C
100
AcDbEntity
  8
Wood
 62
   250
420
  2301728
370
    18
  0
POLYLINE
  5
130
330
1F
100
AcDbEntity
  8
Wood
 62
   250
420
  2301728
370
    18
100
AcDb2dPolyline
 66
     1
 10
0.0
 20
0.0
 30
0.0
  0
VERTEX
  5
131
330
130
100
AcDbEntity
  8
Wood
 62
   250
420
  2301728
370
    18
100
AcDbVertex
100
AcDb2dVertex
 10
3.060166666666671
 20
7.112806778794341
 30
0.0
  0
VERTEX
  5
132
330
130
100
AcDbEntity
  8
Wood
 62
   250
420
  2301728
370
    18
100
AcDbVertex
100
AcDb2dVertex
 10
2.982448535768122
 20
6.312758187894158
 30
0.0
  0
SEQEND
  5
133
330
130
100
AcDbEntity
  8
Wood
 62
   250
420
  2301728
370
    18
  0
POLYLINE
  5
134
330
1F
100
AcDbEntity
  8
Wood
 62
   250
420
  2301728
370
    18
100
AcDb2dPolyline
 66
     1
 10
0.0
 20
0.0
 30
0.0
  0
VERTEX
  5
135
330
134
100
AcDbEntity
  8
Wood
 62
   250
420
  2301728
370
    18
100
AcDbVertex
100
AcDb2dVertex
 10
3.105881865983267
 20
7.099094279140748
 30
0.0
  0
VERTEX
  5
136
330
134
100
AcDbEntity
  8
Wood
 62
   250
420
  2301728
370
    18
100
AcDbVertex
100
AcDb2dVertex
 10
3.009880479519577
 20
6.289897077360567
 30
0.0
  0
VERTEX
  5
137
330
134
100
AcDbEntity
  8
Wood
 62
   250
420
  2301728
370
    18
100
AcDbVertex
100
AcDb2dVertex
 10
2.950445758798802
 20
6.189323468790159
 30
0.0
  0
SEQEND
  5
138
330
134
100
AcDbEntity
  8
Wood
 62
   250
420
  2301728
370
    18
  0
POLYLINE
  5
139
330
1F
100
AcDbEntity
  8
Wood
 62
   250
420
  2301728
370
    18
100
AcDb2dPolyline
 66
     1
 10
0.0
 20
0.0
 30
0.0
  0
VERTEX
  5
13A
330
139
100
AcDbEntity
  8
Wood
 62
   250
420
  2301728
370
    18
100
AcDbVertex
100
AcDb2dVertex
 10
3.137884642952586
 20
7.089952612705019
 30
0.0
  0
VERTEX
  5
13B
330
139
100
AcDbEntity
  8
Wood
 62
   250
420
  2301728
370
    18
100
AcDbVertex
100
AcDb2dVertex
 10
3.142455476170438
 20
6.929938727858421
 30
0.0
  0
VERTEX
  5
13C
330
139
100
AcDbEntity
  8
Wood
 62
   250
420
  2301728
370
    18
100
AcDbVertex
100
AcDb2dVertex
 10
3.037305555555551
 20
6.276184577706974
 30
0.0
  0
VERTEX
  5
13D
330
139
100
AcDbEntity
  8
Wood
 62
   250
420
  2301728
370
    18
100
AcDbVertex
100
AcDb2dVertex
 10
2.96872909167026
 20
6.184747080016879
 30
0.0
  0
SEQEND
  5
13E
330
139
100
AcDbEntity
  8
Wood
 62
   250
420
  2301728
370
    18
  0
POLYLINE
  5
13F
330
1F
100
AcDbEntity
  8
Wood
 62
   250
420
  2301728
370
    18
100
AcDb2dPolyline
 66
     1
 10
0.0
 20
0.0
 30
0.0
  0
VERTEX
  5
140
330
13F
100
AcDbEntity
  8
Wood
 62
   250
420
  2301728
370
    18
100
AcDbVertex
100
AcDb2dVertex
 10
3.174458333333329
 20
7.080804001825022
 30
0.0
  0
VERTEX
  5
141
330
13F
100
AcDbEntity
  8
Wood
 62
   250
420
  2301728
370
    18
100
AcDbVertex
100
AcDb2dVertex
 10
3.183599919575499
 20
6.815647064079005
 30
0.0
  0
VERTEX
  5
142
330
13F
100
AcDbEntity
  8
Wood
 62
   250
420
  2301728
370
    18
100
AcDbVertex
100
AcDb2dVertex
 10
3.069308255796083
 20
6.267042911271245
 30
0.0
  0
VERTEX
  5
143
330
13F
100
AcDbEntity
  8
Wood
 62
   250
420
  2301728
370
    18
100
AcDbVertex
100
AcDb2dVertex
 10
3.009880479519577
 20
6.166463747145422
 30
0.0
  0
SEQEND
  5
144
330
13F
100
AcDbEntity
  8
Wood
 62
   250
420
  2301728
370
    18
  0
SPLINE
  5
145
330
1F
100
AcDbEntity
  8
Wood
 62
   250
420
  2301728
370
    18
100
AcDbSpline
210
0.0
220
0.0
230
1.0
 70
     8
 71
     3
 72
    14
 73
    10
 74
     0
 42
0.0000000001
 43
0.0000000001
 12
1.0
 22
0.0
 32
0.0
 13
1.0
 23
0.0
 33
0.0
 40
0.0
 40
0.0
 40
0.0
 40
0.0
 40
1.0
 40
1.0
 40
1.0
 40
2.0
 40
2.0
 40
2.0
 40
3.0
 40
3.0
 40
3.0
 40
3.0
 10
3.215602696544819
 20
7.067091502171428
 30
0.0
 10
3.215602696544819
 20
7.053379002517835
 30
0.0
 10
3.233892973860545
 20
6.765361111111107
 30
0.0
 10
3.233892973860545
 20
6.765361111111107
 30
0.0
 10
3.233892973860545
 20
6.765361111111107
 30
0.0
 10
3.101311032765402
 20
6.257894300391247
 30
0.0
 10
3.101311032765402
 20
6.257894300391247
 30
0.0
 10
3.101311032765402
 20
6.257894300391247
 30
0.0
 10
3.037305555555551
 20
6.157320691820839
 30
0.0
 10
3.037305555555551
 20
6.157320691820839
 30
0.0
  0
POLYLINE
  5
146
330
1F
100
AcDbEntity
  8
Wood
 62
   250
420
  2301728
370
    18
100
AcDb2dPolyline
 66
     1
 10
0.0
 20
0.0
 30
0.0
  0
VERTEX
  5
147
330
146
100
AcDbEntity
  8
Wood
 62
   250
420
  2301728
370
    18
100
AcDbVertex
100
AcDb2dVertex
 10
3.252176306732003
 20
7.057949835735699
 30
0.0
  0
VERTEX
  5
148
330
146
100
AcDbEntity
  8
Wood
 62
   250
420
  2301728
370
    18
100
AcDbVertex
100
AcDb2dVertex
 10
3.288749999999999
 20
6.66021095689454
 30
0.0
  0
VERTEX
  5
149
330
146
100
AcDbEntity
  8
Wood
 62
   250
420
  2301728
370
    18
100
AcDbVertex
100
AcDb2dVertex
 10
3.142455476170438
 20
6.244181800737654
 30
0.0
  0
VERTEX
  5
14A
330
146
100
AcDbEntity
  8
Wood
 62
   250
420
  2301728
370
    18
100
AcDbVertex
100
AcDb2dVertex
 10
3.064737422578219
 20
6.148173469829695
 30
0.0
  0
SEQEND
  5
14B
330
146
100
AcDbEntity
  8
Wood
 62
   250
420
  2301728
370
    18
  0
POLYLINE
  5
14C
330
1F
100
AcDbEntity
  8
Wood
 62
   250
420
  2301728
370
    18
100
AcDb2dPolyline
 66
     1
 10
0.0
 20
0.0
 30
0.0
  0
VERTEX
  5
14D
330
14C
100
AcDbEntity
  8
Wood
 62
   250
420
  2301728
370
    18
100
AcDbVertex
100
AcDb2dVertex
 10
3.297898527799184
 20
7.044230391637837
 30
0.0
  0
VERTEX
  5
14E
330
14C
100
AcDbEntity
  8
Wood
 62
   250
420
  2301728
370
    18
100
AcDbVertex
100
AcDb2dVertex
 10
3.352755470857813
 20
6.57334429242231
 30
0.0
  0
VERTEX
  5
14F
330
14C
100
AcDbEntity
  8
Wood
 62
   250
420
  2301728
370
    18
100
AcDbVertex
100
AcDb2dVertex
 10
3.197319444444449
 20
6.221320690204063
 30
0.0
  0
VERTEX
  5
150
330
14C
100
AcDbEntity
  8
Wood
 62
   250
420
  2301728
370
    18
100
AcDbVertex
100
AcDb2dVertex
 10
3.110452699201131
 20
6.129890136958238
 30
0.0
  0
SEQEND
  5
151
330
14C
100
AcDbEntity
  8
Wood
 62
   250
420
  2301728
370
    18
  0
POLYLINE
  5
152
330
1F
100
AcDbEntity
  8
Wood
 62
   250
420
  2301728
370
    18
100
AcDb2dPolyline
 66
     1
 10
0.0
 20
0.0
 30
0.0
  0
VERTEX
  5
153
330
152
100
AcDbEntity
  8
Wood
 62
   250
420
  2301728
370
    18
100
AcDbVertex
100
AcDb2dVertex
 10
3.343613804422097
 20
7.039659558419973
 30
0.0
  0
VERTEX
  5
154
330
152
100
AcDbEntity
  8
Wood
 62
   250
420
  2301728
370
    18
100
AcDbVertex
100
AcDb2dVertex
 10
3.380187414609281
 20
6.705926233517452
 30
0.0
  0
SEQEND
  5
155
330
152
100
AcDbEntity
  8
Wood
 62
   250
420
  2301728
370
    18
  0
POLYLINE
  5
156
330
1F
100
AcDbEntity
  8
Wood
 62
   250
420
  2301728
370
    18
100
AcDb2dPolyline
 66
     1
 10
0.0
 20
0.0
 30
0.0
  0
VERTEX
  5
157
330
156
100
AcDbEntity
  8
Wood
 62
   250
420
  2301728
370
    18
100
AcDbVertex
100
AcDb2dVertex
 10
3.380187414609281
 20
6.513916666666672
 30
0.0
  0
VERTEX
  5
158
330
156
100
AcDbEntity
  8
Wood
 62
   250
420
  2301728
370
    18
100
AcDbVertex
100
AcDb2dVertex
 10
3.252176306732003
 20
6.203037357332605
 30
0.0
  0
VERTEX
  5
159
330
156
100
AcDbEntity
  8
Wood
 62
   250
420
  2301728
370
    18
100
AcDbVertex
100
AcDb2dVertex
 10
3.156174920268313
 20
6.116176248415791
 30
0.0
  0
SEQEND
  5
15A
330
156
100
AcDbEntity
  8
Wood
 62
   250
420
  2301728
370
    18
  0
POLYLINE
  5
15B
330
1F
100
AcDbEntity
  8
Wood
 62
   250
420
  2301728
370
    18
100
AcDb2dPolyline
 66
     1
 10
0.0
 20
0.0
 30
0.0
  0
VERTEX
  5
15C
330
15B
100
AcDbEntity
  8
Wood
 62
   250
420
  2301728
370
    18
100
AcDbVertex
100
AcDb2dVertex
 10
3.380187414609281
 20
6.376763888888894
 30
0.0
  0
VERTEX
  5
15D
330
15B
100
AcDbEntity
  8
Wood
 62
   250
420
  2301728
370
    18
100
AcDbVertex
100
AcDb2dVertex
 10
3.297898527799184
 20
6.189323468790159
 30
0.0
  0
VERTEX
  5
15E
330
15B
100
AcDbEntity
  8
Wood
 62
   250
420
  2301728
370
    18
100
AcDbVertex
100
AcDb2dVertex
 10
3.220180555555556
 20
6.093316526771054
 30
0.0
  0
SEQEND
  5
15F
330
15B
100
AcDbEntity
  8
Wood
 62
   250
420
  2301728
370
    18
  0
POLYLINE
  5
160
330
1F
100
AcDbEntity
  8
Wood
 62
   250
420
  2301728
370
    18
100
AcDb2dPolyline
 66
     1
 10
0.0
 20
0.0
 30
0.0
  0
VERTEX
  5
161
330
160
100
AcDbEntity
  8
Wood
 62
   250
420
  2301728
370
    18
100
AcDbVertex
100
AcDb2dVertex
 10
3.375616581391417
 20
6.271613744489109
 30
0.0
  0
VERTEX
  5
162
330
160
100
AcDbEntity
  8
Wood
 62
   250
420
  2301728
370
    18
100
AcDbVertex
100
AcDb2dVertex
 10
3.343613804422097
 20
6.171034580363286
 30
0.0
  0
VERTEX
  5
163
330
160
100
AcDbEntity
  8
Wood
 62
   250
420
  2301728
370
    18
100
AcDbVertex
100
AcDb2dVertex
 10
3.270466584047742
 20
6.075026249455328
 30
0.0
  0
SEQEND
  5
164
330
160
100
AcDbEntity
  8
Wood
 62
   250
420
  2301728
370
    18
  0
POLYLINE
  5
165
330
1F
100
AcDbEntity
  8
Wood
 62
   250
420
  2301728
370
    18
100
AcDb2dPolyline
 66
     1
 10
0.0
 20
0.0
 30
0.0
  0
VERTEX
  5
166
330
165
100
AcDbEntity
  8
Wood
 62
   250
420
  2301728
370
    18
100
AcDbVertex
100
AcDb2dVertex
 10
3.078456866676081
 20
6.134460970176102
 30
0.0
  0
VERTEX
  5
167
330
165
100
AcDbEntity
  8
Wood
 62
   250
420
  2301728
370
    18
100
AcDbVertex
100
AcDb2dVertex
 10
3.019022145955306
 20
6.047599861259287
 30
0.0
  0
VERTEX
  5
168
330
165
100
AcDbEntity
  8
Wood
 62
   250
420
  2301728
370
    18
100
AcDbVertex
100
AcDb2dVertex
 10
2.977877702550257
 20
5.860160977105503
 30
0.0
  0
SEQEND
  5
169
330
165
100
AcDbEntity
  8
Wood
 62
   250
420
  2301728
370
    18
  0
POLYLINE
  5
16A
330
1F
100
AcDbEntity
  8
Wood
 62
   250
420
  2301728
370
    18
100
AcDb2dPolyline
 66
     1
 10
0.0
 20
0.0
 30
0.0
  0
VERTEX
  5
16B
330
16A
100
AcDbEntity
  8
Wood
 62
   250
420
  2301728
370
    18
100
AcDbVertex
100
AcDb2dVertex
 10
3.133313809734722
 20
6.120747081633655
 30
0.0
  0
VERTEX
  5
16C
330
16A
100
AcDbEntity
  8
Wood
 62
   250
420
  2301728
370
    18
100
AcDbVertex
100
AcDb2dVertex
 10
3.069308255796083
 20
6.024740139614551
 30
0.0
  0
VERTEX
  5
16D
330
16A
100
AcDbEntity
  8
Wood
 62
   250
420
  2301728
370
    18
100
AcDbVertex
100
AcDb2dVertex
 10
3.005302701857444
 20
5.805297089602592
 30
0.0
  0
VERTEX
  5
16E
330
16A
100
AcDbEntity
  8
Wood
 62
   250
420
  2301728
370
    18
100
AcDbVertex
100
AcDb2dVertex
 10
3.096740199547538
 20
5.174397105540467
 30
0.0
  0
SEQEND
  5
16F
330
16A
100
AcDbEntity
  8
Wood
 62
   250
420
  2301728
370
    18
  0
POLYLINE
  5
170
330
1F
100
AcDbEntity
  8
Wood
 62
   250
420
  2301728
370
    18
100
AcDb2dPolyline
 66
     1
 10
0.0
 20
0.0
 30
0.0
  0
VERTEX
  5
171
330
170
100
AcDbEntity
  8
Wood
 62
   250
420
  2301728
370
    18
100
AcDbVertex
100
AcDb2dVertex
 10
2.977877702550257
 20
5.681858203832032
 30
0.0
  0
VERTEX
  5
172
330
170
100
AcDbEntity
  8
Wood
 62
   250
420
  2301728
370
    18
100
AcDbVertex
100
AcDb2dVertex
 10
3.05559575614249
 20
5.178967938758332
 30
0.0
  0
SEQEND
  5
173
330
170
100
AcDbEntity
  8
Wood
 62
   250
420
  2301728
370
    18
  0
POLYLINE
  5
174
330
1F
100
AcDbEntity
  8
Wood
 62
   250
420
  2301728
370
    18
100
AcDb2dPolyline
 66
     1
 10
0.0
 20
0.0
 30
0.0
  0
VERTEX
  5
175
330
174
100
AcDbEntity
  8
Wood
 62
   250
420
  2301728
370
    18
100
AcDbVertex
100
AcDb2dVertex
 10
2.973306869332393
 20
5.41669444444445
 30
0.0
  0
VERTEX
  5
176
330
174
100
AcDbEntity
  8
Wood
 62
   250
420
  2301728
370
    18
100
AcDbVertex
100
AcDb2dVertex
 10
3.005302701857444
 20
5.201823493736507
 30
0.0
  0
SEQEND
  5
177
330
174
100
AcDbEntity
  8
Wood
 62
   250
420
  2301728
370
    18
  0
POLYLINE
  5
178
330
1F
100
AcDbEntity
  8
Wood
 62
   250
420
  2301728
370
    18
100
AcDb2dPolyline
 66
     1
 10
0.0
 20
0.0
 30
0.0
  0
VERTEX
  5
179
330
178
100
AcDbEntity
  8
Wood
 62
   250
420
  2301728
370
    18
100
AcDbVertex
100
AcDb2dVertex
 10
3.169887419921906
 20
6.107029026424647
 30
0.0
  0
VERTEX
  5
17A
330
178
100
AcDbEntity
  8
Wood
 62
   250
420
  2301728
370
    18
100
AcDbVertex
100
AcDb2dVertex
 10
3.105881865983267
 20
6.011026251072104
 30
0.0
  0
VERTEX
  5
17B
330
178
100
AcDbEntity
  8
Wood
 62
   250
420
  2301728
370
    18
100
AcDbVertex
100
AcDb2dVertex
 10
3.046454089706761
 20
5.787013888888901
 30
0.0
  0
VERTEX
  5
17C
330
178
100
AcDbEntity
  8
Wood
 62
   250
420
  2301728
370
    18
100
AcDbVertex
100
AcDb2dVertex
 10
3.137884642952586
 20
5.160684605886874
 30
0.0
  0
SEQEND
  5
17D
330
178
100
AcDbEntity
  8
Wood
 62
   250
420
  2301728
370
    18
  0
POLYLINE
  5
17E
330
1F
100
AcDbEntity
  8
Wood
 62
   250
420
  2301728
370
    18
100
AcDb2dPolyline
 66
     1
 10
0.0
 20
0.0
 30
0.0
  0
VERTEX
  5
17F
330
17E
100
AcDbEntity
  8
Wood
 62
   250
420
  2301728
370
    18
100
AcDbVertex
100
AcDb2dVertex
 10
3.206461030109103
 20
6.097887359988918
 30
0.0
  0
VERTEX
  5
180
330
17E
100
AcDbEntity
  8
Wood
 62
   250
420
  2301728
370
    18
100
AcDbVertex
100
AcDb2dVertex
 10
3.142455476170438
 20
6.006455417854239
 30
0.0
  0
VERTEX
  5
181
330
17E
100
AcDbEntity
  8
Wood
 62
   250
420
  2301728
370
    18
100
AcDbVertex
100
AcDb2dVertex
 10
3.078456866676081
 20
5.750434590988536
 30
0.0
  0
VERTEX
  5
182
330
17E
100
AcDbEntity
  8
Wood
 62
   250
420
  2301728
370
    18
100
AcDbVertex
100
AcDb2dVertex
 10
3.165316586704042
 20
5.142401273015417
 30
0.0
  0
SEQEND
  5
183
330
17E
100
AcDbEntity
  8
Wood
 62
   250
420
  2301728
370
    18
  0
POLYLINE
  5
184
330
1F
100
AcDbEntity
  8
Wood
 62
   250
420
  2301728
370
    18
100
AcDb2dPolyline
 66
     1
 10
0.0
 20
0.0
 30
0.0
  0
VERTEX
  5
185
330
184
100
AcDbEntity
  8
Wood
 62
   250
420
  2301728
370
    18
100
AcDbVertex
100
AcDb2dVertex
 10
3.233892973860545
 20
6.084173471446471
 30
0.0
  0
VERTEX
  5
186
330
184
100
AcDbEntity
  8
Wood
 62
   250
420
  2301728
370
    18
100
AcDbVertex
100
AcDb2dVertex
 10
3.165316586704042
 20
5.988159584983097
 30
0.0
  0
VERTEX
  5
187
330
184
100
AcDbEntity
  8
Wood
 62
   250
420
  2301728
370
    18
100
AcDbVertex
100
AcDb2dVertex
 10
3.115030476863264
 20
5.677285981725314
 30
0.0
  0
VERTEX
  5
188
330
184
100
AcDbEntity
  8
Wood
 62
   250
420
  2301728
370
    18
100
AcDbVertex
100
AcDb2dVertex
 10
3.197319444444449
 20
5.133259606579688
 30
0.0
  0
SEQEND
  5
189
330
184
100
AcDbEntity
  8
Wood
 62
   250
420
  2301728
370
    18
  0
POLYLINE
  5
18A
330
1F
100
AcDbEntity
  8
Wood
 62
   250
420
  2301728
370
    18
100
AcDb2dPolyline
 66
     1
 10
0.0
 20
0.0
 30
0.0
  0
VERTEX
  5
18B
330
18A
100
AcDbEntity
  8
Wood
 62
   250
420
  2301728
370
    18
100
AcDbVertex
100
AcDb2dVertex
 10
3.284179083701322
 20
6.065884583019598
 30
0.0
  0
VERTEX
  5
18C
330
18A
100
AcDbEntity
  8
Wood
 62
   250
420
  2301728
370
    18
100
AcDbVertex
100
AcDb2dVertex
 10
3.215602696544819
 20
5.96987625211164
 30
0.0
  0
VERTEX
  5
18D
330
18A
100
AcDbEntity
  8
Wood
 62
   250
420
  2301728
370
    18
100
AcDbVertex
100
AcDb2dVertex
 10
3.156174920268313
 20
5.590426261697353
 30
0.0
  0
VERTEX
  5
18E
330
18A
100
AcDbEntity
  8
Wood
 62
   250
420
  2301728
370
    18
100
AcDbVertex
100
AcDb2dVertex
 10
3.233892973860545
 20
5.110391551601828
 30
0.0
  0
SEQEND
  5
18F
330
18A
100
AcDbEntity
  8
Wood
 62
   250
420
  2301728
370
    18
  0
POLYLINE
  5
190
330
1F
100
AcDbEntity
  8
Wood
 62
   250
420
  2301728
370
    18
100
AcDb2dPolyline
 66
     1
 10
0.0
 20
0.0
 30
0.0
  0
VERTEX
  5
191
330
190
100
AcDbEntity
  8
Wood
 62
   250
420
  2301728
370
    18
100
AcDbVertex
100
AcDb2dVertex
 10
3.320752693888494
 20
6.056741527695016
 30
0.0
  0
VERTEX
  5
192
330
190
100
AcDbEntity
  8
Wood
 62
   250
420
  2301728
370
    18
100
AcDbVertex
100
AcDb2dVertex
 10
3.256754084394136
 20
5.956163752458047
 30
0.0
  0
VERTEX
  5
193
330
190
100
AcDbEntity
  8
Wood
 62
   250
420
  2301728
370
    18
100
AcDbVertex
100
AcDb2dVertex
 10
3.192748530455497
 20
5.535562374194442
 30
0.0
  0
VERTEX
  5
194
330
190
100
AcDbEntity
  8
Wood
 62
   250
420
  2301728
370
    18
100
AcDbVertex
100
AcDb2dVertex
 10
3.265895750829865
 20
5.101250000000012
 30
0.0
  0
SEQEND
  5
195
330
190
100
AcDbEntity
  8
Wood
 62
   250
420
  2301728
370
    18
  0
POLYLINE
  5
196
330
1F
100
AcDbEntity
  8
Wood
 62
   250
420
  2301728
370
    18
100
AcDb2dPolyline
 66
     1
 10
0.0
 20
0.0
 30
0.0
  0
VERTEX
  5
197
330
196
100
AcDbEntity
  8
Wood
 62
   250
420
  2301728
370
    18
100
AcDbVertex
100
AcDb2dVertex
 10
3.352755470857813
 20
6.043023472486007
 30
0.0
  0
VERTEX
  5
198
330
196
100
AcDbEntity
  8
Wood
 62
   250
420
  2301728
370
    18
100
AcDbVertex
100
AcDb2dVertex
 10
3.29332769458132
 20
5.942449863915599
 30
0.0
  0
VERTEX
  5
199
330
196
100
AcDbEntity
  8
Wood
 62
   250
420
  2301728
370
    18
100
AcDbVertex
100
AcDb2dVertex
 10
3.229322140642681
 20
5.476129042362522
 30
0.0
  0
VERTEX
  5
19A
330
196
100
AcDbEntity
  8
Wood
 62
   250
420
  2301728
370
    18
100
AcDbVertex
100
AcDb2dVertex
 10
3.307040194234913
 20
5.087537385512506
 30
0.0
  0
SEQEND
  5
19B
330
196
100
AcDbEntity
  8
Wood
 62
   250
420
  2301728
370
    18
  0
POLYLINE
  5
19C
330
1F
100
AcDbEntity
  8
Wood
 62
   250
420
  2301728
370
    18
100
AcDb2dPolyline
 66
     1
 10
0.0
 20
0.0
 30
0.0
  0
VERTEX
  5
19D
330
19C
100
AcDbEntity
  8
Wood
 62
   250
420
  2301728
370
    18
100
AcDbVertex
100
AcDb2dVertex
 10
3.384758247827158
 20
6.033881806050279
 30
0.0
  0
VERTEX
  5
19E
330
19C
100
AcDbEntity
  8
Wood
 62
   250
420
  2301728
370
    18
100
AcDbVertex
100
AcDb2dVertex
 10
3.339042971204233
 20
5.92873736426202
 30
0.0
  0
VERTEX
  5
19F
330
19C
100
AcDbEntity
  8
Wood
 62
   250
420
  2301728
370
    18
100
AcDbVertex
100
AcDb2dVertex
 10
3.275037417265594
 20
5.370984600574249
 30
0.0
  0
VERTEX
  5
1A0
330
19C
100
AcDbEntity
  8
Wood
 62
   250
420
  2301728
370
    18
100
AcDbVertex
100
AcDb2dVertex
 10
3.334472222222227
 20
5.073824885858913
 30
0.0
  0
SEQEND
  5
1A1
330
19C
100
AcDbEntity
  8
Wood
 62
   250
420
  2301728
370
    18
  0
POLYLINE
  5
1A2
330
1F
100
AcDbEntity
  8
Wood
 62
   250
420
  2301728
370
    18
100
AcDb2dPolyline
 66
     1
 10
0.0
 20
0.0
 30
0.0
  0
VERTEX
  5
1A3
330
1A2
100
AcDbEntity
  8
Wood
 62
   250
420
  2301728
370
    18
100
AcDbVertex
100
AcDb2dVertex
 10
3.416761024796478
 20
6.024740139614551
 30
0.0
  0
VERTEX
  5
1A4
330
1A2
100
AcDbEntity
  8
Wood
 62
   250
420
  2301728
370
    18
100
AcDbVertex
100
AcDb2dVertex
 10
3.366474914955688
 20
5.910441531390865
 30
0.0
  0
VERTEX
  5
1A5
330
1A2
100
AcDbEntity
  8
Wood
 62
   250
420
  2301728
370
    18
100
AcDbVertex
100
AcDb2dVertex
 10
3.316181860670642
 20
5.325262379507067
 30
0.0
  0
VERTEX
  5
1A6
330
1A2
100
AcDbEntity
  8
Wood
 62
   250
420
  2301728
370
    18
100
AcDbVertex
100
AcDb2dVertex
 10
3.361897137293555
 20
5.069254052641049
 30
0.0
  0
SEQEND
  5
1A7
330
1A2
100
AcDbEntity
  8
Wood
 62
   250
420
  2301728
370
    18
  0
POLYLINE
  5
1A8
330
1F
100
AcDbEntity
  8
Wood
 62
   250
420
  2301728
370
    18
100
AcDb2dPolyline
 66
     1
 10
0.0
 20
0.0
 30
0.0
  0
VERTEX
  5
1A9
330
1A8
100
AcDbEntity
  8
Wood
 62
   250
420
  2301728
370
    18
100
AcDbVertex
100
AcDb2dVertex
 10
3.375616581391417
 20
5.67271514850745
 30
0.0
  0
VERTEX
  5
1AA
330
1A8
100
AcDbEntity
  8
Wood
 62
   250
420
  2301728
370
    18
100
AcDbVertex
100
AcDb2dVertex
 10
3.352755470857813
 20
5.288695713764152
 30
0.0
  0
VERTEX
  5
1AB
330
1A8
100
AcDbEntity
  8
Wood
 62
   250
420
  2301728
370
    18
100
AcDbVertex
100
AcDb2dVertex
 10
3.380187414609281
 20
5.114962384819692
 30
0.0
  0
SEQEND
  5
1AC
330
1A8
100
AcDbEntity
  8
Wood
 62
   250
420
  2301728
370
    18
  0
MTEXT
  5
1AD
330
1F
100
AcDbEntity
  8
Wood
 62
   250
420
  2236191
100
AcDbMText
 10
3.515052053663466
 20
4.721555603875054
 30
0.0
 40
0.118
 41
0.0
 46
0.0
 71
     7
 72
     1
  1
\fHelvetica Neue LT Std 57 Condensed|b0|i0|c0|p34;\W1;Joist
 73
     1
 44
1.0
  0
POLYLINE
  5
1AE
330
1F
100
AcDbEntity
  8
Wood
 62
   250
420
  2236191
370
    18
100
AcDb2dPolyline
 66
     1
 10
0.0
 20
0.0
 30
0.0
  0
VERTEX
  5
1AF
330
1AE
100
AcDbEntity
  8
Wood
 62
   250
420
  2236191
370
    18
100
AcDbVertex
100
AcDb2dVertex
 10
4.227083595384063
 20
5.504407787390871
 30
0.0
  0
VERTEX
  5
1B0
330
1AE
100
AcDbEntity
  8
Wood
 62
   250
420
  2236191
370
    18
100
AcDbVertex
100
AcDb2dVertex
 10
3.985424658069683
 20
5.825943940340216
 30
0.0
  0
SEQEND
  5
1B1
330
1AE
100
AcDbEntity
  8
Wood
 62
   250
420
  2236191
370
    18
  0
POLYLINE
  5
1B2
330
1F
100
AcDbEntity
  8
Wood
 62
   250
420
  2236191
370
    18
100
AcDb2dPolyline
 66
     1
 10
0.0
 20
0.0
 30
0.0
  0
VERTEX
  5
1B3
330
1B2
100
AcDbEntity
  8
Wood
 62
   250
420
  2236191
370
    18
100
AcDbVertex
100
AcDb2dVertex
 10
3.604314420803778
 20
4.888002364066197
 30
0.0
  0
VERTEX
  5
1B4
330
1B2
100
AcDbEntity
  8
Wood
 62
   250
420
  2236191
370
    18
100
AcDbVertex
100
AcDb2dVertex
 10
3.527517875371548
 20
5.101250000000012
 30
0.0
  0
SEQEND
  5
1B5
330
1B2
100
AcDbEntity
  8
Wood
 62
   250
420
  2236191
370
    18
  0
SPLINE
  5
1B7
330
1F
100
AcDbEntity
  8
HU8
370
     0
100
AcDbSpline
210
0.0
220
0.0
230
1.0
 70
    11
 71
     3
 72
    47
 73
    43
 74
     0
 42
0.0000000001
 43
0.0000000001
 12
1.0
 22
0.0
 32
0.0
 13
1.0
 23
0.0
 33
0.0
 40
0.0
 40
0.0
 40
0.0
 40
0.0
 40
1.0
 40
1.0
 40
1.0
 40
2.0
 40
2.0
 40
2.0
 40
3.0
 40
3.0
 40
3.0
 40
4.0
 40
4.0
 40
4.0
 40
5.0
 40
5.0
 40
5.0
 40
6.0
 40
6.0
 40
6.0
 40
7.0
 40
7.0
 40
7.0
 40
8.0
 40
8.0
 40
8.0
 40
9.0
 40
9.0
 40
9.0
 40
10.0
 40
10.0
 40
10.0
 40
11.0
 40
11.0
 40
11.0
 40
12.0
 40
12.0
 40
12.0
 40
13.0
 40
13.0
 40
13.0
 40
14.0
 40
14.0
 40
14.0
 40
14.0
 10
4.583549884209788
 20
6.570888888888892
 30
0.0
 10
4.583549884209788
 20
6.570888888888892
 30
0.0
 10
4.583549884209788
 20
5.678527777777768
 30
0.0
 10
4.583549884209788
 20
5.678527777777768
 30
0.0
 10
4.583549884209788
 20
5.678527777777768
 30
0.0
 10
4.253688781431669
 20
5.348090156708167
 30
0.0
 10
4.253688781431669
 20
5.348090156708167
 30
0.0
 10
4.253688781431669
 20
5.348090156708167
 30
0.0
 10
4.252529059238744
 20
5.336520712555991
 30
0.0
 10
4.253688781431669
 20
5.322631824017965
 30
0.0
 10
4.254848503624594
 20
5.308742935479939
 30
0.0
 10
4.240959615086568
 20
5.304117935596777
 30
0.0
 10
4.240959615086568
 20
5.304117935596777
 30
0.0
 10
4.240959615086568
 20
5.304117935596777
 30
0.0
 10
3.690409628994631
 20
5.125842940100382
 30
0.0
 10
3.690409628994631
 20
5.125842940100382
 30
0.0
 10
3.673048518322098
 20
5.118898495831369
 30
0.0
 10
3.658000000000003
 20
5.125842940100382
 30
0.0
 10
3.658000000000003
 20
5.125842940100382
 30
0.0
 10
3.658000000000003
 20
5.125842940100382
 30
0.0
 10
3.638326296977033
 20
5.137412384252557
 30
0.0
 10
3.638326296977033
 20
5.137412384252557
 30
0.0
 10
3.638326296977033
 20
5.137412384252557
 30
0.0
 10
3.669576296187592
 20
5.147829050656077
 30
0.0
 10
3.669576296187592
 20
5.147829050656077
 30
0.0
 10
3.669576296187592
 20
5.147829050656077
 30
0.0
 10
3.669576296187592
 20
5.199912382673674
 30
0.0
 10
3.669576296187592
 20
5.199912382673674
 30
0.0
 10
3.669576296187592
 20
5.199912382673674
 30
0.0
 10
3.951605455729602
 20
5.65364570454474
 30
0.0
 10
3.951605455729602
 20
5.65364570454474
 30
0.0
 10
3.951605455729602
 20
5.65364570454474
 30
0.0
 10
3.951605455729602
 20
6.587673458726991
 30
0.0
 10
3.951605455729602
 20
6.587673458726991
 30
0.0
 10
3.951605455729602
 20
6.587673458726991
 30
0.0
 10
4.257161003566176
 20
6.660590123551628
 30
0.0
 10
4.257161003566176
 20
6.660590123551628
 30
0.0
 10
4.274522114238708
 20
6.664062345686134
 30
0.0
 10
4.29188322491124
 20
6.657117901417122
 30
0.0
 10
4.29188322491124
 20
6.657117901417122
 30
0.0
 10
4.29188322491124
 20
6.657117901417122
 30
0.0
 10
4.583549884209788
 20
6.570888888888892
 30
0.0
 10
4.583549884209788
 20
6.570888888888892
 30
0.0
  0
HATCH
  5
1B8
330
1F
100
AcDbEntity
  8
HU8
 62
   254
420
 13358815
100
AcDbHatch
 10
0.0
 20
0.0
 30
0.0
210
0.0
220
0.0
230
1.0
  2
SOLID
 70
     1
 71
     0
 91
        1
 92
        1
 93
        1
 72
     4
 94
        3
 73
     0
 74
     1
 95
       47
 96
       43
 40
0.0
 40
0.0
 40
0.0
 40
0.0
 40
1.0
 40
1.0
 40
1.0
 40
2.0
 40
2.0
 40
2.0
 40
3.0
 40
3.0
 40
3.0
 40
4.0
 40
4.0
 40
4.0
 40
5.0
 40
5.0
 40
5.0
 40
6.0
 40
6.0
 40
6.0
 40
7.0
 40
7.0
 40
7.0
 40
8.0
 40
8.0
 40
8.0
 40
9.0
 40
9.0
 40
9.0
 40
10.0
 40
10.0
 40
10.0
 40
11.0
 40
11.0
 40
11.0
 40
12.0
 40
12.0
 40
12.0
 40
13.0
 40
13.0
 40
13.0
 40
14.0
 40
14.0
 40
14.0
 40
14.0
 10
4.583549884209788
 20
6.570888888888892
 10
4.583549884209788
 20
6.570888888888892
 10
4.583549884209788
 20
5.678527777777768
 10
4.583549884209788
 20
5.678527777777768
 10
4.583549884209788
 20
5.678527777777768
 10
4.253688781431669
 20
5.348090156708167
 10
4.253688781431669
 20
5.348090156708167
 10
4.253688781431669
 20
5.348090156708167
 10
4.252529059238744
 20
5.336520712555991
 10
4.253688781431669
 20
5.322631824017965
 10
4.254848503624594
 20
5.308742935479939
 10
4.240959615086568
 20
5.304117935596777
 10
4.240959615086568
 20
5.304117935596777
 10
4.240959615086568
 20
5.304117935596777
 10
3.690409628994631
 20
5.125842940100382
 10
3.690409628994631
 20
5.125842940100382
 10
3.673048518322098
 20
5.118898495831369
 10
3.658000000000003
 20
5.125842940100382
 10
3.658000000000003
 20
5.125842940100382
 10
3.658000000000003
 20
5.125842940100382
 10
3.638326296977033
 20
5.137412384252557
 10
3.638326296977033
 20
5.137412384252557
 10
3.638326296977033
 20
5.137412384252557
 10
3.669576296187592
 20
5.147829050656077
 10
3.669576296187592
 20
5.147829050656077
 10
3.669576296187592
 20
5.147829050656077
 10
3.669576296187592
 20
5.199912382673674
 10
3.669576296187592
 20
5.199912382673674
 10
3.669576296187592
 20
5.199912382673674
 10
3.951605455729602
 20
5.65364570454474
 10
3.951605455729602
 20
5.65364570454474
 10
3.951605455729602
 20
5.65364570454474
 10
3.951605455729602
 20
6.587673458726991
 10
3.951605455729602
 20
6.587673458726991
 10
3.951605455729602
 20
6.587673458726991
 10
4.257161003566176
 20
6.660590123551628
 10
4.257161003566176
 20
6.660590123551628
 10
4.274522114238708
 20
6.664062345686134
 10
4.29188322491124
 20
6.657117901417122
 10
4.29188322491124
 20
6.657117901417122
 10
4.29188322491124
 20
6.657117901417122
 10
4.583549884209788
 20
6.570888888888892
 10
4.583549884209788
 20
6.570888888888892
 97
        0
 97
        0
 75
     2
 76
     1
 98
        0
  0
SPLINE
  5
1B9
330
1F
100
AcDbEntity
  8
HU8
 62
   250
420
  2301728
370
    25
100
AcDbSpline
210
0.0
220
0.0
230
1.0
 70
     8
 71
     3
 72
    35
 73
    31
 74
     0
 42
0.0000000001
 43
0.0000000001
 12
1.0
 22
0.0
 32
0.0
 13
1.0
 23
0.0
 33
0.0
 40
0.0
 40
0.0
 40
0.0
 40
0.0
 40
1.0
 40
1.0
 40
1.0
 40
2.0
 40
2.0
 40
2.0
 40
3.0
 40
3.0
 40
3.0
 40
4.0
 40
4.0
 40
4.0
 40
5.0
 40
5.0
 40
5.0
 40
6.0
 40
6.0
 40
6.0
 40
7.0
 40
7.0
 40
7.0
 40
8.0
 40
8.0
 40
8.0
 40
9.0
 40
9.0
 40
9.0
 40
10.0
 40
10.0
 40
10.0
 40
10.0
 10
3.67399157385383
 20
5.122655440180905
 30
0.0
 10
3.692505462275019
 20
5.115710995911892
 30
0.0
 10
3.697137406602451
 20
5.141183217490632
 30
0.0
 10
3.697137406602451
 20
5.141183217490632
 30
0.0
 10
3.697137406602451
 20
5.141183217490632
 30
0.0
 10
3.697137406602451
 20
5.189794327373723
 30
0.0
 10
3.697137406602451
 20
5.189794327373723
 30
0.0
 10
3.697137406602451
 20
5.189794327373723
 30
0.0
 10
3.979159621700192
 20
5.643527777777788
 30
0.0
 10
3.979159621700192
 20
5.643527777777788
 30
0.0
 10
3.979159621700192
 20
5.643527777777788
 30
0.0
 10
3.979159621700192
 20
6.574076236848263
 30
0.0
 10
3.979159621700192
 20
6.574076236848263
 30
0.0
 10
3.979159621700192
 20
6.574076236848263
 30
0.0
 10
4.270833333333333
 20
6.643520679538394
 30
0.0
 10
4.270833333333333
 20
6.643520679538394
 30
0.0
 10
4.280083333333323
 20
6.645833333333333
 30
0.0
 10
4.291666666666666
 20
6.643520679538394
 30
0.0
 10
4.291666666666666
 20
6.643520679538394
 30
0.0
 10
4.291666666666666
 20
6.643520679538394
 30
0.0
 10
4.569444444444444
 20
6.561923459377491
 30
0.0
 10
4.569444444444444
 20
6.561923459377491
 30
0.0
 10
4.569444444444444
 20
6.561923459377491
 30
0.0
 10
4.569444444444444
 20
5.666090148674812
 30
0.0
 10
4.569444444444444
 20
5.666090148674812
 30
0.0
 10
4.569444444444444
 20
5.666090148674812
 30
0.0
 10
4.259256836846563
 20
5.361111111111111
 30
0.0
 10
4.259256836846563
 20
5.361111111111111
 30
0.0
 10
4.259256836846563
 20
5.361111111111111
 30
0.0
 10
4.260416666666666
 20
5.347222222222222
 30
0.0
 10
4.260416666666666
 20
5.347222222222222
 30
0.0
  0
POLYLINE
  5
1BA
330
1F
100
AcDbEntity
  8
HU8
 62
   250
420
  2301728
370
    25
100
AcDb2dPolyline
 66
     1
 10
0.0
 20
0.0
 30
0.0
  0
VERTEX
  5
1BB
330
1BA
100
AcDbEntity
  8
HU8
 62
   250
420
  2301728
370
    25
100
AcDbVertex
100
AcDb2dVertex
 10
3.676304073795412
 20
5.199044327140048
 30
0.0
  0
VERTEX
  5
1BC
330
1BA
100
AcDbEntity
  8
HU8
 62
   250
420
  2301728
370
    25
100
AcDbVertex
100
AcDb2dVertex
 10
3.699449906544032
 20
5.187474882987872
 30
0.0
  0
SEQEND
  5
1BD
330
1BA
100
AcDbEntity
  8
HU8
 62
   250
420
  2301728
370
    25
  0
POLYLINE
  5
1BE
330
1F
100
AcDbEntity
  8
HU8
 62
   250
420
  2301728
370
    25
100
AcDb2dPolyline
 66
     1
 10
0.0
 20
0.0
 30
0.0
  0
VERTEX
  5
1BF
330
1BE
100
AcDbEntity
  8
HU8
 62
   250
420
  2301728
370
    25
100
AcDbVertex
100
AcDb2dVertex
 10
3.958333333333333
 20
5.652777777777778
 30
0.0
  0
VERTEX
  5
1C0
330
1BE
100
AcDbEntity
  8
HU8
 62
   250
420
  2301728
370
    25
100
AcDbVertex
100
AcDb2dVertex
 10
3.981479066086043
 20
5.643527777777788
 30
0.0
  0
SEQEND
  5
1C1
330
1BE
100
AcDbEntity
  8
HU8
 62
   250
420
  2301728
370
    25
  0
POLYLINE
  5
1C2
330
1F
100
AcDbEntity
  8
HU8
 62
   250
420
  2301728
370
    25
100
AcDb2dPolyline
 66
     1
 10
0.0
 20
0.0
 30
0.0
  0
VERTEX
  5
1C3
330
1C2
100
AcDbEntity
  8
HU8
 62
   250
420
  2301728
370
    25
100
AcDbVertex
100
AcDb2dVertex
 10
3.956020733395841
 20
6.583340125503128
 30
0.0
  0
VERTEX
  5
1C4
330
1C2
100
AcDbEntity
  8
HU8
 62
   250
420
  2301728
370
    25
100
AcDbVertex
100
AcDb2dVertex
 10
3.97685406620288
 20
6.576395681234114
 30
0.0
  0
SEQEND
  5
1C5
330
1C2
100
AcDbEntity
  8
HU8
 62
   250
420
  2301728
370
    25
  0
SPLINE
  5
1C6
330
1F
100
AcDbEntity
  8
HU8
 62
   250
420
  2301728
370
    35
100
AcDbSpline
210
0.0
220
0.0
230
1.0
 70
    11
 71
     3
 72
    47
 73
    43
 74
     0
 42
0.0000000001
 43
0.0000000001
 12
1.0
 22
0.0
 32
0.0
 13
1.0
 23
0.0
 33
0.0
 40
0.0
 40
0.0
 40
0.0
 40
0.0
 40
1.0
 40
1.0
 40
1.0
 40
2.0
 40
2.0
 40
2.0
 40
3.0
 40
3.0
 40
3.0
 40
4.0
 40
4.0
 40
4.0
 40
5.0
 40
5.0
 40
5.0
 40
6.0
 40
6.0
 40
6.0
 40
7.0
 40
7.0
 40
7.0
 40
8.0
 40
8.0
 40
8.0
 40
9.0
 40
9.0
 40
9.0
 40
10.0
 40
10.0
 40
10.0
 40
11.0
 40
11.0
 40
11.0
 40
12.0
 40
12.0
 40
12.0
 40
13.0
 40
13.0
 40
13.0
 40
14.0
 40
14.0
 40
14.0
 40
14.0
 10
4.590277777777778
 20
6.57002068139516
 30
0.0
 10
4.590277777777778
 20
6.57002068139516
 30
0.0
 10
4.590277777777778
 20
5.677659592826987
 30
0.0
 10
4.590277777777778
 20
5.677659592826987
 30
0.0
 10
4.590277777777778
 20
5.677659592826987
 30
0.0
 10
4.260416666666666
 20
5.347222222222222
 30
0.0
 10
4.260416666666666
 20
5.347222222222222
 30
0.0
 10
4.260416666666666
 20
5.347222222222222
 30
0.0
 10
4.259256836846563
 20
5.33565277777777
 30
0.0
 10
4.260416666666666
 20
5.321763888888881
 30
0.0
 10
4.261576281232414
 20
5.307874999999992
 30
0.0
 10
4.247687392694388
 20
5.30325000000001
 30
0.0
 10
4.247687392694388
 20
5.30325000000001
 30
0.0
 10
4.247687392694388
 20
5.30325000000001
 30
0.0
 10
3.697137406602451
 20
5.124974884566755
 30
0.0
 10
3.697137406602451
 20
5.124974884566755
 30
0.0
 10
3.679776295929918
 20
5.118030440297742
 30
0.0
 10
3.664727685198967
 20
5.124974884566755
 30
0.0
 10
3.664727685198967
 20
5.124974884566755
 30
0.0
 10
3.664727685198967
 20
5.124974884566755
 30
0.0
 10
3.645054074584853
 20
5.136544328718931
 30
0.0
 10
3.645054074584853
 20
5.136544328718931
 30
0.0
 10
3.645054074584853
 20
5.136544328718931
 30
0.0
 10
3.676304073795412
 20
5.14696099512245
 30
0.0
 10
3.676304073795412
 20
5.14696099512245
 30
0.0
 10
3.676304073795412
 20
5.14696099512245
 30
0.0
 10
3.676304073795412
 20
5.199044327140048
 30
0.0
 10
3.676304073795412
 20
5.199044327140048
 30
0.0
 10
3.676304073795412
 20
5.199044327140048
 30
0.0
 10
3.958333333333333
 20
5.652777777777778
 30
0.0
 10
3.958333333333333
 20
5.652777777777778
 30
0.0
 10
3.958333333333333
 20
5.652777777777778
 30
0.0
 10
3.958333333333333
 20
6.586805555555555
 30
0.0
 10
3.958333333333333
 20
6.586805555555555
 30
0.0
 10
3.958333333333333
 20
6.586805555555555
 30
0.0
 10
4.263888888888888
 20
6.659722222222221
 30
0.0
 10
4.263888888888888
 20
6.659722222222221
 30
0.0
 10
4.28125
 20
6.663194444444444
 30
0.0
 10
4.298611111111111
 20
6.65625
 30
0.0
 10
4.298611111111111
 20
6.65625
 30
0.0
 10
4.298611111111111
 20
6.65625
 30
0.0
 10
4.590277777777778
 20
6.57002068139516
 30
0.0
 10
4.590277777777778
 20
6.57002068139516
 30
0.0
  0
INSERT
  5
1C8
330
1F
100
AcDbEntity
  8
HU8
100
AcDbBlockReference
  2
block 2
 10
0.0
 20
0.0
 30
0.0
  0
INSERT
  5
1D8
330
1F
100
AcDbEntity
  8
HU8
100
AcDbBlockReference
  2
block 3
 10
0.0
 20
0.0
 30
0.0
  0
INSERT
  5
1DE
330
1F
100
AcDbEntity
  8
HU8
100
AcDbBlockReference
  2
block 4
 10
0.0
 20
0.0
 30
0.0
  0
INSERT
  5
1E4
330
1F
100
AcDbEntity
  8
HU8
100
AcDbBlockReference
  2
block 5
 10
0.0
 20
0.0
 30
0.0
  0
POLYLINE
  5
1E9
330
1F
100
AcDbEntity
  8
HU8
 62
   250
420
  2301728
370
    25
100
AcDb2dPolyline
 66
     1
 10
0.0
 20
0.0
 30
0.0
  0
VERTEX
  5
1EA
330
1E9
100
AcDbEntity
  8
HU8
 62
   250
420
  2301728
370
    25
100
AcDbVertex
100
AcDb2dVertex
 10
4.569444444444444
 20
6.561923459377491
 30
0.0
  0
VERTEX
  5
1EB
330
1E9
100
AcDbEntity
  8
HU8
 62
   250
420
  2301728
370
    25
100
AcDbVertex
100
AcDb2dVertex
 10
4.590277777777778
 20
6.57002068139516
 30
0.0
  0
SEQEND
  5
1EC
330
1E9
100
AcDbEntity
  8
HU8
 62
   250
420
  2301728
370
    25
  0
POLYLINE
  5
1ED
330
1F
100
AcDbEntity
  8
HU8
 62
   250
420
  2301728
370
    25
100
AcDb2dPolyline
 66
     1
 10
0.0
 20
0.0
 30
0.0
  0
VERTEX
  5
1EE
330
1ED
100
AcDbEntity
  8
HU8
 62
   250
420
  2301728
370
    25
100
AcDbVertex
100
AcDb2dVertex
 10
4.569444444444444
 20
5.666090148674812
 30
0.0
  0
VERTEX
  5
1EF
330
1ED
100
AcDbEntity
  8
HU8
 62
   250
420
  2301728
370
    25
100
AcDbVertex
100
AcDb2dVertex
 10
4.590277777777778
 20
5.677659592826987
 30
0.0
  0
SEQEND
  5
1F0
330
1ED
100
AcDbEntity
  8
HU8
 62
   250
420
  2301728
370
    25
  0
INSERT
  5
1F2
330
1F
100
AcDbEntity
  8
HU8
100
AcDbBlockReference
  2
block 6
 10
0.0
 20
0.0
 30
0.0
  0
MTEXT
  5
1FC
330
1F
100
AcDbEntity
  8
HU8
 62
   250
420
  2301728
100
AcDbMText
 10
3.329526159498426
 20
4.239552153481378
 30
0.0
 40
0.118
 41
0.0
 46
0.0
 71
     7
 72
     1
  1
\fHelvetica Neue LT Std 55 Roman|b0|i0|c0|p34;\W1;SIMPSON Strong-Tie\H0.068794;®\H0.118; ^C
 73
     1
 44
1.0
  0
MTEXT
  5
1FD
330
1F
100
AcDbEntity
  8
HU8
 62
   250
420
  2301728
100
AcDbMText
 10
3.579892370435926
 20
4.039546728134155
 30
0.0
 40
0.118
 41
0.0
 46
0.0
 71
     7
 72
     1
  1
\fHelvetica Neue LT Std 55 Roman|b0|i0|c0|p34;\W1;SAE Installation 
 73
     1
 44
1.0
  0
MTEXT
  5
1FE
330
1F
100
AcDbEntity
  8
HU8
 62
   250
420
  2236191
100
AcDbMText
 10
4.459646013047959
 20
4.721553219689263
 30
0.0
 40
0.118
 41
0.0
 46
0.0
 71
     7
 72
     1
  1
\fHelvetica Neue LT Std 57 Condensed|b0|i0|c0|p34;\W1;SAE
 73
     1
 44
1.0
  0
MTEXT
  5
1FF
330
1F
100
AcDbEntity
  8
HU8
 62
   250
420
  2236191
100
AcDbMText
 10
4.868052588568793
 20
4.721553219689263
 30
0.0
 40
0.118
 41
0.0
 46
0.0
 71
     7
 72
     1
  1
\fHelvetica Neue LT Std 57 Condensed|b0|i0|c0|p34;\W1;Beam
 73
     1
 44
1.0
  0
POLYLINE
  5
200
330
1F
100
AcDbEntity
  8
HU8
 62
   250
420
  2236191
370
    18
100
AcDb2dPolyline
 66
     1
 10
0.0
 20
0.0
 30
0.0
  0
VERTEX
  5
201
330
200
100
AcDbEntity
  8
HU8
 62
   250
420
  2236191
370
    18
100
AcDbVertex
100
AcDb2dVertex
 10
4.518369175627236
 20
4.89829749103943
 30
0.0
  0
VERTEX
  5
202
330
200
100
AcDbEntity
  8
HU8
 62
   250
420
  2236191
370
    18
100
AcDbVertex
100
AcDb2dVertex
 10
4.189115771940881
 20
5.267361111111111
 30
0.0
  0
SEQEND
  5
203
330
200
100
AcDbEntity
  8
HU8
 62
   250
420
  2236191
370
    18
  0
POLYLINE
  5
204
330
1F
100
AcDbEntity
  8
HU8
 62
   250
420
  2236191
370
    18
100
AcDb2dPolyline
 66
     1
 10
0.0
 20
0.0
 30
0.0
  0
VERTEX
  5
205
330
204
100
AcDbEntity
  8
HU8
 62
   250
420
  2236191
370
    18
100
AcDbVertex
100
AcDb2dVertex
 10
4.961805555555555
 20
4.888002364066197
 30
0.0
  0
VERTEX
  5
206
330
204
100
AcDbEntity
  8
HU8
 62
   250
420
  2236191
370
    18
100
AcDbVertex
100
AcDb2dVertex
 10
4.878776075934588
 20
5.121527777777778
 30
0.0
  0
SEQEND
  5
207
330
204
100
AcDbEntity
  8
HU8
 62
   250
420
  2236191
370
    18
  0
ENDSEC
  0
SECTION
  2
OBJECTS
  0
DICTIONARY
  5
C
330
0
100
AcDbDictionary
281
     1
  3
ACAD_GROUP
350
D
  3
ACAD_LAYOUT
350
1A
  3
ACAD_MATERIAL
350
3B
  3
ACAD_MLEADERSTYLE
350
209
  3
ACAD_MLINESTYLE
350
17
  3
ACAD_PLOTSETTINGS
350
19
  3
ACAD_PLOTSTYLENAME
350
E
  3
ACAD_TABLESTYLE
350
208
  3
ACAD_VISUALSTYLE
350
2A
  0
SUN
  5
3F
330
29
100
AcDbSun
 90
        1
290
     0
 63
     7
421
 16777215
 40
1.0
291
     1
 91
  2455826
 92
 54000000
292
     0
 70
     2
 71
   256
280
     1
  0
DICTIONARY
  5
D
102
{ACAD_REACTORS
330
C
102
}
330
C
100
AcDbDictionary
281
     1
  0
DICTIONARY
  5
1A
102
{ACAD_REACTORS
330
C
102
}
330
C
100
AcDbDictionary
281
     1
  3
Layout1
350
1E
  3
Layout2
350
26
  3
Model
350
22
  0
DICTIONARY
  5
3B
102
{ACAD_REACTORS
330
C
102
}
330
C
100
AcDbDictionary
281
     1
  3
ByBlock
350
3D
  3
ByLayer
350
3C
  3
Global
350
3E
  0
DICTIONARY
  5
209
102
{ACAD_REACTORS
330
C
102
}
330
C
100
AcDbDictionary
281
     1
  0
DICTIONARY
  5
17
102
{ACAD_REACTORS
330
C
102
}
330
C
100
AcDbDictionary
281
     1
  3
Standard
350
18
  0
DICTIONARY
  5
19
102
{ACAD_REACTORS
330
C
102
}
330
C
100
AcDbDictionary
281
     1
  0
ACDBDICTIONARYWDFLT
  5
E
102
{ACAD_REACTORS
330
C
102
}
330
C
100
AcDbDictionary
281
     1
  3
Normal
350
F
100
AcDbDictionaryWithDefault
340
F
  0
DICTIONARY
  5
208
102
{ACAD_REACTORS
330
C
102
}
330
C
100
AcDbDictionary
281
     1
  0
DICTIONARY
  5
2A
102
{ACAD_REACTORS
330
C
102
}
330
C
100
AcDbDictionary
281
     1
  3
2dWireframe
350
2F
  3
3D Hidden
350
31
  3
3dWireframe
350
30
  3
Basic
350
32
  3
Brighten
350
36
  3
ColorChange
350
3A
  3
Conceptual
350
34
  3
Dim
350
35
  3
Facepattern
350
39
  3
Flat
350
2B
  3
FlatWithEdges
350
2C
  3
Gouraud
350
2D
  3
GouraudWithEdges
350
2E
  3
Linepattern
350
38
  3
Realistic
350
33
  3
Thicken
350
37
  0
LAYOUT
  5
1E
102
{ACAD_REACTORS
330
1A
102
}
330
1A
100
AcDbPlotSettings
  1

  2
none_device
  4

  6

 40
0.0
 41
0.0
 42
0.0
 43
0.0
 44
0.0
 45
0.0
 46
0.0
 47
0.0
 48
0.0
 49
0.0
140
0.0
141
0.0
142
1.0
143
1.0
 70
   688
 72
     0
 73
     0
 74
     5
  7

 75
    16
 76
     0
 77
     2
 78
   300
147
1.0
148
0.0
149
0.0
100
AcDbLayout
  1
Layout1
 70
     1
 71
     1
 10
0.0
 20
0.0
 11
12.0
 21
9.0
 12
0.0
 22
0.0
 32
0.0
 14
1.000000000000000E+20
 24
1.000000000000000E+20
 34
1.000000000000000E+20
 15
-1.000000000000000E+20
 25
-1.000000000000000E+20
 35
-1.000000000000000E+20
146
0.0
 13
0.0
 23
0.0
 33
0.0
 16
1.0
 26
0.0
 36
0.0
 17
0.0
 27
1.0
 37
0.0
 76
     0
330
1B
  0
LAYOUT
  5
26
102
{ACAD_REACTORS
330
1A
102
}
330
1A
100
AcDbPlotSettings
  1

  2
none_device
  4

  6

 40
0.0
 41
0.0
 42
0.0
 43
0.0
 44
0.0
 45
0.0
 46
0.0
 47
0.0
 48
0.0
 49
0.0
140
0.0
141
0.0
142
1.0
143
1.0
 70
   688
 72
     0
 73
     0
 74
     5
  7

 75
    16
 76
     0
 77
     2
 78
   300
147
1.0
148
0.0
149
0.0
100
AcDbLayout
  1
Layout2
 70
     1
 71
     2
 10
0.0
 20
0.0
 11
0.0
 21
0.0
 12
0.0
 22
0.0
 32
0.0
 14
0.0
 24
0.0
 34
0.0
 15
0.0
 25
0.0
 35
0.0
146
0.0
 13
0.0
 23
0.0
 33
0.0
 16
1.0
 26
0.0
 36
0.0
 17
0.0
 27
1.0
 37
0.0
 76
     0
330
23
  0
LAYOUT
  5
22
102
{ACAD_REACTORS
330
1A
102
}
330
1A
100
AcDbPlotSettings
  1

  2
none_device
  4

  6

 40
0.0
 41
0.0
 42
0.0
 43
0.0
 44
0.0
 45
0.0
 46
0.0
 47
0.0
 48
0.0
 49
0.0
140
0.0
141
0.0
142
1.0
143
1.0
 70
  1712
 72
     0
 73
     0
 74
     0
  7

 75
     0
 76
     0
 77
     2
 78
   300
147
1.0
148
0.0
149
0.0
100
AcDbLayout
  1
Model
 70
     1
 71
     0
 10
0.0
 20
0.0
 11
12.0
 21
9.0
 12
0.0
 22
0.0
 32
0.0
 14
1.000000000000000E+20
 24
1.000000000000000E+20
 34
1.000000000000000E+20
 15
-1.000000000000000E+20
 25
-1.000000000000000E+20
 35
-1.000000000000000E+20
146
0.0
 13
0.0
 23
0.0
 33
0.0
 16
1.0
 26
0.0
 36
0.0
 17
0.0
 27
1.0
 37
0.0
 76
     0
330
1F
331
29
  0
MATERIAL
  5
3D
102
{ACAD_REACTORS
330
3B
102
}
330
3B
100
AcDbMaterial
  1
ByBlock
 72
     1
 94
      127
  0
MATERIAL
  5
3C
102
{ACAD_REACTORS
330
3B
102
}
330
3B
100
AcDbMaterial
  1
ByLayer
 72
     1
 94
      127
  0
MATERIAL
  5
3E
102
{ACAD_REACTORS
330
3B
102
}
330
3B
100
AcDbMaterial
  1
Global
 72
     1
 94
      127
  0
MLINESTYLE
  5
18
102
{ACAD_REACTORS
330
17
102
}
330
17
100
AcDbMlineStyle
  2
Standard
 70
     0
  3

 62
   256
 51
90.0
 52
90.0
 71
     2
 49
0.5
 62
   256
  6
BYLAYER
 49
-0.5
 62
   256
  6
BYLAYER
  0
ACDBPLACEHOLDER
  5
F
102
{ACAD_REACTORS
330
E
102
}
330
E
  0
VISUALSTYLE
  5
2F
102
{ACAD_REACTORS
330
2A
102
}
330
2A
100
AcDbVisualStyle
  2
2dWireframe
 70
     4
177
     2
291
     0
 71
     0
176
     1
 72
     2
176
     1
 73
     0
176
     1
 90
        0
176
     1
 40
-0.6
176
     1
 41
-30.0
176
     1
 62
     5
 63
     7
421
 16777215
176
     1
 74
     1
176
     1
 91
        4
176
     1
 64
     7
176
     1
 65
   257
176
     1
 75
     1
176
     1
175
     1
176
     1
 42
1.0
176
     1
 92
        0
176
     1
 66
   257
176
     1
 43
1.0
176
     1
 76
     1
176
     1
 77
     6
176
     1
 78
     2
176
     1
 67
     7
176
     1
 79
     5
176
     1
170
     0
176
     1
171
     0
176
     1
290
     0
176
     1
 93
        1
176
     1
 44
0.0
176
     1
173
     0
176
     1
  0
VISUALSTYLE
  5
31
102
{ACAD_REACTORS
330
2A
102
}
330
2A
100
AcDbVisualStyle
  2
3D Hidden
 70
     6
177
     2
291
     0
 71
     1
176
     1
 72
     2
176
     1
 73
     2
176
     1
 90
        0
176
     1
 40
-0.6
176
     1
 41
-30.0
176
     1
 62
     5
 63
     7
421
 16777215
176
     1
 74
     2
176
     1
 91
        2
176
     1
 64
     7
176
     1
 65
   257
176
     1
 75
     2
176
     1
175
     1
176
     1
 42
40.0
176
     1
 92
        0
176
     1
 66
   257
176
     1
 43
1.0
176
     1
 76
     1
176
     1
 77
     6
176
     1
 78
     2
176
     1
 67
     7
176
     1
 79
     3
176
     1
170
     0
176
     1
171
     0
176
     1
290
     0
176
     1
 93
        1
176
     1
 44
0.0
176
     1
173
     0
176
     1
  0
VISUALSTYLE
  5
30
102
{ACAD_REACTORS
330
2A
102
}
330
2A
100
AcDbVisualStyle
  2
3dWireframe
 70
     5
177
     2
291
     0
 71
     0
176
     1
 72
     2
176
     1
 73
     0
176
     1
 90
        0
176
     1
 40
-0.6
176
     1
 41
-30.0
176
     1
 62
     5
 63
     7
421
 16777215
176
     1
 74
     1
176
     1
 91
        4
176
     1
 64
     7
176
     1
 65
   257
176
     1
 75
     1
176
     1
175
     1
176
     1
 42
1.0
176
     1
 92
        0
176
     1
 66
   257
176
     1
 43
1.0
176
     1
 76
     1
176
     1
 77
     6
176
     1
 78
     2
176
     1
 67
     7
176
     1
 79
     5
176
     1
170
     0
176
     1
171
     0
176
     1
290
     0
176
     1
 93
        1
176
     1
 44
0.0
176
     1
173
     0
176
     1
  0
VISUALSTYLE
  5
32
102
{ACAD_REACTORS
330
2A
102
}
330
2A
100
AcDbVisualStyle
  2
Basic
 70
     7
177
     2
291
     1
 71
     1
176
     1
 72
     0
176
     1
 73
     1
176
     1
 90
        0
176
     1
 40
-0.6
176
     1
 41
-30.0
176
     1
 62
     5
 63
     7
421
 16777215
176
     1
 74
     0
176
     1
 91
        4
176
     1
 64
     7
176
     1
 65
   257
176
     1
 75
     1
176
     1
175
     1
176
     1
 42
1.0
176
     1
 92
        8
176
     1
 66
     7
176
     1
 43
1.0
176
     1
 76
     1
176
     1
 77
     6
176
     1
 78
     2
176
     1
 67
     7
176
     1
 79
     5
176
     1
170
     0
176
     1
171
     0
176
     1
290
     0
176
     1
 93
        1
176
     1
 44
0.0
176
     1
173
     0
176
     1
  0
VISUALSTYLE
  5
36
102
{ACAD_REACTORS
330
2A
102
}
330
2A
100
AcDbVisualStyle
  2
Brighten
 70
    12
177
     2
291
     1
 71
     2
176
     1
 72
     2
176
     1
 73
     0
176
     1
 90
        0
176
     1
 40
-0.6
176
     1
 41
-30.0
176
     1
 62
     5
 63
     7
421
 16777215
176
     1
 74
     1
176
     1
 91
        4
176
     1
 64
     7
176
     1
 65
   257
176
     1
 75
     1
176
     1
175
     1
176
     1
 42
1.0
176
     1
 92
        8
176
     1
 66
     7
176
     1
 43
1.0
176
     1
 76
     1
176
     1
 77
     6
176
     1
 78
     2
176
     1
 67
     7
176
     1
 79
     5
176
     1
170
     0
176
     1
171
     0
176
     1
290
     0
176
     1
 93
        1
176
     1
 44
50.0
176
     1
173
     0
176
     1
  0
VISUALSTYLE
  5
3A
102
{ACAD_REACTORS
330
2A
102
}
330
2A
100
AcDbVisualStyle
  2
ColorChange
 70
    16
177
     2
291
     1
 71
     2
176
     1
 72
     2
176
     1
 73
     3
176
     1
 90
        0
176
     1
 40
-0.6
176
     1
 41
-30.0
176
     1
 62
     5
 63
     8
421
  8421504
176
     1
 74
     1
176
     1
 91
        4
176
     1
 64
     7
176
     1
 65
   257
176
     1
 75
     1
176
     1
175
     1
176
     1
 42
1.0
176
     1
 92
        8
176
     1
 66
     8
424
  8421504
176
     1
 43
1.0
176
     1
 76
     1
176
     1
 77
     6
176
     1
 78
     2
176
     1
 67
     7
176
     1
 79
     5
176
     1
170
     0
176
     1
171
     0
176
     1
290
     0
176
     1
 93
        1
176
     1
 44
0.0
176
     1
173
     0
176
     1
  0
VISUALSTYLE
  5
34
102
{ACAD_REACTORS
330
2A
102
}
330
2A
100
AcDbVisualStyle
  2
Conceptual
 70
     9
177
     2
291
     0
 71
     3
176
     1
 72
     2
176
     1
 73
     0
176
     1
 90
        0
176
     1
 40
-0.6
176
     1
 41
-30.0
176
     1
 62
     5
 63
     7
421
 16777215
176
     1
 74
     2
176
     1
 91
        2
176
     1
 64
     7
176
     1
 65
   257
176
     1
 75
     1
176
     1
175
     1
176
     1
 42
40.0
176
     1
 92
        8
176
     1
 66
     7
176
     1
 43
1.0
176
     1
 76
     1
176
     1
 77
     6
176
     1
 78
     2
176
     1
 67
     7
176
     1
 79
     3
176
     1
170
     0
176
     1
171
     0
176
     1
290
     0
176
     1
 93
        1
176
     1
 44
0.0
176
     1
173
     0
176
     1
  0
VISUALSTYLE
  5
35
102
{ACAD_REACTORS
330
2A
102
}
330
2A
100
AcDbVisualStyle
  2
Dim
 70
    11
177
     2
291
     1
 71
     2
176
     1
 72
     2
176
     1
 73
     0
176
     1
 90
        0
176
     1
 40
-0.6
176
     1
 41
-30.0
176
     1
 62
     5
 63
     7
421
 16777215
176
     1
 74
     1
176
     1
 91
        4
176
     1
 64
     7
176
     1
 65
   257
176
     1
 75
     1
176
     1
175
     1
176
     1
 42
1.0
176
     1
 92
        8
176
     1
 66
     7
176
     1
 43
1.0
176
     1
 76
     1
176
     1
 77
     6
176
     1
 78
     2
176
     1
 67
     7
176
     1
 79
     5
176
     1
170
     0
176
     1
171
     0
176
     1
290
     0
176
     1
 93
        1
176
     1
 44
-50.0
176
     1
173
     0
176
     1
  0
VISUALSTYLE
  5
39
102
{ACAD_REACTORS
330
2A
102
}
330
2A
100
AcDbVisualStyle
  2
Facepattern
 70
    15
177
     2
291
     1
 71
     2
176
     1
 72
     2
176
     1
 73
     0
176
     1
 90
        0
176
     1
 40
-0.6
176
     1
 41
-30.0
176
     1
 62
     5
 63
     7
421
 16777215
176
     1
 74
     1
176
     1
 91
        4
176
     1
 64
     7
176
     1
 65
   257
176
     1
 75
     1
176
     1
175
     1
176
     1
 42
1.0
176
     1
 92
        8
176
     1
 66
     7
176
     1
 43
1.0
176
     1
 76
     1
176
     1
 77
     6
176
     1
 78
     2
176
     1
 67
     7
176
     1
 79
     5
176
     1
170
     0
176
     1
171
     0
176
     1
290
     0
176
     1
 93
        1
176
     1
 44
0.0
176
     1
173
     0
176
     1
  0
VISUALSTYLE
  5
2B
102
{ACAD_REACTORS
330
2A
102
}
330
2A
100
AcDbVisualStyle
  2
Flat
 70
     0
177
     2
291
     1
 71
     2
176
     1
 72
     1
176
     1
 73
     1
176
     1
 90
        2
176
     1
 40
-0.6
176
     1
 41
30.0
176
     1
 62
     5
 63
     7
421
 16777215
176
     1
 74
     0
176
     1
 91
        4
176
     1
 64
     7
176
     1
 65
   257
176
     1
 75
     1
176
     1
175
     1
176
     1
 42
1.0
176
     1
 92
        8
176
     1
 66
     7
176
     1
 43
1.0
176
     1
 76
     1
176
     1
 77
     6
176
     1
 78
     2
176
     1
 67
     7
176
     1
 79
     5
176
     1
170
     0
176
     1
171
     0
176
     1
290
     0
176
     1
 93
       13
176
     1
 44
0.0
176
     1
173
     0
176
     1
  0
VISUALSTYLE
  5
2C
102
{ACAD_REACTORS
330
2A
102
}
330
2A
100
AcDbVisualStyle
  2
FlatWithEdges
 70
     1
177
     2
291
     1
 71
     2
176
     1
 72
     1
176
     1
 73
     1
176
     1
 90
        2
176
     1
 40
-0.6
176
     1
 41
30.0
176
     1
 62
     5
 63
     7
421
 16777215
176
     1
 74
     1
176
     1
 91
        4
176
     1
 64
     7
176
     1
 65
   257
176
     1
 75
     1
176
     1
175
     1
176
     1
 42
1.0
176
     1
 92
        0
176
     1
 66
   257
176
     1
 43
1.0
176
     1
 76
     1
176
     1
 77
     6
176
     1
 78
     2
176
     1
 67
     7
176
     1
 79
     5
176
     1
170
     0
176
     1
171
     0
176
     1
290
     0
176
     1
 93
       13
176
     1
 44
0.0
176
     1
173
     0
176
     1
  0
VISUALSTYLE
  5
2D
102
{ACAD_REACTORS
330
2A
102
}
330
2A
100
AcDbVisualStyle
  2
Gouraud
 70
     2
177
     2
291
     1
 71
     2
176
     1
 72
     2
176
     1
 73
     1
176
     1
 90
        2
176
     1
 40
-0.6
176
     1
 41
30.0
176
     1
 62
     5
 63
     7
421
 16777215
176
     1
 74
     0
176
     1
 91
        4
176
     1
 64
     7
176
     1
 65
   257
176
     1
 75
     1
176
     1
175
     1
176
     1
 42
1.0
176
     1
 92
        0
176
     1
 66
     7
176
     1
 43
1.0
176
     1
 76
     1
176
     1
 77
     6
176
     1
 78
     2
176
     1
 67
     7
176
     1
 79
     5
176
     1
170
     0
176
     1
171
     0
176
     1
290
     0
176
     1
 93
       13
176
     1
 44
0.0
176
     1
173
     0
176
     1
  0
VISUALSTYLE
  5
2E
102
{ACAD_REACTORS
330
2A
102
}
330
2A
100
AcDbVisualStyle
  2
GouraudWithEdges
 70
     3
177
     2
291
     1
 71
     2
176
     1
 72
     2
176
     1
 73
     1
176
     1
 90
        2
176
     1
 40
-0.6
176
     1
 41
30.0
176
     1
 62
     5
 63
     7
421
 16777215
176
     1
 74
     1
176
     1
 91
        4
176
     1
 64
     7
176
     1
 65
   257
176
     1
 75
     1
176
     1
175
     1
176
     1
 42
1.0
176
     1
 92
        0
176
     1
 66
   257
176
     1
 43
1.0
176
     1
 76
     1
176
     1
 77
     6
176
     1
 78
     2
176
     1
 67
     7
176
     1
 79
     5
176
     1
170
     0
176
     1
171
     0
176
     1
290
     0
176
     1
 93
       13
176
     1
 44
0.0
176
     1
173
     0
176
     1
  0
VISUALSTYLE
  5
38
102
{ACAD_REACTORS
330
2A
102
}
330
2A
100
AcDbVisualStyle
  2
Linepattern
 70
    14
177
     2
291
     1
 71
     2
176
     1
 72
     2
176
     1
 73
     0
176
     1
 90
        0
176
     1
 40
-0.6
176
     1
 41
-30.0
176
     1
 62
     5
 63
     7
421
 16777215
176
     1
 74
     1
176
     1
 91
        4
176
     1
 64
     7
176
     1
 65
   257
176
     1
 75
     7
176
     1
175
     7
176
     1
 42
1.0
176
     1
 92
        8
176
     1
 66
     7
176
     1
 43
1.0
176
     1
 76
     1
176
     1
 77
     6
176
     1
 78
     2
176
     1
 67
     7
176
     1
 79
     5
176
     1
170
     0
176
     1
171
     0
176
     1
290
     0
176
     1
 93
        1
176
     1
 44
0.0
176
     1
173
     0
176
     1
  0
VISUALSTYLE
  5
33
102
{ACAD_REACTORS
330
2A
102
}
330
2A
100
AcDbVisualStyle
  2
Realistic
 70
     8
177
     2
291
     0
 71
     2
176
     1
 72
     2
176
     1
 73
     0
176
     1
 90
        0
176
     1
 40
-0.6
176
     1
 41
-30.0
176
     1
 62
     5
 63
     7
421
 16777215
176
     1
 74
     1
176
     1
 91
        0
176
     1
 64
     7
176
     1
 65
   257
176
     1
 75
     1
176
     1
175
     1
176
     1
 42
1.0
176
     1
 92
        8
176
     1
 66
     8
424
  7895160
176
     1
 43
1.0
176
     1
 76
     1
176
     1
 77
     6
176
     1
 78
     2
176
     1
 67
     7
176
     1
 79
     5
176
     1
170
     0
176
     1
171
     0
176
     1
290
     0
176
     1
 93
       13
176
     1
 44
0.0
176
     1
173
     0
176
     1
  0
VISUALSTYLE
  5
37
102
{ACAD_REACTORS
330
2A
102
}
330
2A
100
AcDbVisualStyle
  2
Thicken
 70
    13
177
     2
291
     1
 71
     2
176
     1
 72
     2
176
     1
 73
     0
176
     1
 90
        0
176
     1
 40
-0.6
176
     1
 41
-30.0
176
     1
 62
     5
 63
     7
421
 16777215
176
     1
 74
     1
176
     1
 91
        4
176
     1
 64
     7
176
     1
 65
   257
176
     1
 75
     1
176
     1
175
     1
176
     1
 42
1.0
176
     1
 92
       12
176
     1
 66
     7
176
     1
 43
1.0
176
     1
 76
     1
176
     1
 77
     6
176
     1
 78
     2
176
     1
 67
     7
176
     1
 79
     5
176
     1
170
     0
176
     1
171
     0
176
     1
290
     0
176
     1
 93
        1
176
     1
 44
0.0
176
     1
173
     0
176
     1
  0
ENDSEC
  0
EOF
