  0
SECTION
  2
HEADER
  9
$ACADVER
  1
AC1024
  9
$ACADMAINTVER
 70
     6
  9
$DWGCODEPAGE
  3
ANSI_1252
  9
$INSBASE
 10
0.0
 20
0.0
 30
0.0
  9
$EXTMIN
 10
1.000000000000000E+20
 20
1.000000000000000E+20
 30
1.000000000000000E+20
  9
$EXTMAX
 10
-1.000000000000000E+20
 20
-1.000000000000000E+20
 30
-1.000000000000000E+20
  9
$LIMMIN
 10
0.0
 20
0.0
  9
$LIMMAX
 10
12.0
 20
9.0
  9
$ORTHOMODE
 70
     0
  9
$REGENMODE
 70
     1
  9
$FILLMODE
 70
     1
  9
$QTEXTMODE
 70
     0
  9
$MIRRTEXT
 70
     1
  9
$LTSCALE
 40
1.0
  9
$ATTMODE
 70
     1
  9
$TEXTSIZE
 40
0.2
  9
$TRACEWID
 40
0.05
  9
$TEXTSTYLE
  7
Standard
  9
$CLAYER
  8
0
  9
$CELTYPE
  6
ByLayer
  9
$CECOLOR
 62
   256
  9
$CELTSCALE
 40
1.0
  9
$DISPSILH
 70
     0
  9
$DIMSCALE
 40
1.0
  9
$DIMASZ
 40
0.18
  9
$DIMEXO
 40
0.0625
  9
$DIMDLI
 40
0.38
  9
$DIMRND
 40
0.0
  9
$DIMDLE
 40
0.0
  9
$DIMEXE
 40
0.18
  9
$DIMTP
 40
0.0
  9
$DIMTM
 40
0.0
  9
$DIMTXT
 40
0.18
  9
$DIMCEN
 40
0.09
  9
$DIMTSZ
 40
0.0
  9
$DIMTOL
 70
     0
  9
$DIMLIM
 70
     0
  9
$DIMTIH
 70
     1
  9
$DIMTOH
 70
     1
  9
$DIMSE1
 70
     0
  9
$DIMSE2
 70
     0
  9
$DIMTAD
 70
     0
  9
$DIMZIN
 70
     0
  9
$DIMBLK
  1

  9
$DIMASO
 70
     1
  9
$DIMSHO
 70
     1
  9
$DIMPOST
  1

  9
$DIMAPOST
  1

  9
$DIMALT
 70
     0
  9
$DIMALTD
 70
     2
  9
$DIMALTF
 40
25.4
  9
$DIMLFAC
 40
1.0
  9
$DIMTOFL
 70
     0
  9
$DIMTVP
 40
0.0
  9
$DIMTIX
 70
     0
  9
$DIMSOXD
 70
     0
  9
$DIMSAH
 70
     0
  9
$DIMBLK1
  1

  9
$DIMBLK2
  1

  9
$DIMSTYLE
  2
Standard
  9
$DIMCLRD
 70
     0
  9
$DIMCLRE
 70
     0
  9
$DIMCLRT
 70
     0
  9
$DIMTFAC
 40
1.0
  9
$DIMGAP
 40
0.09
  9
$DIMJUST
 70
     0
  9
$DIMSD1
 70
     0
  9
$DIMSD2
 70
     0
  9
$DIMTOLJ
 70
     1
  9
$DIMTZIN
 70
     0
  9
$DIMALTZ
 70
     0
  9
$DIMALTTZ
 70
     0
  9
$DIMUPT
 70
     0
  9
$DIMDEC
 70
     4
  9
$DIMTDEC
 70
     4
  9
$DIMALTU
 70
     2
  9
$DIMALTTD
 70
     2
  9
$DIMTXSTY
  7
Standard
  9
$DIMAUNIT
 70
     0
  9
$DIMADEC
 70
     0
  9
$DIMALTRND
 40
0.0
  9
$DIMAZIN
 70
     0
  9
$DIMDSEP
 70
    46
  9
$DIMATFIT
 70
     3
  9
$DIMFRAC
 70
     0
  9
$DIMLDRBLK
  1

  9
$DIMLUNIT
 70
     2
  9
$DIMLWD
 70
    -2
  9
$DIMLWE
 70
    -2
  9
$DIMTMOVE
 70
     0
  9
$DIMFXL
 40
1.0
  9
$DIMFXLON
 70
     0
  9
$DIMJOGANG
 40
0.7853981633974483
  9
$DIMTFILL
 70
     0
  9
$DIMTFILLCLR
 70
     0
  9
$DIMARCSYM
 70
     0
  9
$DIMLTYPE
  6

  9
$DIMLTEX1
  6

  9
$DIMLTEX2
  6

  9
$DIMTXTDIRECTION
 70
     0
  9
$LUNITS
 70
     2
  9
$LUPREC
 70
     4
  9
$SKETCHINC
 40
0.1
  9
$FILLETRAD
 40
0.5
  9
$AUNITS
 70
     0
  9
$AUPREC
 70
     0
  9
$MENU
  1
.
  9
$ELEVATION
 40
0.0
  9
$PELEVATION
 40
0.0
  9
$THICKNESS
 40
0.0
  9
$LIMCHECK
 70
     0
  9
$CHAMFERA
 40
0.5
  9
$CHAMFERB
 40
0.5
  9
$CHAMFERC
 40
1.0
  9
$CHAMFERD
 40
0.0
  9
$SKPOLY
 70
     0
  9
$TDCREATE
 40
2459073.672248032
  9
$TDUCREATE
 40
2459073.172248032
  9
$TDUPDATE
 40
2459073.672248287
  9
$TDUUPDATE
 40
2459073.172248287
  9
$TDINDWG
 40
0.0000000116
  9
$TDUSRTIMER
 40
0.0000000116
  9
$USRTIMER
 70
     1
  9
$ANGBASE
 50
0.0
  9
$ANGDIR
 70
     0
  9
$PDMODE
 70
     0
  9
$PDSIZE
 40
0.0
  9
$PLINEWID
 40
0.0
  9
$SPLFRAME
 70
     0
  9
$SPLINETYPE
 70
     6
  9
$SPLINESEGS
 70
     8
  9
$HANDSEED
  5
238
  9
$SURFTAB1
 70
     6
  9
$SURFTAB2
 70
     6
  9
$SURFTYPE
 70
     6
  9
$SURFU
 70
     6
  9
$SURFV
 70
     6
  9
$UCSBASE
  2

  9
$UCSNAME
  2

  9
$UCSORG
 10
0.0
 20
0.0
 30
0.0
  9
$UCSXDIR
 10
1.0
 20
0.0
 30
0.0
  9
$UCSYDIR
 10
0.0
 20
1.0
 30
0.0
  9
$UCSORTHOREF
  2

  9
$UCSORTHOVIEW
 70
     0
  9
$UCSORGTOP
 10
0.0
 20
0.0
 30
0.0
  9
$UCSORGBOTTOM
 10
0.0
 20
0.0
 30
0.0
  9
$UCSORGLEFT
 10
0.0
 20
0.0
 30
0.0
  9
$UCSORGRIGHT
 10
0.0
 20
0.0
 30
0.0
  9
$UCSORGFRONT
 10
0.0
 20
0.0
 30
0.0
  9
$UCSORGBACK
 10
0.0
 20
0.0
 30
0.0
  9
$PUCSBASE
  2

  9
$PUCSNAME
  2

  9
$PUCSORG
 10
0.0
 20
0.0
 30
0.0
  9
$PUCSXDIR
 10
1.0
 20
0.0
 30
0.0
  9
$PUCSYDIR
 10
0.0
 20
1.0
 30
0.0
  9
$PUCSORTHOREF
  2

  9
$PUCSORTHOVIEW
 70
     0
  9
$PUCSORGTOP
 10
0.0
 20
0.0
 30
0.0
  9
$PUCSORGBOTTOM
 10
0.0
 20
0.0
 30
0.0
  9
$PUCSORGLEFT
 10
0.0
 20
0.0
 30
0.0
  9
$PUCSORGRIGHT
 10
0.0
 20
0.0
 30
0.0
  9
$PUCSORGFRONT
 10
0.0
 20
0.0
 30
0.0
  9
$PUCSORGBACK
 10
0.0
 20
0.0
 30
0.0
  9
$USERI1
 70
     0
  9
$USERI2
 70
     0
  9
$USERI3
 70
     0
  9
$USERI4
 70
     0
  9
$USERI5
 70
     0
  9
$USERR1
 40
0.0
  9
$USERR2
 40
0.0
  9
$USERR3
 40
0.0
  9
$USERR4
 40
0.0
  9
$USERR5
 40
0.0
  9
$WORLDVIEW
 70
     1
  9
$SHADEDGE
 70
     3
  9
$SHADEDIF
 70
    70
  9
$TILEMODE
 70
     1
  9
$MAXACTVP
 70
    64
  9
$PINSBASE
 10
0.0
 20
0.0
 30
0.0
  9
$PLIMCHECK
 70
     0
  9
$PEXTMIN
 10
1.000000000000000E+20
 20
1.000000000000000E+20
 30
1.000000000000000E+20
  9
$PEXTMAX
 10
-1.000000000000000E+20
 20
-1.000000000000000E+20
 30
-1.000000000000000E+20
  9
$PLIMMIN
 10
0.0
 20
0.0
  9
$PLIMMAX
 10
12.0
 20
9.0
  9
$UNITMODE
 70
     0
  9
$VISRETAIN
 70
     1
  9
$PLINEGEN
 70
     0
  9
$PSLTSCALE
 70
     1
  9
$TREEDEPTH
 70
  3020
  9
$CMLSTYLE
  2
Standard
  9
$CMLJUST
 70
     0
  9
$CMLSCALE
 40
1.0
  9
$PROXYGRAPHICS
 70
     1
  9
$MEASUREMENT
 70
     0
  9
$CELWEIGHT
370
    -1
  9
$ENDCAPS
280
     0
  9
$JOINSTYLE
280
     0
  9
$LWDISPLAY
290
     1
  9
$INSUNITS
 70
     1
  9
$HYPERLINKBASE
  1

  9
$STYLESHEET
  1

  9
$XEDIT
290
     1
  9
$CEPSNTYPE
380
     0
  9
$PSTYLEMODE
290
     1
  9
$FINGERPRINTGUID
  2
{81849013-2715-401E-A420-AF16E5502557}
  9
$VERSIONGUID
  2
{FAEB1C32-E019-11D5-929B-00C0DF256EC4}
  9
$EXTNAMES
290
     1
  9
$PSVPSCALE
 40
0.0
  9
$OLESTARTUP
290
     0
  9
$SORTENTS
280
   127
  9
$INDEXCTL
280
     0
  9
$HIDETEXT
280
     1
  9
$XCLIPFRAME
280
     2
  9
$HALOGAP
280
     0
  9
$OBSCOLOR
 70
   257
  9
$OBSLTYPE
280
     0
  9
$INTERSECTIONDISPLAY
280
     0
  9
$INTERSECTIONCOLOR
 70
   257
  9
$DIMASSOC
280
     2
  9
$PROJECTNAME
  1

  9
$CAMERADISPLAY
290
     0
  9
$LENSLENGTH
 40
50.0
  9
$CAMERAHEIGHT
 40
0.0
  9
$STEPSPERSEC
 40
2.0
  9
$STEPSIZE
 40
6.0
  9
$3DDWFPREC
 40
2.0
  9
$PSOLWIDTH
 40
0.25
  9
$PSOLHEIGHT
 40
4.0
  9
$LOFTANG1
 40
1.570796326794897
  9
$LOFTANG2
 40
1.570796326794897
  9
$LOFTMAG1
 40
0.0
  9
$LOFTMAG2
 40
0.0
  9
$LOFTPARAM
 70
     7
  9
$LOFTNORMALS
280
     1
  9
$LATITUDE
 40
37.795
  9
$LONGITUDE
 40
-122.394
  9
$NORTHDIRECTION
 40
0.0
  9
$TIMEZONE
 70
 -8000
  9
$LIGHTGLYPHDISPLAY
280
     1
  9
$TILEMODELIGHTSYNCH
280
     1
  9
$CMATERIAL
347
3C
  9
$SOLIDHIST
280
     1
  9
$SHOWHIST
280
     1
  9
$DWFFRAME
280
     2
  9
$DGNFRAME
280
     2
  9
$REALWORLDSCALE
290
     1
  9
$INTERFERECOLOR
 62
   256
  9
$CSHADOW
280
     0
  9
$SHADOWPLANELOCATION
 40
0.0
  0
ENDSEC
  0
SECTION
  2
CLASSES
  0
CLASS
  1
ACDBDICTIONARYWDFLT
  2
AcDbDictionaryWithDefault
  3
ObjectDBX Classes
 90
        0
 91
        4
280
     0
281
     0
  0
CLASS
  1
VISUALSTYLE
  2
AcDbVisualStyle
  3
ObjectDBX Classes
 90
     4095
 91
        4
280
     0
281
     0
  0
CLASS
  1
MATERIAL
  2
AcDbMaterial
  3
ObjectDBX Classes
 90
     1153
 91
        4
280
     0
281
     0
  0
CLASS
  1
SUN
  2
AcDbSun
  3
SCENEOE
 90
     1024
 91
        4
280
     0
281
     0
  0
ENDSEC
  0
SECTION
  2
TABLES
  0
TABLE
  2
VPORT
  5
8
330
0
100
AcDbSymbolTable
 70
     1
  0
VPORT
  5
29
330
8
100
AcDbSymbolTableRecord
100
AcDbViewportTableRecord
  2
*Active
 70
     0
 10
0.0
 20
0.0
 11
1.0
 21
1.0
 12
0.0
 22
0.0
 13
0.0
 23
0.0
 14
0.5
 24
0.5
 15
0.5
 25
0.5
 16
0.0
 26
0.0
 36
1.0
 17
4.198856838372397
 27
5.821624999999989
 37
0.0
 40
11.69291338582677
 41
0.7070707070707065
 42
50.0
 43
0.0
 44
0.0
 50
0.0
 51
0.0
 71
     0
 72
   100
 73
     1
 74
     3
 75
     0
 76
     0
 77
     0
 78
     0
281
     0
 65
     1
110
0.0
120
0.0
130
0.0
111
1.0
121
0.0
131
0.0
112
0.0
122
1.0
132
0.0
 79
     0
146
0.0
 60
     3
 61
     5
292
     1
282
     1
141
0.0
142
0.0
 63
   250
361
3F
  0
ENDTAB
  0
TABLE
  2
LTYPE
  5
5
330
0
100
AcDbSymbolTable
 70
     1
  0
LTYPE
  5
14
330
5
100
AcDbSymbolTableRecord
100
AcDbLinetypeTableRecord
  2
ByBlock
 70
     0
  3

 72
    65
 73
     0
 40
0.0
  0
LTYPE
  5
15
330
5
100
AcDbSymbolTableRecord
100
AcDbLinetypeTableRecord
  2
ByLayer
 70
     0
  3

 72
    65
 73
     0
 40
0.0
  0
LTYPE
  5
16
330
5
100
AcDbSymbolTableRecord
100
AcDbLinetypeTableRecord
  2
Continuous
 70
     0
  3
Solid line
 72
    65
 73
     0
 40
0.0
  0
ENDTAB
  0
TABLE
  2
LAYER
  5
2
330
0
100
AcDbSymbolTable
 70
     3
  0
LAYER
  5
10
330
2
100
AcDbSymbolTableRecord
100
AcDbLayerTableRecord
  2
0
 70
     0
 62
     7
  6
Continuous
370
    -3
390
F
347
3E
  0
LAYER
  5
40
330
2
100
AcDbSymbolTableRecord
100
AcDbLayerTableRecord
  2
Wood
 70
     0
 62
     7
  6
Continuous
370
    -3
390
F
347
3E
  0
LAYER
  5
1B6
330
2
100
AcDbSymbolTableRecord
100
AcDbLayerTableRecord
  2
HU8
 70
     0
 62
     7
  6
Continuous
370
    -3
390
F
347
3E
  0
ENDTAB
  0
TABLE
  2
STYLE
  5
3
330
0
100
AcDbSymbolTable
 70
     1
  0
STYLE
  5
11
330
3
100
AcDbSymbolTableRecord
100
AcDbTextStyleTableRecord
  2
Standard
 70
     0
 40
0.0
 41
1.0
 50
0.0
 71
     0
 42
0.2
  3
txt
  4

  0
ENDTAB
  0
TABLE
  2
VIEW
  5
6
330
0
100
AcDbSymbolTable
 70
     0
  0
ENDTAB
  0
TABLE
  2
UCS
  5
7
330
0
100
AcDbSymbolTable
 70
     0
  0
ENDTAB
  0
TABLE
  2
APPID
  5
9
330
0
100
AcDbSymbolTable
 70
     1
  0
APPID
  5
12
330
9
100
AcDbSymbolTableRecord
100
AcDbRegAppTableRecord
  2
ACAD
 70
     0
  0
ENDTAB
  0
TABLE
  2
DIMSTYLE
  5
A
330
0
100
AcDbSymbolTable
 70
     1
100
AcDbDimStyleTable
  0
DIMSTYLE
105
27
330
A
100
AcDbSymbolTableRecord
100
AcDbDimStyleTableRecord
  2
Standard
 70
     0
178
     0
340
11
  0
ENDTAB
  0
TABLE
  2
BLOCK_RECORD
  5
1
330
0
100
AcDbSymbolTable
 70
    15
  0
BLOCK_RECORD
  5
1F
330
1
100
AcDbSymbolTableRecord
100
AcDbBlockTableRecord
  2
*Model_Space
340
22
 70
     0
280
     1
281
     0
  0
BLOCK_RECORD
  5
1B
330
1
100
AcDbSymbolTableRecord
100
AcDbBlockTableRecord
  2
*Paper_Space
340
1E
 70
     0
280
     1
281
     0
  0
BLOCK_RECORD
  5
23
330
1
100
AcDbSymbolTableRecord
100
AcDbBlockTableRecord
  2
*Paper_Space0
340
26
 70
     0
280
     1
281
     0
  0
BLOCK_RECORD
  5
1C7
330
1
100
AcDbSymbolTableRecord
100
AcDbBlockTableRecord
  2
block 2
340
0
102
{BLKREFS
331
1C8
102
}
 70
     0
280
     1
281
     0
  0
BLOCK_RECORD
  5
1D7
330
1
100
AcDbSymbolTableRecord
100
AcDbBlockTableRecord
  2
block 3
340
0
102
{BLKREFS
331
1D8
102
}
 70
     0
280
     1
281
     0
  0
BLOCK_RECORD
  5
1DD
330
1
100
AcDbSymbolTableRecord
100
AcDbBlockTableRecord
  2
block 4
340
0
102
{BLKREFS
331
1DE
102
}
 70
     0
280
     1
281
     0
  0
BLOCK_RECORD
  5
1E3
330
1
100
AcDbSymbolTableRecord
100
AcDbBlockTableRecord
  2
block 5
340
0
102
{BLKREFS
331
1E4
102
}
 70
     0
280
     1
281
     0
  0
BLOCK_RECORD
  5
1E9
330
1
100
AcDbSymbolTableRecord
100
AcDbBlockTableRecord
  2
block 6
340
0
102
{BLKREFS
331
1EA
102
}
 70
     0
280
     1
281
     0
  0
BLOCK_RECORD
  5
1EF
330
1
100
AcDbSymbolTableRecord
100
AcDbBlockTableRecord
  2
block 7
340
0
102
{BLKREFS
331
1F0
102
}
 70
     0
280
     1
281
     0
  0
BLOCK_RECORD
  5
1F5
330
1
100
AcDbSymbolTableRecord
100
AcDbBlockTableRecord
  2
block 8
340
0
102
{BLKREFS
331
1F6
102
}
 70
     0
280
     1
281
     0
  0
BLOCK_RECORD
  5
1FB
330
1
100
AcDbSymbolTableRecord
100
AcDbBlockTableRecord
  2
block 9
340
0
102
{BLKREFS
331
1FC
102
}
 70
     0
280
     1
281
     0
  0
BLOCK_RECORD
  5
201
330
1
100
AcDbSymbolTableRecord
100
AcDbBlockTableRecord
  2
block 10
340
0
102
{BLKREFS
331
202
102
}
 70
     0
280
     1
281
     0
  0
BLOCK_RECORD
  5
207
330
1
100
AcDbSymbolTableRecord
100
AcDbBlockTableRecord
  2
block 11
340
0
102
{BLKREFS
331
208
102
}
 70
     0
280
     1
281
     0
  0
BLOCK_RECORD
  5
20D
330
1
100
AcDbSymbolTableRecord
100
AcDbBlockTableRecord
  2
block 12
340
0
102
{BLKREFS
331
20E
102
}
 70
     0
280
     1
281
     0
  0
BLOCK_RECORD
  5
227
330
1
100
AcDbSymbolTableRecord
100
AcDbBlockTableRecord
  2
block 13
340
0
102
{BLKREFS
331
228
102
}
 70
     0
280
     1
281
     0
  0
BLOCK_RECORD
  5
22B
330
1
100
AcDbSymbolTableRecord
100
AcDbBlockTableRecord
  2
block 14
340
0
102
{BLKREFS
331
22C
102
}
 70
     0
280
     1
281
     0
  0
BLOCK_RECORD
  5
22F
330
1
100
AcDbSymbolTableRecord
100
AcDbBlockTableRecord
  2
block 15
340
0
102
{BLKREFS
331
230
102
}
 70
     0
280
     1
281
     0
  0
ENDTAB
  0
ENDSEC
  0
SECTION
  2
BLOCKS
  0
BLOCK
  5
20
330
1F
100
AcDbEntity
  8
0
100
AcDbBlockBegin
  2
*Model_Space
 70
     0
 10
0.0
 20
0.0
 30
0.0
  3
*Model_Space
  1

  0
ENDBLK
  5
21
330
1F
100
AcDbEntity
  8
0
100
AcDbBlockEnd
  0
BLOCK
  5
1C
330
1B
100
AcDbEntity
 67
     1
  8
0
100
AcDbBlockBegin
  2
*Paper_Space
 70
     0
 10
0.0
 20
0.0
 30
0.0
  3
*Paper_Space
  1

  0
ENDBLK
  5
1D
330
1B
100
AcDbEntity
 67
     1
  8
0
100
AcDbBlockEnd
  0
BLOCK
  5
24
330
23
100
AcDbEntity
  8
0
100
AcDbBlockBegin
  2
*Paper_Space0
 70
     0
 10
0.0
 20
0.0
 30
0.0
  3
*Paper_Space0
  1

  0
ENDBLK
  5
25
330
23
100
AcDbEntity
  8
0
100
AcDbBlockEnd
  0
BLOCK
  5
1C9
330
1C7
100
AcDbEntity
  8
0
100
AcDbBlockBegin
  2
block 2
 70
     0
 10
0.0
 20
0.0
 30
0.0
  3
block 2
  1

  0
POLYLINE
  5
1CB
330
1C7
100
AcDbEntity
  8
HU8
 62
   250
420
  2301728
370
    18
100
AcDb2dPolyline
 66
     1
 10
0.0
 20
0.0
 30
0.0
  0
VERTEX
  5
1CC
330
1CB
100
AcDbEntity
  8
HU8
 62
   250
420
  2301728
370
    18
100
AcDbVertex
100
AcDb2dVertex
 10
4.280097222222214
 20
5.520833333333333
 30
0.0
  0
VERTEX
  5
1CD
330
1CB
100
AcDbEntity
  8
HU8
 62
   250
420
  2301728
370
    18
100
AcDbVertex
100
AcDb2dVertex
 10
4.280097222222214
 20
5.495374999999992
 30
0.0
  0
SEQEND
  5
1CE
330
1CB
100
AcDbEntity
  8
HU8
 62
   250
420
  2301728
370
    18
  0
POLYLINE
  5
1CF
330
1C7
100
AcDbEntity
  8
HU8
 62
     7
420
 16776959
370
     9
100
AcDb2dPolyline
 66
     1
 10
0.0
 20
0.0
 30
0.0
  0
VERTEX
  5
1D0
330
1CF
100
AcDbEntity
  8
HU8
 62
     7
420
 16776959
370
     9
100
AcDbVertex
100
AcDb2dVertex
 10
4.280097222222214
 20
6.581013888888883
 30
0.0
  0
VERTEX
  5
1D1
330
1CF
100
AcDbEntity
  8
HU8
 62
     7
420
 16776959
370
     9
100
AcDbVertex
100
AcDb2dVertex
 10
4.280097222222214
 20
5.541666666666666
 30
0.0
  0
SEQEND
  5
1D2
330
1CF
100
AcDbEntity
  8
HU8
 62
     7
420
 16776959
370
     9
  0
POLYLINE
  5
1D3
330
1C7
100
AcDbEntity
  8
HU8
 62
   250
420
  2301728
370
    18
100
AcDb2dPolyline
 66
     1
 10
0.0
 20
0.0
 30
0.0
  0
VERTEX
  5
1D4
330
1D3
100
AcDbEntity
  8
HU8
 62
   250
420
  2301728
370
    18
100
AcDbVertex
100
AcDb2dVertex
 10
4.280097222222214
 20
6.631951235386218
 30
0.0
  0
VERTEX
  5
1D5
330
1D3
100
AcDbEntity
  8
HU8
 62
   250
420
  2301728
370
    18
100
AcDbVertex
100
AcDb2dVertex
 10
4.280097222222214
 20
6.606486111111116
 30
0.0
  0
SEQEND
  5
1D6
330
1D3
100
AcDbEntity
  8
HU8
 62
   250
420
  2301728
370
    18
  0
ENDBLK
  5
1CA
330
1C7
100
AcDbEntity
  8
0
100
AcDbBlockEnd
  0
BLOCK
  5
1D9
330
1D7
100
AcDbEntity
  8
0
100
AcDbBlockBegin
  2
block 3
 70
     0
 10
0.0
 20
0.0
 30
0.0
  3
block 3
  1

  0
SPLINE
  5
1DB
330
1D7
100
AcDbEntity
  8
HU8
 62
     7
420
 16776959
370
    18
100
AcDbSpline
210
0.0
220
0.0
230
1.0
 70
    11
 71
     3
 72
    17
 73
    13
 74
     0
 42
0.0000000001
 43
0.0000000001
 12
1.0
 22
0.0
 32
0.0
 13
1.0
 23
0.0
 33
0.0
 40
0.0
 40
0.0
 40
0.0
 40
0.0
 40
1.0
 40
1.0
 40
1.0
 40
2.0
 40
2.0
 40
2.0
 40
3.0
 40
3.0
 40
3.0
 40
4.0
 40
4.0
 40
4.0
 40
4.0
 10
4.050767953224547
 20
5.576949873148906
 30
0.0
 10
4.047166666666663
 20
5.55913459582118
 30
0.0
 10
4.055209619779008
 20
5.542486111111101
 30
0.0
 10
4.068712397215677
 20
5.539752651866365
 30
0.0
 10
4.08222073020776
 20
5.537033207490619
 30
0.0
 10
4.096095729857248
 20
5.549254040515241
 30
0.0
 10
4.09969017421089
 20
5.567055555555561
 30
0.0
 10
4.103291666666665
 20
5.584865150726728
 30
0.0
 10
4.09524850765643
 20
5.601513888888879
 30
0.0
 10
4.081752674664029
 20
5.604240150237274
 30
0.0
 10
4.068244341671945
 20
5.606973483501557
 30
0.0
 10
4.054362397578188
 20
5.594745706032679
 30
0.0
 10
4.050767953224547
 20
5.576949873148906
 30
0.0
  0
SPLINE
  5
1DC
330
1D7
100
AcDbEntity
  8
HU8
 62
     7
420
 16776959
370
    25
100
AcDbSpline
210
0.0
220
0.0
230
1.0
 70
    11
 71
     3
 72
    23
 73
    19
 74
     0
 42
0.0000000001
 43
0.0000000001
 12
1.0
 22
0.0
 32
0.0
 13
1.0
 23
0.0
 33
0.0
 40
0.0
 40
0.0
 40
0.0
 40
0.0
 40
1.0
 40
1.0
 40
1.0
 40
2.0
 40
2.0
 40
2.0
 40
3.0
 40
3.0
 40
3.0
 40
4.0
 40
4.0
 40
4.0
 40
5.0
 40
5.0
 40
5.0
 40
6.0
 40
6.0
 40
6.0
 40
6.0
 10
4.081888888888885
 20
5.604897094665122
 30
0.0
 10
4.081522119114311
 20
5.604972222222234
 30
0.0
 10
4.074584619289555
 20
5.609705427876987
 30
0.0
 10
4.070712397165153
 20
5.61048611111111
 30
0.0
 10
4.056924897513454
 20
5.613273483342406
 30
0.0
 10
4.042765175648936
 20
5.60079431699099
 30
0.0
 10
4.03909573129719
 20
5.582633206338667
 30
0.0
 10
4.035420731390028
 20
5.564458333333328
 30
0.0
 10
4.043626286738294
 20
5.547470707226946
 30
0.0
 10
4.057406841945723
 20
5.544683207297364
 30
0.0
 10
4.057766564158858
 20
5.544608207299259
 30
0.0
 10
4.064711008427872
 20
5.539881818529769
 30
0.0
 10
4.068583333333335
 20
5.539094318549663
 30
0.0
 10
4.082363785759703
 20
5.53631376306435
 30
0.0
 10
4.09652350762422
 20
5.548785984971497
 30
0.0
 10
4.100192951975966
 20
5.566954040068089
 30
0.0
 10
4.103867951883128
 20
5.585122095164681
 30
0.0
 10
4.095662396534863
 20
5.602111111111122
 30
0.0
 10
4.081888888888885
 20
5.604897094665122
 30
0.0
  0
ENDBLK
  5
1DA
330
1D7
100
AcDbEntity
  8
0
100
AcDbBlockEnd
  0
BLOCK
  5
1DF
330
1DD
100
AcDbEntity
  8
0
100
AcDbBlockBegin
  2
block 4
 70
     0
 10
0.0
 20
0.0
 30
0.0
  3
block 4
  1

  0
SPLINE
  5
1E1
330
1DD
100
AcDbEntity
  8
HU8
 62
     7
420
 16776959
370
    18
100
AcDbSpline
210
0.0
220
0.0
230
1.0
 70
    11
 71
     3
 72
    17
 73
    13
 74
     0
 42
0.0000000001
 43
0.0000000001
 12
1.0
 22
0.0
 32
0.0
 13
1.0
 23
0.0
 33
0.0
 40
0.0
 40
0.0
 40
0.0
 40
0.0
 40
1.0
 40
1.0
 40
1.0
 40
2.0
 40
2.0
 40
2.0
 40
3.0
 40
3.0
 40
3.0
 40
4.0
 40
4.0
 40
4.0
 40
4.0
 10
4.050767953224547
 20
5.873616530215966
 30
0.0
 10
4.047166666666663
 20
5.85580125288824
 30
0.0
 10
4.055209619779008
 20
5.839152777777776
 30
0.0
 10
4.068712397215677
 20
5.836419308933424
 30
0.0
 10
4.08222073020776
 20
5.833699864557679
 30
0.0
 10
4.096095729857248
 20
5.845920697582287
 30
0.0
 10
4.09969017421089
 20
5.863722222222223
 30
0.0
 10
4.103291666666665
 20
5.881531807793786
 30
0.0
 10
4.09524850765643
 20
5.898180555555554
 30
0.0
 10
4.081752674664029
 20
5.900906807304333
 30
0.0
 10
4.068244341671945
 20
5.903640140568617
 30
0.0
 10
4.054362397578188
 20
5.891412363099739
 30
0.0
 10
4.050767953224547
 20
5.873616530215966
 30
0.0
  0
SPLINE
  5
1E2
330
1DD
100
AcDbEntity
  8
HU8
 62
     7
420
 16776959
370
    25
100
AcDbSpline
210
0.0
220
0.0
230
1.0
 70
    11
 71
     3
 72
    23
 73
    19
 74
     0
 42
0.0000000001
 43
0.0000000001
 12
1.0
 22
0.0
 32
0.0
 13
1.0
 23
0.0
 33
0.0
 40
0.0
 40
0.0
 40
0.0
 40
0.0
 40
1.0
 40
1.0
 40
1.0
 40
2.0
 40
2.0
 40
2.0
 40
3.0
 40
3.0
 40
3.0
 40
4.0
 40
4.0
 40
4.0
 40
5.0
 40
5.0
 40
5.0
 40
6.0
 40
6.0
 40
6.0
 40
6.0
 10
4.081888888888885
 20
5.901563751732182
 30
0.0
 10
4.081522119114311
 20
5.901638888888884
 30
0.0
 10
4.074584619289555
 20
5.906372084944047
 30
0.0
 10
4.070712397165153
 20
5.907152777777797
 30
0.0
 10
4.056924897513454
 20
5.909940140409478
 30
0.0
 10
4.042765175648936
 20
5.897460974058049
 30
0.0
 10
4.03909573129719
 20
5.879299863405726
 30
0.0
 10
4.035420731390028
 20
5.861125000000002
 30
0.0
 10
4.043626286738294
 20
5.844137364294006
 30
0.0
 10
4.057406841945723
 20
5.841349864364436
 30
0.0
 10
4.057766564158858
 20
5.841274864366318
 30
0.0
 10
4.064711008427872
 20
5.836548475596828
 30
0.0
 10
4.068583333333335
 20
5.835760975616722
 30
0.0
 10
4.082363785759703
 20
5.832980420131421
 30
0.0
 10
4.09652350762422
 20
5.845452642038556
 30
0.0
 10
4.100192951975966
 20
5.863620697135148
 30
0.0
 10
4.103867951883128
 20
5.88178875223174
 30
0.0
 10
4.095662396534863
 20
5.898777777777771
 30
0.0
 10
4.081888888888885
 20
5.901563751732182
 30
0.0
  0
ENDBLK
  5
1E0
330
1DD
100
AcDbEntity
  8
0
100
AcDbBlockEnd
  0
BLOCK
  5
1E5
330
1E3
100
AcDbEntity
  8
0
100
AcDbBlockBegin
  2
block 5
 70
     0
 10
0.0
 20
0.0
 30
0.0
  3
block 5
  1

  0
SPLINE
  5
1E7
330
1E3
100
AcDbEntity
  8
HU8
 62
     7
420
 16776959
370
    18
100
AcDbSpline
210
0.0
220
0.0
230
1.0
 70
    11
 71
     3
 72
    17
 73
    13
 74
     0
 42
0.0000000001
 43
0.0000000001
 12
1.0
 22
0.0
 32
0.0
 13
1.0
 23
0.0
 33
0.0
 40
0.0
 40
0.0
 40
0.0
 40
0.0
 40
1.0
 40
1.0
 40
1.0
 40
2.0
 40
2.0
 40
2.0
 40
3.0
 40
3.0
 40
3.0
 40
4.0
 40
4.0
 40
4.0
 40
4.0
 10
4.050767953224547
 20
6.170283187283025
 30
0.0
 10
4.047166666666663
 20
6.152467909955299
 30
0.0
 10
4.055209619779008
 20
6.135819444444451
 30
0.0
 10
4.068712397215677
 20
6.133085966000484
 30
0.0
 10
4.08222073020776
 20
6.130366521624738
 30
0.0
 10
4.096095729857248
 20
6.142587354649347
 30
0.0
 10
4.09969017421089
 20
6.160388888888885
 30
0.0
 10
4.103291666666665
 20
6.178198464860846
 30
0.0
 10
4.09524850765643
 20
6.194847222222228
 30
0.0
 10
4.081752674664029
 20
6.197573464371392
 30
0.0
 10
4.068244341671945
 20
6.200306797635676
 30
0.0
 10
4.054362397578188
 20
6.188079020166797
 30
0.0
 10
4.050767953224547
 20
6.170283187283025
 30
0.0
  0
SPLINE
  5
1E8
330
1E3
100
AcDbEntity
  8
HU8
 62
     7
420
 16776959
370
    25
100
AcDbSpline
210
0.0
220
0.0
230
1.0
 70
    11
 71
     3
 72
    23
 73
    19
 74
     0
 42
0.0000000001
 43
0.0000000001
 12
1.0
 22
0.0
 32
0.0
 13
1.0
 23
0.0
 33
0.0
 40
0.0
 40
0.0
 40
0.0
 40
0.0
 40
1.0
 40
1.0
 40
1.0
 40
2.0
 40
2.0
 40
2.0
 40
3.0
 40
3.0
 40
3.0
 40
4.0
 40
4.0
 40
4.0
 40
5.0
 40
5.0
 40
5.0
 40
6.0
 40
6.0
 40
6.0
 40
6.0
 10
4.081888888888885
 20
6.198230408799241
 30
0.0
 10
4.081522119114311
 20
6.198305555555558
 30
0.0
 10
4.074584619289555
 20
6.203038742011105
 30
0.0
 10
4.070712397165153
 20
6.203819444444447
 30
0.0
 10
4.056924897513454
 20
6.206606797476525
 30
0.0
 10
4.042765175648936
 20
6.194127631125108
 30
0.0
 10
4.03909573129719
 20
6.175966520472785
 30
0.0
 10
4.035420731390028
 20
6.157791666666665
 30
0.0
 10
4.043626286738294
 20
6.140804021361064
 30
0.0
 10
4.057406841945723
 20
6.138016521431482
 30
0.0
 10
4.057766564158858
 20
6.137941521433377
 30
0.0
 10
4.064711008427872
 20
6.133215132663887
 30
0.0
 10
4.068583333333335
 20
6.132427632683781
 30
0.0
 10
4.082363785759703
 20
6.129647077198468
 30
0.0
 10
4.09652350762422
 20
6.142119299105616
 30
0.0
 10
4.100192951975966
 20
6.160287354202207
 30
0.0
 10
4.103867951883128
 20
6.1784554092988
 30
0.0
 10
4.095662396534863
 20
6.195444444444446
 30
0.0
 10
4.081888888888885
 20
6.198230408799241
 30
0.0
  0
ENDBLK
  5
1E6
330
1E3
100
AcDbEntity
  8
0
100
AcDbBlockEnd
  0
BLOCK
  5
1EB
330
1E9
100
AcDbEntity
  8
0
100
AcDbBlockBegin
  2
block 6
 70
     0
 10
0.0
 20
0.0
 30
0.0
  3
block 6
  1

  0
SPLINE
  5
1ED
330
1E9
100
AcDbEntity
  8
HU8
 62
     7
420
 16776959
370
    18
100
AcDbSpline
210
0.0
220
0.0
230
1.0
 70
    11
 71
     3
 72
    17
 73
    13
 74
     0
 42
0.0000000001
 43
0.0000000001
 12
1.0
 22
0.0
 32
0.0
 13
1.0
 23
0.0
 33
0.0
 40
0.0
 40
0.0
 40
0.0
 40
0.0
 40
1.0
 40
1.0
 40
1.0
 40
2.0
 40
2.0
 40
2.0
 40
3.0
 40
3.0
 40
3.0
 40
4.0
 40
4.0
 40
4.0
 40
4.0
 10
4.050767953224547
 20
6.485283182483221
 30
0.0
 10
4.047166666666663
 20
6.467467905155495
 30
0.0
 10
4.055209619779008
 20
6.450819444444441
 30
0.0
 10
4.068712397215677
 20
6.44808596120068
 30
0.0
 10
4.08222073020776
 20
6.445366516824934
 30
0.0
 10
4.096095729857248
 20
6.457587349849543
 30
0.0
 10
4.09969017421089
 20
6.475388888888889
 30
0.0
 10
4.103291666666665
 20
6.493198460061042
 30
0.0
 10
4.09524850765643
 20
6.50984722222222
 30
0.0
 10
4.081752674664029
 20
6.512573459571589
 30
0.0
 10
4.068244341671945
 20
6.515306792835872
 30
0.0
 10
4.054362397578188
 20
6.503079015366994
 30
0.0
 10
4.050767953224547
 20
6.485283182483221
 30
0.0
  0
SPLINE
  5
1EE
330
1E9
100
AcDbEntity
  8
HU8
 62
     7
420
 16776959
370
    25
100
AcDbSpline
210
0.0
220
0.0
230
1.0
 70
    11
 71
     3
 72
    23
 73
    19
 74
     0
 42
0.0000000001
 43
0.0000000001
 12
1.0
 22
0.0
 32
0.0
 13
1.0
 23
0.0
 33
0.0
 40
0.0
 40
0.0
 40
0.0
 40
0.0
 40
1.0
 40
1.0
 40
1.0
 40
2.0
 40
2.0
 40
2.0
 40
3.0
 40
3.0
 40
3.0
 40
4.0
 40
4.0
 40
4.0
 40
5.0
 40
5.0
 40
5.0
 40
6.0
 40
6.0
 40
6.0
 40
6.0
 10
4.081888888888885
 20
6.51323040399945
 30
0.0
 10
4.081522119114311
 20
6.51330555555555
 30
0.0
 10
4.074584619289555
 20
6.518038737211302
 30
0.0
 10
4.070712397165153
 20
6.518819444444438
 30
0.0
 10
4.056924897513454
 20
6.521606792676721
 30
0.0
 10
4.042765175648936
 20
6.509127626325304
 30
0.0
 10
4.03909573129719
 20
6.490966515672981
 30
0.0
 10
4.035420731390028
 20
6.472791666666668
 30
0.0
 10
4.043626286738294
 20
6.45580401656126
 30
0.0
 10
4.057406841945723
 20
6.453016516631679
 30
0.0
 10
4.057766564158858
 20
6.452941516633573
 30
0.0
 10
4.064711008427872
 20
6.448215127864083
 30
0.0
 10
4.068583333333335
 20
6.447427627883977
 30
0.0
 10
4.082363785759703
 20
6.444647072398665
 30
0.0
 10
4.09652350762422
 20
6.457119294305825
 30
0.0
 10
4.100192951975966
 20
6.475287349402404
 30
0.0
 10
4.103867951883128
 20
6.493455404498995
 30
0.0
 10
4.095662396534863
 20
6.51044444444445
 30
0.0
 10
4.081888888888885
 20
6.51323040399945
 30
0.0
  0
ENDBLK
  5
1EC
330
1E9
100
AcDbEntity
  8
0
100
AcDbBlockEnd
  0
BLOCK
  5
1F1
330
1EF
100
AcDbEntity
  8
0
100
AcDbBlockBegin
  2
block 7
 70
     0
 10
0.0
 20
0.0
 30
0.0
  3
block 7
  1

  0
SPLINE
  5
1F3
330
1EF
100
AcDbEntity
  8
HU8
 62
     7
420
 16776959
370
    18
100
AcDbSpline
210
0.0
220
0.0
230
1.0
 70
    11
 71
     3
 72
    17
 73
    13
 74
     0
 42
0.0000000001
 43
0.0000000001
 12
1.0
 22
0.0
 32
0.0
 13
1.0
 23
0.0
 33
0.0
 40
0.0
 40
0.0
 40
0.0
 40
0.0
 40
1.0
 40
1.0
 40
1.0
 40
2.0
 40
2.0
 40
2.0
 40
3.0
 40
3.0
 40
3.0
 40
4.0
 40
4.0
 40
4.0
 40
4.0
 10
4.611676274493321
 20
5.809949850870503
 30
0.0
 10
4.615283218846646
 20
5.792134573542777
 30
0.0
 10
4.607227663494592
 20
5.775484573963391
 30
0.0
 10
4.593731830502191
 20
5.772752629587962
 30
0.0
 10
4.580222222222219
 20
5.770033185212216
 30
0.0
 10
4.566347222222222
 20
5.782252629347972
 30
0.0
 10
4.562752664618125
 20
5.800055555555521
 30
0.0
 10
4.559158220264483
 20
5.817863739559471
 30
0.0
 10
4.567188775617169
 20
5.834512350250002
 30
0.0
 10
4.580697108609254
 20
5.837238739070017
 30
0.0
 10
4.594206830490192
 20
5.83997222222221
 30
0.0
 10
4.60808183013968
 20
5.827744294865422
 30
0.0
 10
4.611676274493321
 20
5.809949850870503
 30
0.0
  0
SPLINE
  5
1F4
330
1EF
100
AcDbEntity
  8
HU8
 62
     7
420
 16776959
370
    25
100
AcDbSpline
210
0.0
220
0.0
230
1.0
 70
    11
 71
     3
 72
    23
 73
    19
 74
     0
 42
0.0000000001
 43
0.0000000001
 12
1.0
 22
0.0
 32
0.0
 13
1.0
 23
0.0
 33
0.0
 40
0.0
 40
0.0
 40
0.0
 40
0.0
 40
1.0
 40
1.0
 40
1.0
 40
2.0
 40
2.0
 40
2.0
 40
3.0
 40
3.0
 40
3.0
 40
4.0
 40
4.0
 40
4.0
 40
5.0
 40
5.0
 40
5.0
 40
6.0
 40
6.0
 40
6.0
 40
6.0
 10
4.580560997501581
 20
5.837897072386719
 30
0.0
 10
4.580913775270447
 20
5.837972222222207
 30
0.0
 10
4.58785821953946
 20
5.842705405598584
 30
0.0
 10
4.591737386108131
 20
5.843484572245567
 30
0.0
 10
4.60551794131556
 20
5.846272072175148
 30
0.0
 10
4.619677663180078
 20
5.833794294712586
 30
0.0
 10
4.623340163087556
 20
5.815633184060263
 30
0.0
 10
4.627029051883255
 20
5.797458333333325
 30
0.0
 10
4.618809607646451
 20
5.780469296059689
 30
0.0
 10
4.605030441327876
 20
5.777681796130107
 30
0.0
 10
4.60467766355901
 20
5.777608185020855
 30
0.0
 10
4.597733219289997
 20
5.772880407362512
 30
0.0
 10
4.593854052721326
 20
5.772094296271259
 30
0.0
 10
4.580073497513896
 20
5.769313740785947
 30
0.0
 10
4.565913775649379
 20
5.78178457380424
 30
0.0
 10
4.562251275741901
 20
5.799952628900832
 30
0.0
 10
4.558574886945886
 20
5.818122072886277
 30
0.0
 10
4.566781831183006
 20
5.835109572457137
 30
0.0
 10
4.580560997501581
 20
5.837897072386719
 30
0.0
  0
ENDBLK
  5
1F2
330
1EF
100
AcDbEntity
  8
0
100
AcDbBlockEnd
  0
BLOCK
  5
1F7
330
1F5
100
AcDbEntity
  8
0
100
AcDbBlockBegin
  2
block 8
 70
     0
 10
0.0
 20
0.0
 30
0.0
  3
block 8
  1

  0
SPLINE
  5
1F9
330
1F5
100
AcDbEntity
  8
HU8
 62
     7
420
 16776959
370
    18
100
AcDbSpline
210
0.0
220
0.0
230
1.0
 70
    11
 71
     3
 72
    17
 73
    13
 74
     0
 42
0.0000000001
 43
0.0000000001
 12
1.0
 22
0.0
 32
0.0
 13
1.0
 23
0.0
 33
0.0
 40
0.0
 40
0.0
 40
0.0
 40
0.0
 40
1.0
 40
1.0
 40
1.0
 40
2.0
 40
2.0
 40
2.0
 40
3.0
 40
3.0
 40
3.0
 40
4.0
 40
4.0
 40
4.0
 40
4.0
 10
4.611676274493321
 20
6.129949850870515
 30
0.0
 10
4.615283218846646
 20
6.112134573542789
 30
0.0
 10
4.607227663494592
 20
6.095484573963404
 30
0.0
 10
4.593731830502191
 20
6.092752629587974
 30
0.0
 10
4.580222222222219
 20
6.090033185212229
 30
0.0
 10
4.566347222222222
 20
6.102252629347984
 30
0.0
 10
4.562752664618125
 20
6.120055555555546
 30
0.0
 10
4.559158220264483
 20
6.137863739559482
 30
0.0
 10
4.567188775617169
 20
6.154512350250014
 30
0.0
 10
4.580697108609254
 20
6.157238739070029
 30
0.0
 10
4.594206830490192
 20
6.159972222222223
 30
0.0
 10
4.60808183013968
 20
6.147744294865434
 30
0.0
 10
4.611676274493321
 20
6.129949850870515
 30
0.0
  0
SPLINE
  5
1FA
330
1F5
100
AcDbEntity
  8
HU8
 62
     7
420
 16776959
370
    25
100
AcDbSpline
210
0.0
220
0.0
230
1.0
 70
    11
 71
     3
 72
    23
 73
    19
 74
     0
 42
0.0000000001
 43
0.0000000001
 12
1.0
 22
0.0
 32
0.0
 13
1.0
 23
0.0
 33
0.0
 40
0.0
 40
0.0
 40
0.0
 40
0.0
 40
1.0
 40
1.0
 40
1.0
 40
2.0
 40
2.0
 40
2.0
 40
3.0
 40
3.0
 40
3.0
 40
4.0
 40
4.0
 40
4.0
 40
5.0
 40
5.0
 40
5.0
 40
6.0
 40
6.0
 40
6.0
 40
6.0
 10
4.580560997501581
 20
6.157897072386731
 30
0.0
 10
4.580913775270447
 20
6.157972222222219
 30
0.0
 10
4.58785821953946
 20
6.162705405598595
 30
0.0
 10
4.591737386108131
 20
6.163484572245579
 30
0.0
 10
4.60551794131556
 20
6.166272072175161
 30
0.0
 10
4.619677663180078
 20
6.153794294712598
 30
0.0
 10
4.623340163087556
 20
6.135633184060276
 30
0.0
 10
4.627029051883255
 20
6.117458333333325
 30
0.0
 10
4.618809607646451
 20
6.100469296059714
 30
0.0
 10
4.605030441327876
 20
6.097681796130119
 30
0.0
 10
4.60467766355901
 20
6.097608185020881
 30
0.0
 10
4.597733219289997
 20
6.092880407362523
 30
0.0
 10
4.593854052721326
 20
6.092094296271271
 30
0.0
 10
4.580073497513896
 20
6.089313740785959
 30
0.0
 10
4.565913775649379
 20
6.101784573804252
 30
0.0
 10
4.562251275741901
 20
6.119952628900844
 30
0.0
 10
4.558574886945886
 20
6.13812207288629
 30
0.0
 10
4.566781831183006
 20
6.15510957245715
 30
0.0
 10
4.580560997501581
 20
6.157897072386731
 30
0.0
  0
ENDBLK
  5
1F8
330
1F5
100
AcDbEntity
  8
0
100
AcDbBlockEnd
  0
BLOCK
  5
1FD
330
1FB
100
AcDbEntity
  8
0
100
AcDbBlockBegin
  2
block 9
 70
     0
 10
0.0
 20
0.0
 30
0.0
  3
block 9
  1

  0
SPLINE
  5
1FF
330
1FB
100
AcDbEntity
  8
HU8
 62
     7
420
 16776959
370
    18
100
AcDbSpline
210
0.0
220
0.0
230
1.0
 70
    11
 71
     3
 72
    17
 73
    13
 74
     0
 42
0.0000000001
 43
0.0000000001
 12
1.0
 22
0.0
 32
0.0
 13
1.0
 23
0.0
 33
0.0
 40
0.0
 40
0.0
 40
0.0
 40
0.0
 40
1.0
 40
1.0
 40
1.0
 40
2.0
 40
2.0
 40
2.0
 40
3.0
 40
3.0
 40
3.0
 40
4.0
 40
4.0
 40
4.0
 40
4.0
 10
4.611676274493321
 20
6.458838739759408
 30
0.0
 10
4.615283218846646
 20
6.441023462431682
 30
0.0
 10
4.607227663494592
 20
6.424373462852296
 30
0.0
 10
4.593731830502191
 20
6.421641518476867
 30
0.0
 10
4.580222222222219
 20
6.418922074101121
 30
0.0
 10
4.566347222222222
 20
6.431141518236877
 30
0.0
 10
4.562752664618125
 20
6.448944444444439
 30
0.0
 10
4.559158220264483
 20
6.466752628448376
 30
0.0
 10
4.567188775617169
 20
6.483401239138907
 30
0.0
 10
4.580697108609254
 20
6.486127627958922
 30
0.0
 10
4.594206830490192
 20
6.488861111111115
 30
0.0
 10
4.60808183013968
 20
6.476633183754327
 30
0.0
 10
4.611676274493321
 20
6.458838739759408
 30
0.0
  0
SPLINE
  5
200
330
1FB
100
AcDbEntity
  8
HU8
 62
     7
420
 16776959
370
    25
100
AcDbSpline
210
0.0
220
0.0
230
1.0
 70
    11
 71
     3
 72
    23
 73
    19
 74
     0
 42
0.0000000001
 43
0.0000000001
 12
1.0
 22
0.0
 32
0.0
 13
1.0
 23
0.0
 33
0.0
 40
0.0
 40
0.0
 40
0.0
 40
0.0
 40
1.0
 40
1.0
 40
1.0
 40
2.0
 40
2.0
 40
2.0
 40
3.0
 40
3.0
 40
3.0
 40
4.0
 40
4.0
 40
4.0
 40
5.0
 40
5.0
 40
5.0
 40
6.0
 40
6.0
 40
6.0
 40
6.0
 10
4.580560997501581
 20
6.486785961275624
 30
0.0
 10
4.580913775270447
 20
6.486861111111112
 30
0.0
 10
4.58785821953946
 20
6.491594294487489
 30
0.0
 10
4.591737386108131
 20
6.492373461134472
 30
0.0
 10
4.60551794131556
 20
6.495160961064053
 30
0.0
 10
4.619677663180078
 20
6.482683183601491
 30
0.0
 10
4.623340163087556
 20
6.464522072949168
 30
0.0
 10
4.627029051883255
 20
6.446347222222218
 30
0.0
 10
4.618809607646451
 20
6.429358184948594
 30
0.0
 10
4.605030441327876
 20
6.426570685019012
 30
0.0
 10
4.60467766355901
 20
6.42649707390976
 30
0.0
 10
4.597733219289997
 20
6.421769296251417
 30
0.0
 10
4.593854052721326
 20
6.420983185160164
 30
0.0
 10
4.580073497513896
 20
6.418202629674852
 30
0.0
 10
4.565913775649379
 20
6.430673462693145
 30
0.0
 10
4.562251275741901
 20
6.448841517789737
 30
0.0
 10
4.558574886945886
 20
6.467010961775182
 30
0.0
 10
4.566781831183006
 20
6.483998461346042
 30
0.0
 10
4.580560997501581
 20
6.486785961275624
 30
0.0
  0
ENDBLK
  5
1FE
330
1FB
100
AcDbEntity
  8
0
100
AcDbBlockEnd
  0
BLOCK
  5
203
330
201
100
AcDbEntity
  8
0
100
AcDbBlockBegin
  2
block 10
 70
     0
 10
0.0
 20
0.0
 30
0.0
  3
block 10
  1

  0
SPLINE
  5
205
330
201
100
AcDbEntity
  8
HU8
 62
     7
420
 16776959
370
    18
100
AcDbSpline
210
0.0
220
0.0
230
1.0
 70
    11
 71
     3
 72
    17
 73
    13
 74
     0
 42
0.0000000001
 43
0.0000000001
 12
1.0
 22
0.0
 32
0.0
 13
1.0
 23
0.0
 33
0.0
 40
0.0
 40
0.0
 40
0.0
 40
0.0
 40
1.0
 40
1.0
 40
1.0
 40
2.0
 40
2.0
 40
2.0
 40
3.0
 40
3.0
 40
3.0
 40
4.0
 40
4.0
 40
4.0
 40
4.0
 10
4.36908887040795
 20
5.698838739759392
 30
0.0
 10
4.372695814761275
 20
5.681023462431666
 30
0.0
 10
4.36464025940922
 20
5.66437346285228
 30
0.0
 10
4.35114442641682
 20
5.66164151847685
 30
0.0
 10
4.337634818136848
 20
5.658922074101105
 30
0.0
 10
4.323759818136852
 20
5.67114151823686
 30
0.0
 10
4.320165260532753
 20
5.68894444444441
 30
0.0
 10
4.316570816179111
 20
5.706752628448359
 30
0.0
 10
4.324601371531799
 20
5.723401239138891
 30
0.0
 10
4.338109704523882
 20
5.726127627958905
 30
0.0
 10
4.35161942640482
 20
5.728861111111099
 30
0.0
 10
4.365494426054308
 20
5.716633183754311
 30
0.0
 10
4.36908887040795
 20
5.698838739759392
 30
0.0
  0
SPLINE
  5
206
330
201
100
AcDbEntity
  8
HU8
 62
     7
420
 16776959
370
    25
100
AcDbSpline
210
0.0
220
0.0
230
1.0
 70
    11
 71
     3
 72
    23
 73
    19
 74
     0
 42
0.0000000001
 43
0.0000000001
 12
1.0
 22
0.0
 32
0.0
 13
1.0
 23
0.0
 33
0.0
 40
0.0
 40
0.0
 40
0.0
 40
0.0
 40
1.0
 40
1.0
 40
1.0
 40
2.0
 40
2.0
 40
2.0
 40
3.0
 40
3.0
 40
3.0
 40
4.0
 40
4.0
 40
4.0
 40
5.0
 40
5.0
 40
5.0
 40
6.0
 40
6.0
 40
6.0
 40
6.0
 10
4.33797359341621
 20
5.726785961275608
 30
0.0
 10
4.338326371185076
 20
5.726861111111096
 30
0.0
 10
4.345270815454088
 20
5.731594294487473
 30
0.0
 10
4.34914998202276
 20
5.732373461134456
 30
0.0
 10
4.362930537230189
 20
5.735160961064038
 30
0.0
 10
4.377090259094707
 20
5.722683183601475
 30
0.0
 10
4.380752759002184
 20
5.704522072949152
 30
0.0
 10
4.384441647797884
 20
5.686347222222214
 30
0.0
 10
4.376222203561079
 20
5.669358184948578
 30
0.0
 10
4.362443037242504
 20
5.666570685018996
 30
0.0
 10
4.362090259473638
 20
5.666497073909745
 30
0.0
 10
4.355145815204625
 20
5.661769296251401
 30
0.0
 10
4.351266648635955
 20
5.660983185160148
 30
0.0
 10
4.337486093428526
 20
5.658202629674835
 30
0.0
 10
4.323326371564008
 20
5.670673462693129
 30
0.0
 10
4.31966387165653
 20
5.68884151778972
 30
0.0
 10
4.315987482860515
 20
5.707010961775167
 30
0.0
 10
4.324194427097634
 20
5.723998461346026
 30
0.0
 10
4.33797359341621
 20
5.726785961275608
 30
0.0
  0
ENDBLK
  5
204
330
201
100
AcDbEntity
  8
0
100
AcDbBlockEnd
  0
BLOCK
  5
209
330
207
100
AcDbEntity
  8
0
100
AcDbBlockBegin
  2
block 11
 70
     0
 10
0.0
 20
0.0
 30
0.0
  3
block 11
  1

  0
SPLINE
  5
20B
330
207
100
AcDbEntity
  8
HU8
 62
     7
420
 16776959
370
    18
100
AcDbSpline
210
0.0
220
0.0
230
1.0
 70
    11
 71
     3
 72
    17
 73
    13
 74
     0
 42
0.0000000001
 43
0.0000000001
 12
1.0
 22
0.0
 32
0.0
 13
1.0
 23
0.0
 33
0.0
 40
0.0
 40
0.0
 40
0.0
 40
0.0
 40
1.0
 40
1.0
 40
1.0
 40
2.0
 40
2.0
 40
2.0
 40
3.0
 40
3.0
 40
3.0
 40
4.0
 40
4.0
 40
4.0
 40
4.0
 10
4.36908887040795
 20
6.018838739759404
 30
0.0
 10
4.372695814761275
 20
6.001023462431678
 30
0.0
 10
4.36464025940922
 20
5.984373462852292
 30
0.0
 10
4.35114442641682
 20
5.981641518476863
 30
0.0
 10
4.337634818136848
 20
5.978922074101117
 30
0.0
 10
4.323759818136852
 20
5.991141518236873
 30
0.0
 10
4.320165260532753
 20
6.008944444444435
 30
0.0
 10
4.316570816179111
 20
6.026752628448372
 30
0.0
 10
4.324601371531799
 20
6.043401239138903
 30
0.0
 10
4.338109704523882
 20
6.046127627958918
 30
0.0
 10
4.35161942640482
 20
6.048861111111111
 30
0.0
 10
4.365494426054308
 20
6.036633183754323
 30
0.0
 10
4.36908887040795
 20
6.018838739759404
 30
0.0
  0
SPLINE
  5
20C
330
207
100
AcDbEntity
  8
HU8
 62
     7
420
 16776959
370
    25
100
AcDbSpline
210
0.0
220
0.0
230
1.0
 70
    11
 71
     3
 72
    23
 73
    19
 74
     0
 42
0.0000000001
 43
0.0000000001
 12
1.0
 22
0.0
 32
0.0
 13
1.0
 23
0.0
 33
0.0
 40
0.0
 40
0.0
 40
0.0
 40
0.0
 40
1.0
 40
1.0
 40
1.0
 40
2.0
 40
2.0
 40
2.0
 40
3.0
 40
3.0
 40
3.0
 40
4.0
 40
4.0
 40
4.0
 40
5.0
 40
5.0
 40
5.0
 40
6.0
 40
6.0
 40
6.0
 40
6.0
 10
4.33797359341621
 20
6.04678596127562
 30
0.0
 10
4.338326371185076
 20
6.046861111111108
 30
0.0
 10
4.345270815454088
 20
6.051594294487485
 30
0.0
 10
4.34914998202276
 20
6.052373461134468
 30
0.0
 10
4.362930537230189
 20
6.05516096106405
 30
0.0
 10
4.377090259094707
 20
6.042683183601487
 30
0.0
 10
4.380752759002184
 20
6.024522072949164
 30
0.0
 10
4.384441647797884
 20
6.006347222222214
 30
0.0
 10
4.376222203561079
 20
5.989358184948602
 30
0.0
 10
4.362443037242504
 20
5.986570685019008
 30
0.0
 10
4.362090259473638
 20
5.986497073909769
 30
0.0
 10
4.355145815204625
 20
5.981769296251413
 30
0.0
 10
4.351266648635955
 20
5.98098318516016
 30
0.0
 10
4.337486093428526
 20
5.978202629674848
 30
0.0
 10
4.323326371564008
 20
5.990673462693141
 30
0.0
 10
4.31966387165653
 20
6.008841517789733
 30
0.0
 10
4.315987482860515
 20
6.027010961775178
 30
0.0
 10
4.324194427097634
 20
6.043998461346038
 30
0.0
 10
4.33797359341621
 20
6.04678596127562
 30
0.0
  0
ENDBLK
  5
20A
330
207
100
AcDbEntity
  8
0
100
AcDbBlockEnd
  0
BLOCK
  5
20F
330
20D
100
AcDbEntity
  8
0
100
AcDbBlockBegin
  2
block 12
 70
     0
 10
0.0
 20
0.0
 30
0.0
  3
block 12
  1

  0
SPLINE
  5
211
330
20D
100
AcDbEntity
  8
HU8
 62
     7
420
 16776959
370
    18
100
AcDbSpline
210
0.0
220
0.0
230
1.0
 70
    11
 71
     3
 72
    17
 73
    13
 74
     0
 42
0.0000000001
 43
0.0000000001
 12
1.0
 22
0.0
 32
0.0
 13
1.0
 23
0.0
 33
0.0
 40
0.0
 40
0.0
 40
0.0
 40
0.0
 40
1.0
 40
1.0
 40
1.0
 40
2.0
 40
2.0
 40
2.0
 40
3.0
 40
3.0
 40
3.0
 40
4.0
 40
4.0
 40
4.0
 40
4.0
 10
4.36908887040795
 20
6.347727628648297
 30
0.0
 10
4.372695814761275
 20
6.329912351320571
 30
0.0
 10
4.36464025940922
 20
6.313262351741185
 30
0.0
 10
4.35114442641682
 20
6.310530407365755
 30
0.0
 10
4.337634818136848
 20
6.30781096299001
 30
0.0
 10
4.323759818136852
 20
6.320030407125765
 30
0.0
 10
4.320165260532753
 20
6.337833333333328
 30
0.0
 10
4.316570816179111
 20
6.355641517337264
 30
0.0
 10
4.324601371531799
 20
6.372290128027796
 30
0.0
 10
4.338109704523882
 20
6.37501651684781
 30
0.0
 10
4.35161942640482
 20
6.377750000000004
 30
0.0
 10
4.365494426054308
 20
6.365522072643216
 30
0.0
 10
4.36908887040795
 20
6.347727628648297
 30
0.0
  0
SPLINE
  5
212
330
20D
100
AcDbEntity
  8
HU8
 62
     7
420
 16776959
370
    25
100
AcDbSpline
210
0.0
220
0.0
230
1.0
 70
    11
 71
     3
 72
    23
 73
    19
 74
     0
 42
0.0000000001
 43
0.0000000001
 12
1.0
 22
0.0
 32
0.0
 13
1.0
 23
0.0
 33
0.0
 40
0.0
 40
0.0
 40
0.0
 40
0.0
 40
1.0
 40
1.0
 40
1.0
 40
2.0
 40
2.0
 40
2.0
 40
3.0
 40
3.0
 40
3.0
 40
4.0
 40
4.0
 40
4.0
 40
5.0
 40
5.0
 40
5.0
 40
6.0
 40
6.0
 40
6.0
 40
6.0
 10
4.33797359341621
 20
6.375674850164513
 30
0.0
 10
4.338326371185076
 20
6.375750000000001
 30
0.0
 10
4.345270815454088
 20
6.380483183376377
 30
0.0
 10
4.34914998202276
 20
6.381262350023361
 30
0.0
 10
4.362930537230189
 20
6.384049849952943
 30
0.0
 10
4.377090259094707
 20
6.37157207249038
 30
0.0
 10
4.380752759002184
 20
6.353410961838057
 30
0.0
 10
4.384441647797884
 20
6.335236111111107
 30
0.0
 10
4.376222203561079
 20
6.318247073837483
 30
0.0
 10
4.362443037242504
 20
6.315459573907901
 30
0.0
 10
4.362090259473638
 20
6.31538596279865
 30
0.0
 10
4.355145815204625
 20
6.310658185140305
 30
0.0
 10
4.351266648635955
 20
6.309872074049053
 30
0.0
 10
4.337486093428526
 20
6.30709151856374
 30
0.0
 10
4.323326371564008
 20
6.319562351582034
 30
0.0
 10
4.31966387165653
 20
6.337730406678626
 30
0.0
 10
4.315987482860515
 20
6.355899850664072
 30
0.0
 10
4.324194427097634
 20
6.372887350234931
 30
0.0
 10
4.33797359341621
 20
6.375674850164513
 30
0.0
  0
ENDBLK
  5
210
330
20D
100
AcDbEntity
  8
0
100
AcDbBlockEnd
  0
BLOCK
  5
229
330
227
100
AcDbEntity
  8
0
100
AcDbBlockBegin
  2
block 13
 70
     0
 10
0.0
 20
0.0
 30
0.0
  3
block 13
  1

  0
INSERT
  5
22C
330
227
100
AcDbEntity
  8
HU8
100
AcDbBlockReference
  2
block 14
 10
0.0
 20
0.0
 30
0.0
  0
ENDBLK
  5
22A
330
227
100
AcDbEntity
  8
0
100
AcDbBlockEnd
  0
BLOCK
  5
22D
330
22B
100
AcDbEntity
  8
0
100
AcDbBlockBegin
  2
block 14
 70
     0
 10
0.0
 20
0.0
 30
0.0
  3
block 14
  1

  0
INSERT
  5
230
330
22B
100
AcDbEntity
  8
HU8
100
AcDbBlockReference
  2
block 15
 10
0.0
 20
0.0
 30
0.0
  0
SPLINE
  5
235
330
22B
100
AcDbEntity
  8
HU8
 62
     7
420
 16776959
370
    18
100
AcDbSpline
210
0.0
220
0.0
230
1.0
 70
     8
 71
     3
 72
    11
 73
     7
 74
     0
 42
0.0000000001
 43
0.0000000001
 12
1.0
 22
0.0
 32
0.0
 13
1.0
 23
0.0
 33
0.0
 40
0.0
 40
0.0
 40
0.0
 40
0.0
 40
1.0
 40
1.0
 40
1.0
 40
2.0
 40
2.0
 40
2.0
 40
2.0
 10
4.523216527509931
 20
6.19658311070422
 30
0.0
 10
4.523216527509931
 20
6.19658311070422
 30
0.0
 10
4.473521249945785
 20
6.161788712297771
 30
0.0
 10
4.443867936706485
 20
6.23518822574772
 30
0.0
 10
4.43649829634627
 20
6.254677949287762
 30
0.0
 10
4.433298271477977
 20
6.328227586480933
 30
0.0
 10
4.494074316304805
 20
6.328227586480933
 30
0.0
  0
ENDBLK
  5
22E
330
22B
100
AcDbEntity
  8
0
100
AcDbBlockEnd
  0
BLOCK
  5
231
330
22F
100
AcDbEntity
  8
0
100
AcDbBlockBegin
  2
block 15
 70
     0
 10
0.0
 20
0.0
 30
0.0
  3
block 15
  1

  0
SPLINE
  5
233
330
22F
100
AcDbEntity
  8
HU8
 62
     7
420
 16776959
370
    25
100
AcDbSpline
210
0.0
220
0.0
230
1.0
 70
    11
 71
     3
 72
    17
 73
    13
 74
     0
 42
0.0000000001
 43
0.0000000001
 12
1.0
 22
0.0
 32
0.0
 13
1.0
 23
0.0
 33
0.0
 40
0.0
 40
0.0
 40
0.0
 40
0.0
 40
1.0
 40
1.0
 40
1.0
 40
2.0
 40
2.0
 40
2.0
 40
3.0
 40
3.0
 40
3.0
 40
4.0
 40
4.0
 40
4.0
 40
4.0
 10
4.460347219204979
 20
6.251962519346825
 30
0.0
 10
4.453028313237862
 20
6.288115472057294
 30
0.0
 10
4.469376062124613
 20
6.321904577859792
 30
0.0
 10
4.496763239138923
 20
6.327462812481283
 30
0.0
 10
4.524180480978783
 20
6.332968433658088
 30
0.0
 10
4.552338069147532
 20
6.308170589743313
 30
0.0
 10
4.5596325474439
 20
6.27204206470358
 30
0.0
 10
4.566927025740268
 20
6.235902265354272
 30
0.0
 10
4.55063001124659
 20
6.202115038603375
 30
0.0
 10
4.523216527509931
 20
6.19658311070422
 30
0.0
 10
4.495799285670096
 20
6.191036150392291
 30
0.0
 10
4.467641697501348
 20
6.215850905771441
 30
0.0
 10
4.460347219204979
 20
6.251962519346825
 30
0.0
  0
HATCH
  5
234
330
22F
100
AcDbEntity
  8
HU8
 62
    43
420
 15510108
100
AcDbHatch
 10
0.0
 20
0.0
 30
0.0
210
0.0
220
0.0
230
1.0
  2
SOLID
 70
     1
 71
     0
 91
        1
 92
        1
 93
        1
 72
     4
 94
        3
 73
     0
 74
     1
 95
       17
 96
       13
 40
0.0
 40
0.0
 40
0.0
 40
0.0
 40
1.0
 40
1.0
 40
1.0
 40
2.0
 40
2.0
 40
2.0
 40
3.0
 40
3.0
 40
3.0
 40
4.0
 40
4.0
 40
4.0
 40
4.0
 10
4.460347219204979
 20
6.251962519346825
 10
4.453028313237862
 20
6.288115472057294
 10
4.469376062124613
 20
6.321904577859792
 10
4.496763239138923
 20
6.327462812481283
 10
4.524180480978783
 20
6.332968433658088
 10
4.552338069147532
 20
6.308170589743313
 10
4.5596325474439
 20
6.27204206470358
 10
4.566927025740268
 20
6.235902265354272
 10
4.55063001124659
 20
6.202115038603375
 10
4.523216527509931
 20
6.19658311070422
 10
4.495799285670096
 20
6.191036150392291
 10
4.467641697501348
 20
6.215850905771441
 10
4.460347219204979
 20
6.251962519346825
 97
        0
 97
        0
 75
     2
 76
     1
 98
        0
  0
ENDBLK
  5
232
330
22F
100
AcDbEntity
  8
0
100
AcDbBlockEnd
  0
ENDSEC
  0
SECTION
  2
ENTITIES
  0
POLYLINE
  5
41
330
1F
100
AcDbEntity
  8
Wood
370
     0
100
AcDb2dPolyline
 66
     1
 10
0.0
 20
0.0
 30
0.0
  0
VERTEX
  5
42
330
41
100
AcDbEntity
  8
Wood
370
     0
100
AcDbVertex
100
AcDb2dVertex
 10
3.44907630175789
 20
7.699076208428373
 30
0.0
  0
VERTEX
  5
43
330
41
100
AcDbEntity
  8
Wood
370
     0
100
AcDbVertex
100
AcDb2dVertex
 10
2.861111111111111
 20
7.592590100007328
 30
0.0
  0
VERTEX
  5
44
330
41
100
AcDbEntity
  8
Wood
370
     0
100
AcDbVertex
100
AcDb2dVertex
 10
2.861111111111111
 20
6.809027777777778
 30
0.0
  0
VERTEX
  5
45
330
41
100
AcDbEntity
  8
Wood
370
     0
100
AcDbVertex
100
AcDb2dVertex
 10
2.798611111111111
 20
6.784729009304505
 30
0.0
  0
VERTEX
  5
46
330
41
100
AcDbEntity
  8
Wood
370
     0
100
AcDbVertex
100
AcDb2dVertex
 10
2.916666666666667
 20
6.677083333333333
 30
0.0
  0
VERTEX
  5
47
330
41
100
AcDbEntity
  8
Wood
370
     0
100
AcDbVertex
100
AcDb2dVertex
 10
2.861111111111111
 20
6.638888888888888
 30
0.0
  0
VERTEX
  5
48
330
41
100
AcDbEntity
  8
Wood
370
     0
100
AcDbVertex
100
AcDb2dVertex
 10
2.861111111111111
 20
5.851847222222229
 30
0.0
  0
VERTEX
  5
49
330
41
100
AcDbEntity
  8
Wood
370
     0
100
AcDbVertex
100
AcDb2dVertex
 10
2.976847222222217
 20
5.81043875613937
 30
0.0
  0
VERTEX
  5
4A
330
41
100
AcDbEntity
  8
Wood
370
     0
100
AcDbVertex
100
AcDb2dVertex
 10
2.976847222222217
 20
5.212972222222232
 30
0.0
  0
VERTEX
  5
4B
330
41
100
AcDbEntity
  8
Wood
370
     0
100
AcDbVertex
100
AcDb2dVertex
 10
3.379624999999995
 20
5.055555555555555
 30
0.0
  0
VERTEX
  5
4C
330
41
100
AcDbEntity
  8
Wood
370
     0
100
AcDbVertex
100
AcDb2dVertex
 10
4.28568461395672
 20
5.342176267968676
 30
0.0
  0
VERTEX
  5
4D
330
41
100
AcDbEntity
  8
Wood
370
     0
100
AcDbVertex
100
AcDb2dVertex
 10
4.944444444444444
 20
5.106486111111104
 30
0.0
  0
VERTEX
  5
4E
330
41
100
AcDbEntity
  8
Wood
370
     0
100
AcDbVertex
100
AcDb2dVertex
 10
5.532402777777785
 20
5.324069444444452
 30
0.0
  0
VERTEX
  5
4F
330
41
100
AcDbEntity
  8
Wood
370
     0
100
AcDbVertex
100
AcDb2dVertex
 10
5.532402777777785
 20
6.170145691496852
 30
0.0
  0
VERTEX
  5
50
330
41
100
AcDbEntity
  8
Wood
370
     0
100
AcDbVertex
100
AcDb2dVertex
 10
5.600694444444444
 20
6.190972222222222
 30
0.0
  0
VERTEX
  5
51
330
41
100
AcDbEntity
  8
Wood
370
     0
100
AcDbVertex
100
AcDb2dVertex
 10
5.479166666666666
 20
6.357638888888888
 30
0.0
  0
VERTEX
  5
52
330
41
100
AcDbEntity
  8
Wood
370
     0
100
AcDbVertex
100
AcDb2dVertex
 10
5.532402777777785
 20
6.371527777777778
 30
0.0
  0
VERTEX
  5
53
330
41
100
AcDbEntity
  8
Wood
370
     0
100
AcDbVertex
100
AcDb2dVertex
 10
5.532402777777785
 20
7.208333333333333
 30
0.0
  0
VERTEX
  5
54
330
41
100
AcDbEntity
  8
Wood
370
     0
100
AcDbVertex
100
AcDb2dVertex
 10
3.44907630175789
 20
7.699076208428373
 30
0.0
  0
SEQEND
  5
56
330
41
100
AcDbEntity
  8
Wood
370
     0
  0
HATCH
  5
55
330
1F
100
AcDbEntity
  8
Wood
 62
    43
420
 15510364
100
AcDbHatch
 10
0.0
 20
0.0
 30
0.0
210
0.0
220
0.0
230
1.0
  2
SOLID
 70
     1
 71
     0
 91
        1
 92
        1
 93
       18
 72
     1
 10
3.44907630175789
 20
7.699076208428373
 11
2.861111111111111
 21
7.592590100007328
 72
     1
 10
2.861111111111111
 20
7.592590100007328
 11
2.861111111111111
 21
6.809027777777778
 72
     1
 10
2.861111111111111
 20
6.809027777777778
 11
2.798611111111111
 21
6.784729009304505
 72
     1
 10
2.798611111111111
 20
6.784729009304505
 11
2.916666666666667
 21
6.677083333333333
 72
     1
 10
2.916666666666667
 20
6.677083333333333
 11
2.861111111111111
 21
6.638888888888888
 72
     1
 10
2.861111111111111
 20
6.638888888888888
 11
2.861111111111111
 21
5.851847222222229
 72
     1
 10
2.861111111111111
 20
5.851847222222229
 11
2.976847222222217
 21
5.81043875613937
 72
     1
 10
2.976847222222217
 20
5.81043875613937
 11
2.976847222222217
 21
5.212972222222232
 72
     1
 10
2.976847222222217
 20
5.212972222222232
 11
3.379624999999995
 21
5.055555555555555
 72
     1
 10
3.379624999999995
 20
5.055555555555555
 11
4.28568461395672
 21
5.342176267968676
 72
     1
 10
4.28568461395672
 20
5.342176267968676
 11
4.944444444444444
 21
5.106486111111104
 72
     1
 10
4.944444444444444
 20
5.106486111111104
 11
5.532402777777785
 21
5.324069444444452
 72
     1
 10
5.532402777777785
 20
5.324069444444452
 11
5.532402777777785
 21
6.170145691496852
 72
     1
 10
5.532402777777785
 20
6.170145691496852
 11
5.600694444444444
 21
6.190972222222222
 72
     1
 10
5.600694444444444
 20
6.190972222222222
 11
5.479166666666666
 21
6.357638888888888
 72
     1
 10
5.479166666666666
 20
6.357638888888888
 11
5.532402777777785
 21
6.371527777777778
 72
     1
 10
5.532402777777785
 20
6.371527777777778
 11
5.532402777777785
 21
7.208333333333333
 72
     1
 10
5.532402777777785
 20
7.208333333333333
 11
3.44907630175789
 21
7.699076208428373
 97
        0
 75
     2
 76
     1
 98
        0
  0
POLYLINE
  5
57
330
1F
100
AcDbEntity
  8
Wood
 62
   250
420
  2301728
370
    35
100
AcDb2dPolyline
 66
     1
 10
0.0
 20
0.0
 30
0.0
  0
VERTEX
  5
58
330
57
100
AcDbEntity
  8
Wood
 62
   250
420
  2301728
370
    35
100
AcDbVertex
100
AcDb2dVertex
 10
3.44907630175789
 20
7.699076208428373
 30
0.0
  0
VERTEX
  5
59
330
57
100
AcDbEntity
  8
Wood
 62
   250
420
  2301728
370
    35
100
AcDbVertex
100
AcDb2dVertex
 10
2.861111111111111
 20
7.592590100007328
 30
0.0
  0
VERTEX
  5
5A
330
57
100
AcDbEntity
  8
Wood
 62
   250
420
  2301728
370
    35
100
AcDbVertex
100
AcDb2dVertex
 10
2.861111111111111
 20
6.809027777777778
 30
0.0
  0
VERTEX
  5
5B
330
57
100
AcDbEntity
  8
Wood
 62
   250
420
  2301728
370
    35
100
AcDbVertex
100
AcDb2dVertex
 10
2.798611111111111
 20
6.784729009304505
 30
0.0
  0
VERTEX
  5
5C
330
57
100
AcDbEntity
  8
Wood
 62
   250
420
  2301728
370
    35
100
AcDbVertex
100
AcDb2dVertex
 10
2.916666666666667
 20
6.677083333333333
 30
0.0
  0
VERTEX
  5
5D
330
57
100
AcDbEntity
  8
Wood
 62
   250
420
  2301728
370
    35
100
AcDbVertex
100
AcDb2dVertex
 10
2.861111111111111
 20
6.638888888888888
 30
0.0
  0
VERTEX
  5
5E
330
57
100
AcDbEntity
  8
Wood
 62
   250
420
  2301728
370
    35
100
AcDbVertex
100
AcDb2dVertex
 10
2.861111111111111
 20
5.851847222222229
 30
0.0
  0
VERTEX
  5
5F
330
57
100
AcDbEntity
  8
Wood
 62
   250
420
  2301728
370
    35
100
AcDbVertex
100
AcDb2dVertex
 10
2.976847222222217
 20
5.81043875613937
 30
0.0
  0
VERTEX
  5
60
330
57
100
AcDbEntity
  8
Wood
 62
   250
420
  2301728
370
    35
100
AcDbVertex
100
AcDb2dVertex
 10
2.976847222222217
 20
5.212972222222232
 30
0.0
  0
VERTEX
  5
61
330
57
100
AcDbEntity
  8
Wood
 62
   250
420
  2301728
370
    35
100
AcDbVertex
100
AcDb2dVertex
 10
3.379624999999995
 20
5.055555555555555
 30
0.0
  0
VERTEX
  5
62
330
57
100
AcDbEntity
  8
Wood
 62
   250
420
  2301728
370
    35
100
AcDbVertex
100
AcDb2dVertex
 10
4.28568461395672
 20
5.342176267968676
 30
0.0
  0
VERTEX
  5
63
330
57
100
AcDbEntity
  8
Wood
 62
   250
420
  2301728
370
    35
100
AcDbVertex
100
AcDb2dVertex
 10
4.944444444444444
 20
5.106486111111104
 30
0.0
  0
VERTEX
  5
64
330
57
100
AcDbEntity
  8
Wood
 62
   250
420
  2301728
370
    35
100
AcDbVertex
100
AcDb2dVertex
 10
5.532402777777785
 20
5.324069444444452
 30
0.0
  0
VERTEX
  5
65
330
57
100
AcDbEntity
  8
Wood
 62
   250
420
  2301728
370
    35
100
AcDbVertex
100
AcDb2dVertex
 10
5.532402777777785
 20
6.170145691496852
 30
0.0
  0
VERTEX
  5
66
330
57
100
AcDbEntity
  8
Wood
 62
   250
420
  2301728
370
    35
100
AcDbVertex
100
AcDb2dVertex
 10
5.600694444444444
 20
6.190972222222222
 30
0.0
  0
VERTEX
  5
67
330
57
100
AcDbEntity
  8
Wood
 62
   250
420
  2301728
370
    35
100
AcDbVertex
100
AcDb2dVertex
 10
5.479166666666666
 20
6.357638888888888
 30
0.0
  0
VERTEX
  5
68
330
57
100
AcDbEntity
  8
Wood
 62
   250
420
  2301728
370
    35
100
AcDbVertex
100
AcDb2dVertex
 10
5.532402777777785
 20
6.371527777777778
 30
0.0
  0
VERTEX
  5
69
330
57
100
AcDbEntity
  8
Wood
 62
   250
420
  2301728
370
    35
100
AcDbVertex
100
AcDb2dVertex
 10
5.532402777777785
 20
7.208333333333333
 30
0.0
  0
VERTEX
  5
6A
330
57
100
AcDbEntity
  8
Wood
 62
   250
420
  2301728
370
    35
100
AcDbVertex
100
AcDb2dVertex
 10
3.44907630175789
 20
7.699076208428373
 30
0.0
  0
SEQEND
  5
6B
330
57
100
AcDbEntity
  8
Wood
 62
   250
420
  2301728
370
    35
  0
POLYLINE
  5
6C
330
1F
100
AcDbEntity
  8
Wood
 62
   250
420
  2301728
370
    35
100
AcDb2dPolyline
 66
     1
 10
0.0
 20
0.0
 30
0.0
  0
VERTEX
  5
6D
330
6C
100
AcDbEntity
  8
Wood
 62
   250
420
  2301728
370
    35
100
AcDbVertex
100
AcDb2dVertex
 10
4.934027777777778
 20
5.989583333333333
 30
0.0
  0
VERTEX
  5
6E
330
6C
100
AcDbEntity
  8
Wood
 62
   250
420
  2301728
370
    35
100
AcDbVertex
100
AcDb2dVertex
 10
5.600694444444444
 20
6.190972222222222
 30
0.0
  0
SEQEND
  5
6F
330
6C
100
AcDbEntity
  8
Wood
 62
   250
420
  2301728
370
    35
  0
POLYLINE
  5
70
330
1F
100
AcDbEntity
  8
Wood
 62
   250
420
  2301728
370
    35
100
AcDb2dPolyline
 66
     1
 10
0.0
 20
0.0
 30
0.0
  0
VERTEX
  5
71
330
70
100
AcDbEntity
  8
Wood
 62
   250
420
  2301728
370
    35
100
AcDbVertex
100
AcDb2dVertex
 10
4.868055555555555
 20
6.180555555555555
 30
0.0
  0
VERTEX
  5
72
330
70
100
AcDbEntity
  8
Wood
 62
   250
420
  2301728
370
    35
100
AcDbVertex
100
AcDb2dVertex
 10
5.532402777777785
 20
6.371527777777778
 30
0.0
  0
SEQEND
  5
73
330
70
100
AcDbEntity
  8
Wood
 62
   250
420
  2301728
370
    35
  0
POLYLINE
  5
74
330
1F
100
AcDbEntity
  8
Wood
 62
   250
420
  2301728
370
    35
100
AcDb2dPolyline
 66
     1
 10
0.0
 20
0.0
 30
0.0
  0
VERTEX
  5
75
330
74
100
AcDbEntity
  8
Wood
 62
   250
420
  2301728
370
    35
100
AcDbVertex
100
AcDb2dVertex
 10
2.976847222222217
 20
5.787055555555551
 30
0.0
  0
VERTEX
  5
76
330
74
100
AcDbEntity
  8
Wood
 62
   250
420
  2301728
370
    35
100
AcDbVertex
100
AcDb2dVertex
 10
2.976847222222217
 20
6.059034583192644
 30
0.0
  0
VERTEX
  5
77
330
74
100
AcDbEntity
  8
Wood
 62
   250
420
  2301728
370
    35
100
AcDbVertex
100
AcDb2dVertex
 10
3.03125
 20
6.152777777777778
 30
0.0
  0
VERTEX
  5
78
330
74
100
AcDbEntity
  8
Wood
 62
   250
420
  2301728
370
    35
100
AcDbVertex
100
AcDb2dVertex
 10
2.916666666666667
 20
6.197916666666666
 30
0.0
  0
VERTEX
  5
79
330
74
100
AcDbEntity
  8
Wood
 62
   250
420
  2301728
370
    35
100
AcDbVertex
100
AcDb2dVertex
 10
2.976847222222217
 20
6.295145688339087
 30
0.0
  0
VERTEX
  5
7A
330
74
100
AcDbEntity
  8
Wood
 62
   250
420
  2301728
370
    35
100
AcDbVertex
100
AcDb2dVertex
 10
2.976847222222217
 20
7.134263888888894
 30
0.0
  0
VERTEX
  5
7B
330
74
100
AcDbEntity
  8
Wood
 62
   250
420
  2301728
370
    35
100
AcDbVertex
100
AcDb2dVertex
 10
3.891201290588874
 20
7.328701217784833
 30
0.0
  0
SEQEND
  5
7C
330
74
100
AcDbEntity
  8
Wood
 62
   250
420
  2301728
370
    35
  0
POLYLINE
  5
7D
330
1F
100
AcDbEntity
  8
Wood
 62
   250
420
  2301728
370
    35
100
AcDb2dPolyline
 66
     1
 10
0.0
 20
0.0
 30
0.0
  0
VERTEX
  5
7E
330
7D
100
AcDbEntity
  8
Wood
 62
   250
420
  2301728
370
    35
100
AcDbVertex
100
AcDb2dVertex
 10
3.430555555555555
 20
6.017361111111111
 30
0.0
  0
VERTEX
  5
7F
330
7D
100
AcDbEntity
  8
Wood
 62
   250
420
  2301728
370
    35
100
AcDbVertex
100
AcDb2dVertex
 10
2.916666666666667
 20
6.197916666666666
 30
0.0
  0
SEQEND
  5
80
330
7D
100
AcDbEntity
  8
Wood
 62
   250
420
  2301728
370
    35
  0
POLYLINE
  5
81
330
1F
100
AcDbEntity
  8
Wood
 62
   250
420
  2301728
370
    25
100
AcDb2dPolyline
 66
     1
 10
0.0
 20
0.0
 30
0.0
  0
VERTEX
  5
82
330
81
100
AcDbEntity
  8
Wood
 62
   250
420
  2301728
370
    25
100
AcDbVertex
100
AcDb2dVertex
 10
2.861111111111111
 20
7.592590100007328
 30
0.0
  0
VERTEX
  5
83
330
81
100
AcDbEntity
  8
Wood
 62
   250
420
  2301728
370
    25
100
AcDbVertex
100
AcDb2dVertex
 10
4.935180555555562
 20
7.064819444444449
 30
0.0
  0
VERTEX
  5
84
330
81
100
AcDbEntity
  8
Wood
 62
   250
420
  2301728
370
    25
100
AcDbVertex
100
AcDb2dVertex
 10
5.532402777777785
 20
7.208333333333333
 30
0.0
  0
SEQEND
  5
85
330
81
100
AcDbEntity
  8
Wood
 62
   250
420
  2301728
370
    25
  0
POLYLINE
  5
86
330
1F
100
AcDbEntity
  8
Wood
 62
   250
420
  2301728
370
    25
100
AcDb2dPolyline
 66
     1
 10
0.0
 20
0.0
 30
0.0
  0
VERTEX
  5
87
330
86
100
AcDbEntity
  8
Wood
 62
   250
420
  2301728
370
    25
100
AcDbVertex
100
AcDb2dVertex
 10
4.935180555555562
 20
7.064819444444449
 30
0.0
  0
VERTEX
  5
88
330
86
100
AcDbEntity
  8
Wood
 62
   250
420
  2301728
370
    25
100
AcDbVertex
100
AcDb2dVertex
 10
4.935180555555562
 20
6.197916666666666
 30
0.0
  0
VERTEX
  5
89
330
86
100
AcDbEntity
  8
Wood
 62
   250
420
  2301728
370
    25
100
AcDbVertex
100
AcDb2dVertex
 10
4.871527777777778
 20
6.184027777777778
 30
0.0
  0
VERTEX
  5
8A
330
86
100
AcDbEntity
  8
Wood
 62
   250
420
  2301728
370
    25
100
AcDbVertex
100
AcDb2dVertex
 10
5.006944444444444
 20
6.013888888888888
 30
0.0
  0
VERTEX
  5
8B
330
86
100
AcDbEntity
  8
Wood
 62
   250
420
  2301728
370
    25
100
AcDbVertex
100
AcDb2dVertex
 10
4.935180555555562
 20
5.989583333333333
 30
0.0
  0
VERTEX
  5
8C
330
86
100
AcDbEntity
  8
Wood
 62
   250
420
  2301728
370
    25
100
AcDbVertex
100
AcDb2dVertex
 10
4.935180555555562
 20
5.106486111111104
 30
0.0
  0
SEQEND
  5
8D
330
86
100
AcDbEntity
  8
Wood
 62
   250
420
  2301728
370
    25
  0
POLYLINE
  5
8E
330
1F
100
AcDbEntity
  8
Wood
 62
   250
420
  2301728
370
    25
100
AcDb2dPolyline
 66
     1
 10
0.0
 20
0.0
 30
0.0
  0
VERTEX
  5
8F
330
8E
100
AcDbEntity
  8
Wood
 62
   250
420
  2301728
370
    25
100
AcDbVertex
100
AcDb2dVertex
 10
4.28568461395672
 20
5.342176267968676
 30
0.0
  0
VERTEX
  5
90
330
8E
100
AcDbEntity
  8
Wood
 62
   250
420
  2301728
370
    25
100
AcDbVertex
100
AcDb2dVertex
 10
4.28568461395672
 20
7.230881775811516
 30
0.0
  0
SEQEND
  5
91
330
8E
100
AcDbEntity
  8
Wood
 62
   250
420
  2301728
370
    25
  0
POLYLINE
  5
92
330
1F
100
AcDbEntity
  8
Wood
 62
   250
420
  2301728
370
    25
100
AcDb2dPolyline
 66
     1
 10
0.0
 20
0.0
 30
0.0
  0
VERTEX
  5
93
330
92
100
AcDbEntity
  8
Wood
 62
   250
420
  2301728
370
    25
100
AcDbVertex
100
AcDb2dVertex
 10
2.976847222222217
 20
7.134263888888894
 30
0.0
  0
VERTEX
  5
94
330
92
100
AcDbEntity
  8
Wood
 62
   250
420
  2301728
370
    25
100
AcDbVertex
100
AcDb2dVertex
 10
3.379624999999995
 20
7.027784558719961
 30
0.0
  0
VERTEX
  5
95
330
92
100
AcDbEntity
  8
Wood
 62
   250
420
  2301728
370
    25
100
AcDbVertex
100
AcDb2dVertex
 10
4.284586002873362
 20
7.22972899806286
 30
0.0
  0
SEQEND
  5
96
330
92
100
AcDbEntity
  8
Wood
 62
   250
420
  2301728
370
    25
  0
POLYLINE
  5
97
330
1F
100
AcDbEntity
  8
Wood
 62
   250
420
  2301728
370
    25
100
AcDb2dPolyline
 66
     1
 10
0.0
 20
0.0
 30
0.0
  0
VERTEX
  5
98
330
97
100
AcDbEntity
  8
Wood
 62
   250
420
  2301728
370
    25
100
AcDbVertex
100
AcDb2dVertex
 10
3.379624999999995
 20
7.027784558719961
 30
0.0
  0
VERTEX
  5
99
330
97
100
AcDbEntity
  8
Wood
 62
   250
420
  2301728
370
    25
100
AcDbVertex
100
AcDb2dVertex
 10
3.379624999999995
 20
6.156256802958826
 30
0.0
  0
VERTEX
  5
9A
330
97
100
AcDbEntity
  8
Wood
 62
   250
420
  2301728
370
    25
100
AcDbVertex
100
AcDb2dVertex
 10
3.309027777777778
 20
6.059027777777778
 30
0.0
  0
VERTEX
  5
9B
330
97
100
AcDbEntity
  8
Wood
 62
   250
420
  2301728
370
    25
100
AcDbVertex
100
AcDb2dVertex
 10
3.430555555555555
 20
6.017361111111111
 30
0.0
  0
VERTEX
  5
9C
330
97
100
AcDbEntity
  8
Wood
 62
   250
420
  2301728
370
    25
100
AcDbVertex
100
AcDb2dVertex
 10
3.379624999999995
 20
5.913194444444444
 30
0.0
  0
VERTEX
  5
9D
330
97
100
AcDbEntity
  8
Wood
 62
   250
420
  2301728
370
    25
100
AcDbVertex
100
AcDb2dVertex
 10
3.379624999999995
 20
5.055555555555555
 30
0.0
  0
SEQEND
  5
9E
330
97
100
AcDbEntity
  8
Wood
 62
   250
420
  2301728
370
    25
  0
POLYLINE
  5
9F
330
1F
100
AcDbEntity
  8
Wood
 62
   250
420
  2301728
370
    25
100
AcDb2dPolyline
 66
     1
 10
0.0
 20
0.0
 30
0.0
  0
VERTEX
  5
A0
330
9F
100
AcDbEntity
  8
Wood
 62
   250
420
  2301728
370
    25
100
AcDbVertex
100
AcDb2dVertex
 10
2.976847222222217
 20
6.295145688339087
 30
0.0
  0
VERTEX
  5
A1
330
9F
100
AcDbEntity
  8
Wood
 62
   250
420
  2301728
370
    25
100
AcDbVertex
100
AcDb2dVertex
 10
3.379624999999995
 20
6.156256802958826
 30
0.0
  0
SEQEND
  5
A2
330
9F
100
AcDbEntity
  8
Wood
 62
   250
420
  2301728
370
    25
  0
POLYLINE
  5
A3
330
1F
100
AcDbEntity
  8
Wood
 62
   250
420
  2301728
370
    25
100
AcDb2dPolyline
 66
     1
 10
0.0
 20
0.0
 30
0.0
  0
VERTEX
  5
A4
330
A3
100
AcDbEntity
  8
Wood
 62
   250
420
  2301728
370
    25
100
AcDbVertex
100
AcDb2dVertex
 10
2.976847222222217
 20
6.059034583192644
 30
0.0
  0
VERTEX
  5
A5
330
A3
100
AcDbEntity
  8
Wood
 62
   250
420
  2301728
370
    25
100
AcDbVertex
100
AcDb2dVertex
 10
3.379624999999995
 20
5.913194444444444
 30
0.0
  0
SEQEND
  5
A6
330
A3
100
AcDbEntity
  8
Wood
 62
   250
420
  2301728
370
    25
  0
POLYLINE
  5
A7
330
1F
100
AcDbEntity
  8
Wood
 62
   250
420
  2301728
370
    18
100
AcDb2dPolyline
 66
     1
 10
0.0
 20
0.0
 30
0.0
  0
VERTEX
  5
A8
330
A7
100
AcDbEntity
  8
Wood
 62
   250
420
  2301728
370
    18
100
AcDbVertex
100
AcDb2dVertex
 10
4.934027777777778
 20
6.96875
 30
0.0
  0
VERTEX
  5
A9
330
A7
100
AcDbEntity
  8
Wood
 62
   250
420
  2301728
370
    18
100
AcDbVertex
100
AcDb2dVertex
 10
4.958333333333333
 20
6.84375
 30
0.0
  0
VERTEX
  5
AA
330
A7
100
AcDbEntity
  8
Wood
 62
   250
420
  2301728
370
    18
100
AcDbVertex
100
AcDb2dVertex
 10
4.934027777777778
 20
6.659722222222221
 30
0.0
  0
SEQEND
  5
AB
330
A7
100
AcDbEntity
  8
Wood
 62
   250
420
  2301728
370
    18
  0
POLYLINE
  5
AC
330
1F
100
AcDbEntity
  8
Wood
 62
   250
420
  2301728
370
    18
100
AcDb2dPolyline
 66
     1
 10
0.0
 20
0.0
 30
0.0
  0
VERTEX
  5
AD
330
AC
100
AcDbEntity
  8
Wood
 62
   250
420
  2301728
370
    18
100
AcDbVertex
100
AcDb2dVertex
 10
4.975694444444444
 20
7.076388888888888
 30
0.0
  0
VERTEX
  5
AE
330
AC
100
AcDbEntity
  8
Wood
 62
   250
420
  2301728
370
    18
100
AcDbVertex
100
AcDb2dVertex
 10
5.013888888888888
 20
6.784722222222221
 30
0.0
  0
VERTEX
  5
AF
330
AC
100
AcDbEntity
  8
Wood
 62
   250
420
  2301728
370
    18
100
AcDbVertex
100
AcDb2dVertex
 10
4.934027777777778
 20
6.305555555555555
 30
0.0
  0
SEQEND
  5
B0
330
AC
100
AcDbEntity
  8
Wood
 62
   250
420
  2301728
370
    18
  0
POLYLINE
  5
B1
330
1F
100
AcDbEntity
  8
Wood
 62
   250
420
  2301728
370
    18
100
AcDb2dPolyline
 66
     1
 10
0.0
 20
0.0
 30
0.0
  0
VERTEX
  5
B2
330
B1
100
AcDbEntity
  8
Wood
 62
   250
420
  2301728
370
    18
100
AcDbVertex
100
AcDb2dVertex
 10
5.03125
 20
7.086805555555555
 30
0.0
  0
VERTEX
  5
B3
330
B1
100
AcDbEntity
  8
Wood
 62
   250
420
  2301728
370
    18
100
AcDbVertex
100
AcDb2dVertex
 10
5.065972222222222
 20
6.663194444444444
 30
0.0
  0
VERTEX
  5
B4
330
B1
100
AcDbEntity
  8
Wood
 62
   250
420
  2301728
370
    18
100
AcDbVertex
100
AcDb2dVertex
 10
4.979166666666666
 20
6.215277777777778
 30
0.0
  0
SEQEND
  5
B5
330
B1
100
AcDbEntity
  8
Wood
 62
   250
420
  2301728
370
    18
  0
POLYLINE
  5
B6
330
1F
100
AcDbEntity
  8
Wood
 62
   250
420
  2301728
370
    18
100
AcDb2dPolyline
 66
     1
 10
0.0
 20
0.0
 30
0.0
  0
VERTEX
  5
B7
330
B6
100
AcDbEntity
  8
Wood
 62
   250
420
  2301728
370
    18
100
AcDbVertex
100
AcDb2dVertex
 10
5.083333333333333
 20
7.100694444444444
 30
0.0
  0
VERTEX
  5
B8
330
B6
100
AcDbEntity
  8
Wood
 62
   250
420
  2301728
370
    18
100
AcDbVertex
100
AcDb2dVertex
 10
5.131944444444444
 20
6.618055555555555
 30
0.0
  0
VERTEX
  5
B9
330
B6
100
AcDbEntity
  8
Wood
 62
   250
420
  2301728
370
    18
100
AcDbVertex
100
AcDb2dVertex
 10
5.052083333333333
 20
6.239583333333333
 30
0.0
  0
SEQEND
  5
BA
330
B6
100
AcDbEntity
  8
Wood
 62
   250
420
  2301728
370
    18
  0
POLYLINE
  5
BB
330
1F
100
AcDbEntity
  8
Wood
 62
   250
420
  2301728
370
    18
100
AcDb2dPolyline
 66
     1
 10
0.0
 20
0.0
 30
0.0
  0
VERTEX
  5
BC
330
BB
100
AcDbEntity
  8
Wood
 62
   250
420
  2301728
370
    18
100
AcDbVertex
100
AcDb2dVertex
 10
5.135416666666666
 20
7.111111111111111
 30
0.0
  0
VERTEX
  5
BD
330
BB
100
AcDbEntity
  8
Wood
 62
   250
420
  2301728
370
    18
100
AcDbVertex
100
AcDb2dVertex
 10
5.190972222222222
 20
6.565972222222221
 30
0.0
  0
VERTEX
  5
BE
330
BB
100
AcDbEntity
  8
Wood
 62
   250
420
  2301728
370
    18
100
AcDbVertex
100
AcDb2dVertex
 10
5.121527777777778
 20
6.260416666666666
 30
0.0
  0
SEQEND
  5
BF
330
BB
100
AcDbEntity
  8
Wood
 62
   250
420
  2301728
370
    18
  0
POLYLINE
  5
C0
330
1F
100
AcDbEntity
  8
Wood
 62
   250
420
  2301728
370
    18
100
AcDb2dPolyline
 66
     1
 10
0.0
 20
0.0
 30
0.0
  0
VERTEX
  5
C1
330
C0
100
AcDbEntity
  8
Wood
 62
   250
420
  2301728
370
    18
100
AcDbVertex
100
AcDb2dVertex
 10
5.177083333333333
 20
7.121527777777778
 30
0.0
  0
VERTEX
  5
C2
330
C0
100
AcDbEntity
  8
Wood
 62
   250
420
  2301728
370
    18
100
AcDbVertex
100
AcDb2dVertex
 10
5.267361111111111
 20
6.524305555555555
 30
0.0
  0
VERTEX
  5
C3
330
C0
100
AcDbEntity
  8
Wood
 62
   250
420
  2301728
370
    18
100
AcDbVertex
100
AcDb2dVertex
 10
5.204861111111111
 20
6.28125
 30
0.0
  0
SEQEND
  5
C4
330
C0
100
AcDbEntity
  8
Wood
 62
   250
420
  2301728
370
    18
  0
SPLINE
  5
C5
330
1F
100
AcDbEntity
  8
Wood
 62
   250
420
  2301728
370
    18
100
AcDbSpline
210
0.0
220
0.0
230
1.0
 70
     8
 71
     3
 72
    11
 73
     7
 74
     0
 42
0.0000000001
 43
0.0000000001
 12
1.0
 22
0.0
 32
0.0
 13
1.0
 23
0.0
 33
0.0
 40
0.0
 40
0.0
 40
0.0
 40
0.0
 40
1.0
 40
1.0
 40
1.0
 40
2.0
 40
2.0
 40
2.0
 40
2.0
 10
5.236111111111111
 20
7.135416666666666
 30
0.0
 10
5.239583333333333
 20
7.125
 30
0.0
 10
5.336805555555555
 20
6.482638888888888
 30
0.0
 10
5.336805555555555
 20
6.482638888888888
 30
0.0
 10
5.336805555555555
 20
6.482638888888888
 30
0.0
 10
5.298611111111111
 20
6.309027777777778
 30
0.0
 10
5.298611111111111
 20
6.309027777777778
 30
0.0
  0
POLYLINE
  5
C6
330
1F
100
AcDbEntity
  8
Wood
 62
   250
420
  2301728
370
    18
100
AcDb2dPolyline
 66
     1
 10
0.0
 20
0.0
 30
0.0
  0
VERTEX
  5
C7
330
C6
100
AcDbEntity
  8
Wood
 62
   250
420
  2301728
370
    18
100
AcDbVertex
100
AcDb2dVertex
 10
5.291666666666666
 20
7.152777777777778
 30
0.0
  0
VERTEX
  5
C8
330
C6
100
AcDbEntity
  8
Wood
 62
   250
420
  2301728
370
    18
100
AcDbVertex
100
AcDb2dVertex
 10
5.409722222222222
 20
6.46875
 30
0.0
  0
VERTEX
  5
C9
330
C6
100
AcDbEntity
  8
Wood
 62
   250
420
  2301728
370
    18
100
AcDbVertex
100
AcDb2dVertex
 10
5.385416666666666
 20
6.333333333333333
 30
0.0
  0
SEQEND
  5
CA
330
C6
100
AcDbEntity
  8
Wood
 62
   250
420
  2301728
370
    18
  0
SPLINE
  5
CB
330
1F
100
AcDbEntity
  8
Wood
 62
   250
420
  2301728
370
    18
100
AcDbSpline
210
0.0
220
0.0
230
1.0
 70
     8
 71
     3
 72
    11
 73
     7
 74
     0
 42
0.0000000001
 43
0.0000000001
 12
1.0
 22
0.0
 32
0.0
 13
1.0
 23
0.0
 33
0.0
 40
0.0
 40
0.0
 40
0.0
 40
0.0
 40
1.0
 40
1.0
 40
1.0
 40
2.0
 40
2.0
 40
2.0
 40
2.0
 10
5.354166666666666
 20
7.163194444444444
 30
0.0
 10
5.357638888888888
 20
7.149305555555555
 30
0.0
 10
5.472222222222222
 20
6.427083333333333
 30
0.0
 10
5.472222222222222
 20
6.427083333333333
 30
0.0
 10
5.472222222222222
 20
6.427083333333333
 30
0.0
 10
5.465277777777778
 20
6.357638888888888
 30
0.0
 10
5.465277777777778
 20
6.357638888888888
 30
0.0
  0
POLYLINE
  5
CC
330
1F
100
AcDbEntity
  8
Wood
 62
   250
420
  2301728
370
    18
100
AcDb2dPolyline
 66
     1
 10
0.0
 20
0.0
 30
0.0
  0
VERTEX
  5
CD
330
CC
100
AcDbEntity
  8
Wood
 62
   250
420
  2301728
370
    18
100
AcDbVertex
100
AcDb2dVertex
 10
5.399305555555555
 20
7.173611111111111
 30
0.0
  0
VERTEX
  5
CE
330
CC
100
AcDbEntity
  8
Wood
 62
   250
420
  2301728
370
    18
100
AcDbVertex
100
AcDb2dVertex
 10
5.53125
 20
6.402777777777778
 30
0.0
  0
SEQEND
  5
CF
330
CC
100
AcDbEntity
  8
Wood
 62
   250
420
  2301728
370
    18
  0
POLYLINE
  5
D0
330
1F
100
AcDbEntity
  8
Wood
 62
   250
420
  2301728
370
    18
100
AcDb2dPolyline
 66
     1
 10
0.0
 20
0.0
 30
0.0
  0
VERTEX
  5
D1
330
D0
100
AcDbEntity
  8
Wood
 62
   250
420
  2301728
370
    18
100
AcDbVertex
100
AcDb2dVertex
 10
5.447916666666666
 20
7.190972222222221
 30
0.0
  0
VERTEX
  5
D2
330
D0
100
AcDbEntity
  8
Wood
 62
   250
420
  2301728
370
    18
100
AcDbVertex
100
AcDb2dVertex
 10
5.534722222222222
 20
6.631944444444444
 30
0.0
  0
SEQEND
  5
D3
330
D0
100
AcDbEntity
  8
Wood
 62
   250
420
  2301728
370
    18
  0
POLYLINE
  5
D4
330
1F
100
AcDbEntity
  8
Wood
 62
   250
420
  2301728
370
    18
100
AcDb2dPolyline
 66
     1
 10
0.0
 20
0.0
 30
0.0
  0
VERTEX
  5
D5
330
D4
100
AcDbEntity
  8
Wood
 62
   250
420
  2301728
370
    18
100
AcDbVertex
100
AcDb2dVertex
 10
5.493055555555555
 20
7.201388888888888
 30
0.0
  0
VERTEX
  5
D6
330
D4
100
AcDbEntity
  8
Wood
 62
   250
420
  2301728
370
    18
100
AcDbVertex
100
AcDb2dVertex
 10
5.527777777777778
 20
6.902777777777778
 30
0.0
  0
SEQEND
  5
D7
330
D4
100
AcDbEntity
  8
Wood
 62
   250
420
  2301728
370
    18
  0
POLYLINE
  5
D8
330
1F
100
AcDbEntity
  8
Wood
 62
   250
420
  2301728
370
    18
100
AcDb2dPolyline
 66
     1
 10
0.0
 20
0.0
 30
0.0
  0
VERTEX
  5
D9
330
D8
100
AcDbEntity
  8
Wood
 62
   250
420
  2301728
370
    18
100
AcDbVertex
100
AcDb2dVertex
 10
4.935180555555562
 20
6.197916666666666
 30
0.0
  0
VERTEX
  5
DA
330
D8
100
AcDbEntity
  8
Wood
 62
   250
420
  2301728
370
    18
100
AcDbVertex
100
AcDb2dVertex
 10
5.0625
 20
6.03125
 30
0.0
  0
SEQEND
  5
DB
330
D8
100
AcDbEntity
  8
Wood
 62
   250
420
  2301728
370
    18
  0
POLYLINE
  5
DC
330
1F
100
AcDbEntity
  8
Wood
 62
   250
420
  2301728
370
    18
100
AcDb2dPolyline
 66
     1
 10
0.0
 20
0.0
 30
0.0
  0
VERTEX
  5
DD
330
DC
100
AcDbEntity
  8
Wood
 62
   250
420
  2301728
370
    18
100
AcDbVertex
100
AcDb2dVertex
 10
4.994208333333341
 20
6.222222222222221
 30
0.0
  0
VERTEX
  5
DE
330
DC
100
AcDbEntity
  8
Wood
 62
   250
420
  2301728
370
    18
100
AcDbVertex
100
AcDb2dVertex
 10
5.121527777777778
 20
6.055555555555555
 30
0.0
  0
SEQEND
  5
DF
330
DC
100
AcDbEntity
  8
Wood
 62
   250
420
  2301728
370
    18
  0
POLYLINE
  5
E0
330
1F
100
AcDbEntity
  8
Wood
 62
   250
420
  2301728
370
    18
100
AcDb2dPolyline
 66
     1
 10
0.0
 20
0.0
 30
0.0
  0
VERTEX
  5
E1
330
E0
100
AcDbEntity
  8
Wood
 62
   250
420
  2301728
370
    18
100
AcDbVertex
100
AcDb2dVertex
 10
5.063652777777785
 20
6.236111111111111
 30
0.0
  0
VERTEX
  5
E2
330
E0
100
AcDbEntity
  8
Wood
 62
   250
420
  2301728
370
    18
100
AcDbVertex
100
AcDb2dVertex
 10
5.190972222222222
 20
6.069444444444444
 30
0.0
  0
SEQEND
  5
E3
330
E0
100
AcDbEntity
  8
Wood
 62
   250
420
  2301728
370
    18
  0
POLYLINE
  5
E4
330
1F
100
AcDbEntity
  8
Wood
 62
   250
420
  2301728
370
    18
100
AcDb2dPolyline
 66
     1
 10
0.0
 20
0.0
 30
0.0
  0
VERTEX
  5
E5
330
E4
100
AcDbEntity
  8
Wood
 62
   250
420
  2301728
370
    18
100
AcDbVertex
100
AcDb2dVertex
 10
5.108791666666674
 20
6.25
 30
0.0
  0
VERTEX
  5
E6
330
E4
100
AcDbEntity
  8
Wood
 62
   250
420
  2301728
370
    18
100
AcDbVertex
100
AcDb2dVertex
 10
5.236111111111111
 20
6.083333333333333
 30
0.0
  0
SEQEND
  5
E7
330
E4
100
AcDbEntity
  8
Wood
 62
   250
420
  2301728
370
    18
  0
POLYLINE
  5
E8
330
1F
100
AcDbEntity
  8
Wood
 62
   250
420
  2301728
370
    18
100
AcDb2dPolyline
 66
     1
 10
0.0
 20
0.0
 30
0.0
  0
VERTEX
  5
E9
330
E8
100
AcDbEntity
  8
Wood
 62
   250
420
  2301728
370
    18
100
AcDbVertex
100
AcDb2dVertex
 10
5.174763888888896
 20
6.267361111111111
 30
0.0
  0
VERTEX
  5
EA
330
E8
100
AcDbEntity
  8
Wood
 62
   250
420
  2301728
370
    18
100
AcDbVertex
100
AcDb2dVertex
 10
5.302083333333333
 20
6.100694444444444
 30
0.0
  0
SEQEND
  5
EB
330
E8
100
AcDbEntity
  8
Wood
 62
   250
420
  2301728
370
    18
  0
POLYLINE
  5
EC
330
1F
100
AcDbEntity
  8
Wood
 62
   250
420
  2301728
370
    18
100
AcDb2dPolyline
 66
     1
 10
0.0
 20
0.0
 30
0.0
  0
VERTEX
  5
ED
330
EC
100
AcDbEntity
  8
Wood
 62
   250
420
  2301728
370
    18
100
AcDbVertex
100
AcDb2dVertex
 10
5.230319444444452
 20
6.284722222222221
 30
0.0
  0
VERTEX
  5
EE
330
EC
100
AcDbEntity
  8
Wood
 62
   250
420
  2301728
370
    18
100
AcDbVertex
100
AcDb2dVertex
 10
5.357638888888888
 20
6.118055555555555
 30
0.0
  0
SEQEND
  5
EF
330
EC
100
AcDbEntity
  8
Wood
 62
   250
420
  2301728
370
    18
  0
POLYLINE
  5
F0
330
1F
100
AcDbEntity
  8
Wood
 62
   250
420
  2301728
370
    18
100
AcDb2dPolyline
 66
     1
 10
0.0
 20
0.0
 30
0.0
  0
VERTEX
  5
F1
330
F0
100
AcDbEntity
  8
Wood
 62
   250
420
  2301728
370
    18
100
AcDbVertex
100
AcDb2dVertex
 10
5.282402777777785
 20
6.298611111111111
 30
0.0
  0
VERTEX
  5
F2
330
F0
100
AcDbEntity
  8
Wood
 62
   250
420
  2301728
370
    18
100
AcDbVertex
100
AcDb2dVertex
 10
5.40625
 20
6.138888888888888
 30
0.0
  0
SEQEND
  5
F3
330
F0
100
AcDbEntity
  8
Wood
 62
   250
420
  2301728
370
    18
  0
POLYLINE
  5
F4
330
1F
100
AcDbEntity
  8
Wood
 62
   250
420
  2301728
370
    18
100
AcDb2dPolyline
 66
     1
 10
0.0
 20
0.0
 30
0.0
  0
VERTEX
  5
F5
330
F4
100
AcDbEntity
  8
Wood
 62
   250
420
  2301728
370
    18
100
AcDbVertex
100
AcDb2dVertex
 10
5.344902777777785
 20
6.315972222222221
 30
0.0
  0
VERTEX
  5
F6
330
F4
100
AcDbEntity
  8
Wood
 62
   250
420
  2301728
370
    18
100
AcDbVertex
100
AcDb2dVertex
 10
5.46875
 20
6.152777777777778
 30
0.0
  0
SEQEND
  5
F7
330
F4
100
AcDbEntity
  8
Wood
 62
   250
420
  2301728
370
    18
  0
POLYLINE
  5
F8
330
1F
100
AcDbEntity
  8
Wood
 62
   250
420
  2301728
370
    18
100
AcDb2dPolyline
 66
     1
 10
0.0
 20
0.0
 30
0.0
  0
VERTEX
  5
F9
330
F8
100
AcDbEntity
  8
Wood
 62
   250
420
  2301728
370
    18
100
AcDbVertex
100
AcDb2dVertex
 10
5.421291666666674
 20
6.340277777777778
 30
0.0
  0
VERTEX
  5
FA
330
F8
100
AcDbEntity
  8
Wood
 62
   250
420
  2301728
370
    18
100
AcDbVertex
100
AcDb2dVertex
 10
5.545138888888888
 20
6.177083333333333
 30
0.0
  0
SEQEND
  5
FB
330
F8
100
AcDbEntity
  8
Wood
 62
   250
420
  2301728
370
    18
  0
POLYLINE
  5
FC
330
1F
100
AcDbEntity
  8
Wood
 62
   250
420
  2301728
370
    18
100
AcDb2dPolyline
 66
     1
 10
0.0
 20
0.0
 30
0.0
  0
VERTEX
  5
FD
330
FC
100
AcDbEntity
  8
Wood
 62
   250
420
  2301728
370
    18
100
AcDbVertex
100
AcDb2dVertex
 10
4.975694444444444
 20
6.003472222222222
 30
0.0
  0
VERTEX
  5
FE
330
FC
100
AcDbEntity
  8
Wood
 62
   250
420
  2301728
370
    18
100
AcDbVertex
100
AcDb2dVertex
 10
4.934027777777778
 20
5.684027777777778
 30
0.0
  0
SEQEND
  5
FF
330
FC
100
AcDbEntity
  8
Wood
 62
   250
420
  2301728
370
    18
  0
POLYLINE
  5
100
330
1F
100
AcDbEntity
  8
Wood
 62
   250
420
  2301728
370
    18
100
AcDb2dPolyline
 66
     1
 10
0.0
 20
0.0
 30
0.0
  0
VERTEX
  5
101
330
100
100
AcDbEntity
  8
Wood
 62
   250
420
  2301728
370
    18
100
AcDbVertex
100
AcDb2dVertex
 10
5.048611111111111
 20
6.024305555555555
 30
0.0
  0
VERTEX
  5
102
330
100
100
AcDbEntity
  8
Wood
 62
   250
420
  2301728
370
    18
100
AcDbVertex
100
AcDb2dVertex
 10
4.934027777777778
 20
5.416666666666666
 30
0.0
  0
SEQEND
  5
103
330
100
100
AcDbEntity
  8
Wood
 62
   250
420
  2301728
370
    18
  0
POLYLINE
  5
104
330
1F
100
AcDbEntity
  8
Wood
 62
   250
420
  2301728
370
    18
100
AcDb2dPolyline
 66
     1
 10
0.0
 20
0.0
 30
0.0
  0
VERTEX
  5
105
330
104
100
AcDbEntity
  8
Wood
 62
   250
420
  2301728
370
    18
100
AcDbVertex
100
AcDb2dVertex
 10
5.107638888888888
 20
6.041666666666666
 30
0.0
  0
VERTEX
  5
106
330
104
100
AcDbEntity
  8
Wood
 62
   250
420
  2301728
370
    18
100
AcDbVertex
100
AcDb2dVertex
 10
4.979166666666666
 20
5.420138888888888
 30
0.0
  0
VERTEX
  5
107
330
104
100
AcDbEntity
  8
Wood
 62
   250
420
  2301728
370
    18
100
AcDbVertex
100
AcDb2dVertex
 10
5.020833333333333
 20
5.135416666666666
 30
0.0
  0
SEQEND
  5
108
330
104
100
AcDbEntity
  8
Wood
 62
   250
420
  2301728
370
    18
  0
POLYLINE
  5
109
330
1F
100
AcDbEntity
  8
Wood
 62
   250
420
  2301728
370
    18
100
AcDb2dPolyline
 66
     1
 10
0.0
 20
0.0
 30
0.0
  0
VERTEX
  5
10A
330
109
100
AcDbEntity
  8
Wood
 62
   250
420
  2301728
370
    18
100
AcDbVertex
100
AcDb2dVertex
 10
4.934027777777778
 20
5.232638888888888
 30
0.0
  0
VERTEX
  5
10B
330
109
100
AcDbEntity
  8
Wood
 62
   250
420
  2301728
370
    18
100
AcDbVertex
100
AcDb2dVertex
 10
4.961805555555555
 20
5.114583333333333
 30
0.0
  0
SEQEND
  5
10C
330
109
100
AcDbEntity
  8
Wood
 62
   250
420
  2301728
370
    18
  0
POLYLINE
  5
10D
330
1F
100
AcDbEntity
  8
Wood
 62
   250
420
  2301728
370
    18
100
AcDb2dPolyline
 66
     1
 10
0.0
 20
0.0
 30
0.0
  0
VERTEX
  5
10E
330
10D
100
AcDbEntity
  8
Wood
 62
   250
420
  2301728
370
    18
100
AcDbVertex
100
AcDb2dVertex
 10
5.177083333333333
 20
6.059027777777778
 30
0.0
  0
VERTEX
  5
10F
330
10D
100
AcDbEntity
  8
Wood
 62
   250
420
  2301728
370
    18
100
AcDbVertex
100
AcDb2dVertex
 10
5.055555555555555
 20
5.486111111111111
 30
0.0
  0
VERTEX
  5
110
330
10D
100
AcDbEntity
  8
Wood
 62
   250
420
  2301728
370
    18
100
AcDbVertex
100
AcDb2dVertex
 10
5.131944444444444
 20
5.177083333333333
 30
0.0
  0
SEQEND
  5
111
330
10D
100
AcDbEntity
  8
Wood
 62
   250
420
  2301728
370
    18
  0
POLYLINE
  5
112
330
1F
100
AcDbEntity
  8
Wood
 62
   250
420
  2301728
370
    18
100
AcDb2dPolyline
 66
     1
 10
0.0
 20
0.0
 30
0.0
  0
VERTEX
  5
113
330
112
100
AcDbEntity
  8
Wood
 62
   250
420
  2301728
370
    18
100
AcDbVertex
100
AcDb2dVertex
 10
5.253472222222222
 20
6.090277777777778
 30
0.0
  0
VERTEX
  5
114
330
112
100
AcDbEntity
  8
Wood
 62
   250
420
  2301728
370
    18
100
AcDbVertex
100
AcDb2dVertex
 10
5.135416666666666
 20
5.555555555555555
 30
0.0
  0
VERTEX
  5
115
330
112
100
AcDbEntity
  8
Wood
 62
   250
420
  2301728
370
    18
100
AcDbVertex
100
AcDb2dVertex
 10
5.21875
 20
5.208333333333333
 30
0.0
  0
SEQEND
  5
116
330
112
100
AcDbEntity
  8
Wood
 62
   250
420
  2301728
370
    18
  0
POLYLINE
  5
117
330
1F
100
AcDbEntity
  8
Wood
 62
   250
420
  2301728
370
    18
100
AcDb2dPolyline
 66
     1
 10
0.0
 20
0.0
 30
0.0
  0
VERTEX
  5
118
330
117
100
AcDbEntity
  8
Wood
 62
   250
420
  2301728
370
    18
100
AcDbVertex
100
AcDb2dVertex
 10
5.315972222222222
 20
6.104166666666666
 30
0.0
  0
VERTEX
  5
119
330
117
100
AcDbEntity
  8
Wood
 62
   250
420
  2301728
370
    18
100
AcDbVertex
100
AcDb2dVertex
 10
5.197916666666666
 20
5.621527777777778
 30
0.0
  0
VERTEX
  5
11A
330
117
100
AcDbEntity
  8
Wood
 62
   250
420
  2301728
370
    18
100
AcDbVertex
100
AcDb2dVertex
 10
5.302083333333333
 20
5.243055555555555
 30
0.0
  0
SEQEND
  5
11B
330
117
100
AcDbEntity
  8
Wood
 62
   250
420
  2301728
370
    18
  0
POLYLINE
  5
11C
330
1F
100
AcDbEntity
  8
Wood
 62
   250
420
  2301728
370
    18
100
AcDb2dPolyline
 66
     1
 10
0.0
 20
0.0
 30
0.0
  0
VERTEX
  5
11D
330
11C
100
AcDbEntity
  8
Wood
 62
   250
420
  2301728
370
    18
100
AcDbVertex
100
AcDb2dVertex
 10
5.385416666666666
 20
6.125
 30
0.0
  0
VERTEX
  5
11E
330
11C
100
AcDbEntity
  8
Wood
 62
   250
420
  2301728
370
    18
100
AcDbVertex
100
AcDb2dVertex
 10
5.270833333333333
 20
5.704861111111111
 30
0.0
  0
VERTEX
  5
11F
330
11C
100
AcDbEntity
  8
Wood
 62
   250
420
  2301728
370
    18
100
AcDbVertex
100
AcDb2dVertex
 10
5.371527777777778
 20
5.267361111111111
 30
0.0
  0
SEQEND
  5
120
330
11C
100
AcDbEntity
  8
Wood
 62
   250
420
  2301728
370
    18
  0
POLYLINE
  5
121
330
1F
100
AcDbEntity
  8
Wood
 62
   250
420
  2301728
370
    18
100
AcDb2dPolyline
 66
     1
 10
0.0
 20
0.0
 30
0.0
  0
VERTEX
  5
122
330
121
100
AcDbEntity
  8
Wood
 62
   250
420
  2301728
370
    18
100
AcDbVertex
100
AcDb2dVertex
 10
5.444444444444444
 20
6.145833333333333
 30
0.0
  0
VERTEX
  5
123
330
121
100
AcDbEntity
  8
Wood
 62
   250
420
  2301728
370
    18
100
AcDbVertex
100
AcDb2dVertex
 10
5.340277777777778
 20
5.763888888888888
 30
0.0
  0
VERTEX
  5
124
330
121
100
AcDbEntity
  8
Wood
 62
   250
420
  2301728
370
    18
100
AcDbVertex
100
AcDb2dVertex
 10
5.447916666666666
 20
5.298611111111111
 30
0.0
  0
SEQEND
  5
125
330
121
100
AcDbEntity
  8
Wood
 62
   250
420
  2301728
370
    18
  0
POLYLINE
  5
126
330
1F
100
AcDbEntity
  8
Wood
 62
   250
420
  2301728
370
    18
100
AcDb2dPolyline
 66
     1
 10
0.0
 20
0.0
 30
0.0
  0
VERTEX
  5
127
330
126
100
AcDbEntity
  8
Wood
 62
   250
420
  2301728
370
    18
100
AcDbVertex
100
AcDb2dVertex
 10
5.496527777777778
 20
6.163194444444444
 30
0.0
  0
VERTEX
  5
128
330
126
100
AcDbEntity
  8
Wood
 62
   250
420
  2301728
370
    18
100
AcDbVertex
100
AcDb2dVertex
 10
5.413194444444444
 20
5.840277777777778
 30
0.0
  0
VERTEX
  5
129
330
126
100
AcDbEntity
  8
Wood
 62
   250
420
  2301728
370
    18
100
AcDbVertex
100
AcDb2dVertex
 10
5.513888888888888
 20
5.319444444444444
 30
0.0
  0
SEQEND
  5
12A
330
126
100
AcDbEntity
  8
Wood
 62
   250
420
  2301728
370
    18
  0
SPLINE
  5
12B
330
1F
100
AcDbEntity
  8
Wood
 62
   250
420
  2301728
370
    18
100
AcDbSpline
210
0.0
220
0.0
230
1.0
 70
     8
 71
     3
 72
    11
 73
     7
 74
     0
 42
0.0000000001
 43
0.0000000001
 12
1.0
 22
0.0
 32
0.0
 13
1.0
 23
0.0
 33
0.0
 40
0.0
 40
0.0
 40
0.0
 40
0.0
 40
1.0
 40
1.0
 40
1.0
 40
2.0
 40
2.0
 40
2.0
 40
2.0
 10
5.527777777777778
 20
6.121527777777778
 30
0.0
 10
5.524305555555555
 20
6.111111111111111
 30
0.0
 10
5.486111111111111
 20
5.899305555555555
 30
0.0
 10
5.486111111111111
 20
5.899305555555555
 30
0.0
 10
5.486111111111111
 20
5.899305555555555
 30
0.0
 10
5.527777777777778
 20
5.635416666666666
 30
0.0
 10
5.527777777777778
 20
5.635416666666666
 30
0.0
  0
POLYLINE
  5
12C
330
1F
100
AcDbEntity
  8
Wood
 62
   250
420
  2301728
370
    18
100
AcDb2dPolyline
 66
     1
 10
0.0
 20
0.0
 30
0.0
  0
VERTEX
  5
12D
330
12C
100
AcDbEntity
  8
Wood
 62
   250
420
  2301728
370
    18
100
AcDbVertex
100
AcDb2dVertex
 10
3.019022145955306
 20
7.121955389674339
 30
0.0
  0
VERTEX
  5
12E
330
12C
100
AcDbEntity
  8
Wood
 62
   250
420
  2301728
370
    18
100
AcDbVertex
100
AcDb2dVertex
 10
2.973306869332393
 20
6.614488735827358
 30
0.0
  0
SEQEND
  5
12F
330
12C
100
AcDbEntity
  8
Wood
 62
   250
420
  2301728
370
    18
  0
POLYLINE
  5
130
330
1F
100
AcDbEntity
  8
Wood
 62
   250
420
  2301728
370
    18
100
AcDb2dPolyline
 66
     1
 10
0.0
 20
0.0
 30
0.0
  0
VERTEX
  5
131
330
130
100
AcDbEntity
  8
Wood
 62
   250
420
  2301728
370
    18
100
AcDbVertex
100
AcDb2dVertex
 10
3.060166666666671
 20
7.112806778794341
 30
0.0
  0
VERTEX
  5
132
330
130
100
AcDbEntity
  8
Wood
 62
   250
420
  2301728
370
    18
100
AcDbVertex
100
AcDb2dVertex
 10
2.982448535768122
 20
6.312758187894158
 30
0.0
  0
SEQEND
  5
133
330
130
100
AcDbEntity
  8
Wood
 62
   250
420
  2301728
370
    18
  0
POLYLINE
  5
134
330
1F
100
AcDbEntity
  8
Wood
 62
   250
420
  2301728
370
    18
100
AcDb2dPolyline
 66
     1
 10
0.0
 20
0.0
 30
0.0
  0
VERTEX
  5
135
330
134
100
AcDbEntity
  8
Wood
 62
   250
420
  2301728
370
    18
100
AcDbVertex
100
AcDb2dVertex
 10
3.105881865983267
 20
7.099094279140748
 30
0.0
  0
VERTEX
  5
136
330
134
100
AcDbEntity
  8
Wood
 62
   250
420
  2301728
370
    18
100
AcDbVertex
100
AcDb2dVertex
 10
3.009880479519577
 20
6.289897077360567
 30
0.0
  0
VERTEX
  5
137
330
134
100
AcDbEntity
  8
Wood
 62
   250
420
  2301728
370
    18
100
AcDbVertex
100
AcDb2dVertex
 10
2.950445758798802
 20
6.189323468790159
 30
0.0
  0
SEQEND
  5
138
330
134
100
AcDbEntity
  8
Wood
 62
   250
420
  2301728
370
    18
  0
POLYLINE
  5
139
330
1F
100
AcDbEntity
  8
Wood
 62
   250
420
  2301728
370
    18
100
AcDb2dPolyline
 66
     1
 10
0.0
 20
0.0
 30
0.0
  0
VERTEX
  5
13A
330
139
100
AcDbEntity
  8
Wood
 62
   250
420
  2301728
370
    18
100
AcDbVertex
100
AcDb2dVertex
 10
3.137884642952586
 20
7.089952612705019
 30
0.0
  0
VERTEX
  5
13B
330
139
100
AcDbEntity
  8
Wood
 62
   250
420
  2301728
370
    18
100
AcDbVertex
100
AcDb2dVertex
 10
3.142455476170438
 20
6.929938727858421
 30
0.0
  0
VERTEX
  5
13C
330
139
100
AcDbEntity
  8
Wood
 62
   250
420
  2301728
370
    18
100
AcDbVertex
100
AcDb2dVertex
 10
3.037305555555551
 20
6.276184577706974
 30
0.0
  0
VERTEX
  5
13D
330
139
100
AcDbEntity
  8
Wood
 62
   250
420
  2301728
370
    18
100
AcDbVertex
100
AcDb2dVertex
 10
2.96872909167026
 20
6.184747080016879
 30
0.0
  0
SEQEND
  5
13E
330
139
100
AcDbEntity
  8
Wood
 62
   250
420
  2301728
370
    18
  0
POLYLINE
  5
13F
330
1F
100
AcDbEntity
  8
Wood
 62
   250
420
  2301728
370
    18
100
AcDb2dPolyline
 66
     1
 10
0.0
 20
0.0
 30
0.0
  0
VERTEX
  5
140
330
13F
100
AcDbEntity
  8
Wood
 62
   250
420
  2301728
370
    18
100
AcDbVertex
100
AcDb2dVertex
 10
3.174458333333329
 20
7.080804001825022
 30
0.0
  0
VERTEX
  5
141
330
13F
100
AcDbEntity
  8
Wood
 62
   250
420
  2301728
370
    18
100
AcDbVertex
100
AcDb2dVertex
 10
3.183599919575499
 20
6.815647064079005
 30
0.0
  0
VERTEX
  5
142
330
13F
100
AcDbEntity
  8
Wood
 62
   250
420
  2301728
370
    18
100
AcDbVertex
100
AcDb2dVertex
 10
3.069308255796083
 20
6.267042911271245
 30
0.0
  0
VERTEX
  5
143
330
13F
100
AcDbEntity
  8
Wood
 62
   250
420
  2301728
370
    18
100
AcDbVertex
100
AcDb2dVertex
 10
3.009880479519577
 20
6.166463747145422
 30
0.0
  0
SEQEND
  5
144
330
13F
100
AcDbEntity
  8
Wood
 62
   250
420
  2301728
370
    18
  0
SPLINE
  5
145
330
1F
100
AcDbEntity
  8
Wood
 62
   250
420
  2301728
370
    18
100
AcDbSpline
210
0.0
220
0.0
230
1.0
 70
     8
 71
     3
 72
    14
 73
    10
 74
     0
 42
0.0000000001
 43
0.0000000001
 12
1.0
 22
0.0
 32
0.0
 13
1.0
 23
0.0
 33
0.0
 40
0.0
 40
0.0
 40
0.0
 40
0.0
 40
1.0
 40
1.0
 40
1.0
 40
2.0
 40
2.0
 40
2.0
 40
3.0
 40
3.0
 40
3.0
 40
3.0
 10
3.215602696544819
 20
7.067091502171428
 30
0.0
 10
3.215602696544819
 20
7.053379002517835
 30
0.0
 10
3.233892973860545
 20
6.765361111111107
 30
0.0
 10
3.233892973860545
 20
6.765361111111107
 30
0.0
 10
3.233892973860545
 20
6.765361111111107
 30
0.0
 10
3.101311032765402
 20
6.257894300391247
 30
0.0
 10
3.101311032765402
 20
6.257894300391247
 30
0.0
 10
3.101311032765402
 20
6.257894300391247
 30
0.0
 10
3.037305555555551
 20
6.157320691820839
 30
0.0
 10
3.037305555555551
 20
6.157320691820839
 30
0.0
  0
POLYLINE
  5
146
330
1F
100
AcDbEntity
  8
Wood
 62
   250
420
  2301728
370
    18
100
AcDb2dPolyline
 66
     1
 10
0.0
 20
0.0
 30
0.0
  0
VERTEX
  5
147
330
146
100
AcDbEntity
  8
Wood
 62
   250
420
  2301728
370
    18
100
AcDbVertex
100
AcDb2dVertex
 10
3.252176306732003
 20
7.057949835735699
 30
0.0
  0
VERTEX
  5
148
330
146
100
AcDbEntity
  8
Wood
 62
   250
420
  2301728
370
    18
100
AcDbVertex
100
AcDb2dVertex
 10
3.288749999999999
 20
6.66021095689454
 30
0.0
  0
VERTEX
  5
149
330
146
100
AcDbEntity
  8
Wood
 62
   250
420
  2301728
370
    18
100
AcDbVertex
100
AcDb2dVertex
 10
3.142455476170438
 20
6.244181800737654
 30
0.0
  0
VERTEX
  5
14A
330
146
100
AcDbEntity
  8
Wood
 62
   250
420
  2301728
370
    18
100
AcDbVertex
100
AcDb2dVertex
 10
3.064737422578219
 20
6.148173469829695
 30
0.0
  0
SEQEND
  5
14B
330
146
100
AcDbEntity
  8
Wood
 62
   250
420
  2301728
370
    18
  0
POLYLINE
  5
14C
330
1F
100
AcDbEntity
  8
Wood
 62
   250
420
  2301728
370
    18
100
AcDb2dPolyline
 66
     1
 10
0.0
 20
0.0
 30
0.0
  0
VERTEX
  5
14D
330
14C
100
AcDbEntity
  8
Wood
 62
   250
420
  2301728
370
    18
100
AcDbVertex
100
AcDb2dVertex
 10
3.297898527799184
 20
7.044230391637837
 30
0.0
  0
VERTEX
  5
14E
330
14C
100
AcDbEntity
  8
Wood
 62
   250
420
  2301728
370
    18
100
AcDbVertex
100
AcDb2dVertex
 10
3.352755470857813
 20
6.57334429242231
 30
0.0
  0
VERTEX
  5
14F
330
14C
100
AcDbEntity
  8
Wood
 62
   250
420
  2301728
370
    18
100
AcDbVertex
100
AcDb2dVertex
 10
3.197319444444449
 20
6.221320690204063
 30
0.0
  0
VERTEX
  5
150
330
14C
100
AcDbEntity
  8
Wood
 62
   250
420
  2301728
370
    18
100
AcDbVertex
100
AcDb2dVertex
 10
3.110452699201131
 20
6.129890136958238
 30
0.0
  0
SEQEND
  5
151
330
14C
100
AcDbEntity
  8
Wood
 62
   250
420
  2301728
370
    18
  0
POLYLINE
  5
152
330
1F
100
AcDbEntity
  8
Wood
 62
   250
420
  2301728
370
    18
100
AcDb2dPolyline
 66
     1
 10
0.0
 20
0.0
 30
0.0
  0
VERTEX
  5
153
330
152
100
AcDbEntity
  8
Wood
 62
   250
420
  2301728
370
    18
100
AcDbVertex
100
AcDb2dVertex
 10
3.343613804422097
 20
7.039659558419973
 30
0.0
  0
VERTEX
  5
154
330
152
100
AcDbEntity
  8
Wood
 62
   250
420
  2301728
370
    18
100
AcDbVertex
100
AcDb2dVertex
 10
3.380187414609281
 20
6.705926233517452
 30
0.0
  0
SEQEND
  5
155
330
152
100
AcDbEntity
  8
Wood
 62
   250
420
  2301728
370
    18
  0
POLYLINE
  5
156
330
1F
100
AcDbEntity
  8
Wood
 62
   250
420
  2301728
370
    18
100
AcDb2dPolyline
 66
     1
 10
0.0
 20
0.0
 30
0.0
  0
VERTEX
  5
157
330
156
100
AcDbEntity
  8
Wood
 62
   250
420
  2301728
370
    18
100
AcDbVertex
100
AcDb2dVertex
 10
3.380187414609281
 20
6.513916666666672
 30
0.0
  0
VERTEX
  5
158
330
156
100
AcDbEntity
  8
Wood
 62
   250
420
  2301728
370
    18
100
AcDbVertex
100
AcDb2dVertex
 10
3.252176306732003
 20
6.203037357332605
 30
0.0
  0
VERTEX
  5
159
330
156
100
AcDbEntity
  8
Wood
 62
   250
420
  2301728
370
    18
100
AcDbVertex
100
AcDb2dVertex
 10
3.156174920268313
 20
6.116176248415791
 30
0.0
  0
SEQEND
  5
15A
330
156
100
AcDbEntity
  8
Wood
 62
   250
420
  2301728
370
    18
  0
POLYLINE
  5
15B
330
1F
100
AcDbEntity
  8
Wood
 62
   250
420
  2301728
370
    18
100
AcDb2dPolyline
 66
     1
 10
0.0
 20
0.0
 30
0.0
  0
VERTEX
  5
15C
330
15B
100
AcDbEntity
  8
Wood
 62
   250
420
  2301728
370
    18
100
AcDbVertex
100
AcDb2dVertex
 10
3.380187414609281
 20
6.376763888888894
 30
0.0
  0
VERTEX
  5
15D
330
15B
100
AcDbEntity
  8
Wood
 62
   250
420
  2301728
370
    18
100
AcDbVertex
100
AcDb2dVertex
 10
3.297898527799184
 20
6.189323468790159
 30
0.0
  0
VERTEX
  5
15E
330
15B
100
AcDbEntity
  8
Wood
 62
   250
420
  2301728
370
    18
100
AcDbVertex
100
AcDb2dVertex
 10
3.220180555555556
 20
6.093316526771054
 30
0.0
  0
SEQEND
  5
15F
330
15B
100
AcDbEntity
  8
Wood
 62
   250
420
  2301728
370
    18
  0
POLYLINE
  5
160
330
1F
100
AcDbEntity
  8
Wood
 62
   250
420
  2301728
370
    18
100
AcDb2dPolyline
 66
     1
 10
0.0
 20
0.0
 30
0.0
  0
VERTEX
  5
161
330
160
100
AcDbEntity
  8
Wood
 62
   250
420
  2301728
370
    18
100
AcDbVertex
100
AcDb2dVertex
 10
3.375616581391417
 20
6.271613744489109
 30
0.0
  0
VERTEX
  5
162
330
160
100
AcDbEntity
  8
Wood
 62
   250
420
  2301728
370
    18
100
AcDbVertex
100
AcDb2dVertex
 10
3.343613804422097
 20
6.171034580363286
 30
0.0
  0
VERTEX
  5
163
330
160
100
AcDbEntity
  8
Wood
 62
   250
420
  2301728
370
    18
100
AcDbVertex
100
AcDb2dVertex
 10
3.270466584047742
 20
6.075026249455328
 30
0.0
  0
SEQEND
  5
164
330
160
100
AcDbEntity
  8
Wood
 62
   250
420
  2301728
370
    18
  0
POLYLINE
  5
165
330
1F
100
AcDbEntity
  8
Wood
 62
   250
420
  2301728
370
    18
100
AcDb2dPolyline
 66
     1
 10
0.0
 20
0.0
 30
0.0
  0
VERTEX
  5
166
330
165
100
AcDbEntity
  8
Wood
 62
   250
420
  2301728
370
    18
100
AcDbVertex
100
AcDb2dVertex
 10
3.078456866676081
 20
6.134460970176102
 30
0.0
  0
VERTEX
  5
167
330
165
100
AcDbEntity
  8
Wood
 62
   250
420
  2301728
370
    18
100
AcDbVertex
100
AcDb2dVertex
 10
3.019022145955306
 20
6.047599861259287
 30
0.0
  0
VERTEX
  5
168
330
165
100
AcDbEntity
  8
Wood
 62
   250
420
  2301728
370
    18
100
AcDbVertex
100
AcDb2dVertex
 10
2.977877702550257
 20
5.860160977105503
 30
0.0
  0
SEQEND
  5
169
330
165
100
AcDbEntity
  8
Wood
 62
   250
420
  2301728
370
    18
  0
POLYLINE
  5
16A
330
1F
100
AcDbEntity
  8
Wood
 62
   250
420
  2301728
370
    18
100
AcDb2dPolyline
 66
     1
 10
0.0
 20
0.0
 30
0.0
  0
VERTEX
  5
16B
330
16A
100
AcDbEntity
  8
Wood
 62
   250
420
  2301728
370
    18
100
AcDbVertex
100
AcDb2dVertex
 10
3.133313809734722
 20
6.120747081633655
 30
0.0
  0
VERTEX
  5
16C
330
16A
100
AcDbEntity
  8
Wood
 62
   250
420
  2301728
370
    18
100
AcDbVertex
100
AcDb2dVertex
 10
3.069308255796083
 20
6.024740139614551
 30
0.0
  0
VERTEX
  5
16D
330
16A
100
AcDbEntity
  8
Wood
 62
   250
420
  2301728
370
    18
100
AcDbVertex
100
AcDb2dVertex
 10
3.005302701857444
 20
5.805297089602592
 30
0.0
  0
VERTEX
  5
16E
330
16A
100
AcDbEntity
  8
Wood
 62
   250
420
  2301728
370
    18
100
AcDbVertex
100
AcDb2dVertex
 10
3.096740199547538
 20
5.174397105540467
 30
0.0
  0
SEQEND
  5
16F
330
16A
100
AcDbEntity
  8
Wood
 62
   250
420
  2301728
370
    18
  0
POLYLINE
  5
170
330
1F
100
AcDbEntity
  8
Wood
 62
   250
420
  2301728
370
    18
100
AcDb2dPolyline
 66
     1
 10
0.0
 20
0.0
 30
0.0
  0
VERTEX
  5
171
330
170
100
AcDbEntity
  8
Wood
 62
   250
420
  2301728
370
    18
100
AcDbVertex
100
AcDb2dVertex
 10
2.977877702550257
 20
5.681858203832032
 30
0.0
  0
VERTEX
  5
172
330
170
100
AcDbEntity
  8
Wood
 62
   250
420
  2301728
370
    18
100
AcDbVertex
100
AcDb2dVertex
 10
3.05559575614249
 20
5.178967938758332
 30
0.0
  0
SEQEND
  5
173
330
170
100
AcDbEntity
  8
Wood
 62
   250
420
  2301728
370
    18
  0
POLYLINE
  5
174
330
1F
100
AcDbEntity
  8
Wood
 62
   250
420
  2301728
370
    18
100
AcDb2dPolyline
 66
     1
 10
0.0
 20
0.0
 30
0.0
  0
VERTEX
  5
175
330
174
100
AcDbEntity
  8
Wood
 62
   250
420
  2301728
370
    18
100
AcDbVertex
100
AcDb2dVertex
 10
2.973306869332393
 20
5.41669444444445
 30
0.0
  0
VERTEX
  5
176
330
174
100
AcDbEntity
  8
Wood
 62
   250
420
  2301728
370
    18
100
AcDbVertex
100
AcDb2dVertex
 10
3.005302701857444
 20
5.201823493736507
 30
0.0
  0
SEQEND
  5
177
330
174
100
AcDbEntity
  8
Wood
 62
   250
420
  2301728
370
    18
  0
POLYLINE
  5
178
330
1F
100
AcDbEntity
  8
Wood
 62
   250
420
  2301728
370
    18
100
AcDb2dPolyline
 66
     1
 10
0.0
 20
0.0
 30
0.0
  0
VERTEX
  5
179
330
178
100
AcDbEntity
  8
Wood
 62
   250
420
  2301728
370
    18
100
AcDbVertex
100
AcDb2dVertex
 10
3.169887419921906
 20
6.107029026424647
 30
0.0
  0
VERTEX
  5
17A
330
178
100
AcDbEntity
  8
Wood
 62
   250
420
  2301728
370
    18
100
AcDbVertex
100
AcDb2dVertex
 10
3.105881865983267
 20
6.011026251072104
 30
0.0
  0
VERTEX
  5
17B
330
178
100
AcDbEntity
  8
Wood
 62
   250
420
  2301728
370
    18
100
AcDbVertex
100
AcDb2dVertex
 10
3.046454089706761
 20
5.787013888888901
 30
0.0
  0
VERTEX
  5
17C
330
178
100
AcDbEntity
  8
Wood
 62
   250
420
  2301728
370
    18
100
AcDbVertex
100
AcDb2dVertex
 10
3.137884642952586
 20
5.160684605886874
 30
0.0
  0
SEQEND
  5
17D
330
178
100
AcDbEntity
  8
Wood
 62
   250
420
  2301728
370
    18
  0
POLYLINE
  5
17E
330
1F
100
AcDbEntity
  8
Wood
 62
   250
420
  2301728
370
    18
100
AcDb2dPolyline
 66
     1
 10
0.0
 20
0.0
 30
0.0
  0
VERTEX
  5
17F
330
17E
100
AcDbEntity
  8
Wood
 62
   250
420
  2301728
370
    18
100
AcDbVertex
100
AcDb2dVertex
 10
3.206461030109103
 20
6.097887359988918
 30
0.0
  0
VERTEX
  5
180
330
17E
100
AcDbEntity
  8
Wood
 62
   250
420
  2301728
370
    18
100
AcDbVertex
100
AcDb2dVertex
 10
3.142455476170438
 20
6.006455417854239
 30
0.0
  0
VERTEX
  5
181
330
17E
100
AcDbEntity
  8
Wood
 62
   250
420
  2301728
370
    18
100
AcDbVertex
100
AcDb2dVertex
 10
3.078456866676081
 20
5.750434590988536
 30
0.0
  0
VERTEX
  5
182
330
17E
100
AcDbEntity
  8
Wood
 62
   250
420
  2301728
370
    18
100
AcDbVertex
100
AcDb2dVertex
 10
3.165316586704042
 20
5.142401273015417
 30
0.0
  0
SEQEND
  5
183
330
17E
100
AcDbEntity
  8
Wood
 62
   250
420
  2301728
370
    18
  0
POLYLINE
  5
184
330
1F
100
AcDbEntity
  8
Wood
 62
   250
420
  2301728
370
    18
100
AcDb2dPolyline
 66
     1
 10
0.0
 20
0.0
 30
0.0
  0
VERTEX
  5
185
330
184
100
AcDbEntity
  8
Wood
 62
   250
420
  2301728
370
    18
100
AcDbVertex
100
AcDb2dVertex
 10
3.233892973860545
 20
6.084173471446471
 30
0.0
  0
VERTEX
  5
186
330
184
100
AcDbEntity
  8
Wood
 62
   250
420
  2301728
370
    18
100
AcDbVertex
100
AcDb2dVertex
 10
3.165316586704042
 20
5.988159584983097
 30
0.0
  0
VERTEX
  5
187
330
184
100
AcDbEntity
  8
Wood
 62
   250
420
  2301728
370
    18
100
AcDbVertex
100
AcDb2dVertex
 10
3.115030476863264
 20
5.677285981725314
 30
0.0
  0
VERTEX
  5
188
330
184
100
AcDbEntity
  8
Wood
 62
   250
420
  2301728
370
    18
100
AcDbVertex
100
AcDb2dVertex
 10
3.197319444444449
 20
5.133259606579688
 30
0.0
  0
SEQEND
  5
189
330
184
100
AcDbEntity
  8
Wood
 62
   250
420
  2301728
370
    18
  0
POLYLINE
  5
18A
330
1F
100
AcDbEntity
  8
Wood
 62
   250
420
  2301728
370
    18
100
AcDb2dPolyline
 66
     1
 10
0.0
 20
0.0
 30
0.0
  0
VERTEX
  5
18B
330
18A
100
AcDbEntity
  8
Wood
 62
   250
420
  2301728
370
    18
100
AcDbVertex
100
AcDb2dVertex
 10
3.284179083701322
 20
6.065884583019598
 30
0.0
  0
VERTEX
  5
18C
330
18A
100
AcDbEntity
  8
Wood
 62
   250
420
  2301728
370
    18
100
AcDbVertex
100
AcDb2dVertex
 10
3.215602696544819
 20
5.96987625211164
 30
0.0
  0
VERTEX
  5
18D
330
18A
100
AcDbEntity
  8
Wood
 62
   250
420
  2301728
370
    18
100
AcDbVertex
100
AcDb2dVertex
 10
3.156174920268313
 20
5.590426261697353
 30
0.0
  0
VERTEX
  5
18E
330
18A
100
AcDbEntity
  8
Wood
 62
   250
420
  2301728
370
    18
100
AcDbVertex
100
AcDb2dVertex
 10
3.233892973860545
 20
5.110391551601828
 30
0.0
  0
SEQEND
  5
18F
330
18A
100
AcDbEntity
  8
Wood
 62
   250
420
  2301728
370
    18
  0
POLYLINE
  5
190
330
1F
100
AcDbEntity
  8
Wood
 62
   250
420
  2301728
370
    18
100
AcDb2dPolyline
 66
     1
 10
0.0
 20
0.0
 30
0.0
  0
VERTEX
  5
191
330
190
100
AcDbEntity
  8
Wood
 62
   250
420
  2301728
370
    18
100
AcDbVertex
100
AcDb2dVertex
 10
3.320752693888494
 20
6.056741527695016
 30
0.0
  0
VERTEX
  5
192
330
190
100
AcDbEntity
  8
Wood
 62
   250
420
  2301728
370
    18
100
AcDbVertex
100
AcDb2dVertex
 10
3.256754084394136
 20
5.956163752458047
 30
0.0
  0
VERTEX
  5
193
330
190
100
AcDbEntity
  8
Wood
 62
   250
420
  2301728
370
    18
100
AcDbVertex
100
AcDb2dVertex
 10
3.192748530455497
 20
5.535562374194442
 30
0.0
  0
VERTEX
  5
194
330
190
100
AcDbEntity
  8
Wood
 62
   250
420
  2301728
370
    18
100
AcDbVertex
100
AcDb2dVertex
 10
3.265895750829865
 20
5.101250000000012
 30
0.0
  0
SEQEND
  5
195
330
190
100
AcDbEntity
  8
Wood
 62
   250
420
  2301728
370
    18
  0
POLYLINE
  5
196
330
1F
100
AcDbEntity
  8
Wood
 62
   250
420
  2301728
370
    18
100
AcDb2dPolyline
 66
     1
 10
0.0
 20
0.0
 30
0.0
  0
VERTEX
  5
197
330
196
100
AcDbEntity
  8
Wood
 62
   250
420
  2301728
370
    18
100
AcDbVertex
100
AcDb2dVertex
 10
3.352755470857813
 20
6.043023472486007
 30
0.0
  0
VERTEX
  5
198
330
196
100
AcDbEntity
  8
Wood
 62
   250
420
  2301728
370
    18
100
AcDbVertex
100
AcDb2dVertex
 10
3.29332769458132
 20
5.942449863915599
 30
0.0
  0
VERTEX
  5
199
330
196
100
AcDbEntity
  8
Wood
 62
   250
420
  2301728
370
    18
100
AcDbVertex
100
AcDb2dVertex
 10
3.229322140642681
 20
5.476129042362522
 30
0.0
  0
VERTEX
  5
19A
330
196
100
AcDbEntity
  8
Wood
 62
   250
420
  2301728
370
    18
100
AcDbVertex
100
AcDb2dVertex
 10
3.307040194234913
 20
5.087537385512506
 30
0.0
  0
SEQEND
  5
19B
330
196
100
AcDbEntity
  8
Wood
 62
   250
420
  2301728
370
    18
  0
POLYLINE
  5
19C
330
1F
100
AcDbEntity
  8
Wood
 62
   250
420
  2301728
370
    18
100
AcDb2dPolyline
 66
     1
 10
0.0
 20
0.0
 30
0.0
  0
VERTEX
  5
19D
330
19C
100
AcDbEntity
  8
Wood
 62
   250
420
  2301728
370
    18
100
AcDbVertex
100
AcDb2dVertex
 10
3.384758247827158
 20
6.033881806050279
 30
0.0
  0
VERTEX
  5
19E
330
19C
100
AcDbEntity
  8
Wood
 62
   250
420
  2301728
370
    18
100
AcDbVertex
100
AcDb2dVertex
 10
3.339042971204233
 20
5.92873736426202
 30
0.0
  0
VERTEX
  5
19F
330
19C
100
AcDbEntity
  8
Wood
 62
   250
420
  2301728
370
    18
100
AcDbVertex
100
AcDb2dVertex
 10
3.275037417265594
 20
5.370984600574249
 30
0.0
  0
VERTEX
  5
1A0
330
19C
100
AcDbEntity
  8
Wood
 62
   250
420
  2301728
370
    18
100
AcDbVertex
100
AcDb2dVertex
 10
3.334472222222227
 20
5.073824885858913
 30
0.0
  0
SEQEND
  5
1A1
330
19C
100
AcDbEntity
  8
Wood
 62
   250
420
  2301728
370
    18
  0
POLYLINE
  5
1A2
330
1F
100
AcDbEntity
  8
Wood
 62
   250
420
  2301728
370
    18
100
AcDb2dPolyline
 66
     1
 10
0.0
 20
0.0
 30
0.0
  0
VERTEX
  5
1A3
330
1A2
100
AcDbEntity
  8
Wood
 62
   250
420
  2301728
370
    18
100
AcDbVertex
100
AcDb2dVertex
 10
3.416761024796478
 20
6.024740139614551
 30
0.0
  0
VERTEX
  5
1A4
330
1A2
100
AcDbEntity
  8
Wood
 62
   250
420
  2301728
370
    18
100
AcDbVertex
100
AcDb2dVertex
 10
3.366474914955688
 20
5.910441531390865
 30
0.0
  0
VERTEX
  5
1A5
330
1A2
100
AcDbEntity
  8
Wood
 62
   250
420
  2301728
370
    18
100
AcDbVertex
100
AcDb2dVertex
 10
3.316181860670642
 20
5.325262379507067
 30
0.0
  0
VERTEX
  5
1A6
330
1A2
100
AcDbEntity
  8
Wood
 62
   250
420
  2301728
370
    18
100
AcDbVertex
100
AcDb2dVertex
 10
3.361897137293555
 20
5.069254052641049
 30
0.0
  0
SEQEND
  5
1A7
330
1A2
100
AcDbEntity
  8
Wood
 62
   250
420
  2301728
370
    18
  0
POLYLINE
  5
1A8
330
1F
100
AcDbEntity
  8
Wood
 62
   250
420
  2301728
370
    18
100
AcDb2dPolyline
 66
     1
 10
0.0
 20
0.0
 30
0.0
  0
VERTEX
  5
1A9
330
1A8
100
AcDbEntity
  8
Wood
 62
   250
420
  2301728
370
    18
100
AcDbVertex
100
AcDb2dVertex
 10
3.375616581391417
 20
5.67271514850745
 30
0.0
  0
VERTEX
  5
1AA
330
1A8
100
AcDbEntity
  8
Wood
 62
   250
420
  2301728
370
    18
100
AcDbVertex
100
AcDb2dVertex
 10
3.352755470857813
 20
5.288695713764152
 30
0.0
  0
VERTEX
  5
1AB
330
1A8
100
AcDbEntity
  8
Wood
 62
   250
420
  2301728
370
    18
100
AcDbVertex
100
AcDb2dVertex
 10
3.380187414609281
 20
5.114962384819692
 30
0.0
  0
SEQEND
  5
1AC
330
1A8
100
AcDbEntity
  8
Wood
 62
   250
420
  2301728
370
    18
  0
MTEXT
  5
1AD
330
1F
100
AcDbEntity
  8
Wood
 62
   250
420
  2236191
100
AcDbMText
 10
3.515052053663466
 20
4.721555603875054
 30
0.0
 40
0.118
 41
0.0
 46
0.0
 71
     7
 72
     1
  1
\fHelvetica Neue LT Std 57 Condensed|b0|i0|c0|p34;\W1;Joist
 73
     1
 44
1.0
  0
POLYLINE
  5
1AE
330
1F
100
AcDbEntity
  8
Wood
 62
   250
420
  2236191
370
    18
100
AcDb2dPolyline
 66
     1
 10
0.0
 20
0.0
 30
0.0
  0
VERTEX
  5
1AF
330
1AE
100
AcDbEntity
  8
Wood
 62
   250
420
  2236191
370
    18
100
AcDbVertex
100
AcDb2dVertex
 10
4.227083595384063
 20
5.504407787390871
 30
0.0
  0
VERTEX
  5
1B0
330
1AE
100
AcDbEntity
  8
Wood
 62
   250
420
  2236191
370
    18
100
AcDbVertex
100
AcDb2dVertex
 10
3.985424658069683
 20
5.825943940340216
 30
0.0
  0
SEQEND
  5
1B1
330
1AE
100
AcDbEntity
  8
Wood
 62
   250
420
  2236191
370
    18
  0
POLYLINE
  5
1B2
330
1F
100
AcDbEntity
  8
Wood
 62
   250
420
  2236191
370
    18
100
AcDb2dPolyline
 66
     1
 10
0.0
 20
0.0
 30
0.0
  0
VERTEX
  5
1B3
330
1B2
100
AcDbEntity
  8
Wood
 62
   250
420
  2236191
370
    18
100
AcDbVertex
100
AcDb2dVertex
 10
3.604314420803778
 20
4.888002364066197
 30
0.0
  0
VERTEX
  5
1B4
330
1B2
100
AcDbEntity
  8
Wood
 62
   250
420
  2236191
370
    18
100
AcDbVertex
100
AcDb2dVertex
 10
3.527517875371561
 20
5.101250000000012
 30
0.0
  0
SEQEND
  5
1B5
330
1B2
100
AcDbEntity
  8
Wood
 62
   250
420
  2236191
370
    18
  0
SPLINE
  5
1B7
330
1F
100
AcDbEntity
  8
HU8
370
     0
100
AcDbSpline
210
0.0
220
0.0
230
1.0
 70
    11
 71
     3
 72
    47
 73
    43
 74
     0
 42
0.0000000001
 43
0.0000000001
 12
1.0
 22
0.0
 32
0.0
 13
1.0
 23
0.0
 33
0.0
 40
0.0
 40
0.0
 40
0.0
 40
0.0
 40
1.0
 40
1.0
 40
1.0
 40
2.0
 40
2.0
 40
2.0
 40
3.0
 40
3.0
 40
3.0
 40
4.0
 40
4.0
 40
4.0
 40
5.0
 40
5.0
 40
5.0
 40
6.0
 40
6.0
 40
6.0
 40
7.0
 40
7.0
 40
7.0
 40
8.0
 40
8.0
 40
8.0
 40
9.0
 40
9.0
 40
9.0
 40
10.0
 40
10.0
 40
10.0
 40
11.0
 40
11.0
 40
11.0
 40
12.0
 40
12.0
 40
12.0
 40
13.0
 40
13.0
 40
13.0
 40
14.0
 40
14.0
 40
14.0
 40
14.0
 10
4.715277769444785
 20
6.54224317598203
 30
0.0
 10
4.715277769444785
 20
6.54224317598203
 30
0.0
 10
4.715277769444785
 20
5.649882064870907
 30
0.0
 10
4.715277769444785
 20
5.649882064870907
 30
0.0
 10
4.715277769444785
 20
5.649882064870907
 30
0.0
 10
4.260416666666666
 20
5.430555554912416
 30
0.0
 10
4.260416666666666
 20
5.430555554912416
 30
0.0
 10
4.260416666666666
 20
5.430555554912416
 30
0.0
 10
4.259256944473742
 20
5.335652777426907
 30
0.0
 10
4.260416666666666
 20
5.321763888888881
 30
0.0
 10
4.261576388859591
 20
5.307875000350855
 30
0.0
 10
4.247687500321566
 20
5.303250000467693
 30
0.0
 10
4.247687500321566
 20
5.303250000467693
 30
0.0
 10
4.247687500321566
 20
5.303250000467693
 30
0.0
 10
3.697137514229628
 20
5.124975004971298
 30
0.0
 10
3.697137514229628
 20
5.124975004971298
 30
0.0
 10
3.679776403557096
 20
5.118030560702285
 30
0.0
 10
3.664727885235
 20
5.124975004971298
 30
0.0
 10
3.664727885235
 20
5.124975004971298
 30
0.0
 10
3.664727885235
 20
5.124975004971298
 30
0.0
 10
3.645054182212031
 20
5.136544449123473
 30
0.0
 10
3.645054182212031
 20
5.136544449123473
 30
0.0
 10
3.645054182212031
 20
5.136544449123473
 30
0.0
 10
3.676304181422589
 20
5.146961115526993
 30
0.0
 10
3.676304181422589
 20
5.146961115526993
 30
0.0
 10
3.676304181422589
 20
5.146961115526993
 30
0.0
 10
3.676304181422589
 20
5.19904444754459
 30
0.0
 10
3.676304181422589
 20
5.19904444754459
 30
0.0
 10
3.676304181422589
 20
5.19904444754459
 30
0.0
 10
3.9583333409646
 20
5.652777769415656
 30
0.0
 10
3.9583333409646
 20
5.652777769415656
 30
0.0
 10
3.9583333409646
 20
5.652777769415656
 30
0.0
 10
3.9583333409646
 20
6.586805523597907
 30
0.0
 10
3.9583333409646
 20
6.586805523597907
 30
0.0
 10
3.9583333409646
 20
6.586805523597907
 30
0.0
 10
4.263888888801185
 20
6.659722188422544
 30
0.0
 10
4.263888888801185
 20
6.659722188422544
 30
0.0
 10
4.281249999473705
 20
6.66319441055705
 30
0.0
 10
4.298611110146238
 20
6.656249966288037
 30
0.0
 10
4.298611110146238
 20
6.656249966288037
 30
0.0
 10
4.298611110146238
 20
6.656249966288037
 30
0.0
 10
4.715277769444785
 20
6.54224317598203
 30
0.0
 10
4.715277769444785
 20
6.54224317598203
 30
0.0
  0
HATCH
  5
1B8
330
1F
100
AcDbEntity
  8
HU8
 62
   250
420
  2301728
100
AcDbHatch
 10
0.0
 20
0.0
 30
0.0
210
0.0
220
0.0
230
1.0
  2
SOLID
 70
     1
 71
     0
 91
        1
 92
        1
 93
        1
 72
     4
 94
        3
 73
     0
 74
     1
 95
       47
 96
       43
 40
0.0
 40
0.0
 40
0.0
 40
0.0
 40
1.0
 40
1.0
 40
1.0
 40
2.0
 40
2.0
 40
2.0
 40
3.0
 40
3.0
 40
3.0
 40
4.0
 40
4.0
 40
4.0
 40
5.0
 40
5.0
 40
5.0
 40
6.0
 40
6.0
 40
6.0
 40
7.0
 40
7.0
 40
7.0
 40
8.0
 40
8.0
 40
8.0
 40
9.0
 40
9.0
 40
9.0
 40
10.0
 40
10.0
 40
10.0
 40
11.0
 40
11.0
 40
11.0
 40
12.0
 40
12.0
 40
12.0
 40
13.0
 40
13.0
 40
13.0
 40
14.0
 40
14.0
 40
14.0
 40
14.0
 10
4.715277769444785
 20
6.54224317598203
 10
4.715277769444785
 20
6.54224317598203
 10
4.715277769444785
 20
5.649882064870907
 10
4.715277769444785
 20
5.649882064870907
 10
4.715277769444785
 20
5.649882064870907
 10
4.260416666666666
 20
5.430555554912416
 10
4.260416666666666
 20
5.430555554912416
 10
4.260416666666666
 20
5.430555554912416
 10
4.259256944473742
 20
5.335652777426907
 10
4.260416666666666
 20
5.321763888888881
 10
4.261576388859591
 20
5.307875000350855
 10
4.247687500321566
 20
5.303250000467693
 10
4.247687500321566
 20
5.303250000467693
 10
4.247687500321566
 20
5.303250000467693
 10
3.697137514229628
 20
5.124975004971298
 10
3.697137514229628
 20
5.124975004971298
 10
3.679776403557096
 20
5.118030560702285
 10
3.664727885235
 20
5.124975004971298
 10
3.664727885235
 20
5.124975004971298
 10
3.664727885235
 20
5.124975004971298
 10
3.645054182212031
 20
5.136544449123473
 10
3.645054182212031
 20
5.136544449123473
 10
3.645054182212031
 20
5.136544449123473
 10
3.676304181422589
 20
5.146961115526993
 10
3.676304181422589
 20
5.146961115526993
 10
3.676304181422589
 20
5.146961115526993
 10
3.676304181422589
 20
5.19904444754459
 10
3.676304181422589
 20
5.19904444754459
 10
3.676304181422589
 20
5.19904444754459
 10
3.9583333409646
 20
5.652777769415656
 10
3.9583333409646
 20
5.652777769415656
 10
3.9583333409646
 20
5.652777769415656
 10
3.9583333409646
 20
6.586805523597907
 10
3.9583333409646
 20
6.586805523597907
 10
3.9583333409646
 20
6.586805523597907
 10
4.263888888801185
 20
6.659722188422544
 10
4.263888888801185
 20
6.659722188422544
 10
4.281249999473705
 20
6.66319441055705
 10
4.298611110146238
 20
6.656249966288037
 10
4.298611110146238
 20
6.656249966288037
 10
4.298611110146238
 20
6.656249966288037
 10
4.715277769444785
 20
6.54224317598203
 10
4.715277769444785
 20
6.54224317598203
 97
        0
 97
        0
 75
     2
 76
     1
 98
        0
  0
SPLINE
  5
1B9
330
1F
100
AcDbEntity
  8
HU8
 62
     7
420
 16776959
370
     9
100
AcDbSpline
210
0.0
220
0.0
230
1.0
 70
     8
 71
     3
 72
    35
 73
    31
 74
     0
 42
0.0000000001
 43
0.0000000001
 12
1.0
 22
0.0
 32
0.0
 13
1.0
 23
0.0
 33
0.0
 40
0.0
 40
0.0
 40
0.0
 40
0.0
 40
1.0
 40
1.0
 40
1.0
 40
2.0
 40
2.0
 40
2.0
 40
3.0
 40
3.0
 40
3.0
 40
4.0
 40
4.0
 40
4.0
 40
5.0
 40
5.0
 40
5.0
 40
6.0
 40
6.0
 40
6.0
 40
7.0
 40
7.0
 40
7.0
 40
8.0
 40
8.0
 40
8.0
 40
9.0
 40
9.0
 40
9.0
 40
10.0
 40
10.0
 40
10.0
 40
10.0
 10
3.67399157385383
 20
5.122655440180905
 30
0.0
 10
3.692505462275019
 20
5.115710995911892
 30
0.0
 10
3.697137406602451
 20
5.141183217490632
 30
0.0
 10
3.697137406602451
 20
5.141183217490632
 30
0.0
 10
3.697137406602451
 20
5.141183217490632
 30
0.0
 10
3.697137406602451
 20
5.189794327373723
 30
0.0
 10
3.697137406602451
 20
5.189794327373723
 30
0.0
 10
3.697137406602451
 20
5.189794327373723
 30
0.0
 10
3.979159621700192
 20
5.643527777777788
 30
0.0
 10
3.979159621700192
 20
5.643527777777788
 30
0.0
 10
3.979159621700192
 20
5.643527777777788
 30
0.0
 10
3.979159621700192
 20
6.574076236848263
 30
0.0
 10
3.979159621700192
 20
6.574076236848263
 30
0.0
 10
3.979159621700192
 20
6.574076236848263
 30
0.0
 10
4.270833333333333
 20
6.643520679538394
 30
0.0
 10
4.270833333333333
 20
6.643520679538394
 30
0.0
 10
4.280083333333323
 20
6.645833333333333
 30
0.0
 10
4.291666666666666
 20
6.643520679538394
 30
0.0
 10
4.291666666666666
 20
6.643520679538394
 30
0.0
 10
4.291666666666666
 20
6.643520679538394
 30
0.0
 10
4.694444444444444
 20
6.534145681599713
 30
0.0
 10
4.694444444444444
 20
6.534145681599713
 30
0.0
 10
4.694444444444444
 20
6.534145681599713
 30
0.0
 10
4.694444444444444
 20
5.638312370897034
 30
0.0
 10
4.694444444444444
 20
5.638312370897034
 30
0.0
 10
4.694444444444444
 20
5.638312370897034
 30
0.0
 10
4.259256836846563
 20
5.444444444444444
 30
0.0
 10
4.259256836846563
 20
5.444444444444444
 30
0.0
 10
4.259256836846563
 20
5.444444444444444
 30
0.0
 10
4.260416666666666
 20
5.430555555555555
 30
0.0
 10
4.260416666666666
 20
5.430555555555555
 30
0.0
  0
POLYLINE
  5
1BA
330
1F
100
AcDbEntity
  8
HU8
 62
     7
420
 16776959
370
     9
100
AcDb2dPolyline
 66
     1
 10
0.0
 20
0.0
 30
0.0
  0
VERTEX
  5
1BB
330
1BA
100
AcDbEntity
  8
HU8
 62
     7
420
 16776959
370
     9
100
AcDbVertex
100
AcDb2dVertex
 10
3.676304073795412
 20
5.199044327140048
 30
0.0
  0
VERTEX
  5
1BC
330
1BA
100
AcDbEntity
  8
HU8
 62
     7
420
 16776959
370
     9
100
AcDbVertex
100
AcDb2dVertex
 10
3.699449906544032
 20
5.187474882987872
 30
0.0
  0
SEQEND
  5
1BD
330
1BA
100
AcDbEntity
  8
HU8
 62
     7
420
 16776959
370
     9
  0
POLYLINE
  5
1BE
330
1F
100
AcDbEntity
  8
HU8
 62
     7
420
 16776959
370
     9
100
AcDb2dPolyline
 66
     1
 10
0.0
 20
0.0
 30
0.0
  0
VERTEX
  5
1BF
330
1BE
100
AcDbEntity
  8
HU8
 62
     7
420
 16776959
370
     9
100
AcDbVertex
100
AcDb2dVertex
 10
3.958333333333333
 20
5.652777777777778
 30
0.0
  0
VERTEX
  5
1C0
330
1BE
100
AcDbEntity
  8
HU8
 62
     7
420
 16776959
370
     9
100
AcDbVertex
100
AcDb2dVertex
 10
3.981479066086043
 20
5.643527777777788
 30
0.0
  0
SEQEND
  5
1C1
330
1BE
100
AcDbEntity
  8
HU8
 62
     7
420
 16776959
370
     9
  0
POLYLINE
  5
1C2
330
1F
100
AcDbEntity
  8
HU8
 62
     7
420
 16776959
370
     9
100
AcDb2dPolyline
 66
     1
 10
0.0
 20
0.0
 30
0.0
  0
VERTEX
  5
1C3
330
1C2
100
AcDbEntity
  8
HU8
 62
     7
420
 16776959
370
     9
100
AcDbVertex
100
AcDb2dVertex
 10
3.956020733395841
 20
6.583340125503128
 30
0.0
  0
VERTEX
  5
1C4
330
1C2
100
AcDbEntity
  8
HU8
 62
     7
420
 16776959
370
     9
100
AcDbVertex
100
AcDb2dVertex
 10
3.97685406620288
 20
6.576395681234114
 30
0.0
  0
SEQEND
  5
1C5
330
1C2
100
AcDbEntity
  8
HU8
 62
     7
420
 16776959
370
     9
  0
SPLINE
  5
1C6
330
1F
100
AcDbEntity
  8
HU8
 62
     7
420
 16776959
370
     9
100
AcDbSpline
210
0.0
220
0.0
230
1.0
 70
    11
 71
     3
 72
    47
 73
    43
 74
     0
 42
0.0000000001
 43
0.0000000001
 12
1.0
 22
0.0
 32
0.0
 13
1.0
 23
0.0
 33
0.0
 40
0.0
 40
0.0
 40
0.0
 40
0.0
 40
1.0
 40
1.0
 40
1.0
 40
2.0
 40
2.0
 40
2.0
 40
3.0
 40
3.0
 40
3.0
 40
4.0
 40
4.0
 40
4.0
 40
5.0
 40
5.0
 40
5.0
 40
6.0
 40
6.0
 40
6.0
 40
7.0
 40
7.0
 40
7.0
 40
8.0
 40
8.0
 40
8.0
 40
9.0
 40
9.0
 40
9.0
 40
10.0
 40
10.0
 40
10.0
 40
11.0
 40
11.0
 40
11.0
 40
12.0
 40
12.0
 40
12.0
 40
13.0
 40
13.0
 40
13.0
 40
14.0
 40
14.0
 40
14.0
 40
14.0
 10
4.715277777777778
 20
6.542242903617383
 30
0.0
 10
4.715277777777778
 20
6.542242903617383
 30
0.0
 10
4.715277777777778
 20
5.649881815049209
 30
0.0
 10
4.715277777777778
 20
5.649881815049209
 30
0.0
 10
4.715277777777778
 20
5.649881815049209
 30
0.0
 10
4.260416666666666
 20
5.430555555555555
 30
0.0
 10
4.260416666666666
 20
5.430555555555555
 30
0.0
 10
4.260416666666666
 20
5.430555555555555
 30
0.0
 10
4.259256836846563
 20
5.33565277777777
 30
0.0
 10
4.260416666666666
 20
5.321763888888881
 30
0.0
 10
4.261576281232414
 20
5.307874999999992
 30
0.0
 10
4.247687392694388
 20
5.30325000000001
 30
0.0
 10
4.247687392694388
 20
5.30325000000001
 30
0.0
 10
4.247687392694388
 20
5.30325000000001
 30
0.0
 10
3.697137406602451
 20
5.124974884566755
 30
0.0
 10
3.697137406602451
 20
5.124974884566755
 30
0.0
 10
3.679776295929918
 20
5.118030440297742
 30
0.0
 10
3.664727685198967
 20
5.124974884566755
 30
0.0
 10
3.664727685198967
 20
5.124974884566755
 30
0.0
 10
3.664727685198967
 20
5.124974884566755
 30
0.0
 10
3.645054074584853
 20
5.136544328718931
 30
0.0
 10
3.645054074584853
 20
5.136544328718931
 30
0.0
 10
3.645054074584853
 20
5.136544328718931
 30
0.0
 10
3.676304073795412
 20
5.14696099512245
 30
0.0
 10
3.676304073795412
 20
5.14696099512245
 30
0.0
 10
3.676304073795412
 20
5.14696099512245
 30
0.0
 10
3.676304073795412
 20
5.199044327140048
 30
0.0
 10
3.676304073795412
 20
5.199044327140048
 30
0.0
 10
3.676304073795412
 20
5.199044327140048
 30
0.0
 10
3.958333333333333
 20
5.652777777777778
 30
0.0
 10
3.958333333333333
 20
5.652777777777778
 30
0.0
 10
3.958333333333333
 20
5.652777777777778
 30
0.0
 10
3.958333333333333
 20
6.586805555555555
 30
0.0
 10
3.958333333333333
 20
6.586805555555555
 30
0.0
 10
3.958333333333333
 20
6.586805555555555
 30
0.0
 10
4.263888888888888
 20
6.659722222222221
 30
0.0
 10
4.263888888888888
 20
6.659722222222221
 30
0.0
 10
4.28125
 20
6.663194444444444
 30
0.0
 10
4.298611111111111
 20
6.65625
 30
0.0
 10
4.298611111111111
 20
6.65625
 30
0.0
 10
4.298611111111111
 20
6.65625
 30
0.0
 10
4.715277777777778
 20
6.542242903617383
 30
0.0
 10
4.715277777777778
 20
6.542242903617383
 30
0.0
  0
INSERT
  5
1C8
330
1F
100
AcDbEntity
  8
HU8
100
AcDbBlockReference
  2
block 2
 10
0.0
 20
0.0
 30
0.0
  0
INSERT
  5
1D8
330
1F
100
AcDbEntity
  8
HU8
100
AcDbBlockReference
  2
block 3
 10
0.0
 20
0.0
 30
0.0
  0
INSERT
  5
1DE
330
1F
100
AcDbEntity
  8
HU8
100
AcDbBlockReference
  2
block 4
 10
0.0
 20
0.0
 30
0.0
  0
INSERT
  5
1E4
330
1F
100
AcDbEntity
  8
HU8
100
AcDbBlockReference
  2
block 5
 10
0.0
 20
0.0
 30
0.0
  0
INSERT
  5
1EA
330
1F
100
AcDbEntity
  8
HU8
100
AcDbBlockReference
  2
block 6
 10
0.0
 20
0.0
 30
0.0
  0
INSERT
  5
1F0
330
1F
100
AcDbEntity
  8
HU8
100
AcDbBlockReference
  2
block 7
 10
0.0
 20
0.0
 30
0.0
  0
INSERT
  5
1F6
330
1F
100
AcDbEntity
  8
HU8
100
AcDbBlockReference
  2
block 8
 10
0.0
 20
0.0
 30
0.0
  0
INSERT
  5
1FC
330
1F
100
AcDbEntity
  8
HU8
100
AcDbBlockReference
  2
block 9
 10
0.0
 20
0.0
 30
0.0
  0
INSERT
  5
202
330
1F
100
AcDbEntity
  8
HU8
100
AcDbBlockReference
  2
block 10
 10
0.0
 20
0.0
 30
0.0
  0
INSERT
  5
208
330
1F
100
AcDbEntity
  8
HU8
100
AcDbBlockReference
  2
block 11
 10
0.0
 20
0.0
 30
0.0
  0
INSERT
  5
20E
330
1F
100
AcDbEntity
  8
HU8
100
AcDbBlockReference
  2
block 12
 10
0.0
 20
0.0
 30
0.0
  0
POLYLINE
  5
213
330
1F
100
AcDbEntity
  8
HU8
 62
     7
420
 16776959
370
     9
100
AcDb2dPolyline
 66
     1
 10
0.0
 20
0.0
 30
0.0
  0
VERTEX
  5
214
330
213
100
AcDbEntity
  8
HU8
 62
     7
420
 16776959
370
     9
100
AcDbVertex
100
AcDb2dVertex
 10
4.694444444444444
 20
6.534145681599713
 30
0.0
  0
VERTEX
  5
215
330
213
100
AcDbEntity
  8
HU8
 62
     7
420
 16776959
370
     9
100
AcDbVertex
100
AcDb2dVertex
 10
4.715277777777778
 20
6.542242903617383
 30
0.0
  0
SEQEND
  5
216
330
213
100
AcDbEntity
  8
HU8
 62
     7
420
 16776959
370
     9
  0
POLYLINE
  5
217
330
1F
100
AcDbEntity
  8
HU8
370
     0
100
AcDb2dPolyline
 66
     1
 10
0.0
 20
0.0
 30
0.0
  0
VERTEX
  5
218
330
217
100
AcDbEntity
  8
HU8
370
     0
100
AcDbVertex
100
AcDb2dVertex
 10
4.694444444444444
 20
5.638312370897034
 30
0.0
  0
VERTEX
  5
219
330
217
100
AcDbEntity
  8
HU8
370
     0
100
AcDbVertex
100
AcDb2dVertex
 10
4.715277777777778
 20
5.649881815049209
 30
0.0
  0
SEQEND
  5
21A
330
217
100
AcDbEntity
  8
HU8
370
     0
  0
MTEXT
  5
21B
330
1F
100
AcDbEntity
  8
HU8
 62
   250
420
  2301728
100
AcDbMText
 10
3.329526159498426
 20
4.239552153481378
 30
0.0
 40
0.118
 41
0.0
 46
0.0
 71
     7
 72
     1
  1
\fHelvetica Neue LT Std 55 Roman|b0|i0|c0|p34;\W1;SIMPSON Strong-Tie\H0.068794;®\H0.118; ^C
 73
     1
 44
1.0
  0
MTEXT
  5
21C
330
1F
100
AcDbEntity
  8
HU8
 62
   250
420
  2301728
100
AcDbMText
 10
3.579892370435926
 20
4.039546728134155
 30
0.0
 40
0.118
 41
0.0
 46
0.0
 71
     7
 72
     1
  1
\fHelvetica Neue LT Std 55 Roman|b0|i0|c0|p34;\W1;SAE Installation 
 73
     1
 44
1.0
  0
MTEXT
  5
21D
330
1F
100
AcDbEntity
  8
HU8
 62
   250
420
  2236191
100
AcDbMText
 10
4.459646013047959
 20
4.721553219689263
 30
0.0
 40
0.118
 41
0.0
 46
0.0
 71
     7
 72
     1
  1
\fHelvetica Neue LT Std 57 Condensed|b0|i0|c0|p34;\W1;SAE
 73
     1
 44
1.0
  0
MTEXT
  5
21E
330
1F
100
AcDbEntity
  8
HU8
 62
   250
420
  2236191
100
AcDbMText
 10
4.868052588568793
 20
4.721553219689263
 30
0.0
 40
0.118
 41
0.0
 46
0.0
 71
     7
 72
     1
  1
\fHelvetica Neue LT Std 57 Condensed|b0|i0|c0|p34;\W1;Beam
 73
     1
 44
1.0
  0
POLYLINE
  5
21F
330
1F
100
AcDbEntity
  8
HU8
 62
   250
420
  2236191
370
    18
100
AcDb2dPolyline
 66
     1
 10
0.0
 20
0.0
 30
0.0
  0
VERTEX
  5
220
330
21F
100
AcDbEntity
  8
HU8
 62
   250
420
  2236191
370
    18
100
AcDbVertex
100
AcDb2dVertex
 10
4.518369175627236
 20
4.89829749103943
 30
0.0
  0
VERTEX
  5
221
330
21F
100
AcDbEntity
  8
HU8
 62
   250
420
  2236191
370
    18
100
AcDbVertex
100
AcDb2dVertex
 10
4.189115771940881
 20
5.267361111111111
 30
0.0
  0
SEQEND
  5
222
330
21F
100
AcDbEntity
  8
HU8
 62
   250
420
  2236191
370
    18
  0
POLYLINE
  5
223
330
1F
100
AcDbEntity
  8
HU8
 62
   250
420
  2236191
370
    18
100
AcDb2dPolyline
 66
     1
 10
0.0
 20
0.0
 30
0.0
  0
VERTEX
  5
224
330
223
100
AcDbEntity
  8
HU8
 62
   250
420
  2236191
370
    18
100
AcDbVertex
100
AcDb2dVertex
 10
4.961805555555555
 20
4.888002364066197
 30
0.0
  0
VERTEX
  5
225
330
223
100
AcDbEntity
  8
HU8
 62
   250
420
  2236191
370
    18
100
AcDbVertex
100
AcDb2dVertex
 10
4.878776075934588
 20
5.121527777777778
 30
0.0
  0
SEQEND
  5
226
330
223
100
AcDbEntity
  8
HU8
 62
   250
420
  2236191
370
    18
  0
INSERT
  5
228
330
1F
100
AcDbEntity
  8
HU8
100
AcDbBlockReference
  2
block 13
 10
0.0
 20
0.0
 30
0.0
  0
ENDSEC
  0
SECTION
  2
OBJECTS
  0
DICTIONARY
  5
C
330
0
100
AcDbDictionary
281
     1
  3
ACAD_GROUP
350
D
  3
ACAD_LAYOUT
350
1A
  3
ACAD_MATERIAL
350
3B
  3
ACAD_MLEADERSTYLE
350
237
  3
ACAD_MLINESTYLE
350
17
  3
ACAD_PLOTSETTINGS
350
19
  3
ACAD_PLOTSTYLENAME
350
E
  3
ACAD_TABLESTYLE
350
236
  3
ACAD_VISUALSTYLE
350
2A
  0
SUN
  5
3F
330
29
100
AcDbSun
 90
        1
290
     0
 63
     7
421
 16777215
 40
1.0
291
     1
 91
  2455826
 92
 54000000
292
     0
 70
     2
 71
   256
280
     1
  0
DICTIONARY
  5
D
102
{ACAD_REACTORS
330
C
102
}
330
C
100
AcDbDictionary
281
     1
  0
DICTIONARY
  5
1A
102
{ACAD_REACTORS
330
C
102
}
330
C
100
AcDbDictionary
281
     1
  3
Layout1
350
1E
  3
Layout2
350
26
  3
Model
350
22
  0
DICTIONARY
  5
3B
102
{ACAD_REACTORS
330
C
102
}
330
C
100
AcDbDictionary
281
     1
  3
ByBlock
350
3D
  3
ByLayer
350
3C
  3
Global
350
3E
  0
DICTIONARY
  5
237
102
{ACAD_REACTORS
330
C
102
}
330
C
100
AcDbDictionary
281
     1
  0
DICTIONARY
  5
17
102
{ACAD_REACTORS
330
C
102
}
330
C
100
AcDbDictionary
281
     1
  3
Standard
350
18
  0
DICTIONARY
  5
19
102
{ACAD_REACTORS
330
C
102
}
330
C
100
AcDbDictionary
281
     1
  0
ACDBDICTIONARYWDFLT
  5
E
102
{ACAD_REACTORS
330
C
102
}
330
C
100
AcDbDictionary
281
     1
  3
Normal
350
F
100
AcDbDictionaryWithDefault
340
F
  0
DICTIONARY
  5
236
102
{ACAD_REACTORS
330
C
102
}
330
C
100
AcDbDictionary
281
     1
  0
DICTIONARY
  5
2A
102
{ACAD_REACTORS
330
C
102
}
330
C
100
AcDbDictionary
281
     1
  3
2dWireframe
350
2F
  3
3D Hidden
350
31
  3
3dWireframe
350
30
  3
Basic
350
32
  3
Brighten
350
36
  3
ColorChange
350
3A
  3
Conceptual
350
34
  3
Dim
350
35
  3
Facepattern
350
39
  3
Flat
350
2B
  3
FlatWithEdges
350
2C
  3
Gouraud
350
2D
  3
GouraudWithEdges
350
2E
  3
Linepattern
350
38
  3
Realistic
350
33
  3
Thicken
350
37
  0
LAYOUT
  5
1E
102
{ACAD_REACTORS
330
1A
102
}
330
1A
100
AcDbPlotSettings
  1

  2
none_device
  4

  6

 40
0.0
 41
0.0
 42
0.0
 43
0.0
 44
0.0
 45
0.0
 46
0.0
 47
0.0
 48
0.0
 49
0.0
140
0.0
141
0.0
142
1.0
143
1.0
 70
   688
 72
     0
 73
     0
 74
     5
  7

 75
    16
 76
     0
 77
     2
 78
   300
147
1.0
148
0.0
149
0.0
100
AcDbLayout
  1
Layout1
 70
     1
 71
     1
 10
0.0
 20
0.0
 11
12.0
 21
9.0
 12
0.0
 22
0.0
 32
0.0
 14
1.000000000000000E+20
 24
1.000000000000000E+20
 34
1.000000000000000E+20
 15
-1.000000000000000E+20
 25
-1.000000000000000E+20
 35
-1.000000000000000E+20
146
0.0
 13
0.0
 23
0.0
 33
0.0
 16
1.0
 26
0.0
 36
0.0
 17
0.0
 27
1.0
 37
0.0
 76
     0
330
1B
  0
LAYOUT
  5
26
102
{ACAD_REACTORS
330
1A
102
}
330
1A
100
AcDbPlotSettings
  1

  2
none_device
  4

  6

 40
0.0
 41
0.0
 42
0.0
 43
0.0
 44
0.0
 45
0.0
 46
0.0
 47
0.0
 48
0.0
 49
0.0
140
0.0
141
0.0
142
1.0
143
1.0
 70
   688
 72
     0
 73
     0
 74
     5
  7

 75
    16
 76
     0
 77
     2
 78
   300
147
1.0
148
0.0
149
0.0
100
AcDbLayout
  1
Layout2
 70
     1
 71
     2
 10
0.0
 20
0.0
 11
0.0
 21
0.0
 12
0.0
 22
0.0
 32
0.0
 14
0.0
 24
0.0
 34
0.0
 15
0.0
 25
0.0
 35
0.0
146
0.0
 13
0.0
 23
0.0
 33
0.0
 16
1.0
 26
0.0
 36
0.0
 17
0.0
 27
1.0
 37
0.0
 76
     0
330
23
  0
LAYOUT
  5
22
102
{ACAD_REACTORS
330
1A
102
}
330
1A
100
AcDbPlotSettings
  1

  2
none_device
  4

  6

 40
0.0
 41
0.0
 42
0.0
 43
0.0
 44
0.0
 45
0.0
 46
0.0
 47
0.0
 48
0.0
 49
0.0
140
0.0
141
0.0
142
1.0
143
1.0
 70
  1712
 72
     0
 73
     0
 74
     0
  7

 75
     0
 76
     0
 77
     2
 78
   300
147
1.0
148
0.0
149
0.0
100
AcDbLayout
  1
Model
 70
     1
 71
     0
 10
0.0
 20
0.0
 11
12.0
 21
9.0
 12
0.0
 22
0.0
 32
0.0
 14
1.000000000000000E+20
 24
1.000000000000000E+20
 34
1.000000000000000E+20
 15
-1.000000000000000E+20
 25
-1.000000000000000E+20
 35
-1.000000000000000E+20
146
0.0
 13
0.0
 23
0.0
 33
0.0
 16
1.0
 26
0.0
 36
0.0
 17
0.0
 27
1.0
 37
0.0
 76
     0
330
1F
331
29
  0
MATERIAL
  5
3D
102
{ACAD_REACTORS
330
3B
102
}
330
3B
100
AcDbMaterial
  1
ByBlock
 72
     1
 94
      127
  0
MATERIAL
  5
3C
102
{ACAD_REACTORS
330
3B
102
}
330
3B
100
AcDbMaterial
  1
ByLayer
 72
     1
 94
      127
  0
MATERIAL
  5
3E
102
{ACAD_REACTORS
330
3B
102
}
330
3B
100
AcDbMaterial
  1
Global
 72
     1
 94
      127
  0
MLINESTYLE
  5
18
102
{ACAD_REACTORS
330
17
102
}
330
17
100
AcDbMlineStyle
  2
Standard
 70
     0
  3

 62
   256
 51
90.0
 52
90.0
 71
     2
 49
0.5
 62
   256
  6
BYLAYER
 49
-0.5
 62
   256
  6
BYLAYER
  0
ACDBPLACEHOLDER
  5
F
102
{ACAD_REACTORS
330
E
102
}
330
E
  0
VISUALSTYLE
  5
2F
102
{ACAD_REACTORS
330
2A
102
}
330
2A
100
AcDbVisualStyle
  2
2dWireframe
 70
     4
177
     2
291
     0
 71
     0
176
     1
 72
     2
176
     1
 73
     0
176
     1
 90
        0
176
     1
 40
-0.6
176
     1
 41
-30.0
176
     1
 62
     5
 63
     7
421
 16777215
176
     1
 74
     1
176
     1
 91
        4
176
     1
 64
     7
176
     1
 65
   257
176
     1
 75
     1
176
     1
175
     1
176
     1
 42
1.0
176
     1
 92
        0
176
     1
 66
   257
176
     1
 43
1.0
176
     1
 76
     1
176
     1
 77
     6
176
     1
 78
     2
176
     1
 67
     7
176
     1
 79
     5
176
     1
170
     0
176
     1
171
     0
176
     1
290
     0
176
     1
 93
        1
176
     1
 44
0.0
176
     1
173
     0
176
     1
  0
VISUALSTYLE
  5
31
102
{ACAD_REACTORS
330
2A
102
}
330
2A
100
AcDbVisualStyle
  2
3D Hidden
 70
     6
177
     2
291
     0
 71
     1
176
     1
 72
     2
176
     1
 73
     2
176
     1
 90
        0
176
     1
 40
-0.6
176
     1
 41
-30.0
176
     1
 62
     5
 63
     7
421
 16777215
176
     1
 74
     2
176
     1
 91
        2
176
     1
 64
     7
176
     1
 65
   257
176
     1
 75
     2
176
     1
175
     1
176
     1
 42
40.0
176
     1
 92
        0
176
     1
 66
   257
176
     1
 43
1.0
176
     1
 76
     1
176
     1
 77
     6
176
     1
 78
     2
176
     1
 67
     7
176
     1
 79
     3
176
     1
170
     0
176
     1
171
     0
176
     1
290
     0
176
     1
 93
        1
176
     1
 44
0.0
176
     1
173
     0
176
     1
  0
VISUALSTYLE
  5
30
102
{ACAD_REACTORS
330
2A
102
}
330
2A
100
AcDbVisualStyle
  2
3dWireframe
 70
     5
177
     2
291
     0
 71
     0
176
     1
 72
     2
176
     1
 73
     0
176
     1
 90
        0
176
     1
 40
-0.6
176
     1
 41
-30.0
176
     1
 62
     5
 63
     7
421
 16777215
176
     1
 74
     1
176
     1
 91
        4
176
     1
 64
     7
176
     1
 65
   257
176
     1
 75
     1
176
     1
175
     1
176
     1
 42
1.0
176
     1
 92
        0
176
     1
 66
   257
176
     1
 43
1.0
176
     1
 76
     1
176
     1
 77
     6
176
     1
 78
     2
176
     1
 67
     7
176
     1
 79
     5
176
     1
170
     0
176
     1
171
     0
176
     1
290
     0
176
     1
 93
        1
176
     1
 44
0.0
176
     1
173
     0
176
     1
  0
VISUALSTYLE
  5
32
102
{ACAD_REACTORS
330
2A
102
}
330
2A
100
AcDbVisualStyle
  2
Basic
 70
     7
177
     2
291
     1
 71
     1
176
     1
 72
     0
176
     1
 73
     1
176
     1
 90
        0
176
     1
 40
-0.6
176
     1
 41
-30.0
176
     1
 62
     5
 63
     7
421
 16777215
176
     1
 74
     0
176
     1
 91
        4
176
     1
 64
     7
176
     1
 65
   257
176
     1
 75
     1
176
     1
175
     1
176
     1
 42
1.0
176
     1
 92
        8
176
     1
 66
     7
176
     1
 43
1.0
176
     1
 76
     1
176
     1
 77
     6
176
     1
 78
     2
176
     1
 67
     7
176
     1
 79
     5
176
     1
170
     0
176
     1
171
     0
176
     1
290
     0
176
     1
 93
        1
176
     1
 44
0.0
176
     1
173
     0
176
     1
  0
VISUALSTYLE
  5
36
102
{ACAD_REACTORS
330
2A
102
}
330
2A
100
AcDbVisualStyle
  2
Brighten
 70
    12
177
     2
291
     1
 71
     2
176
     1
 72
     2
176
     1
 73
     0
176
     1
 90
        0
176
     1
 40
-0.6
176
     1
 41
-30.0
176
     1
 62
     5
 63
     7
421
 16777215
176
     1
 74
     1
176
     1
 91
        4
176
     1
 64
     7
176
     1
 65
   257
176
     1
 75
     1
176
     1
175
     1
176
     1
 42
1.0
176
     1
 92
        8
176
     1
 66
     7
176
     1
 43
1.0
176
     1
 76
     1
176
     1
 77
     6
176
     1
 78
     2
176
     1
 67
     7
176
     1
 79
     5
176
     1
170
     0
176
     1
171
     0
176
     1
290
     0
176
     1
 93
        1
176
     1
 44
50.0
176
     1
173
     0
176
     1
  0
VISUALSTYLE
  5
3A
102
{ACAD_REACTORS
330
2A
102
}
330
2A
100
AcDbVisualStyle
  2
ColorChange
 70
    16
177
     2
291
     1
 71
     2
176
     1
 72
     2
176
     1
 73
     3
176
     1
 90
        0
176
     1
 40
-0.6
176
     1
 41
-30.0
176
     1
 62
     5
 63
     8
421
  8421504
176
     1
 74
     1
176
     1
 91
        4
176
     1
 64
     7
176
     1
 65
   257
176
     1
 75
     1
176
     1
175
     1
176
     1
 42
1.0
176
     1
 92
        8
176
     1
 66
     8
424
  8421504
176
     1
 43
1.0
176
     1
 76
     1
176
     1
 77
     6
176
     1
 78
     2
176
     1
 67
     7
176
     1
 79
     5
176
     1
170
     0
176
     1
171
     0
176
     1
290
     0
176
     1
 93
        1
176
     1
 44
0.0
176
     1
173
     0
176
     1
  0
VISUALSTYLE
  5
34
102
{ACAD_REACTORS
330
2A
102
}
330
2A
100
AcDbVisualStyle
  2
Conceptual
 70
     9
177
     2
291
     0
 71
     3
176
     1
 72
     2
176
     1
 73
     0
176
     1
 90
        0
176
     1
 40
-0.6
176
     1
 41
-30.0
176
     1
 62
     5
 63
     7
421
 16777215
176
     1
 74
     2
176
     1
 91
        2
176
     1
 64
     7
176
     1
 65
   257
176
     1
 75
     1
176
     1
175
     1
176
     1
 42
40.0
176
     1
 92
        8
176
     1
 66
     7
176
     1
 43
1.0
176
     1
 76
     1
176
     1
 77
     6
176
     1
 78
     2
176
     1
 67
     7
176
     1
 79
     3
176
     1
170
     0
176
     1
171
     0
176
     1
290
     0
176
     1
 93
        1
176
     1
 44
0.0
176
     1
173
     0
176
     1
  0
VISUALSTYLE
  5
35
102
{ACAD_REACTORS
330
2A
102
}
330
2A
100
AcDbVisualStyle
  2
Dim
 70
    11
177
     2
291
     1
 71
     2
176
     1
 72
     2
176
     1
 73
     0
176
     1
 90
        0
176
     1
 40
-0.6
176
     1
 41
-30.0
176
     1
 62
     5
 63
     7
421
 16777215
176
     1
 74
     1
176
     1
 91
        4
176
     1
 64
     7
176
     1
 65
   257
176
     1
 75
     1
176
     1
175
     1
176
     1
 42
1.0
176
     1
 92
        8
176
     1
 66
     7
176
     1
 43
1.0
176
     1
 76
     1
176
     1
 77
     6
176
     1
 78
     2
176
     1
 67
     7
176
     1
 79
     5
176
     1
170
     0
176
     1
171
     0
176
     1
290
     0
176
     1
 93
        1
176
     1
 44
-50.0
176
     1
173
     0
176
     1
  0
VISUALSTYLE
  5
39
102
{ACAD_REACTORS
330
2A
102
}
330
2A
100
AcDbVisualStyle
  2
Facepattern
 70
    15
177
     2
291
     1
 71
     2
176
     1
 72
     2
176
     1
 73
     0
176
     1
 90
        0
176
     1
 40
-0.6
176
     1
 41
-30.0
176
     1
 62
     5
 63
     7
421
 16777215
176
     1
 74
     1
176
     1
 91
        4
176
     1
 64
     7
176
     1
 65
   257
176
     1
 75
     1
176
     1
175
     1
176
     1
 42
1.0
176
     1
 92
        8
176
     1
 66
     7
176
     1
 43
1.0
176
     1
 76
     1
176
     1
 77
     6
176
     1
 78
     2
176
     1
 67
     7
176
     1
 79
     5
176
     1
170
     0
176
     1
171
     0
176
     1
290
     0
176
     1
 93
        1
176
     1
 44
0.0
176
     1
173
     0
176
     1
  0
VISUALSTYLE
  5
2B
102
{ACAD_REACTORS
330
2A
102
}
330
2A
100
AcDbVisualStyle
  2
Flat
 70
     0
177
     2
291
     1
 71
     2
176
     1
 72
     1
176
     1
 73
     1
176
     1
 90
        2
176
     1
 40
-0.6
176
     1
 41
30.0
176
     1
 62
     5
 63
     7
421
 16777215
176
     1
 74
     0
176
     1
 91
        4
176
     1
 64
     7
176
     1
 65
   257
176
     1
 75
     1
176
     1
175
     1
176
     1
 42
1.0
176
     1
 92
        8
176
     1
 66
     7
176
     1
 43
1.0
176
     1
 76
     1
176
     1
 77
     6
176
     1
 78
     2
176
     1
 67
     7
176
     1
 79
     5
176
     1
170
     0
176
     1
171
     0
176
     1
290
     0
176
     1
 93
       13
176
     1
 44
0.0
176
     1
173
     0
176
     1
  0
VISUALSTYLE
  5
2C
102
{ACAD_REACTORS
330
2A
102
}
330
2A
100
AcDbVisualStyle
  2
FlatWithEdges
 70
     1
177
     2
291
     1
 71
     2
176
     1
 72
     1
176
     1
 73
     1
176
     1
 90
        2
176
     1
 40
-0.6
176
     1
 41
30.0
176
     1
 62
     5
 63
     7
421
 16777215
176
     1
 74
     1
176
     1
 91
        4
176
     1
 64
     7
176
     1
 65
   257
176
     1
 75
     1
176
     1
175
     1
176
     1
 42
1.0
176
     1
 92
        0
176
     1
 66
   257
176
     1
 43
1.0
176
     1
 76
     1
176
     1
 77
     6
176
     1
 78
     2
176
     1
 67
     7
176
     1
 79
     5
176
     1
170
     0
176
     1
171
     0
176
     1
290
     0
176
     1
 93
       13
176
     1
 44
0.0
176
     1
173
     0
176
     1
  0
VISUALSTYLE
  5
2D
102
{ACAD_REACTORS
330
2A
102
}
330
2A
100
AcDbVisualStyle
  2
Gouraud
 70
     2
177
     2
291
     1
 71
     2
176
     1
 72
     2
176
     1
 73
     1
176
     1
 90
        2
176
     1
 40
-0.6
176
     1
 41
30.0
176
     1
 62
     5
 63
     7
421
 16777215
176
     1
 74
     0
176
     1
 91
        4
176
     1
 64
     7
176
     1
 65
   257
176
     1
 75
     1
176
     1
175
     1
176
     1
 42
1.0
176
     1
 92
        0
176
     1
 66
     7
176
     1
 43
1.0
176
     1
 76
     1
176
     1
 77
     6
176
     1
 78
     2
176
     1
 67
     7
176
     1
 79
     5
176
     1
170
     0
176
     1
171
     0
176
     1
290
     0
176
     1
 93
       13
176
     1
 44
0.0
176
     1
173
     0
176
     1
  0
VISUALSTYLE
  5
2E
102
{ACAD_REACTORS
330
2A
102
}
330
2A
100
AcDbVisualStyle
  2
GouraudWithEdges
 70
     3
177
     2
291
     1
 71
     2
176
     1
 72
     2
176
     1
 73
     1
176
     1
 90
        2
176
     1
 40
-0.6
176
     1
 41
30.0
176
     1
 62
     5
 63
     7
421
 16777215
176
     1
 74
     1
176
     1
 91
        4
176
     1
 64
     7
176
     1
 65
   257
176
     1
 75
     1
176
     1
175
     1
176
     1
 42
1.0
176
     1
 92
        0
176
     1
 66
   257
176
     1
 43
1.0
176
     1
 76
     1
176
     1
 77
     6
176
     1
 78
     2
176
     1
 67
     7
176
     1
 79
     5
176
     1
170
     0
176
     1
171
     0
176
     1
290
     0
176
     1
 93
       13
176
     1
 44
0.0
176
     1
173
     0
176
     1
  0
VISUALSTYLE
  5
38
102
{ACAD_REACTORS
330
2A
102
}
330
2A
100
AcDbVisualStyle
  2
Linepattern
 70
    14
177
     2
291
     1
 71
     2
176
     1
 72
     2
176
     1
 73
     0
176
     1
 90
        0
176
     1
 40
-0.6
176
     1
 41
-30.0
176
     1
 62
     5
 63
     7
421
 16777215
176
     1
 74
     1
176
     1
 91
        4
176
     1
 64
     7
176
     1
 65
   257
176
     1
 75
     7
176
     1
175
     7
176
     1
 42
1.0
176
     1
 92
        8
176
     1
 66
     7
176
     1
 43
1.0
176
     1
 76
     1
176
     1
 77
     6
176
     1
 78
     2
176
     1
 67
     7
176
     1
 79
     5
176
     1
170
     0
176
     1
171
     0
176
     1
290
     0
176
     1
 93
        1
176
     1
 44
0.0
176
     1
173
     0
176
     1
  0
VISUALSTYLE
  5
33
102
{ACAD_REACTORS
330
2A
102
}
330
2A
100
AcDbVisualStyle
  2
Realistic
 70
     8
177
     2
291
     0
 71
     2
176
     1
 72
     2
176
     1
 73
     0
176
     1
 90
        0
176
     1
 40
-0.6
176
     1
 41
-30.0
176
     1
 62
     5
 63
     7
421
 16777215
176
     1
 74
     1
176
     1
 91
        0
176
     1
 64
     7
176
     1
 65
   257
176
     1
 75
     1
176
     1
175
     1
176
     1
 42
1.0
176
     1
 92
        8
176
     1
 66
     8
424
  7895160
176
     1
 43
1.0
176
     1
 76
     1
176
     1
 77
     6
176
     1
 78
     2
176
     1
 67
     7
176
     1
 79
     5
176
     1
170
     0
176
     1
171
     0
176
     1
290
     0
176
     1
 93
       13
176
     1
 44
0.0
176
     1
173
     0
176
     1
  0
VISUALSTYLE
  5
37
102
{ACAD_REACTORS
330
2A
102
}
330
2A
100
AcDbVisualStyle
  2
Thicken
 70
    13
177
     2
291
     1
 71
     2
176
     1
 72
     2
176
     1
 73
     0
176
     1
 90
        0
176
     1
 40
-0.6
176
     1
 41
-30.0
176
     1
 62
     5
 63
     7
421
 16777215
176
     1
 74
     1
176
     1
 91
        4
176
     1
 64
     7
176
     1
 65
   257
176
     1
 75
     1
176
     1
175
     1
176
     1
 42
1.0
176
     1
 92
       12
176
     1
 66
     7
176
     1
 43
1.0
176
     1
 76
     1
176
     1
 77
     6
176
     1
 78
     2
176
     1
 67
     7
176
     1
 79
     5
176
     1
170
     0
176
     1
171
     0
176
     1
290
     0
176
     1
 93
        1
176
     1
 44
0.0
176
     1
173
     0
176
     1
  0
ENDSEC
  0
EOF
