  0
SECTION
  2
HEADER
  9
$ACADVER
  1
AC1024
  9
$ACADMAINTVER
 70
     6
  9
$DWGCODEPAGE
  3
ANSI_1252
  9
$INSBASE
 10
0.0
 20
0.0
 30
0.0
  9
$EXTMIN
 10
1.000000000000000E+20
 20
1.000000000000000E+20
 30
1.000000000000000E+20
  9
$EXTMAX
 10
-1.000000000000000E+20
 20
-1.000000000000000E+20
 30
-1.000000000000000E+20
  9
$LIMMIN
 10
0.0
 20
0.0
  9
$LIMMAX
 10
12.0
 20
9.0
  9
$ORTHOMODE
 70
     0
  9
$REGENMODE
 70
     1
  9
$FILLMODE
 70
     1
  9
$QTEXTMODE
 70
     0
  9
$MIRRTEXT
 70
     1
  9
$LTSCALE
 40
1.0
  9
$ATTMODE
 70
     1
  9
$TEXTSIZE
 40
0.2
  9
$TRACEWID
 40
0.05
  9
$TEXTSTYLE
  7
Standard
  9
$CLAYER
  8
0
  9
$CELTYPE
  6
ByLayer
  9
$CECOLOR
 62
   256
  9
$CELTSCALE
 40
1.0
  9
$DISPSILH
 70
     0
  9
$DIMSCALE
 40
1.0
  9
$DIMASZ
 40
0.18
  9
$DIMEXO
 40
0.0625
  9
$DIMDLI
 40
0.38
  9
$DIMRND
 40
0.0
  9
$DIMDLE
 40
0.0
  9
$DIMEXE
 40
0.18
  9
$DIMTP
 40
0.0
  9
$DIMTM
 40
0.0
  9
$DIMTXT
 40
0.18
  9
$DIMCEN
 40
0.09
  9
$DIMTSZ
 40
0.0
  9
$DIMTOL
 70
     0
  9
$DIMLIM
 70
     0
  9
$DIMTIH
 70
     1
  9
$DIMTOH
 70
     1
  9
$DIMSE1
 70
     0
  9
$DIMSE2
 70
     0
  9
$DIMTAD
 70
     0
  9
$DIMZIN
 70
     0
  9
$DIMBLK
  1

  9
$DIMASO
 70
     1
  9
$DIMSHO
 70
     1
  9
$DIMPOST
  1

  9
$DIMAPOST
  1

  9
$DIMALT
 70
     0
  9
$DIMALTD
 70
     2
  9
$DIMALTF
 40
25.4
  9
$DIMLFAC
 40
1.0
  9
$DIMTOFL
 70
     0
  9
$DIMTVP
 40
0.0
  9
$DIMTIX
 70
     0
  9
$DIMSOXD
 70
     0
  9
$DIMSAH
 70
     0
  9
$DIMBLK1
  1

  9
$DIMBLK2
  1

  9
$DIMSTYLE
  2
Standard
  9
$DIMCLRD
 70
     0
  9
$DIMCLRE
 70
     0
  9
$DIMCLRT
 70
     0
  9
$DIMTFAC
 40
1.0
  9
$DIMGAP
 40
0.09
  9
$DIMJUST
 70
     0
  9
$DIMSD1
 70
     0
  9
$DIMSD2
 70
     0
  9
$DIMTOLJ
 70
     1
  9
$DIMTZIN
 70
     0
  9
$DIMALTZ
 70
     0
  9
$DIMALTTZ
 70
     0
  9
$DIMUPT
 70
     0
  9
$DIMDEC
 70
     4
  9
$DIMTDEC
 70
     4
  9
$DIMALTU
 70
     2
  9
$DIMALTTD
 70
     2
  9
$DIMTXSTY
  7
Standard
  9
$DIMAUNIT
 70
     0
  9
$DIMADEC
 70
     0
  9
$DIMALTRND
 40
0.0
  9
$DIMAZIN
 70
     0
  9
$DIMDSEP
 70
    46
  9
$DIMATFIT
 70
     3
  9
$DIMFRAC
 70
     0
  9
$DIMLDRBLK
  1

  9
$DIMLUNIT
 70
     2
  9
$DIMLWD
 70
    -2
  9
$DIMLWE
 70
    -2
  9
$DIMTMOVE
 70
     0
  9
$DIMFXL
 40
1.0
  9
$DIMFXLON
 70
     0
  9
$DIMJOGANG
 40
0.7853981633974483
  9
$DIMTFILL
 70
     0
  9
$DIMTFILLCLR
 70
     0
  9
$DIMARCSYM
 70
     0
  9
$DIMLTYPE
  6

  9
$DIMLTEX1
  6

  9
$DIMLTEX2
  6

  9
$DIMTXTDIRECTION
 70
     0
  9
$LUNITS
 70
     2
  9
$LUPREC
 70
     4
  9
$SKETCHINC
 40
0.1
  9
$FILLETRAD
 40
0.5
  9
$AUNITS
 70
     0
  9
$AUPREC
 70
     0
  9
$MENU
  1
.
  9
$ELEVATION
 40
0.0
  9
$PELEVATION
 40
0.0
  9
$THICKNESS
 40
0.0
  9
$LIMCHECK
 70
     0
  9
$CHAMFERA
 40
0.5
  9
$CHAMFERB
 40
0.5
  9
$CHAMFERC
 40
1.0
  9
$CHAMFERD
 40
0.0
  9
$SKPOLY
 70
     0
  9
$TDCREATE
 40
2458752.661912974
  9
$TDUCREATE
 40
2458752.161912974
  9
$TDUPDATE
 40
2458752.66191316
  9
$TDUUPDATE
 40
2458752.16191316
  9
$TDINDWG
 40
0.0000000116
  9
$TDUSRTIMER
 40
0.0000000116
  9
$USRTIMER
 70
     1
  9
$ANGBASE
 50
0.0
  9
$ANGDIR
 70
     0
  9
$PDMODE
 70
     0
  9
$PDSIZE
 40
0.0
  9
$PLINEWID
 40
0.0
  9
$SPLFRAME
 70
     0
  9
$SPLINETYPE
 70
     6
  9
$SPLINESEGS
 70
     8
  9
$HANDSEED
  5
296
  9
$SURFTAB1
 70
     6
  9
$SURFTAB2
 70
     6
  9
$SURFTYPE
 70
     6
  9
$SURFU
 70
     6
  9
$SURFV
 70
     6
  9
$UCSBASE
  2

  9
$UCSNAME
  2

  9
$UCSORG
 10
0.0
 20
0.0
 30
0.0
  9
$UCSXDIR
 10
1.0
 20
0.0
 30
0.0
  9
$UCSYDIR
 10
0.0
 20
1.0
 30
0.0
  9
$UCSORTHOREF
  2

  9
$UCSORTHOVIEW
 70
     0
  9
$UCSORGTOP
 10
0.0
 20
0.0
 30
0.0
  9
$UCSORGBOTTOM
 10
0.0
 20
0.0
 30
0.0
  9
$UCSORGLEFT
 10
0.0
 20
0.0
 30
0.0
  9
$UCSORGRIGHT
 10
0.0
 20
0.0
 30
0.0
  9
$UCSORGFRONT
 10
0.0
 20
0.0
 30
0.0
  9
$UCSORGBACK
 10
0.0
 20
0.0
 30
0.0
  9
$PUCSBASE
  2

  9
$PUCSNAME
  2

  9
$PUCSORG
 10
0.0
 20
0.0
 30
0.0
  9
$PUCSXDIR
 10
1.0
 20
0.0
 30
0.0
  9
$PUCSYDIR
 10
0.0
 20
1.0
 30
0.0
  9
$PUCSORTHOREF
  2

  9
$PUCSORTHOVIEW
 70
     0
  9
$PUCSORGTOP
 10
0.0
 20
0.0
 30
0.0
  9
$PUCSORGBOTTOM
 10
0.0
 20
0.0
 30
0.0
  9
$PUCSORGLEFT
 10
0.0
 20
0.0
 30
0.0
  9
$PUCSORGRIGHT
 10
0.0
 20
0.0
 30
0.0
  9
$PUCSORGFRONT
 10
0.0
 20
0.0
 30
0.0
  9
$PUCSORGBACK
 10
0.0
 20
0.0
 30
0.0
  9
$USERI1
 70
     0
  9
$USERI2
 70
     0
  9
$USERI3
 70
     0
  9
$USERI4
 70
     0
  9
$USERI5
 70
     0
  9
$USERR1
 40
0.0
  9
$USERR2
 40
0.0
  9
$USERR3
 40
0.0
  9
$USERR4
 40
0.0
  9
$USERR5
 40
0.0
  9
$WORLDVIEW
 70
     1
  9
$SHADEDGE
 70
     3
  9
$SHADEDIF
 70
    70
  9
$TILEMODE
 70
     1
  9
$MAXACTVP
 70
    64
  9
$PINSBASE
 10
0.0
 20
0.0
 30
0.0
  9
$PLIMCHECK
 70
     0
  9
$PEXTMIN
 10
1.000000000000000E+20
 20
1.000000000000000E+20
 30
1.000000000000000E+20
  9
$PEXTMAX
 10
-1.000000000000000E+20
 20
-1.000000000000000E+20
 30
-1.000000000000000E+20
  9
$PLIMMIN
 10
0.0
 20
0.0
  9
$PLIMMAX
 10
12.0
 20
9.0
  9
$UNITMODE
 70
     0
  9
$VISRETAIN
 70
     1
  9
$PLINEGEN
 70
     0
  9
$PSLTSCALE
 70
     1
  9
$TREEDEPTH
 70
  3020
  9
$CMLSTYLE
  2
Standard
  9
$CMLJUST
 70
     0
  9
$CMLSCALE
 40
1.0
  9
$PROXYGRAPHICS
 70
     1
  9
$MEASUREMENT
 70
     0
  9
$CELWEIGHT
370
    -1
  9
$ENDCAPS
280
     0
  9
$JOINSTYLE
280
     0
  9
$LWDISPLAY
290
     1
  9
$INSUNITS
 70
     1
  9
$HYPERLINKBASE
  1

  9
$STYLESHEET
  1

  9
$XEDIT
290
     1
  9
$CEPSNTYPE
380
     0
  9
$PSTYLEMODE
290
     1
  9
$FINGERPRINTGUID
  2
{99BD17D2-3F9A-4E45-B01B-46B3C68A6D08}
  9
$VERSIONGUID
  2
{FAEB1C32-E019-11D5-929B-00C0DF256EC4}
  9
$EXTNAMES
290
     1
  9
$PSVPSCALE
 40
0.0
  9
$OLESTARTUP
290
     0
  9
$SORTENTS
280
   127
  9
$INDEXCTL
280
     0
  9
$HIDETEXT
280
     1
  9
$XCLIPFRAME
280
     2
  9
$HALOGAP
280
     0
  9
$OBSCOLOR
 70
   257
  9
$OBSLTYPE
280
     0
  9
$INTERSECTIONDISPLAY
280
     0
  9
$INTERSECTIONCOLOR
 70
   257
  9
$DIMASSOC
280
     2
  9
$PROJECTNAME
  1

  9
$CAMERADISPLAY
290
     0
  9
$LENSLENGTH
 40
50.0
  9
$CAMERAHEIGHT
 40
0.0
  9
$STEPSPERSEC
 40
2.0
  9
$STEPSIZE
 40
6.0
  9
$3DDWFPREC
 40
2.0
  9
$PSOLWIDTH
 40
0.25
  9
$PSOLHEIGHT
 40
4.0
  9
$LOFTANG1
 40
1.570796326794897
  9
$LOFTANG2
 40
1.570796326794897
  9
$LOFTMAG1
 40
0.0
  9
$LOFTMAG2
 40
0.0
  9
$LOFTPARAM
 70
     7
  9
$LOFTNORMALS
280
     1
  9
$LATITUDE
 40
37.795
  9
$LONGITUDE
 40
-122.394
  9
$NORTHDIRECTION
 40
0.0
  9
$TIMEZONE
 70
 -8000
  9
$LIGHTGLYPHDISPLAY
280
     1
  9
$TILEMODELIGHTSYNCH
280
     1
  9
$CMATERIAL
347
3C
  9
$SOLIDHIST
280
     1
  9
$SHOWHIST
280
     1
  9
$DWFFRAME
280
     2
  9
$DGNFRAME
280
     2
  9
$REALWORLDSCALE
290
     1
  9
$INTERFERECOLOR
 62
   256
  9
$CSHADOW
280
     0
  9
$SHADOWPLANELOCATION
 40
0.0
  0
ENDSEC
  0
SECTION
  2
CLASSES
  0
CLASS
  1
ACDBDICTIONARYWDFLT
  2
AcDbDictionaryWithDefault
  3
ObjectDBX Classes
 90
        0
 91
        4
280
     0
281
     0
  0
CLASS
  1
VISUALSTYLE
  2
AcDbVisualStyle
  3
ObjectDBX Classes
 90
     4095
 91
        4
280
     0
281
     0
  0
CLASS
  1
MATERIAL
  2
AcDbMaterial
  3
ObjectDBX Classes
 90
     1153
 91
        4
280
     0
281
     0
  0
CLASS
  1
SUN
  2
AcDbSun
  3
SCENEOE
 90
     1024
 91
        4
280
     0
281
     0
  0
ENDSEC
  0
SECTION
  2
TABLES
  0
TABLE
  2
VPORT
  5
8
330
0
100
AcDbSymbolTable
 70
     1
  0
VPORT
  5
29
330
8
100
AcDbSymbolTableRecord
100
AcDbViewportTableRecord
  2
*Active
 70
     0
 10
0.0
 20
0.0
 11
1.0
 21
1.0
 12
0.0
 22
0.0
 13
0.0
 23
0.0
 14
0.5
 24
0.5
 15
0.5
 25
0.5
 16
0.0
 26
0.0
 36
1.0
 17
2.263669537620792
 27
-4.13638967538377
 37
0.0
 40
11.69291338582678
 41
0.7070707070707068
 42
50.0
 43
0.0
 44
0.0
 50
0.0
 51
0.0
 71
     0
 72
   100
 73
     1
 74
     3
 75
     0
 76
     0
 77
     0
 78
     0
281
     0
 65
     1
110
0.0
120
0.0
130
0.0
111
1.0
121
0.0
131
0.0
112
0.0
122
1.0
132
0.0
 79
     0
146
0.0
 60
     3
 61
     5
292
     1
282
     1
141
0.0
142
0.0
 63
   250
361
3F
  0
ENDTAB
  0
TABLE
  2
LTYPE
  5
5
330
0
100
AcDbSymbolTable
 70
     2
  0
LTYPE
  5
14
330
5
100
AcDbSymbolTableRecord
100
AcDbLinetypeTableRecord
  2
ByBlock
 70
     0
  3

 72
    65
 73
     0
 40
0.0
  0
LTYPE
  5
15
330
5
100
AcDbSymbolTableRecord
100
AcDbLinetypeTableRecord
  2
ByLayer
 70
     0
  3

 72
    65
 73
     0
 40
0.0
  0
LTYPE
  5
16
330
5
100
AcDbSymbolTableRecord
100
AcDbLinetypeTableRecord
  2
Continuous
 70
     0
  3
Solid line
 72
    65
 73
     0
 40
0.0
  0
LTYPE
  5
23B
330
5
100
AcDbSymbolTableRecord
100
AcDbLinetypeTableRecord
  2
AI-Linetype-1
 70
     0
  3
Adobe Illustrator Linetype No. 1
 72
    65
 73
     2
 40
0.0401242160134845
 49
0.0240745296080907
 74
     0
 49
-0.0160496864053938
 74
     0
  0
ENDTAB
  0
TABLE
  2
LAYER
  5
2
330
0
100
AcDbSymbolTable
 70
     7
  0
LAYER
  5
10
330
2
100
AcDbSymbolTableRecord
100
AcDbLayerTableRecord
  2
0
 70
     0
 62
     7
  6
Continuous
370
    -3
390
F
347
3E
  0
LAYER
  5
40
330
2
100
AcDbSymbolTableRecord
100
AcDbLayerTableRecord
  2
wood color
 70
     0
 62
     7
  6
Continuous
370
    -3
390
F
347
3E
  0
LAYER
  5
119
330
2
100
AcDbSymbolTableRecord
100
AcDbLayerTableRecord
  2
Layer 1
 70
     0
 62
     7
  6
Continuous
370
    -3
390
F
347
3E
  0
LAYER
  5
22D
330
2
100
AcDbSymbolTableRecord
100
AcDbLayerTableRecord
  2
Layer 4
 70
     0
 62
     7
  6
Continuous
370
    -3
390
F
347
3E
  0
LAYER
  5
22F
330
2
100
AcDbSymbolTableRecord
100
AcDbLayerTableRecord
  2
callouts
 70
     0
 62
     7
  6
Continuous
370
    -3
390
F
347
3E
  0
LAYER
  5
230
330
2
100
AcDbSymbolTableRecord
100
AcDbLayerTableRecord
  2
SDWC
 70
     0
 62
     7
  6
Continuous
370
    -3
390
F
347
3E
  0
LAYER
  5
274
330
2
100
AcDbSymbolTableRecord
100
AcDbLayerTableRecord
  2
call out
 70
     0
 62
     7
  6
Continuous
370
    -3
390
F
347
3E
  0
ENDTAB
  0
TABLE
  2
STYLE
  5
3
330
0
100
AcDbSymbolTable
 70
     1
  0
STYLE
  5
11
330
3
100
AcDbSymbolTableRecord
100
AcDbTextStyleTableRecord
  2
Standard
 70
     0
 40
0.0
 41
1.0
 50
0.0
 71
     0
 42
0.2
  3
txt
  4

  0
ENDTAB
  0
TABLE
  2
VIEW
  5
6
330
0
100
AcDbSymbolTable
 70
     0
  0
ENDTAB
  0
TABLE
  2
UCS
  5
7
330
0
100
AcDbSymbolTable
 70
     0
  0
ENDTAB
  0
TABLE
  2
APPID
  5
9
330
0
100
AcDbSymbolTable
 70
     1
  0
APPID
  5
12
330
9
100
AcDbSymbolTableRecord
100
AcDbRegAppTableRecord
  2
ACAD
 70
     0
  0
ENDTAB
  0
TABLE
  2
DIMSTYLE
  5
A
330
0
100
AcDbSymbolTable
 70
     1
100
AcDbDimStyleTable
  0
DIMSTYLE
105
27
330
A
100
AcDbSymbolTableRecord
100
AcDbDimStyleTableRecord
  2
Standard
 70
     0
178
     0
340
11
  0
ENDTAB
  0
TABLE
  2
BLOCK_RECORD
  5
1
330
0
100
AcDbSymbolTable
 70
     4
  0
BLOCK_RECORD
  5
1F
330
1
100
AcDbSymbolTableRecord
100
AcDbBlockTableRecord
  2
*Model_Space
340
22
 70
     0
280
     1
281
     0
  0
BLOCK_RECORD
  5
1B
330
1
100
AcDbSymbolTableRecord
100
AcDbBlockTableRecord
  2
*Paper_Space
340
1E
 70
     0
280
     1
281
     0
  0
BLOCK_RECORD
  5
23
330
1
100
AcDbSymbolTableRecord
100
AcDbBlockTableRecord
  2
*Paper_Space0
340
26
 70
     0
280
     1
281
     0
  0
BLOCK_RECORD
  5
231
330
1
100
AcDbSymbolTableRecord
100
AcDbBlockTableRecord
  2
block 2
340
0
102
{BLKREFS
331
232
102
}
 70
     0
280
     1
281
     0
  0
BLOCK_RECORD
  5
266
330
1
100
AcDbSymbolTableRecord
100
AcDbBlockTableRecord
  2
block 3
340
0
102
{BLKREFS
331
267
102
}
 70
     0
280
     1
281
     0
  0
BLOCK_RECORD
  5
26A
330
1
100
AcDbSymbolTableRecord
100
AcDbBlockTableRecord
  2
block 4
340
0
102
{BLKREFS
331
26B
102
}
 70
     0
280
     1
281
     0
  0
ENDTAB
  0
ENDSEC
  0
SECTION
  2
BLOCKS
  0
BLOCK
  5
20
330
1F
100
AcDbEntity
  8
0
100
AcDbBlockBegin
  2
*Model_Space
 70
     0
 10
0.0
 20
0.0
 30
0.0
  3
*Model_Space
  1

  0
ENDBLK
  5
21
330
1F
100
AcDbEntity
  8
0
100
AcDbBlockEnd
  0
BLOCK
  5
1C
330
1B
100
AcDbEntity
 67
     1
  8
0
100
AcDbBlockBegin
  2
*Paper_Space
 70
     0
 10
0.0
 20
0.0
 30
0.0
  3
*Paper_Space
  1

  0
ENDBLK
  5
1D
330
1B
100
AcDbEntity
 67
     1
  8
0
100
AcDbBlockEnd
  0
BLOCK
  5
24
330
23
100
AcDbEntity
  8
0
100
AcDbBlockBegin
  2
*Paper_Space0
 70
     0
 10
0.0
 20
0.0
 30
0.0
  3
*Paper_Space0
  1

  0
ENDBLK
  5
25
330
23
100
AcDbEntity
  8
0
100
AcDbBlockEnd
  0
BLOCK
  5
233
330
231
100
AcDbEntity
  8
0
100
AcDbBlockBegin
  2
block 2
 70
     0
 10
0.0
 20
0.0
 30
0.0
  3
block 2
  1

  0
POLYLINE
  5
235
330
231
100
AcDbEntity
  8
SDWC
  6
AI-Linetype-1
 62
   250
420
  2301728
370
     9
100
AcDb2dPolyline
 66
     1
 10
0.0
 20
0.0
 30
0.0
  0
VERTEX
  5
236
330
235
100
AcDbEntity
  8
SDWC
  6
AI-Linetype-1
 62
   250
420
  2301728
370
     9
100
AcDbVertex
100
AcDb2dVertex
 10
1.31960892803334
 20
-3.085715727573731
 30
0.0
  0
VERTEX
  5
237
330
235
100
AcDbEntity
  8
SDWC
  6
AI-Linetype-1
 62
   250
420
  2301728
370
     9
100
AcDbVertex
100
AcDb2dVertex
 10
1.567998854878586
 20
-3.588336533530284
 30
0.0
  0
VERTEX
  5
238
330
235
100
AcDbEntity
  8
SDWC
  6
AI-Linetype-1
 62
   250
420
  2301728
370
     9
100
AcDbVertex
100
AcDb2dVertex
 10
1.591669497654
 20
-3.616029153299412
 30
0.0
  0
VERTEX
  5
239
330
235
100
AcDbEntity
  8
SDWC
  6
AI-Linetype-1
 62
   250
420
  2301728
370
     9
100
AcDbVertex
100
AcDb2dVertex
 10
1.583970759539119
 20
-3.578195872216106
 30
0.0
  0
VERTEX
  5
23A
330
235
100
AcDbEntity
  8
SDWC
  6
AI-Linetype-1
 62
   250
420
  2301728
370
     9
100
AcDbVertex
100
AcDb2dVertex
 10
1.337796693154625
 20
-3.075986589631763
 30
0.0
  0
SEQEND
  5
23D
330
235
100
AcDbEntity
  8
SDWC
  6
AI-Linetype-1
 62
   250
420
  2301728
370
     9
  0
HATCH
  5
23C
330
231
100
AcDbEntity
  8
SDWC
 62
   252
420
  9672087
100
AcDbHatch
 10
0.0
 20
0.0
 30
0.0
210
0.0
220
0.0
230
1.0
  2
SOLID
 70
     1
 71
     0
 91
        1
 92
        1
 93
        5
 72
     1
 10
1.31960892803334
 20
-3.085715727573731
 11
1.567998854878586
 21
-3.588336533530284
 72
     1
 10
1.567998854878586
 20
-3.588336533530284
 11
1.591669497654
 21
-3.616029153299413
 72
     1
 10
1.591669497654
 20
-3.616029153299412
 11
1.583970759539119
 21
-3.578195872216106
 72
     1
 10
1.583970759539119
 20
-3.578195872216106
 11
1.337796693154625
 21
-3.075986589631763
 72
     1
 10
1.337796693154625
 20
-3.075986589631763
 11
1.31960892803334
 21
-3.085715727573731
 97
        0
 75
     2
 76
     1
 98
        0
  0
SPLINE
  5
23E
330
231
100
AcDbEntity
  8
SDWC
 62
   250
420
  2301728
370
     9
100
AcDbSpline
210
0.0
220
0.0
230
1.0
 70
     8
 71
     3
 72
    14
 73
    10
 74
     0
 42
0.0000000001
 43
0.0000000001
 12
1.0
 22
0.0
 32
0.0
 13
1.0
 23
0.0
 33
0.0
 40
0.0
 40
0.0
 40
0.0
 40
0.0
 40
1.0
 40
1.0
 40
1.0
 40
2.0
 40
2.0
 40
2.0
 40
3.0
 40
3.0
 40
3.0
 40
3.0
 10
1.341192799923369
 20
-3.079298326378105
 30
0.0
 10
1.341192799923369
 20
-3.079298326378105
 30
0.0
 10
1.346733507845607
 20
-3.080624402327834
 30
0.0
 10
1.342788993000858
 20
-3.089595062848831
 30
0.0
 10
1.342788993000858
 20
-3.089595062848831
 30
0.0
 10
1.338053981996369
 20
-3.100040400386938
 30
0.0
 10
1.326228152067718
 20
-3.101699770681547
 30
0.0
 10
1.326228152067718
 20
-3.101699770681547
 30
0.0
 10
1.320597620368833
 20
-3.102140952285279
 30
0.0
 10
1.324871061268734
 20
-3.096806260224058
 30
0.0
  0
SPLINE
  5
23F
330
231
100
AcDbEntity
  8
SDWC
 62
   250
420
  2301728
370
     9
100
AcDbSpline
210
0.0
220
0.0
230
1.0
 70
     8
 71
     3
 72
    14
 73
    10
 74
     0
 42
0.0000000001
 43
0.0000000001
 12
1.0
 22
0.0
 32
0.0
 13
1.0
 23
0.0
 33
0.0
 40
0.0
 40
0.0
 40
0.0
 40
0.0
 40
1.0
 40
1.0
 40
1.0
 40
2.0
 40
2.0
 40
2.0
 40
3.0
 40
3.0
 40
3.0
 40
3.0
 10
1.347553832922358
 20
-3.092913488618112
 30
0.0
 10
1.347553832922358
 20
-3.092913488618112
 30
0.0
 10
1.353079935571006
 20
-3.09424366453724
 30
0.0
 10
1.349143072503453
 20
-3.103212177063369
 30
0.0
 10
1.349143072503453
 20
-3.103212177063369
 30
0.0
 10
1.344400335391785
 20
-3.113659683462212
 30
0.0
 10
1.332590032626172
 20
-3.115314694995984
 30
0.0
 10
1.332590032626172
 20
-3.115314694995984
 30
0.0
 10
1.326955820970852
 20
-3.115772746380078
 30
0.0
 10
1.331225215719605
 20
-3.110423353399256
 30
0.0
  0
SPLINE
  5
240
330
231
100
AcDbEntity
  8
SDWC
 62
   250
420
  2301728
370
     9
100
AcDbSpline
210
0.0
220
0.0
230
1.0
 70
     8
 71
     3
 72
    14
 73
    10
 74
     0
 42
0.0000000001
 43
0.0000000001
 12
1.0
 22
0.0
 32
0.0
 13
1.0
 23
0.0
 33
0.0
 40
0.0
 40
0.0
 40
0.0
 40
0.0
 40
1.0
 40
1.0
 40
1.0
 40
2.0
 40
2.0
 40
2.0
 40
3.0
 40
3.0
 40
3.0
 40
3.0
 10
1.35423401409811
 20
-3.106617431885764
 30
0.0
 10
1.35423401409811
 20
-3.106617431885764
 30
0.0
 10
1.359759344135985
 20
-3.107947824691033
 30
0.0
 10
1.355830207175624
 20
-3.11691416835649
 30
0.0
 10
1.355830207175624
 20
-3.11691416835649
 30
0.0
 10
1.351083348964481
 20
-3.127346994875072
 30
0.0
 10
1.339277939909039
 20
-3.129016469403091
 30
0.0
 10
1.339277939909039
 20
-3.129016469403091
 30
0.0
 10
1.333646560650752
 20
-3.129457888932317
 30
0.0
 10
1.337905396895305
 20
-3.124127296666971
 30
0.0
  0
SPLINE
  5
241
330
231
100
AcDbEntity
  8
SDWC
 62
   250
420
  2301728
370
     9
100
AcDbSpline
210
0.0
220
0.0
230
1.0
 70
     8
 71
     3
 72
    14
 73
    10
 74
     0
 42
0.0000000001
 43
0.0000000001
 12
1.0
 22
0.0
 32
0.0
 13
1.0
 23
0.0
 33
0.0
 40
0.0
 40
0.0
 40
0.0
 40
0.0
 40
1.0
 40
1.0
 40
1.0
 40
2.0
 40
2.0
 40
2.0
 40
3.0
 40
3.0
 40
3.0
 40
3.0
 10
1.361309830384572
 20
-3.120341174643133
 30
0.0
 10
1.361309830384572
 20
-3.120341174643133
 30
0.0
 10
1.366823868926594
 20
-3.121658066917462
 30
0.0
 10
1.362899069965667
 20
-3.130639863088428
 30
0.0
 10
1.362899069965667
 20
-3.130639863088428
 30
0.0
 10
1.358144411187166
 20
-3.141074879370005
 30
0.0
 10
1.346333965981759
 20
-3.14272909737618
 30
0.0
 10
1.346333965981759
 20
-3.14272909737618
 30
0.0
 10
1.340687907119837
 20
-3.143174637740735
 30
0.0
 10
1.34496914907523
 20
-3.137837755779464
 30
0.0
  0
SPLINE
  5
242
330
231
100
AcDbEntity
  8
SDWC
 62
   250
420
  2301728
370
     9
100
AcDbSpline
210
0.0
220
0.0
230
1.0
 70
     8
 71
     3
 72
    14
 73
    10
 74
     0
 42
0.0000000001
 43
0.0000000001
 12
1.0
 22
0.0
 32
0.0
 13
1.0
 23
0.0
 33
0.0
 40
0.0
 40
0.0
 40
0.0
 40
0.0
 40
1.0
 40
1.0
 40
1.0
 40
2.0
 40
2.0
 40
2.0
 40
3.0
 40
3.0
 40
3.0
 40
3.0
 10
1.367860924654779
 20
-3.134716491960653
 30
0.0
 10
1.367860924654779
 20
-3.134716491960653
 30
0.0
 10
1.373378454515129
 20
-3.136049074419475
 30
0.0
 10
1.369445053625757
 20
-3.14499994478658
 30
0.0
 10
1.369445053625757
 20
-3.14499994478658
 30
0.0
 10
1.364712211620965
 20
-3.155453008577499
 30
0.0
 10
1.352904003166714
 20
-3.157115767330386
 30
0.0
 10
1.352904003166714
 20
-3.157115767330386
 30
0.0
 10
1.347251065496658
 20
-3.157563238703119
 30
0.0
 10
1.351527122153571
 20
-3.152211142088832
 30
0.0
  0
SPLINE
  5
243
330
231
100
AcDbEntity
  8
SDWC
 62
   250
420
  2301728
370
     9
100
AcDbSpline
210
0.0
220
0.0
230
1.0
 70
     8
 71
     3
 72
    14
 73
    10
 74
     0
 42
0.0000000001
 43
0.0000000001
 12
1.0
 22
0.0
 32
0.0
 13
1.0
 23
0.0
 33
0.0
 40
0.0
 40
0.0
 40
0.0
 40
0.0
 40
1.0
 40
1.0
 40
1.0
 40
2.0
 40
2.0
 40
2.0
 40
3.0
 40
3.0
 40
3.0
 40
3.0
 10
1.374375588329346
 20
-3.148386048270936
 30
0.0
 10
1.374375588329346
 20
-3.148386048270936
 30
0.0
 10
1.379901690977982
 20
-3.149716224190115
 30
0.0
 10
1.375959053903001
 20
-3.158693859204378
 30
0.0
 10
1.375959053903001
 20
-3.158693859204378
 30
0.0
 10
1.371222016460378
 20
-3.169132263983228
 30
0.0
 10
1.359423635239738
 20
-3.17079976566841
 30
0.0
 10
1.359423635239738
 20
-3.17079976566841
 30
0.0
 10
1.353762822013083
 20
-3.171249447855012
 30
0.0
 10
1.358046971126542
 20
-3.165895913052104
 30
0.0
  0
SPLINE
  5
244
330
231
100
AcDbEntity
  8
SDWC
 62
   250
420
  2301728
370
     9
100
AcDbSpline
210
0.0
220
0.0
230
1.0
 70
     8
 71
     3
 72
    14
 73
    10
 74
     0
 42
0.0000000001
 43
0.0000000001
 12
1.0
 22
0.0
 32
0.0
 13
1.0
 23
0.0
 33
0.0
 40
0.0
 40
0.0
 40
0.0
 40
0.0
 40
1.0
 40
1.0
 40
1.0
 40
2.0
 40
2.0
 40
2.0
 40
3.0
 40
3.0
 40
3.0
 40
3.0
 10
1.380952893905209
 20
-3.161809637257774
 30
0.0
 10
1.380952893905209
 20
-3.161809637257774
 30
0.0
 10
1.38647822394311
 20
-3.163140030063005
 30
0.0
 10
1.382549086982749
 20
-3.172106373728487
 30
0.0
 10
1.382549086982749
 20
-3.172106373728487
 30
0.0
 10
1.377802228771631
 20
-3.182539200247093
 30
0.0
 10
1.365996047105417
 20
-3.184208891661102
 30
0.0
 10
1.365996047105417
 20
-3.184208891661102
 30
0.0
 10
1.360350760854216
 20
-3.184654215139567
 30
0.0
 10
1.364608824488073
 20
-3.179323839760261
 30
0.0
  0
SPLINE
  5
245
330
231
100
AcDbEntity
  8
SDWC
 62
   250
420
  2301728
370
     9
100
AcDbSpline
210
0.0
220
0.0
230
1.0
 70
     8
 71
     3
 72
    14
 73
    10
 74
     0
 42
0.0000000001
 43
0.0000000001
 12
1.0
 22
0.0
 32
0.0
 13
1.0
 23
0.0
 33
0.0
 40
0.0
 40
0.0
 40
0.0
 40
0.0
 40
1.0
 40
1.0
 40
1.0
 40
2.0
 40
2.0
 40
2.0
 40
3.0
 40
3.0
 40
3.0
 40
3.0
 10
1.388102946993904
 20
-3.174812389378707
 30
0.0
 10
1.388102946993904
 20
-3.174812389378707
 30
0.0
 10
1.393628351012252
 20
-3.176142761416259
 30
0.0
 10
1.389699214051865
 20
-3.185109105081753
 30
0.0
 10
1.389699214051865
 20
-3.185109105081753
 30
0.0
 10
1.384939628336863
 20
-3.195553006063063
 30
0.0
 10
1.373131494570973
 20
-3.197215743849597
 30
0.0
 10
1.373131494570973
 20
-3.197215743849597
 30
0.0
 10
1.36750088792337
 20
-3.197656946492808
 30
0.0
 10
1.371766677664431
 20
-3.192324402252893
 30
0.0
  0
SPLINE
  5
246
330
231
100
AcDbEntity
  8
SDWC
 62
   250
420
  2301728
370
     9
100
AcDbSpline
210
0.0
220
0.0
230
1.0
 70
     8
 71
     3
 72
    14
 73
    10
 74
     0
 42
0.0000000001
 43
0.0000000001
 12
1.0
 22
0.0
 32
0.0
 13
1.0
 23
0.0
 33
0.0
 40
0.0
 40
0.0
 40
0.0
 40
0.0
 40
1.0
 40
1.0
 40
1.0
 40
2.0
 40
2.0
 40
2.0
 40
3.0
 40
3.0
 40
3.0
 40
3.0
 10
1.394418851675735
 20
-3.188700276053901
 30
0.0
 10
1.394418851675735
 20
-3.188700276053901
 30
0.0
 10
1.399937302141022
 20
-3.190032600081913
 30
0.0
 10
1.39600816518061
 20
-3.198998943747433
 30
0.0
 10
1.39600816518061
 20
-3.198998943747433
 30
0.0
 10
1.391261306969467
 20
-3.209431770266026
 30
0.0
 10
1.379462851410494
 20
-3.211099292819388
 30
0.0
 10
1.379462851410494
 20
-3.211099292819388
 30
0.0
 10
1.37380906644138
 20
-3.211547002044552
 30
0.0
 10
1.378082582289608
 20
-3.206212288943953
 30
0.0
  0
SPLINE
  5
247
330
231
100
AcDbEntity
  8
SDWC
 62
   250
420
  2301728
370
     9
100
AcDbSpline
210
0.0
220
0.0
230
1.0
 70
     8
 71
     3
 72
    14
 73
    10
 74
     0
 42
0.0000000001
 43
0.0000000001
 12
1.0
 22
0.0
 32
0.0
 13
1.0
 23
0.0
 33
0.0
 40
0.0
 40
0.0
 40
0.0
 40
0.0
 40
1.0
 40
1.0
 40
1.0
 40
2.0
 40
2.0
 40
2.0
 40
3.0
 40
3.0
 40
3.0
 40
3.0
 10
1.401309226914817
 20
-3.202256028073849
 30
0.0
 10
1.401309226914817
 20
-3.202256028073849
 30
0.0
 10
1.406835329563478
 20
-3.203586203993015
 30
0.0
 10
1.402908144702817
 20
-3.212559501285934
 30
0.0
 10
1.402908144702817
 20
-3.212559501285934
 30
0.0
 10
1.398168239988144
 20
-3.222990375829997
 30
0.0
 10
1.38636087883295
 20
-3.224652896730453
 30
0.0
 10
1.38636087883295
 20
-3.224652896730453
 30
0.0
 10
1.380707093863849
 20
-3.225100605955605
 30
0.0
 10
1.384965930108453
 20
-3.219770013690246
 30
0.0
  0
SPLINE
  5
248
330
231
100
AcDbEntity
  8
SDWC
 62
   250
420
  2301728
370
     9
100
AcDbSpline
210
0.0
220
0.0
230
1.0
 70
     8
 71
     3
 72
    14
 73
    10
 74
     0
 42
0.0000000001
 43
0.0000000001
 12
1.0
 22
0.0
 32
0.0
 13
1.0
 23
0.0
 33
0.0
 40
0.0
 40
0.0
 40
0.0
 40
0.0
 40
1.0
 40
1.0
 40
1.0
 40
2.0
 40
2.0
 40
2.0
 40
3.0
 40
3.0
 40
3.0
 40
3.0
 10
1.407850171489397
 20
-3.215030515407256
 30
0.0
 10
1.407850171489397
 20
-3.215030515407256
 30
0.0
 10
1.413374322038256
 20
-3.21635373769896
 30
0.0
 10
1.409444968177922
 20
-3.225319308739181
 30
0.0
 10
1.409444968177922
 20
-3.225319308739181
 30
0.0
 10
1.404700278966503
 20
-3.235759861510524
 30
0.0
 10
1.392882250093711
 20
-3.237417041904955
 30
0.0
 10
1.392882250093711
 20
-3.237417041904955
 30
0.0
 10
1.387248038438416
 20
-3.237875093289012
 30
0.0
 10
1.39150970707999
 20
-3.232527869168848
 30
0.0
  0
SPLINE
  5
249
330
231
100
AcDbEntity
  8
SDWC
 62
   250
420
  2301728
370
     9
100
AcDbSpline
210
0.0
220
0.0
230
1.0
 70
     8
 71
     3
 72
    14
 73
    10
 74
     0
 42
0.0000000001
 43
0.0000000001
 12
1.0
 22
0.0
 32
0.0
 13
1.0
 23
0.0
 33
0.0
 40
0.0
 40
0.0
 40
0.0
 40
0.0
 40
1.0
 40
1.0
 40
1.0
 40
2.0
 40
2.0
 40
2.0
 40
3.0
 40
3.0
 40
3.0
 40
3.0
 10
1.414119829167526
 20
-3.228548801958949
 30
0.0
 10
1.414119829167526
 20
-3.228548801958949
 30
0.0
 10
1.419628527502103
 20
-3.229876361971908
 30
0.0
 10
1.415713853245393
 20
-3.238837812176901
 30
0.0
 10
1.415713853245393
 20
-3.238837812176901
 30
0.0
 10
1.41096437953724
 20
-3.249288043175536
 30
0.0
 10
1.399156028871352
 20
-3.250950008336834
 30
0.0
 10
1.399156028871352
 20
-3.250950008336834
 30
0.0
 10
1.393517696116583
 20
-3.251393379840692
 30
0.0
 10
1.397789042965062
 20
-3.246050940487319
 30
0.0
  0
SPLINE
  5
24A
330
231
100
AcDbEntity
  8
SDWC
 62
   250
420
  2301728
370
     9
100
AcDbSpline
210
0.0
220
0.0
230
1.0
 70
     8
 71
     3
 72
    14
 73
    10
 74
     0
 42
0.0000000001
 43
0.0000000001
 12
1.0
 22
0.0
 32
0.0
 13
1.0
 23
0.0
 33
0.0
 40
0.0
 40
0.0
 40
0.0
 40
0.0
 40
1.0
 40
1.0
 40
1.0
 40
2.0
 40
2.0
 40
2.0
 40
3.0
 40
3.0
 40
3.0
 40
3.0
 10
1.420891069676966
 20
-3.241796256924683
 30
0.0
 10
1.420891069676966
 20
-3.241796256924683
 30
0.0
 10
1.426405325118986
 20
-3.243113921824261
 30
0.0
 10
1.422470414151209
 20
-3.252089387977902
 30
0.0
 10
1.422470414151209
 20
-3.252089387977902
 30
0.0
 10
1.41774040454335
 20
-3.262525819913991
 30
0.0
 10
1.405927269380767
 20
-3.264197463302594
 30
0.0
 10
1.405927269380767
 20
-3.264197463302594
 30
0.0
 10
1.400266530915196
 20
-3.264647124502327
 30
0.0
 10
1.404542879160431
 20
-3.259295779546935
 30
0.0
  0
SPLINE
  5
24B
330
231
100
AcDbEntity
  8
SDWC
 62
   250
420
  2301728
370
     9
100
AcDbSpline
210
0.0
220
0.0
230
1.0
 70
     8
 71
     3
 72
    14
 73
    10
 74
     0
 42
0.0000000001
 43
0.0000000001
 12
1.0
 22
0.0
 32
0.0
 13
1.0
 23
0.0
 33
0.0
 40
0.0
 40
0.0
 40
0.0
 40
0.0
 40
1.0
 40
1.0
 40
1.0
 40
2.0
 40
2.0
 40
2.0
 40
3.0
 40
3.0
 40
3.0
 40
3.0
 10
1.426229148247419
 20
-3.254721703977869
 30
0.0
 10
1.426229148247419
 20
-3.254721703977869
 30
0.0
 10
1.431755177403766
 20
-3.256051900527672
 30
0.0
 10
1.42781761521778
 20
-3.265020609309242
 30
0.0
 10
1.42781761521778
 20
-3.265020609309242
 30
0.0
 10
1.423080435213554
 20
-3.275458220594626
 30
0.0
 10
1.411272999947932
 20
-3.277120762299293
 30
0.0
 10
1.411272999947932
 20
-3.277120762299293
 30
0.0
 10
1.405636693403355
 20
-3.277571066626479
 30
0.0
 10
1.409900456934237
 20
-3.272231589563186
 30
0.0
  0
SPLINE
  5
24C
330
231
100
AcDbEntity
  8
SDWC
 62
   250
420
  2301728
370
     9
100
AcDbSpline
210
0.0
220
0.0
230
1.0
 70
     8
 71
     3
 72
    14
 73
    10
 74
     0
 42
0.0000000001
 43
0.0000000001
 12
1.0
 22
0.0
 32
0.0
 13
1.0
 23
0.0
 33
0.0
 40
0.0
 40
0.0
 40
0.0
 40
0.0
 40
1.0
 40
1.0
 40
1.0
 40
2.0
 40
2.0
 40
2.0
 40
3.0
 40
3.0
 40
3.0
 40
3.0
 10
1.433939021895867
 20
-3.267892374258117
 30
0.0
 10
1.433939021895867
 20
-3.267892374258117
 30
0.0
 10
1.439465124544464
 20
-3.269222550177283
 30
0.0
 10
1.43553035692715
 20
-3.278198809602865
 30
0.0
 10
1.43553035692715
 20
-3.278198809602865
 30
0.0
 10
1.43078357226548
 20
-3.288631615474754
 30
0.0
 10
1.418984032206607
 20
-3.290295274901748
 30
0.0
 10
1.418984032206607
 20
-3.290295274901748
 30
0.0
 10
1.413346709800344
 20
-3.290742530347643
 30
0.0
 10
1.417610404693012
 20
-3.285402239039286
 30
0.0
  0
SPLINE
  5
24D
330
231
100
AcDbEntity
  8
SDWC
 62
   250
420
  2301728
370
     9
100
AcDbSpline
210
0.0
220
0.0
230
1.0
 70
     8
 71
     3
 72
    14
 73
    10
 74
     0
 42
0.0000000001
 43
0.0000000001
 12
1.0
 22
0.0
 32
0.0
 13
1.0
 23
0.0
 33
0.0
 40
0.0
 40
0.0
 40
0.0
 40
0.0
 40
1.0
 40
1.0
 40
1.0
 40
2.0
 40
2.0
 40
2.0
 40
3.0
 40
3.0
 40
3.0
 40
3.0
 10
1.439278501435827
 20
-3.280968293903167
 30
0.0
 10
1.439278501435827
 20
-3.280968293903167
 30
0.0
 10
1.444796877977284
 20
-3.282300638682955
 30
0.0
 10
1.440875250224091
 20
-3.291264040862504
 30
0.0
 10
1.440875250224091
 20
-3.291264040862504
 30
0.0
 10
1.436129476512823
 20
-3.301700730507504
 30
0.0
 10
1.424323511746631
 20
-3.303371194546786
 30
0.0
 10
1.424323511746631
 20
-3.303371194546786
 30
0.0
 10
1.418677235984723
 20
-3.303815962286042
 30
0.0
 10
1.422939989126184
 20
-3.298472601292208
 30
0.0
  0
SPLINE
  5
24E
330
231
100
AcDbEntity
  8
SDWC
 62
   250
420
  2301728
370
     9
100
AcDbSpline
210
0.0
220
0.0
230
1.0
 70
     8
 71
     3
 72
    14
 73
    10
 74
     0
 42
0.0000000001
 43
0.0000000001
 12
1.0
 22
0.0
 32
0.0
 13
1.0
 23
0.0
 33
0.0
 40
0.0
 40
0.0
 40
0.0
 40
0.0
 40
1.0
 40
1.0
 40
1.0
 40
2.0
 40
2.0
 40
2.0
 40
3.0
 40
3.0
 40
3.0
 40
3.0
 10
1.446677131822513
 20
-3.294128814870381
 30
0.0
 10
1.446677131822513
 20
-3.294128814870381
 30
0.0
 10
1.452202461860401
 20
-3.295459207675599
 30
0.0
 10
1.448273324900053
 20
-3.304425551341069
 30
0.0
 10
1.448273324900053
 20
-3.304425551341069
 30
0.0
 10
1.443527334288799
 20
-3.31486146836077
 30
0.0
 10
1.431725842130226
 20
-3.316518174160314
 30
0.0
 10
1.431725842130226
 20
-3.316518174160314
 30
0.0
 10
1.426083036767838
 20
-3.316975303903935
 30
0.0
 10
1.43034557300934
 20
-3.311631170284866
 30
0.0
  0
SPLINE
  5
24F
330
231
100
AcDbEntity
  8
SDWC
 62
   250
420
  2301728
370
     9
100
AcDbSpline
210
0.0
220
0.0
230
1.0
 70
     8
 71
     3
 72
    14
 73
    10
 74
     0
 42
0.0000000001
 43
0.0000000001
 12
1.0
 22
0.0
 32
0.0
 13
1.0
 23
0.0
 33
0.0
 40
0.0
 40
0.0
 40
0.0
 40
0.0
 40
1.0
 40
1.0
 40
1.0
 40
2.0
 40
2.0
 40
2.0
 40
3.0
 40
3.0
 40
3.0
 40
3.0
 10
1.453169455765192
 20
-3.306905281727786
 30
0.0
 10
1.453169455765192
 20
-3.306905281727786
 30
0.0
 10
1.458692304914254
 20
-3.308223868267823
 30
0.0
 10
1.454762395343159
 20
-3.317190428819382
 30
0.0
 10
1.454762395343159
 20
-3.317190428819382
 30
0.0
 10
1.450010535735297
 20
-3.327632160940059
 30
0.0
 10
1.438203486469244
 20
-3.329298761852947
 30
0.0
 10
1.438203486469244
 20
-3.329298761852947
 30
0.0
 10
1.432558295207236
 20
-3.329747392718559
 30
0.0
 10
1.436829858955725
 20
-3.324405725990484
 30
0.0
  0
SPLINE
  5
250
330
231
100
AcDbEntity
  8
SDWC
 62
   250
420
  2301728
370
     9
100
AcDbSpline
210
0.0
220
0.0
230
1.0
 70
     8
 71
     3
 72
    14
 73
    10
 74
     0
 42
0.0000000001
 43
0.0000000001
 12
1.0
 22
0.0
 32
0.0
 13
1.0
 23
0.0
 33
0.0
 40
0.0
 40
0.0
 40
0.0
 40
0.0
 40
1.0
 40
1.0
 40
1.0
 40
2.0
 40
2.0
 40
2.0
 40
3.0
 40
3.0
 40
3.0
 40
3.0
 10
1.459410613639963
 20
-3.319336332495343
 30
0.0
 10
1.459410613639963
 20
-3.319336332495343
 30
0.0
 10
1.464927905681571
 20
-3.320664814148762
 30
0.0
 10
1.461009843317129
 20
-3.329643885719911
 30
0.0
 10
1.461009843317129
 20
-3.329643885719911
 30
0.0
 10
1.456262985105973
 20
-3.340076712238531
 30
0.0
 10
1.444456708450641
 20
-3.341743096265367
 30
0.0
 10
1.444456708450641
 20
-3.341743096265367
 30
0.0
 10
1.438827498192053
 20
-3.342192242047379
 30
0.0
 10
1.443090034433491
 20
-3.336848108428323
 30
0.0
  0
SPLINE
  5
251
330
231
100
AcDbEntity
  8
SDWC
 62
   250
420
  2301728
370
     9
100
AcDbSpline
210
0.0
220
0.0
230
1.0
 70
     8
 71
     3
 72
    14
 73
    10
 74
     0
 42
0.0000000001
 43
0.0000000001
 12
1.0
 22
0.0
 32
0.0
 13
1.0
 23
0.0
 33
0.0
 40
0.0
 40
0.0
 40
0.0
 40
0.0
 40
1.0
 40
1.0
 40
1.0
 40
2.0
 40
2.0
 40
2.0
 40
3.0
 40
3.0
 40
3.0
 40
3.0
 10
1.464984575228085
 20
-3.332814029553788
 30
0.0
 10
1.464984575228085
 20
-3.332814029553788
 30
0.0
 10
1.470504036269404
 20
-3.334150237459969
 30
0.0
 10
1.466574899309017
 20
-3.343116581125489
 30
0.0
 10
1.466574899309017
 20
-3.343116581125489
 30
0.0
 10
1.461836634804955
 20
-3.353550329284505
 30
0.0
 10
1.450022943931584
 20
-3.355222962184434
 30
0.0
 10
1.450022943931584
 20
-3.355222962184434
 30
0.0
 10
1.444375800569825
 20
-3.355664639422609
 30
0.0
 10
1.448640505810987
 20
-3.350328232056262
 30
0.0
  0
SPLINE
  5
252
330
231
100
AcDbEntity
  8
SDWC
 62
   250
420
  2301728
370
     9
100
AcDbSpline
210
0.0
220
0.0
230
1.0
 70
     8
 71
     3
 72
    14
 73
    10
 74
     0
 42
0.0000000001
 43
0.0000000001
 12
1.0
 22
0.0
 32
0.0
 13
1.0
 23
0.0
 33
0.0
 40
0.0
 40
0.0
 40
0.0
 40
0.0
 40
1.0
 40
1.0
 40
1.0
 40
2.0
 40
2.0
 40
2.0
 40
3.0
 40
3.0
 40
3.0
 40
3.0
 10
1.471525616239458
 20
-3.344371560699996
 30
0.0
 10
1.471525616239458
 20
-3.344371560699996
 30
0.0
 10
1.477043052159906
 20
-3.345700835477057
 30
0.0
 10
1.473113771320691
 20
-3.354666386018885
 30
0.0
 10
1.473113771320691
 20
-3.354666386018885
 30
0.0
 10
1.468367997609435
 20
-3.365103075663847
 30
0.0
 10
1.456575242418959
 20
-3.366761496400916
 30
0.0
 10
1.456575242418959
 20
-3.366761496400916
 30
0.0
 10
1.450923483188477
 20
-3.367216138581751
 30
0.0
 10
1.455202482505279
 20
-3.361871551039523
 30
0.0
  0
SPLINE
  5
253
330
231
100
AcDbEntity
  8
SDWC
 62
   250
420
  2301728
370
     9
100
AcDbSpline
210
0.0
220
0.0
230
1.0
 70
     8
 71
     3
 72
    14
 73
    10
 74
     0
 42
0.0000000001
 43
0.0000000001
 12
1.0
 22
0.0
 32
0.0
 13
1.0
 23
0.0
 33
0.0
 40
0.0
 40
0.0
 40
0.0
 40
0.0
 40
1.0
 40
1.0
 40
1.0
 40
2.0
 40
2.0
 40
2.0
 40
3.0
 40
3.0
 40
3.0
 40
3.0
 10
1.477538350637676
 20
-3.358076161644375
 30
0.0
 10
1.477538350637676
 20
-3.358076161644375
 30
0.0
 10
1.483070322282944
 20
-3.359400522462566
 30
0.0
 10
1.479141185322583
 20
-3.368366866128061
 30
0.0
 10
1.479141185322583
 20
-3.368366866128061
 30
0.0
 10
1.474397580611013
 20
-3.378811282025784
 30
0.0
 10
1.462580107448945
 20
-3.38046747290889
 30
0.0
 10
1.462580107448945
 20
-3.38046747290889
 30
0.0
 10
1.456942859194075
 20
-3.380914707539104
 30
0.0
 10
1.461213433431832
 20
-3.375572485071832
 30
0.0
  0
SPLINE
  5
254
330
231
100
AcDbEntity
  8
SDWC
 62
   250
420
  2301728
370
     9
100
AcDbSpline
210
0.0
220
0.0
230
1.0
 70
     8
 71
     3
 72
    14
 73
    10
 74
     0
 42
0.0000000001
 43
0.0000000001
 12
1.0
 22
0.0
 32
0.0
 13
1.0
 23
0.0
 33
0.0
 40
0.0
 40
0.0
 40
0.0
 40
0.0
 40
1.0
 40
1.0
 40
1.0
 40
2.0
 40
2.0
 40
2.0
 40
3.0
 40
3.0
 40
3.0
 40
3.0
 10
1.483614798177971
 20
-3.37070431550775
 30
0.0
 10
1.483614798177971
 20
-3.37070431550775
 30
0.0
 10
1.489131222619689
 20
-3.372029706660088
 30
0.0
 10
1.485209833693716
 20
-3.38099720936192
 30
0.0
 10
1.485209833693716
 20
-3.38099720936192
 30
0.0
 10
1.48046413304438
 20
-3.391433878497044
 30
0.0
 10
1.468649045782008
 20
-3.393098568258198
 30
0.0
 10
1.468649045782008
 20
-3.393098568258198
 30
0.0
 10
1.463011580627141
 20
-3.393545030263137
 30
0.0
 10
1.467269644260998
 20
-3.388214654883844
 30
0.0
  0
SPLINE
  5
255
330
231
100
AcDbEntity
  8
SDWC
 62
   250
420
  2301728
370
     9
100
AcDbSpline
210
0.0
220
0.0
230
1.0
 70
     8
 71
     3
 72
    14
 73
    10
 74
     0
 42
0.0000000001
 43
0.0000000001
 12
1.0
 22
0.0
 32
0.0
 13
1.0
 23
0.0
 33
0.0
 40
0.0
 40
0.0
 40
0.0
 40
0.0
 40
1.0
 40
1.0
 40
1.0
 40
2.0
 40
2.0
 40
2.0
 40
3.0
 40
3.0
 40
3.0
 40
3.0
 10
1.490399352842436
 20
-3.383215374936185
 30
0.0
 10
1.490399352842436
 20
-3.383215374936185
 30
0.0
 10
1.49591772938393
 20
-3.384547719715998
 30
0.0
 10
1.491988904312683
 20
-3.3935181433939
 30
0.0
 10
1.491988904312683
 20
-3.3935181433939
 30
0.0
 10
1.487243130601364
 20
-3.4039548330389
 30
0.0
 10
1.475444363153239
 20
-3.405618275579816
 30
0.0
 10
1.475444363153239
 20
-3.405618275579816
 30
0.0
 10
1.469799388791204
 20
-3.406067679070677
 30
0.0
 10
1.47406965113982
 20
-3.400721376590986
 30
0.0
  0
SPLINE
  5
256
330
231
100
AcDbEntity
  8
SDWC
 62
   250
420
  2301728
370
     9
100
AcDbSpline
210
0.0
220
0.0
230
1.0
 70
     8
 71
     3
 72
    14
 73
    10
 74
     0
 42
0.0000000001
 43
0.0000000001
 12
1.0
 22
0.0
 32
0.0
 13
1.0
 23
0.0
 33
0.0
 40
0.0
 40
0.0
 40
0.0
 40
0.0
 40
1.0
 40
1.0
 40
1.0
 40
2.0
 40
2.0
 40
2.0
 40
3.0
 40
3.0
 40
3.0
 40
3.0
 10
1.496512759767496
 20
-3.396554142444579
 30
0.0
 10
1.496512759767496
 20
-3.396554142444579
 30
0.0
 10
1.502043646912865
 20
-3.397874640136415
 30
0.0
 10
1.498106783845325
 20
-3.406843152662519
 30
0.0
 10
1.498106783845325
 20
-3.406843152662519
 30
0.0
 10
1.493377546848238
 20
-3.417279367712556
 30
0.0
 10
1.481560385575335
 20
-3.418939638608119
 30
0.0
 10
1.481560385575335
 20
-3.418939638608119
 30
0.0
 10
1.475916495713123
 20
-3.419392905225398
 30
0.0
 10
1.480181200954298
 20
-3.414056497859052
 30
0.0
  0
SPLINE
  5
257
330
231
100
AcDbEntity
  8
SDWC
 62
   250
420
  2301728
370
     9
100
AcDbSpline
210
0.0
220
0.0
230
1.0
 70
     8
 71
     3
 72
    14
 73
    10
 74
     0
 42
0.0000000001
 43
0.0000000001
 12
1.0
 22
0.0
 32
0.0
 13
1.0
 23
0.0
 33
0.0
 40
0.0
 40
0.0
 40
0.0
 40
0.0
 40
1.0
 40
1.0
 40
1.0
 40
2.0
 40
2.0
 40
2.0
 40
3.0
 40
3.0
 40
3.0
 40
3.0
 10
1.502452425718085
 20
-3.408724753130387
 30
0.0
 10
1.502452425718085
 20
-3.408724753130387
 30
0.0
 10
1.507969645039755
 20
-3.410053255197643
 30
0.0
 10
1.504047317395829
 20
-3.419016853849446
 30
0.0
 10
1.504047317395829
 20
-3.419016853849446
 30
0.0
 10
1.499303712684284
 20
-3.429461269747157
 30
0.0
 10
1.487487467583959
 20
-3.43112211696929
 30
0.0
 10
1.487487467583959
 20
-3.43112211696929
 30
0.0
 10
1.481865839870617
 20
-3.431568300678009
 30
0.0
 10
1.486122433777609
 20
-3.426230002747186
 30
0.0
  0
SPLINE
  5
258
330
231
100
AcDbEntity
  8
SDWC
 62
   250
420
  2301728
370
     9
100
AcDbSpline
210
0.0
220
0.0
230
1.0
 70
     8
 71
     3
 72
    14
 73
    10
 74
     0
 42
0.0000000001
 43
0.0000000001
 12
1.0
 22
0.0
 32
0.0
 13
1.0
 23
0.0
 33
0.0
 40
0.0
 40
0.0
 40
0.0
 40
0.0
 40
1.0
 40
1.0
 40
1.0
 40
2.0
 40
2.0
 40
2.0
 40
3.0
 40
3.0
 40
3.0
 40
3.0
 10
1.509395013588775
 20
-3.421626543560263
 30
0.0
 10
1.509395013588775
 20
-3.421626543560263
 30
0.0
 10
1.514911221130534
 20
-3.422951162087328
 30
0.0
 10
1.510982011377033
 20
-3.43191752618716
 30
0.0
 10
1.510982011377033
 20
-3.43191752618716
 30
0.0
 10
1.50624403656607
 20
-3.442352026537087
 30
0.0
 10
1.494436770400019
 20
-3.444017854824753
 30
0.0
 10
1.494436770400019
 20
-3.444017854824753
 30
0.0
 10
1.488777116434335
 20
-3.444471379150855
 30
0.0
 10
1.493062058386626
 20
-3.439120955835922
 30
0.0
  0
SPLINE
  5
259
330
231
100
AcDbEntity
  8
SDWC
 62
   250
420
  2301728
370
     9
100
AcDbSpline
210
0.0
220
0.0
230
1.0
 70
     8
 71
     3
 72
    14
 73
    10
 74
     0
 42
0.0000000001
 43
0.0000000001
 12
1.0
 22
0.0
 32
0.0
 13
1.0
 23
0.0
 33
0.0
 40
0.0
 40
0.0
 40
0.0
 40
0.0
 40
1.0
 40
1.0
 40
1.0
 40
2.0
 40
2.0
 40
2.0
 40
3.0
 40
3.0
 40
3.0
 40
3.0
 10
1.514769159925309
 20
-3.434244301552692
 30
0.0
 10
1.514769159925309
 20
-3.434244301552692
 30
0.0
 10
1.520292393683298
 20
-3.435566947691414
 30
0.0
 10
1.516373151829801
 20
-3.444538848748973
 30
0.0
 10
1.516373151829801
 20
-3.444538848748973
 30
0.0
 10
1.511621604111105
 20
-3.454984660882094
 30
0.0
 10
1.499827838059673
 20
-3.456639197820954
 30
0.0
 10
1.499827838059673
 20
-3.456639197820954
 30
0.0
 10
1.494169268593825
 20
-3.457096585273436
 30
0.0
 10
1.498431804835339
 20
-3.451752451654367
 30
0.0
  0
SPLINE
  5
25A
330
231
100
AcDbEntity
  8
SDWC
 62
   250
420
  2301728
370
     9
100
AcDbSpline
210
0.0
220
0.0
230
1.0
 70
     8
 71
     3
 72
    14
 73
    10
 74
     0
 42
0.0000000001
 43
0.0000000001
 12
1.0
 22
0.0
 32
0.0
 13
1.0
 23
0.0
 33
0.0
 40
0.0
 40
0.0
 40
0.0
 40
0.0
 40
1.0
 40
1.0
 40
1.0
 40
2.0
 40
2.0
 40
2.0
 40
3.0
 40
3.0
 40
3.0
 40
3.0
 10
1.521262039571171
 20
-3.445600306103668
 30
0.0
 10
1.521262039571171
 20
-3.445600306103668
 30
0.0
 10
1.526785200609412
 20
-3.44692297265615
 30
0.0
 10
1.522858015748776
 20
-3.455896269949132
 30
0.0
 10
1.522858015748776
 20
-3.455896269949132
 30
0.0
 10
1.518117799144976
 20
-3.466323064480674
 30
0.0
 10
1.506311834378746
 20
-3.467993528519994
 30
0.0
 10
1.506311834378746
 20
-3.467993528519994
 30
0.0
 10
1.500666643116751
 20
-3.468442159385568
 30
0.0
 10
1.504915801154425
 20
-3.463106782353407
 30
0.0
  0
SPLINE
  5
25B
330
231
100
AcDbEntity
  8
SDWC
 62
   250
420
  2301728
370
     9
100
AcDbSpline
210
0.0
220
0.0
230
1.0
 70
     8
 71
     3
 72
    14
 73
    10
 74
     0
 42
0.0000000001
 43
0.0000000001
 12
1.0
 22
0.0
 32
0.0
 13
1.0
 23
0.0
 33
0.0
 40
0.0
 40
0.0
 40
0.0
 40
0.0
 40
1.0
 40
1.0
 40
1.0
 40
2.0
 40
2.0
 40
2.0
 40
3.0
 40
3.0
 40
3.0
 40
3.0
 10
1.527614683065748
 20
-3.459241995311837
 30
0.0
 10
1.527614683065748
 20
-3.459241995311837
 30
0.0
 10
1.533147739210853
 20
-3.460570219256422
 30
0.0
 10
1.529210659243353
 20
-3.469537959157289
 30
0.0
 10
1.529210659243353
 20
-3.469537959157289
 30
0.0
 10
1.524464812738706
 20
-3.47997466923669
 30
0.0
 10
1.512666429973024
 20
-3.481642171355601
 30
0.0
 10
1.512666429973024
 20
-3.481642171355601
 30
0.0
 10
1.507013344398779
 20
-3.482089684247764
 30
0.0
 10
1.511285848963085
 20
-3.476751087467707
 30
0.0
  0
SPLINE
  5
25C
330
231
100
AcDbEntity
  8
SDWC
 62
   250
420
  2301728
370
     9
100
AcDbSpline
210
0.0
220
0.0
230
1.0
 70
     8
 71
     3
 72
    14
 73
    10
 74
     0
 42
0.0000000001
 43
0.0000000001
 12
1.0
 22
0.0
 32
0.0
 13
1.0
 23
0.0
 33
0.0
 40
0.0
 40
0.0
 40
0.0
 40
0.0
 40
1.0
 40
1.0
 40
1.0
 40
2.0
 40
2.0
 40
2.0
 40
3.0
 40
3.0
 40
3.0
 40
3.0
 10
1.533728703001872
 20
-3.470988580729277
 30
0.0
 10
1.533728703001872
 20
-3.470988580729277
 30
0.0
 10
1.539251864040087
 20
-3.472311247281772
 30
0.0
 10
1.53532381157955
 20
-3.481281454073635
 30
0.0
 10
1.53532381157955
 20
-3.481281454073635
 30
0.0
 10
1.530577820968309
 20
-3.491717371093323
 30
0.0
 10
1.518755007598783
 20
-3.493384229715098
 30
0.0
 10
1.518755007598783
 20
-3.493384229715098
 30
0.0
 10
1.51313352344736
 20
-3.493831206636464
 30
0.0
 10
1.517396059688837
 20
-3.488487073017394
 30
0.0
  0
SPLINE
  5
25D
330
231
100
AcDbEntity
  8
SDWC
 62
   250
420
  2301728
370
     9
100
AcDbSpline
210
0.0
220
0.0
230
1.0
 70
     8
 71
     3
 72
    14
 73
    10
 74
     0
 42
0.0000000001
 43
0.0000000001
 12
1.0
 22
0.0
 32
0.0
 13
1.0
 23
0.0
 33
0.0
 40
0.0
 40
0.0
 40
0.0
 40
0.0
 40
1.0
 40
1.0
 40
1.0
 40
2.0
 40
2.0
 40
2.0
 40
3.0
 40
3.0
 40
3.0
 40
3.0
 10
1.539776836698277
 20
-3.483254602997135
 30
0.0
 10
1.539776836698277
 20
-3.483254602997135
 30
0.0
 10
1.545297382239444
 20
-3.484594674029684
 30
0.0
 10
1.541373897375719
 20
-3.493554429968956
 30
0.0
 10
1.541373897375719
 20
-3.493554429968956
 30
0.0
 10
1.536629208164287
 20
-3.503994982740273
 30
0.0
 10
1.524822158898208
 20
-3.505661583653225
 30
0.0
 10
1.524822158898208
 20
-3.505661583653225
 30
0.0
 10
1.519182524743655
 20
-3.506100319405403
 30
0.0
 10
1.523455172991943
 20
-3.500762515803747
 30
0.0
  0
SPLINE
  5
25E
330
231
100
AcDbEntity
  8
SDWC
 62
   250
420
  2301728
370
     9
100
AcDbSpline
210
0.0
220
0.0
230
1.0
 70
     8
 71
     3
 72
    14
 73
    10
 74
     0
 42
0.0000000001
 43
0.0000000001
 12
1.0
 22
0.0
 32
0.0
 13
1.0
 23
0.0
 33
0.0
 40
0.0
 40
0.0
 40
0.0
 40
0.0
 40
1.0
 40
1.0
 40
1.0
 40
2.0
 40
2.0
 40
2.0
 40
3.0
 40
3.0
 40
3.0
 40
3.0
 10
1.545496483304431
 20
-3.495018542809033
 30
0.0
 10
1.545496483304431
 20
-3.495018542809033
 30
0.0
 10
1.551014859845888
 20
-3.496350887588821
 30
0.0
 10
1.547092459482011
 20
-3.505314506654448
 30
0.0
 10
1.547092459482011
 20
-3.505314506654448
 30
0.0
 10
1.542346685770718
 20
-3.515751196299422
 30
0.0
 10
1.530541493615197
 20
-3.51742144345264
 30
0.0
 10
1.530541493615197
 20
-3.51742144345264
 30
0.0
 10
1.524896302353164
 20
-3.517870074318264
 30
0.0
 10
1.529160139994449
 20
-3.512530576450836
 30
0.0
  0
SPLINE
  5
25F
330
231
100
AcDbEntity
  8
SDWC
 62
   250
420
  2301728
370
     9
100
AcDbSpline
210
0.0
220
0.0
230
1.0
 70
     8
 71
     3
 72
    14
 73
    10
 74
     0
 42
0.0000000001
 43
0.0000000001
 12
1.0
 22
0.0
 32
0.0
 13
1.0
 23
0.0
 33
0.0
 40
0.0
 40
0.0
 40
0.0
 40
0.0
 40
1.0
 40
1.0
 40
1.0
 40
2.0
 40
2.0
 40
2.0
 40
3.0
 40
3.0
 40
3.0
 40
3.0
 10
1.55107236749945
 20
-3.508007261483827
 30
0.0
 10
1.55107236749945
 20
-3.508007261483827
 30
0.0
 10
1.556595528537665
 20
-3.509329928036297
 30
0.0
 10
1.552683023280653
 20
-3.518299104494026
 30
0.0
 10
1.552683023280653
 20
-3.518299104494026
 30
0.0
 10
1.547923654465611
 20
-3.528743778100609
 30
0.0
 10
1.536129888414179
 20
-3.530398315039469
 30
0.0
 10
1.536129888414179
 20
-3.530398315039469
 30
0.0
 10
1.530485781651982
 20
-3.530850809031487
 30
0.0
 10
1.534749619293305
 20
-3.525511311164033
 30
0.0
  0
SPLINE
  5
260
330
231
100
AcDbEntity
  8
SDWC
 62
   250
420
  2301728
370
     9
100
AcDbSpline
210
0.0
220
0.0
230
1.0
 70
     8
 71
     3
 72
    14
 73
    10
 74
     0
 42
0.0000000001
 43
0.0000000001
 12
1.0
 22
0.0
 32
0.0
 13
1.0
 23
0.0
 33
0.0
 40
0.0
 40
0.0
 40
0.0
 40
0.0
 40
1.0
 40
1.0
 40
1.0
 40
2.0
 40
2.0
 40
2.0
 40
3.0
 40
3.0
 40
3.0
 40
3.0
 10
1.557683150249065
 20
-3.520074495652933
 30
0.0
 10
1.557683150249065
 20
-3.520074495652933
 30
0.0
 10
1.563209564786803
 20
-3.521408751584545
 30
0.0
 10
1.559281295426318
 20
-3.530378185751134
 30
0.0
 10
1.559281295426318
 20
-3.530378185751134
 30
0.0
 10
1.55453552171505
 20
-3.540814875396133
 30
0.0
 10
1.542728087783303
 20
-3.542477416726342
 30
0.0
 10
1.542728087783303
 20
-3.542477416726342
 30
0.0
 10
1.537082969297848
 20
-3.542926027162177
 30
0.0
 10
1.541354460269733
 20
-3.537584380863803
 30
0.0
  0
SPLINE
  5
261
330
231
100
AcDbEntity
  8
SDWC
 62
   250
420
  2301728
370
     9
100
AcDbSpline
210
0.0
220
0.0
230
1.0
 70
     8
 71
     3
 72
    14
 73
    10
 74
     0
 42
0.0000000001
 43
0.0000000001
 12
1.0
 22
0.0
 32
0.0
 13
1.0
 23
0.0
 33
0.0
 40
0.0
 40
0.0
 40
0.0
 40
0.0
 40
1.0
 40
1.0
 40
1.0
 40
2.0
 40
2.0
 40
2.0
 40
3.0
 40
3.0
 40
3.0
 40
3.0
 10
1.562953334548133
 20
-3.53261558154222
 30
0.0
 10
1.562953334548133
 20
-3.53261558154222
 30
0.0
 10
1.56848607880411
 20
-3.533939725474359
 30
0.0
 10
1.564550300236419
 20
-3.542912101126843
 30
0.0
 10
1.564550300236419
 20
-3.542912101126843
 30
0.0
 10
1.559811480021583
 20
-3.553346838797248
 30
0.0
 10
1.547996175859263
 20
-3.555010755933115
 30
0.0
 10
1.547996175859263
 20
-3.555010755933115
 30
0.0
 10
1.542358927604381
 20
-3.555457990563342
 30
0.0
 10
1.546622548345656
 20
-3.550117720070653
 30
0.0
  0
SPLINE
  5
262
330
231
100
AcDbEntity
  8
SDWC
 62
   250
420
  2301728
370
     9
100
AcDbSpline
210
0.0
220
0.0
230
1.0
 70
     8
 71
     3
 72
    14
 73
    10
 74
     0
 42
0.0000000001
 43
0.0000000001
 12
1.0
 22
0.0
 32
0.0
 13
1.0
 23
0.0
 33
0.0
 40
0.0
 40
0.0
 40
0.0
 40
0.0
 40
1.0
 40
1.0
 40
1.0
 40
2.0
 40
2.0
 40
2.0
 40
3.0
 40
3.0
 40
3.0
 40
3.0
 10
1.569825830137562
 20
-3.544222598019524
 30
0.0
 10
1.569825830137562
 20
-3.544222598019524
 30
0.0
 10
1.575343339079091
 20
-3.54555185229823
 30
0.0
 10
1.571406259111591
 20
-3.55451959219911
 30
0.0
 10
1.571406259111591
 20
-3.55451959219911
 30
0.0
 10
1.566668211507476
 20
-3.564954112983413
 30
0.0
 10
1.55486780384874
 20
-3.566614681909325
 30
0.0
 10
1.55486780384874
 20
-3.566614681909325
 30
0.0
 10
1.549217055479264
 20
-3.567073207888307
 30
0.0
 10
1.553481448831285
 20
-3.561732720509591
 30
0.0
  0
SPLINE
  5
263
330
231
100
AcDbEntity
  8
SDWC
 62
   250
420
  2301728
370
     9
100
AcDbSpline
210
0.0
220
0.0
230
1.0
 70
     8
 71
     3
 72
    14
 73
    10
 74
     0
 42
0.0000000001
 43
0.0000000001
 12
1.0
 22
0.0
 32
0.0
 13
1.0
 23
0.0
 33
0.0
 40
0.0
 40
0.0
 40
0.0
 40
0.0
 40
1.0
 40
1.0
 40
1.0
 40
2.0
 40
2.0
 40
2.0
 40
3.0
 40
3.0
 40
3.0
 40
3.0
 10
1.575050370453659
 20
-3.556598125214047
 30
0.0
 10
1.575050370453659
 20
-3.556598125214047
 30
0.0
 10
1.580582342098877
 20
-3.557922486032226
 30
0.0
 10
1.576644322388637
 20
-3.566887155683806
 30
0.0
 10
1.576644322388637
 20
-3.566887155683806
 30
0.0
 10
1.571899488420083
 20
-3.577326915578093
 30
0.0
 10
1.560085485657547
 20
-3.578995468465589
 30
0.0
 10
1.560085485657547
 20
-3.578995468465589
 30
0.0
 10
1.55446284426153
 20
-3.579438602681357
 30
0.0
 10
1.558719584251182
 20
-3.574100263742442
 30
0.0
  0
SPLINE
  5
264
330
231
100
AcDbEntity
  8
SDWC
 62
   250
420
  2301728
370
     9
100
AcDbSpline
210
0.0
220
0.0
230
1.0
 70
     8
 71
     3
 72
    14
 73
    10
 74
     0
 42
0.0000000001
 43
0.0000000001
 12
1.0
 22
0.0
 32
0.0
 13
1.0
 23
0.0
 33
0.0
 40
0.0
 40
0.0
 40
0.0
 40
0.0
 40
1.0
 40
1.0
 40
1.0
 40
2.0
 40
2.0
 40
2.0
 40
3.0
 40
3.0
 40
3.0
 40
3.0
 10
1.581346235339449
 20
-3.568615399457131
 30
0.0
 10
1.581346235339449
 20
-3.568615399457131
 30
0.0
 10
1.586863527381044
 20
-3.569943881110526
 30
0.0
 10
1.582942428416964
 20
-3.578912135927819
 30
0.0
 10
1.582942428416964
 20
-3.578912135927819
 30
0.0
 10
1.578197522305572
 20
-3.589351916073876
 30
0.0
 10
1.566375793435883
 20
-3.591022637822043
 30
0.0
 10
1.566375793435883
 20
-3.591022637822043
 30
0.0
 10
1.560746054388169
 20
-3.591466930966337
 30
0.0
 10
1.565009892029517
 20
-3.586127433098934
 30
0.0
  0
SPLINE
  5
265
330
231
100
AcDbEntity
  8
SDWC
 62
   250
420
  2301728
370
     9
100
AcDbSpline
210
0.0
220
0.0
230
1.0
 70
     8
 71
     3
 72
    14
 73
    10
 74
     0
 42
0.0000000001
 43
0.0000000001
 12
1.0
 22
0.0
 32
0.0
 13
1.0
 23
0.0
 33
0.0
 40
0.0
 40
0.0
 40
0.0
 40
0.0
 40
1.0
 40
1.0
 40
1.0
 40
2.0
 40
2.0
 40
2.0
 40
3.0
 40
3.0
 40
3.0
 40
3.0
 10
1.586571763236002
 20
-3.582618500489982
 30
0.0
 10
1.586571763236002
 20
-3.582618500489982
 30
0.0
 10
1.59105204454118
 20
-3.583676302341549
 30
0.0
 10
1.587827888100188
 20
-3.590979428967254
 30
0.0
 10
1.587827888100188
 20
-3.590979428967254
 30
0.0
 10
1.583943276549563
 20
-3.599469006737005
 30
0.0
 10
1.574333557073917
 20
-3.600872186238917
 30
0.0
 10
1.574333557073917
 20
-3.600872186238917
 30
0.0
 10
1.569735653621289
 20
-3.601251039140051
 30
0.0
 10
1.573241435746783
 20
-3.59689284049624
 30
0.0
  0
INSERT
  5
267
330
231
100
AcDbEntity
  8
SDWC
100
AcDbBlockReference
  2
block 3
 10
0.0
 20
0.0
 30
0.0
  0
ENDBLK
  5
234
330
231
100
AcDbEntity
  8
0
100
AcDbBlockEnd
  0
BLOCK
  5
268
330
266
100
AcDbEntity
  8
0
100
AcDbBlockBegin
  2
block 3
 70
     0
 10
0.0
 20
0.0
 30
0.0
  3
block 3
  1

  0
INSERT
  5
26B
330
266
100
AcDbEntity
  8
SDWC
100
AcDbBlockReference
  2
block 4
 10
0.0
 20
0.0
 30
0.0
  0
SPLINE
  5
272
330
266
100
AcDbEntity
  8
SDWC
 62
   250
420
  2301728
370
    13
100
AcDbSpline
210
0.0
220
0.0
230
1.0
 70
     8
 71
     3
 72
     8
 73
     4
 74
     0
 42
0.0000000001
 43
0.0000000001
 12
1.0
 22
0.0
 32
0.0
 13
1.0
 23
0.0
 33
0.0
 40
0.0
 40
0.0
 40
0.0
 40
0.0
 40
1.0
 40
1.0
 40
1.0
 40
1.0
 10
1.335549707771646
 20
-3.050586745942559
 30
0.0
 10
1.331626728952566
 20
-3.061374254038469
 30
0.0
 10
1.31556560141309
 20
-3.074706478098859
 30
0.0
 10
1.299699823777903
 20
-3.068203764633634
 30
0.0
  0
SPLINE
  5
273
330
266
100
AcDbEntity
  8
SDWC
 62
   250
420
  2301728
370
     9
100
AcDbSpline
210
0.0
220
0.0
230
1.0
 70
     8
 71
     3
 72
    23
 73
    19
 74
     0
 42
0.0000000001
 43
0.0000000001
 12
1.0
 22
0.0
 32
0.0
 13
1.0
 23
0.0
 33
0.0
 40
0.0
 40
0.0
 40
0.0
 40
0.0
 40
1.0
 40
1.0
 40
1.0
 40
2.0
 40
2.0
 40
2.0
 40
3.0
 40
3.0
 40
3.0
 40
4.0
 40
4.0
 40
4.0
 40
5.0
 40
5.0
 40
5.0
 40
6.0
 40
6.0
 40
6.0
 40
6.0
 10
1.327373360959541
 20
-3.058660743431435
 30
0.0
 10
1.327373360959541
 20
-3.058660743431435
 30
0.0
 10
1.321115724602919
 20
-3.060059800149411
 30
0.0
 10
1.319052748067368
 20
-3.064513084533271
 30
0.0
 10
1.319052748067368
 20
-3.064513084533271
 30
0.0
 10
1.310793368095069
 20
-3.063185024905642
 30
0.0
 10
1.307559987823689
 20
-3.066485710419089
 30
0.0
 10
1.307559987823689
 20
-3.066485710419089
 30
0.0
 10
1.311446382144254
 20
-3.063278438175808
 30
0.0
 10
1.306475905940576
 20
-3.061288012253865
 30
0.0
 10
1.306475905940576
 20
-3.061288012253865
 30
0.0
 10
1.314200445623884
 20
-3.060535730369414
 30
0.0
 10
1.315595218363923
 20
-3.053616117416153
 30
0.0
 10
1.315595218363923
 20
-3.053616117416153
 30
0.0
 10
1.321844044894381
 20
-3.057087250241276
 30
0.0
 10
1.327196797861486
 20
-3.051710464992349
 30
0.0
 10
1.327196797861486
 20
-3.051710464992349
 30
0.0
 10
1.322280448117719
 20
-3.058235017768513
 30
0.0
 10
1.327615123564038
 20
-3.05847951843273
 30
0.0
  0
ENDBLK
  5
269
330
266
100
AcDbEntity
  8
0
100
AcDbBlockEnd
  0
BLOCK
  5
26C
330
26A
100
AcDbEntity
  8
0
100
AcDbBlockBegin
  2
block 4
 70
     0
 10
0.0
 20
0.0
 30
0.0
  3
block 4
  1

  0
SPLINE
  5
26E
330
26A
100
AcDbEntity
  8
SDWC
 62
   250
420
  2301728
370
    13
100
AcDbSpline
210
0.0
220
0.0
230
1.0
 70
     8
 71
     3
 72
    20
 73
    16
 74
     0
 42
0.0000000001
 43
0.0000000001
 12
1.0
 22
0.0
 32
0.0
 13
1.0
 23
0.0
 33
0.0
 40
0.0
 40
0.0
 40
0.0
 40
0.0
 40
1.0
 40
1.0
 40
1.0
 40
2.0
 40
2.0
 40
2.0
 40
3.0
 40
3.0
 40
3.0
 40
4.0
 40
4.0
 40
4.0
 40
5.0
 40
5.0
 40
5.0
 40
5.0
 10
1.305391186998059
 20
-3.079287995811506
 30
0.0
 10
1.305391186998059
 20
-3.079287995811506
 30
0.0
 10
1.298738484951817
 20
-3.06678076506503
 30
0.0
 10
1.298738484951817
 20
-3.06678076506503
 30
0.0
 10
1.298738484951817
 20
-3.06678076506503
 30
0.0
 10
1.299093250514513
 20
-3.065232530078863
 30
0.0
 10
1.300314633140058
 20
-3.063000924800879
 30
0.0
 10
1.302208981479099
 20
-3.059571021290922
 30
0.0
 10
1.306215925815852
 20
-3.054507015302508
 30
0.0
 10
1.314302666353847
 20
-3.050983314527381
 30
0.0
 10
1.32747808008273
 20
-3.045233457388564
 30
0.0
 10
1.334817790351609
 20
-3.049603618978936
 30
0.0
 10
1.334817790351609
 20
-3.049603618978936
 30
0.0
 10
1.334817790351609
 20
-3.049603618978936
 30
0.0
 10
1.343509543324305
 20
-3.067545579417292
 30
0.0
 10
1.343509543324305
 20
-3.067545579417292
 30
0.0
  0
HATCH
  5
26F
330
26A
100
AcDbEntity
  8
SDWC
 62
   252
420
  9672087
100
AcDbHatch
 10
0.0
 20
0.0
 30
0.0
210
0.0
220
0.0
230
1.0
  2
SOLID
 70
     1
 71
     0
 91
        1
 92
        1
 93
        2
 72
     4
 94
        3
 73
     0
 74
     0
 95
       20
 96
       16
 40
0.0
 40
0.0
 40
0.0
 40
0.0
 40
0.0138888888888889
 40
0.0138888888888889
 40
0.0138888888888889
 40
0.0277777777777778
 40
0.0277777777777778
 40
0.0277777777777778
 40
0.0416666666666667
 40
0.0416666666666667
 40
0.0416666666666667
 40
0.0555555555555556
 40
0.0555555555555556
 40
0.0555555555555556
 40
0.0694444444444444
 40
0.0694444444444444
 40
0.0694444444444444
 40
0.0694444444444444
 10
1.305391186998059
 20
-3.079287995811506
 10
1.305391186998059
 20
-3.079287995811506
 10
1.298738484951817
 20
-3.06678076506503
 10
1.298738484951817
 20
-3.06678076506503
 10
1.298738484951817
 20
-3.06678076506503
 10
1.299093250514513
 20
-3.065232530078863
 10
1.300314633140058
 20
-3.063000924800879
 10
1.302208981479099
 20
-3.059571021290922
 10
1.306215925815852
 20
-3.054507015302508
 10
1.314302666353847
 20
-3.050983314527381
 10
1.32747808008273
 20
-3.045233457388564
 10
1.334817790351609
 20
-3.049603618978936
 10
1.334817790351609
 20
-3.049603618978936
 10
1.334817790351609
 20
-3.049603618978936
 10
1.343509543324305
 20
-3.067545579417292
 10
1.343509543324305
 20
-3.067545579417292
 97
        0
 72
     1
 10
1.343509543324305
 20
-3.067545579417292
 11
1.305391186998059
 21
-3.079287995811506
 97
        0
 75
     2
 76
     1
 98
        0
  0
SPLINE
  5
270
330
26A
100
AcDbEntity
  8
SDWC
 62
   250
420
  2301728
370
    13
100
AcDbSpline
210
0.0
220
0.0
230
1.0
 70
     8
 71
     3
 72
    20
 73
    16
 74
     0
 42
0.0000000001
 43
0.0000000001
 12
1.0
 22
0.0
 32
0.0
 13
1.0
 23
0.0
 33
0.0
 40
0.0
 40
0.0
 40
0.0
 40
0.0
 40
1.0
 40
1.0
 40
1.0
 40
2.0
 40
2.0
 40
2.0
 40
3.0
 40
3.0
 40
3.0
 40
4.0
 40
4.0
 40
4.0
 40
5.0
 40
5.0
 40
5.0
 40
5.0
 10
1.343509543324305
 20
-3.067545579417292
 30
0.0
 10
1.343509543324305
 20
-3.067545579417292
 30
0.0
 10
1.343509543324305
 20
-3.067545579417292
 30
0.0
 10
1.343509543324305
 20
-3.067545579417292
 30
0.0
 10
1.343509543324305
 20
-3.067545579417292
 30
0.0
 10
1.338690674322985
 20
-3.077721894344828
 30
0.0
 10
1.327465905041069
 20
-3.082679950306594
 30
0.0
 10
1.324878431268404
 20
-3.083813056263327
 30
0.0
 10
1.322534211496936
 20
-3.084568642981973
 30
0.0
 10
1.32046884424354
 20
-3.08506757885857
 30
0.0
 10
1.312348112291046
 20
-3.087021314339065
 30
0.0
 10
1.308201932483927
 20
-3.084864507250447
 30
0.0
 10
1.308201932483927
 20
-3.084864507250447
 30
0.0
 10
1.308201932483927
 20
-3.084864507250447
 30
0.0
 10
1.305391186998059
 20
-3.079287995811506
 30
0.0
 10
1.305391186998059
 20
-3.079287995811506
 30
0.0
  0
HATCH
  5
271
330
26A
100
AcDbEntity
  8
SDWC
 62
   252
420
  9672087
100
AcDbHatch
 10
0.0
 20
0.0
 30
0.0
210
0.0
220
0.0
230
1.0
  2
SOLID
 70
     1
 71
     0
 91
        1
 92
        1
 93
        2
 72
     4
 94
        3
 73
     0
 74
     0
 95
       20
 96
       16
 40
0.0
 40
0.0
 40
0.0
 40
0.0
 40
0.0138888888888889
 40
0.0138888888888889
 40
0.0138888888888889
 40
0.0277777777777778
 40
0.0277777777777778
 40
0.0277777777777778
 40
0.0416666666666667
 40
0.0416666666666667
 40
0.0416666666666667
 40
0.0555555555555556
 40
0.0555555555555556
 40
0.0555555555555556
 40
0.0694444444444444
 40
0.0694444444444444
 40
0.0694444444444444
 40
0.0694444444444444
 10
1.343509543324305
 20
-3.067545579417292
 10
1.343509543324305
 20
-3.067545579417292
 10
1.343509543324305
 20
-3.067545579417292
 10
1.343509543324305
 20
-3.067545579417292
 10
1.343509543324305
 20
-3.067545579417292
 10
1.338690674322985
 20
-3.077721894344828
 10
1.327465905041069
 20
-3.082679950306594
 10
1.324878431268404
 20
-3.083813056263327
 10
1.322534211496936
 20
-3.084568642981973
 10
1.32046884424354
 20
-3.08506757885857
 10
1.312348112291046
 20
-3.087021314339065
 10
1.308201932483927
 20
-3.084864507250447
 10
1.308201932483927
 20
-3.084864507250447
 10
1.308201932483927
 20
-3.084864507250447
 10
1.305391186998059
 20
-3.079287995811506
 10
1.305391186998059
 20
-3.079287995811506
 97
        0
 72
     1
 10
1.305391186998059
 20
-3.079287995811506
 11
1.343509543324305
 21
-3.067545579417292
 97
        0
 75
     2
 76
     1
 98
        0
  0
ENDBLK
  5
26D
330
26A
100
AcDbEntity
  8
0
100
AcDbBlockEnd
  0
ENDSEC
  0
SECTION
  2
ENTITIES
  0
POLYLINE
  5
41
330
1F
100
AcDbEntity
  8
wood color
370
     0
100
AcDb2dPolyline
 66
     1
 10
0.0
 20
0.0
 30
0.0
  0
VERTEX
  5
42
330
41
100
AcDbEntity
  8
wood color
370
     0
100
AcDbVertex
100
AcDb2dVertex
 10
1.418016630844553
 20
-3.800916666666669
 30
0.0
  0
VERTEX
  5
43
330
41
100
AcDbEntity
  8
wood color
370
     0
100
AcDbVertex
100
AcDb2dVertex
 10
1.418016630844553
 20
-2.888006944444442
 30
0.0
  0
VERTEX
  5
44
330
41
100
AcDbEntity
  8
wood color
370
     0
100
AcDbVertex
100
AcDb2dVertex
 10
1.529927739128551
 20
-2.886677777777777
 30
0.0
  0
VERTEX
  5
45
330
41
100
AcDbEntity
  8
wood color
370
     0
100
AcDbVertex
100
AcDb2dVertex
 10
1.558498571740125
 20
-2.79813611111111
 30
0.0
  0
VERTEX
  5
46
330
41
100
AcDbEntity
  8
wood color
370
     0
100
AcDbVertex
100
AcDb2dVertex
 10
1.6169291258196
 20
-2.975179166666673
 30
0.0
  0
VERTEX
  5
47
330
41
100
AcDbEntity
  8
wood color
370
     0
100
AcDbVertex
100
AcDb2dVertex
 10
1.646795791731771
 20
-2.88529444444445
 30
0.0
  0
VERTEX
  5
48
330
41
100
AcDbEntity
  8
wood color
370
     0
100
AcDbVertex
100
AcDb2dVertex
 10
1.772894399657364
 20
-2.883802777777772
 30
0.0
  0
VERTEX
  5
49
330
41
100
AcDbEntity
  8
wood color
370
     0
100
AcDbVertex
100
AcDb2dVertex
 10
1.772894399657364
 20
-3.882433333333337
 30
0.0
  0
VERTEX
  5
4A
330
41
100
AcDbEntity
  8
wood color
370
     0
100
AcDbVertex
100
AcDb2dVertex
 10
1.418016630844553
 20
-3.800916666666669
 30
0.0
  0
SEQEND
  5
4C
330
41
100
AcDbEntity
  8
wood color
370
     0
  0
HATCH
  5
4B
330
1F
100
AcDbEntity
  8
wood color
 62
    43
420
 15444572
100
AcDbHatch
 10
0.0
 20
0.0
 30
0.0
210
0.0
220
0.0
230
1.0
  2
SOLID
 70
     1
 71
     0
 91
        1
 92
        1
 93
        8
 72
     1
 10
1.418016630844553
 20
-3.800916666666669
 11
1.418016630844553
 21
-2.888006944444442
 72
     1
 10
1.418016630844553
 20
-2.888006944444442
 11
1.529927739128551
 21
-2.886677777777777
 72
     1
 10
1.529927739128551
 20
-2.886677777777777
 11
1.558498571740125
 21
-2.79813611111111
 72
     1
 10
1.558498571740125
 20
-2.79813611111111
 11
1.6169291258196
 21
-2.975179166666673
 72
     1
 10
1.6169291258196
 20
-2.975179166666673
 11
1.646795791731771
 21
-2.88529444444445
 72
     1
 10
1.646795791731771
 20
-2.88529444444445
 11
1.772894399657364
 21
-2.883802777777772
 72
     1
 10
1.772894399657364
 20
-2.883802777777772
 11
1.772894399657364
 21
-3.882433333333337
 72
     1
 10
1.772894399657364
 20
-3.882433333333337
 11
1.418016630844553
 21
-3.800916666666669
 97
        0
 75
     2
 76
     1
 98
        0
  0
POLYLINE
  5
4D
330
1F
100
AcDbEntity
  8
wood color
370
     0
100
AcDb2dPolyline
 66
     1
 10
0.0
 20
0.0
 30
0.0
  0
VERTEX
  5
4E
330
4D
100
AcDbEntity
  8
wood color
370
     0
100
AcDbVertex
100
AcDb2dVertex
 10
2.366312440221918
 20
-4.820176388888891
 30
0.0
  0
VERTEX
  5
4F
330
4D
100
AcDbEntity
  8
wood color
370
     0
100
AcDbVertex
100
AcDb2dVertex
 10
2.366312440221918
 20
-4.869398611111111
 30
0.0
  0
VERTEX
  5
50
330
4D
100
AcDbEntity
  8
wood color
370
     0
100
AcDbVertex
100
AcDb2dVertex
 10
0.5838833333333342
 20
-5.338731944444437
 30
0.0
  0
VERTEX
  5
51
330
4D
100
AcDbEntity
  8
wood color
370
     0
100
AcDbVertex
100
AcDb2dVertex
 10
0.5838833333333342
 20
-5.045152777777781
 30
0.0
  0
VERTEX
  5
52
330
4D
100
AcDbEntity
  8
wood color
370
     0
100
AcDbVertex
100
AcDb2dVertex
 10
0.5107416666666672
 20
-4.992688888888879
 30
0.0
  0
VERTEX
  5
53
330
4D
100
AcDbEntity
  8
wood color
370
     0
100
AcDbVertex
100
AcDb2dVertex
 10
0.6742958333333288
 20
-4.854668055555546
 30
0.0
  0
VERTEX
  5
54
330
4D
100
AcDbEntity
  8
wood color
370
     0
100
AcDbVertex
100
AcDb2dVertex
 10
0.5838833333333342
 20
-4.797430555555567
 30
0.0
  0
VERTEX
  5
55
330
4D
100
AcDbEntity
  8
wood color
370
     0
100
AcDbVertex
100
AcDb2dVertex
 10
0.5838833333333342
 20
-4.387124999999994
 30
0.0
  0
VERTEX
  5
56
330
4D
100
AcDbEntity
  8
wood color
370
     0
100
AcDbVertex
100
AcDb2dVertex
 10
1.770419399719887
 20
-4.973090277777778
 30
0.0
  0
VERTEX
  5
57
330
4D
100
AcDbEntity
  8
wood color
370
     0
100
AcDbVertex
100
AcDb2dVertex
 10
2.366312440221918
 20
-4.820176388888891
 30
0.0
  0
SEQEND
  5
59
330
4D
100
AcDbEntity
  8
wood color
370
     0
  0
HATCH
  5
58
330
1F
100
AcDbEntity
  8
wood color
 62
    43
420
 15444572
100
AcDbHatch
 10
0.0
 20
0.0
 30
0.0
210
0.0
220
0.0
230
1.0
  2
SOLID
 70
     1
 71
     0
 91
        1
 92
        1
 93
        9
 72
     1
 10
2.366312440221918
 20
-4.820176388888891
 11
2.366312440221918
 21
-4.869398611111111
 72
     1
 10
2.366312440221918
 20
-4.869398611111111
 11
0.5838833333333342
 21
-5.338731944444437
 72
     1
 10
0.5838833333333342
 20
-5.338731944444437
 11
0.5838833333333342
 21
-5.045152777777781
 72
     1
 10
0.5838833333333342
 20
-5.045152777777781
 11
0.5107416666666672
 21
-4.992688888888879
 72
     1
 10
0.5107416666666672
 20
-4.992688888888879
 11
0.6742958333333288
 21
-4.854668055555546
 72
     1
 10
0.6742958333333288
 20
-4.854668055555546
 11
0.5838833333333342
 21
-4.797430555555567
 72
     1
 10
0.5838833333333342
 20
-4.797430555555567
 11
0.5838833333333342
 21
-4.387124999999994
 72
     1
 10
0.5838833333333342
 20
-4.387124999999994
 11
1.770419399719887
 21
-4.973090277777778
 72
     1
 10
1.770419399719887
 20
-4.973090277777778
 11
2.366312440221918
 21
-4.820176388888891
 97
        0
 75
     2
 76
     1
 98
        0
  0
POLYLINE
  5
5A
330
1F
100
AcDbEntity
  8
wood color
370
     0
100
AcDb2dPolyline
 66
     1
 10
0.0
 20
0.0
 30
0.0
  0
VERTEX
  5
5B
330
5A
100
AcDbEntity
  8
wood color
370
     0
100
AcDbVertex
100
AcDb2dVertex
 10
0.5838833333333342
 20
-4.387124999999994
 30
0.0
  0
VERTEX
  5
5C
330
5A
100
AcDbEntity
  8
wood color
370
     0
100
AcDbVertex
100
AcDb2dVertex
 10
0.4630736111111117
 20
-4.327459722222228
 30
0.0
  0
VERTEX
  5
5D
330
5A
100
AcDbEntity
  8
wood color
370
     0
100
AcDbVertex
100
AcDb2dVertex
 10
0.4630736111111117
 20
-4.185234722222225
 30
0.0
  0
VERTEX
  5
5E
330
5A
100
AcDbEntity
  8
wood color
370
     0
100
AcDbVertex
100
AcDb2dVertex
 10
0.5366013888888876
 20
-4.21784166666666
 30
0.0
  0
VERTEX
  5
5F
330
5A
100
AcDbEntity
  8
wood color
370
     0
100
AcDbVertex
100
AcDb2dVertex
 10
0.5366013888888876
 20
-4.272786111111119
 30
0.0
  0
VERTEX
  5
60
330
5A
100
AcDbEntity
  8
wood color
370
     0
100
AcDbVertex
100
AcDb2dVertex
 10
0.6550430555555522
 20
-4.270358333333332
 30
0.0
  0
VERTEX
  5
61
330
5A
100
AcDbEntity
  8
wood color
370
     0
100
AcDbVertex
100
AcDb2dVertex
 10
0.7620041666666691
 20
-4.317802777777766
 30
0.0
  0
VERTEX
  5
62
330
5A
100
AcDbEntity
  8
wood color
370
     0
100
AcDbVertex
100
AcDb2dVertex
 10
1.770419399719887
 20
-4.76501527777777
 30
0.0
  0
VERTEX
  5
63
330
5A
100
AcDbEntity
  8
wood color
370
     0
100
AcDbVertex
100
AcDb2dVertex
 10
1.770419399719887
 20
-4.973090277777778
 30
0.0
  0
VERTEX
  5
64
330
5A
100
AcDbEntity
  8
wood color
370
     0
100
AcDbVertex
100
AcDb2dVertex
 10
0.5838833333333342
 20
-4.387124999999994
 30
0.0
  0
SEQEND
  5
66
330
5A
100
AcDbEntity
  8
wood color
370
     0
  0
HATCH
  5
65
330
1F
100
AcDbEntity
  8
wood color
 62
   254
420
 16310726
100
AcDbHatch
 10
0.0
 20
0.0
 30
0.0
210
0.0
220
0.0
230
1.0
  2
SOLID
 70
     1
 71
     0
 91
        1
 92
        1
 93
        9
 72
     1
 10
0.5838833333333342
 20
-4.387124999999994
 11
0.4630736111111117
 21
-4.327459722222228
 72
     1
 10
0.4630736111111117
 20
-4.327459722222228
 11
0.4630736111111117
 21
-4.185234722222225
 72
     1
 10
0.4630736111111117
 20
-4.185234722222225
 11
0.5366013888888876
 21
-4.21784166666666
 72
     1
 10
0.5366013888888876
 20
-4.21784166666666
 11
0.5366013888888876
 21
-4.272786111111119
 72
     1
 10
0.5366013888888876
 20
-4.272786111111119
 11
0.6550430555555522
 21
-4.270358333333332
 72
     1
 10
0.6550430555555522
 20
-4.270358333333332
 11
0.7620041666666691
 21
-4.317802777777766
 72
     1
 10
0.7620041666666691
 20
-4.317802777777766
 11
1.770419399719887
 21
-4.76501527777777
 72
     1
 10
1.770419399719887
 20
-4.76501527777777
 11
1.770419399719887
 21
-4.973090277777778
 72
     1
 10
1.770419399719887
 20
-4.973090277777778
 11
0.5838833333333342
 21
-4.387124999999994
 97
        0
 75
     2
 76
     1
 98
        0
  0
POLYLINE
  5
67
330
1F
100
AcDbEntity
  8
wood color
370
     0
100
AcDb2dPolyline
 66
     1
 10
0.0
 20
0.0
 30
0.0
  0
VERTEX
  5
68
330
67
100
AcDbEntity
  8
wood color
370
     0
100
AcDbVertex
100
AcDb2dVertex
 10
0.4630736111111117
 20
-3.900756944444449
 30
0.0
  0
VERTEX
  5
69
330
67
100
AcDbEntity
  8
wood color
370
     0
100
AcDbVertex
100
AcDb2dVertex
 10
1.418016630844553
 20
-3.800916666666669
 30
0.0
  0
VERTEX
  5
6A
330
67
100
AcDbEntity
  8
wood color
370
     0
100
AcDbVertex
100
AcDb2dVertex
 10
1.772894399657364
 20
-3.882433333333337
 30
0.0
  0
VERTEX
  5
6B
330
67
100
AcDbEntity
  8
wood color
370
     0
100
AcDbVertex
100
AcDb2dVertex
 10
0.7620041666666691
 20
-4.003213888888884
 30
0.0
  0
VERTEX
  5
6C
330
67
100
AcDbEntity
  8
wood color
370
     0
100
AcDbVertex
100
AcDb2dVertex
 10
0.6550430555555522
 20
-3.96655277777778
 30
0.0
  0
VERTEX
  5
6D
330
67
100
AcDbEntity
  8
wood color
370
     0
100
AcDbVertex
100
AcDb2dVertex
 10
0.5366013888888876
 20
-3.968424999999999
 30
0.0
  0
VERTEX
  5
6E
330
67
100
AcDbEntity
  8
wood color
370
     0
100
AcDbVertex
100
AcDb2dVertex
 10
0.5566472222222197
 20
-3.962850000000003
 30
0.0
  0
VERTEX
  5
6F
330
67
100
AcDbEntity
  8
wood color
370
     0
100
AcDbVertex
100
AcDb2dVertex
 10
0.6709861111111068
 20
-3.931084722222219
 30
0.0
  0
VERTEX
  5
70
330
67
100
AcDbEntity
  8
wood color
370
     0
100
AcDbVertex
100
AcDb2dVertex
 10
0.5566472222222197
 20
-3.93282083333333
 30
0.0
  0
VERTEX
  5
71
330
67
100
AcDbEntity
  8
wood color
370
     0
100
AcDbVertex
100
AcDb2dVertex
 10
0.4630736111111117
 20
-3.900756944444449
 30
0.0
  0
SEQEND
  5
73
330
67
100
AcDbEntity
  8
wood color
370
     0
  0
HATCH
  5
72
330
1F
100
AcDbEntity
  8
wood color
 62
    43
420
 15444572
100
AcDbHatch
 10
0.0
 20
0.0
 30
0.0
210
0.0
220
0.0
230
1.0
  2
SOLID
 70
     1
 71
     0
 91
        1
 92
        1
 93
        9
 72
     1
 10
0.4630736111111117
 20
-3.900756944444449
 11
1.418016630844553
 21
-3.800916666666669
 72
     1
 10
1.418016630844553
 20
-3.800916666666669
 11
1.772894399657364
 21
-3.882433333333337
 72
     1
 10
1.772894399657364
 20
-3.882433333333337
 11
0.762004166666669
 21
-4.003213888888884
 72
     1
 10
0.7620041666666691
 20
-4.003213888888884
 11
0.6550430555555522
 21
-3.96655277777778
 72
     1
 10
0.6550430555555522
 20
-3.96655277777778
 11
0.5366013888888876
 21
-3.968424999999999
 72
     1
 10
0.5366013888888876
 20
-3.968424999999999
 11
0.5566472222222197
 21
-3.962850000000003
 72
     1
 10
0.5566472222222197
 20
-3.962850000000003
 11
0.6709861111111068
 21
-3.931084722222219
 72
     1
 10
0.6709861111111068
 20
-3.931084722222219
 11
0.5566472222222197
 21
-3.93282083333333
 72
     1
 10
0.5566472222222197
 20
-3.93282083333333
 11
0.4630736111111117
 21
-3.900756944444449
 97
        0
 75
     2
 76
     1
 98
        0
  0
POLYLINE
  5
74
330
1F
100
AcDbEntity
  8
wood color
370
     0
100
AcDb2dPolyline
 66
     1
 10
0.0
 20
0.0
 30
0.0
  0
VERTEX
  5
75
330
74
100
AcDbEntity
  8
wood color
370
     0
100
AcDbVertex
100
AcDb2dVertex
 10
0.7620041666666691
 20
-4.317802777777766
 30
0.0
  0
VERTEX
  5
76
330
74
100
AcDbEntity
  8
wood color
370
     0
100
AcDbVertex
100
AcDb2dVertex
 10
0.7620041666666691
 20
-4.003213888888884
 30
0.0
  0
VERTEX
  5
77
330
74
100
AcDbEntity
  8
wood color
370
     0
100
AcDbVertex
100
AcDb2dVertex
 10
1.772894399657364
 20
-3.882433333333337
 30
0.0
  0
VERTEX
  5
78
330
74
100
AcDbEntity
  8
wood color
370
     0
100
AcDbVertex
100
AcDb2dVertex
 10
1.990945783037811
 20
-3.856377777777778
 30
0.0
  0
VERTEX
  5
79
330
74
100
AcDbEntity
  8
wood color
370
     0
100
AcDbVertex
100
AcDb2dVertex
 10
2.755356874838273
 20
-3.765055555555553
 30
0.0
  0
VERTEX
  5
7A
330
74
100
AcDbEntity
  8
wood color
370
     0
100
AcDbVertex
100
AcDb2dVertex
 10
2.755356874838273
 20
-3.940781944444463
 30
0.0
  0
VERTEX
  5
7B
330
74
100
AcDbEntity
  8
wood color
370
     0
100
AcDbVertex
100
AcDb2dVertex
 10
2.755356874838273
 20
-4.009643055555557
 30
0.0
  0
VERTEX
  5
7C
330
74
100
AcDbEntity
  8
wood color
370
     0
100
AcDbVertex
100
AcDb2dVertex
 10
0.7620041666666691
 20
-4.317802777777766
 30
0.0
  0
SEQEND
  5
7E
330
74
100
AcDbEntity
  8
wood color
370
     0
  0
HATCH
  5
7D
330
1F
100
AcDbEntity
  8
wood color
 62
    43
420
 15444572
100
AcDbHatch
 10
0.0
 20
0.0
 30
0.0
210
0.0
220
0.0
230
1.0
  2
SOLID
 70
     1
 71
     0
 91
        1
 92
        1
 93
        7
 72
     1
 10
0.7620041666666691
 20
-4.317802777777766
 11
0.7620041666666691
 21
-4.003213888888884
 72
     1
 10
0.7620041666666691
 20
-4.003213888888884
 11
1.772894399657364
 21
-3.882433333333337
 72
     1
 10
1.772894399657364
 20
-3.882433333333337
 11
1.990945783037811
 21
-3.856377777777778
 72
     1
 10
1.990945783037811
 20
-3.856377777777778
 11
2.755356874838273
 21
-3.765055555555553
 72
     1
 10
2.755356874838273
 20
-3.765055555555553
 11
2.755356874838273
 21
-3.940781944444463
 72
     1
 10
2.755356874838273
 20
-3.940781944444463
 11
2.755356874838273
 21
-4.009643055555557
 72
     1
 10
2.755356874838273
 20
-4.009643055555557
 11
0.762004166666669
 21
-4.317802777777766
 97
        0
 75
     2
 76
     1
 98
        0
  0
POLYLINE
  5
7F
330
1F
100
AcDbEntity
  8
wood color
370
     0
100
AcDb2dPolyline
 66
     1
 10
0.0
 20
0.0
 30
0.0
  0
VERTEX
  5
80
330
7F
100
AcDbEntity
  8
wood color
370
     0
100
AcDbVertex
100
AcDb2dVertex
 10
2.755356874838273
 20
-4.009643055555557
 30
0.0
  0
VERTEX
  5
81
330
7F
100
AcDbEntity
  8
wood color
370
     0
100
AcDbVertex
100
AcDb2dVertex
 10
2.755356874838273
 20
-3.940781944444463
 30
0.0
  0
VERTEX
  5
82
330
7F
100
AcDbEntity
  8
wood color
370
     0
100
AcDbVertex
100
AcDb2dVertex
 10
4.152587395096816
 20
-4.216051388888888
 30
0.0
  0
VERTEX
  5
83
330
7F
100
AcDbEntity
  8
wood color
370
     0
100
AcDbVertex
100
AcDb2dVertex
 10
1.770419399719887
 20
-4.76501527777777
 30
0.0
  0
VERTEX
  5
84
330
7F
100
AcDbEntity
  8
wood color
370
     0
100
AcDbVertex
100
AcDb2dVertex
 10
0.7620041666666691
 20
-4.317802777777766
 30
0.0
  0
VERTEX
  5
85
330
7F
100
AcDbEntity
  8
wood color
370
     0
100
AcDbVertex
100
AcDb2dVertex
 10
2.755356874838273
 20
-4.009643055555557
 30
0.0
  0
SEQEND
  5
87
330
7F
100
AcDbEntity
  8
wood color
370
     0
  0
HATCH
  5
86
330
1F
100
AcDbEntity
  8
wood color
 62
   254
420
 16310726
100
AcDbHatch
 10
0.0
 20
0.0
 30
0.0
210
0.0
220
0.0
230
1.0
  2
SOLID
 70
     1
 71
     0
 91
        1
 92
        1
 93
        5
 72
     1
 10
2.755356874838273
 20
-4.009643055555557
 11
2.755356874838273
 21
-3.940781944444463
 72
     1
 10
2.755356874838273
 20
-3.940781944444463
 11
4.152587395096816
 21
-4.216051388888888
 72
     1
 10
4.152587395096816
 20
-4.216051388888888
 11
1.770419399719887
 21
-4.76501527777777
 72
     1
 10
1.770419399719887
 20
-4.76501527777777
 11
0.762004166666669
 21
-4.317802777777766
 72
     1
 10
0.7620041666666691
 20
-4.317802777777766
 11
2.755356874838273
 21
-4.009643055555557
 97
        0
 75
     2
 76
     1
 98
        0
  0
POLYLINE
  5
88
330
1F
100
AcDbEntity
  8
wood color
370
     0
100
AcDb2dPolyline
 66
     1
 10
0.0
 20
0.0
 30
0.0
  0
VERTEX
  5
89
330
88
100
AcDbEntity
  8
wood color
370
     0
100
AcDbVertex
100
AcDb2dVertex
 10
2.525552713976948
 20
-4.779311111111105
 30
0.0
  0
VERTEX
  5
8A
330
88
100
AcDbEntity
  8
wood color
370
     0
100
AcDbVertex
100
AcDb2dVertex
 10
2.366312440221918
 20
-4.820176388888891
 30
0.0
  0
VERTEX
  5
8B
330
88
100
AcDbEntity
  8
wood color
370
     0
100
AcDbVertex
100
AcDb2dVertex
 10
1.770419399719887
 20
-4.973090277777778
 30
0.0
  0
VERTEX
  5
8C
330
88
100
AcDbEntity
  8
wood color
370
     0
100
AcDbVertex
100
AcDb2dVertex
 10
1.770419399719887
 20
-4.76501527777777
 30
0.0
  0
VERTEX
  5
8D
330
88
100
AcDbEntity
  8
wood color
370
     0
100
AcDbVertex
100
AcDb2dVertex
 10
4.152587395096816
 20
-4.216051388888888
 30
0.0
  0
VERTEX
  5
8E
330
88
100
AcDbEntity
  8
wood color
370
     0
100
AcDbVertex
100
AcDb2dVertex
 10
4.152587395096816
 20
-4.361788888888896
 30
0.0
  0
VERTEX
  5
8F
330
88
100
AcDbEntity
  8
wood color
370
     0
100
AcDbVertex
100
AcDb2dVertex
 10
2.525552713976948
 20
-4.779311111111105
 30
0.0
  0
SEQEND
  5
91
330
88
100
AcDbEntity
  8
wood color
370
     0
  0
HATCH
  5
90
330
1F
100
AcDbEntity
  8
wood color
 62
   254
420
 16310726
100
AcDbHatch
 10
0.0
 20
0.0
 30
0.0
210
0.0
220
0.0
230
1.0
  2
SOLID
 70
     1
 71
     0
 91
        1
 92
        1
 93
        6
 72
     1
 10
2.525552713976948
 20
-4.779311111111105
 11
2.366312440221918
 21
-4.820176388888891
 72
     1
 10
2.366312440221918
 20
-4.820176388888891
 11
1.770419399719887
 21
-4.973090277777778
 72
     1
 10
1.770419399719887
 20
-4.973090277777778
 11
1.770419399719887
 21
-4.76501527777777
 72
     1
 10
1.770419399719887
 20
-4.76501527777777
 11
4.152587395096816
 21
-4.216051388888888
 72
     1
 10
4.152587395096816
 20
-4.216051388888888
 11
4.152587395096816
 21
-4.361788888888896
 72
     1
 10
4.152587395096816
 20
-4.361788888888896
 11
2.525552713976948
 21
-4.779311111111105
 97
        0
 75
     2
 76
     1
 98
        0
  0
POLYLINE
  5
92
330
1F
100
AcDbEntity
  8
wood color
370
     0
100
AcDb2dPolyline
 66
     1
 10
0.0
 20
0.0
 30
0.0
  0
VERTEX
  5
93
330
92
100
AcDbEntity
  8
wood color
370
     0
100
AcDbVertex
100
AcDb2dVertex
 10
1.990945783037811
 20
-3.741006944444444
 30
0.0
  0
VERTEX
  5
94
330
92
100
AcDbEntity
  8
wood color
370
     0
100
AcDbVertex
100
AcDb2dVertex
 10
1.990945783037811
 20
-3.856377777777778
 30
0.0
  0
VERTEX
  5
95
330
92
100
AcDbEntity
  8
wood color
370
     0
100
AcDbVertex
100
AcDb2dVertex
 10
1.772894399657364
 20
-3.882433333333337
 30
0.0
  0
VERTEX
  5
96
330
92
100
AcDbEntity
  8
wood color
370
     0
100
AcDbVertex
100
AcDb2dVertex
 10
1.772894399657364
 20
-2.883802777777772
 30
0.0
  0
VERTEX
  5
97
330
92
100
AcDbEntity
  8
wood color
370
     0
100
AcDbVertex
100
AcDb2dVertex
 10
1.799763888888884
 20
-2.883965277777773
 30
0.0
  0
VERTEX
  5
98
330
92
100
AcDbEntity
  8
wood color
370
     0
100
AcDbVertex
100
AcDb2dVertex
 10
1.990945783037811
 20
-2.885145833333329
 30
0.0
  0
VERTEX
  5
99
330
92
100
AcDbEntity
  8
wood color
370
     0
100
AcDbVertex
100
AcDb2dVertex
 10
1.990945783037811
 20
-3.741006944444444
 30
0.0
  0
SEQEND
  5
9A
330
92
100
AcDbEntity
  8
wood color
370
     0
  0
HATCH
  5
9B
330
1F
100
AcDbEntity
  8
wood color
 62
    43
420
 15444572
100
AcDbHatch
 10
0.0
 20
0.0
 30
0.0
210
0.0
220
0.0
230
1.0
  2
SOLID
 70
     1
 71
     0
 91
        1
 92
        1
 93
        6
 72
     1
 10
1.990945783037811
 20
-3.741006944444444
 11
1.990945783037811
 21
-3.856377777777778
 72
     1
 10
1.990945783037811
 20
-3.856377777777778
 11
1.772894399657364
 21
-3.882433333333337
 72
     1
 10
1.772894399657364
 20
-3.882433333333337
 11
1.772894399657364
 21
-2.883802777777772
 72
     1
 10
1.772894399657364
 20
-2.883802777777772
 11
1.799763888888884
 21
-2.883965277777773
 72
     1
 10
1.799763888888884
 20
-2.883965277777773
 11
1.990945783037811
 21
-2.885145833333329
 72
     1
 10
1.990945783037811
 20
-2.885145833333329
 11
1.990945783037811
 21
-3.741006944444444
 97
        0
 75
     2
 76
     1
 98
        0
  0
POLYLINE
  5
9C
330
1F
100
AcDbEntity
  8
wood color
370
     0
100
AcDb2dPolyline
 66
     1
 10
0.0
 20
0.0
 30
0.0
  0
VERTEX
  5
9D
330
9C
100
AcDbEntity
  8
wood color
370
     0
100
AcDbVertex
100
AcDb2dVertex
 10
1.799763888888884
 20
-2.883965277777773
 30
0.0
  0
VERTEX
  5
9E
330
9C
100
AcDbEntity
  8
wood color
370
     0
100
AcDbVertex
100
AcDb2dVertex
 10
1.772894399657364
 20
-2.883802777777772
 30
0.0
  0
VERTEX
  5
9F
330
9C
100
AcDbEntity
  8
wood color
370
     0
100
AcDbVertex
100
AcDb2dVertex
 10
1.646795791731771
 20
-2.88529444444445
 30
0.0
  0
VERTEX
  5
A0
330
9C
100
AcDbEntity
  8
wood color
370
     0
100
AcDbVertex
100
AcDb2dVertex
 10
1.6169291258196
 20
-2.975179166666673
 30
0.0
  0
VERTEX
  5
A1
330
9C
100
AcDbEntity
  8
wood color
370
     0
100
AcDbVertex
100
AcDb2dVertex
 10
1.558498571740125
 20
-2.79813611111111
 30
0.0
  0
VERTEX
  5
A2
330
9C
100
AcDbEntity
  8
wood color
370
     0
100
AcDbVertex
100
AcDb2dVertex
 10
1.771131899701888
 20
-2.801649999999995
 30
0.0
  0
VERTEX
  5
A3
330
9C
100
AcDbEntity
  8
wood color
370
     0
100
AcDbVertex
100
AcDb2dVertex
 10
1.799763888888884
 20
-2.883965277777773
 30
0.0
  0
SEQEND
  5
A5
330
9C
100
AcDbEntity
  8
wood color
370
     0
  0
HATCH
  5
A4
330
1F
100
AcDbEntity
  8
wood color
 62
    43
420
 15444572
100
AcDbHatch
 10
0.0
 20
0.0
 30
0.0
210
0.0
220
0.0
230
1.0
  2
SOLID
 70
     1
 71
     0
 91
        1
 92
        1
 93
        6
 72
     1
 10
1.799763888888884
 20
-2.883965277777773
 11
1.772894399657364
 21
-2.883802777777772
 72
     1
 10
1.772894399657364
 20
-2.883802777777772
 11
1.646795791731771
 21
-2.88529444444445
 72
     1
 10
1.646795791731771
 20
-2.88529444444445
 11
1.6169291258196
 21
-2.975179166666673
 72
     1
 10
1.6169291258196
 20
-2.975179166666673
 11
1.558498571740125
 21
-2.79813611111111
 72
     1
 10
1.558498571740125
 20
-2.79813611111111
 11
1.771131899701888
 21
-2.801649999999995
 72
     1
 10
1.771131899701888
 20
-2.801649999999995
 11
1.799763888888884
 21
-2.883965277777773
 97
        0
 75
     2
 76
     1
 98
        0
  0
POLYLINE
  5
A6
330
1F
100
AcDbEntity
  8
wood color
370
     0
100
AcDb2dPolyline
 66
     1
 10
0.0
 20
0.0
 30
0.0
  0
VERTEX
  5
A7
330
A6
100
AcDbEntity
  8
wood color
370
     0
100
AcDbVertex
100
AcDb2dVertex
 10
2.525552713976948
 20
-4.934637500000008
 30
0.0
  0
VERTEX
  5
A8
330
A6
100
AcDbEntity
  8
wood color
370
     0
100
AcDbVertex
100
AcDb2dVertex
 10
0.5838833333333342
 20
-5.474812499999997
 30
0.0
  0
VERTEX
  5
A9
330
A6
100
AcDbEntity
  8
wood color
370
     0
100
AcDbVertex
100
AcDb2dVertex
 10
0.5838833333333342
 20
-5.338731944444437
 30
0.0
  0
VERTEX
  5
AA
330
A6
100
AcDbEntity
  8
wood color
370
     0
100
AcDbVertex
100
AcDb2dVertex
 10
2.366312440221918
 20
-4.869398611111111
 30
0.0
  0
VERTEX
  5
AB
330
A6
100
AcDbEntity
  8
wood color
370
     0
100
AcDbVertex
100
AcDb2dVertex
 10
2.525552713976948
 20
-4.934637500000008
 30
0.0
  0
SEQEND
  5
AD
330
A6
100
AcDbEntity
  8
wood color
370
     0
  0
HATCH
  5
AC
330
1F
100
AcDbEntity
  8
wood color
 62
    43
420
 15444572
100
AcDbHatch
 10
0.0
 20
0.0
 30
0.0
210
0.0
220
0.0
230
1.0
  2
SOLID
 70
     1
 71
     0
 91
        1
 92
        1
 93
        4
 72
     1
 10
2.525552713976948
 20
-4.934637500000008
 11
0.5838833333333342
 21
-5.474812499999997
 72
     1
 10
0.5838833333333342
 20
-5.474812499999997
 11
0.5838833333333342
 21
-5.338731944444437
 72
     1
 10
0.5838833333333342
 20
-5.338731944444437
 11
2.366312440221918
 21
-4.869398611111111
 72
     1
 10
2.366312440221918
 20
-4.869398611111111
 11
2.525552713976948
 21
-4.934637500000008
 97
        0
 75
     2
 76
     1
 98
        0
  0
POLYLINE
  5
AE
330
1F
100
AcDbEntity
  8
wood color
370
     0
100
AcDb2dPolyline
 66
     1
 10
0.0
 20
0.0
 30
0.0
  0
VERTEX
  5
AF
330
AE
100
AcDbEntity
  8
wood color
370
     0
100
AcDbVertex
100
AcDb2dVertex
 10
2.525552713976948
 20
-4.934637500000008
 30
0.0
  0
VERTEX
  5
B0
330
AE
100
AcDbEntity
  8
wood color
370
     0
100
AcDbVertex
100
AcDb2dVertex
 10
2.366312440221918
 20
-4.869398611111111
 30
0.0
  0
VERTEX
  5
B1
330
AE
100
AcDbEntity
  8
wood color
370
     0
100
AcDbVertex
100
AcDb2dVertex
 10
2.366312440221918
 20
-4.820176388888891
 30
0.0
  0
VERTEX
  5
B2
330
AE
100
AcDbEntity
  8
wood color
370
     0
100
AcDbVertex
100
AcDb2dVertex
 10
2.525552713976948
 20
-4.779311111111105
 30
0.0
  0
VERTEX
  5
B3
330
AE
100
AcDbEntity
  8
wood color
370
     0
100
AcDbVertex
100
AcDb2dVertex
 10
2.525552713976948
 20
-4.934637500000008
 30
0.0
  0
SEQEND
  5
B5
330
AE
100
AcDbEntity
  8
wood color
370
     0
  0
HATCH
  5
B4
330
1F
100
AcDbEntity
  8
wood color
 62
    43
420
 15444572
100
AcDbHatch
 10
0.0
 20
0.0
 30
0.0
210
0.0
220
0.0
230
1.0
  2
SOLID
 70
     1
 71
     0
 91
        1
 92
        1
 93
        4
 72
     1
 10
2.525552713976948
 20
-4.934637500000008
 11
2.366312440221918
 21
-4.869398611111111
 72
     1
 10
2.366312440221918
 20
-4.869398611111111
 11
2.366312440221918
 21
-4.820176388888891
 72
     1
 10
2.366312440221918
 20
-4.820176388888891
 11
2.525552713976948
 21
-4.779311111111105
 72
     1
 10
2.525552713976948
 20
-4.779311111111105
 11
2.525552713976948
 21
-4.934637500000008
 97
        0
 75
     2
 76
     1
 98
        0
  0
POLYLINE
  5
B6
330
1F
100
AcDbEntity
  8
wood color
370
     0
100
AcDb2dPolyline
 66
     1
 10
0.0
 20
0.0
 30
0.0
  0
VERTEX
  5
B7
330
B6
100
AcDbEntity
  8
wood color
370
     0
100
AcDbVertex
100
AcDb2dVertex
 10
0.4630736111111117
 20
-5.370537500000006
 30
0.0
  0
VERTEX
  5
B8
330
B6
100
AcDbEntity
  8
wood color
370
     0
100
AcDbVertex
100
AcDb2dVertex
 10
0.4630736111111117
 20
-4.988023611111101
 30
0.0
  0
VERTEX
  5
B9
330
B6
100
AcDbEntity
  8
wood color
370
     0
100
AcDbVertex
100
AcDb2dVertex
 10
0.4916374999999991
 20
-5.008802777777772
 30
0.0
  0
VERTEX
  5
BA
330
B6
100
AcDbEntity
  8
wood color
370
     0
100
AcDbVertex
100
AcDb2dVertex
 10
0.5838833333333342
 20
-5.045152777777781
 30
0.0
  0
VERTEX
  5
BB
330
B6
100
AcDbEntity
  8
wood color
370
     0
100
AcDbVertex
100
AcDb2dVertex
 10
0.5838833333333342
 20
-5.338731944444437
 30
0.0
  0
VERTEX
  5
BC
330
B6
100
AcDbEntity
  8
wood color
370
     0
100
AcDbVertex
100
AcDb2dVertex
 10
0.5838833333333342
 20
-5.474812499999997
 30
0.0
  0
VERTEX
  5
BD
330
B6
100
AcDbEntity
  8
wood color
370
     0
100
AcDbVertex
100
AcDb2dVertex
 10
0.4630736111111117
 20
-5.370537500000006
 30
0.0
  0
SEQEND
  5
BF
330
B6
100
AcDbEntity
  8
wood color
370
     0
  0
HATCH
  5
BE
330
1F
100
AcDbEntity
  8
wood color
 62
    43
420
 15444572
100
AcDbHatch
 10
0.0
 20
0.0
 30
0.0
210
0.0
220
0.0
230
1.0
  2
SOLID
 70
     1
 71
     0
 91
        1
 92
        1
 93
        6
 72
     1
 10
0.4630736111111117
 20
-5.370537500000006
 11
0.4630736111111117
 21
-4.988023611111101
 72
     1
 10
0.4630736111111117
 20
-4.988023611111101
 11
0.4916374999999991
 21
-5.008802777777772
 72
     1
 10
0.4916374999999991
 20
-5.008802777777772
 11
0.5838833333333342
 21
-5.045152777777781
 72
     1
 10
0.5838833333333342
 20
-5.045152777777781
 11
0.5838833333333342
 21
-5.338731944444437
 72
     1
 10
0.5838833333333342
 20
-5.338731944444437
 11
0.5838833333333342
 21
-5.474812499999997
 72
     1
 10
0.5838833333333342
 20
-5.474812499999997
 11
0.4630736111111117
 21
-5.370537500000006
 97
        0
 75
     2
 76
     1
 98
        0
  0
POLYLINE
  5
C0
330
1F
100
AcDbEntity
  8
wood color
370
     0
100
AcDb2dPolyline
 66
     1
 10
0.0
 20
0.0
 30
0.0
  0
VERTEX
  5
C1
330
C0
100
AcDbEntity
  8
wood color
370
     0
100
AcDbVertex
100
AcDb2dVertex
 10
0.5107416666666672
 20
-4.992688888888879
 30
0.0
  0
VERTEX
  5
C2
330
C0
100
AcDbEntity
  8
wood color
370
     0
100
AcDbVertex
100
AcDb2dVertex
 10
0.5838833333333342
 20
-5.045152777777781
 30
0.0
  0
VERTEX
  5
C3
330
C0
100
AcDbEntity
  8
wood color
370
     0
100
AcDbVertex
100
AcDb2dVertex
 10
0.4916374999999991
 20
-5.008802777777772
 30
0.0
  0
VERTEX
  5
C4
330
C0
100
AcDbEntity
  8
wood color
370
     0
100
AcDbVertex
100
AcDb2dVertex
 10
0.5107416666666672
 20
-4.992688888888879
 30
0.0
  0
SEQEND
  5
C6
330
C0
100
AcDbEntity
  8
wood color
370
     0
  0
HATCH
  5
C5
330
1F
100
AcDbEntity
  8
wood color
 62
    43
420
 15444572
100
AcDbHatch
 10
0.0
 20
0.0
 30
0.0
210
0.0
220
0.0
230
1.0
  2
SOLID
 70
     1
 71
     0
 91
        1
 92
        1
 93
        3
 72
     1
 10
0.5107416666666672
 20
-4.992688888888879
 11
0.5838833333333342
 21
-5.045152777777781
 72
     1
 10
0.5838833333333342
 20
-5.045152777777781
 11
0.4916374999999991
 21
-5.008802777777772
 72
     1
 10
0.4916374999999991
 20
-5.008802777777772
 11
0.5107416666666672
 21
-4.992688888888879
 97
        0
 75
     2
 76
     1
 98
        0
  0
POLYLINE
  5
C7
330
1F
100
AcDbEntity
  8
wood color
370
     0
100
AcDb2dPolyline
 66
     1
 10
0.0
 20
0.0
 30
0.0
  0
VERTEX
  5
C8
330
C7
100
AcDbEntity
  8
wood color
370
     0
100
AcDbVertex
100
AcDb2dVertex
 10
0.5838833333333342
 20
-4.387124999999994
 30
0.0
  0
VERTEX
  5
C9
330
C7
100
AcDbEntity
  8
wood color
370
     0
100
AcDbVertex
100
AcDb2dVertex
 10
0.5838833333333342
 20
-4.797430555555567
 30
0.0
  0
VERTEX
  5
CA
330
C7
100
AcDbEntity
  8
wood color
370
     0
100
AcDbVertex
100
AcDb2dVertex
 10
0.5838833333333342
 20
-4.816786111111115
 30
0.0
  0
VERTEX
  5
CB
330
C7
100
AcDbEntity
  8
wood color
370
     0
100
AcDbVertex
100
AcDb2dVertex
 10
0.5378819444444439
 20
-4.787366666666659
 30
0.0
  0
VERTEX
  5
CC
330
C7
100
AcDbEntity
  8
wood color
370
     0
100
AcDbVertex
100
AcDb2dVertex
 10
0.4630736111111117
 20
-4.739501388888887
 30
0.0
  0
VERTEX
  5
CD
330
C7
100
AcDbEntity
  8
wood color
370
     0
100
AcDbVertex
100
AcDb2dVertex
 10
0.4630736111111117
 20
-4.327459722222228
 30
0.0
  0
VERTEX
  5
CE
330
C7
100
AcDbEntity
  8
wood color
370
     0
100
AcDbVertex
100
AcDb2dVertex
 10
0.5838833333333342
 20
-4.387124999999994
 30
0.0
  0
SEQEND
  5
D0
330
C7
100
AcDbEntity
  8
wood color
370
     0
  0
HATCH
  5
CF
330
1F
100
AcDbEntity
  8
wood color
 62
    43
420
 15444572
100
AcDbHatch
 10
0.0
 20
0.0
 30
0.0
210
0.0
220
0.0
230
1.0
  2
SOLID
 70
     1
 71
     0
 91
        1
 92
        1
 93
        6
 72
     1
 10
0.5838833333333342
 20
-4.387124999999994
 11
0.5838833333333342
 21
-4.797430555555567
 72
     1
 10
0.5838833333333342
 20
-4.797430555555567
 11
0.5838833333333342
 21
-4.816786111111115
 72
     1
 10
0.5838833333333342
 20
-4.816786111111115
 11
0.5378819444444439
 21
-4.787366666666659
 72
     1
 10
0.5378819444444439
 20
-4.787366666666659
 11
0.4630736111111117
 21
-4.739501388888887
 72
     1
 10
0.4630736111111117
 20
-4.739501388888887
 11
0.4630736111111117
 21
-4.327459722222228
 72
     1
 10
0.4630736111111117
 20
-4.327459722222228
 11
0.5838833333333342
 21
-4.387124999999994
 97
        0
 75
     2
 76
     1
 98
        0
  0
POLYLINE
  5
D1
330
1F
100
AcDbEntity
  8
wood color
370
     0
100
AcDb2dPolyline
 66
     1
 10
0.0
 20
0.0
 30
0.0
  0
VERTEX
  5
D2
330
D1
100
AcDbEntity
  8
wood color
370
     0
100
AcDbVertex
100
AcDb2dVertex
 10
0.6742958333333288
 20
-4.854668055555546
 30
0.0
  0
VERTEX
  5
D3
330
D1
100
AcDbEntity
  8
wood color
370
     0
100
AcDbVertex
100
AcDb2dVertex
 10
0.5107416666666672
 20
-4.992688888888879
 30
0.0
  0
VERTEX
  5
D4
330
D1
100
AcDbEntity
  8
wood color
370
     0
100
AcDbVertex
100
AcDb2dVertex
 10
0.4916374999999991
 20
-5.008802777777772
 30
0.0
  0
VERTEX
  5
D5
330
D1
100
AcDbEntity
  8
wood color
370
     0
100
AcDbVertex
100
AcDb2dVertex
 10
0.4630736111111117
 20
-4.988023611111101
 30
0.0
  0
VERTEX
  5
D6
330
D1
100
AcDbEntity
  8
wood color
370
     0
100
AcDbVertex
100
AcDb2dVertex
 10
0.3734874999999975
 20
-4.922825000000001
 30
0.0
  0
VERTEX
  5
D7
330
D1
100
AcDbEntity
  8
wood color
370
     0
100
AcDbVertex
100
AcDb2dVertex
 10
0.5378819444444439
 20
-4.787366666666659
 30
0.0
  0
VERTEX
  5
D8
330
D1
100
AcDbEntity
  8
wood color
370
     0
100
AcDbVertex
100
AcDb2dVertex
 10
0.5838833333333342
 20
-4.816786111111115
 30
0.0
  0
VERTEX
  5
D9
330
D1
100
AcDbEntity
  8
wood color
370
     0
100
AcDbVertex
100
AcDb2dVertex
 10
0.6742958333333288
 20
-4.854668055555546
 30
0.0
  0
SEQEND
  5
DB
330
D1
100
AcDbEntity
  8
wood color
370
     0
  0
HATCH
  5
DA
330
1F
100
AcDbEntity
  8
wood color
 62
    43
420
 15444572
100
AcDbHatch
 10
0.0
 20
0.0
 30
0.0
210
0.0
220
0.0
230
1.0
  2
SOLID
 70
     1
 71
     0
 91
        1
 92
        1
 93
        7
 72
     1
 10
0.6742958333333288
 20
-4.854668055555546
 11
0.5107416666666672
 21
-4.992688888888879
 72
     1
 10
0.5107416666666672
 20
-4.992688888888879
 11
0.4916374999999991
 21
-5.008802777777772
 72
     1
 10
0.4916374999999991
 20
-5.008802777777772
 11
0.4630736111111117
 21
-4.988023611111101
 72
     1
 10
0.4630736111111117
 20
-4.988023611111101
 11
0.3734874999999975
 21
-4.922825000000001
 72
     1
 10
0.3734874999999975
 20
-4.922825000000001
 11
0.5378819444444439
 21
-4.787366666666659
 72
     1
 10
0.5378819444444439
 20
-4.787366666666659
 11
0.5838833333333342
 21
-4.816786111111115
 72
     1
 10
0.5838833333333342
 20
-4.816786111111115
 11
0.6742958333333288
 21
-4.854668055555546
 97
        0
 75
     2
 76
     1
 98
        0
  0
POLYLINE
  5
DC
330
1F
100
AcDbEntity
  8
wood color
370
     0
100
AcDb2dPolyline
 66
     1
 10
0.0
 20
0.0
 30
0.0
  0
VERTEX
  5
DD
330
DC
100
AcDbEntity
  8
wood color
370
     0
100
AcDbVertex
100
AcDb2dVertex
 10
0.5838833333333342
 20
-4.797430555555567
 30
0.0
  0
VERTEX
  5
DE
330
DC
100
AcDbEntity
  8
wood color
370
     0
100
AcDbVertex
100
AcDb2dVertex
 10
0.6742958333333288
 20
-4.854668055555546
 30
0.0
  0
VERTEX
  5
DF
330
DC
100
AcDbEntity
  8
wood color
370
     0
100
AcDbVertex
100
AcDb2dVertex
 10
0.5838833333333342
 20
-4.816786111111115
 30
0.0
  0
VERTEX
  5
E0
330
DC
100
AcDbEntity
  8
wood color
370
     0
100
AcDbVertex
100
AcDb2dVertex
 10
0.5838833333333342
 20
-4.797430555555567
 30
0.0
  0
SEQEND
  5
E2
330
DC
100
AcDbEntity
  8
wood color
370
     0
  0
HATCH
  5
E1
330
1F
100
AcDbEntity
  8
wood color
 62
    43
420
 15444572
100
AcDbHatch
 10
0.0
 20
0.0
 30
0.0
210
0.0
220
0.0
230
1.0
  2
SOLID
 70
     1
 71
     0
 91
        1
 92
        1
 93
        3
 72
     1
 10
0.5838833333333342
 20
-4.797430555555567
 11
0.6742958333333288
 21
-4.854668055555546
 72
     1
 10
0.6742958333333288
 20
-4.854668055555546
 11
0.5838833333333342
 21
-4.816786111111115
 72
     1
 10
0.5838833333333342
 20
-4.816786111111115
 11
0.5838833333333342
 21
-4.797430555555567
 97
        0
 75
     2
 76
     1
 98
        0
  0
POLYLINE
  5
E3
330
1F
100
AcDbEntity
  8
wood color
370
     0
100
AcDb2dPolyline
 66
     1
 10
0.0
 20
0.0
 30
0.0
  0
VERTEX
  5
E4
330
E3
100
AcDbEntity
  8
wood color
370
     0
100
AcDbVertex
100
AcDb2dVertex
 10
1.990945783037811
 20
-3.741006944444444
 30
0.0
  0
VERTEX
  5
E5
330
E3
100
AcDbEntity
  8
wood color
370
     0
100
AcDbVertex
100
AcDb2dVertex
 10
2.366312440221918
 20
-3.701768055555552
 30
0.0
  0
VERTEX
  5
E6
330
E3
100
AcDbEntity
  8
wood color
370
     0
100
AcDbVertex
100
AcDb2dVertex
 10
2.489895770433274
 20
-3.721869444444438
 30
0.0
  0
VERTEX
  5
E7
330
E3
100
AcDbEntity
  8
wood color
370
     0
100
AcDbVertex
100
AcDb2dVertex
 10
2.577487434887189
 20
-3.72078472222222
 30
0.0
  0
VERTEX
  5
E8
330
E3
100
AcDbEntity
  8
wood color
370
     0
100
AcDbVertex
100
AcDb2dVertex
 10
2.528090213912845
 20
-3.743869444444448
 30
0.0
  0
VERTEX
  5
E9
330
E3
100
AcDbEntity
  8
wood color
370
     0
100
AcDbVertex
100
AcDb2dVertex
 10
2.577487434887189
 20
-3.743231944444447
 30
0.0
  0
VERTEX
  5
EA
330
E3
100
AcDbEntity
  8
wood color
370
     0
100
AcDbVertex
100
AcDb2dVertex
 10
2.618069444444447
 20
-3.742716666666663
 30
0.0
  0
VERTEX
  5
EB
330
E3
100
AcDbEntity
  8
wood color
370
     0
100
AcDbVertex
100
AcDb2dVertex
 10
2.755356874838273
 20
-3.765055555555553
 30
0.0
  0
VERTEX
  5
EC
330
E3
100
AcDbEntity
  8
wood color
370
     0
100
AcDbVertex
100
AcDb2dVertex
 10
1.990945783037811
 20
-3.856377777777778
 30
0.0
  0
VERTEX
  5
ED
330
E3
100
AcDbEntity
  8
wood color
370
     0
100
AcDbVertex
100
AcDb2dVertex
 10
1.990945783037811
 20
-3.741006944444444
 30
0.0
  0
SEQEND
  5
EF
330
E3
100
AcDbEntity
  8
wood color
370
     0
  0
HATCH
  5
EE
330
1F
100
AcDbEntity
  8
wood color
 62
    43
420
 15444572
100
AcDbHatch
 10
0.0
 20
0.0
 30
0.0
210
0.0
220
0.0
230
1.0
  2
SOLID
 70
     1
 71
     0
 91
        1
 92
        1
 93
        9
 72
     1
 10
1.990945783037811
 20
-3.741006944444444
 11
2.366312440221918
 21
-3.701768055555552
 72
     1
 10
2.366312440221918
 20
-3.701768055555552
 11
2.489895770433274
 21
-3.721869444444438
 72
     1
 10
2.489895770433274
 20
-3.721869444444438
 11
2.577487434887189
 21
-3.72078472222222
 72
     1
 10
2.577487434887189
 20
-3.72078472222222
 11
2.528090213912845
 21
-3.743869444444448
 72
     1
 10
2.528090213912845
 20
-3.743869444444448
 11
2.577487434887189
 21
-3.743231944444447
 72
     1
 10
2.577487434887189
 20
-3.743231944444447
 11
2.618069444444447
 21
-3.742716666666663
 72
     1
 10
2.618069444444447
 20
-3.742716666666663
 11
2.755356874838273
 21
-3.765055555555553
 72
     1
 10
2.755356874838273
 20
-3.765055555555553
 11
1.990945783037811
 21
-3.856377777777778
 72
     1
 10
1.990945783037811
 20
-3.856377777777778
 11
1.990945783037811
 21
-3.741006944444444
 97
        0
 75
     2
 76
     1
 98
        0
  0
POLYLINE
  5
F0
330
1F
100
AcDbEntity
  8
wood color
370
     0
100
AcDb2dPolyline
 66
     1
 10
0.0
 20
0.0
 30
0.0
  0
VERTEX
  5
F1
330
F0
100
AcDbEntity
  8
wood color
370
     0
100
AcDbVertex
100
AcDb2dVertex
 10
2.577487434887189
 20
-3.743231944444447
 30
0.0
  0
VERTEX
  5
F2
330
F0
100
AcDbEntity
  8
wood color
370
     0
100
AcDbVertex
100
AcDb2dVertex
 10
2.528090213912845
 20
-3.743869444444448
 30
0.0
  0
VERTEX
  5
F3
330
F0
100
AcDbEntity
  8
wood color
370
     0
100
AcDbVertex
100
AcDb2dVertex
 10
2.577487434887189
 20
-3.72078472222222
 30
0.0
  0
VERTEX
  5
F4
330
F0
100
AcDbEntity
  8
wood color
370
     0
100
AcDbVertex
100
AcDb2dVertex
 10
2.577487434887189
 20
-3.743231944444447
 30
0.0
  0
SEQEND
  5
F6
330
F0
100
AcDbEntity
  8
wood color
370
     0
  0
HATCH
  5
F5
330
1F
100
AcDbEntity
  8
wood color
 62
    43
420
 15444572
100
AcDbHatch
 10
0.0
 20
0.0
 30
0.0
210
0.0
220
0.0
230
1.0
  2
SOLID
 70
     1
 71
     0
 91
        1
 92
        1
 93
        3
 72
     1
 10
2.577487434887189
 20
-3.743231944444447
 11
2.528090213912845
 21
-3.743869444444448
 72
     1
 10
2.528090213912845
 20
-3.743869444444448
 11
2.577487434887189
 21
-3.72078472222222
 72
     1
 10
2.577487434887189
 20
-3.72078472222222
 11
2.577487434887189
 21
-3.743231944444447
 97
        0
 75
     2
 76
     1
 98
        0
  0
POLYLINE
  5
F7
330
1F
100
AcDbEntity
  8
wood color
370
     0
100
AcDb2dPolyline
 66
     1
 10
0.0
 20
0.0
 30
0.0
  0
VERTEX
  5
F8
330
F7
100
AcDbEntity
  8
wood color
370
     0
100
AcDbVertex
100
AcDb2dVertex
 10
0.6709861111111068
 20
-3.931084722222219
 30
0.0
  0
VERTEX
  5
F9
330
F7
100
AcDbEntity
  8
wood color
370
     0
100
AcDbVertex
100
AcDb2dVertex
 10
0.5566472222222197
 20
-3.962850000000003
 30
0.0
  0
VERTEX
  5
FA
330
F7
100
AcDbEntity
  8
wood color
370
     0
100
AcDbVertex
100
AcDb2dVertex
 10
0.5566472222222197
 20
-3.93282083333333
 30
0.0
  0
VERTEX
  5
FB
330
F7
100
AcDbEntity
  8
wood color
370
     0
100
AcDbVertex
100
AcDb2dVertex
 10
0.6709861111111068
 20
-3.931084722222219
 30
0.0
  0
SEQEND
  5
FD
330
F7
100
AcDbEntity
  8
wood color
370
     0
  0
HATCH
  5
FC
330
1F
100
AcDbEntity
  8
wood color
 62
    43
420
 15444572
100
AcDbHatch
 10
0.0
 20
0.0
 30
0.0
210
0.0
220
0.0
230
1.0
  2
SOLID
 70
     1
 71
     0
 91
        1
 92
        1
 93
        3
 72
     1
 10
0.6709861111111068
 20
-3.931084722222219
 11
0.5566472222222197
 21
-3.962850000000003
 72
     1
 10
0.5566472222222197
 20
-3.962850000000003
 11
0.5566472222222197
 21
-3.93282083333333
 72
     1
 10
0.5566472222222197
 20
-3.93282083333333
 11
0.6709861111111068
 21
-3.931084722222219
 97
        0
 75
     2
 76
     1
 98
        0
  0
POLYLINE
  5
FE
330
1F
100
AcDbEntity
  8
wood color
370
     0
100
AcDb2dPolyline
 66
     1
 10
0.0
 20
0.0
 30
0.0
  0
VERTEX
  5
FF
330
FE
100
AcDbEntity
  8
wood color
370
     0
100
AcDbVertex
100
AcDb2dVertex
 10
0.7620041666666691
 20
-4.317802777777766
 30
0.0
  0
VERTEX
  5
100
330
FE
100
AcDbEntity
  8
wood color
370
     0
100
AcDbVertex
100
AcDb2dVertex
 10
0.6550430555555522
 20
-4.270358333333332
 30
0.0
  0
VERTEX
  5
101
330
FE
100
AcDbEntity
  8
wood color
370
     0
100
AcDbVertex
100
AcDb2dVertex
 10
0.6550430555555522
 20
-3.96655277777778
 30
0.0
  0
VERTEX
  5
102
330
FE
100
AcDbEntity
  8
wood color
370
     0
100
AcDbVertex
100
AcDb2dVertex
 10
0.7620041666666691
 20
-4.003213888888884
 30
0.0
  0
VERTEX
  5
103
330
FE
100
AcDbEntity
  8
wood color
370
     0
100
AcDbVertex
100
AcDb2dVertex
 10
0.7620041666666691
 20
-4.317802777777766
 30
0.0
  0
SEQEND
  5
105
330
FE
100
AcDbEntity
  8
wood color
370
     0
  0
HATCH
  5
104
330
1F
100
AcDbEntity
  8
wood color
 62
    43
420
 15444572
100
AcDbHatch
 10
0.0
 20
0.0
 30
0.0
210
0.0
220
0.0
230
1.0
  2
SOLID
 70
     1
 71
     0
 91
        1
 92
        1
 93
        4
 72
     1
 10
0.7620041666666691
 20
-4.317802777777766
 11
0.6550430555555522
 21
-4.270358333333332
 72
     1
 10
0.6550430555555522
 20
-4.270358333333332
 11
0.6550430555555522
 21
-3.96655277777778
 72
     1
 10
0.6550430555555522
 20
-3.96655277777778
 11
0.7620041666666691
 21
-4.003213888888884
 72
     1
 10
0.7620041666666691
 20
-4.003213888888884
 11
0.7620041666666691
 21
-4.317802777777766
 97
        0
 75
     2
 76
     1
 98
        0
  0
POLYLINE
  5
106
330
1F
100
AcDbEntity
  8
wood color
370
     0
100
AcDb2dPolyline
 66
     1
 10
0.0
 20
0.0
 30
0.0
  0
VERTEX
  5
107
330
106
100
AcDbEntity
  8
wood color
370
     0
100
AcDbVertex
100
AcDb2dVertex
 10
0.6550430555555522
 20
-3.96655277777778
 30
0.0
  0
VERTEX
  5
108
330
106
100
AcDbEntity
  8
wood color
370
     0
100
AcDbVertex
100
AcDb2dVertex
 10
0.6550430555555522
 20
-4.270358333333332
 30
0.0
  0
VERTEX
  5
109
330
106
100
AcDbEntity
  8
wood color
370
     0
100
AcDbVertex
100
AcDb2dVertex
 10
0.5366013888888876
 20
-4.272786111111119
 30
0.0
  0
VERTEX
  5
10A
330
106
100
AcDbEntity
  8
wood color
370
     0
100
AcDbVertex
100
AcDb2dVertex
 10
0.5366013888888876
 20
-4.21784166666666
 30
0.0
  0
VERTEX
  5
10B
330
106
100
AcDbEntity
  8
wood color
370
     0
100
AcDbVertex
100
AcDb2dVertex
 10
0.5366013888888876
 20
-3.968424999999999
 30
0.0
  0
VERTEX
  5
10C
330
106
100
AcDbEntity
  8
wood color
370
     0
100
AcDbVertex
100
AcDb2dVertex
 10
0.6550430555555522
 20
-3.96655277777778
 30
0.0
  0
SEQEND
  5
10E
330
106
100
AcDbEntity
  8
wood color
370
     0
  0
HATCH
  5
10D
330
1F
100
AcDbEntity
  8
wood color
 62
    43
420
 15444572
100
AcDbHatch
 10
0.0
 20
0.0
 30
0.0
210
0.0
220
0.0
230
1.0
  2
SOLID
 70
     1
 71
     0
 91
        1
 92
        1
 93
        5
 72
     1
 10
0.6550430555555522
 20
-3.96655277777778
 11
0.6550430555555522
 21
-4.270358333333332
 72
     1
 10
0.6550430555555522
 20
-4.270358333333332
 11
0.5366013888888876
 21
-4.272786111111119
 72
     1
 10
0.5366013888888876
 20
-4.272786111111119
 11
0.5366013888888876
 21
-4.21784166666666
 72
     1
 10
0.5366013888888876
 20
-4.21784166666666
 11
0.5366013888888876
 21
-3.968424999999999
 72
     1
 10
0.5366013888888876
 20
-3.968424999999999
 11
0.6550430555555522
 21
-3.96655277777778
 97
        0
 75
     2
 76
     1
 98
        0
  0
POLYLINE
  5
10F
330
1F
100
AcDbEntity
  8
wood color
370
     0
100
AcDb2dPolyline
 66
     1
 10
0.0
 20
0.0
 30
0.0
  0
VERTEX
  5
110
330
10F
100
AcDbEntity
  8
wood color
370
     0
100
AcDbVertex
100
AcDb2dVertex
 10
0.5366013888888876
 20
-4.21784166666666
 30
0.0
  0
VERTEX
  5
111
330
10F
100
AcDbEntity
  8
wood color
370
     0
100
AcDbVertex
100
AcDb2dVertex
 10
0.4630736111111117
 20
-4.185234722222225
 30
0.0
  0
VERTEX
  5
112
330
10F
100
AcDbEntity
  8
wood color
370
     0
100
AcDbVertex
100
AcDb2dVertex
 10
0.4630736111111117
 20
-3.900756944444449
 30
0.0
  0
VERTEX
  5
113
330
10F
100
AcDbEntity
  8
wood color
370
     0
100
AcDbVertex
100
AcDb2dVertex
 10
0.5566472222222197
 20
-3.93282083333333
 30
0.0
  0
VERTEX
  5
114
330
10F
100
AcDbEntity
  8
wood color
370
     0
100
AcDbVertex
100
AcDb2dVertex
 10
0.5566472222222197
 20
-3.962850000000003
 30
0.0
  0
VERTEX
  5
115
330
10F
100
AcDbEntity
  8
wood color
370
     0
100
AcDbVertex
100
AcDb2dVertex
 10
0.5366013888888876
 20
-3.968424999999999
 30
0.0
  0
VERTEX
  5
116
330
10F
100
AcDbEntity
  8
wood color
370
     0
100
AcDbVertex
100
AcDb2dVertex
 10
0.5366013888888876
 20
-4.21784166666666
 30
0.0
  0
SEQEND
  5
118
330
10F
100
AcDbEntity
  8
wood color
370
     0
  0
HATCH
  5
117
330
1F
100
AcDbEntity
  8
wood color
 62
    43
420
 15444572
100
AcDbHatch
 10
0.0
 20
0.0
 30
0.0
210
0.0
220
0.0
230
1.0
  2
SOLID
 70
     1
 71
     0
 91
        1
 92
        1
 93
        6
 72
     1
 10
0.5366013888888876
 20
-4.21784166666666
 11
0.4630736111111117
 21
-4.185234722222225
 72
     1
 10
0.4630736111111117
 20
-4.185234722222225
 11
0.4630736111111117
 21
-3.900756944444449
 72
     1
 10
0.4630736111111117
 20
-3.900756944444449
 11
0.5566472222222197
 21
-3.93282083333333
 72
     1
 10
0.5566472222222197
 20
-3.93282083333333
 11
0.5566472222222197
 21
-3.962850000000003
 72
     1
 10
0.5566472222222197
 20
-3.962850000000003
 11
0.5366013888888876
 21
-3.968424999999999
 72
     1
 10
0.5366013888888876
 20
-3.968424999999999
 11
0.5366013888888876
 21
-4.21784166666666
 97
        0
 75
     2
 76
     1
 98
        0
  0
POLYLINE
  5
11A
330
1F
100
AcDbEntity
  8
Layer 1
 62
   250
420
  2301728
370
    18
100
AcDb2dPolyline
 66
     1
 10
0.0
 20
0.0
 30
0.0
  0
VERTEX
  5
11B
330
11A
100
AcDbEntity
  8
Layer 1
 62
   250
420
  2301728
370
    18
100
AcDbVertex
100
AcDb2dVertex
 10
1.418016630844553
 20
-3.800916666666669
 30
0.0
  0
VERTEX
  5
11C
330
11A
100
AcDbEntity
  8
Layer 1
 62
   250
420
  2301728
370
    18
100
AcDbVertex
100
AcDb2dVertex
 10
1.418016630844553
 20
-2.888006944444442
 30
0.0
  0
VERTEX
  5
11D
330
11A
100
AcDbEntity
  8
Layer 1
 62
   250
420
  2301728
370
    18
100
AcDbVertex
100
AcDb2dVertex
 10
1.529927739128551
 20
-2.888006944444442
 30
0.0
  0
VERTEX
  5
11E
330
11A
100
AcDbEntity
  8
Layer 1
 62
   250
420
  2301728
370
    18
100
AcDbVertex
100
AcDb2dVertex
 10
1.558498571740125
 20
-2.79813611111111
 30
0.0
  0
VERTEX
  5
11F
330
11A
100
AcDbEntity
  8
Layer 1
 62
   250
420
  2301728
370
    18
100
AcDbVertex
100
AcDb2dVertex
 10
1.771131899701888
 20
-2.801649999999995
 30
0.0
  0
VERTEX
  5
120
330
11A
100
AcDbEntity
  8
Layer 1
 62
   250
420
  2301728
370
    18
100
AcDbVertex
100
AcDb2dVertex
 10
1.799763888888884
 20
-2.883965277777773
 30
0.0
  0
VERTEX
  5
121
330
11A
100
AcDbEntity
  8
Layer 1
 62
   250
420
  2301728
370
    18
100
AcDbVertex
100
AcDb2dVertex
 10
1.990945783037811
 20
-2.885145833333329
 30
0.0
  0
VERTEX
  5
122
330
11A
100
AcDbEntity
  8
Layer 1
 62
   250
420
  2301728
370
    18
100
AcDbVertex
100
AcDb2dVertex
 10
1.990945783037811
 20
-3.741006944444444
 30
0.0
  0
SEQEND
  5
123
330
11A
100
AcDbEntity
  8
Layer 1
 62
   250
420
  2301728
370
    18
  0
POLYLINE
  5
124
330
1F
100
AcDbEntity
  8
Layer 1
 62
   250
420
  2301728
370
    18
100
AcDb2dPolyline
 66
     1
 10
0.0
 20
0.0
 30
0.0
  0
VERTEX
  5
125
330
124
100
AcDbEntity
  8
Layer 1
 62
   250
420
  2301728
370
    18
100
AcDbVertex
100
AcDb2dVertex
 10
1.772894399657364
 20
-3.882433333333337
 30
0.0
  0
VERTEX
  5
126
330
124
100
AcDbEntity
  8
Layer 1
 62
   250
420
  2301728
370
    18
100
AcDbVertex
100
AcDb2dVertex
 10
1.418016630844553
 20
-3.800916666666669
 30
0.0
  0
SEQEND
  5
127
330
124
100
AcDbEntity
  8
Layer 1
 62
   250
420
  2301728
370
    18
  0
POLYLINE
  5
128
330
1F
100
AcDbEntity
  8
Layer 1
 62
   250
420
  2301728
370
    18
100
AcDb2dPolyline
 66
     1
 10
0.0
 20
0.0
 30
0.0
  0
VERTEX
  5
129
330
128
100
AcDbEntity
  8
Layer 1
 62
   250
420
  2301728
370
    18
100
AcDbVertex
100
AcDb2dVertex
 10
1.772894399657364
 20
-3.882433333333337
 30
0.0
  0
VERTEX
  5
12A
330
128
100
AcDbEntity
  8
Layer 1
 62
   250
420
  2301728
370
    18
100
AcDbVertex
100
AcDb2dVertex
 10
1.772894399657364
 20
-2.883802777777772
 30
0.0
  0
SEQEND
  5
12B
330
128
100
AcDbEntity
  8
Layer 1
 62
   250
420
  2301728
370
    18
  0
POLYLINE
  5
12C
330
1F
100
AcDbEntity
  8
Layer 1
 62
   250
420
  2301728
370
    18
100
AcDb2dPolyline
 66
     1
 10
0.0
 20
0.0
 30
0.0
  0
VERTEX
  5
12D
330
12C
100
AcDbEntity
  8
Layer 1
 62
   250
420
  2301728
370
    18
100
AcDbVertex
100
AcDb2dVertex
 10
1.990945783037811
 20
-3.856377777777778
 30
0.0
  0
VERTEX
  5
12E
330
12C
100
AcDbEntity
  8
Layer 1
 62
   250
420
  2301728
370
    18
100
AcDbVertex
100
AcDb2dVertex
 10
1.772894399657364
 20
-3.882433333333337
 30
0.0
  0
SEQEND
  5
12F
330
12C
100
AcDbEntity
  8
Layer 1
 62
   250
420
  2301728
370
    18
  0
POLYLINE
  5
130
330
1F
100
AcDbEntity
  8
Layer 1
 62
   250
420
  2301728
370
    18
100
AcDb2dPolyline
 66
     1
 10
0.0
 20
0.0
 30
0.0
  0
VERTEX
  5
131
330
130
100
AcDbEntity
  8
Layer 1
 62
   250
420
  2301728
370
    18
100
AcDbVertex
100
AcDb2dVertex
 10
1.6169291258196
 20
-2.975179166666673
 30
0.0
  0
VERTEX
  5
132
330
130
100
AcDbEntity
  8
Layer 1
 62
   250
420
  2301728
370
    18
100
AcDbVertex
100
AcDb2dVertex
 10
1.558498571740125
 20
-2.79813611111111
 30
0.0
  0
SEQEND
  5
133
330
130
100
AcDbEntity
  8
Layer 1
 62
   250
420
  2301728
370
    18
  0
POLYLINE
  5
134
330
1F
100
AcDbEntity
  8
Layer 1
 62
   250
420
  2301728
370
    18
100
AcDb2dPolyline
 66
     1
 10
0.0
 20
0.0
 30
0.0
  0
VERTEX
  5
135
330
134
100
AcDbEntity
  8
Layer 1
 62
   250
420
  2301728
370
    18
100
AcDbVertex
100
AcDb2dVertex
 10
1.6169291258196
 20
-2.975179166666673
 30
0.0
  0
VERTEX
  5
136
330
134
100
AcDbEntity
  8
Layer 1
 62
   250
420
  2301728
370
    18
100
AcDbVertex
100
AcDb2dVertex
 10
1.646795791731771
 20
-2.88529444444445
 30
0.0
  0
VERTEX
  5
137
330
134
100
AcDbEntity
  8
Layer 1
 62
   250
420
  2301728
370
    18
100
AcDbVertex
100
AcDb2dVertex
 10
1.799763888888884
 20
-2.883965277777773
 30
0.0
  0
SEQEND
  5
138
330
134
100
AcDbEntity
  8
Layer 1
 62
   250
420
  2301728
370
    18
  0
POLYLINE
  5
139
330
1F
100
AcDbEntity
  8
Layer 1
 62
   250
420
  2301728
370
    18
100
AcDb2dPolyline
 66
     1
 10
0.0
 20
0.0
 30
0.0
  0
VERTEX
  5
13A
330
139
100
AcDbEntity
  8
Layer 1
 62
   250
420
  2301728
370
    18
100
AcDbVertex
100
AcDb2dVertex
 10
2.525552713976948
 20
-4.934637500000008
 30
0.0
  0
VERTEX
  5
13B
330
139
100
AcDbEntity
  8
Layer 1
 62
   250
420
  2301728
370
    18
100
AcDbVertex
100
AcDb2dVertex
 10
0.5838833333333342
 20
-5.474812499999997
 30
0.0
  0
SEQEND
  5
13C
330
139
100
AcDbEntity
  8
Layer 1
 62
   250
420
  2301728
370
    18
  0
POLYLINE
  5
13D
330
1F
100
AcDbEntity
  8
Layer 1
 62
   250
420
  2301728
370
    18
100
AcDb2dPolyline
 66
     1
 10
0.0
 20
0.0
 30
0.0
  0
VERTEX
  5
13E
330
13D
100
AcDbEntity
  8
Layer 1
 62
   250
420
  2301728
370
    18
100
AcDbVertex
100
AcDb2dVertex
 10
2.525552713976948
 20
-4.779311111111105
 30
0.0
  0
VERTEX
  5
13F
330
13D
100
AcDbEntity
  8
Layer 1
 62
   250
420
  2301728
370
    18
100
AcDbVertex
100
AcDb2dVertex
 10
2.525552713976948
 20
-4.934637500000008
 30
0.0
  0
SEQEND
  5
140
330
13D
100
AcDbEntity
  8
Layer 1
 62
   250
420
  2301728
370
    18
  0
POLYLINE
  5
141
330
1F
100
AcDbEntity
  8
Layer 1
 62
   250
420
  2301728
370
    18
100
AcDb2dPolyline
 66
     1
 10
0.0
 20
0.0
 30
0.0
  0
VERTEX
  5
142
330
141
100
AcDbEntity
  8
Layer 1
 62
   250
420
  2301728
370
    18
100
AcDbVertex
100
AcDb2dVertex
 10
0.4630736111111117
 20
-4.988023611111101
 30
0.0
  0
VERTEX
  5
143
330
141
100
AcDbEntity
  8
Layer 1
 62
   250
420
  2301728
370
    18
100
AcDbVertex
100
AcDb2dVertex
 10
0.4630736111111117
 20
-5.370537500000006
 30
0.0
  0
SEQEND
  5
144
330
141
100
AcDbEntity
  8
Layer 1
 62
   250
420
  2301728
370
    18
  0
POLYLINE
  5
145
330
1F
100
AcDbEntity
  8
Layer 1
 62
   250
420
  2301728
370
    18
100
AcDb2dPolyline
 66
     1
 10
0.0
 20
0.0
 30
0.0
  0
VERTEX
  5
146
330
145
100
AcDbEntity
  8
Layer 1
 62
   250
420
  2301728
370
    18
100
AcDbVertex
100
AcDb2dVertex
 10
0.5107416666666672
 20
-4.992688888888879
 30
0.0
  0
VERTEX
  5
147
330
145
100
AcDbEntity
  8
Layer 1
 62
   250
420
  2301728
370
    18
100
AcDbVertex
100
AcDb2dVertex
 10
0.5838833333333342
 20
-5.045152777777781
 30
0.0
  0
SEQEND
  5
148
330
145
100
AcDbEntity
  8
Layer 1
 62
   250
420
  2301728
370
    18
  0
POLYLINE
  5
149
330
1F
100
AcDbEntity
  8
Layer 1
 62
   250
420
  2301728
370
    18
100
AcDb2dPolyline
 66
     1
 10
0.0
 20
0.0
 30
0.0
  0
VERTEX
  5
14A
330
149
100
AcDbEntity
  8
Layer 1
 62
   250
420
  2301728
370
    18
100
AcDbVertex
100
AcDb2dVertex
 10
0.4630736111111117
 20
-4.327459722222228
 30
0.0
  0
VERTEX
  5
14B
330
149
100
AcDbEntity
  8
Layer 1
 62
   250
420
  2301728
370
    18
100
AcDbVertex
100
AcDb2dVertex
 10
0.4630736111111117
 20
-4.739501388888887
 30
0.0
  0
SEQEND
  5
14C
330
149
100
AcDbEntity
  8
Layer 1
 62
   250
420
  2301728
370
    18
  0
POLYLINE
  5
14D
330
1F
100
AcDbEntity
  8
Layer 1
 62
   250
420
  2301728
370
    18
100
AcDb2dPolyline
 66
     1
 10
0.0
 20
0.0
 30
0.0
  0
VERTEX
  5
14E
330
14D
100
AcDbEntity
  8
Layer 1
 62
   250
420
  2301728
370
    18
100
AcDbVertex
100
AcDb2dVertex
 10
0.4916374999999991
 20
-5.008802777777772
 30
0.0
  0
VERTEX
  5
14F
330
14D
100
AcDbEntity
  8
Layer 1
 62
   250
420
  2301728
370
    18
100
AcDbVertex
100
AcDb2dVertex
 10
0.5838833333333342
 20
-5.045152777777781
 30
0.0
  0
SEQEND
  5
150
330
14D
100
AcDbEntity
  8
Layer 1
 62
   250
420
  2301728
370
    18
  0
POLYLINE
  5
151
330
1F
100
AcDbEntity
  8
Layer 1
 62
   250
420
  2301728
370
    18
100
AcDb2dPolyline
 66
     1
 10
0.0
 20
0.0
 30
0.0
  0
VERTEX
  5
152
330
151
100
AcDbEntity
  8
Layer 1
 62
   250
420
  2301728
370
    18
100
AcDbVertex
100
AcDb2dVertex
 10
0.5838833333333342
 20
-4.797430555555567
 30
0.0
  0
VERTEX
  5
153
330
151
100
AcDbEntity
  8
Layer 1
 62
   250
420
  2301728
370
    18
100
AcDbVertex
100
AcDb2dVertex
 10
0.6742958333333288
 20
-4.854668055555546
 30
0.0
  0
SEQEND
  5
154
330
151
100
AcDbEntity
  8
Layer 1
 62
   250
420
  2301728
370
    18
  0
POLYLINE
  5
155
330
1F
100
AcDbEntity
  8
Layer 1
 62
   250
420
  2301728
370
    18
100
AcDb2dPolyline
 66
     1
 10
0.0
 20
0.0
 30
0.0
  0
VERTEX
  5
156
330
155
100
AcDbEntity
  8
Layer 1
 62
   250
420
  2301728
370
    18
100
AcDbVertex
100
AcDb2dVertex
 10
0.5378819444444439
 20
-4.787366666666659
 30
0.0
  0
VERTEX
  5
157
330
155
100
AcDbEntity
  8
Layer 1
 62
   250
420
  2301728
370
    18
100
AcDbVertex
100
AcDb2dVertex
 10
0.3734874999999975
 20
-4.922825000000001
 30
0.0
  0
SEQEND
  5
158
330
155
100
AcDbEntity
  8
Layer 1
 62
   250
420
  2301728
370
    18
  0
POLYLINE
  5
159
330
1F
100
AcDbEntity
  8
Layer 1
 62
   250
420
  2301728
370
    18
100
AcDb2dPolyline
 66
     1
 10
0.0
 20
0.0
 30
0.0
  0
VERTEX
  5
15A
330
159
100
AcDbEntity
  8
Layer 1
 62
   250
420
  2301728
370
    18
100
AcDbVertex
100
AcDb2dVertex
 10
0.5838833333333342
 20
-4.816786111111115
 30
0.0
  0
VERTEX
  5
15B
330
159
100
AcDbEntity
  8
Layer 1
 62
   250
420
  2301728
370
    18
100
AcDbVertex
100
AcDb2dVertex
 10
0.6742958333333288
 20
-4.854668055555546
 30
0.0
  0
SEQEND
  5
15C
330
159
100
AcDbEntity
  8
Layer 1
 62
   250
420
  2301728
370
    18
  0
POLYLINE
  5
15D
330
1F
100
AcDbEntity
  8
Layer 1
 62
   250
420
  2301728
370
    18
100
AcDb2dPolyline
 66
     1
 10
0.0
 20
0.0
 30
0.0
  0
VERTEX
  5
15E
330
15D
100
AcDbEntity
  8
Layer 1
 62
   250
420
  2301728
370
    18
100
AcDbVertex
100
AcDb2dVertex
 10
0.4630736111111117
 20
-4.327459722222228
 30
0.0
  0
VERTEX
  5
15F
330
15D
100
AcDbEntity
  8
Layer 1
 62
   250
420
  2301728
370
    18
100
AcDbVertex
100
AcDb2dVertex
 10
0.5838833333333342
 20
-4.387124999999994
 30
0.0
  0
SEQEND
  5
160
330
15D
100
AcDbEntity
  8
Layer 1
 62
   250
420
  2301728
370
    18
  0
POLYLINE
  5
161
330
1F
100
AcDbEntity
  8
Layer 1
 62
   250
420
  2301728
370
    18
100
AcDb2dPolyline
 66
     1
 10
0.0
 20
0.0
 30
0.0
  0
VERTEX
  5
162
330
161
100
AcDbEntity
  8
Layer 1
 62
   250
420
  2301728
370
    18
100
AcDbVertex
100
AcDb2dVertex
 10
0.4630736111111117
 20
-5.370537500000006
 30
0.0
  0
VERTEX
  5
163
330
161
100
AcDbEntity
  8
Layer 1
 62
   250
420
  2301728
370
    18
100
AcDbVertex
100
AcDb2dVertex
 10
0.5838833333333342
 20
-5.474812499999997
 30
0.0
  0
SEQEND
  5
164
330
161
100
AcDbEntity
  8
Layer 1
 62
   250
420
  2301728
370
    18
  0
POLYLINE
  5
165
330
1F
100
AcDbEntity
  8
Layer 1
 62
   250
420
  2301728
370
    18
100
AcDb2dPolyline
 66
     1
 10
0.0
 20
0.0
 30
0.0
  0
VERTEX
  5
166
330
165
100
AcDbEntity
  8
Layer 1
 62
   250
420
  2301728
370
    18
100
AcDbVertex
100
AcDb2dVertex
 10
2.755356874838273
 20
-4.009643055555557
 30
0.0
  0
VERTEX
  5
167
330
165
100
AcDbEntity
  8
Layer 1
 62
   250
420
  2301728
370
    18
100
AcDbVertex
100
AcDb2dVertex
 10
0.7620041666666691
 20
-4.317802777777766
 30
0.0
  0
SEQEND
  5
168
330
165
100
AcDbEntity
  8
Layer 1
 62
   250
420
  2301728
370
    18
  0
POLYLINE
  5
169
330
1F
100
AcDbEntity
  8
Layer 1
 62
   250
420
  2301728
370
    18
100
AcDb2dPolyline
 66
     1
 10
0.0
 20
0.0
 30
0.0
  0
VERTEX
  5
16A
330
169
100
AcDbEntity
  8
Layer 1
 62
   250
420
  2301728
370
    18
100
AcDbVertex
100
AcDb2dVertex
 10
2.366312440221918
 20
-3.701768055555552
 30
0.0
  0
VERTEX
  5
16B
330
169
100
AcDbEntity
  8
Layer 1
 62
   250
420
  2301728
370
    18
100
AcDbVertex
100
AcDb2dVertex
 10
1.990945783037811
 20
-3.741006944444444
 30
0.0
  0
SEQEND
  5
16C
330
169
100
AcDbEntity
  8
Layer 1
 62
   250
420
  2301728
370
    18
  0
POLYLINE
  5
16D
330
1F
100
AcDbEntity
  8
Layer 1
 62
   250
420
  2301728
370
    18
100
AcDb2dPolyline
 66
     1
 10
0.0
 20
0.0
 30
0.0
  0
VERTEX
  5
16E
330
16D
100
AcDbEntity
  8
Layer 1
 62
   250
420
  2301728
370
    18
100
AcDbVertex
100
AcDb2dVertex
 10
1.418016630844553
 20
-3.800916666666669
 30
0.0
  0
VERTEX
  5
16F
330
16D
100
AcDbEntity
  8
Layer 1
 62
   250
420
  2301728
370
    18
100
AcDbVertex
100
AcDb2dVertex
 10
0.4630736111111117
 20
-3.900756944444449
 30
0.0
  0
SEQEND
  5
170
330
16D
100
AcDbEntity
  8
Layer 1
 62
   250
420
  2301728
370
    18
  0
POLYLINE
  5
171
330
1F
100
AcDbEntity
  8
Layer 1
 62
   250
420
  2301728
370
    18
100
AcDb2dPolyline
 66
     1
 10
0.0
 20
0.0
 30
0.0
  0
VERTEX
  5
172
330
171
100
AcDbEntity
  8
Layer 1
 62
   250
420
  2301728
370
    18
100
AcDbVertex
100
AcDb2dVertex
 10
2.618069444444447
 20
-3.742716666666663
 30
0.0
  0
VERTEX
  5
173
330
171
100
AcDbEntity
  8
Layer 1
 62
   250
420
  2301728
370
    18
100
AcDbVertex
100
AcDb2dVertex
 10
2.755356874838273
 20
-3.765055555555553
 30
0.0
  0
SEQEND
  5
174
330
171
100
AcDbEntity
  8
Layer 1
 62
   250
420
  2301728
370
    18
  0
POLYLINE
  5
175
330
1F
100
AcDbEntity
  8
Layer 1
 62
   250
420
  2301728
370
    18
100
AcDb2dPolyline
 66
     1
 10
0.0
 20
0.0
 30
0.0
  0
VERTEX
  5
176
330
175
100
AcDbEntity
  8
Layer 1
 62
   250
420
  2301728
370
    18
100
AcDbVertex
100
AcDb2dVertex
 10
2.577487434887189
 20
-3.72078472222222
 30
0.0
  0
VERTEX
  5
177
330
175
100
AcDbEntity
  8
Layer 1
 62
   250
420
  2301728
370
    18
100
AcDbVertex
100
AcDb2dVertex
 10
2.528090213912845
 20
-3.743869444444448
 30
0.0
  0
SEQEND
  5
178
330
175
100
AcDbEntity
  8
Layer 1
 62
   250
420
  2301728
370
    18
  0
POLYLINE
  5
179
330
1F
100
AcDbEntity
  8
Layer 1
 62
   250
420
  2301728
370
    18
100
AcDb2dPolyline
 66
     1
 10
0.0
 20
0.0
 30
0.0
  0
VERTEX
  5
17A
330
179
100
AcDbEntity
  8
Layer 1
 62
   250
420
  2301728
370
    18
100
AcDbVertex
100
AcDb2dVertex
 10
2.489895770433274
 20
-3.721869444444438
 30
0.0
  0
VERTEX
  5
17B
330
179
100
AcDbEntity
  8
Layer 1
 62
   250
420
  2301728
370
    18
100
AcDbVertex
100
AcDb2dVertex
 10
2.577487434887189
 20
-3.72078472222222
 30
0.0
  0
SEQEND
  5
17C
330
179
100
AcDbEntity
  8
Layer 1
 62
   250
420
  2301728
370
    18
  0
POLYLINE
  5
17D
330
1F
100
AcDbEntity
  8
Layer 1
 62
   250
420
  2301728
370
    18
100
AcDb2dPolyline
 66
     1
 10
0.0
 20
0.0
 30
0.0
  0
VERTEX
  5
17E
330
17D
100
AcDbEntity
  8
Layer 1
 62
   250
420
  2301728
370
    18
100
AcDbVertex
100
AcDb2dVertex
 10
2.366312440221918
 20
-3.701768055555552
 30
0.0
  0
VERTEX
  5
17F
330
17D
100
AcDbEntity
  8
Layer 1
 62
   250
420
  2301728
370
    18
100
AcDbVertex
100
AcDb2dVertex
 10
2.489895770433274
 20
-3.721869444444438
 30
0.0
  0
SEQEND
  5
180
330
17D
100
AcDbEntity
  8
Layer 1
 62
   250
420
  2301728
370
    18
  0
POLYLINE
  5
181
330
1F
100
AcDbEntity
  8
Layer 1
 62
   250
420
  2301728
370
    18
100
AcDb2dPolyline
 66
     1
 10
0.0
 20
0.0
 30
0.0
  0
VERTEX
  5
182
330
181
100
AcDbEntity
  8
Layer 1
 62
   250
420
  2301728
370
    18
100
AcDbVertex
100
AcDb2dVertex
 10
2.577487434887189
 20
-3.743231944444447
 30
0.0
  0
VERTEX
  5
183
330
181
100
AcDbEntity
  8
Layer 1
 62
   250
420
  2301728
370
    18
100
AcDbVertex
100
AcDb2dVertex
 10
2.577487434887189
 20
-3.72078472222222
 30
0.0
  0
SEQEND
  5
184
330
181
100
AcDbEntity
  8
Layer 1
 62
   250
420
  2301728
370
    18
  0
POLYLINE
  5
185
330
1F
100
AcDbEntity
  8
Layer 1
 62
   250
420
  2301728
370
    18
100
AcDb2dPolyline
 66
     1
 10
0.0
 20
0.0
 30
0.0
  0
VERTEX
  5
186
330
185
100
AcDbEntity
  8
Layer 1
 62
   250
420
  2301728
370
    18
100
AcDbVertex
100
AcDb2dVertex
 10
0.6550430555555522
 20
-4.270358333333332
 30
0.0
  0
VERTEX
  5
187
330
185
100
AcDbEntity
  8
Layer 1
 62
   250
420
  2301728
370
    18
100
AcDbVertex
100
AcDb2dVertex
 10
0.7620041666666691
 20
-4.317802777777766
 30
0.0
  0
SEQEND
  5
188
330
185
100
AcDbEntity
  8
Layer 1
 62
   250
420
  2301728
370
    18
  0
POLYLINE
  5
189
330
1F
100
AcDbEntity
  8
Layer 1
 62
   250
420
  2301728
370
    18
100
AcDb2dPolyline
 66
     1
 10
0.0
 20
0.0
 30
0.0
  0
VERTEX
  5
18A
330
189
100
AcDbEntity
  8
Layer 1
 62
   250
420
  2301728
370
    18
100
AcDbVertex
100
AcDb2dVertex
 10
0.6550430555555522
 20
-4.270358333333332
 30
0.0
  0
VERTEX
  5
18B
330
189
100
AcDbEntity
  8
Layer 1
 62
   250
420
  2301728
370
    18
100
AcDbVertex
100
AcDb2dVertex
 10
0.6550430555555522
 20
-3.96655277777778
 30
0.0
  0
SEQEND
  5
18C
330
189
100
AcDbEntity
  8
Layer 1
 62
   250
420
  2301728
370
    18
  0
POLYLINE
  5
18D
330
1F
100
AcDbEntity
  8
Layer 1
 62
   250
420
  2301728
370
    18
100
AcDb2dPolyline
 66
     1
 10
0.0
 20
0.0
 30
0.0
  0
VERTEX
  5
18E
330
18D
100
AcDbEntity
  8
Layer 1
 62
   250
420
  2301728
370
    18
100
AcDbVertex
100
AcDb2dVertex
 10
0.6550430555555522
 20
-3.96655277777778
 30
0.0
  0
VERTEX
  5
18F
330
18D
100
AcDbEntity
  8
Layer 1
 62
   250
420
  2301728
370
    18
100
AcDbVertex
100
AcDb2dVertex
 10
0.7620041666666691
 20
-4.003213888888884
 30
0.0
  0
SEQEND
  5
190
330
18D
100
AcDbEntity
  8
Layer 1
 62
   250
420
  2301728
370
    18
  0
POLYLINE
  5
191
330
1F
100
AcDbEntity
  8
Layer 1
 62
   250
420
  2301728
370
    18
100
AcDb2dPolyline
 66
     1
 10
0.0
 20
0.0
 30
0.0
  0
VERTEX
  5
192
330
191
100
AcDbEntity
  8
Layer 1
 62
   250
420
  2301728
370
    18
100
AcDbVertex
100
AcDb2dVertex
 10
0.4630736111111117
 20
-4.185234722222225
 30
0.0
  0
VERTEX
  5
193
330
191
100
AcDbEntity
  8
Layer 1
 62
   250
420
  2301728
370
    18
100
AcDbVertex
100
AcDb2dVertex
 10
0.5366013888888876
 20
-4.21784166666666
 30
0.0
  0
SEQEND
  5
194
330
191
100
AcDbEntity
  8
Layer 1
 62
   250
420
  2301728
370
    18
  0
POLYLINE
  5
195
330
1F
100
AcDbEntity
  8
Layer 1
 62
   250
420
  2301728
370
    18
100
AcDb2dPolyline
 66
     1
 10
0.0
 20
0.0
 30
0.0
  0
VERTEX
  5
196
330
195
100
AcDbEntity
  8
Layer 1
 62
   250
420
  2301728
370
    18
100
AcDbVertex
100
AcDb2dVertex
 10
0.4630736111111117
 20
-3.900756944444449
 30
0.0
  0
VERTEX
  5
197
330
195
100
AcDbEntity
  8
Layer 1
 62
   250
420
  2301728
370
    18
100
AcDbVertex
100
AcDb2dVertex
 10
0.5566472222222197
 20
-3.93282083333333
 30
0.0
  0
SEQEND
  5
198
330
195
100
AcDbEntity
  8
Layer 1
 62
   250
420
  2301728
370
    18
  0
POLYLINE
  5
199
330
1F
100
AcDbEntity
  8
Layer 1
 62
   250
420
  2301728
370
    18
100
AcDb2dPolyline
 66
     1
 10
0.0
 20
0.0
 30
0.0
  0
VERTEX
  5
19A
330
199
100
AcDbEntity
  8
Layer 1
 62
   250
420
  2301728
370
    18
100
AcDbVertex
100
AcDb2dVertex
 10
0.5566472222222197
 20
-3.962850000000003
 30
0.0
  0
VERTEX
  5
19B
330
199
100
AcDbEntity
  8
Layer 1
 62
   250
420
  2301728
370
    18
100
AcDbVertex
100
AcDb2dVertex
 10
0.5566472222222197
 20
-3.93282083333333
 30
0.0
  0
SEQEND
  5
19C
330
199
100
AcDbEntity
  8
Layer 1
 62
   250
420
  2301728
370
    18
  0
POLYLINE
  5
19D
330
1F
100
AcDbEntity
  8
Layer 1
 62
   250
420
  2301728
370
    18
100
AcDb2dPolyline
 66
     1
 10
0.0
 20
0.0
 30
0.0
  0
VERTEX
  5
19E
330
19D
100
AcDbEntity
  8
Layer 1
 62
   250
420
  2301728
370
    18
100
AcDbVertex
100
AcDb2dVertex
 10
0.5366013888888876
 20
-4.272786111111119
 30
0.0
  0
VERTEX
  5
19F
330
19D
100
AcDbEntity
  8
Layer 1
 62
   250
420
  2301728
370
    18
100
AcDbVertex
100
AcDb2dVertex
 10
0.6550430555555522
 20
-4.270358333333332
 30
0.0
  0
SEQEND
  5
1A0
330
19D
100
AcDbEntity
  8
Layer 1
 62
   250
420
  2301728
370
    18
  0
POLYLINE
  5
1A1
330
1F
100
AcDbEntity
  8
Layer 1
 62
   250
420
  2301728
370
    18
100
AcDb2dPolyline
 66
     1
 10
0.0
 20
0.0
 30
0.0
  0
VERTEX
  5
1A2
330
1A1
100
AcDbEntity
  8
Layer 1
 62
   250
420
  2301728
370
    18
100
AcDbVertex
100
AcDb2dVertex
 10
0.5366013888888876
 20
-3.968424999999999
 30
0.0
  0
VERTEX
  5
1A3
330
1A1
100
AcDbEntity
  8
Layer 1
 62
   250
420
  2301728
370
    18
100
AcDbVertex
100
AcDb2dVertex
 10
0.6550430555555522
 20
-3.96655277777778
 30
0.0
  0
SEQEND
  5
1A4
330
1A1
100
AcDbEntity
  8
Layer 1
 62
   250
420
  2301728
370
    18
  0
POLYLINE
  5
1A5
330
1F
100
AcDbEntity
  8
Layer 1
 62
   250
420
  2301728
370
    18
100
AcDb2dPolyline
 66
     1
 10
0.0
 20
0.0
 30
0.0
  0
VERTEX
  5
1A6
330
1A5
100
AcDbEntity
  8
Layer 1
 62
   250
420
  2301728
370
    18
100
AcDbVertex
100
AcDb2dVertex
 10
0.5566472222222197
 20
-3.93282083333333
 30
0.0
  0
VERTEX
  5
1A7
330
1A5
100
AcDbEntity
  8
Layer 1
 62
   250
420
  2301728
370
    18
100
AcDbVertex
100
AcDb2dVertex
 10
0.6709861111111068
 20
-3.931084722222219
 30
0.0
  0
SEQEND
  5
1A8
330
1A5
100
AcDbEntity
  8
Layer 1
 62
   250
420
  2301728
370
    18
  0
POLYLINE
  5
1A9
330
1F
100
AcDbEntity
  8
Layer 1
 62
   250
420
  2301728
370
    18
100
AcDb2dPolyline
 66
     1
 10
0.0
 20
0.0
 30
0.0
  0
VERTEX
  5
1AA
330
1A9
100
AcDbEntity
  8
Layer 1
 62
   250
420
  2301728
370
    18
100
AcDbVertex
100
AcDb2dVertex
 10
0.4630736111111117
 20
-4.185234722222225
 30
0.0
  0
VERTEX
  5
1AB
330
1A9
100
AcDbEntity
  8
Layer 1
 62
   250
420
  2301728
370
    18
100
AcDbVertex
100
AcDb2dVertex
 10
0.4630736111111117
 20
-3.900756944444449
 30
0.0
  0
SEQEND
  5
1AC
330
1A9
100
AcDbEntity
  8
Layer 1
 62
   250
420
  2301728
370
    18
  0
POLYLINE
  5
1AD
330
1F
100
AcDbEntity
  8
Layer 1
 62
   250
420
  2301728
370
    18
100
AcDb2dPolyline
 66
     1
 10
0.0
 20
0.0
 30
0.0
  0
VERTEX
  5
1AE
330
1AD
100
AcDbEntity
  8
Layer 1
 62
   250
420
  2301728
370
    18
100
AcDbVertex
100
AcDb2dVertex
 10
0.7620041666666691
 20
-4.317802777777766
 30
0.0
  0
VERTEX
  5
1AF
330
1AD
100
AcDbEntity
  8
Layer 1
 62
   250
420
  2301728
370
    18
100
AcDbVertex
100
AcDb2dVertex
 10
0.7620041666666691
 20
-4.003213888888884
 30
0.0
  0
SEQEND
  5
1B0
330
1AD
100
AcDbEntity
  8
Layer 1
 62
   250
420
  2301728
370
    18
  0
POLYLINE
  5
1B1
330
1F
100
AcDbEntity
  8
Layer 1
 62
   250
420
  2301728
370
    18
100
AcDb2dPolyline
 66
     1
 10
0.0
 20
0.0
 30
0.0
  0
VERTEX
  5
1B2
330
1B1
100
AcDbEntity
  8
Layer 1
 62
   250
420
  2301728
370
    18
100
AcDbVertex
100
AcDb2dVertex
 10
2.755356874838273
 20
-3.940781944444463
 30
0.0
  0
VERTEX
  5
1B3
330
1B1
100
AcDbEntity
  8
Layer 1
 62
   250
420
  2301728
370
    18
100
AcDbVertex
100
AcDb2dVertex
 10
4.152587395096816
 20
-4.216051388888888
 30
0.0
  0
SEQEND
  5
1B4
330
1B1
100
AcDbEntity
  8
Layer 1
 62
   250
420
  2301728
370
    18
  0
POLYLINE
  5
1B5
330
1F
100
AcDbEntity
  8
Layer 1
 62
   250
420
  2301728
370
    18
100
AcDb2dPolyline
 66
     1
 10
0.0
 20
0.0
 30
0.0
  0
VERTEX
  5
1B6
330
1B5
100
AcDbEntity
  8
Layer 1
 62
   250
420
  2301728
370
    18
100
AcDbVertex
100
AcDb2dVertex
 10
0.4630736111111117
 20
-4.185234722222225
 30
0.0
  0
VERTEX
  5
1B7
330
1B5
100
AcDbEntity
  8
Layer 1
 62
   250
420
  2301728
370
    18
100
AcDbVertex
100
AcDb2dVertex
 10
0.4630736111111117
 20
-4.327459722222228
 30
0.0
  0
SEQEND
  5
1B8
330
1B5
100
AcDbEntity
  8
Layer 1
 62
   250
420
  2301728
370
    18
  0
POLYLINE
  5
1B9
330
1F
100
AcDbEntity
  8
Layer 1
 62
   250
420
  2301728
370
    18
100
AcDb2dPolyline
 66
     1
 10
0.0
 20
0.0
 30
0.0
  0
VERTEX
  5
1BA
330
1B9
100
AcDbEntity
  8
Layer 1
 62
   250
420
  2301728
370
    18
100
AcDbVertex
100
AcDb2dVertex
 10
1.770419399719887
 20
-4.76501527777777
 30
0.0
  0
VERTEX
  5
1BB
330
1B9
100
AcDbEntity
  8
Layer 1
 62
   250
420
  2301728
370
    18
100
AcDbVertex
100
AcDb2dVertex
 10
4.152587395096816
 20
-4.216051388888888
 30
0.0
  0
SEQEND
  5
1BC
330
1B9
100
AcDbEntity
  8
Layer 1
 62
   250
420
  2301728
370
    18
  0
POLYLINE
  5
1BD
330
1F
100
AcDbEntity
  8
Layer 1
 62
   250
420
  2301728
370
    18
100
AcDb2dPolyline
 66
     1
 10
0.0
 20
0.0
 30
0.0
  0
VERTEX
  5
1BE
330
1BD
100
AcDbEntity
  8
Layer 1
 62
   250
420
  2301728
370
    18
100
AcDbVertex
100
AcDb2dVertex
 10
4.152587395096816
 20
-4.216051388888888
 30
0.0
  0
VERTEX
  5
1BF
330
1BD
100
AcDbEntity
  8
Layer 1
 62
   250
420
  2301728
370
    18
100
AcDbVertex
100
AcDb2dVertex
 10
4.152587395096816
 20
-4.361788888888896
 30
0.0
  0
SEQEND
  5
1C0
330
1BD
100
AcDbEntity
  8
Layer 1
 62
   250
420
  2301728
370
    18
  0
POLYLINE
  5
1C1
330
1F
100
AcDbEntity
  8
Layer 1
 62
   250
420
  2301728
370
    18
100
AcDb2dPolyline
 66
     1
 10
0.0
 20
0.0
 30
0.0
  0
VERTEX
  5
1C2
330
1C1
100
AcDbEntity
  8
Layer 1
 62
   250
420
  2301728
370
    18
100
AcDbVertex
100
AcDb2dVertex
 10
1.770419399719887
 20
-4.76501527777777
 30
0.0
  0
VERTEX
  5
1C3
330
1C1
100
AcDbEntity
  8
Layer 1
 62
   250
420
  2301728
370
    18
100
AcDbVertex
100
AcDb2dVertex
 10
1.770419399719887
 20
-4.973090277777778
 30
0.0
  0
SEQEND
  5
1C4
330
1C1
100
AcDbEntity
  8
Layer 1
 62
   250
420
  2301728
370
    18
  0
POLYLINE
  5
1C5
330
1F
100
AcDbEntity
  8
Layer 1
 62
   250
420
  2301728
370
    18
100
AcDb2dPolyline
 66
     1
 10
0.0
 20
0.0
 30
0.0
  0
VERTEX
  5
1C6
330
1C5
100
AcDbEntity
  8
Layer 1
 62
   250
420
  2301728
370
    18
100
AcDbVertex
100
AcDb2dVertex
 10
1.990945783037811
 20
-3.856377777777778
 30
0.0
  0
VERTEX
  5
1C7
330
1C5
100
AcDbEntity
  8
Layer 1
 62
   250
420
  2301728
370
    18
100
AcDbVertex
100
AcDb2dVertex
 10
1.990945783037811
 20
-3.741006944444444
 30
0.0
  0
SEQEND
  5
1C8
330
1C5
100
AcDbEntity
  8
Layer 1
 62
   250
420
  2301728
370
    18
  0
POLYLINE
  5
1C9
330
1F
100
AcDbEntity
  8
Layer 1
 62
   250
420
  2301728
370
    18
100
AcDb2dPolyline
 66
     1
 10
0.0
 20
0.0
 30
0.0
  0
VERTEX
  5
1CA
330
1C9
100
AcDbEntity
  8
Layer 1
 62
   250
420
  2301728
370
    18
100
AcDbVertex
100
AcDb2dVertex
 10
0.5838833333333342
 20
-5.045152777777781
 30
0.0
  0
VERTEX
  5
1CB
330
1C9
100
AcDbEntity
  8
Layer 1
 62
   250
420
  2301728
370
    18
100
AcDbVertex
100
AcDb2dVertex
 10
0.5838833333333342
 20
-5.338731944444437
 30
0.0
  0
SEQEND
  5
1CC
330
1C9
100
AcDbEntity
  8
Layer 1
 62
   250
420
  2301728
370
    18
  0
POLYLINE
  5
1CD
330
1F
100
AcDbEntity
  8
Layer 1
 62
   250
420
  2301728
370
    18
100
AcDb2dPolyline
 66
     1
 10
0.0
 20
0.0
 30
0.0
  0
VERTEX
  5
1CE
330
1CD
100
AcDbEntity
  8
Layer 1
 62
   250
420
  2301728
370
    18
100
AcDbVertex
100
AcDb2dVertex
 10
0.5838833333333342
 20
-5.338731944444437
 30
0.0
  0
VERTEX
  5
1CF
330
1CD
100
AcDbEntity
  8
Layer 1
 62
   250
420
  2301728
370
    18
100
AcDbVertex
100
AcDb2dVertex
 10
0.5838833333333342
 20
-5.474812499999997
 30
0.0
  0
SEQEND
  5
1D0
330
1CD
100
AcDbEntity
  8
Layer 1
 62
   250
420
  2301728
370
    18
  0
POLYLINE
  5
1D1
330
1F
100
AcDbEntity
  8
Layer 1
 62
   250
420
  2301728
370
    18
100
AcDb2dPolyline
 66
     1
 10
0.0
 20
0.0
 30
0.0
  0
VERTEX
  5
1D2
330
1D1
100
AcDbEntity
  8
Layer 1
 62
   250
420
  2301728
370
    18
100
AcDbVertex
100
AcDb2dVertex
 10
0.5838833333333342
 20
-4.387124999999994
 30
0.0
  0
VERTEX
  5
1D3
330
1D1
100
AcDbEntity
  8
Layer 1
 62
   250
420
  2301728
370
    18
100
AcDbVertex
100
AcDb2dVertex
 10
0.5838833333333342
 20
-4.797430555555567
 30
0.0
  0
SEQEND
  5
1D4
330
1D1
100
AcDbEntity
  8
Layer 1
 62
   250
420
  2301728
370
    18
  0
POLYLINE
  5
1D5
330
1F
100
AcDbEntity
  8
Layer 1
 62
   250
420
  2301728
370
    18
100
AcDb2dPolyline
 66
     1
 10
0.0
 20
0.0
 30
0.0
  0
VERTEX
  5
1D6
330
1D5
100
AcDbEntity
  8
Layer 1
 62
   250
420
  2301728
370
    18
100
AcDbVertex
100
AcDb2dVertex
 10
0.5838833333333342
 20
-4.797430555555567
 30
0.0
  0
VERTEX
  5
1D7
330
1D5
100
AcDbEntity
  8
Layer 1
 62
   250
420
  2301728
370
    18
100
AcDbVertex
100
AcDb2dVertex
 10
0.5838833333333342
 20
-4.816786111111115
 30
0.0
  0
SEQEND
  5
1D8
330
1D5
100
AcDbEntity
  8
Layer 1
 62
   250
420
  2301728
370
    18
  0
POLYLINE
  5
1D9
330
1F
100
AcDbEntity
  8
Layer 1
 62
   250
420
  2301728
370
    18
100
AcDb2dPolyline
 66
     1
 10
0.0
 20
0.0
 30
0.0
  0
VERTEX
  5
1DA
330
1D9
100
AcDbEntity
  8
Layer 1
 62
   250
420
  2301728
370
    18
100
AcDbVertex
100
AcDb2dVertex
 10
0.4630736111111117
 20
-4.739501388888887
 30
0.0
  0
VERTEX
  5
1DB
330
1D9
100
AcDbEntity
  8
Layer 1
 62
   250
420
  2301728
370
    18
100
AcDbVertex
100
AcDb2dVertex
 10
0.5378819444444439
 20
-4.787366666666659
 30
0.0
  0
SEQEND
  5
1DC
330
1D9
100
AcDbEntity
  8
Layer 1
 62
   250
420
  2301728
370
    18
  0
POLYLINE
  5
1DD
330
1F
100
AcDbEntity
  8
Layer 1
 62
   250
420
  2301728
370
    18
100
AcDb2dPolyline
 66
     1
 10
0.0
 20
0.0
 30
0.0
  0
VERTEX
  5
1DE
330
1DD
100
AcDbEntity
  8
Layer 1
 62
   250
420
  2301728
370
    18
100
AcDbVertex
100
AcDb2dVertex
 10
0.5378819444444439
 20
-4.787366666666659
 30
0.0
  0
VERTEX
  5
1DF
330
1DD
100
AcDbEntity
  8
Layer 1
 62
   250
420
  2301728
370
    18
100
AcDbVertex
100
AcDb2dVertex
 10
0.5838833333333342
 20
-4.816786111111115
 30
0.0
  0
SEQEND
  5
1E0
330
1DD
100
AcDbEntity
  8
Layer 1
 62
   250
420
  2301728
370
    18
  0
POLYLINE
  5
1E1
330
1F
100
AcDbEntity
  8
Layer 1
 62
   250
420
  2301728
370
    18
100
AcDb2dPolyline
 66
     1
 10
0.0
 20
0.0
 30
0.0
  0
VERTEX
  5
1E2
330
1E1
100
AcDbEntity
  8
Layer 1
 62
   250
420
  2301728
370
    18
100
AcDbVertex
100
AcDb2dVertex
 10
0.6742958333333288
 20
-4.854668055555546
 30
0.0
  0
VERTEX
  5
1E3
330
1E1
100
AcDbEntity
  8
Layer 1
 62
   250
420
  2301728
370
    18
100
AcDbVertex
100
AcDb2dVertex
 10
0.5107416666666672
 20
-4.992688888888879
 30
0.0
  0
SEQEND
  5
1E4
330
1E1
100
AcDbEntity
  8
Layer 1
 62
   250
420
  2301728
370
    18
  0
POLYLINE
  5
1E5
330
1F
100
AcDbEntity
  8
Layer 1
 62
   250
420
  2301728
370
    18
100
AcDb2dPolyline
 66
     1
 10
0.0
 20
0.0
 30
0.0
  0
VERTEX
  5
1E6
330
1E5
100
AcDbEntity
  8
Layer 1
 62
   250
420
  2301728
370
    18
100
AcDbVertex
100
AcDb2dVertex
 10
0.5107416666666672
 20
-4.992688888888879
 30
0.0
  0
VERTEX
  5
1E7
330
1E5
100
AcDbEntity
  8
Layer 1
 62
   250
420
  2301728
370
    18
100
AcDbVertex
100
AcDb2dVertex
 10
0.4916374999999991
 20
-5.008802777777772
 30
0.0
  0
SEQEND
  5
1E8
330
1E5
100
AcDbEntity
  8
Layer 1
 62
   250
420
  2301728
370
    18
  0
POLYLINE
  5
1E9
330
1F
100
AcDbEntity
  8
Layer 1
 62
   250
420
  2301728
370
    18
100
AcDb2dPolyline
 66
     1
 10
0.0
 20
0.0
 30
0.0
  0
VERTEX
  5
1EA
330
1E9
100
AcDbEntity
  8
Layer 1
 62
   250
420
  2301728
370
    18
100
AcDbVertex
100
AcDb2dVertex
 10
0.3734874999999975
 20
-4.922825000000001
 30
0.0
  0
VERTEX
  5
1EB
330
1E9
100
AcDbEntity
  8
Layer 1
 62
   250
420
  2301728
370
    18
100
AcDbVertex
100
AcDb2dVertex
 10
0.4630736111111117
 20
-4.988023611111101
 30
0.0
  0
SEQEND
  5
1EC
330
1E9
100
AcDbEntity
  8
Layer 1
 62
   250
420
  2301728
370
    18
  0
POLYLINE
  5
1ED
330
1F
100
AcDbEntity
  8
Layer 1
 62
   250
420
  2301728
370
    18
100
AcDb2dPolyline
 66
     1
 10
0.0
 20
0.0
 30
0.0
  0
VERTEX
  5
1EE
330
1ED
100
AcDbEntity
  8
Layer 1
 62
   250
420
  2301728
370
    18
100
AcDbVertex
100
AcDb2dVertex
 10
0.4630736111111117
 20
-4.988023611111101
 30
0.0
  0
VERTEX
  5
1EF
330
1ED
100
AcDbEntity
  8
Layer 1
 62
   250
420
  2301728
370
    18
100
AcDbVertex
100
AcDb2dVertex
 10
0.4916374999999991
 20
-5.008802777777772
 30
0.0
  0
SEQEND
  5
1F0
330
1ED
100
AcDbEntity
  8
Layer 1
 62
   250
420
  2301728
370
    18
  0
POLYLINE
  5
1F1
330
1F
100
AcDbEntity
  8
Layer 1
 62
   250
420
  2301728
370
    18
100
AcDb2dPolyline
 66
     1
 10
0.0
 20
0.0
 30
0.0
  0
VERTEX
  5
1F2
330
1F1
100
AcDbEntity
  8
Layer 1
 62
   250
420
  2301728
370
    18
100
AcDbVertex
100
AcDb2dVertex
 10
2.755356874838273
 20
-4.009643055555557
 30
0.0
  0
VERTEX
  5
1F3
330
1F1
100
AcDbEntity
  8
Layer 1
 62
   250
420
  2301728
370
    18
100
AcDbVertex
100
AcDb2dVertex
 10
2.755356874838273
 20
-3.940781944444463
 30
0.0
  0
SEQEND
  5
1F4
330
1F1
100
AcDbEntity
  8
Layer 1
 62
   250
420
  2301728
370
    18
  0
POLYLINE
  5
1F5
330
1F
100
AcDbEntity
  8
Layer 1
 62
   250
420
  2301728
370
    18
100
AcDb2dPolyline
 66
     1
 10
0.0
 20
0.0
 30
0.0
  0
VERTEX
  5
1F6
330
1F5
100
AcDbEntity
  8
Layer 1
 62
   250
420
  2301728
370
    18
100
AcDbVertex
100
AcDb2dVertex
 10
2.755356874838273
 20
-3.940781944444463
 30
0.0
  0
VERTEX
  5
1F7
330
1F5
100
AcDbEntity
  8
Layer 1
 62
   250
420
  2301728
370
    18
100
AcDbVertex
100
AcDb2dVertex
 10
2.755356874838273
 20
-3.765055555555553
 30
0.0
  0
SEQEND
  5
1F8
330
1F5
100
AcDbEntity
  8
Layer 1
 62
   250
420
  2301728
370
    18
  0
POLYLINE
  5
1F9
330
1F
100
AcDbEntity
  8
Layer 1
 62
   250
420
  2301728
370
    18
100
AcDb2dPolyline
 66
     1
 10
0.0
 20
0.0
 30
0.0
  0
VERTEX
  5
1FA
330
1F9
100
AcDbEntity
  8
Layer 1
 62
   250
420
  2301728
370
    18
100
AcDbVertex
100
AcDb2dVertex
 10
1.772894399657364
 20
-3.882433333333337
 30
0.0
  0
VERTEX
  5
1FB
330
1F9
100
AcDbEntity
  8
Layer 1
 62
   250
420
  2301728
370
    18
100
AcDbVertex
100
AcDb2dVertex
 10
0.7620041666666691
 20
-4.003213888888884
 30
0.0
  0
SEQEND
  5
1FC
330
1F9
100
AcDbEntity
  8
Layer 1
 62
   250
420
  2301728
370
    18
  0
POLYLINE
  5
1FD
330
1F
100
AcDbEntity
  8
Layer 1
 62
   250
420
  2301728
370
    18
100
AcDb2dPolyline
 66
     1
 10
0.0
 20
0.0
 30
0.0
  0
VERTEX
  5
1FE
330
1FD
100
AcDbEntity
  8
Layer 1
 62
   250
420
  2301728
370
    18
100
AcDbVertex
100
AcDb2dVertex
 10
2.528090213912845
 20
-3.743869444444448
 30
0.0
  0
VERTEX
  5
1FF
330
1FD
100
AcDbEntity
  8
Layer 1
 62
   250
420
  2301728
370
    18
100
AcDbVertex
100
AcDb2dVertex
 10
2.577487434887189
 20
-3.743231944444447
 30
0.0
  0
SEQEND
  5
200
330
1FD
100
AcDbEntity
  8
Layer 1
 62
   250
420
  2301728
370
    18
  0
POLYLINE
  5
201
330
1F
100
AcDbEntity
  8
Layer 1
 62
   250
420
  2301728
370
    18
100
AcDb2dPolyline
 66
     1
 10
0.0
 20
0.0
 30
0.0
  0
VERTEX
  5
202
330
201
100
AcDbEntity
  8
Layer 1
 62
   250
420
  2301728
370
    18
100
AcDbVertex
100
AcDb2dVertex
 10
2.577487434887189
 20
-3.743231944444447
 30
0.0
  0
VERTEX
  5
203
330
201
100
AcDbEntity
  8
Layer 1
 62
   250
420
  2301728
370
    18
100
AcDbVertex
100
AcDb2dVertex
 10
2.618069444444447
 20
-3.742716666666663
 30
0.0
  0
SEQEND
  5
204
330
201
100
AcDbEntity
  8
Layer 1
 62
   250
420
  2301728
370
    18
  0
POLYLINE
  5
205
330
1F
100
AcDbEntity
  8
Layer 1
 62
   250
420
  2301728
370
    18
100
AcDb2dPolyline
 66
     1
 10
0.0
 20
0.0
 30
0.0
  0
VERTEX
  5
206
330
205
100
AcDbEntity
  8
Layer 1
 62
   250
420
  2301728
370
    18
100
AcDbVertex
100
AcDb2dVertex
 10
0.6709861111111068
 20
-3.931084722222219
 30
0.0
  0
VERTEX
  5
207
330
205
100
AcDbEntity
  8
Layer 1
 62
   250
420
  2301728
370
    18
100
AcDbVertex
100
AcDb2dVertex
 10
0.5566472222222197
 20
-3.962850000000003
 30
0.0
  0
SEQEND
  5
208
330
205
100
AcDbEntity
  8
Layer 1
 62
   250
420
  2301728
370
    18
  0
POLYLINE
  5
209
330
1F
100
AcDbEntity
  8
Layer 1
 62
   250
420
  2301728
370
    18
100
AcDb2dPolyline
 66
     1
 10
0.0
 20
0.0
 30
0.0
  0
VERTEX
  5
20A
330
209
100
AcDbEntity
  8
Layer 1
 62
   250
420
  2301728
370
    18
100
AcDbVertex
100
AcDb2dVertex
 10
0.5566472222222197
 20
-3.962850000000003
 30
0.0
  0
VERTEX
  5
20B
330
209
100
AcDbEntity
  8
Layer 1
 62
   250
420
  2301728
370
    18
100
AcDbVertex
100
AcDb2dVertex
 10
0.5366013888888876
 20
-3.968424999999999
 30
0.0
  0
SEQEND
  5
20C
330
209
100
AcDbEntity
  8
Layer 1
 62
   250
420
  2301728
370
    18
  0
POLYLINE
  5
20D
330
1F
100
AcDbEntity
  8
Layer 1
 62
   250
420
  2301728
370
    18
100
AcDb2dPolyline
 66
     1
 10
0.0
 20
0.0
 30
0.0
  0
VERTEX
  5
20E
330
20D
100
AcDbEntity
  8
Layer 1
 62
   250
420
  2301728
370
    18
100
AcDbVertex
100
AcDb2dVertex
 10
0.5366013888888876
 20
-4.272786111111119
 30
0.0
  0
VERTEX
  5
20F
330
20D
100
AcDbEntity
  8
Layer 1
 62
   250
420
  2301728
370
    18
100
AcDbVertex
100
AcDb2dVertex
 10
0.5366013888888876
 20
-4.21784166666666
 30
0.0
  0
SEQEND
  5
210
330
20D
100
AcDbEntity
  8
Layer 1
 62
   250
420
  2301728
370
    18
  0
POLYLINE
  5
211
330
1F
100
AcDbEntity
  8
Layer 1
 62
   250
420
  2301728
370
    18
100
AcDb2dPolyline
 66
     1
 10
0.0
 20
0.0
 30
0.0
  0
VERTEX
  5
212
330
211
100
AcDbEntity
  8
Layer 1
 62
   250
420
  2301728
370
    18
100
AcDbVertex
100
AcDb2dVertex
 10
0.5366013888888876
 20
-4.21784166666666
 30
0.0
  0
VERTEX
  5
213
330
211
100
AcDbEntity
  8
Layer 1
 62
   250
420
  2301728
370
    18
100
AcDbVertex
100
AcDb2dVertex
 10
0.5366013888888876
 20
-3.968424999999999
 30
0.0
  0
SEQEND
  5
214
330
211
100
AcDbEntity
  8
Layer 1
 62
   250
420
  2301728
370
    18
  0
POLYLINE
  5
215
330
1F
100
AcDbEntity
  8
Layer 1
 62
   250
420
  2301728
370
    18
100
AcDb2dPolyline
 66
     1
 10
0.0
 20
0.0
 30
0.0
  0
VERTEX
  5
216
330
215
100
AcDbEntity
  8
Layer 1
 62
   250
420
  2301728
370
    18
100
AcDbVertex
100
AcDb2dVertex
 10
1.770419399719887
 20
-4.76501527777777
 30
0.0
  0
VERTEX
  5
217
330
215
100
AcDbEntity
  8
Layer 1
 62
   250
420
  2301728
370
    18
100
AcDbVertex
100
AcDb2dVertex
 10
0.7620041666666691
 20
-4.317802777777766
 30
0.0
  0
SEQEND
  5
218
330
215
100
AcDbEntity
  8
Layer 1
 62
   250
420
  2301728
370
    18
  0
POLYLINE
  5
219
330
1F
100
AcDbEntity
  8
Layer 1
 62
   250
420
  2301728
370
    18
100
AcDb2dPolyline
 66
     1
 10
0.0
 20
0.0
 30
0.0
  0
VERTEX
  5
21A
330
219
100
AcDbEntity
  8
Layer 1
 62
   250
420
  2301728
370
    18
100
AcDbVertex
100
AcDb2dVertex
 10
1.770419399719887
 20
-4.973090277777778
 30
0.0
  0
VERTEX
  5
21B
330
219
100
AcDbEntity
  8
Layer 1
 62
   250
420
  2301728
370
    18
100
AcDbVertex
100
AcDb2dVertex
 10
2.366312440221918
 20
-4.820176388888891
 30
0.0
  0
SEQEND
  5
21C
330
219
100
AcDbEntity
  8
Layer 1
 62
   250
420
  2301728
370
    18
  0
POLYLINE
  5
21D
330
1F
100
AcDbEntity
  8
Layer 1
 62
   250
420
  2301728
370
    18
100
AcDb2dPolyline
 66
     1
 10
0.0
 20
0.0
 30
0.0
  0
VERTEX
  5
21E
330
21D
100
AcDbEntity
  8
Layer 1
 62
   250
420
  2301728
370
    18
100
AcDbVertex
100
AcDb2dVertex
 10
1.770419399719887
 20
-4.973090277777778
 30
0.0
  0
VERTEX
  5
21F
330
21D
100
AcDbEntity
  8
Layer 1
 62
   250
420
  2301728
370
    18
100
AcDbVertex
100
AcDb2dVertex
 10
0.5838833333333342
 20
-4.387124999999994
 30
0.0
  0
SEQEND
  5
220
330
21D
100
AcDbEntity
  8
Layer 1
 62
   250
420
  2301728
370
    18
  0
POLYLINE
  5
221
330
1F
100
AcDbEntity
  8
Layer 1
 62
   250
420
  2301728
370
    18
100
AcDb2dPolyline
 66
     1
 10
0.0
 20
0.0
 30
0.0
  0
VERTEX
  5
222
330
221
100
AcDbEntity
  8
Layer 1
 62
   250
420
  2301728
370
    18
100
AcDbVertex
100
AcDb2dVertex
 10
2.755356874838273
 20
-3.765055555555553
 30
0.0
  0
VERTEX
  5
223
330
221
100
AcDbEntity
  8
Layer 1
 62
   250
420
  2301728
370
    18
100
AcDbVertex
100
AcDb2dVertex
 10
1.990945783037811
 20
-3.856377777777778
 30
0.0
  0
SEQEND
  5
224
330
221
100
AcDbEntity
  8
Layer 1
 62
   250
420
  2301728
370
    18
  0
POLYLINE
  5
225
330
1F
100
AcDbEntity
  8
Layer 1
 62
   250
420
  2301728
370
    18
100
AcDb2dPolyline
 66
     1
 10
0.0
 20
0.0
 30
0.0
  0
VERTEX
  5
226
330
225
100
AcDbEntity
  8
Layer 1
 62
   250
420
  2301728
370
    18
100
AcDbVertex
100
AcDb2dVertex
 10
2.366312440221918
 20
-4.820176388888891
 30
0.0
  0
VERTEX
  5
227
330
225
100
AcDbEntity
  8
Layer 1
 62
   250
420
  2301728
370
    18
100
AcDbVertex
100
AcDb2dVertex
 10
2.525552713976948
 20
-4.779311111111105
 30
0.0
  0
SEQEND
  5
228
330
225
100
AcDbEntity
  8
Layer 1
 62
   250
420
  2301728
370
    18
  0
POLYLINE
  5
229
330
1F
100
AcDbEntity
  8
Layer 1
 62
   250
420
  2301728
370
    18
100
AcDb2dPolyline
 66
     1
 10
0.0
 20
0.0
 30
0.0
  0
VERTEX
  5
22A
330
229
100
AcDbEntity
  8
Layer 1
 62
   250
420
  2301728
370
    18
100
AcDbVertex
100
AcDb2dVertex
 10
2.525552713976948
 20
-4.779311111111105
 30
0.0
  0
VERTEX
  5
22B
330
229
100
AcDbEntity
  8
Layer 1
 62
   250
420
  2301728
370
    18
100
AcDbVertex
100
AcDb2dVertex
 10
4.152587395096816
 20
-4.361788888888896
 30
0.0
  0
SEQEND
  5
22C
330
229
100
AcDbEntity
  8
Layer 1
 62
   250
420
  2301728
370
    18
  0
SPLINE
  5
22E
330
1F
100
AcDbEntity
  8
Layer 4
 62
   250
420
  2301728
370
     9
100
AcDbSpline
210
0.0
220
0.0
230
1.0
 70
    11
 71
     3
 72
    20
 73
    16
 74
     0
 42
0.0000000001
 43
0.0000000001
 12
1.0
 22
0.0
 32
0.0
 13
1.0
 23
0.0
 33
0.0
 40
0.0
 40
0.0
 40
0.0
 40
0.0
 40
1.0
 40
1.0
 40
1.0
 40
2.0
 40
2.0
 40
2.0
 40
3.0
 40
3.0
 40
3.0
 40
4.0
 40
4.0
 40
4.0
 40
5.0
 40
5.0
 40
5.0
 40
5.0
 10
1.587668680677906
 20
-3.573880789815525
 30
0.0
 10
1.59654688495401
 20
-3.57397000911476
 30
0.0
 10
1.600106655347708
 20
-3.595062366523759
 30
0.0
 10
1.598792963158189
 20
-3.610876487313249
 30
0.0
 10
1.597723662897629
 20
-3.623744655472187
 30
0.0
 10
1.59564119721732
 20
-3.62412440941254
 30
0.0
 10
1.59504904310375
 20
-3.62454934492108
 30
0.0
 10
1.590556886695392
 20
-3.627766386960818
 30
0.0
 10
1.579325811103306
 20
-3.625621692267651
 30
0.0
 10
1.578897954084823
 20
-3.625264243152135
 30
0.0
 10
1.578470097066366
 20
-3.624906794036595
 30
0.0
 10
1.575367620254004
 20
-3.613825871455282
 30
0.0
 10
1.575260850294184
 20
-3.610161589082193
 30
0.0
 10
1.575154034030384
 20
-3.606497878627692
 30
0.0
 10
1.575254004581704
 20
-3.573754967726851
 30
0.0
 10
1.587668680677906
 20
-3.573880789815525
 30
0.0
  0
INSERT
  5
232
330
1F
100
AcDbEntity
  8
SDWC
100
AcDbBlockReference
  2
block 2
 10
0.0
 20
0.0
 30
0.0
  0
MTEXT
  5
275
330
1F
100
AcDbEntity
  8
call out
 62
   250
420
  2301728
100
AcDbMText
 10
2.366313616434733
 20
-3.017136467827691
 30
0.0
 40
0.118
 41
0.0
 46
0.0
 71
     7
 72
     1
  1
\fHelvetica Neue LT Std 57 Condensed|b0|i0|c0|p34;\W1;45mm Stud
 73
     1
 44
1.0
  0
MTEXT
  5
276
330
1F
100
AcDbEntity
  8
call out
 62
   250
420
  2301728
100
AcDbMText
 10
2.366313616434733
 20
-3.183803134494358
 30
0.0
 40
0.118
 41
0.0
 46
0.0
 71
     7
 72
     1
  1
\fHelvetica Neue LT Std 57 Condensed|b0|i0|c0|p34;\W1;(Side Member)
 73
     1
 44
1.0
  0
MTEXT
  5
277
330
1F
100
AcDbEntity
  8
call out
 62
   250
420
  2301728
100
AcDbMText
 10
3.256994591818915
 20
-3.626293394300673
 30
0.0
 40
0.118
 41
0.0
 46
0.0
 71
     7
 72
     1
  1
\fHelvetica Neue LT Std 57 Condensed|b0|i0|c0|p34;\W1;Mid Floor
 73
     1
 44
1.0
  0
MTEXT
  5
278
330
1F
100
AcDbEntity
  8
call out
 62
   250
420
  2301728
100
AcDbMText
 10
1.350556585523817
 20
-5.605117585923936
 30
0.0
 40
0.118
 41
0.0
 46
0.0
 71
     7
 72
     1
  1
\fHelvetica Neue LT Std 57 Condensed|b0|i0|c0|p34;\W1;Boundary Joist
 73
     1
 44
1.0
  0
POLYLINE
  5
279
330
1F
100
AcDbEntity
  8
call out
 62
   250
420
  2301728
370
    25
100
AcDb2dPolyline
 66
     1
 10
0.0
 20
0.0
 30
0.0
  0
VERTEX
  5
27A
330
279
100
AcDbEntity
  8
call out
 62
   250
420
  2301728
370
    25
100
AcDbVertex
100
AcDb2dVertex
 10
2.272268804791856
 20
-3.043828015966824
 30
0.0
  0
VERTEX
  5
27B
330
279
100
AcDbEntity
  8
call out
 62
   250
420
  2301728
370
    25
100
AcDbVertex
100
AcDb2dVertex
 10
1.990945783037811
 20
-3.429710872922063
 30
0.0
  0
SEQEND
  5
27C
330
279
100
AcDbEntity
  8
call out
 62
   250
420
  2301728
370
    25
  0
POLYLINE
  5
27D
330
1F
100
AcDbEntity
  8
call out
 62
   250
420
  2301728
370
    25
100
AcDb2dPolyline
 66
     1
 10
0.0
 20
0.0
 30
0.0
  0
VERTEX
  5
27E
330
27D
100
AcDbEntity
  8
call out
 62
   250
420
  2301728
370
    25
100
AcDbVertex
100
AcDb2dVertex
 10
0.6550430555555522
 20
-3.582618500489982
 30
0.0
  0
VERTEX
  5
27F
330
27D
100
AcDbEntity
  8
call out
 62
   250
420
  2301728
370
    25
100
AcDbVertex
100
AcDb2dVertex
 10
0.9565412186379945
 20
-3.827508960573482
 30
0.0
  0
SEQEND
  5
280
330
27D
100
AcDbEntity
  8
call out
 62
   250
420
  2301728
370
    25
  0
MTEXT
  5
281
330
1F
100
AcDbEntity
  8
call out
 62
   250
420
  2301728
100
AcDbMText
 10
-0.0054045783148872
 20
-3.355572011735704
 30
0.0
 40
0.118
 41
0.0
 46
0.0
 71
     7
 72
     1
  1
\fHelvetica Neue LT Std 57 Condensed|b0|i0|c0|p34;\W1;45mm Bottom Plate
 73
     1
 44
1.0
  0
MTEXT
  5
282
330
1F
100
AcDbEntity
  8
call out
 62
   250
420
  2301728
100
AcDbMText
 10
-0.0054045783148872
 20
-3.52223867840237
 30
0.0
 40
0.118
 41
0.0
 46
0.0
 71
     7
 72
     1
  1
\fHelvetica Neue LT Std 57 Condensed|b0|i0|c0|p34;\W1;(Main Member)
 73
     1
 44
1.0
  0
MTEXT
  5
283
330
1F
100
AcDbEntity
  8
call out
 62
   250
420
  2301728
100
AcDbMText
 10
0.0080329047309028
 20
-2.830377131700516
 30
0.0
 40
0.118
 41
0.0
 46
0.0
 71
     7
 72
     1
  1
\fHelvetica Neue LT Std 57 Condensed|b0|i0|c0|p34;\W1;SDWC15450
 73
     1
 44
1.0
  0
POLYLINE
  5
284
330
1F
100
AcDbEntity
  8
call out
 62
   250
420
  2301728
370
    25
100
AcDb2dPolyline
 66
     1
 10
0.0
 20
0.0
 30
0.0
  0
VERTEX
  5
285
330
284
100
AcDbEntity
  8
call out
 62
   250
420
  2301728
370
    25
100
AcDbVertex
100
AcDb2dVertex
 10
0.8557567231315488
 20
-2.79067047283925
 30
0.0
  0
VERTEX
  5
286
330
284
100
AcDbEntity
  8
call out
 62
   250
420
  2301728
370
    25
100
AcDbVertex
100
AcDb2dVertex
 10
1.031187572721617
 20
-2.79067047283925
 30
0.0
  0
VERTEX
  5
287
330
284
100
AcDbEntity
  8
call out
 62
   250
420
  2301728
370
    25
100
AcDbVertex
100
AcDb2dVertex
 10
1.305391186998059
 20
-3.048013590517017
 30
0.0
  0
SEQEND
  5
288
330
284
100
AcDbEntity
  8
call out
 62
   250
420
  2301728
370
    25
  0
MTEXT
  5
289
330
1F
100
AcDbEntity
  8
call out
 62
   250
420
  2301728
100
AcDbMText
 10
1.243250317043728
 20
-6.222421010335286
 30
0.0
 40
0.118
 41
0.0
 46
0.0
 71
     7
 72
     1
  1
\fHelvetica Neue LT Std 55 Roman|b0|i0|c0|p34;\W1;SIMPSON Strong-Tie\H0.068794;®\H0.118; ^C
 73
     1
 44
1.0
  0
MTEXT
  5
28A
330
1F
100
AcDbEntity
  8
call out
 62
   250
420
  2301728
100
AcDbMText
 10
1.00111707051595
 20
-6.422412872314453
 30
0.0
 40
0.118
 41
0.0
 46
0.0
 71
     7
 72
     1
  1
\fHelvetica Neue LT Std 55 Roman|b0|i0|c0|p34;\W1;SDWC Stud-to-Bottom Plate 
 73
     1
 44
1.0
  0
MTEXT
  5
28B
330
1F
100
AcDbEntity
  8
call out
 62
   250
420
  2301728
100
AcDbMText
 10
1.243535147772895
 20
-6.622418297661675
 30
0.0
 40
0.118
 41
0.0
 46
0.0
 71
     7
 72
     1
  1
\fHelvetica Neue LT Std 55 Roman|b0|i0|c0|p34;\W1;Installation - Mid Floor
 73
     1
 44
1.0
  0
POLYLINE
  5
28C
330
1F
100
AcDbEntity
  8
call out
 62
   250
420
  2301728
370
    25
100
AcDb2dPolyline
 66
     1
 10
0.0
 20
0.0
 30
0.0
  0
VERTEX
  5
28D
330
28C
100
AcDbEntity
  8
call out
 62
   250
420
  2301728
370
    25
100
AcDbVertex
100
AcDb2dVertex
 10
3.210399627685547
 20
-3.626295250037527
 30
0.0
  0
VERTEX
  5
28E
330
28C
100
AcDbEntity
  8
call out
 62
   250
420
  2301728
370
    25
100
AcDbVertex
100
AcDb2dVertex
 10
2.867617136152666
 20
-3.94682753958874
 30
0.0
  0
SEQEND
  5
28F
330
28C
100
AcDbEntity
  8
call out
 62
   250
420
  2301728
370
    25
  0
POLYLINE
  5
290
330
1F
100
AcDbEntity
  8
call out
 62
   250
420
  2301728
370
    25
100
AcDb2dPolyline
 66
     1
 10
0.0
 20
0.0
 30
0.0
  0
VERTEX
  5
291
330
290
100
AcDbEntity
  8
call out
 62
   250
420
  2301728
370
    25
100
AcDbVertex
100
AcDb2dVertex
 10
1.298738484951817
 20
-5.554211469534039
 30
0.0
  0
VERTEX
  5
292
330
290
100
AcDbEntity
  8
call out
 62
   250
420
  2301728
370
    25
100
AcDbVertex
100
AcDb2dVertex
 10
1.026433691756274
 20
-5.370537500000006
 30
0.0
  0
SEQEND
  5
293
330
290
100
AcDbEntity
  8
call out
 62
   250
420
  2301728
370
    25
  0
ENDSEC
  0
SECTION
  2
OBJECTS
  0
DICTIONARY
  5
C
330
0
100
AcDbDictionary
281
     1
  3
ACAD_GROUP
350
D
  3
ACAD_LAYOUT
350
1A
  3
ACAD_MATERIAL
350
3B
  3
ACAD_MLEADERSTYLE
350
295
  3
ACAD_MLINESTYLE
350
17
  3
ACAD_PLOTSETTINGS
350
19
  3
ACAD_PLOTSTYLENAME
350
E
  3
ACAD_TABLESTYLE
350
294
  3
ACAD_VISUALSTYLE
350
2A
  0
SUN
  5
3F
330
29
100
AcDbSun
 90
        1
290
     0
 63
     7
421
 16777215
 40
1.0
291
     1
 91
  2455826
 92
 54000000
292
     0
 70
     2
 71
   256
280
     1
  0
DICTIONARY
  5
D
102
{ACAD_REACTORS
330
C
102
}
330
C
100
AcDbDictionary
281
     1
  0
DICTIONARY
  5
1A
102
{ACAD_REACTORS
330
C
102
}
330
C
100
AcDbDictionary
281
     1
  3
Layout1
350
1E
  3
Layout2
350
26
  3
Model
350
22
  0
DICTIONARY
  5
3B
102
{ACAD_REACTORS
330
C
102
}
330
C
100
AcDbDictionary
281
     1
  3
ByBlock
350
3D
  3
ByLayer
350
3C
  3
Global
350
3E
  0
DICTIONARY
  5
295
102
{ACAD_REACTORS
330
C
102
}
330
C
100
AcDbDictionary
281
     1
  0
DICTIONARY
  5
17
102
{ACAD_REACTORS
330
C
102
}
330
C
100
AcDbDictionary
281
     1
  3
Standard
350
18
  0
DICTIONARY
  5
19
102
{ACAD_REACTORS
330
C
102
}
330
C
100
AcDbDictionary
281
     1
  0
ACDBDICTIONARYWDFLT
  5
E
102
{ACAD_REACTORS
330
C
102
}
330
C
100
AcDbDictionary
281
     1
  3
Normal
350
F
100
AcDbDictionaryWithDefault
340
F
  0
DICTIONARY
  5
294
102
{ACAD_REACTORS
330
C
102
}
330
C
100
AcDbDictionary
281
     1
  0
DICTIONARY
  5
2A
102
{ACAD_REACTORS
330
C
102
}
330
C
100
AcDbDictionary
281
     1
  3
2dWireframe
350
2F
  3
3D Hidden
350
31
  3
3dWireframe
350
30
  3
Basic
350
32
  3
Brighten
350
36
  3
ColorChange
350
3A
  3
Conceptual
350
34
  3
Dim
350
35
  3
Facepattern
350
39
  3
Flat
350
2B
  3
FlatWithEdges
350
2C
  3
Gouraud
350
2D
  3
GouraudWithEdges
350
2E
  3
Linepattern
350
38
  3
Realistic
350
33
  3
Thicken
350
37
  0
LAYOUT
  5
1E
102
{ACAD_REACTORS
330
1A
102
}
330
1A
100
AcDbPlotSettings
  1

  2
none_device
  4

  6

 40
0.0
 41
0.0
 42
0.0
 43
0.0
 44
0.0
 45
0.0
 46
0.0
 47
0.0
 48
0.0
 49
0.0
140
0.0
141
0.0
142
1.0
143
1.0
 70
   688
 72
     0
 73
     0
 74
     5
  7

 75
    16
 76
     0
 77
     2
 78
   300
147
1.0
148
0.0
149
0.0
100
AcDbLayout
  1
Layout1
 70
     1
 71
     1
 10
0.0
 20
0.0
 11
12.0
 21
9.0
 12
0.0
 22
0.0
 32
0.0
 14
1.000000000000000E+20
 24
1.000000000000000E+20
 34
1.000000000000000E+20
 15
-1.000000000000000E+20
 25
-1.000000000000000E+20
 35
-1.000000000000000E+20
146
0.0
 13
0.0
 23
0.0
 33
0.0
 16
1.0
 26
0.0
 36
0.0
 17
0.0
 27
1.0
 37
0.0
 76
     0
330
1B
  0
LAYOUT
  5
26
102
{ACAD_REACTORS
330
1A
102
}
330
1A
100
AcDbPlotSettings
  1

  2
none_device
  4

  6

 40
0.0
 41
0.0
 42
0.0
 43
0.0
 44
0.0
 45
0.0
 46
0.0
 47
0.0
 48
0.0
 49
0.0
140
0.0
141
0.0
142
1.0
143
1.0
 70
   688
 72
     0
 73
     0
 74
     5
  7

 75
    16
 76
     0
 77
     2
 78
   300
147
1.0
148
0.0
149
0.0
100
AcDbLayout
  1
Layout2
 70
     1
 71
     2
 10
0.0
 20
0.0
 11
0.0
 21
0.0
 12
0.0
 22
0.0
 32
0.0
 14
0.0
 24
0.0
 34
0.0
 15
0.0
 25
0.0
 35
0.0
146
0.0
 13
0.0
 23
0.0
 33
0.0
 16
1.0
 26
0.0
 36
0.0
 17
0.0
 27
1.0
 37
0.0
 76
     0
330
23
  0
LAYOUT
  5
22
102
{ACAD_REACTORS
330
1A
102
}
330
1A
100
AcDbPlotSettings
  1

  2
none_device
  4

  6

 40
0.0
 41
0.0
 42
0.0
 43
0.0
 44
0.0
 45
0.0
 46
0.0
 47
0.0
 48
0.0
 49
0.0
140
0.0
141
0.0
142
1.0
143
1.0
 70
  1712
 72
     0
 73
     0
 74
     0
  7

 75
     0
 76
     0
 77
     2
 78
   300
147
1.0
148
0.0
149
0.0
100
AcDbLayout
  1
Model
 70
     1
 71
     0
 10
0.0
 20
0.0
 11
12.0
 21
9.0
 12
0.0
 22
0.0
 32
0.0
 14
1.000000000000000E+20
 24
1.000000000000000E+20
 34
1.000000000000000E+20
 15
-1.000000000000000E+20
 25
-1.000000000000000E+20
 35
-1.000000000000000E+20
146
0.0
 13
0.0
 23
0.0
 33
0.0
 16
1.0
 26
0.0
 36
0.0
 17
0.0
 27
1.0
 37
0.0
 76
     0
330
1F
331
29
  0
MATERIAL
  5
3D
102
{ACAD_REACTORS
330
3B
102
}
330
3B
100
AcDbMaterial
  1
ByBlock
 72
     1
 94
      127
  0
MATERIAL
  5
3C
102
{ACAD_REACTORS
330
3B
102
}
330
3B
100
AcDbMaterial
  1
ByLayer
 72
     1
 94
      127
  0
MATERIAL
  5
3E
102
{ACAD_REACTORS
330
3B
102
}
330
3B
100
AcDbMaterial
  1
Global
 72
     1
 94
      127
  0
MLINESTYLE
  5
18
102
{ACAD_REACTORS
330
17
102
}
330
17
100
AcDbMlineStyle
  2
Standard
 70
     0
  3

 62
   256
 51
90.0
 52
90.0
 71
     2
 49
0.5
 62
   256
  6
BYLAYER
 49
-0.5
 62
   256
  6
BYLAYER
  0
ACDBPLACEHOLDER
  5
F
102
{ACAD_REACTORS
330
E
102
}
330
E
  0
VISUALSTYLE
  5
2F
102
{ACAD_REACTORS
330
2A
102
}
330
2A
100
AcDbVisualStyle
  2
2dWireframe
 70
     4
177
     2
291
     0
 71
     0
176
     1
 72
     2
176
     1
 73
     0
176
     1
 90
        0
176
     1
 40
-0.6
176
     1
 41
-30.0
176
     1
 62
     5
 63
     7
421
 16777215
176
     1
 74
     1
176
     1
 91
        4
176
     1
 64
     7
176
     1
 65
   257
176
     1
 75
     1
176
     1
175
     1
176
     1
 42
1.0
176
     1
 92
        0
176
     1
 66
   257
176
     1
 43
1.0
176
     1
 76
     1
176
     1
 77
     6
176
     1
 78
     2
176
     1
 67
     7
176
     1
 79
     5
176
     1
170
     0
176
     1
171
     0
176
     1
290
     0
176
     1
 93
        1
176
     1
 44
0.0
176
     1
173
     0
176
     1
  0
VISUALSTYLE
  5
31
102
{ACAD_REACTORS
330
2A
102
}
330
2A
100
AcDbVisualStyle
  2
3D Hidden
 70
     6
177
     2
291
     0
 71
     1
176
     1
 72
     2
176
     1
 73
     2
176
     1
 90
        0
176
     1
 40
-0.6
176
     1
 41
-30.0
176
     1
 62
     5
 63
     7
421
 16777215
176
     1
 74
     2
176
     1
 91
        2
176
     1
 64
     7
176
     1
 65
   257
176
     1
 75
     2
176
     1
175
     1
176
     1
 42
40.0
176
     1
 92
        0
176
     1
 66
   257
176
     1
 43
1.0
176
     1
 76
     1
176
     1
 77
     6
176
     1
 78
     2
176
     1
 67
     7
176
     1
 79
     3
176
     1
170
     0
176
     1
171
     0
176
     1
290
     0
176
     1
 93
        1
176
     1
 44
0.0
176
     1
173
     0
176
     1
  0
VISUALSTYLE
  5
30
102
{ACAD_REACTORS
330
2A
102
}
330
2A
100
AcDbVisualStyle
  2
3dWireframe
 70
     5
177
     2
291
     0
 71
     0
176
     1
 72
     2
176
     1
 73
     0
176
     1
 90
        0
176
     1
 40
-0.6
176
     1
 41
-30.0
176
     1
 62
     5
 63
     7
421
 16777215
176
     1
 74
     1
176
     1
 91
        4
176
     1
 64
     7
176
     1
 65
   257
176
     1
 75
     1
176
     1
175
     1
176
     1
 42
1.0
176
     1
 92
        0
176
     1
 66
   257
176
     1
 43
1.0
176
     1
 76
     1
176
     1
 77
     6
176
     1
 78
     2
176
     1
 67
     7
176
     1
 79
     5
176
     1
170
     0
176
     1
171
     0
176
     1
290
     0
176
     1
 93
        1
176
     1
 44
0.0
176
     1
173
     0
176
     1
  0
VISUALSTYLE
  5
32
102
{ACAD_REACTORS
330
2A
102
}
330
2A
100
AcDbVisualStyle
  2
Basic
 70
     7
177
     2
291
     1
 71
     1
176
     1
 72
     0
176
     1
 73
     1
176
     1
 90
        0
176
     1
 40
-0.6
176
     1
 41
-30.0
176
     1
 62
     5
 63
     7
421
 16777215
176
     1
 74
     0
176
     1
 91
        4
176
     1
 64
     7
176
     1
 65
   257
176
     1
 75
     1
176
     1
175
     1
176
     1
 42
1.0
176
     1
 92
        8
176
     1
 66
     7
176
     1
 43
1.0
176
     1
 76
     1
176
     1
 77
     6
176
     1
 78
     2
176
     1
 67
     7
176
     1
 79
     5
176
     1
170
     0
176
     1
171
     0
176
     1
290
     0
176
     1
 93
        1
176
     1
 44
0.0
176
     1
173
     0
176
     1
  0
VISUALSTYLE
  5
36
102
{ACAD_REACTORS
330
2A
102
}
330
2A
100
AcDbVisualStyle
  2
Brighten
 70
    12
177
     2
291
     1
 71
     2
176
     1
 72
     2
176
     1
 73
     0
176
     1
 90
        0
176
     1
 40
-0.6
176
     1
 41
-30.0
176
     1
 62
     5
 63
     7
421
 16777215
176
     1
 74
     1
176
     1
 91
        4
176
     1
 64
     7
176
     1
 65
   257
176
     1
 75
     1
176
     1
175
     1
176
     1
 42
1.0
176
     1
 92
        8
176
     1
 66
     7
176
     1
 43
1.0
176
     1
 76
     1
176
     1
 77
     6
176
     1
 78
     2
176
     1
 67
     7
176
     1
 79
     5
176
     1
170
     0
176
     1
171
     0
176
     1
290
     0
176
     1
 93
        1
176
     1
 44
50.0
176
     1
173
     0
176
     1
  0
VISUALSTYLE
  5
3A
102
{ACAD_REACTORS
330
2A
102
}
330
2A
100
AcDbVisualStyle
  2
ColorChange
 70
    16
177
     2
291
     1
 71
     2
176
     1
 72
     2
176
     1
 73
     3
176
     1
 90
        0
176
     1
 40
-0.6
176
     1
 41
-30.0
176
     1
 62
     5
 63
     8
421
  8421504
176
     1
 74
     1
176
     1
 91
        4
176
     1
 64
     7
176
     1
 65
   257
176
     1
 75
     1
176
     1
175
     1
176
     1
 42
1.0
176
     1
 92
        8
176
     1
 66
     8
424
  8421504
176
     1
 43
1.0
176
     1
 76
     1
176
     1
 77
     6
176
     1
 78
     2
176
     1
 67
     7
176
     1
 79
     5
176
     1
170
     0
176
     1
171
     0
176
     1
290
     0
176
     1
 93
        1
176
     1
 44
0.0
176
     1
173
     0
176
     1
  0
VISUALSTYLE
  5
34
102
{ACAD_REACTORS
330
2A
102
}
330
2A
100
AcDbVisualStyle
  2
Conceptual
 70
     9
177
     2
291
     0
 71
     3
176
     1
 72
     2
176
     1
 73
     0
176
     1
 90
        0
176
     1
 40
-0.6
176
     1
 41
-30.0
176
     1
 62
     5
 63
     7
421
 16777215
176
     1
 74
     2
176
     1
 91
        2
176
     1
 64
     7
176
     1
 65
   257
176
     1
 75
     1
176
     1
175
     1
176
     1
 42
40.0
176
     1
 92
        8
176
     1
 66
     7
176
     1
 43
1.0
176
     1
 76
     1
176
     1
 77
     6
176
     1
 78
     2
176
     1
 67
     7
176
     1
 79
     3
176
     1
170
     0
176
     1
171
     0
176
     1
290
     0
176
     1
 93
        1
176
     1
 44
0.0
176
     1
173
     0
176
     1
  0
VISUALSTYLE
  5
35
102
{ACAD_REACTORS
330
2A
102
}
330
2A
100
AcDbVisualStyle
  2
Dim
 70
    11
177
     2
291
     1
 71
     2
176
     1
 72
     2
176
     1
 73
     0
176
     1
 90
        0
176
     1
 40
-0.6
176
     1
 41
-30.0
176
     1
 62
     5
 63
     7
421
 16777215
176
     1
 74
     1
176
     1
 91
        4
176
     1
 64
     7
176
     1
 65
   257
176
     1
 75
     1
176
     1
175
     1
176
     1
 42
1.0
176
     1
 92
        8
176
     1
 66
     7
176
     1
 43
1.0
176
     1
 76
     1
176
     1
 77
     6
176
     1
 78
     2
176
     1
 67
     7
176
     1
 79
     5
176
     1
170
     0
176
     1
171
     0
176
     1
290
     0
176
     1
 93
        1
176
     1
 44
-50.0
176
     1
173
     0
176
     1
  0
VISUALSTYLE
  5
39
102
{ACAD_REACTORS
330
2A
102
}
330
2A
100
AcDbVisualStyle
  2
Facepattern
 70
    15
177
     2
291
     1
 71
     2
176
     1
 72
     2
176
     1
 73
     0
176
     1
 90
        0
176
     1
 40
-0.6
176
     1
 41
-30.0
176
     1
 62
     5
 63
     7
421
 16777215
176
     1
 74
     1
176
     1
 91
        4
176
     1
 64
     7
176
     1
 65
   257
176
     1
 75
     1
176
     1
175
     1
176
     1
 42
1.0
176
     1
 92
        8
176
     1
 66
     7
176
     1
 43
1.0
176
     1
 76
     1
176
     1
 77
     6
176
     1
 78
     2
176
     1
 67
     7
176
     1
 79
     5
176
     1
170
     0
176
     1
171
     0
176
     1
290
     0
176
     1
 93
        1
176
     1
 44
0.0
176
     1
173
     0
176
     1
  0
VISUALSTYLE
  5
2B
102
{ACAD_REACTORS
330
2A
102
}
330
2A
100
AcDbVisualStyle
  2
Flat
 70
     0
177
     2
291
     1
 71
     2
176
     1
 72
     1
176
     1
 73
     1
176
     1
 90
        2
176
     1
 40
-0.6
176
     1
 41
30.0
176
     1
 62
     5
 63
     7
421
 16777215
176
     1
 74
     0
176
     1
 91
        4
176
     1
 64
     7
176
     1
 65
   257
176
     1
 75
     1
176
     1
175
     1
176
     1
 42
1.0
176
     1
 92
        8
176
     1
 66
     7
176
     1
 43
1.0
176
     1
 76
     1
176
     1
 77
     6
176
     1
 78
     2
176
     1
 67
     7
176
     1
 79
     5
176
     1
170
     0
176
     1
171
     0
176
     1
290
     0
176
     1
 93
       13
176
     1
 44
0.0
176
     1
173
     0
176
     1
  0
VISUALSTYLE
  5
2C
102
{ACAD_REACTORS
330
2A
102
}
330
2A
100
AcDbVisualStyle
  2
FlatWithEdges
 70
     1
177
     2
291
     1
 71
     2
176
     1
 72
     1
176
     1
 73
     1
176
     1
 90
        2
176
     1
 40
-0.6
176
     1
 41
30.0
176
     1
 62
     5
 63
     7
421
 16777215
176
     1
 74
     1
176
     1
 91
        4
176
     1
 64
     7
176
     1
 65
   257
176
     1
 75
     1
176
     1
175
     1
176
     1
 42
1.0
176
     1
 92
        0
176
     1
 66
   257
176
     1
 43
1.0
176
     1
 76
     1
176
     1
 77
     6
176
     1
 78
     2
176
     1
 67
     7
176
     1
 79
     5
176
     1
170
     0
176
     1
171
     0
176
     1
290
     0
176
     1
 93
       13
176
     1
 44
0.0
176
     1
173
     0
176
     1
  0
VISUALSTYLE
  5
2D
102
{ACAD_REACTORS
330
2A
102
}
330
2A
100
AcDbVisualStyle
  2
Gouraud
 70
     2
177
     2
291
     1
 71
     2
176
     1
 72
     2
176
     1
 73
     1
176
     1
 90
        2
176
     1
 40
-0.6
176
     1
 41
30.0
176
     1
 62
     5
 63
     7
421
 16777215
176
     1
 74
     0
176
     1
 91
        4
176
     1
 64
     7
176
     1
 65
   257
176
     1
 75
     1
176
     1
175
     1
176
     1
 42
1.0
176
     1
 92
        0
176
     1
 66
     7
176
     1
 43
1.0
176
     1
 76
     1
176
     1
 77
     6
176
     1
 78
     2
176
     1
 67
     7
176
     1
 79
     5
176
     1
170
     0
176
     1
171
     0
176
     1
290
     0
176
     1
 93
       13
176
     1
 44
0.0
176
     1
173
     0
176
     1
  0
VISUALSTYLE
  5
2E
102
{ACAD_REACTORS
330
2A
102
}
330
2A
100
AcDbVisualStyle
  2
GouraudWithEdges
 70
     3
177
     2
291
     1
 71
     2
176
     1
 72
     2
176
     1
 73
     1
176
     1
 90
        2
176
     1
 40
-0.6
176
     1
 41
30.0
176
     1
 62
     5
 63
     7
421
 16777215
176
     1
 74
     1
176
     1
 91
        4
176
     1
 64
     7
176
     1
 65
   257
176
     1
 75
     1
176
     1
175
     1
176
     1
 42
1.0
176
     1
 92
        0
176
     1
 66
   257
176
     1
 43
1.0
176
     1
 76
     1
176
     1
 77
     6
176
     1
 78
     2
176
     1
 67
     7
176
     1
 79
     5
176
     1
170
     0
176
     1
171
     0
176
     1
290
     0
176
     1
 93
       13
176
     1
 44
0.0
176
     1
173
     0
176
     1
  0
VISUALSTYLE
  5
38
102
{ACAD_REACTORS
330
2A
102
}
330
2A
100
AcDbVisualStyle
  2
Linepattern
 70
    14
177
     2
291
     1
 71
     2
176
     1
 72
     2
176
     1
 73
     0
176
     1
 90
        0
176
     1
 40
-0.6
176
     1
 41
-30.0
176
     1
 62
     5
 63
     7
421
 16777215
176
     1
 74
     1
176
     1
 91
        4
176
     1
 64
     7
176
     1
 65
   257
176
     1
 75
     7
176
     1
175
     7
176
     1
 42
1.0
176
     1
 92
        8
176
     1
 66
     7
176
     1
 43
1.0
176
     1
 76
     1
176
     1
 77
     6
176
     1
 78
     2
176
     1
 67
     7
176
     1
 79
     5
176
     1
170
     0
176
     1
171
     0
176
     1
290
     0
176
     1
 93
        1
176
     1
 44
0.0
176
     1
173
     0
176
     1
  0
VISUALSTYLE
  5
33
102
{ACAD_REACTORS
330
2A
102
}
330
2A
100
AcDbVisualStyle
  2
Realistic
 70
     8
177
     2
291
     0
 71
     2
176
     1
 72
     2
176
     1
 73
     0
176
     1
 90
        0
176
     1
 40
-0.6
176
     1
 41
-30.0
176
     1
 62
     5
 63
     7
421
 16777215
176
     1
 74
     1
176
     1
 91
        0
176
     1
 64
     7
176
     1
 65
   257
176
     1
 75
     1
176
     1
175
     1
176
     1
 42
1.0
176
     1
 92
        8
176
     1
 66
     8
424
  7895160
176
     1
 43
1.0
176
     1
 76
     1
176
     1
 77
     6
176
     1
 78
     2
176
     1
 67
     7
176
     1
 79
     5
176
     1
170
     0
176
     1
171
     0
176
     1
290
     0
176
     1
 93
       13
176
     1
 44
0.0
176
     1
173
     0
176
     1
  0
VISUALSTYLE
  5
37
102
{ACAD_REACTORS
330
2A
102
}
330
2A
100
AcDbVisualStyle
  2
Thicken
 70
    13
177
     2
291
     1
 71
     2
176
     1
 72
     2
176
     1
 73
     0
176
     1
 90
        0
176
     1
 40
-0.6
176
     1
 41
-30.0
176
     1
 62
     5
 63
     7
421
 16777215
176
     1
 74
     1
176
     1
 91
        4
176
     1
 64
     7
176
     1
 65
   257
176
     1
 75
     1
176
     1
175
     1
176
     1
 42
1.0
176
     1
 92
       12
176
     1
 66
     7
176
     1
 43
1.0
176
     1
 76
     1
176
     1
 77
     6
176
     1
 78
     2
176
     1
 67
     7
176
     1
 79
     5
176
     1
170
     0
176
     1
171
     0
176
     1
290
     0
176
     1
 93
        1
176
     1
 44
0.0
176
     1
173
     0
176
     1
  0
ENDSEC
  0
EOF
