  0
SECTION
  2
HEADER
  9
$ACADVER
  1
AC1024
  9
$ACADMAINTVER
 70
     6
  9
$DWGCODEPAGE
  3
ANSI_1252
  9
$INSBASE
 10
0.0
 20
0.0
 30
0.0
  9
$EXTMIN
 10
1.000000000000000E+20
 20
1.000000000000000E+20
 30
1.000000000000000E+20
  9
$EXTMAX
 10
-1.000000000000000E+20
 20
-1.000000000000000E+20
 30
-1.000000000000000E+20
  9
$LIMMIN
 10
0.0
 20
0.0
  9
$LIMMAX
 10
12.0
 20
9.0
  9
$ORTHOMODE
 70
     0
  9
$REGENMODE
 70
     1
  9
$FILLMODE
 70
     1
  9
$QTEXTMODE
 70
     0
  9
$MIRRTEXT
 70
     1
  9
$LTSCALE
 40
1.0
  9
$ATTMODE
 70
     1
  9
$TEXTSIZE
 40
0.2
  9
$TRACEWID
 40
0.05
  9
$TEXTSTYLE
  7
Standard
  9
$CLAYER
  8
0
  9
$CELTYPE
  6
ByLayer
  9
$CECOLOR
 62
   256
  9
$CELTSCALE
 40
1.0
  9
$DISPSILH
 70
     0
  9
$DIMSCALE
 40
1.0
  9
$DIMASZ
 40
0.18
  9
$DIMEXO
 40
0.0625
  9
$DIMDLI
 40
0.38
  9
$DIMRND
 40
0.0
  9
$DIMDLE
 40
0.0
  9
$DIMEXE
 40
0.18
  9
$DIMTP
 40
0.0
  9
$DIMTM
 40
0.0
  9
$DIMTXT
 40
0.18
  9
$DIMCEN
 40
0.09
  9
$DIMTSZ
 40
0.0
  9
$DIMTOL
 70
     0
  9
$DIMLIM
 70
     0
  9
$DIMTIH
 70
     1
  9
$DIMTOH
 70
     1
  9
$DIMSE1
 70
     0
  9
$DIMSE2
 70
     0
  9
$DIMTAD
 70
     0
  9
$DIMZIN
 70
     0
  9
$DIMBLK
  1

  9
$DIMASO
 70
     1
  9
$DIMSHO
 70
     1
  9
$DIMPOST
  1

  9
$DIMAPOST
  1

  9
$DIMALT
 70
     0
  9
$DIMALTD
 70
     2
  9
$DIMALTF
 40
25.4
  9
$DIMLFAC
 40
1.0
  9
$DIMTOFL
 70
     0
  9
$DIMTVP
 40
0.0
  9
$DIMTIX
 70
     0
  9
$DIMSOXD
 70
     0
  9
$DIMSAH
 70
     0
  9
$DIMBLK1
  1

  9
$DIMBLK2
  1

  9
$DIMSTYLE
  2
Standard
  9
$DIMCLRD
 70
     0
  9
$DIMCLRE
 70
     0
  9
$DIMCLRT
 70
     0
  9
$DIMTFAC
 40
1.0
  9
$DIMGAP
 40
0.09
  9
$DIMJUST
 70
     0
  9
$DIMSD1
 70
     0
  9
$DIMSD2
 70
     0
  9
$DIMTOLJ
 70
     1
  9
$DIMTZIN
 70
     0
  9
$DIMALTZ
 70
     0
  9
$DIMALTTZ
 70
     0
  9
$DIMUPT
 70
     0
  9
$DIMDEC
 70
     4
  9
$DIMTDEC
 70
     4
  9
$DIMALTU
 70
     2
  9
$DIMALTTD
 70
     2
  9
$DIMTXSTY
  7
Standard
  9
$DIMAUNIT
 70
     0
  9
$DIMADEC
 70
     0
  9
$DIMALTRND
 40
0.0
  9
$DIMAZIN
 70
     0
  9
$DIMDSEP
 70
    46
  9
$DIMATFIT
 70
     3
  9
$DIMFRAC
 70
     0
  9
$DIMLDRBLK
  1

  9
$DIMLUNIT
 70
     2
  9
$DIMLWD
 70
    -2
  9
$DIMLWE
 70
    -2
  9
$DIMTMOVE
 70
     0
  9
$DIMFXL
 40
1.0
  9
$DIMFXLON
 70
     0
  9
$DIMJOGANG
 40
0.7853981633974483
  9
$DIMTFILL
 70
     0
  9
$DIMTFILLCLR
 70
     0
  9
$DIMARCSYM
 70
     0
  9
$DIMLTYPE
  6

  9
$DIMLTEX1
  6

  9
$DIMLTEX2
  6

  9
$DIMTXTDIRECTION
 70
     0
  9
$LUNITS
 70
     2
  9
$LUPREC
 70
     4
  9
$SKETCHINC
 40
0.1
  9
$FILLETRAD
 40
0.5
  9
$AUNITS
 70
     0
  9
$AUPREC
 70
     0
  9
$MENU
  1
.
  9
$ELEVATION
 40
0.0
  9
$PELEVATION
 40
0.0
  9
$THICKNESS
 40
0.0
  9
$LIMCHECK
 70
     0
  9
$CHAMFERA
 40
0.5
  9
$CHAMFERB
 40
0.5
  9
$CHAMFERC
 40
1.0
  9
$CHAMFERD
 40
0.0
  9
$SKPOLY
 70
     0
  9
$TDCREATE
 40
2459051.380282084
  9
$TDUCREATE
 40
2459050.880282084
  9
$TDUPDATE
 40
2459051.380282315
  9
$TDUUPDATE
 40
2459050.880282315
  9
$TDINDWG
 40
0.0000000116
  9
$TDUSRTIMER
 40
0.0000000116
  9
$USRTIMER
 70
     1
  9
$ANGBASE
 50
0.0
  9
$ANGDIR
 70
     0
  9
$PDMODE
 70
     0
  9
$PDSIZE
 40
0.0
  9
$PLINEWID
 40
0.0
  9
$SPLFRAME
 70
     0
  9
$SPLINETYPE
 70
     6
  9
$SPLINESEGS
 70
     8
  9
$HANDSEED
  5
123
  9
$SURFTAB1
 70
     6
  9
$SURFTAB2
 70
     6
  9
$SURFTYPE
 70
     6
  9
$SURFU
 70
     6
  9
$SURFV
 70
     6
  9
$UCSBASE
  2

  9
$UCSNAME
  2

  9
$UCSORG
 10
0.0
 20
0.0
 30
0.0
  9
$UCSXDIR
 10
1.0
 20
0.0
 30
0.0
  9
$UCSYDIR
 10
0.0
 20
1.0
 30
0.0
  9
$UCSORTHOREF
  2

  9
$UCSORTHOVIEW
 70
     0
  9
$UCSORGTOP
 10
0.0
 20
0.0
 30
0.0
  9
$UCSORGBOTTOM
 10
0.0
 20
0.0
 30
0.0
  9
$UCSORGLEFT
 10
0.0
 20
0.0
 30
0.0
  9
$UCSORGRIGHT
 10
0.0
 20
0.0
 30
0.0
  9
$UCSORGFRONT
 10
0.0
 20
0.0
 30
0.0
  9
$UCSORGBACK
 10
0.0
 20
0.0
 30
0.0
  9
$PUCSBASE
  2

  9
$PUCSNAME
  2

  9
$PUCSORG
 10
0.0
 20
0.0
 30
0.0
  9
$PUCSXDIR
 10
1.0
 20
0.0
 30
0.0
  9
$PUCSYDIR
 10
0.0
 20
1.0
 30
0.0
  9
$PUCSORTHOREF
  2

  9
$PUCSORTHOVIEW
 70
     0
  9
$PUCSORGTOP
 10
0.0
 20
0.0
 30
0.0
  9
$PUCSORGBOTTOM
 10
0.0
 20
0.0
 30
0.0
  9
$PUCSORGLEFT
 10
0.0
 20
0.0
 30
0.0
  9
$PUCSORGRIGHT
 10
0.0
 20
0.0
 30
0.0
  9
$PUCSORGFRONT
 10
0.0
 20
0.0
 30
0.0
  9
$PUCSORGBACK
 10
0.0
 20
0.0
 30
0.0
  9
$USERI1
 70
     0
  9
$USERI2
 70
     0
  9
$USERI3
 70
     0
  9
$USERI4
 70
     0
  9
$USERI5
 70
     0
  9
$USERR1
 40
0.0
  9
$USERR2
 40
0.0
  9
$USERR3
 40
0.0
  9
$USERR4
 40
0.0
  9
$USERR5
 40
0.0
  9
$WORLDVIEW
 70
     1
  9
$SHADEDGE
 70
     3
  9
$SHADEDIF
 70
    70
  9
$TILEMODE
 70
     1
  9
$MAXACTVP
 70
    64
  9
$PINSBASE
 10
0.0
 20
0.0
 30
0.0
  9
$PLIMCHECK
 70
     0
  9
$PEXTMIN
 10
1.000000000000000E+20
 20
1.000000000000000E+20
 30
1.000000000000000E+20
  9
$PEXTMAX
 10
-1.000000000000000E+20
 20
-1.000000000000000E+20
 30
-1.000000000000000E+20
  9
$PLIMMIN
 10
0.0
 20
0.0
  9
$PLIMMAX
 10
12.0
 20
9.0
  9
$UNITMODE
 70
     0
  9
$VISRETAIN
 70
     1
  9
$PLINEGEN
 70
     0
  9
$PSLTSCALE
 70
     1
  9
$TREEDEPTH
 70
  3020
  9
$CMLSTYLE
  2
Standard
  9
$CMLJUST
 70
     0
  9
$CMLSCALE
 40
1.0
  9
$PROXYGRAPHICS
 70
     1
  9
$MEASUREMENT
 70
     0
  9
$CELWEIGHT
370
    -1
  9
$ENDCAPS
280
     0
  9
$JOINSTYLE
280
     0
  9
$LWDISPLAY
290
     1
  9
$INSUNITS
 70
     1
  9
$HYPERLINKBASE
  1

  9
$STYLESHEET
  1

  9
$XEDIT
290
     1
  9
$CEPSNTYPE
380
     0
  9
$PSTYLEMODE
290
     1
  9
$FINGERPRINTGUID
  2
{939C4DFC-D68A-4EBA-968F-530C4C641C2F}
  9
$VERSIONGUID
  2
{FAEB1C32-E019-11D5-929B-00C0DF256EC4}
  9
$EXTNAMES
290
     1
  9
$PSVPSCALE
 40
0.0
  9
$OLESTARTUP
290
     0
  9
$SORTENTS
280
   127
  9
$INDEXCTL
280
     0
  9
$HIDETEXT
280
     1
  9
$XCLIPFRAME
280
     2
  9
$HALOGAP
280
     0
  9
$OBSCOLOR
 70
   257
  9
$OBSLTYPE
280
     0
  9
$INTERSECTIONDISPLAY
280
     0
  9
$INTERSECTIONCOLOR
 70
   257
  9
$DIMASSOC
280
     2
  9
$PROJECTNAME
  1

  9
$CAMERADISPLAY
290
     0
  9
$LENSLENGTH
 40
50.0
  9
$CAMERAHEIGHT
 40
0.0
  9
$STEPSPERSEC
 40
2.0
  9
$STEPSIZE
 40
6.0
  9
$3DDWFPREC
 40
2.0
  9
$PSOLWIDTH
 40
0.25
  9
$PSOLHEIGHT
 40
4.0
  9
$LOFTANG1
 40
1.570796326794897
  9
$LOFTANG2
 40
1.570796326794897
  9
$LOFTMAG1
 40
0.0
  9
$LOFTMAG2
 40
0.0
  9
$LOFTPARAM
 70
     7
  9
$LOFTNORMALS
280
     1
  9
$LATITUDE
 40
37.795
  9
$LONGITUDE
 40
-122.394
  9
$NORTHDIRECTION
 40
0.0
  9
$TIMEZONE
 70
 -8000
  9
$LIGHTGLYPHDISPLAY
280
     1
  9
$TILEMODELIGHTSYNCH
280
     1
  9
$CMATERIAL
347
3C
  9
$SOLIDHIST
280
     1
  9
$SHOWHIST
280
     1
  9
$DWFFRAME
280
     2
  9
$DGNFRAME
280
     2
  9
$REALWORLDSCALE
290
     1
  9
$INTERFERECOLOR
 62
   256
  9
$CSHADOW
280
     0
  9
$SHADOWPLANELOCATION
 40
0.0
  0
ENDSEC
  0
SECTION
  2
CLASSES
  0
CLASS
  1
ACDBDICTIONARYWDFLT
  2
AcDbDictionaryWithDefault
  3
ObjectDBX Classes
 90
        0
 91
        4
280
     0
281
     0
  0
CLASS
  1
VISUALSTYLE
  2
AcDbVisualStyle
  3
ObjectDBX Classes
 90
     4095
 91
        4
280
     0
281
     0
  0
CLASS
  1
MATERIAL
  2
AcDbMaterial
  3
ObjectDBX Classes
 90
     1153
 91
        4
280
     0
281
     0
  0
CLASS
  1
SUN
  2
AcDbSun
  3
SCENEOE
 90
     1024
 91
        4
280
     0
281
     0
  0
ENDSEC
  0
SECTION
  2
TABLES
  0
TABLE
  2
VPORT
  5
8
330
0
100
AcDbSymbolTable
 70
     1
  0
VPORT
  5
29
330
8
100
AcDbSymbolTableRecord
100
AcDbViewportTableRecord
  2
*Active
 70
     0
 10
0.0
 20
0.0
 11
1.0
 21
1.0
 12
0.0
 22
0.0
 13
0.0
 23
0.0
 14
0.5
 24
0.5
 15
0.5
 25
0.5
 16
0.0
 26
0.0
 36
1.0
 17
9.006927083333348
 27
-9.007205555555528
 37
0.0
 40
11.69291338582671
 41
0.7070707070707084
 42
50.0
 43
0.0
 44
0.0
 50
0.0
 51
0.0
 71
     0
 72
   100
 73
     1
 74
     3
 75
     0
 76
     0
 77
     0
 78
     0
281
     0
 65
     1
110
0.0
120
0.0
130
0.0
111
1.0
121
0.0
131
0.0
112
0.0
122
1.0
132
0.0
 79
     0
146
0.0
 60
     3
 61
     5
292
     1
282
     1
141
0.0
142
0.0
 63
   250
361
3F
  0
ENDTAB
  0
TABLE
  2
LTYPE
  5
5
330
0
100
AcDbSymbolTable
 70
     6
  0
LTYPE
  5
14
330
5
100
AcDbSymbolTableRecord
100
AcDbLinetypeTableRecord
  2
ByBlock
 70
     0
  3

 72
    65
 73
     0
 40
0.0
  0
LTYPE
  5
15
330
5
100
AcDbSymbolTableRecord
100
AcDbLinetypeTableRecord
  2
ByLayer
 70
     0
  3

 72
    65
 73
     0
 40
0.0
  0
LTYPE
  5
16
330
5
100
AcDbSymbolTableRecord
100
AcDbLinetypeTableRecord
  2
Continuous
 70
     0
  3
Solid line
 72
    65
 73
     0
 40
0.0
  0
LTYPE
  5
A9
330
5
100
AcDbSymbolTableRecord
100
AcDbLinetypeTableRecord
  2
AI-Linetype-1
 70
     0
  3
Adobe Illustrator Linetype No. 1
 72
    65
 73
     2
 40
0.0544293423493703
 49
0.0272146711746852
 74
     0
 49
-0.0272146711746852
 74
     0
  0
LTYPE
  5
DB
330
5
100
AcDbSymbolTableRecord
100
AcDbLinetypeTableRecord
  2
AI-Linetype-2
 70
     0
  3
Adobe Illustrator Linetype No. 2
 72
    65
 73
     2
 40
0.0996741652488708
 49
0.0442996289994982
 74
     0
 49
-0.0553745362493727
 74
     0
  0
LTYPE
  5
E0
330
5
100
AcDbSymbolTableRecord
100
AcDbLinetypeTableRecord
  2
AI-Linetype-3
 70
     0
  3
Adobe Illustrator Linetype No. 3
 72
    65
 73
     2
 40
0.0996741652488708
 49
0.0442996289994982
 74
     0
 49
-0.0553745362493727
 74
     0
  0
LTYPE
  5
E5
330
5
100
AcDbSymbolTableRecord
100
AcDbLinetypeTableRecord
  2
AI-Linetype-4
 70
     0
  3
Adobe Illustrator Linetype No. 4
 72
    65
 73
     2
 40
0.0996741652488708
 49
0.0442996289994982
 74
     0
 49
-0.0553745362493727
 74
     0
  0
LTYPE
  5
EA
330
5
100
AcDbSymbolTableRecord
100
AcDbLinetypeTableRecord
  2
AI-Linetype-5
 70
     0
  3
Adobe Illustrator Linetype No. 5
 72
    65
 73
     2
 40
0.0996741652488708
 49
0.0442996289994982
 74
     0
 49
-0.0553745362493727
 74
     0
  0
ENDTAB
  0
TABLE
  2
LAYER
  5
2
330
0
100
AcDbSymbolTable
 70
     4
  0
LAYER
  5
10
330
2
100
AcDbSymbolTableRecord
100
AcDbLayerTableRecord
  2
0
 70
     0
 62
     7
  6
Continuous
370
    -3
390
F
347
3E
  0
LAYER
  5
40
330
2
100
AcDbSymbolTableRecord
100
AcDbLayerTableRecord
  2
Layer 1
 70
     0
 62
     7
  6
Continuous
370
    -3
390
F
347
3E
  0
LAYER
  5
96
330
2
100
AcDbSymbolTableRecord
100
AcDbLayerTableRecord
  2
SDWC
 70
     0
 62
     7
  6
Continuous
370
    -3
390
F
347
3E
  0
LAYER
  5
D7
330
2
100
AcDbSymbolTableRecord
100
AcDbLayerTableRecord
  2
callout
 70
     0
 62
     7
  6
Continuous
370
    -3
390
F
347
3E
  0
ENDTAB
  0
TABLE
  2
STYLE
  5
3
330
0
100
AcDbSymbolTable
 70
     1
  0
STYLE
  5
11
330
3
100
AcDbSymbolTableRecord
100
AcDbTextStyleTableRecord
  2
Standard
 70
     0
 40
0.0
 41
1.0
 50
0.0
 71
     0
 42
0.2
  3
txt
  4

  0
ENDTAB
  0
TABLE
  2
VIEW
  5
6
330
0
100
AcDbSymbolTable
 70
     0
  0
ENDTAB
  0
TABLE
  2
UCS
  5
7
330
0
100
AcDbSymbolTable
 70
     0
  0
ENDTAB
  0
TABLE
  2
APPID
  5
9
330
0
100
AcDbSymbolTable
 70
     1
  0
APPID
  5
12
330
9
100
AcDbSymbolTableRecord
100
AcDbRegAppTableRecord
  2
ACAD
 70
     0
  0
ENDTAB
  0
TABLE
  2
DIMSTYLE
  5
A
330
0
100
AcDbSymbolTable
 70
     1
100
AcDbDimStyleTable
  0
DIMSTYLE
105
27
330
A
100
AcDbSymbolTableRecord
100
AcDbDimStyleTableRecord
  2
Standard
 70
     0
178
     0
340
11
  0
ENDTAB
  0
TABLE
  2
BLOCK_RECORD
  5
1
330
0
100
AcDbSymbolTable
 70
     2
  0
BLOCK_RECORD
  5
1F
330
1
100
AcDbSymbolTableRecord
100
AcDbBlockTableRecord
  2
*Model_Space
340
22
 70
     0
280
     1
281
     0
  0
BLOCK_RECORD
  5
1B
330
1
100
AcDbSymbolTableRecord
100
AcDbBlockTableRecord
  2
*Paper_Space
340
1E
 70
     0
280
     1
281
     0
  0
BLOCK_RECORD
  5
23
330
1
100
AcDbSymbolTableRecord
100
AcDbBlockTableRecord
  2
*Paper_Space0
340
26
 70
     0
280
     1
281
     0
  0
BLOCK_RECORD
  5
97
330
1
100
AcDbSymbolTableRecord
100
AcDbBlockTableRecord
  2
block 2
340
0
102
{BLKREFS
331
98
102
}
 70
     0
280
     1
281
     0
  0
ENDTAB
  0
ENDSEC
  0
SECTION
  2
BLOCKS
  0
BLOCK
  5
20
330
1F
100
AcDbEntity
  8
0
100
AcDbBlockBegin
  2
*Model_Space
 70
     0
 10
0.0
 20
0.0
 30
0.0
  3
*Model_Space
  1

  0
ENDBLK
  5
21
330
1F
100
AcDbEntity
  8
0
100
AcDbBlockEnd
  0
BLOCK
  5
1C
330
1B
100
AcDbEntity
 67
     1
  8
0
100
AcDbBlockBegin
  2
*Paper_Space
 70
     0
 10
0.0
 20
0.0
 30
0.0
  3
*Paper_Space
  1

  0
ENDBLK
  5
1D
330
1B
100
AcDbEntity
 67
     1
  8
0
100
AcDbBlockEnd
  0
BLOCK
  5
24
330
23
100
AcDbEntity
  8
0
100
AcDbBlockBegin
  2
*Paper_Space0
 70
     0
 10
0.0
 20
0.0
 30
0.0
  3
*Paper_Space0
  1

  0
ENDBLK
  5
25
330
23
100
AcDbEntity
  8
0
100
AcDbBlockEnd
  0
BLOCK
  5
99
330
97
100
AcDbEntity
  8
0
100
AcDbBlockBegin
  2
block 2
 70
     0
 10
0.0
 20
0.0
 30
0.0
  3
block 2
  1

  0
POLYLINE
  5
9B
330
97
100
AcDbEntity
  8
SDWC
  6
AI-Linetype-1
 62
   250
420
  2301728
370
    30
100
AcDb2dPolyline
 66
     1
 10
0.0
 20
0.0
 30
0.0
  0
VERTEX
  5
9C
330
9B
100
AcDbEntity
  8
SDWC
  6
AI-Linetype-1
 62
   250
420
  2301728
370
    30
100
AcDbVertex
100
AcDb2dVertex
 10
9.137171081642135
 20
-9.396476274980436
 30
0.0
  0
VERTEX
  5
9D
330
9B
100
AcDbEntity
  8
SDWC
  6
AI-Linetype-1
 62
   250
420
  2301728
370
    30
100
AcDbVertex
100
AcDb2dVertex
 10
9.129338723763214
 20
-9.39973102939901
 30
0.0
  0
VERTEX
  5
9E
330
9B
100
AcDbEntity
  8
SDWC
  6
AI-Linetype-1
 62
   250
420
  2301728
370
    30
100
AcDbVertex
100
AcDb2dVertex
 10
9.094156589460427
 20
-9.38272376854747
 30
0.0
  0
VERTEX
  5
9F
330
9B
100
AcDbEntity
  8
SDWC
  6
AI-Linetype-1
 62
   250
420
  2301728
370
    30
100
AcDbVertex
100
AcDb2dVertex
 10
9.09341176627984
 20
-9.383036955741773
 30
0.0
  0
VERTEX
  5
A0
330
9B
100
AcDbEntity
  8
SDWC
  6
AI-Linetype-1
 62
   250
420
  2301728
370
    30
100
AcDbVertex
100
AcDb2dVertex
 10
8.270825122680586
 20
-7.412246725562264
 30
0.0
  0
VERTEX
  5
A1
330
9B
100
AcDbEntity
  8
SDWC
  6
AI-Linetype-1
 62
   250
420
  2301728
370
    30
100
AcDbVertex
100
AcDb2dVertex
 10
8.195492278666482
 20
-7.304706616447699
 30
0.0
  0
VERTEX
  5
A2
330
9B
100
AcDbEntity
  8
SDWC
  6
AI-Linetype-1
 62
   250
420
  2301728
370
    30
100
AcDbVertex
100
AcDb2dVertex
 10
8.216498798712767
 20
-7.434810884201523
 30
0.0
  0
VERTEX
  5
A3
330
9B
100
AcDbEntity
  8
SDWC
  6
AI-Linetype-1
 62
   250
420
  2301728
370
    30
100
AcDbVertex
100
AcDb2dVertex
 10
9.039090890908811
 20
-9.405598395742167
 30
0.0
  0
VERTEX
  5
A4
330
9B
100
AcDbEntity
  8
SDWC
  6
AI-Linetype-1
 62
   250
420
  2301728
370
    30
100
AcDbVertex
100
AcDb2dVertex
 10
9.029406554982542
 20
-9.441227245188049
 30
0.0
  0
VERTEX
  5
A5
330
9B
100
AcDbEntity
  8
SDWC
  6
AI-Linetype-1
 62
   250
420
  2301728
370
    30
100
AcDbVertex
100
AcDb2dVertex
 10
9.018573654853855
 20
-9.445730398561636
 30
0.0
  0
VERTEX
  5
A6
330
9B
100
AcDbEntity
  8
SDWC
  6
AI-Linetype-1
 62
   250
420
  2301728
370
    30
100
AcDbVertex
100
AcDb2dVertex
 10
9.03815436829844
 20
-9.492722070900628
 30
0.0
  0
VERTEX
  5
A7
330
9B
100
AcDbEntity
  8
SDWC
  6
AI-Linetype-1
 62
   250
420
  2301728
370
    30
100
AcDbVertex
100
AcDb2dVertex
 10
9.156767504840394
 20
-9.443467947319478
 30
0.0
  0
VERTEX
  5
A8
330
9B
100
AcDbEntity
  8
SDWC
  6
AI-Linetype-1
 62
   250
420
  2301728
370
    30
100
AcDbVertex
100
AcDb2dVertex
 10
9.137171081642135
 20
-9.396476274980436
 30
0.0
  0
SEQEND
  5
AB
330
9B
100
AcDbEntity
  8
SDWC
  6
AI-Linetype-1
 62
   250
420
  2301728
370
    30
  0
HATCH
  5
AA
330
97
100
AcDbEntity
  8
SDWC
 62
    30
420
 15955765
100
AcDbHatch
 10
0.0
 20
0.0
 30
0.0
210
0.0
220
0.0
230
1.0
  2
SOLID
 70
     1
 71
     0
 91
        1
 92
        1
 93
       12
 72
     1
 10
9.137171081642135
 20
-9.396476274980436
 11
9.129338723763214
 21
-9.39973102939901
 72
     1
 10
9.129338723763214
 20
-9.39973102939901
 11
9.094156589460427
 21
-9.38272376854747
 72
     1
 10
9.094156589460427
 20
-9.38272376854747
 11
9.09341176627984
 21
-9.383036955741773
 72
     1
 10
9.09341176627984
 20
-9.383036955741773
 11
8.270825122680586
 21
-7.412246725562264
 72
     1
 10
8.270825122680586
 20
-7.412246725562264
 11
8.195492278666482
 21
-7.304706616447699
 72
     1
 10
8.195492278666482
 20
-7.304706616447699
 11
8.216498798712767
 21
-7.434810884201523
 72
     1
 10
8.216498798712767
 20
-7.434810884201523
 11
9.039090890908811
 21
-9.405598395742167
 72
     1
 10
9.039090890908811
 20
-9.405598395742167
 11
9.029406554982542
 21
-9.441227245188049
 72
     1
 10
9.029406554982542
 20
-9.441227245188049
 11
9.018573654853855
 21
-9.445730398561636
 72
     1
 10
9.018573654853855
 20
-9.445730398561636
 11
9.03815436829844
 21
-9.492722070900628
 72
     1
 10
9.03815436829844
 20
-9.492722070900628
 11
9.156767504840394
 21
-9.443467947319478
 72
     1
 10
9.156767504840394
 20
-9.443467947319478
 11
9.137171081642135
 21
-9.396476274980436
 97
        0
 75
     2
 76
     1
 98
        0
  0
SPLINE
  5
AC
330
97
100
AcDbEntity
  8
SDWC
 62
   250
420
  2301728
370
    30
100
AcDbSpline
210
0.0
220
0.0
230
1.0
 70
     8
 71
     3
 72
    14
 73
    10
 74
     0
 42
0.0000000001
 43
0.0000000001
 12
1.0
 22
0.0
 32
0.0
 13
1.0
 23
0.0
 33
0.0
 40
0.0
 40
0.0
 40
0.0
 40
0.0
 40
1.0
 40
1.0
 40
1.0
 40
2.0
 40
2.0
 40
2.0
 40
3.0
 40
3.0
 40
3.0
 40
3.0
 10
9.037558200633105
 20
-9.406538501052838
 30
0.0
 10
9.037558200633105
 20
-9.406538501052838
 30
0.0
 10
9.017179358936497
 20
-9.408492114922838
 30
0.0
 10
9.04214482940703
 20
-9.39074157821263
 30
0.0
 10
9.06711084473722
 20
-9.372995935052359
 30
0.0
 10
9.077433303516374
 20
-9.360491283846613
 30
0.0
 10
9.077433303516374
 20
-9.360491283846613
 30
0.0
 10
9.077433303516374
 20
-9.360491283846613
 30
0.0
 10
9.098504024835442
 20
-9.342937032860668
 30
0.0
 10
9.077625001953948
 20
-9.347519570488329
 30
0.0
  0
SPLINE
  5
AD
330
97
100
AcDbEntity
  8
SDWC
 62
   250
420
  2301728
370
    30
100
AcDbSpline
210
0.0
220
0.0
230
1.0
 70
     8
 71
     3
 72
    14
 73
    10
 74
     0
 42
0.0000000001
 43
0.0000000001
 12
1.0
 22
0.0
 32
0.0
 13
1.0
 23
0.0
 33
0.0
 40
0.0
 40
0.0
 40
0.0
 40
0.0
 40
1.0
 40
1.0
 40
1.0
 40
2.0
 40
2.0
 40
2.0
 40
3.0
 40
3.0
 40
3.0
 40
3.0
 10
9.01648793200444
 20
-9.355929951601915
 30
0.0
 10
9.01648793200444
 20
-9.355929951601915
 30
0.0
 10
8.996119442641731
 20
-9.357884109199656
 30
0.0
 10
9.02108491311224
 20
-9.340138466039333
 30
0.0
 10
9.046040031248896
 20
-9.322393366606825
 30
0.0
 10
9.056373295052303
 20
-9.30988327812348
 30
0.0
 10
9.056373295052303
 20
-9.30988327812348
 30
0.0
 10
9.056373295052303
 20
-9.30988327812348
 30
0.0
 10
9.077444200710234
 20
-9.292323589859759
 30
0.0
 10
9.056569989396268
 20
-9.296916458315055
 30
0.0
  0
SPLINE
  5
AE
330
97
100
AcDbEntity
  8
SDWC
 62
   250
420
  2301728
370
    30
100
AcDbSpline
210
0.0
220
0.0
230
1.0
 70
     8
 71
     3
 72
    14
 73
    10
 74
     0
 42
0.0000000001
 43
0.0000000001
 12
1.0
 22
0.0
 32
0.0
 13
1.0
 23
0.0
 33
0.0
 40
0.0
 40
0.0
 40
0.0
 40
0.0
 40
1.0
 40
1.0
 40
1.0
 40
2.0
 40
2.0
 40
2.0
 40
3.0
 40
3.0
 40
3.0
 40
3.0
 10
8.995427470849942
 20
-9.305316508601056
 30
0.0
 10
8.995427470849942
 20
-9.305316508601056
 30
0.0
 10
8.975058981487248
 20
-9.307276103476498
 30
0.0
 10
9.00002508703124
 20
-9.289530460316174
 30
0.0
 10
9.024985109535539
 20
-9.271779923605965
 30
0.0
 10
9.035312833897857
 20
-9.259275272400297
 30
0.0
 10
9.035312833897857
 20
-9.259275272400297
 30
0.0
 10
9.035312833897857
 20
-9.259275272400297
 30
0.0
 10
9.056383647386205
 20
-9.241715584136626
 30
0.0
 10
9.03550462450471
 20
-9.246308452591872
 30
0.0
  0
SPLINE
  5
AF
330
97
100
AcDbEntity
  8
SDWC
 62
   250
420
  2301728
370
    30
100
AcDbSpline
210
0.0
220
0.0
230
1.0
 70
     8
 71
     3
 72
    14
 73
    10
 74
     0
 42
0.0000000001
 43
0.0000000001
 12
1.0
 22
0.0
 32
0.0
 13
1.0
 23
0.0
 33
0.0
 40
0.0
 40
0.0
 40
0.0
 40
0.0
 40
1.0
 40
1.0
 40
1.0
 40
2.0
 40
2.0
 40
2.0
 40
3.0
 40
3.0
 40
3.0
 40
3.0
 10
8.974377906889066
 20
-9.254713940155524
 30
0.0
 10
8.974377906889066
 20
-9.254713940155524
 30
0.0
 10
8.954001789490853
 20
-9.256668097753314
 30
0.0
 10
8.978964535662978
 20
-9.238922454592991
 30
0.0
 10
9.00393055099318
 20
-9.221176811432718
 30
0.0
 10
9.014252917603041
 20
-9.208667266677088
 30
0.0
 10
9.014252917603041
 20
-9.208667266677088
 30
0.0
 10
9.014252917603041
 20
-9.208667266677088
 30
0.0
 10
9.03532373109144
 20
-9.191107578413392
 30
0.0
 10
9.014449611947056
 20
-9.195695009591013
 30
0.0
  0
SPLINE
  5
B0
330
97
100
AcDbEntity
  8
SDWC
 62
   250
420
  2301728
370
    30
100
AcDbSpline
210
0.0
220
0.0
230
1.0
 70
     8
 71
     3
 72
    14
 73
    10
 74
     0
 42
0.0000000001
 43
0.0000000001
 12
1.0
 22
0.0
 32
0.0
 13
1.0
 23
0.0
 33
0.0
 40
0.0
 40
0.0
 40
0.0
 40
0.0
 40
1.0
 40
1.0
 40
1.0
 40
2.0
 40
2.0
 40
2.0
 40
3.0
 40
3.0
 40
3.0
 40
3.0
 10
8.9533098176991
 20
-9.20410593443234
 30
0.0
 10
8.9533098176991
 20
-9.20410593443234
 30
0.0
 10
8.932936513118243
 20
-9.20606009203008
 30
0.0
 10
8.957901984219474
 20
-9.188314448869807
 30
0.0
 10
8.982870089838734
 20
-9.170563368431859
 30
0.0
 10
8.993193001308263
 20
-9.158053823676228
 30
0.0
 10
8.993193001308263
 20
-9.158053823676228
 30
0.0
 10
8.993193001308263
 20
-9.158053823676228
 30
0.0
 10
9.014252917603041
 20
-9.140499028962495
 30
0.0
 10
8.99338969565224
 20
-9.145087003867856
 30
0.0
  0
SPLINE
  5
B1
330
97
100
AcDbEntity
  8
SDWC
 62
   250
420
  2301728
370
    30
100
AcDbSpline
210
0.0
220
0.0
230
1.0
 70
     8
 71
     3
 72
    14
 73
    10
 74
     0
 42
0.0000000001
 43
0.0000000001
 12
1.0
 22
0.0
 32
0.0
 13
1.0
 23
0.0
 33
0.0
 40
0.0
 40
0.0
 40
0.0
 40
0.0
 40
1.0
 40
1.0
 40
1.0
 40
2.0
 40
2.0
 40
2.0
 40
3.0
 40
3.0
 40
3.0
 40
3.0
 10
8.932258074299499
 20
-9.153497928709182
 30
0.0
 10
8.932258074299499
 20
-9.153497928709182
 30
0.0
 10
8.9118759634448
 20
-9.155451542579158
 30
0.0
 10
8.936841978775039
 20
-9.13770644314665
 30
0.0
 10
8.961807449245548
 20
-9.119960799986377
 30
0.0
 10
8.97213254015383
 20
-9.107450711502931
 30
0.0
 10
8.97213254015383
 20
-9.107450711502931
 30
0.0
 10
8.97213254015383
 20
-9.107450711502931
 30
0.0
 10
8.993203443683644
 20
-9.089891023239261
 30
0.0
 10
8.97232442027468
 20
-9.094484435422347
 30
0.0
  0
SPLINE
  5
B2
330
97
100
AcDbEntity
  8
SDWC
 62
   250
420
  2301728
370
    30
100
AcDbSpline
210
0.0
220
0.0
230
1.0
 70
     8
 71
     3
 72
    14
 73
    10
 74
     0
 42
0.0000000001
 43
0.0000000001
 12
1.0
 22
0.0
 32
0.0
 13
1.0
 23
0.0
 33
0.0
 40
0.0
 40
0.0
 40
0.0
 40
0.0
 40
1.0
 40
1.0
 40
1.0
 40
2.0
 40
2.0
 40
2.0
 40
3.0
 40
3.0
 40
3.0
 40
3.0
 10
8.911192709407915
 20
-9.102884485708323
 30
0.0
 10
8.911192709407915
 20
-9.102884485708323
 30
0.0
 10
8.89081604715001
 20
-9.104843536855999
 30
0.0
 10
8.915781517620543
 20
-9.087098437423466
 30
0.0
 10
8.940747532950757
 20
-9.069347356985467
 30
0.0
 10
8.951069899560643
 20
-9.056837268502072
 30
0.0
 10
8.951069899560643
 20
-9.056837268502072
 30
0.0
 10
8.951069899560643
 20
-9.056837268502072
 30
0.0
 10
8.97213254015383
 20
-9.039283017516128
 30
0.0
 10
8.951264414465868
 20
-9.043870992421489
 30
0.0
  0
SPLINE
  5
B3
330
97
100
AcDbEntity
  8
SDWC
 62
   250
420
  2301728
370
    30
100
AcDbSpline
210
0.0
220
0.0
230
1.0
 70
     8
 71
     3
 72
    14
 73
    10
 74
     0
 42
0.0000000001
 43
0.0000000001
 12
1.0
 22
0.0
 32
0.0
 13
1.0
 23
0.0
 33
0.0
 40
0.0
 40
0.0
 40
0.0
 40
0.0
 40
1.0
 40
1.0
 40
1.0
 40
2.0
 40
2.0
 40
2.0
 40
3.0
 40
3.0
 40
3.0
 40
3.0
 10
8.890132335691128
 20
-9.052281373535026
 30
0.0
 10
8.890132335691128
 20
-9.052281373535026
 30
0.0
 10
8.869756130855231
 20
-9.054235531132816
 30
0.0
 10
8.894716152728998
 20
-9.036489887972493
 30
0.0
 10
8.919687071796286
 20
-9.018744788539985
 30
0.0
 10
8.93000998326584
 20
-9.00623470005659
 30
0.0
 10
8.93000998326584
 20
-9.00623470005659
 30
0.0
 10
8.93000998326584
 20
-9.00623470005659
 30
0.0
 10
8.951075348157435
 20
-8.98867501179292
 30
0.0
 10
8.930203953311395
 20
-8.99326244297054
 30
0.0
  0
SPLINE
  5
B4
330
97
100
AcDbEntity
  8
SDWC
 62
   250
420
  2301728
370
    30
100
AcDbSpline
210
0.0
220
0.0
230
1.0
 70
     8
 71
     3
 72
    14
 73
    10
 74
     0
 42
0.0000000001
 43
0.0000000001
 12
1.0
 22
0.0
 32
0.0
 13
1.0
 23
0.0
 33
0.0
 40
0.0
 40
0.0
 40
0.0
 40
0.0
 40
1.0
 40
1.0
 40
1.0
 40
2.0
 40
2.0
 40
2.0
 40
3.0
 40
3.0
 40
3.0
 40
3.0
 10
8.869072331958654
 20
-9.001673367811879
 30
0.0
 10
8.869072331958654
 20
-9.001673367811879
 30
0.0
 10
8.848690765963687
 20
-9.003627525409607
 30
0.0
 10
8.87365623643417
 20
-8.985876444971659
 30
0.0
 10
8.898621706904716
 20
-8.968131345539113
 30
0.0
 10
8.908944618374258
 20
-8.955626694333457
 30
0.0
 10
8.908944618374258
 20
-8.955626694333457
 30
0.0
 10
8.908944618374258
 20
-8.955626694333457
 30
0.0
 10
8.930014887002951
 20
-8.938067006069735
 30
0.0
 10
8.909138588419838
 20
-8.942654437247343
 30
0.0
  0
SPLINE
  5
B5
330
97
100
AcDbEntity
  8
SDWC
 62
   250
420
  2301728
370
    30
100
AcDbSpline
210
0.0
220
0.0
230
1.0
 70
     8
 71
     3
 72
    14
 73
    10
 74
     0
 42
0.0000000001
 43
0.0000000001
 12
1.0
 22
0.0
 32
0.0
 13
1.0
 23
0.0
 33
0.0
 40
0.0
 40
0.0
 40
0.0
 40
0.0
 40
1.0
 40
1.0
 40
1.0
 40
2.0
 40
2.0
 40
2.0
 40
3.0
 40
3.0
 40
3.0
 40
3.0
 10
8.848012415663863
 20
-8.951065362088672
 30
0.0
 10
8.848012415663863
 20
-8.951065362088672
 30
0.0
 10
8.827630304809166
 20
-8.953019519686423
 30
0.0
 10
8.852596320139392
 20
-8.935273876526152
 30
0.0
 10
8.877561790609938
 20
-8.917523339815943
 30
0.0
 10
8.887884157219837
 20
-8.90501814488247
 30
0.0
 10
8.887884157219837
 20
-8.90501814488247
 30
0.0
 10
8.887884157219837
 20
-8.90501814488247
 30
0.0
 10
8.908949522111369
 20
-8.887463893896475
 30
0.0
 10
8.88808366324804
 20
-8.892046431524173
 30
0.0
  0
SPLINE
  5
B6
330
97
100
AcDbEntity
  8
SDWC
 62
   250
420
  2301728
370
    30
100
AcDbSpline
210
0.0
220
0.0
230
1.0
 70
     8
 71
     3
 72
    14
 73
    10
 74
     0
 42
0.0000000001
 43
0.0000000001
 12
1.0
 22
0.0
 32
0.0
 13
1.0
 23
0.0
 33
0.0
 40
0.0
 40
0.0
 40
0.0
 40
0.0
 40
1.0
 40
1.0
 40
1.0
 40
2.0
 40
2.0
 40
2.0
 40
3.0
 40
3.0
 40
3.0
 40
3.0
 10
8.826946505912613
 20
-8.9004573563655
 30
0.0
 10
8.826946505912613
 20
-8.9004573563655
 30
0.0
 10
8.806570388514388
 20
-8.902411513963253
 30
0.0
 10
8.831535858984934
 20
-8.884660433525292
 30
0.0
 10
8.856501874315148
 20
-8.866914790364994
 30
0.0
 10
8.866824240925009
 20
-8.8544101391593
 30
0.0
 10
8.866824240925009
 20
-8.8544101391593
 30
0.0
 10
8.866824240925009
 20
-8.8544101391593
 30
0.0
 10
8.887897778711741
 20
-8.836850450895628
 30
0.0
 10
8.867018210970603
 20
-8.841438425801003
 30
0.0
  0
SPLINE
  5
B7
330
97
100
AcDbEntity
  8
SDWC
 62
   250
420
  2301728
370
    30
100
AcDbSpline
210
0.0
220
0.0
230
1.0
 70
     8
 71
     3
 72
    14
 73
    10
 74
     0
 42
0.0000000001
 43
0.0000000001
 12
1.0
 22
0.0
 32
0.0
 13
1.0
 23
0.0
 33
0.0
 40
0.0
 40
0.0
 40
0.0
 40
0.0
 40
1.0
 40
1.0
 40
1.0
 40
2.0
 40
2.0
 40
2.0
 40
3.0
 40
3.0
 40
3.0
 40
3.0
 10
8.80588658961781
 20
-8.84984935064233
 30
0.0
 10
8.80588658961781
 20
-8.84984935064233
 30
0.0
 10
8.785513196517993
 20
-8.851802964512318
 30
0.0
 10
8.810475942690118
 20
-8.834057865079785
 30
0.0
 10
8.835441413160677
 20
-8.816306784641824
 30
0.0
 10
8.845764410947064
 20
-8.803802133436117
 30
0.0
 10
8.845764410947064
 20
-8.803802133436117
 30
0.0
 10
8.845764410947064
 20
-8.803802133436117
 30
0.0
 10
8.866832413820196
 20
-8.786242445172446
 30
0.0
 10
8.845963743272579
 20
-8.790835313627717
 30
0.0
  0
SPLINE
  5
B8
330
97
100
AcDbEntity
  8
SDWC
 62
   250
420
  2301728
370
    30
100
AcDbSpline
210
0.0
220
0.0
230
1.0
 70
     8
 71
     3
 72
    14
 73
    10
 74
     0
 42
0.0000000001
 43
0.0000000001
 12
1.0
 22
0.0
 32
0.0
 13
1.0
 23
0.0
 33
0.0
 40
0.0
 40
0.0
 40
0.0
 40
0.0
 40
1.0
 40
1.0
 40
1.0
 40
2.0
 40
2.0
 40
2.0
 40
3.0
 40
3.0
 40
3.0
 40
3.0
 10
8.784826673323044
 20
-8.799240801191369
 30
0.0
 10
8.784826673323044
 20
-8.799240801191369
 30
0.0
 10
8.764450011065163
 20
-8.801200396066784
 30
0.0
 10
8.789416026395353
 20
-8.78344931562886
 30
0.0
 10
8.814376048269095
 20
-8.765704216196315
 30
0.0
 10
8.824703863475785
 20
-8.753194127712934
 30
0.0
 10
8.824703863475785
 20
-8.753194127712934
 30
0.0
 10
8.824703863475785
 20
-8.753194127712934
 30
0.0
 10
8.845777401262529
 20
-8.735634439449237
 30
0.0
 10
8.824903282118106
 20
-8.740222414354623
 30
0.0
  0
SPLINE
  5
B9
330
97
100
AcDbEntity
  8
SDWC
 62
   250
420
  2301728
370
    30
100
AcDbSpline
210
0.0
220
0.0
230
1.0
 70
     8
 71
     3
 72
    14
 73
    10
 74
     0
 42
0.0000000001
 43
0.0000000001
 12
1.0
 22
0.0
 32
0.0
 13
1.0
 23
0.0
 33
0.0
 40
0.0
 40
0.0
 40
0.0
 40
0.0
 40
1.0
 40
1.0
 40
1.0
 40
2.0
 40
2.0
 40
2.0
 40
3.0
 40
3.0
 40
3.0
 40
3.0
 10
8.763766212168573
 20
-8.748632795468186
 30
0.0
 10
8.763766212168573
 20
-8.748632795468186
 30
0.0
 10
8.743392819068756
 20
-8.750586953065952
 30
0.0
 10
8.768355565240894
 20
-8.732841309905654
 30
0.0
 10
8.793321665563136
 20
-8.715096210473146
 30
0.0
 10
8.803643947180994
 20
-8.70258612198975
 30
0.0
 10
8.803643947180994
 20
-8.70258612198975
 30
0.0
 10
8.803643947180994
 20
-8.70258612198975
 30
0.0
 10
8.824717484967739
 20
-8.685031871003755
 30
0.0
 10
8.803843365823315
 20
-8.689613864903663
 30
0.0
  0
SPLINE
  5
BA
330
97
100
AcDbEntity
  8
SDWC
 62
   250
420
  2301728
370
    30
100
AcDbSpline
210
0.0
220
0.0
230
1.0
 70
     8
 71
     3
 72
    14
 73
    10
 74
     0
 42
0.0000000001
 43
0.0000000001
 12
1.0
 22
0.0
 32
0.0
 13
1.0
 23
0.0
 33
0.0
 40
0.0
 40
0.0
 40
0.0
 40
0.0
 40
1.0
 40
1.0
 40
1.0
 40
2.0
 40
2.0
 40
2.0
 40
3.0
 40
3.0
 40
3.0
 40
3.0
 10
8.742711744470574
 20
-8.698030227022677
 30
0.0
 10
8.742711744470574
 20
-8.698030227022677
 30
0.0
 10
8.722332357914297
 20
-8.699978947342768
 30
0.0
 10
8.747295648946116
 20
-8.682227866904794
 30
0.0
 10
8.772261119416637
 20
-8.664482767472274
 30
0.0
 10
8.782584030886191
 20
-8.651978116266566
 30
0.0
 10
8.782584030886191
 20
-8.651978116266566
 30
0.0
 10
8.782584030886191
 20
-8.651978116266566
 30
0.0
 10
8.803657023813267
 20
-8.634418428002895
 30
0.0
 10
8.78277800093176
 20
-8.639011296458168
 30
0.0
  0
SPLINE
  5
BB
330
97
100
AcDbEntity
  8
SDWC
 62
   250
420
  2301728
370
    30
100
AcDbSpline
210
0.0
220
0.0
230
1.0
 70
     8
 71
     3
 72
    14
 73
    10
 74
     0
 42
0.0000000001
 43
0.0000000001
 12
1.0
 22
0.0
 32
0.0
 13
1.0
 23
0.0
 33
0.0
 40
0.0
 40
0.0
 40
0.0
 40
0.0
 40
1.0
 40
1.0
 40
1.0
 40
2.0
 40
2.0
 40
2.0
 40
3.0
 40
3.0
 40
3.0
 40
3.0
 10
8.721646379579004
 20
-8.647416784021845
 30
0.0
 10
8.721646379579004
 20
-8.647416784021845
 30
0.0
 10
8.701272441619519
 20
-8.649370941619583
 30
0.0
 10
8.726237912090028
 20
-8.631625298459324
 30
0.0
 10
8.751201203121859
 20
-8.613874218021339
 30
0.0
 10
8.761523653920461
 20
-8.601369566815606
 30
0.0
 10
8.761523653920461
 20
-8.601369566815606
 30
0.0
 10
8.761523653920461
 20
-8.601369566815606
 30
0.0
 10
8.782591658921698
 20
-8.583810422279686
 30
0.0
 10
8.76171263604019
 20
-8.588403290734984
 30
0.0
  0
SPLINE
  5
BC
330
97
100
AcDbEntity
  8
SDWC
 62
   250
420
  2301728
370
    30
100
AcDbSpline
210
0.0
220
0.0
230
1.0
 70
     8
 71
     3
 72
    14
 73
    10
 74
     0
 42
0.0000000001
 43
0.0000000001
 12
1.0
 22
0.0
 32
0.0
 13
1.0
 23
0.0
 33
0.0
 40
0.0
 40
0.0
 40
0.0
 40
0.0
 40
1.0
 40
1.0
 40
1.0
 40
2.0
 40
2.0
 40
2.0
 40
3.0
 40
3.0
 40
3.0
 40
3.0
 10
8.700591367021312
 20
-8.596808778298636
 30
0.0
 10
8.700591367021312
 20
-8.596808778298636
 30
0.0
 10
8.680212525324704
 20
-8.598757498618713
 30
0.0
 10
8.705172547198458
 20
-8.581011855458428
 30
0.0
 10
8.730141286827068
 20
-8.56326621229813
 30
0.0
 10
8.740466377735338
 20
-8.550756667542512
 30
0.0
 10
8.740466377735338
 20
-8.550756667542512
 30
0.0
 10
8.740466377735338
 20
-8.550756667542512
 30
0.0
 10
8.761526294030116
 20
-8.533201872828752
 30
0.0
 10
8.740657623482496
 20
-8.5377952850118
 30
0.0
  0
SPLINE
  5
BD
330
97
100
AcDbEntity
  8
SDWC
 62
   250
420
  2301728
370
    30
100
AcDbSpline
210
0.0
220
0.0
230
1.0
 70
     8
 71
     3
 72
    14
 73
    10
 74
     0
 42
0.0000000001
 43
0.0000000001
 12
1.0
 22
0.0
 32
0.0
 13
1.0
 23
0.0
 33
0.0
 40
0.0
 40
0.0
 40
0.0
 40
0.0
 40
1.0
 40
1.0
 40
1.0
 40
2.0
 40
2.0
 40
2.0
 40
3.0
 40
3.0
 40
3.0
 40
3.0
 10
8.679526002129755
 20
-8.546200772575478
 30
0.0
 10
8.679526002129755
 20
-8.546200772575478
 30
0.0
 10
8.659147160433134
 20
-8.548154386445452
 30
0.0
 10
8.68411263090368
 20
-8.530409287012919
 30
0.0
 10
8.709070473338707
 20
-8.512658206574972
 30
0.0
 10
8.719401012843768
 20
-8.500153555369252
 30
0.0
 10
8.719401012843768
 20
-8.500153555369252
 30
0.0
 10
8.719401012843768
 20
-8.500153555369252
 30
0.0
 10
8.74047182633213
 20
-8.482593867105582
 30
0.0
 10
8.719597707187706
 20
-8.487186735560853
 30
0.0
  0
SPLINE
  5
BE
330
97
100
AcDbEntity
  8
SDWC
 62
   250
420
  2301728
370
    30
100
AcDbSpline
210
0.0
220
0.0
230
1.0
 70
     8
 71
     3
 72
    14
 73
    10
 74
     0
 42
0.0000000001
 43
0.0000000001
 12
1.0
 22
0.0
 32
0.0
 13
1.0
 23
0.0
 33
0.0
 40
0.0
 40
0.0
 40
0.0
 40
0.0
 40
1.0
 40
1.0
 40
1.0
 40
2.0
 40
2.0
 40
2.0
 40
3.0
 40
3.0
 40
3.0
 40
3.0
 10
8.658466085834991
 20
-8.495587329574606
 30
0.0
 10
8.658466085834991
 20
-8.495587329574606
 30
0.0
 10
8.638086699278663
 20
-8.49754638072227
 30
0.0
 10
8.663047266012098
 20
-8.479795844012074
 30
0.0
 10
8.688015460781028
 20
-8.462050200851776
 30
0.0
 10
8.698340551689297
 20
-8.44954011236838
 30
0.0
 10
8.698340551689297
 20
-8.44954011236838
 30
0.0
 10
8.698340551689297
 20
-8.44954011236838
 30
0.0
 10
8.719405999705613
 20
-8.431985861382397
 30
0.0
 10
8.698537873490498
 20
-8.436573836287758
 30
0.0
  0
SPLINE
  5
BF
330
97
100
AcDbEntity
  8
SDWC
 62
   250
420
  2301728
370
    30
100
AcDbSpline
210
0.0
220
0.0
230
1.0
 70
     8
 71
     3
 72
    14
 73
    10
 74
     0
 42
0.0000000001
 43
0.0000000001
 12
1.0
 22
0.0
 32
0.0
 13
1.0
 23
0.0
 33
0.0
 40
0.0
 40
0.0
 40
0.0
 40
0.0
 40
1.0
 40
1.0
 40
1.0
 40
2.0
 40
2.0
 40
2.0
 40
3.0
 40
3.0
 40
3.0
 40
3.0
 10
8.637405624680518
 20
-8.444984217401332
 30
0.0
 10
8.637405624680518
 20
-8.444984217401332
 30
0.0
 10
8.61702686352233
 20
-8.446938374999098
 30
0.0
 10
8.641992334623536
 20
-8.4291927318388
 30
0.0
 10
8.66695554448625
 20
-8.411447632406281
 30
0.0
 10
8.677280635394506
 20
-8.398937543922885
 30
0.0
 10
8.677280635394506
 20
-8.398937543922885
 30
0.0
 10
8.677280635394506
 20
-8.398937543922885
 30
0.0
 10
8.698351448882855
 20
-8.381380574298039
 30
0.0
 10
8.677474605440073
 20
-8.38596528683681
 30
0.0
  0
SPLINE
  5
C0
330
97
100
AcDbEntity
  8
SDWC
 62
   250
420
  2301728
370
    30
100
AcDbSpline
210
0.0
220
0.0
230
1.0
 70
     8
 71
     3
 72
    14
 73
    10
 74
     0
 42
0.0000000001
 43
0.0000000001
 12
1.0
 22
0.0
 32
0.0
 13
1.0
 23
0.0
 33
0.0
 40
0.0
 40
0.0
 40
0.0
 40
0.0
 40
1.0
 40
1.0
 40
1.0
 40
2.0
 40
2.0
 40
2.0
 40
3.0
 40
3.0
 40
3.0
 40
3.0
 10
8.616340340310026
 20
-8.39437621167815
 30
0.0
 10
8.616340340310026
 20
-8.39437621167815
 30
0.0
 10
8.595966866689094
 20
-8.396330369275903
 30
0.0
 10
8.620932337159628
 20
-8.378582007476767
 30
0.0
 10
8.645895083331766
 20
-8.360836908044247
 30
0.0
 10
8.656220719099704
 20
-8.348329538199701
 30
0.0
 10
8.656220719099704
 20
-8.348329538199701
 30
0.0
 10
8.656220719099704
 20
-8.348329538199701
 30
0.0
 10
8.677286083991298
 20
-8.330769849936031
 30
0.0
 10
8.656420219275661
 20
-8.335359999752477
 30
0.0
  0
SPLINE
  5
C1
330
97
100
AcDbEntity
  8
SDWC
 62
   250
420
  2301728
370
    30
100
AcDbSpline
210
0.0
220
0.0
230
1.0
 70
     8
 71
     3
 72
    14
 73
    10
 74
     0
 42
0.0000000001
 43
0.0000000001
 12
1.0
 22
0.0
 32
0.0
 13
1.0
 23
0.0
 33
0.0
 40
0.0
 40
0.0
 40
0.0
 40
0.0
 40
1.0
 40
1.0
 40
1.0
 40
2.0
 40
2.0
 40
2.0
 40
3.0
 40
3.0
 40
3.0
 40
3.0
 10
8.595280343494133
 20
-8.343768205954978
 30
0.0
 10
8.595280343494133
 20
-8.343768205954978
 30
0.0
 10
8.574906405534636
 20
-8.345722363552719
 30
0.0
 10
8.599869696566454
 20
-8.327974001753596
 30
0.0
 10
8.624835167037013
 20
-8.310228358593298
 30
0.0
 10
8.635160257945245
 20
-8.297718813837694
 30
0.0
 10
8.635160257945245
 20
-8.297718813837694
 30
0.0
 10
8.635160257945245
 20
-8.297718813837694
 30
0.0
 10
8.656231071433593
 20
-8.280161300485082
 30
0.0
 10
8.63535749714889
 20
-8.284749275390443
 30
0.0
  0
SPLINE
  5
C2
330
97
100
AcDbEntity
  8
SDWC
 62
   250
420
  2301728
370
    30
100
AcDbSpline
210
0.0
220
0.0
230
1.0
 70
     8
 71
     3
 72
    14
 73
    10
 74
     0
 42
0.0000000001
 43
0.0000000001
 12
1.0
 22
0.0
 32
0.0
 13
1.0
 23
0.0
 33
0.0
 40
0.0
 40
0.0
 40
0.0
 40
0.0
 40
1.0
 40
1.0
 40
1.0
 40
2.0
 40
2.0
 40
2.0
 40
3.0
 40
3.0
 40
3.0
 40
3.0
 10
8.574222686095178
 20
-8.293160200231783
 30
0.0
 10
8.574222686095178
 20
-8.293160200231783
 30
0.0
 10
8.553846489239833
 20
-8.295113814101796
 30
0.0
 10
8.578811959710379
 20
-8.277365996030413
 30
0.0
 10
8.603777975040606
 20
-8.259620352870103
 30
0.0
 10
8.614100341650454
 20
-8.24711026438677
 30
0.0
 10
8.614100341650454
 20
-8.24711026438677
 30
0.0
 10
8.614100341650454
 20
-8.24711026438677
 30
0.0
 10
8.635168430840432
 20
-8.229553294761912
 30
0.0
 10
8.614297116463893
 20
-8.234141269667273
 30
0.0
  0
SPLINE
  5
C3
330
97
100
AcDbEntity
  8
SDWC
 62
   250
420
  2301728
370
    30
100
AcDbSpline
210
0.0
220
0.0
230
1.0
 70
     8
 71
     3
 72
    14
 73
    10
 74
     0
 42
0.0000000001
 43
0.0000000001
 12
1.0
 22
0.0
 32
0.0
 13
1.0
 23
0.0
 33
0.0
 40
0.0
 40
0.0
 40
0.0
 40
0.0
 40
1.0
 40
1.0
 40
1.0
 40
2.0
 40
2.0
 40
2.0
 40
3.0
 40
3.0
 40
3.0
 40
3.0
 10
8.553159966044909
 20
-8.2425521945086
 30
0.0
 10
8.553159966044909
 20
-8.2425521945086
 30
0.0
 10
8.532786572945067
 20
-8.24450308973975
 30
0.0
 10
8.557752043415588
 20
-8.22675799030723
 30
0.0
 10
8.582714789587726
 20
-8.209009628508081
 30
0.0
 10
8.593040425355676
 20
-8.196504977302386
 30
0.0
 10
8.593040425355676
 20
-8.196504977302386
 30
0.0
 10
8.593040425355676
 20
-8.196504977302386
 30
0.0
 10
8.614108514545642
 20
-8.178948007677565
 30
0.0
 10
8.59323439540123
 20
-8.183535982582914
 30
0.0
  0
SPLINE
  5
C4
330
97
100
AcDbEntity
  8
SDWC
 62
   250
420
  2301728
370
    30
100
AcDbSpline
210
0.0
220
0.0
230
1.0
 70
     8
 71
     3
 72
    14
 73
    10
 74
     0
 42
0.0000000001
 43
0.0000000001
 12
1.0
 22
0.0
 32
0.0
 13
1.0
 23
0.0
 33
0.0
 40
0.0
 40
0.0
 40
0.0
 40
0.0
 40
1.0
 40
1.0
 40
1.0
 40
2.0
 40
2.0
 40
2.0
 40
3.0
 40
3.0
 40
3.0
 40
3.0
 10
8.53210277404849
 20
-8.191941470146578
 30
0.0
 10
8.53210277404849
 20
-8.191941470146578
 30
0.0
 10
8.511726111790583
 20
-8.193900521294255
 30
0.0
 10
8.536689402822402
 20
-8.176152159495132
 30
0.0
 10
8.561657597591319
 20
-8.158407060062599
 30
0.0
 10
8.571979964201205
 20
-8.145894252940378
 30
0.0
 10
8.571979964201205
 20
-8.145894252940378
 30
0.0
 10
8.571979964201205
 20
-8.145894252940378
 30
0.0
 10
8.593040425355676
 20
-8.12834000195437
 30
0.0
 10
8.572171754808057
 20
-8.132924714493141
 30
0.0
  0
SPLINE
  5
C5
330
97
100
AcDbEntity
  8
SDWC
 62
   250
420
  2301728
370
    30
100
AcDbSpline
210
0.0
220
0.0
230
1.0
 70
     8
 71
     3
 72
    14
 73
    10
 74
     0
 42
0.0000000001
 43
0.0000000001
 12
1.0
 22
0.0
 32
0.0
 13
1.0
 23
0.0
 33
0.0
 40
0.0
 40
0.0
 40
0.0
 40
0.0
 40
1.0
 40
1.0
 40
1.0
 40
2.0
 40
2.0
 40
2.0
 40
3.0
 40
3.0
 40
3.0
 40
3.0
 10
8.511042312894018
 20
-8.14133292069563
 30
0.0
 10
8.511042312894018
 20
-8.14133292069563
 30
0.0
 10
8.490660746899014
 20
-8.143289796932246
 30
0.0
 10
8.515626217369547
 20
-8.125541435133098
 30
0.0
 10
8.540589508401379
 20
-8.107796335700577
 30
0.0
 10
8.550920047906427
 20
-8.095286247217194
 30
0.0
 10
8.550920047906427
 20
-8.095286247217194
 30
0.0
 10
8.550920047906427
 20
-8.095286247217194
 30
0.0
 10
8.5719826884996
 20
-8.077726558953499
 30
0.0
 10
8.551114017951981
 20
-8.082319427408782
 30
0.0
  0
SPLINE
  5
C6
330
97
100
AcDbEntity
  8
SDWC
 62
   250
420
  2301728
370
    30
100
AcDbSpline
210
0.0
220
0.0
230
1.0
 70
     8
 71
     3
 72
    14
 73
    10
 74
     0
 42
0.0000000001
 43
0.0000000001
 12
1.0
 22
0.0
 32
0.0
 13
1.0
 23
0.0
 33
0.0
 40
0.0
 40
0.0
 40
0.0
 40
0.0
 40
1.0
 40
1.0
 40
1.0
 40
2.0
 40
2.0
 40
2.0
 40
3.0
 40
3.0
 40
3.0
 40
3.0
 10
8.489976948002449
 20
-8.090727633611271
 30
0.0
 10
8.489976948002449
 20
-8.090727633611271
 30
0.0
 10
8.469603554902607
 20
-8.092681791209037
 30
0.0
 10
8.494571749671548
 20
-8.074933429409901
 30
0.0
 10
8.519529670182035
 20
-8.05718561133853
 30
0.0
 10
8.529851958716462
 20
-8.044678241494012
 30
0.0
 10
8.529851958716462
 20
-8.044678241494012
 30
0.0
 10
8.529851958716462
 20
-8.044678241494012
 30
0.0
 10
8.55092277220481
 20
-8.027121271869166
 30
0.0
 10
8.530051377358808
 20
-8.031711421685612
 30
0.0
  0
SPLINE
  5
C7
330
97
100
AcDbEntity
  8
SDWC
 62
   250
420
  2301728
370
    30
100
AcDbSpline
210
0.0
220
0.0
230
1.0
 70
     8
 71
     3
 72
    14
 73
    10
 74
     0
 42
0.0000000001
 43
0.0000000001
 12
1.0
 22
0.0
 32
0.0
 13
1.0
 23
0.0
 33
0.0
 40
0.0
 40
0.0
 40
0.0
 40
0.0
 40
1.0
 40
1.0
 40
1.0
 40
2.0
 40
2.0
 40
2.0
 40
3.0
 40
3.0
 40
3.0
 40
3.0
 10
8.468922480304462
 20
-8.040116909249264
 30
0.0
 10
8.468922480304462
 20
-8.040116909249264
 30
0.0
 10
8.448540369449763
 20
-8.042073785485854
 30
0.0
 10
8.473506384779991
 20
-8.024322705047894
 30
0.0
 10
8.498471855250513
 20
-8.006577061887596
 30
0.0
 10
8.508794221860374
 20
-7.99406969204305
 30
0.0
 10
8.508794221860374
 20
-7.99406969204305
 30
0.0
 10
8.508794221860374
 20
-7.99406969204305
 30
0.0
 10
8.529865035348735
 20
-7.976515441057055
 30
0.0
 10
8.508991461064017
 20
-7.981106134601267
 30
0.0
  0
SPLINE
  5
C8
330
97
100
AcDbEntity
  8
SDWC
 62
   250
420
  2301728
370
    30
100
AcDbSpline
210
0.0
220
0.0
230
1.0
 70
     8
 71
     3
 72
    14
 73
    10
 74
     0
 42
0.0000000001
 43
0.0000000001
 12
1.0
 22
0.0
 32
0.0
 13
1.0
 23
0.0
 33
0.0
 40
0.0
 40
0.0
 40
0.0
 40
0.0
 40
1.0
 40
1.0
 40
1.0
 40
2.0
 40
2.0
 40
2.0
 40
3.0
 40
3.0
 40
3.0
 40
3.0
 10
8.447859294851582
 20
-7.98950890352608
 30
0.0
 10
8.447859294851582
 20
-7.98950890352608
 30
0.0
 10
8.42748045315496
 20
-7.991463061123833
 30
0.0
 10
8.45244592362552
 20
-7.97371741796356
 30
0.0
 10
8.477409214657326
 20
-7.955969056164412
 30
0.0
 10
8.487734305565596
 20
-7.943461686319879
 30
0.0
 10
8.487734305565596
 20
-7.943461686319879
 30
0.0
 10
8.487734305565596
 20
-7.943461686319879
 30
0.0
 10
8.508802394755573
 20
-7.925904716695046
 30
0.0
 10
8.487933724207942
 20
-7.930495410239246
 30
0.0
  0
SPLINE
  5
C9
330
97
100
AcDbEntity
  8
SDWC
 62
   250
420
  2301728
370
    30
100
AcDbSpline
210
0.0
220
0.0
230
1.0
 70
     8
 71
     3
 72
    14
 73
    10
 74
     0
 42
0.0000000001
 43
0.0000000001
 12
1.0
 22
0.0
 32
0.0
 13
1.0
 23
0.0
 33
0.0
 40
0.0
 40
0.0
 40
0.0
 40
0.0
 40
1.0
 40
1.0
 40
1.0
 40
2.0
 40
2.0
 40
2.0
 40
3.0
 40
3.0
 40
3.0
 40
3.0
 10
8.426796654258421
 20
-7.938900897802922
 30
0.0
 10
8.426796654258421
 20
-7.938900897802922
 30
0.0
 10
8.406420536860184
 20
-7.940857230311735
 30
0.0
 10
8.431383283032346
 20
-7.923109412240365
 30
0.0
 10
8.45634929836256
 20
-7.905361050441241
 30
0.0
 10
8.466671664972422
 20
-7.892853680596696
 30
0.0
 10
8.466671664972422
 20
-7.892853680596696
 30
0.0
 10
8.466671664972422
 20
-7.892853680596696
 30
0.0
 10
8.487745202759166
 20
-7.875293992333013
 30
0.0
 10
8.46686835931636
 20
-7.879884685877224
 30
0.0
  0
SPLINE
  5
CA
330
97
100
AcDbEntity
  8
SDWC
 62
   250
420
  2301728
370
    30
100
AcDbSpline
210
0.0
220
0.0
230
1.0
 70
     8
 71
     3
 72
    14
 73
    10
 74
     0
 42
0.0000000001
 43
0.0000000001
 12
1.0
 22
0.0
 32
0.0
 13
1.0
 23
0.0
 33
0.0
 40
0.0
 40
0.0
 40
0.0
 40
0.0
 40
1.0
 40
1.0
 40
1.0
 40
2.0
 40
2.0
 40
2.0
 40
3.0
 40
3.0
 40
3.0
 40
3.0
 10
8.405739462262039
 20
-7.888292348351948
 30
0.0
 10
8.405739462262039
 20
-7.888292348351948
 30
0.0
 10
8.385357970952997
 20
-7.890249224588551
 30
0.0
 10
8.410326091035927
 20
-7.872501406517181
 30
0.0
 10
8.435291561506473
 20
-7.854753044718045
 30
0.0
 10
8.445614004324524
 20
-7.842242956234675
 30
0.0
 10
8.445614004324524
 20
-7.842242956234675
 30
0.0
 10
8.445614004324524
 20
-7.842242956234675
 30
0.0
 10
8.466684741604695
 20
-7.824688705248668
 30
0.0
 10
8.445808443021582
 20
-7.829276136426276
 30
0.0
  0
SPLINE
  5
CB
330
97
100
AcDbEntity
  8
SDWC
 62
   250
420
  2301728
370
    30
100
AcDbSpline
210
0.0
220
0.0
230
1.0
 70
     8
 71
     3
 72
    14
 73
    10
 74
     0
 42
0.0000000001
 43
0.0000000001
 12
1.0
 22
0.0
 32
0.0
 13
1.0
 23
0.0
 33
0.0
 40
0.0
 40
0.0
 40
0.0
 40
0.0
 40
1.0
 40
1.0
 40
1.0
 40
2.0
 40
2.0
 40
2.0
 40
3.0
 40
3.0
 40
3.0
 40
3.0
 10
8.384676896337623
 20
-7.837687061267616
 30
0.0
 10
8.384676896337623
 20
-7.837687061267616
 30
0.0
 10
8.36430288370933
 20
-7.839641218865394
 30
0.0
 10
8.389265629881468
 20
-7.821892857066232
 30
0.0
 10
8.414228920913287
 20
-7.804147757633713
 30
0.0
 10
8.424554011821556
 20
-7.791640387789155
 30
0.0
 10
8.424554011821556
 20
-7.791640387789155
 30
0.0
 10
8.424554011821556
 20
-7.791640387789155
 30
0.0
 10
8.445622101011521
 20
-7.774080699525497
 30
0.0
 10
8.424750706165518
 20
-7.778668130703092
 30
0.0
  0
SPLINE
  5
CC
330
97
100
AcDbEntity
  8
SDWC
 62
   250
420
  2301728
370
    30
100
AcDbSpline
210
0.0
220
0.0
230
1.0
 70
     8
 71
     3
 72
    14
 73
    10
 74
     0
 42
0.0000000001
 43
0.0000000001
 12
1.0
 22
0.0
 32
0.0
 13
1.0
 23
0.0
 33
0.0
 40
0.0
 40
0.0
 40
0.0
 40
0.0
 40
1.0
 40
1.0
 40
1.0
 40
2.0
 40
2.0
 40
2.0
 40
3.0
 40
3.0
 40
3.0
 40
3.0
 10
8.363616360514369
 20
-7.787076336905594
 30
0.0
 10
8.363616360514369
 20
-7.787076336905594
 30
0.0
 10
8.343240316738148
 20
-7.789030494503347
 30
0.0
 10
8.368200339242447
 20
-7.771284851343075
 30
0.0
 10
8.393166280320113
 20
-7.753537033271691
 30
0.0
 10
8.403494095526765
 20
-7.741029663427146
 30
0.0
 10
8.403494095526765
 20
-7.741029663427146
 30
0.0
 10
8.403494095526765
 20
-7.741029663427146
 30
0.0
 10
8.424562184716756
 20
-7.723474868713374
 30
0.0
 10
8.403688065572332
 20
-7.728060124979922
 30
0.0
  0
SPLINE
  5
CD
330
97
100
AcDbEntity
  8
SDWC
 62
   250
420
  2301728
370
    30
100
AcDbSpline
210
0.0
220
0.0
230
1.0
 70
     8
 71
     3
 72
    14
 73
    10
 74
     0
 42
0.0000000001
 43
0.0000000001
 12
1.0
 22
0.0
 32
0.0
 13
1.0
 23
0.0
 33
0.0
 40
0.0
 40
0.0
 40
0.0
 40
0.0
 40
1.0
 40
1.0
 40
1.0
 40
2.0
 40
2.0
 40
2.0
 40
3.0
 40
3.0
 40
3.0
 40
3.0
 10
8.342559242122775
 20
-7.736468331182398
 30
0.0
 10
8.342559242122775
 20
-7.736468331182398
 30
0.0
 10
8.32217760252297
 20
-7.738425207419001
 30
0.0
 10
8.347143072993504
 20
-7.720676845619866
 30
0.0
 10
8.372108543464062
 20
-7.702931202459568
 30
0.0
 10
8.38243091007391
 20
-7.690423832615048
 30
0.0
 10
8.38243091007391
 20
-7.690423832615048
 30
0.0
 10
8.38243091007391
 20
-7.690423832615048
 30
0.0
 10
8.403501798706632
 20
-7.672864144351365
 30
0.0
 10
8.382625424979146
 20
-7.677452119256738
 30
0.0
  0
SPLINE
  5
CE
330
97
100
AcDbEntity
  8
SDWC
 62
   250
420
  2301728
370
    30
100
AcDbSpline
210
0.0
220
0.0
230
1.0
 70
     8
 71
     3
 72
    14
 73
    10
 74
     0
 42
0.0000000001
 43
0.0000000001
 12
1.0
 22
0.0
 32
0.0
 13
1.0
 23
0.0
 33
0.0
 40
0.0
 40
0.0
 40
0.0
 40
0.0
 40
1.0
 40
1.0
 40
1.0
 40
2.0
 40
2.0
 40
2.0
 40
3.0
 40
3.0
 40
3.0
 40
3.0
 10
8.321493803626405
 20
-7.685860325459215
 30
0.0
 10
8.321493803626405
 20
-7.685860325459215
 30
0.0
 10
8.301119865666895
 20
-7.687814483056981
 30
0.0
 10
8.326083156698713
 20
-7.670068839896683
 30
0.0
 10
8.351045902870851
 20
-7.652320478097534
 30
0.0
 10
8.361370993779145
 20
-7.639815826891852
 30
0.0
 10
8.361370993779145
 20
-7.639815826891852
 30
0.0
 10
8.361370993779145
 20
-7.639815826891852
 30
0.0
 10
8.382441807267469
 20
-7.622256138628169
 30
0.0
 10
8.36156768812307
 20
-7.626846832172393
 30
0.0
  0
SPLINE
  5
CF
330
97
100
AcDbEntity
  8
SDWC
 62
   250
420
  2301728
370
    30
100
AcDbSpline
210
0.0
220
0.0
230
1.0
 70
     8
 71
     3
 72
    14
 73
    10
 74
     0
 42
0.0000000001
 43
0.0000000001
 12
1.0
 22
0.0
 32
0.0
 13
1.0
 23
0.0
 33
0.0
 40
0.0
 40
0.0
 40
0.0
 40
0.0
 40
1.0
 40
1.0
 40
1.0
 40
2.0
 40
2.0
 40
2.0
 40
3.0
 40
3.0
 40
3.0
 40
3.0
 10
8.300433342471921
 20
-7.635255038374857
 30
0.0
 10
8.300433342471921
 20
-7.635255038374857
 30
0.0
 10
8.280059949372117
 20
-7.637205933606032
 30
0.0
 10
8.305022695544242
 20
-7.619458115534674
 30
0.0
 10
8.329988166014788
 20
-7.601712472374364
 30
0.0
 10
8.34031107748433
 20
-7.589207821168669
 30
0.0
 10
8.34031107748433
 20
-7.589207821168669
 30
0.0
 10
8.34031107748433
 20
-7.589207821168669
 30
0.0
 10
8.361376442375912
 20
-7.57164541426616
 30
0.0
 10
8.340505121082817
 20
-7.576236107810359
 30
0.0
  0
SPLINE
  5
D0
330
97
100
AcDbEntity
  8
SDWC
 62
   250
420
  2301728
370
    30
100
AcDbSpline
210
0.0
220
0.0
230
1.0
 70
     8
 71
     3
 72
    14
 73
    10
 74
     0
 42
0.0000000001
 43
0.0000000001
 12
1.0
 22
0.0
 32
0.0
 13
1.0
 23
0.0
 33
0.0
 40
0.0
 40
0.0
 40
0.0
 40
0.0
 40
1.0
 40
1.0
 40
1.0
 40
2.0
 40
2.0
 40
2.0
 40
3.0
 40
3.0
 40
3.0
 40
3.0
 10
8.279373426177155
 20
-7.584643770285084
 30
0.0
 10
8.279373426177155
 20
-7.584643770285084
 30
0.0
 10
8.258994584480547
 20
-7.586600646521674
 30
0.0
 10
8.283960054951068
 20
-7.568855003361389
 30
0.0
 10
8.308922801123206
 20
-7.551107185290018
 30
0.0
 10
8.319250616329857
 20
-7.538597096806647
 30
0.0
 10
8.319250616329857
 20
-7.538597096806647
 30
0.0
 10
8.319250616329857
 20
-7.538597096806647
 30
0.0
 10
8.340318705519836
 20
-7.52104284582064
 30
0.0
 10
8.319445131235106
 20
-7.525630276998249
 30
0.0
  0
SPLINE
  5
D1
330
97
100
AcDbEntity
  8
SDWC
 62
   250
420
  2301728
370
    30
100
AcDbSpline
210
0.0
220
0.0
230
1.0
 70
     8
 71
     3
 72
    14
 73
    10
 74
     0
 42
0.0000000001
 43
0.0000000001
 12
1.0
 22
0.0
 32
0.0
 13
1.0
 23
0.0
 33
0.0
 40
0.0
 40
0.0
 40
0.0
 40
0.0
 40
1.0
 40
1.0
 40
1.0
 40
2.0
 40
2.0
 40
2.0
 40
3.0
 40
3.0
 40
3.0
 40
3.0
 10
8.258313509882353
 20
-7.534035764561899
 30
0.0
 10
8.258313509882353
 20
-7.534035764561899
 30
0.0
 10
8.237936847624457
 20
-7.535992640798503
 30
0.0
 10
8.262900138656278
 20
-7.51824427899938
 30
0.0
 10
8.287862884828428
 20
-7.50049646092801
 30
0.0
 10
8.298185251438301
 20
-7.487989091083477
 30
0.0
 10
8.298185251438301
 20
-7.487989091083477
 30
0.0
 10
8.298185251438301
 20
-7.487989091083477
 30
0.0
 10
8.319258789225033
 20
-7.470432121458619
 30
0.0
 10
8.298385214940303
 20
-7.47501955263624
 30
0.0
  0
SPLINE
  5
D2
330
97
100
AcDbEntity
  8
SDWC
 62
   250
420
  2301728
370
    30
100
AcDbSpline
210
0.0
220
0.0
230
1.0
 70
     8
 71
     3
 72
    14
 73
    10
 74
     0
 42
0.0000000001
 43
0.0000000001
 12
1.0
 22
0.0
 32
0.0
 13
1.0
 23
0.0
 33
0.0
 40
0.0
 40
0.0
 40
0.0
 40
0.0
 40
1.0
 40
1.0
 40
1.0
 40
2.0
 40
2.0
 40
2.0
 40
3.0
 40
3.0
 40
3.0
 40
3.0
 10
8.237250324429498
 20
-7.483425040199891
 30
0.0
 10
8.237250324429498
 20
-7.483425040199891
 30
0.0
 10
8.216874207031271
 20
-7.485381916436495
 30
0.0
 10
8.241839677501805
 20
-7.467633554637346
 30
0.0
 10
8.266802968533637
 20
-7.449888455204826
 30
0.0
 10
8.27713078374029
 20
-7.437381085360281
 30
0.0
 10
8.27713078374029
 20
-7.437381085360281
 30
0.0
 10
8.27713078374029
 20
-7.437381085360281
 30
0.0
 10
8.298198872930268
 20
-7.419824115735448
 30
0.0
 10
8.277322029487449
 20
-7.424414265551881
 30
0.0
  0
ENDBLK
  5
9A
330
97
100
AcDbEntity
  8
0
100
AcDbBlockEnd
  0
ENDSEC
  0
SECTION
  2
ENTITIES
  0
POLYLINE
  5
41
330
1F
100
AcDbEntity
  8
Layer 1
 62
   250
420
  2301728
370
    40
100
AcDb2dPolyline
 66
     1
 10
0.0
 20
0.0
 30
0.0
  0
VERTEX
  5
42
330
41
100
AcDbEntity
  8
Layer 1
 62
   250
420
  2301728
370
    40
100
AcDbVertex
100
AcDb2dVertex
 10
7.185746577663975
 20
-7.296756766008065
 30
0.0
  0
VERTEX
  5
43
330
41
100
AcDbEntity
  8
Layer 1
 62
   250
420
  2301728
370
    40
100
AcDbVertex
100
AcDb2dVertex
 10
10.13921143817204
 20
-7.296756766008065
 30
0.0
  0
VERTEX
  5
44
330
41
100
AcDbEntity
  8
Layer 1
 62
   250
420
  2301728
370
    40
100
AcDbVertex
100
AcDb2dVertex
 10
10.13921143817204
 20
-7.514215341003503
 30
0.0
  0
VERTEX
  5
45
330
41
100
AcDbEntity
  8
Layer 1
 62
   250
420
  2301728
370
    40
100
AcDbVertex
100
AcDb2dVertex
 10
10.23473251185101
 20
-7.562870731565251
 30
0.0
  0
VERTEX
  5
46
330
41
100
AcDbEntity
  8
Layer 1
 62
   250
420
  2301728
370
    40
100
AcDbVertex
100
AcDb2dVertex
 10
10.13921143817204
 20
-7.609733648368673
 30
0.0
  0
VERTEX
  5
47
330
41
100
AcDbEntity
  8
Layer 1
 62
   250
420
  2301728
370
    40
100
AcDbVertex
100
AcDb2dVertex
 10
10.04369036449311
 20
-7.656315262524824
 30
0.0
  0
VERTEX
  5
48
330
41
100
AcDbEntity
  8
Layer 1
 62
   250
420
  2301728
370
    40
100
AcDbVertex
100
AcDb2dVertex
 10
10.13921143817204
 20
-7.705725408024035
 30
0.0
  0
VERTEX
  5
49
330
41
100
AcDbEntity
  8
Layer 1
 62
   250
420
  2301728
370
    40
100
AcDbVertex
100
AcDb2dVertex
 10
10.13921143817204
 20
-7.894801764149356
 30
0.0
  0
VERTEX
  5
4A
330
41
100
AcDbEntity
  8
Layer 1
 62
   250
420
  2301728
370
    40
100
AcDbVertex
100
AcDb2dVertex
 10
7.185746577663975
 20
-7.894801764149356
 30
0.0
  0
VERTEX
  5
4B
330
41
100
AcDbEntity
  8
Layer 1
 62
   250
420
  2301728
370
    40
100
AcDbVertex
100
AcDb2dVertex
 10
7.185746577663975
 20
-7.704797884531545
 30
0.0
  0
VERTEX
  5
4C
330
41
100
AcDbEntity
  8
Layer 1
 62
   250
420
  2301728
370
    40
100
AcDbVertex
100
AcDb2dVertex
 10
7.28126765375599
 20
-7.658767800762562
 30
0.0
  0
VERTEX
  5
4D
330
41
100
AcDbEntity
  8
Layer 1
 62
   250
420
  2301728
370
    40
100
AcDbVertex
100
AcDb2dVertex
 10
7.185746577663975
 20
-7.609276808439542
 30
0.0
  0
VERTEX
  5
4E
330
41
100
AcDbEntity
  8
Layer 1
 62
   250
420
  2301728
370
    40
100
AcDbVertex
100
AcDb2dVertex
 10
7.090225501571959
 20
-7.561519039120362
 30
0.0
  0
VERTEX
  5
4F
330
41
100
AcDbEntity
  8
Layer 1
 62
   250
420
  2301728
370
    40
100
AcDbVertex
100
AcDb2dVertex
 10
7.185746577663975
 20
-7.513755732347526
 30
0.0
  0
VERTEX
  5
50
330
41
100
AcDbEntity
  8
Layer 1
 62
   250
420
  2301728
370
    40
100
AcDbVertex
100
AcDb2dVertex
 10
7.185746577663975
 20
-7.296756766008065
 30
0.0
  0
SEQEND
  5
52
330
41
100
AcDbEntity
  8
Layer 1
 62
   250
420
  2301728
370
    40
  0
HATCH
  5
51
330
1F
100
AcDbEntity
  8
Layer 1
 62
    33
420
 15180889
100
AcDbHatch
 10
0.0
 20
0.0
 30
0.0
210
0.0
220
0.0
230
1.0
  2
SOLID
 70
     1
 71
     0
 91
        1
 92
        1
 93
       14
 72
     1
 10
7.185746577663975
 20
-7.296756766008065
 11
10.13921143817204
 21
-7.296756766008065
 72
     1
 10
10.13921143817204
 20
-7.296756766008065
 11
10.13921143817204
 21
-7.514215341003503
 72
     1
 10
10.13921143817204
 20
-7.514215341003503
 11
10.23473251185101
 21
-7.562870731565251
 72
     1
 10
10.23473251185101
 20
-7.562870731565251
 11
10.13921143817204
 21
-7.609733648368673
 72
     1
 10
10.13921143817204
 20
-7.609733648368673
 11
10.04369036449311
 21
-7.656315262524824
 72
     1
 10
10.04369036449311
 20
-7.656315262524824
 11
10.13921143817204
 21
-7.705725408024035
 72
     1
 10
10.13921143817204
 20
-7.705725408024035
 11
10.13921143817204
 21
-7.894801764149356
 72
     1
 10
10.13921143817204
 20
-7.894801764149356
 11
7.185746577663975
 21
-7.894801764149356
 72
     1
 10
7.185746577663975
 20
-7.894801764149356
 11
7.185746577663975
 21
-7.704797884531545
 72
     1
 10
7.185746577663975
 20
-7.704797884531545
 11
7.28126765375599
 21
-7.658767800762562
 72
     1
 10
7.28126765375599
 20
-7.658767800762562
 11
7.185746577663975
 21
-7.609276808439542
 72
     1
 10
7.185746577663975
 20
-7.609276808439542
 11
7.090225501571959
 21
-7.561519039120362
 72
     1
 10
7.090225501571959
 20
-7.561519039120362
 11
7.185746577663975
 21
-7.513755732347526
 72
     1
 10
7.185746577663975
 20
-7.513755732347526
 11
7.185746577663975
 21
-7.296756766008065
 97
        0
 75
     2
 76
     1
 98
        0
  0
POLYLINE
  5
53
330
1F
100
AcDbEntity
  8
Layer 1
 62
   250
420
  2301728
370
    40
100
AcDb2dPolyline
 66
     1
 10
0.0
 20
0.0
 30
0.0
  0
VERTEX
  5
54
330
53
100
AcDbEntity
  8
Layer 1
 62
   250
420
  2301728
370
    40
100
AcDbVertex
100
AcDb2dVertex
 10
9.087095264316986
 20
-10.38732745923638
 30
0.0
  0
VERTEX
  5
55
330
53
100
AcDbEntity
  8
Layer 1
 62
   250
420
  2301728
370
    40
100
AcDbVertex
100
AcDb2dVertex
 10
8.881098116165806
 20
-10.38732745923638
 30
0.0
  0
VERTEX
  5
56
330
53
100
AcDbEntity
  8
Layer 1
 62
   250
420
  2301728
370
    40
100
AcDbVertex
100
AcDb2dVertex
 10
8.834448946253108
 20
-10.48284853532838
 30
0.0
  0
VERTEX
  5
57
330
53
100
AcDbEntity
  8
Layer 1
 62
   250
420
  2301728
370
    40
100
AcDbVertex
100
AcDb2dVertex
 10
8.785577042486844
 20
-10.38732745923638
 30
0.0
  0
VERTEX
  5
58
330
53
100
AcDbEntity
  8
Layer 1
 62
   250
420
  2301728
370
    40
100
AcDbVertex
100
AcDb2dVertex
 10
8.737884147707998
 20
-10.29180638314438
 30
0.0
  0
VERTEX
  5
59
330
53
100
AcDbEntity
  8
Layer 1
 62
   250
420
  2301728
370
    40
100
AcDbVertex
100
AcDb2dVertex
 10
8.690053200081126
 20
-10.38732745923638
 30
0.0
  0
VERTEX
  5
5A
330
53
100
AcDbEntity
  8
Layer 1
 62
   250
420
  2301728
370
    40
100
AcDbVertex
100
AcDb2dVertex
 10
8.48904759139806
 20
-10.38732745923638
 30
0.0
  0
VERTEX
  5
5B
330
53
100
AcDbEntity
  8
Layer 1
 62
   250
420
  2301728
370
    40
100
AcDbVertex
100
AcDb2dVertex
 10
8.48904759139806
 20
-8.067134364595644
 30
0.0
  0
VERTEX
  5
5C
330
53
100
AcDbEntity
  8
Layer 1
 62
   250
420
  2301728
370
    40
100
AcDbVertex
100
AcDb2dVertex
 10
9.087095264316986
 20
-8.067134364595644
 30
0.0
  0
VERTEX
  5
5D
330
53
100
AcDbEntity
  8
Layer 1
 62
   250
420
  2301728
370
    40
100
AcDbVertex
100
AcDb2dVertex
 10
9.087095264316986
 20
-10.38732745923638
 30
0.0
  0
SEQEND
  5
5F
330
53
100
AcDbEntity
  8
Layer 1
 62
   250
420
  2301728
370
    40
  0
HATCH
  5
5E
330
1F
100
AcDbEntity
  8
Layer 1
 62
    33
420
 15180889
100
AcDbHatch
 10
0.0
 20
0.0
 30
0.0
210
0.0
220
0.0
230
1.0
  2
SOLID
 70
     1
 71
     0
 91
        1
 92
        1
 93
        9
 72
     1
 10
9.087095264316986
 20
-10.38732745923638
 11
8.881098116165806
 21
-10.38732745923638
 72
     1
 10
8.881098116165806
 20
-10.38732745923638
 11
8.834448946253108
 21
-10.48284853532838
 72
     1
 10
8.834448946253108
 20
-10.48284853532838
 11
8.785577042486844
 21
-10.38732745923638
 72
     1
 10
8.785577042486844
 20
-10.38732745923638
 11
8.737884147707998
 21
-10.29180638314438
 72
     1
 10
8.737884147707998
 20
-10.29180638314438
 11
8.690053200081126
 21
-10.38732745923638
 72
     1
 10
8.690053200081126
 20
-10.38732745923638
 11
8.48904759139806
 21
-10.38732745923638
 72
     1
 10
8.48904759139806
 20
-10.38732745923638
 11
8.48904759139806
 21
-8.067134364595644
 72
     1
 10
8.48904759139806
 20
-8.067134364595644
 11
9.087095264316986
 21
-8.067134364595644
 72
     1
 10
9.087095264316986
 20
-8.067134364595644
 11
9.087095264316986
 21
-10.38732745923638
 97
        0
 75
     2
 76
     1
 98
        0
  0
POLYLINE
  5
60
330
1F
100
AcDbEntity
  8
Layer 1
 62
   250
420
  2301728
370
    40
100
AcDb2dPolyline
 66
     1
 10
0.0
 20
0.0
 30
0.0
  0
VERTEX
  5
61
330
60
100
AcDbEntity
  8
Layer 1
 62
   250
420
  2301728
370
    40
100
AcDbVertex
100
AcDb2dVertex
 10
10.13921143817204
 20
-8.414360398007197
 30
0.0
  0
VERTEX
  5
62
330
60
100
AcDbEntity
  8
Layer 1
 62
   250
420
  2301728
370
    40
100
AcDbVertex
100
AcDb2dVertex
 10
9.087095264316986
 20
-8.414360398007197
 30
0.0
  0
VERTEX
  5
63
330
60
100
AcDbEntity
  8
Layer 1
 62
   250
420
  2301728
370
    40
100
AcDbVertex
100
AcDb2dVertex
 10
8.48904759139806
 20
-8.414360398007197
 30
0.0
  0
VERTEX
  5
64
330
60
100
AcDbEntity
  8
Layer 1
 62
   250
420
  2301728
370
    40
100
AcDbVertex
100
AcDb2dVertex
 10
7.185746577663975
 20
-8.414360398007197
 30
0.0
  0
VERTEX
  5
65
330
60
100
AcDbEntity
  8
Layer 1
 62
   250
420
  2301728
370
    40
100
AcDbVertex
100
AcDb2dVertex
 10
7.185746577663975
 20
-8.204872987593465
 30
0.0
  0
VERTEX
  5
66
330
60
100
AcDbEntity
  8
Layer 1
 62
   250
420
  2301728
370
    40
100
AcDbVertex
100
AcDb2dVertex
 10
7.28126765375599
 20
-8.158255933733724
 30
0.0
  0
VERTEX
  5
67
330
60
100
AcDbEntity
  8
Layer 1
 62
   250
420
  2301728
370
    40
100
AcDbVertex
100
AcDb2dVertex
 10
7.185746577663975
 20
-8.109354680228307
 30
0.0
  0
VERTEX
  5
68
330
60
100
AcDbEntity
  8
Layer 1
 62
   250
420
  2301728
370
    40
100
AcDbVertex
100
AcDb2dVertex
 10
7.090225501571959
 20
-8.059971668252148
 30
0.0
  0
VERTEX
  5
69
330
60
100
AcDbEntity
  8
Layer 1
 62
   250
420
  2301728
370
    40
100
AcDbVertex
100
AcDb2dVertex
 10
7.185746577663975
 20
-8.013833604136279
 30
0.0
  0
VERTEX
  5
6A
330
60
100
AcDbEntity
  8
Layer 1
 62
   250
420
  2301728
370
    40
100
AcDbVertex
100
AcDb2dVertex
 10
7.185746577663975
 20
-7.816318168592753
 30
0.0
  0
VERTEX
  5
6B
330
60
100
AcDbEntity
  8
Layer 1
 62
   250
420
  2301728
370
    40
100
AcDbVertex
100
AcDb2dVertex
 10
10.13921143817204
 20
-7.816318168592753
 30
0.0
  0
VERTEX
  5
6C
330
60
100
AcDbEntity
  8
Layer 1
 62
   250
420
  2301728
370
    40
100
AcDbVertex
100
AcDb2dVertex
 10
10.13921143817204
 20
-8.013833604136279
 30
0.0
  0
VERTEX
  5
6D
330
60
100
AcDbEntity
  8
Layer 1
 62
   250
420
  2301728
370
    40
100
AcDbVertex
100
AcDb2dVertex
 10
10.23473251185101
 20
-8.060742481805315
 30
0.0
  0
VERTEX
  5
6E
330
60
100
AcDbEntity
  8
Layer 1
 62
   250
420
  2301728
370
    40
100
AcDbVertex
100
AcDb2dVertex
 10
10.13921143817204
 20
-8.109351911501461
 30
0.0
  0
VERTEX
  5
6F
330
60
100
AcDbEntity
  8
Layer 1
 62
   250
420
  2301728
370
    40
100
AcDbVertex
100
AcDb2dVertex
 10
10.04369036449311
 20
-8.158569907357736
 30
0.0
  0
VERTEX
  5
70
330
60
100
AcDbEntity
  8
Layer 1
 62
   250
420
  2301728
370
    40
100
AcDbVertex
100
AcDb2dVertex
 10
10.13921143817204
 20
-8.204872987593465
 30
0.0
  0
VERTEX
  5
71
330
60
100
AcDbEntity
  8
Layer 1
 62
   250
420
  2301728
370
    40
100
AcDbVertex
100
AcDb2dVertex
 10
10.13921143817204
 20
-8.414360398007197
 30
0.0
  0
SEQEND
  5
73
330
60
100
AcDbEntity
  8
Layer 1
 62
   250
420
  2301728
370
    40
  0
HATCH
  5
72
330
1F
100
AcDbEntity
  8
Layer 1
 62
    33
420
 15180889
100
AcDbHatch
 10
0.0
 20
0.0
 30
0.0
210
0.0
220
0.0
230
1.0
  2
SOLID
 70
     1
 71
     0
 91
        1
 92
        1
 93
       16
 72
     1
 10
10.13921143817204
 20
-8.414360398007197
 11
9.087095264316986
 21
-8.414360398007197
 72
     1
 10
9.087095264316986
 20
-8.414360398007197
 11
8.48904759139806
 21
-8.414360398007197
 72
     1
 10
8.48904759139806
 20
-8.414360398007197
 11
7.185746577663975
 21
-8.414360398007197
 72
     1
 10
7.185746577663975
 20
-8.414360398007197
 11
7.185746577663975
 21
-8.204872987593465
 72
     1
 10
7.185746577663975
 20
-8.204872987593465
 11
7.28126765375599
 21
-8.158255933733724
 72
     1
 10
7.28126765375599
 20
-8.158255933733724
 11
7.185746577663975
 21
-8.109354680228307
 72
     1
 10
7.185746577663975
 20
-8.109354680228307
 11
7.090225501571959
 21
-8.059971668252148
 72
     1
 10
7.090225501571959
 20
-8.059971668252148
 11
7.185746577663975
 21
-8.013833604136279
 72
     1
 10
7.185746577663975
 20
-8.013833604136279
 11
7.185746577663975
 21
-7.816318168592753
 72
     1
 10
7.185746577663975
 20
-7.816318168592753
 11
10.13921143817204
 21
-7.816318168592753
 72
     1
 10
10.13921143817204
 20
-7.816318168592753
 11
10.13921143817204
 21
-8.013833604136279
 72
     1
 10
10.13921143817204
 20
-8.013833604136279
 11
10.23473251185101
 21
-8.060742481805315
 72
     1
 10
10.23473251185101
 20
-8.060742481805315
 11
10.13921143817204
 21
-8.109351911501461
 72
     1
 10
10.13921143817204
 20
-8.109351911501461
 11
10.04369036449311
 21
-8.158569907357736
 72
     1
 10
10.04369036449311
 20
-8.158569907357736
 11
10.13921143817204
 21
-8.204872987593465
 72
     1
 10
10.13921143817204
 20
-8.204872987593465
 11
10.13921143817204
 21
-8.414360398007197
 97
        0
 75
     2
 76
     1
 98
        0
  0
SPLINE
  5
74
330
1F
100
AcDbEntity
  8
Layer 1
370
     0
100
AcDbSpline
210
0.0
220
0.0
230
1.0
 70
    11
 71
     3
 72
    14
 73
    10
 74
     0
 42
0.0000000001
 43
0.0000000001
 12
1.0
 22
0.0
 32
0.0
 13
1.0
 23
0.0
 33
0.0
 40
0.0
 40
0.0
 40
0.0
 40
0.0
 40
1.0
 40
1.0
 40
1.0
 40
2.0
 40
2.0
 40
2.0
 40
3.0
 40
3.0
 40
3.0
 40
3.0
 10
8.016468490746345
 20
-7.591690963021973
 30
0.0
 10
8.016468490746345
 20
-7.591690963021973
 30
0.0
 10
8.219567407744812
 20
-7.271102850569276
 30
0.0
 10
8.71130040933945
 20
-7.348822120549963
 30
0.0
 10
8.71130040933945
 20
-7.348822120549963
 30
0.0
 10
9.087095264316986
 20
-9.457637318088372
 30
0.0
 10
9.087095264316986
 20
-9.457637318088372
 30
0.0
 10
9.087095264316986
 20
-9.457637318088372
 30
0.0
 10
8.016468490746345
 20
-7.591690963021973
 30
0.0
 10
8.016468490746345
 20
-7.591690963021973
 30
0.0
  0
HATCH
  5
75
330
1F
100
AcDbEntity
  8
Layer 1
 62
    31
420
 16108190
100
AcDbHatch
 10
0.0
 20
0.0
 30
0.0
210
0.0
220
0.0
230
1.0
  2
SOLID
 70
     1
 71
     0
 91
        1
 92
        1
 93
        1
 72
     4
 94
        3
 73
     0
 74
     1
 95
       14
 96
       10
 40
0.0
 40
0.0
 40
0.0
 40
0.0
 40
1.0
 40
1.0
 40
1.0
 40
2.0
 40
2.0
 40
2.0
 40
3.0
 40
3.0
 40
3.0
 40
3.0
 10
8.016468490746345
 20
-7.591690963021973
 10
8.016468490746345
 20
-7.591690963021973
 10
8.219567407744812
 20
-7.271102850569276
 10
8.71130040933945
 20
-7.348822120549963
 10
8.71130040933945
 20
-7.348822120549963
 10
9.087095264316986
 20
-9.457637318088372
 10
9.087095264316986
 20
-9.457637318088372
 10
9.087095264316986
 20
-9.457637318088372
 10
8.016468490746345
 20
-7.591690963021973
 10
8.016468490746345
 20
-7.591690963021973
 97
        0
 97
        0
 75
     2
 76
     1
 98
        0
  0
POLYLINE
  5
76
330
1F
100
AcDbEntity
  8
Layer 1
 62
   250
420
  2301728
370
    40
100
AcDb2dPolyline
 66
     1
 10
0.0
 20
0.0
 30
0.0
  0
VERTEX
  5
77
330
76
100
AcDbEntity
  8
Layer 1
 62
   250
420
  2301728
370
    40
100
AcDbVertex
100
AcDb2dVertex
 10
8.435960499150875
 20
-8.414360398007197
 30
0.0
  0
VERTEX
  5
78
330
76
100
AcDbEntity
  8
Layer 1
 62
   250
420
  2301728
370
    40
100
AcDbVertex
100
AcDb2dVertex
 10
9.087095264316986
 20
-8.414360398007197
 30
0.0
  0
SEQEND
  5
79
330
76
100
AcDbEntity
  8
Layer 1
 62
   250
420
  2301728
370
    40
  0
POLYLINE
  5
7A
330
1F
100
AcDbEntity
  8
Layer 1
 62
   250
420
  2301728
370
    40
100
AcDb2dPolyline
 66
     1
 10
0.0
 20
0.0
 30
0.0
  0
VERTEX
  5
7B
330
7A
100
AcDbEntity
  8
Layer 1
 62
   250
420
  2301728
370
    40
100
AcDbVertex
100
AcDb2dVertex
 10
8.148148028593912
 20
-7.816318168592753
 30
0.0
  0
VERTEX
  5
7C
330
7A
100
AcDbEntity
  8
Layer 1
 62
   250
420
  2301728
370
    40
100
AcDbVertex
100
AcDb2dVertex
 10
8.8860137136791
 20
-7.816318168592753
 30
0.0
  0
SEQEND
  5
7D
330
7A
100
AcDbEntity
  8
Layer 1
 62
   250
420
  2301728
370
    40
  0
POLYLINE
  5
7E
330
1F
100
AcDbEntity
  8
Layer 1
 62
   250
420
  2301728
370
    40
100
AcDb2dPolyline
 66
     1
 10
0.0
 20
0.0
 30
0.0
  0
VERTEX
  5
7F
330
7E
100
AcDbEntity
  8
Layer 1
 62
   250
420
  2301728
370
    40
100
AcDbVertex
100
AcDb2dVertex
 10
7.185746577663975
 20
-7.296756766008065
 30
0.0
  0
VERTEX
  5
80
330
7E
100
AcDbEntity
  8
Layer 1
 62
   250
420
  2301728
370
    40
100
AcDbVertex
100
AcDb2dVertex
 10
7.185746577663975
 20
-7.168127254324493
 30
0.0
  0
SEQEND
  5
81
330
7E
100
AcDbEntity
  8
Layer 1
 62
   250
420
  2301728
370
    40
  0
POLYLINE
  5
82
330
1F
100
AcDbEntity
  8
Layer 1
 62
   250
420
  2301728
370
    40
100
AcDb2dPolyline
 66
     1
 10
0.0
 20
0.0
 30
0.0
  0
VERTEX
  5
83
330
82
100
AcDbEntity
  8
Layer 1
 62
   250
420
  2301728
370
    40
100
AcDbVertex
100
AcDb2dVertex
 10
7.185746577663975
 20
-8.414360398007197
 30
0.0
  0
VERTEX
  5
84
330
82
100
AcDbEntity
  8
Layer 1
 62
   250
420
  2301728
370
    40
100
AcDbVertex
100
AcDb2dVertex
 10
7.185746577663975
 20
-8.56453171202194
 30
0.0
  0
SEQEND
  5
85
330
82
100
AcDbEntity
  8
Layer 1
 62
   250
420
  2301728
370
    40
  0
POLYLINE
  5
86
330
1F
100
AcDbEntity
  8
Layer 1
 62
   250
420
  2301728
370
    40
100
AcDb2dPolyline
 66
     1
 10
0.0
 20
0.0
 30
0.0
  0
VERTEX
  5
87
330
86
100
AcDbEntity
  8
Layer 1
 62
   250
420
  2301728
370
    40
100
AcDbVertex
100
AcDb2dVertex
 10
10.13978468515648
 20
-7.296756766008065
 30
0.0
  0
VERTEX
  5
88
330
86
100
AcDbEntity
  8
Layer 1
 62
   250
420
  2301728
370
    40
100
AcDbVertex
100
AcDb2dVertex
 10
10.13978468515648
 20
-7.168127254324493
 30
0.0
  0
SEQEND
  5
89
330
86
100
AcDbEntity
  8
Layer 1
 62
   250
420
  2301728
370
    40
  0
POLYLINE
  5
8A
330
1F
100
AcDbEntity
  8
Layer 1
 62
   250
420
  2301728
370
    40
100
AcDb2dPolyline
 66
     1
 10
0.0
 20
0.0
 30
0.0
  0
VERTEX
  5
8B
330
8A
100
AcDbEntity
  8
Layer 1
 62
   250
420
  2301728
370
    40
100
AcDbVertex
100
AcDb2dVertex
 10
10.13978468515648
 20
-8.414360398007197
 30
0.0
  0
VERTEX
  5
8C
330
8A
100
AcDbEntity
  8
Layer 1
 62
   250
420
  2301728
370
    40
100
AcDbVertex
100
AcDb2dVertex
 10
10.13978468515648
 20
-8.56453171202194
 30
0.0
  0
SEQEND
  5
8D
330
8A
100
AcDbEntity
  8
Layer 1
 62
   250
420
  2301728
370
    40
  0
POLYLINE
  5
8E
330
1F
100
AcDbEntity
  8
Layer 1
 62
   250
420
  2301728
370
    40
100
AcDb2dPolyline
 66
     1
 10
0.0
 20
0.0
 30
0.0
  0
VERTEX
  5
8F
330
8E
100
AcDbEntity
  8
Layer 1
 62
   250
420
  2301728
370
    40
100
AcDbVertex
100
AcDb2dVertex
 10
8.48904759139806
 20
-10.38732745923638
 30
0.0
  0
VERTEX
  5
90
330
8E
100
AcDbEntity
  8
Layer 1
 62
   250
420
  2301728
370
    40
100
AcDbVertex
100
AcDb2dVertex
 10
8.408408345284379
 20
-10.38732745923638
 30
0.0
  0
SEQEND
  5
91
330
8E
100
AcDbEntity
  8
Layer 1
 62
   250
420
  2301728
370
    40
  0
POLYLINE
  5
92
330
1F
100
AcDbEntity
  8
Layer 1
 62
   250
420
  2301728
370
    40
100
AcDb2dPolyline
 66
     1
 10
0.0
 20
0.0
 30
0.0
  0
VERTEX
  5
93
330
92
100
AcDbEntity
  8
Layer 1
 62
   250
420
  2301728
370
    40
100
AcDbVertex
100
AcDb2dVertex
 10
9.167734527575728
 20
-10.38732745923638
 30
0.0
  0
VERTEX
  5
94
330
92
100
AcDbEntity
  8
Layer 1
 62
   250
420
  2301728
370
    40
100
AcDbVertex
100
AcDb2dVertex
 10
9.087095264316986
 20
-10.38732745923638
 30
0.0
  0
SEQEND
  5
95
330
92
100
AcDbEntity
  8
Layer 1
 62
   250
420
  2301728
370
    40
  0
INSERT
  5
98
330
1F
100
AcDbEntity
  8
SDWC
100
AcDbBlockReference
  2
block 2
 10
0.0
 20
0.0
 30
0.0
  0
POLYLINE
  5
D3
330
1F
100
AcDbEntity
  8
SDWC
 62
   250
420
  2301728
370
    40
100
AcDb2dPolyline
 66
     1
 10
0.0
 20
0.0
 30
0.0
  0
VERTEX
  5
D4
330
D3
100
AcDbEntity
  8
SDWC
 62
   250
420
  2301728
370
    40
100
AcDbVertex
100
AcDb2dVertex
 10
9.087668484722725
 20
-9.402449790190833
 30
0.0
  0
VERTEX
  5
D5
330
D3
100
AcDbEntity
  8
SDWC
 62
   250
420
  2301728
370
    40
100
AcDbVertex
100
AcDb2dVertex
 10
9.087668484722725
 20
-9.29539419806987
 30
0.0
  0
SEQEND
  5
D6
330
D3
100
AcDbEntity
  8
SDWC
 62
   250
420
  2301728
370
    40
  0
POLYLINE
  5
D8
330
1F
100
AcDbEntity
  8
callout
  6
AI-Linetype-2
 62
   250
420
  2301728
370
    20
100
AcDb2dPolyline
 66
     1
 10
0.0
 20
0.0
 30
0.0
  0
VERTEX
  5
D9
330
D8
100
AcDbEntity
  8
callout
  6
AI-Linetype-2
 62
   250
420
  2301728
370
    20
100
AcDbVertex
100
AcDb2dVertex
 10
9.087095264316986
 20
-7.011567379991649
 30
0.0
  0
VERTEX
  5
DA
330
D8
100
AcDbEntity
  8
callout
  6
AI-Linetype-2
 62
   250
420
  2301728
370
    20
100
AcDbVertex
100
AcDb2dVertex
 10
9.087095264316986
 20
-8.406656849405737
 30
0.0
  0
SEQEND
  5
DC
330
D8
100
AcDbEntity
  8
callout
  6
AI-Linetype-2
 62
   250
420
  2301728
370
    20
  0
POLYLINE
  5
DD
330
1F
100
AcDbEntity
  8
callout
  6
AI-Linetype-3
 62
   250
420
  2301728
370
    20
100
AcDb2dPolyline
 66
     1
 10
0.0
 20
0.0
 30
0.0
  0
VERTEX
  5
DE
330
DD
100
AcDbEntity
  8
callout
  6
AI-Linetype-3
 62
   250
420
  2301728
370
    20
100
AcDbVertex
100
AcDb2dVertex
 10
8.652786691457827
 20
-7.016966951081346
 30
0.0
  0
VERTEX
  5
DF
330
DD
100
AcDbEntity
  8
callout
  6
AI-Linetype-3
 62
   250
420
  2301728
370
    20
100
AcDbVertex
100
AcDb2dVertex
 10
9.07839980101274
 20
-9.430739690551592
 30
0.0
  0
SEQEND
  5
E1
330
DD
100
AcDbEntity
  8
callout
  6
AI-Linetype-3
 62
   250
420
  2301728
370
    20
  0
POLYLINE
  5
E2
330
1F
100
AcDbEntity
  8
callout
  6
AI-Linetype-4
 62
   250
420
  2301728
370
    20
100
AcDb2dPolyline
 66
     1
 10
0.0
 20
0.0
 30
0.0
  0
VERTEX
  5
E3
330
E2
100
AcDbEntity
  8
callout
  6
AI-Linetype-4
 62
   250
420
  2301728
370
    20
100
AcDbVertex
100
AcDb2dVertex
 10
8.024607606666638
 20
-6.876218309900574
 30
0.0
  0
VERTEX
  5
E4
330
E2
100
AcDbEntity
  8
callout
  6
AI-Linetype-4
 62
   250
420
  2301728
370
    20
100
AcDbVertex
100
AcDb2dVertex
 10
9.07839980101274
 20
-9.430739690551592
 30
0.0
  0
SEQEND
  5
E6
330
E2
100
AcDbEntity
  8
callout
  6
AI-Linetype-4
 62
   250
420
  2301728
370
    20
  0
POLYLINE
  5
E7
330
1F
100
AcDbEntity
  8
callout
  6
AI-Linetype-5
 62
   250
420
  2301728
370
    20
100
AcDb2dPolyline
 66
     1
 10
0.0
 20
0.0
 30
0.0
  0
VERTEX
  5
E8
330
E7
100
AcDbEntity
  8
callout
  6
AI-Linetype-5
 62
   250
420
  2301728
370
    20
100
AcDbVertex
100
AcDb2dVertex
 10
7.750679026689593
 20
-7.130746673213833
 30
0.0
  0
VERTEX
  5
E9
330
E7
100
AcDbEntity
  8
callout
  6
AI-Linetype-5
 62
   250
420
  2301728
370
    20
100
AcDbVertex
100
AcDb2dVertex
 10
9.081850188317654
 20
-9.436406720654354
 30
0.0
  0
SEQEND
  5
EB
330
E7
100
AcDbEntity
  8
callout
  6
AI-Linetype-5
 62
   250
420
  2301728
370
    20
  0
MTEXT
  5
EC
330
1F
100
AcDbEntity
  8
callout
 62
   250
420
  2301728
100
AcDbMText
 10
8.544422573513454
 20
-6.927139626608954
 30
0.0
 40
0.118
 41
0.0
 46
0.0
 71
     7
 72
     1
  1
\fHelvetica Neue LT Std 57 Condensed|b0|i0|c0|p34;\W1;10˚
 73
     1
 44
1.0
  0
MTEXT
  5
ED
330
1F
100
AcDbEntity
  8
callout
 62
   250
420
  2301728
100
AcDbMText
 10
7.519387986924913
 20
-6.833174970414903
 30
0.0
 40
0.118
 41
0.0
 46
0.0
 71
     7
 72
     1
  1
\fHelvetica Neue LT Std 57 Condensed|b0|i0|c0|p34;\W1;Optimal 22.5˚
 73
     1
 44
1.0
  0
MTEXT
  5
EE
330
1F
100
AcDbEntity
  8
callout
 62
   250
420
  2301728
100
AcDbMText
 10
7.640050729115804
 20
-7.089348793029785
 30
0.0
 40
0.118
 41
0.0
 46
0.0
 71
     7
 72
     1
  1
\fHelvetica Neue LT Std 57 Condensed|b0|i0|c0|p34;\W1;30˚
 73
     1
 44
1.0
  0
MTEXT
  5
EF
330
1F
100
AcDbEntity
  8
callout
 62
   250
420
  2301728
100
AcDbMText
 10
9.035270664427015
 20
-6.927141984303792
 30
0.0
 40
0.118
 41
0.0
 46
0.0
 71
     7
 72
     1
  1
\fHelvetica Neue LT Std 57 Condensed|b0|i0|c0|p34;\W1;0˚
 73
     1
 44
1.0
  0
MTEXT
  5
F0
330
1F
100
AcDbEntity
  8
callout
 62
   250
420
  2301728
100
AcDbMText
 10
10.42607198821174
 20
-9.023991213904486
 30
0.0
 40
0.118
 41
0.0
 46
0.0
 71
     7
 72
     1
  1
\fHelvetica Neue LT Std 57 Condensed|b0|i0|c0|p34;\W1;70mm
 73
     1
 44
1.0
  0
POLYLINE
  5
F1
330
1F
100
AcDbEntity
  8
callout
 62
   250
420
  2301728
370
    25
100
AcDb2dPolyline
 66
     1
 10
0.0
 20
0.0
 30
0.0
  0
VERTEX
  5
F2
330
F1
100
AcDbEntity
  8
callout
 62
   250
420
  2301728
370
    25
100
AcDbVertex
100
AcDb2dVertex
 10
10.19932338719365
 20
-8.414014307151799
 30
0.0
  0
VERTEX
  5
F3
330
F1
100
AcDbEntity
  8
callout
 62
   250
420
  2301728
370
    25
100
AcDbVertex
100
AcDb2dVertex
 10
10.46649445265959
 20
-8.414014307151799
 30
0.0
  0
SEQEND
  5
F4
330
F1
100
AcDbEntity
  8
callout
 62
   250
420
  2301728
370
    25
  0
POLYLINE
  5
F5
330
1F
100
AcDbEntity
  8
callout
 62
   250
420
  2301728
370
    25
100
AcDb2dPolyline
 66
     1
 10
0.0
 20
0.0
 30
0.0
  0
VERTEX
  5
F6
330
F5
100
AcDbEntity
  8
callout
 62
   250
420
  2301728
370
    25
100
AcDbVertex
100
AcDb2dVertex
 10
9.200267067983885
 20
-9.49103718071102
 30
0.0
  0
VERTEX
  5
F7
330
F5
100
AcDbEntity
  8
callout
 62
   250
420
  2301728
370
    25
100
AcDbVertex
100
AcDb2dVertex
 10
10.46649445265959
 20
-9.49103718071102
 30
0.0
  0
SEQEND
  5
F8
330
F5
100
AcDbEntity
  8
callout
 62
   250
420
  2301728
370
    25
  0
POLYLINE
  5
F9
330
1F
100
AcDbEntity
  8
callout
 62
   250
420
  2301728
370
    25
100
AcDb2dPolyline
 66
     1
 10
0.0
 20
0.0
 30
0.0
  0
VERTEX
  5
FA
330
F9
100
AcDbEntity
  8
callout
 62
   250
420
  2301728
370
    25
100
AcDbVertex
100
AcDb2dVertex
 10
10.32990762002853
 20
-8.416336599083996
 30
0.0
  0
VERTEX
  5
FB
330
F9
100
AcDbEntity
  8
callout
 62
   250
420
  2301728
370
    25
100
AcDbVertex
100
AcDb2dVertex
 10
10.32990762002853
 20
-9.49103718071102
 30
0.0
  0
SEQEND
  5
FC
330
F9
100
AcDbEntity
  8
callout
 62
   250
420
  2301728
370
    25
  0
MTEXT
  5
FD
330
1F
100
AcDbEntity
  8
callout
 62
   250
420
  2301728
100
AcDbMText
 10
9.432840122116936
 20
-6.839176760779487
 30
0.0
 40
0.118
 41
0.0
 46
0.0
 71
     7
 72
     1
  1
\fHelvetica Neue LT Std 57 Condensed|b0|i0|c0|p34;\W1;35mm Capping Plate
 73
     1
 44
1.0
  0
POLYLINE
  5
FE
330
1F
100
AcDbEntity
  8
callout
 62
   250
420
  2301728
370
    25
100
AcDb2dPolyline
 66
     1
 10
0.0
 20
0.0
 30
0.0
  0
VERTEX
  5
FF
330
FE
100
AcDbEntity
  8
callout
 62
   250
420
  2301728
370
    25
100
AcDbVertex
100
AcDb2dVertex
 10
9.173894351166204
 20
-7.604136030431619
 30
0.0
  0
VERTEX
  5
100
330
FE
100
AcDbEntity
  8
callout
 62
   250
420
  2301728
370
    25
100
AcDbVertex
100
AcDb2dVertex
 10
9.321628905018088
 20
-6.782105540101636
 30
0.0
  0
VERTEX
  5
101
330
FE
100
AcDbEntity
  8
callout
 62
   250
420
  2301728
370
    25
100
AcDbVertex
100
AcDb2dVertex
 10
9.404301913910153
 20
-6.782105540101636
 30
0.0
  0
SEQEND
  5
102
330
FE
100
AcDbEntity
  8
callout
 62
   250
420
  2301728
370
    25
  0
MTEXT
  5
103
330
1F
100
AcDbEntity
  8
callout
 62
   250
420
  2301728
100
AcDbMText
 10
9.693460239304436
 20
-7.066844675276014
 30
0.0
 40
0.118
 41
0.0
 46
0.0
 71
     7
 72
     1
  1
\fHelvetica Neue LT Std 57 Condensed|b0|i0|c0|p34;\W1;45mm Top Plate
 73
     1
 44
1.0
  0
MTEXT
  5
104
330
1F
100
AcDbEntity
  8
callout
 62
   250
420
  2301728
100
AcDbMText
 10
11.0137382613288
 20
-6.944599522484673
 30
0.0
 40
0.118
 41
0.0
 46
0.0
 71
     7
 72
     1
  1
\fHelvetica Neue LT Std 57 Condensed|b0|i0|c0|p34;\W1;Main Members
 73
     1
 44
1.0
  0
MTEXT
  5
105
330
1F
100
AcDbEntity
  8
callout
 62
   250
420
  2301728
100
AcDbMText
 10
7.157964918348524
 20
-10.09128587113486
 30
0.0
 40
0.118
 41
0.0
 46
0.0
 71
     7
 72
     1
  1
\fHelvetica Neue LT Std 57 Condensed|b0|i0|c0|p34;\W1;45mm Stud
 73
     1
 44
1.0
  0
MTEXT
  5
106
330
1F
100
AcDbEntity
  8
callout
 62
   250
420
  2301728
100
AcDbMText
 10
7.157964918348524
 20
-10.25795253780153
 30
0.0
 40
0.118
 41
0.0
 46
0.0
 71
     7
 72
     1
  1
\fHelvetica Neue LT Std 57 Condensed|b0|i0|c0|p34;\W1;(Side Member)
 73
     1
 44
1.0
  0
POLYLINE
  5
107
330
1F
100
AcDbEntity
  8
callout
 62
   250
420
  2301728
370
    25
100
AcDb2dPolyline
 66
     1
 10
0.0
 20
0.0
 30
0.0
  0
VERTEX
  5
108
330
107
100
AcDbEntity
  8
callout
 62
   250
420
  2301728
370
    25
100
AcDbVertex
100
AcDb2dVertex
 10
9.664920808130974
 20
-7.009772636310496
 30
0.0
  0
VERTEX
  5
109
330
107
100
AcDbEntity
  8
callout
 62
   250
420
  2301728
370
    25
100
AcDbVertex
100
AcDb2dVertex
 10
9.471136688127848
 20
-7.009772636310496
 30
0.0
  0
VERTEX
  5
10A
330
107
100
AcDbEntity
  8
callout
 62
   250
420
  2301728
370
    25
100
AcDbVertex
100
AcDb2dVertex
 10
9.323402134275915
 20
-8.12346979330717
 30
0.0
  0
SEQEND
  5
10B
330
107
100
AcDbEntity
  8
callout
 62
   250
420
  2301728
370
    25
  0
POLYLINE
  5
10C
330
1F
100
AcDbEntity
  8
callout
 62
   250
420
  2301728
370
    25
100
AcDb2dPolyline
 66
     1
 10
0.0
 20
0.0
 30
0.0
  0
VERTEX
  5
10D
330
10C
100
AcDbEntity
  8
callout
 62
   250
420
  2301728
370
    25
100
AcDbVertex
100
AcDb2dVertex
 10
10.77728992655739
 20
-6.782105540101636
 30
0.0
  0
VERTEX
  5
10E
330
10C
100
AcDbEntity
  8
callout
 62
   250
420
  2301728
370
    25
100
AcDbVertex
100
AcDb2dVertex
 10
10.9627108815368
 20
-6.782105540101636
 30
0.0
  0
VERTEX
  5
10F
330
10C
100
AcDbEntity
  8
callout
 62
   250
420
  2301728
370
    25
100
AcDbVertex
100
AcDb2dVertex
 10
10.9627108815368
 20
-7.010470523043359
 30
0.0
  0
VERTEX
  5
110
330
10C
100
AcDbEntity
  8
callout
 62
   250
420
  2301728
370
    25
100
AcDbVertex
100
AcDb2dVertex
 10
10.77176420269221
 20
-7.010470523043359
 30
0.0
  0
SEQEND
  5
111
330
10C
100
AcDbEntity
  8
callout
 62
   250
420
  2301728
370
    25
  0
POLYLINE
  5
112
330
1F
100
AcDbEntity
  8
callout
 62
   250
420
  2301728
370
    25
100
AcDb2dPolyline
 66
     1
 10
0.0
 20
0.0
 30
0.0
  0
VERTEX
  5
113
330
112
100
AcDbEntity
  8
callout
 62
   250
420
  2301728
370
    25
100
AcDbVertex
100
AcDb2dVertex
 10
8.135358519846578
 20
-10.09233256354047
 30
0.0
  0
VERTEX
  5
114
330
112
100
AcDbEntity
  8
callout
 62
   250
420
  2301728
370
    25
100
AcDbVertex
100
AcDb2dVertex
 10
8.478770991319442
 20
-10.09233256354047
 30
0.0
  0
SEQEND
  5
115
330
112
100
AcDbEntity
  8
callout
 62
   250
420
  2301728
370
    25
  0
MTEXT
  5
116
330
1F
100
AcDbEntity
  8
callout
 62
   250
420
  2301728
100
AcDbMText
 10
9.250982483228047
 20
-9.806102487776014
 30
0.0
 40
0.0786666666666667
 41
0.0
 46
0.0
 71
     7
 72
     1
  1
\fHelvetica Neue LT Std 47 Light Condensed|b0|i0|c0|p34;\W1;When using two fasteners, the total capacity is increased to:
 73
     1
 44
1.0
  0
MTEXT
  5
117
330
1F
100
AcDbEntity
  8
callout
 62
   250
420
  2301728
100
AcDbMText
 10
9.250982483228047
 20
-9.917213598887125
 30
0.0
 40
0.0786666666666667
 41
0.0
 46
0.0
 71
     7
 72
     1
  1
\fHelvetica Neue LT Std 47 Light Condensed|b0|i0|c0|p34;\W1;• Double the shear value of a single screw
 73
     1
 44
1.0
  0
MTEXT
  5
118
330
1F
100
AcDbEntity
  8
callout
 62
   250
420
  2301728
100
AcDbMText
 10
9.250982483228047
 20
-10.02832470999824
 30
0.0
 40
0.0786666666666667
 41
0.0
 46
0.0
 71
     7
 72
     1
  1
\fHelvetica Neue LT Std 47 Light Condensed|b0|i0|c0|p34;\W1;• 1½ the uplift value of a single screw (ie. 2 x single screw      ^I
 73
     1
 44
1.0
  0
MTEXT
  5
119
330
1F
100
AcDbEntity
  8
callout
 62
   250
420
  2301728
100
AcDbMText
 10
9.250982483228047
 20
-10.13943582110935
 30
0.0
 40
0.0786666666666667
 41
0.0
 46
0.0
 71
     7
 72
     1
  1
\fHelvetica Neue LT Std 47 Light Condensed|b0|i0|c0|p34;\W1;^Icapacity reduced by 0.75 factor)
 73
     1
 44
1.0
  0
MTEXT
  5
11A
330
1F
100
AcDbEntity
  8
callout
 62
   250
420
  2301728
100
AcDbMText
 10
7.248451895183987
 20
-9.344071626663208
 30
0.0
 40
0.118
 41
0.0
 46
0.0
 71
     7
 72
     1
  1
\fHelvetica Neue LT Std 57 Condensed|b0|i0|c0|p34;\W1;SDWC15600
 73
     1
 44
1.0
  0
POLYLINE
  5
11B
330
1F
100
AcDbEntity
  8
callout
 62
   250
420
  2301728
370
    25
100
AcDb2dPolyline
 66
     1
 10
0.0
 20
0.0
 30
0.0
  0
VERTEX
  5
11C
330
11B
100
AcDbEntity
  8
callout
 62
   250
420
  2301728
370
    25
100
AcDbVertex
100
AcDb2dVertex
 10
8.135358519846578
 20
-9.247677266722196
 30
0.0
  0
VERTEX
  5
11D
330
11B
100
AcDbEntity
  8
callout
 62
   250
420
  2301728
370
    25
100
AcDbVertex
100
AcDb2dVertex
 10
8.714550340825957
 20
-8.631842941020698
 30
0.0
  0
SEQEND
  5
11E
330
11B
100
AcDbEntity
  8
callout
 62
   250
420
  2301728
370
    25
  0
MTEXT
  5
11F
330
1F
100
AcDbEntity
  8
callout
 62
   250
420
  2301728
100
AcDbMText
 10
8.031906922658283
 20
-11.08390151129828
 30
0.0
 40
0.118
 41
0.0
 46
0.0
 71
     7
 72
     1
  1
\fHelvetica Neue LT Std 55 Roman|b0|i0|c0|p34;\W1;SIMPSON Strong-Tie\H0.068794;®\H0.118; ^C
 73
     1
 44
1.0
  0
MTEXT
  5
120
330
1F
100
AcDbEntity
  8
callout
 62
   250
420
  2301728
100
AcDbMText
 10
7.505872037675645
 20
-11.28389337327745
 30
0.0
 40
0.118
 41
0.0
 46
0.0
 71
     7
 72
     1
  1
\fHelvetica Neue LT Std 55 Roman|b0|i0|c0|p34;\W1;SDWC Stud-to-Top Plate Installation 
 73
     1
 44
1.0
  0
ENDSEC
  0
SECTION
  2
OBJECTS
  0
DICTIONARY
  5
C
330
0
100
AcDbDictionary
281
     1
  3
ACAD_GROUP
350
D
  3
ACAD_LAYOUT
350
1A
  3
ACAD_MATERIAL
350
3B
  3
ACAD_MLEADERSTYLE
350
122
  3
ACAD_MLINESTYLE
350
17
  3
ACAD_PLOTSETTINGS
350
19
  3
ACAD_PLOTSTYLENAME
350
E
  3
ACAD_TABLESTYLE
350
121
  3
ACAD_VISUALSTYLE
350
2A
  0
SUN
  5
3F
330
29
100
AcDbSun
 90
        1
290
     0
 63
     7
421
 16777215
 40
1.0
291
     1
 91
  2455826
 92
 54000000
292
     0
 70
     2
 71
   256
280
     1
  0
DICTIONARY
  5
D
102
{ACAD_REACTORS
330
C
102
}
330
C
100
AcDbDictionary
281
     1
  0
DICTIONARY
  5
1A
102
{ACAD_REACTORS
330
C
102
}
330
C
100
AcDbDictionary
281
     1
  3
Layout1
350
1E
  3
Layout2
350
26
  3
Model
350
22
  0
DICTIONARY
  5
3B
102
{ACAD_REACTORS
330
C
102
}
330
C
100
AcDbDictionary
281
     1
  3
ByBlock
350
3D
  3
ByLayer
350
3C
  3
Global
350
3E
  0
DICTIONARY
  5
122
102
{ACAD_REACTORS
330
C
102
}
330
C
100
AcDbDictionary
281
     1
  0
DICTIONARY
  5
17
102
{ACAD_REACTORS
330
C
102
}
330
C
100
AcDbDictionary
281
     1
  3
Standard
350
18
  0
DICTIONARY
  5
19
102
{ACAD_REACTORS
330
C
102
}
330
C
100
AcDbDictionary
281
     1
  0
ACDBDICTIONARYWDFLT
  5
E
102
{ACAD_REACTORS
330
C
102
}
330
C
100
AcDbDictionary
281
     1
  3
Normal
350
F
100
AcDbDictionaryWithDefault
340
F
  0
DICTIONARY
  5
121
102
{ACAD_REACTORS
330
C
102
}
330
C
100
AcDbDictionary
281
     1
  0
DICTIONARY
  5
2A
102
{ACAD_REACTORS
330
C
102
}
330
C
100
AcDbDictionary
281
     1
  3
2dWireframe
350
2F
  3
3D Hidden
350
31
  3
3dWireframe
350
30
  3
Basic
350
32
  3
Brighten
350
36
  3
ColorChange
350
3A
  3
Conceptual
350
34
  3
Dim
350
35
  3
Facepattern
350
39
  3
Flat
350
2B
  3
FlatWithEdges
350
2C
  3
Gouraud
350
2D
  3
GouraudWithEdges
350
2E
  3
Linepattern
350
38
  3
Realistic
350
33
  3
Thicken
350
37
  0
LAYOUT
  5
1E
102
{ACAD_REACTORS
330
1A
102
}
330
1A
100
AcDbPlotSettings
  1

  2
none_device
  4

  6

 40
0.0
 41
0.0
 42
0.0
 43
0.0
 44
0.0
 45
0.0
 46
0.0
 47
0.0
 48
0.0
 49
0.0
140
0.0
141
0.0
142
1.0
143
1.0
 70
   688
 72
     0
 73
     0
 74
     5
  7

 75
    16
 76
     0
 77
     2
 78
   300
147
1.0
148
0.0
149
0.0
100
AcDbLayout
  1
Layout1
 70
     1
 71
     1
 10
0.0
 20
0.0
 11
12.0
 21
9.0
 12
0.0
 22
0.0
 32
0.0
 14
1.000000000000000E+20
 24
1.000000000000000E+20
 34
1.000000000000000E+20
 15
-1.000000000000000E+20
 25
-1.000000000000000E+20
 35
-1.000000000000000E+20
146
0.0
 13
0.0
 23
0.0
 33
0.0
 16
1.0
 26
0.0
 36
0.0
 17
0.0
 27
1.0
 37
0.0
 76
     0
330
1B
  0
LAYOUT
  5
26
102
{ACAD_REACTORS
330
1A
102
}
330
1A
100
AcDbPlotSettings
  1

  2
none_device
  4

  6

 40
0.0
 41
0.0
 42
0.0
 43
0.0
 44
0.0
 45
0.0
 46
0.0
 47
0.0
 48
0.0
 49
0.0
140
0.0
141
0.0
142
1.0
143
1.0
 70
   688
 72
     0
 73
     0
 74
     5
  7

 75
    16
 76
     0
 77
     2
 78
   300
147
1.0
148
0.0
149
0.0
100
AcDbLayout
  1
Layout2
 70
     1
 71
     2
 10
0.0
 20
0.0
 11
0.0
 21
0.0
 12
0.0
 22
0.0
 32
0.0
 14
0.0
 24
0.0
 34
0.0
 15
0.0
 25
0.0
 35
0.0
146
0.0
 13
0.0
 23
0.0
 33
0.0
 16
1.0
 26
0.0
 36
0.0
 17
0.0
 27
1.0
 37
0.0
 76
     0
330
23
  0
LAYOUT
  5
22
102
{ACAD_REACTORS
330
1A
102
}
330
1A
100
AcDbPlotSettings
  1

  2
none_device
  4

  6

 40
0.0
 41
0.0
 42
0.0
 43
0.0
 44
0.0
 45
0.0
 46
0.0
 47
0.0
 48
0.0
 49
0.0
140
0.0
141
0.0
142
1.0
143
1.0
 70
  1712
 72
     0
 73
     0
 74
     0
  7

 75
     0
 76
     0
 77
     2
 78
   300
147
1.0
148
0.0
149
0.0
100
AcDbLayout
  1
Model
 70
     1
 71
     0
 10
0.0
 20
0.0
 11
12.0
 21
9.0
 12
0.0
 22
0.0
 32
0.0
 14
1.000000000000000E+20
 24
1.000000000000000E+20
 34
1.000000000000000E+20
 15
-1.000000000000000E+20
 25
-1.000000000000000E+20
 35
-1.000000000000000E+20
146
0.0
 13
0.0
 23
0.0
 33
0.0
 16
1.0
 26
0.0
 36
0.0
 17
0.0
 27
1.0
 37
0.0
 76
     0
330
1F
331
29
  0
MATERIAL
  5
3D
102
{ACAD_REACTORS
330
3B
102
}
330
3B
100
AcDbMaterial
  1
ByBlock
 72
     1
 94
      127
  0
MATERIAL
  5
3C
102
{ACAD_REACTORS
330
3B
102
}
330
3B
100
AcDbMaterial
  1
ByLayer
 72
     1
 94
      127
  0
MATERIAL
  5
3E
102
{ACAD_REACTORS
330
3B
102
}
330
3B
100
AcDbMaterial
  1
Global
 72
     1
 94
      127
  0
MLINESTYLE
  5
18
102
{ACAD_REACTORS
330
17
102
}
330
17
100
AcDbMlineStyle
  2
Standard
 70
     0
  3

 62
   256
 51
90.0
 52
90.0
 71
     2
 49
0.5
 62
   256
  6
BYLAYER
 49
-0.5
 62
   256
  6
BYLAYER
  0
ACDBPLACEHOLDER
  5
F
102
{ACAD_REACTORS
330
E
102
}
330
E
  0
VISUALSTYLE
  5
2F
102
{ACAD_REACTORS
330
2A
102
}
330
2A
100
AcDbVisualStyle
  2
2dWireframe
 70
     4
177
     2
291
     0
 71
     0
176
     1
 72
     2
176
     1
 73
     0
176
     1
 90
        0
176
     1
 40
-0.6
176
     1
 41
-30.0
176
     1
 62
     5
 63
     7
421
 16777215
176
     1
 74
     1
176
     1
 91
        4
176
     1
 64
     7
176
     1
 65
   257
176
     1
 75
     1
176
     1
175
     1
176
     1
 42
1.0
176
     1
 92
        0
176
     1
 66
   257
176
     1
 43
1.0
176
     1
 76
     1
176
     1
 77
     6
176
     1
 78
     2
176
     1
 67
     7
176
     1
 79
     5
176
     1
170
     0
176
     1
171
     0
176
     1
290
     0
176
     1
 93
        1
176
     1
 44
0.0
176
     1
173
     0
176
     1
  0
VISUALSTYLE
  5
31
102
{ACAD_REACTORS
330
2A
102
}
330
2A
100
AcDbVisualStyle
  2
3D Hidden
 70
     6
177
     2
291
     0
 71
     1
176
     1
 72
     2
176
     1
 73
     2
176
     1
 90
        0
176
     1
 40
-0.6
176
     1
 41
-30.0
176
     1
 62
     5
 63
     7
421
 16777215
176
     1
 74
     2
176
     1
 91
        2
176
     1
 64
     7
176
     1
 65
   257
176
     1
 75
     2
176
     1
175
     1
176
     1
 42
40.0
176
     1
 92
        0
176
     1
 66
   257
176
     1
 43
1.0
176
     1
 76
     1
176
     1
 77
     6
176
     1
 78
     2
176
     1
 67
     7
176
     1
 79
     3
176
     1
170
     0
176
     1
171
     0
176
     1
290
     0
176
     1
 93
        1
176
     1
 44
0.0
176
     1
173
     0
176
     1
  0
VISUALSTYLE
  5
30
102
{ACAD_REACTORS
330
2A
102
}
330
2A
100
AcDbVisualStyle
  2
3dWireframe
 70
     5
177
     2
291
     0
 71
     0
176
     1
 72
     2
176
     1
 73
     0
176
     1
 90
        0
176
     1
 40
-0.6
176
     1
 41
-30.0
176
     1
 62
     5
 63
     7
421
 16777215
176
     1
 74
     1
176
     1
 91
        4
176
     1
 64
     7
176
     1
 65
   257
176
     1
 75
     1
176
     1
175
     1
176
     1
 42
1.0
176
     1
 92
        0
176
     1
 66
   257
176
     1
 43
1.0
176
     1
 76
     1
176
     1
 77
     6
176
     1
 78
     2
176
     1
 67
     7
176
     1
 79
     5
176
     1
170
     0
176
     1
171
     0
176
     1
290
     0
176
     1
 93
        1
176
     1
 44
0.0
176
     1
173
     0
176
     1
  0
VISUALSTYLE
  5
32
102
{ACAD_REACTORS
330
2A
102
}
330
2A
100
AcDbVisualStyle
  2
Basic
 70
     7
177
     2
291
     1
 71
     1
176
     1
 72
     0
176
     1
 73
     1
176
     1
 90
        0
176
     1
 40
-0.6
176
     1
 41
-30.0
176
     1
 62
     5
 63
     7
421
 16777215
176
     1
 74
     0
176
     1
 91
        4
176
     1
 64
     7
176
     1
 65
   257
176
     1
 75
     1
176
     1
175
     1
176
     1
 42
1.0
176
     1
 92
        8
176
     1
 66
     7
176
     1
 43
1.0
176
     1
 76
     1
176
     1
 77
     6
176
     1
 78
     2
176
     1
 67
     7
176
     1
 79
     5
176
     1
170
     0
176
     1
171
     0
176
     1
290
     0
176
     1
 93
        1
176
     1
 44
0.0
176
     1
173
     0
176
     1
  0
VISUALSTYLE
  5
36
102
{ACAD_REACTORS
330
2A
102
}
330
2A
100
AcDbVisualStyle
  2
Brighten
 70
    12
177
     2
291
     1
 71
     2
176
     1
 72
     2
176
     1
 73
     0
176
     1
 90
        0
176
     1
 40
-0.6
176
     1
 41
-30.0
176
     1
 62
     5
 63
     7
421
 16777215
176
     1
 74
     1
176
     1
 91
        4
176
     1
 64
     7
176
     1
 65
   257
176
     1
 75
     1
176
     1
175
     1
176
     1
 42
1.0
176
     1
 92
        8
176
     1
 66
     7
176
     1
 43
1.0
176
     1
 76
     1
176
     1
 77
     6
176
     1
 78
     2
176
     1
 67
     7
176
     1
 79
     5
176
     1
170
     0
176
     1
171
     0
176
     1
290
     0
176
     1
 93
        1
176
     1
 44
50.0
176
     1
173
     0
176
     1
  0
VISUALSTYLE
  5
3A
102
{ACAD_REACTORS
330
2A
102
}
330
2A
100
AcDbVisualStyle
  2
ColorChange
 70
    16
177
     2
291
     1
 71
     2
176
     1
 72
     2
176
     1
 73
     3
176
     1
 90
        0
176
     1
 40
-0.6
176
     1
 41
-30.0
176
     1
 62
     5
 63
     8
421
  8421504
176
     1
 74
     1
176
     1
 91
        4
176
     1
 64
     7
176
     1
 65
   257
176
     1
 75
     1
176
     1
175
     1
176
     1
 42
1.0
176
     1
 92
        8
176
     1
 66
     8
424
  8421504
176
     1
 43
1.0
176
     1
 76
     1
176
     1
 77
     6
176
     1
 78
     2
176
     1
 67
     7
176
     1
 79
     5
176
     1
170
     0
176
     1
171
     0
176
     1
290
     0
176
     1
 93
        1
176
     1
 44
0.0
176
     1
173
     0
176
     1
  0
VISUALSTYLE
  5
34
102
{ACAD_REACTORS
330
2A
102
}
330
2A
100
AcDbVisualStyle
  2
Conceptual
 70
     9
177
     2
291
     0
 71
     3
176
     1
 72
     2
176
     1
 73
     0
176
     1
 90
        0
176
     1
 40
-0.6
176
     1
 41
-30.0
176
     1
 62
     5
 63
     7
421
 16777215
176
     1
 74
     2
176
     1
 91
        2
176
     1
 64
     7
176
     1
 65
   257
176
     1
 75
     1
176
     1
175
     1
176
     1
 42
40.0
176
     1
 92
        8
176
     1
 66
     7
176
     1
 43
1.0
176
     1
 76
     1
176
     1
 77
     6
176
     1
 78
     2
176
     1
 67
     7
176
     1
 79
     3
176
     1
170
     0
176
     1
171
     0
176
     1
290
     0
176
     1
 93
        1
176
     1
 44
0.0
176
     1
173
     0
176
     1
  0
VISUALSTYLE
  5
35
102
{ACAD_REACTORS
330
2A
102
}
330
2A
100
AcDbVisualStyle
  2
Dim
 70
    11
177
     2
291
     1
 71
     2
176
     1
 72
     2
176
     1
 73
     0
176
     1
 90
        0
176
     1
 40
-0.6
176
     1
 41
-30.0
176
     1
 62
     5
 63
     7
421
 16777215
176
     1
 74
     1
176
     1
 91
        4
176
     1
 64
     7
176
     1
 65
   257
176
     1
 75
     1
176
     1
175
     1
176
     1
 42
1.0
176
     1
 92
        8
176
     1
 66
     7
176
     1
 43
1.0
176
     1
 76
     1
176
     1
 77
     6
176
     1
 78
     2
176
     1
 67
     7
176
     1
 79
     5
176
     1
170
     0
176
     1
171
     0
176
     1
290
     0
176
     1
 93
        1
176
     1
 44
-50.0
176
     1
173
     0
176
     1
  0
VISUALSTYLE
  5
39
102
{ACAD_REACTORS
330
2A
102
}
330
2A
100
AcDbVisualStyle
  2
Facepattern
 70
    15
177
     2
291
     1
 71
     2
176
     1
 72
     2
176
     1
 73
     0
176
     1
 90
        0
176
     1
 40
-0.6
176
     1
 41
-30.0
176
     1
 62
     5
 63
     7
421
 16777215
176
     1
 74
     1
176
     1
 91
        4
176
     1
 64
     7
176
     1
 65
   257
176
     1
 75
     1
176
     1
175
     1
176
     1
 42
1.0
176
     1
 92
        8
176
     1
 66
     7
176
     1
 43
1.0
176
     1
 76
     1
176
     1
 77
     6
176
     1
 78
     2
176
     1
 67
     7
176
     1
 79
     5
176
     1
170
     0
176
     1
171
     0
176
     1
290
     0
176
     1
 93
        1
176
     1
 44
0.0
176
     1
173
     0
176
     1
  0
VISUALSTYLE
  5
2B
102
{ACAD_REACTORS
330
2A
102
}
330
2A
100
AcDbVisualStyle
  2
Flat
 70
     0
177
     2
291
     1
 71
     2
176
     1
 72
     1
176
     1
 73
     1
176
     1
 90
        2
176
     1
 40
-0.6
176
     1
 41
30.0
176
     1
 62
     5
 63
     7
421
 16777215
176
     1
 74
     0
176
     1
 91
        4
176
     1
 64
     7
176
     1
 65
   257
176
     1
 75
     1
176
     1
175
     1
176
     1
 42
1.0
176
     1
 92
        8
176
     1
 66
     7
176
     1
 43
1.0
176
     1
 76
     1
176
     1
 77
     6
176
     1
 78
     2
176
     1
 67
     7
176
     1
 79
     5
176
     1
170
     0
176
     1
171
     0
176
     1
290
     0
176
     1
 93
       13
176
     1
 44
0.0
176
     1
173
     0
176
     1
  0
VISUALSTYLE
  5
2C
102
{ACAD_REACTORS
330
2A
102
}
330
2A
100
AcDbVisualStyle
  2
FlatWithEdges
 70
     1
177
     2
291
     1
 71
     2
176
     1
 72
     1
176
     1
 73
     1
176
     1
 90
        2
176
     1
 40
-0.6
176
     1
 41
30.0
176
     1
 62
     5
 63
     7
421
 16777215
176
     1
 74
     1
176
     1
 91
        4
176
     1
 64
     7
176
     1
 65
   257
176
     1
 75
     1
176
     1
175
     1
176
     1
 42
1.0
176
     1
 92
        0
176
     1
 66
   257
176
     1
 43
1.0
176
     1
 76
     1
176
     1
 77
     6
176
     1
 78
     2
176
     1
 67
     7
176
     1
 79
     5
176
     1
170
     0
176
     1
171
     0
176
     1
290
     0
176
     1
 93
       13
176
     1
 44
0.0
176
     1
173
     0
176
     1
  0
VISUALSTYLE
  5
2D
102
{ACAD_REACTORS
330
2A
102
}
330
2A
100
AcDbVisualStyle
  2
Gouraud
 70
     2
177
     2
291
     1
 71
     2
176
     1
 72
     2
176
     1
 73
     1
176
     1
 90
        2
176
     1
 40
-0.6
176
     1
 41
30.0
176
     1
 62
     5
 63
     7
421
 16777215
176
     1
 74
     0
176
     1
 91
        4
176
     1
 64
     7
176
     1
 65
   257
176
     1
 75
     1
176
     1
175
     1
176
     1
 42
1.0
176
     1
 92
        0
176
     1
 66
     7
176
     1
 43
1.0
176
     1
 76
     1
176
     1
 77
     6
176
     1
 78
     2
176
     1
 67
     7
176
     1
 79
     5
176
     1
170
     0
176
     1
171
     0
176
     1
290
     0
176
     1
 93
       13
176
     1
 44
0.0
176
     1
173
     0
176
     1
  0
VISUALSTYLE
  5
2E
102
{ACAD_REACTORS
330
2A
102
}
330
2A
100
AcDbVisualStyle
  2
GouraudWithEdges
 70
     3
177
     2
291
     1
 71
     2
176
     1
 72
     2
176
     1
 73
     1
176
     1
 90
        2
176
     1
 40
-0.6
176
     1
 41
30.0
176
     1
 62
     5
 63
     7
421
 16777215
176
     1
 74
     1
176
     1
 91
        4
176
     1
 64
     7
176
     1
 65
   257
176
     1
 75
     1
176
     1
175
     1
176
     1
 42
1.0
176
     1
 92
        0
176
     1
 66
   257
176
     1
 43
1.0
176
     1
 76
     1
176
     1
 77
     6
176
     1
 78
     2
176
     1
 67
     7
176
     1
 79
     5
176
     1
170
     0
176
     1
171
     0
176
     1
290
     0
176
     1
 93
       13
176
     1
 44
0.0
176
     1
173
     0
176
     1
  0
VISUALSTYLE
  5
38
102
{ACAD_REACTORS
330
2A
102
}
330
2A
100
AcDbVisualStyle
  2
Linepattern
 70
    14
177
     2
291
     1
 71
     2
176
     1
 72
     2
176
     1
 73
     0
176
     1
 90
        0
176
     1
 40
-0.6
176
     1
 41
-30.0
176
     1
 62
     5
 63
     7
421
 16777215
176
     1
 74
     1
176
     1
 91
        4
176
     1
 64
     7
176
     1
 65
   257
176
     1
 75
     7
176
     1
175
     7
176
     1
 42
1.0
176
     1
 92
        8
176
     1
 66
     7
176
     1
 43
1.0
176
     1
 76
     1
176
     1
 77
     6
176
     1
 78
     2
176
     1
 67
     7
176
     1
 79
     5
176
     1
170
     0
176
     1
171
     0
176
     1
290
     0
176
     1
 93
        1
176
     1
 44
0.0
176
     1
173
     0
176
     1
  0
VISUALSTYLE
  5
33
102
{ACAD_REACTORS
330
2A
102
}
330
2A
100
AcDbVisualStyle
  2
Realistic
 70
     8
177
     2
291
     0
 71
     2
176
     1
 72
     2
176
     1
 73
     0
176
     1
 90
        0
176
     1
 40
-0.6
176
     1
 41
-30.0
176
     1
 62
     5
 63
     7
421
 16777215
176
     1
 74
     1
176
     1
 91
        0
176
     1
 64
     7
176
     1
 65
   257
176
     1
 75
     1
176
     1
175
     1
176
     1
 42
1.0
176
     1
 92
        8
176
     1
 66
     8
424
  7895160
176
     1
 43
1.0
176
     1
 76
     1
176
     1
 77
     6
176
     1
 78
     2
176
     1
 67
     7
176
     1
 79
     5
176
     1
170
     0
176
     1
171
     0
176
     1
290
     0
176
     1
 93
       13
176
     1
 44
0.0
176
     1
173
     0
176
     1
  0
VISUALSTYLE
  5
37
102
{ACAD_REACTORS
330
2A
102
}
330
2A
100
AcDbVisualStyle
  2
Thicken
 70
    13
177
     2
291
     1
 71
     2
176
     1
 72
     2
176
     1
 73
     0
176
     1
 90
        0
176
     1
 40
-0.6
176
     1
 41
-30.0
176
     1
 62
     5
 63
     7
421
 16777215
176
     1
 74
     1
176
     1
 91
        4
176
     1
 64
     7
176
     1
 65
   257
176
     1
 75
     1
176
     1
175
     1
176
     1
 42
1.0
176
     1
 92
       12
176
     1
 66
     7
176
     1
 43
1.0
176
     1
 76
     1
176
     1
 77
     6
176
     1
 78
     2
176
     1
 67
     7
176
     1
 79
     5
176
     1
170
     0
176
     1
171
     0
176
     1
290
     0
176
     1
 93
        1
176
     1
 44
0.0
176
     1
173
     0
176
     1
  0
ENDSEC
  0
EOF
