  0
SECTION
  2
HEADER
  9
$ACADVER
  1
AC1024
  9
$ACADMAINTVER
 70
     6
  9
$DWGCODEPAGE
  3
ANSI_1252
  9
$INSBASE
 10
0.0
 20
0.0
 30
0.0
  9
$EXTMIN
 10
1.000000000000000E+20
 20
1.000000000000000E+20
 30
1.000000000000000E+20
  9
$EXTMAX
 10
-1.000000000000000E+20
 20
-1.000000000000000E+20
 30
-1.000000000000000E+20
  9
$LIMMIN
 10
0.0
 20
0.0
  9
$LIMMAX
 10
12.0
 20
9.0
  9
$ORTHOMODE
 70
     0
  9
$REGENMODE
 70
     1
  9
$FILLMODE
 70
     1
  9
$QTEXTMODE
 70
     0
  9
$MIRRTEXT
 70
     1
  9
$LTSCALE
 40
1.0
  9
$ATTMODE
 70
     1
  9
$TEXTSIZE
 40
0.2
  9
$TRACEWID
 40
0.05
  9
$TEXTSTYLE
  7
Standard
  9
$CLAYER
  8
0
  9
$CELTYPE
  6
ByLayer
  9
$CECOLOR
 62
   256
  9
$CELTSCALE
 40
1.0
  9
$DISPSILH
 70
     0
  9
$DIMSCALE
 40
1.0
  9
$DIMASZ
 40
0.18
  9
$DIMEXO
 40
0.0625
  9
$DIMDLI
 40
0.38
  9
$DIMRND
 40
0.0
  9
$DIMDLE
 40
0.0
  9
$DIMEXE
 40
0.18
  9
$DIMTP
 40
0.0
  9
$DIMTM
 40
0.0
  9
$DIMTXT
 40
0.18
  9
$DIMCEN
 40
0.09
  9
$DIMTSZ
 40
0.0
  9
$DIMTOL
 70
     0
  9
$DIMLIM
 70
     0
  9
$DIMTIH
 70
     1
  9
$DIMTOH
 70
     1
  9
$DIMSE1
 70
     0
  9
$DIMSE2
 70
     0
  9
$DIMTAD
 70
     0
  9
$DIMZIN
 70
     0
  9
$DIMBLK
  1

  9
$DIMASO
 70
     1
  9
$DIMSHO
 70
     1
  9
$DIMPOST
  1

  9
$DIMAPOST
  1

  9
$DIMALT
 70
     0
  9
$DIMALTD
 70
     2
  9
$DIMALTF
 40
25.4
  9
$DIMLFAC
 40
1.0
  9
$DIMTOFL
 70
     0
  9
$DIMTVP
 40
0.0
  9
$DIMTIX
 70
     0
  9
$DIMSOXD
 70
     0
  9
$DIMSAH
 70
     0
  9
$DIMBLK1
  1

  9
$DIMBLK2
  1

  9
$DIMSTYLE
  2
Standard
  9
$DIMCLRD
 70
     0
  9
$DIMCLRE
 70
     0
  9
$DIMCLRT
 70
     0
  9
$DIMTFAC
 40
1.0
  9
$DIMGAP
 40
0.09
  9
$DIMJUST
 70
     0
  9
$DIMSD1
 70
     0
  9
$DIMSD2
 70
     0
  9
$DIMTOLJ
 70
     1
  9
$DIMTZIN
 70
     0
  9
$DIMALTZ
 70
     0
  9
$DIMALTTZ
 70
     0
  9
$DIMUPT
 70
     0
  9
$DIMDEC
 70
     4
  9
$DIMTDEC
 70
     4
  9
$DIMALTU
 70
     2
  9
$DIMALTTD
 70
     2
  9
$DIMTXSTY
  7
Standard
  9
$DIMAUNIT
 70
     0
  9
$DIMADEC
 70
     0
  9
$DIMALTRND
 40
0.0
  9
$DIMAZIN
 70
     0
  9
$DIMDSEP
 70
    46
  9
$DIMATFIT
 70
     3
  9
$DIMFRAC
 70
     0
  9
$DIMLDRBLK
  1

  9
$DIMLUNIT
 70
     2
  9
$DIMLWD
 70
    -2
  9
$DIMLWE
 70
    -2
  9
$DIMTMOVE
 70
     0
  9
$DIMFXL
 40
1.0
  9
$DIMFXLON
 70
     0
  9
$DIMJOGANG
 40
0.7853981633974483
  9
$DIMTFILL
 70
     0
  9
$DIMTFILLCLR
 70
     0
  9
$DIMARCSYM
 70
     0
  9
$DIMLTYPE
  6

  9
$DIMLTEX1
  6

  9
$DIMLTEX2
  6

  9
$DIMTXTDIRECTION
 70
     0
  9
$LUNITS
 70
     2
  9
$LUPREC
 70
     4
  9
$SKETCHINC
 40
0.1
  9
$FILLETRAD
 40
0.5
  9
$AUNITS
 70
     0
  9
$AUPREC
 70
     0
  9
$MENU
  1
.
  9
$ELEVATION
 40
0.0
  9
$PELEVATION
 40
0.0
  9
$THICKNESS
 40
0.0
  9
$LIMCHECK
 70
     0
  9
$CHAMFERA
 40
0.5
  9
$CHAMFERB
 40
0.5
  9
$CHAMFERC
 40
1.0
  9
$CHAMFERD
 40
0.0
  9
$SKPOLY
 70
     0
  9
$TDCREATE
 40
2458752.65979059
  9
$TDUCREATE
 40
2458752.15979059
  9
$TDUPDATE
 40
2458752.659790775
  9
$TDUUPDATE
 40
2458752.159790775
  9
$TDINDWG
 40
0.0000000116
  9
$TDUSRTIMER
 40
0.0000000116
  9
$USRTIMER
 70
     1
  9
$ANGBASE
 50
0.0
  9
$ANGDIR
 70
     0
  9
$PDMODE
 70
     0
  9
$PDSIZE
 40
0.0
  9
$PLINEWID
 40
0.0
  9
$SPLFRAME
 70
     0
  9
$SPLINETYPE
 70
     6
  9
$SPLINESEGS
 70
     8
  9
$HANDSEED
  5
3E6
  9
$SURFTAB1
 70
     6
  9
$SURFTAB2
 70
     6
  9
$SURFTYPE
 70
     6
  9
$SURFU
 70
     6
  9
$SURFV
 70
     6
  9
$UCSBASE
  2

  9
$UCSNAME
  2

  9
$UCSORG
 10
0.0
 20
0.0
 30
0.0
  9
$UCSXDIR
 10
1.0
 20
0.0
 30
0.0
  9
$UCSYDIR
 10
0.0
 20
1.0
 30
0.0
  9
$UCSORTHOREF
  2

  9
$UCSORTHOVIEW
 70
     0
  9
$UCSORGTOP
 10
0.0
 20
0.0
 30
0.0
  9
$UCSORGBOTTOM
 10
0.0
 20
0.0
 30
0.0
  9
$UCSORGLEFT
 10
0.0
 20
0.0
 30
0.0
  9
$UCSORGRIGHT
 10
0.0
 20
0.0
 30
0.0
  9
$UCSORGFRONT
 10
0.0
 20
0.0
 30
0.0
  9
$UCSORGBACK
 10
0.0
 20
0.0
 30
0.0
  9
$PUCSBASE
  2

  9
$PUCSNAME
  2

  9
$PUCSORG
 10
0.0
 20
0.0
 30
0.0
  9
$PUCSXDIR
 10
1.0
 20
0.0
 30
0.0
  9
$PUCSYDIR
 10
0.0
 20
1.0
 30
0.0
  9
$PUCSORTHOREF
  2

  9
$PUCSORTHOVIEW
 70
     0
  9
$PUCSORGTOP
 10
0.0
 20
0.0
 30
0.0
  9
$PUCSORGBOTTOM
 10
0.0
 20
0.0
 30
0.0
  9
$PUCSORGLEFT
 10
0.0
 20
0.0
 30
0.0
  9
$PUCSORGRIGHT
 10
0.0
 20
0.0
 30
0.0
  9
$PUCSORGFRONT
 10
0.0
 20
0.0
 30
0.0
  9
$PUCSORGBACK
 10
0.0
 20
0.0
 30
0.0
  9
$USERI1
 70
     0
  9
$USERI2
 70
     0
  9
$USERI3
 70
     0
  9
$USERI4
 70
     0
  9
$USERI5
 70
     0
  9
$USERR1
 40
0.0
  9
$USERR2
 40
0.0
  9
$USERR3
 40
0.0
  9
$USERR4
 40
0.0
  9
$USERR5
 40
0.0
  9
$WORLDVIEW
 70
     1
  9
$SHADEDGE
 70
     3
  9
$SHADEDIF
 70
    70
  9
$TILEMODE
 70
     1
  9
$MAXACTVP
 70
    64
  9
$PINSBASE
 10
0.0
 20
0.0
 30
0.0
  9
$PLIMCHECK
 70
     0
  9
$PEXTMIN
 10
1.000000000000000E+20
 20
1.000000000000000E+20
 30
1.000000000000000E+20
  9
$PEXTMAX
 10
-1.000000000000000E+20
 20
-1.000000000000000E+20
 30
-1.000000000000000E+20
  9
$PLIMMIN
 10
0.0
 20
0.0
  9
$PLIMMAX
 10
12.0
 20
9.0
  9
$UNITMODE
 70
     0
  9
$VISRETAIN
 70
     1
  9
$PLINEGEN
 70
     0
  9
$PSLTSCALE
 70
     1
  9
$TREEDEPTH
 70
  3020
  9
$CMLSTYLE
  2
Standard
  9
$CMLJUST
 70
     0
  9
$CMLSCALE
 40
1.0
  9
$PROXYGRAPHICS
 70
     1
  9
$MEASUREMENT
 70
     0
  9
$CELWEIGHT
370
    -1
  9
$ENDCAPS
280
     0
  9
$JOINSTYLE
280
     0
  9
$LWDISPLAY
290
     1
  9
$INSUNITS
 70
     1
  9
$HYPERLINKBASE
  1

  9
$STYLESHEET
  1

  9
$XEDIT
290
     1
  9
$CEPSNTYPE
380
     0
  9
$PSTYLEMODE
290
     1
  9
$FINGERPRINTGUID
  2
{17A0E287-689B-47C3-BFD3-ECEB8CC6A9AA}
  9
$VERSIONGUID
  2
{FAEB1C32-E019-11D5-929B-00C0DF256EC4}
  9
$EXTNAMES
290
     1
  9
$PSVPSCALE
 40
0.0
  9
$OLESTARTUP
290
     0
  9
$SORTENTS
280
   127
  9
$INDEXCTL
280
     0
  9
$HIDETEXT
280
     1
  9
$XCLIPFRAME
280
     2
  9
$HALOGAP
280
     0
  9
$OBSCOLOR
 70
   257
  9
$OBSLTYPE
280
     0
  9
$INTERSECTIONDISPLAY
280
     0
  9
$INTERSECTIONCOLOR
 70
   257
  9
$DIMASSOC
280
     2
  9
$PROJECTNAME
  1

  9
$CAMERADISPLAY
290
     0
  9
$LENSLENGTH
 40
50.0
  9
$CAMERAHEIGHT
 40
0.0
  9
$STEPSPERSEC
 40
2.0
  9
$STEPSIZE
 40
6.0
  9
$3DDWFPREC
 40
2.0
  9
$PSOLWIDTH
 40
0.25
  9
$PSOLHEIGHT
 40
4.0
  9
$LOFTANG1
 40
1.570796326794897
  9
$LOFTANG2
 40
1.570796326794897
  9
$LOFTMAG1
 40
0.0
  9
$LOFTMAG2
 40
0.0
  9
$LOFTPARAM
 70
     7
  9
$LOFTNORMALS
280
     1
  9
$LATITUDE
 40
37.795
  9
$LONGITUDE
 40
-122.394
  9
$NORTHDIRECTION
 40
0.0
  9
$TIMEZONE
 70
 -8000
  9
$LIGHTGLYPHDISPLAY
280
     1
  9
$TILEMODELIGHTSYNCH
280
     1
  9
$CMATERIAL
347
3C
  9
$SOLIDHIST
280
     1
  9
$SHOWHIST
280
     1
  9
$DWFFRAME
280
     2
  9
$DGNFRAME
280
     2
  9
$REALWORLDSCALE
290
     1
  9
$INTERFERECOLOR
 62
   256
  9
$CSHADOW
280
     0
  9
$SHADOWPLANELOCATION
 40
0.0
  0
ENDSEC
  0
SECTION
  2
CLASSES
  0
CLASS
  1
ACDBDICTIONARYWDFLT
  2
AcDbDictionaryWithDefault
  3
ObjectDBX Classes
 90
        0
 91
        4
280
     0
281
     0
  0
CLASS
  1
VISUALSTYLE
  2
AcDbVisualStyle
  3
ObjectDBX Classes
 90
     4095
 91
        4
280
     0
281
     0
  0
CLASS
  1
MATERIAL
  2
AcDbMaterial
  3
ObjectDBX Classes
 90
     1153
 91
        4
280
     0
281
     0
  0
CLASS
  1
SUN
  2
AcDbSun
  3
SCENEOE
 90
     1024
 91
        4
280
     0
281
     0
  0
ENDSEC
  0
SECTION
  2
TABLES
  0
TABLE
  2
VPORT
  5
8
330
0
100
AcDbSymbolTable
 70
     1
  0
VPORT
  5
29
330
8
100
AcDbSymbolTableRecord
100
AcDbViewportTableRecord
  2
*Active
 70
     0
 10
0.0
 20
0.0
 11
1.0
 21
1.0
 12
0.0
 22
0.0
 13
0.0
 23
0.0
 14
0.5
 24
0.5
 15
0.5
 25
0.5
 16
0.0
 26
0.0
 36
1.0
 17
5.494798472300822
 27
-4.255601388888889
 37
0.0
 40
11.69291338582677
 41
0.7070707070707065
 42
50.0
 43
0.0
 44
0.0
 50
0.0
 51
0.0
 71
     0
 72
   100
 73
     1
 74
     3
 75
     0
 76
     0
 77
     0
 78
     0
281
     0
 65
     1
110
0.0
120
0.0
130
0.0
111
1.0
121
0.0
131
0.0
112
0.0
122
1.0
132
0.0
 79
     0
146
0.0
 60
     3
 61
     5
292
     1
282
     1
141
0.0
142
0.0
 63
   250
361
3F
  0
ENDTAB
  0
TABLE
  2
LTYPE
  5
5
330
0
100
AcDbSymbolTable
 70
    41
  0
LTYPE
  5
14
330
5
100
AcDbSymbolTableRecord
100
AcDbLinetypeTableRecord
  2
ByBlock
 70
     0
  3

 72
    65
 73
     0
 40
0.0
  0
LTYPE
  5
15
330
5
100
AcDbSymbolTableRecord
100
AcDbLinetypeTableRecord
  2
ByLayer
 70
     0
  3

 72
    65
 73
     0
 40
0.0
  0
LTYPE
  5
16
330
5
100
AcDbSymbolTableRecord
100
AcDbLinetypeTableRecord
  2
Continuous
 70
     0
  3
Solid line
 72
    65
 73
     0
 40
0.0
  0
LTYPE
  5
1D6
330
5
100
AcDbSymbolTableRecord
100
AcDbLinetypeTableRecord
  2
AI-Linetype-1
 70
     0
  3
Adobe Illustrator Linetype No. 1
 72
    65
 73
     2
 40
0.0694444444444444
 49
0.0416666666666667
 74
     0
 49
-0.0277777777777778
 74
     0
  0
LTYPE
  5
1DF
330
5
100
AcDbSymbolTableRecord
100
AcDbLinetypeTableRecord
  2
AI-Linetype-2
 70
     0
  3
Adobe Illustrator Linetype No. 2
 72
    65
 73
     2
 40
0.0555555555555556
 49
0.0277777777777778
 74
     0
 49
-0.0277777777777778
 74
     0
  0
LTYPE
  5
1EE
330
5
100
AcDbSymbolTableRecord
100
AcDbLinetypeTableRecord
  2
AI-Linetype-3
 70
     0
  3
Adobe Illustrator Linetype No. 3
 72
    65
 73
     2
 40
0.0416666666666667
 49
0.0277777777777778
 74
     0
 49
-0.0138888888888889
 74
     0
  0
LTYPE
  5
1F6
330
5
100
AcDbSymbolTableRecord
100
AcDbLinetypeTableRecord
  2
AI-Linetype-4
 70
     0
  3
Adobe Illustrator Linetype No. 4
 72
    65
 73
     2
 40
0.0416666666666667
 49
0.0277777777777778
 74
     0
 49
-0.0138888888888889
 74
     0
  0
LTYPE
  5
1FE
330
5
100
AcDbSymbolTableRecord
100
AcDbLinetypeTableRecord
  2
AI-Linetype-5
 70
     0
  3
Adobe Illustrator Linetype No. 5
 72
    65
 73
     2
 40
0.0416666666666667
 49
0.0277777777777778
 74
     0
 49
-0.0138888888888889
 74
     0
  0
LTYPE
  5
206
330
5
100
AcDbSymbolTableRecord
100
AcDbLinetypeTableRecord
  2
AI-Linetype-6
 70
     0
  3
Adobe Illustrator Linetype No. 6
 72
    65
 73
     2
 40
0.0416666666666667
 49
0.0277777777777778
 74
     0
 49
-0.0138888888888889
 74
     0
  0
LTYPE
  5
20E
330
5
100
AcDbSymbolTableRecord
100
AcDbLinetypeTableRecord
  2
AI-Linetype-7
 70
     0
  3
Adobe Illustrator Linetype No. 7
 72
    65
 73
     2
 40
0.0416666666666667
 49
0.0277777777777778
 74
     0
 49
-0.0138888888888889
 74
     0
  0
LTYPE
  5
216
330
5
100
AcDbSymbolTableRecord
100
AcDbLinetypeTableRecord
  2
AI-Linetype-8
 70
     0
  3
Adobe Illustrator Linetype No. 8
 72
    65
 73
     2
 40
0.0416666666666667
 49
0.0277777777777778
 74
     0
 49
-0.0138888888888889
 74
     0
  0
LTYPE
  5
21E
330
5
100
AcDbSymbolTableRecord
100
AcDbLinetypeTableRecord
  2
AI-Linetype-9
 70
     0
  3
Adobe Illustrator Linetype No. 9
 72
    65
 73
     2
 40
0.0416666666666667
 49
0.0277777777777778
 74
     0
 49
-0.0138888888888889
 74
     0
  0
LTYPE
  5
226
330
5
100
AcDbSymbolTableRecord
100
AcDbLinetypeTableRecord
  2
AI-Linetype-10
 70
     0
  3
Adobe Illustrator Linetype No. 10
 72
    65
 73
     2
 40
0.0416666666666667
 49
0.0277777777777778
 74
     0
 49
-0.0138888888888889
 74
     0
  0
LTYPE
  5
22E
330
5
100
AcDbSymbolTableRecord
100
AcDbLinetypeTableRecord
  2
AI-Linetype-11
 70
     0
  3
Adobe Illustrator Linetype No. 11
 72
    65
 73
     2
 40
0.0416666666666667
 49
0.0277777777777778
 74
     0
 49
-0.0138888888888889
 74
     0
  0
LTYPE
  5
236
330
5
100
AcDbSymbolTableRecord
100
AcDbLinetypeTableRecord
  2
AI-Linetype-12
 70
     0
  3
Adobe Illustrator Linetype No. 12
 72
    65
 73
     2
 40
0.0416666666666667
 49
0.0277777777777778
 74
     0
 49
-0.0138888888888889
 74
     0
  0
LTYPE
  5
23E
330
5
100
AcDbSymbolTableRecord
100
AcDbLinetypeTableRecord
  2
AI-Linetype-13
 70
     0
  3
Adobe Illustrator Linetype No. 13
 72
    65
 73
     2
 40
0.0416666666666667
 49
0.0277777777777778
 74
     0
 49
-0.0138888888888889
 74
     0
  0
LTYPE
  5
246
330
5
100
AcDbSymbolTableRecord
100
AcDbLinetypeTableRecord
  2
AI-Linetype-14
 70
     0
  3
Adobe Illustrator Linetype No. 14
 72
    65
 73
     2
 40
0.0416666666666667
 49
0.0277777777777778
 74
     0
 49
-0.0138888888888889
 74
     0
  0
LTYPE
  5
24E
330
5
100
AcDbSymbolTableRecord
100
AcDbLinetypeTableRecord
  2
AI-Linetype-15
 70
     0
  3
Adobe Illustrator Linetype No. 15
 72
    65
 73
     2
 40
0.0416666666666667
 49
0.0277777777777778
 74
     0
 49
-0.0138888888888889
 74
     0
  0
LTYPE
  5
256
330
5
100
AcDbSymbolTableRecord
100
AcDbLinetypeTableRecord
  2
AI-Linetype-16
 70
     0
  3
Adobe Illustrator Linetype No. 16
 72
    65
 73
     2
 40
0.0416666666666667
 49
0.0277777777777778
 74
     0
 49
-0.0138888888888889
 74
     0
  0
LTYPE
  5
25E
330
5
100
AcDbSymbolTableRecord
100
AcDbLinetypeTableRecord
  2
AI-Linetype-17
 70
     0
  3
Adobe Illustrator Linetype No. 17
 72
    65
 73
     2
 40
0.0416666666666667
 49
0.0277777777777778
 74
     0
 49
-0.0138888888888889
 74
     0
  0
LTYPE
  5
266
330
5
100
AcDbSymbolTableRecord
100
AcDbLinetypeTableRecord
  2
AI-Linetype-18
 70
     0
  3
Adobe Illustrator Linetype No. 18
 72
    65
 73
     2
 40
0.0416666666666667
 49
0.0277777777777778
 74
     0
 49
-0.0138888888888889
 74
     0
  0
LTYPE
  5
26E
330
5
100
AcDbSymbolTableRecord
100
AcDbLinetypeTableRecord
  2
AI-Linetype-19
 70
     0
  3
Adobe Illustrator Linetype No. 19
 72
    65
 73
     2
 40
0.0416666666666667
 49
0.0277777777777778
 74
     0
 49
-0.0138888888888889
 74
     0
  0
LTYPE
  5
276
330
5
100
AcDbSymbolTableRecord
100
AcDbLinetypeTableRecord
  2
AI-Linetype-20
 70
     0
  3
Adobe Illustrator Linetype No. 20
 72
    65
 73
     2
 40
0.0416666666666667
 49
0.0277777777777778
 74
     0
 49
-0.0138888888888889
 74
     0
  0
LTYPE
  5
27E
330
5
100
AcDbSymbolTableRecord
100
AcDbLinetypeTableRecord
  2
AI-Linetype-21
 70
     0
  3
Adobe Illustrator Linetype No. 21
 72
    65
 73
     2
 40
0.0416666666666667
 49
0.0277777777777778
 74
     0
 49
-0.0138888888888889
 74
     0
  0
LTYPE
  5
286
330
5
100
AcDbSymbolTableRecord
100
AcDbLinetypeTableRecord
  2
AI-Linetype-22
 70
     0
  3
Adobe Illustrator Linetype No. 22
 72
    65
 73
     2
 40
0.0416666666666667
 49
0.0277777777777778
 74
     0
 49
-0.0138888888888889
 74
     0
  0
LTYPE
  5
28E
330
5
100
AcDbSymbolTableRecord
100
AcDbLinetypeTableRecord
  2
AI-Linetype-23
 70
     0
  3
Adobe Illustrator Linetype No. 23
 72
    65
 73
     2
 40
0.0416666666666667
 49
0.0277777777777778
 74
     0
 49
-0.0138888888888889
 74
     0
  0
LTYPE
  5
296
330
5
100
AcDbSymbolTableRecord
100
AcDbLinetypeTableRecord
  2
AI-Linetype-24
 70
     0
  3
Adobe Illustrator Linetype No. 24
 72
    65
 73
     2
 40
0.0416666666666667
 49
0.0277777777777778
 74
     0
 49
-0.0138888888888889
 74
     0
  0
LTYPE
  5
29E
330
5
100
AcDbSymbolTableRecord
100
AcDbLinetypeTableRecord
  2
AI-Linetype-25
 70
     0
  3
Adobe Illustrator Linetype No. 25
 72
    65
 73
     2
 40
0.0416666666666667
 49
0.0277777777777778
 74
     0
 49
-0.0138888888888889
 74
     0
  0
LTYPE
  5
2A6
330
5
100
AcDbSymbolTableRecord
100
AcDbLinetypeTableRecord
  2
AI-Linetype-26
 70
     0
  3
Adobe Illustrator Linetype No. 26
 72
    65
 73
     2
 40
0.0416666666666667
 49
0.0277777777777778
 74
     0
 49
-0.0138888888888889
 74
     0
  0
LTYPE
  5
2AE
330
5
100
AcDbSymbolTableRecord
100
AcDbLinetypeTableRecord
  2
AI-Linetype-27
 70
     0
  3
Adobe Illustrator Linetype No. 27
 72
    65
 73
     2
 40
0.0416666666666667
 49
0.0277777777777778
 74
     0
 49
-0.0138888888888889
 74
     0
  0
LTYPE
  5
2B6
330
5
100
AcDbSymbolTableRecord
100
AcDbLinetypeTableRecord
  2
AI-Linetype-28
 70
     0
  3
Adobe Illustrator Linetype No. 28
 72
    65
 73
     2
 40
0.0416666666666667
 49
0.0277777777777778
 74
     0
 49
-0.0138888888888889
 74
     0
  0
LTYPE
  5
2BE
330
5
100
AcDbSymbolTableRecord
100
AcDbLinetypeTableRecord
  2
AI-Linetype-29
 70
     0
  3
Adobe Illustrator Linetype No. 29
 72
    65
 73
     2
 40
0.0416666666666667
 49
0.0277777777777778
 74
     0
 49
-0.0138888888888889
 74
     0
  0
LTYPE
  5
2C6
330
5
100
AcDbSymbolTableRecord
100
AcDbLinetypeTableRecord
  2
AI-Linetype-30
 70
     0
  3
Adobe Illustrator Linetype No. 30
 72
    65
 73
     2
 40
0.0416666666666667
 49
0.0277777777777778
 74
     0
 49
-0.0138888888888889
 74
     0
  0
LTYPE
  5
2CE
330
5
100
AcDbSymbolTableRecord
100
AcDbLinetypeTableRecord
  2
AI-Linetype-31
 70
     0
  3
Adobe Illustrator Linetype No. 31
 72
    65
 73
     2
 40
0.0416666666666667
 49
0.0277777777777778
 74
     0
 49
-0.0138888888888889
 74
     0
  0
LTYPE
  5
2D6
330
5
100
AcDbSymbolTableRecord
100
AcDbLinetypeTableRecord
  2
AI-Linetype-32
 70
     0
  3
Adobe Illustrator Linetype No. 32
 72
    65
 73
     2
 40
0.0416666666666667
 49
0.0277777777777778
 74
     0
 49
-0.0138888888888889
 74
     0
  0
LTYPE
  5
2DE
330
5
100
AcDbSymbolTableRecord
100
AcDbLinetypeTableRecord
  2
AI-Linetype-33
 70
     0
  3
Adobe Illustrator Linetype No. 33
 72
    65
 73
     2
 40
0.0416666666666667
 49
0.0277777777777778
 74
     0
 49
-0.0138888888888889
 74
     0
  0
LTYPE
  5
2E6
330
5
100
AcDbSymbolTableRecord
100
AcDbLinetypeTableRecord
  2
AI-Linetype-34
 70
     0
  3
Adobe Illustrator Linetype No. 34
 72
    65
 73
     2
 40
0.0416666666666667
 49
0.0277777777777778
 74
     0
 49
-0.0138888888888889
 74
     0
  0
LTYPE
  5
2EE
330
5
100
AcDbSymbolTableRecord
100
AcDbLinetypeTableRecord
  2
AI-Linetype-35
 70
     0
  3
Adobe Illustrator Linetype No. 35
 72
    65
 73
     2
 40
0.0416666666666667
 49
0.0277777777777778
 74
     0
 49
-0.0138888888888889
 74
     0
  0
LTYPE
  5
2F6
330
5
100
AcDbSymbolTableRecord
100
AcDbLinetypeTableRecord
  2
AI-Linetype-36
 70
     0
  3
Adobe Illustrator Linetype No. 36
 72
    65
 73
     2
 40
0.0416666666666667
 49
0.0277777777777778
 74
     0
 49
-0.0138888888888889
 74
     0
  0
LTYPE
  5
39F
330
5
100
AcDbSymbolTableRecord
100
AcDbLinetypeTableRecord
  2
AI-Linetype-37
 70
     0
  3
Adobe Illustrator Linetype No. 37
 72
    65
 73
     2
 40
0.0833333333333333
 49
0.0555555555555556
 74
     0
 49
-0.0277777777777778
 74
     0
  0
LTYPE
  5
3A9
330
5
100
AcDbSymbolTableRecord
100
AcDbLinetypeTableRecord
  2
AI-Linetype-38
 70
     0
  3
Adobe Illustrator Linetype No. 38
 72
    65
 73
     2
 40
0.0833333333333333
 49
0.0555555555555556
 74
     0
 49
-0.0277777777777778
 74
     0
  0
LTYPE
  5
3B5
330
5
100
AcDbSymbolTableRecord
100
AcDbLinetypeTableRecord
  2
AI-Linetype-39
 70
     0
  3
Adobe Illustrator Linetype No. 39
 72
    65
 73
     2
 40
0.0833333333333333
 49
0.0555555555555556
 74
     0
 49
-0.0277777777777778
 74
     0
  0
LTYPE
  5
3D1
330
5
100
AcDbSymbolTableRecord
100
AcDbLinetypeTableRecord
  2
AI-Linetype-40
 70
     0
  3
Adobe Illustrator Linetype No. 40
 72
    65
 73
     2
 40
0.0833333333333333
 49
0.0555555555555556
 74
     0
 49
-0.0277777777777778
 74
     0
  0
ENDTAB
  0
TABLE
  2
LAYER
  5
2
330
0
100
AcDbSymbolTable
 70
     5
  0
LAYER
  5
10
330
2
100
AcDbSymbolTableRecord
100
AcDbLayerTableRecord
  2
0
 70
     0
 62
     7
  6
Continuous
370
    -3
390
F
347
3E
  0
LAYER
  5
40
330
2
100
AcDbSymbolTableRecord
100
AcDbLayerTableRecord
  2
Color Fill
 70
     0
 62
     7
  6
Continuous
370
    -3
390
F
347
3E
  0
LAYER
  5
10F
330
2
100
AcDbSymbolTableRecord
100
AcDbLayerTableRecord
  2
Wood
 70
     0
 62
     7
  6
Continuous
370
    -3
390
F
347
3E
  0
LAYER
  5
1CB
330
2
100
AcDbSymbolTableRecord
100
AcDbLayerTableRecord
  2
SDWC screw
 70
     0
 62
     7
  6
Continuous
370
    -3
390
F
347
3E
  0
LAYER
  5
39B
330
2
100
AcDbSymbolTableRecord
100
AcDbLayerTableRecord
  2
Callout
 70
     0
 62
     7
  6
Continuous
370
    -3
390
F
347
3E
  0
ENDTAB
  0
TABLE
  2
STYLE
  5
3
330
0
100
AcDbSymbolTable
 70
     1
  0
STYLE
  5
11
330
3
100
AcDbSymbolTableRecord
100
AcDbTextStyleTableRecord
  2
Standard
 70
     0
 40
0.0
 41
1.0
 50
0.0
 71
     0
 42
0.2
  3
txt
  4

  0
ENDTAB
  0
TABLE
  2
VIEW
  5
6
330
0
100
AcDbSymbolTable
 70
     0
  0
ENDTAB
  0
TABLE
  2
UCS
  5
7
330
0
100
AcDbSymbolTable
 70
     0
  0
ENDTAB
  0
TABLE
  2
APPID
  5
9
330
0
100
AcDbSymbolTable
 70
     1
  0
APPID
  5
12
330
9
100
AcDbSymbolTableRecord
100
AcDbRegAppTableRecord
  2
ACAD
 70
     0
  0
ENDTAB
  0
TABLE
  2
DIMSTYLE
  5
A
330
0
100
AcDbSymbolTable
 70
     1
100
AcDbDimStyleTable
  0
DIMSTYLE
105
27
330
A
100
AcDbSymbolTableRecord
100
AcDbDimStyleTableRecord
  2
Standard
 70
     0
178
     0
340
11
  0
ENDTAB
  0
TABLE
  2
BLOCK_RECORD
  5
1
330
0
100
AcDbSymbolTable
 70
     5
  0
BLOCK_RECORD
  5
1F
330
1
100
AcDbSymbolTableRecord
100
AcDbBlockTableRecord
  2
*Model_Space
340
22
 70
     0
280
     1
281
     0
  0
BLOCK_RECORD
  5
1B
330
1
100
AcDbSymbolTableRecord
100
AcDbBlockTableRecord
  2
*Paper_Space
340
1E
 70
     0
280
     1
281
     0
  0
BLOCK_RECORD
  5
23
330
1
100
AcDbSymbolTableRecord
100
AcDbBlockTableRecord
  2
*Paper_Space0
340
26
 70
     0
280
     1
281
     0
  0
BLOCK_RECORD
  5
6B
330
1
100
AcDbSymbolTableRecord
100
AcDbBlockTableRecord
  2
block 2
340
0
102
{BLKREFS
331
6C
102
}
 70
     0
280
     1
281
     0
  0
BLOCK_RECORD
  5
139
330
1
100
AcDbSymbolTableRecord
100
AcDbBlockTableRecord
  2
block 3
340
0
102
{BLKREFS
331
13A
102
}
 70
     0
280
     1
281
     0
  0
BLOCK_RECORD
  5
1CC
330
1
100
AcDbSymbolTableRecord
100
AcDbBlockTableRecord
  2
block 4
340
0
102
{BLKREFS
331
1CD
102
}
 70
     0
280
     1
281
     0
  0
BLOCK_RECORD
  5
309
330
1
100
AcDbSymbolTableRecord
100
AcDbBlockTableRecord
  2
block 5
340
0
102
{BLKREFS
331
30A
102
}
 70
     0
280
     1
281
     0
  0
ENDTAB
  0
ENDSEC
  0
SECTION
  2
BLOCKS
  0
BLOCK
  5
20
330
1F
100
AcDbEntity
  8
0
100
AcDbBlockBegin
  2
*Model_Space
 70
     0
 10
0.0
 20
0.0
 30
0.0
  3
*Model_Space
  1

  0
ENDBLK
  5
21
330
1F
100
AcDbEntity
  8
0
100
AcDbBlockEnd
  0
BLOCK
  5
1C
330
1B
100
AcDbEntity
 67
     1
  8
0
100
AcDbBlockBegin
  2
*Paper_Space
 70
     0
 10
0.0
 20
0.0
 30
0.0
  3
*Paper_Space
  1

  0
ENDBLK
  5
1D
330
1B
100
AcDbEntity
 67
     1
  8
0
100
AcDbBlockEnd
  0
BLOCK
  5
24
330
23
100
AcDbEntity
  8
0
100
AcDbBlockBegin
  2
*Paper_Space0
 70
     0
 10
0.0
 20
0.0
 30
0.0
  3
*Paper_Space0
  1

  0
ENDBLK
  5
25
330
23
100
AcDbEntity
  8
0
100
AcDbBlockEnd
  0
BLOCK
  5
6D
330
6B
100
AcDbEntity
  8
0
100
AcDbBlockBegin
  2
block 2
 70
     0
 10
0.0
 20
0.0
 30
0.0
  3
block 2
  1

  0
POLYLINE
  5
6F
330
6B
100
AcDbEntity
  8
Color Fill
 62
   250
420
  2301728
370
    13
100
AcDb2dPolyline
 66
     1
 10
0.0
 20
0.0
 30
0.0
  0
VERTEX
  5
70
330
6F
100
AcDbEntity
  8
Color Fill
 62
   250
420
  2301728
370
    13
100
AcDbVertex
100
AcDb2dVertex
 10
5.293877644043176
 20
-4.367566666666663
 30
0.0
  0
VERTEX
  5
71
330
6F
100
AcDbEntity
  8
Color Fill
 62
   250
420
  2301728
370
    13
100
AcDbVertex
100
AcDb2dVertex
 10
5.329020698710943
 20
-4.414441666666663
 30
0.0
  0
VERTEX
  5
72
330
6F
100
AcDbEntity
  8
Color Fill
 62
   250
420
  2301728
370
    13
100
AcDbVertex
100
AcDb2dVertex
 10
5.356105420248948
 20
-4.420694444444456
 30
0.0
  0
VERTEX
  5
73
330
6F
100
AcDbEntity
  8
Color Fill
 62
   250
420
  2301728
370
    13
100
AcDbVertex
100
AcDb2dVertex
 10
5.552979026386613
 20
-4.362358333333329
 30
0.0
  0
SEQEND
  5
74
330
6F
100
AcDbEntity
  8
Color Fill
 62
   250
420
  2301728
370
    13
  0
POLYLINE
  5
75
330
6B
100
AcDbEntity
  8
Color Fill
 62
   250
420
  2301728
370
    13
100
AcDb2dPolyline
 66
     1
 10
0.0
 20
0.0
 30
0.0
  0
VERTEX
  5
76
330
75
100
AcDbEntity
  8
Color Fill
 62
   250
420
  2301728
370
    13
100
AcDbVertex
100
AcDb2dVertex
 10
5.224854034675748
 20
-4.368611111111123
 30
0.0
  0
VERTEX
  5
77
330
75
100
AcDbEntity
  8
Color Fill
 62
   250
420
  2301728
370
    13
100
AcDbVertex
100
AcDb2dVertex
 10
5.293605421827831
 20
-4.464437500000005
 30
0.0
  0
VERTEX
  5
78
330
75
100
AcDbEntity
  8
Color Fill
 62
   250
420
  2301728
370
    13
100
AcDbVertex
100
AcDb2dVertex
 10
5.337355420722613
 20
-4.497259722222225
 30
0.0
  0
VERTEX
  5
79
330
75
100
AcDbEntity
  8
Color Fill
 62
   250
420
  2301728
370
    13
100
AcDbVertex
100
AcDb2dVertex
 10
5.370687364325022
 20
-4.506104166666672
 30
0.0
  0
VERTEX
  5
7A
330
75
100
AcDbEntity
  8
Color Fill
 62
   250
420
  2301728
370
    13
100
AcDbVertex
100
AcDb2dVertex
 10
5.497762361114837
 20
-4.416530555555558
 30
0.0
  0
VERTEX
  5
7B
330
75
100
AcDbEntity
  8
Color Fill
 62
   250
420
  2301728
370
    13
100
AcDbVertex
100
AcDb2dVertex
 10
5.566515137155774
 20
-4.401937500000005
 30
0.0
  0
VERTEX
  5
7C
330
75
100
AcDbEntity
  8
Color Fill
 62
   250
420
  2301728
370
    13
100
AcDbVertex
100
AcDb2dVertex
 10
5.683187356430608
 20
-4.476929166666675
 30
0.0
  0
VERTEX
  5
7D
330
75
100
AcDbEntity
  8
Color Fill
 62
   250
420
  2301728
370
    13
100
AcDbVertex
100
AcDb2dVertex
 10
5.751926243583006
 20
-4.574855555555561
 30
0.0
  0
VERTEX
  5
7E
330
75
100
AcDbEntity
  8
Color Fill
 62
   250
420
  2301728
370
    13
100
AcDbVertex
100
AcDb2dVertex
 10
5.824855408407327
 20
-4.62902777777779
 30
0.0
  0
SEQEND
  5
7F
330
75
100
AcDbEntity
  8
Color Fill
 62
   250
420
  2301728
370
    13
  0
POLYLINE
  5
80
330
6B
100
AcDbEntity
  8
Color Fill
 62
   250
420
  2301728
370
    13
100
AcDb2dPolyline
 66
     1
 10
0.0
 20
0.0
 30
0.0
  0
VERTEX
  5
81
330
80
100
AcDbEntity
  8
Color Fill
 62
   250
420
  2301728
370
    13
100
AcDbVertex
100
AcDb2dVertex
 10
5.120673481752015
 20
-4.368598611111111
 30
0.0
  0
VERTEX
  5
82
330
80
100
AcDbEntity
  8
Color Fill
 62
   250
420
  2301728
370
    13
100
AcDbVertex
100
AcDb2dVertex
 10
5.201767924147841
 20
-4.470702777777786
 30
0.0
  0
VERTEX
  5
83
330
80
100
AcDbEntity
  8
Color Fill
 62
   250
420
  2301728
370
    13
100
AcDbVertex
100
AcDb2dVertex
 10
5.306098477067786
 20
-4.551934722222212
 30
0.0
  0
VERTEX
  5
84
330
80
100
AcDbEntity
  8
Color Fill
 62
   250
420
  2301728
370
    13
100
AcDbVertex
100
AcDb2dVertex
 10
5.333184587494643
 20
-4.556111111111123
 30
0.0
  0
VERTEX
  5
85
330
80
100
AcDbEntity
  8
Color Fill
 62
   250
420
  2301728
370
    13
100
AcDbVertex
100
AcDb2dVertex
 10
5.451938751161328
 20
-4.520697222222225
 30
0.0
  0
VERTEX
  5
86
330
80
100
AcDbEntity
  8
Color Fill
 62
   250
420
  2301728
370
    13
100
AcDbVertex
100
AcDb2dVertex
 10
5.516520693974295
 20
-4.476929166666675
 30
0.0
  0
VERTEX
  5
87
330
80
100
AcDbEntity
  8
Color Fill
 62
   250
420
  2301728
370
    13
100
AcDbVertex
100
AcDb2dVertex
 10
5.570691525939158
 20
-4.485270833333339
 30
0.0
  0
VERTEX
  5
88
330
80
100
AcDbEntity
  8
Color Fill
 62
   250
420
  2301728
370
    13
100
AcDbVertex
100
AcDb2dVertex
 10
5.638916666666672
 20
-4.572916666666666
 30
0.0
  0
VERTEX
  5
89
330
80
100
AcDbEntity
  8
Color Fill
 62
   250
420
  2301728
370
    13
100
AcDbVertex
100
AcDb2dVertex
 10
5.691515133998008
 20
-4.591524999999996
 30
0.0
  0
VERTEX
  5
8A
330
80
100
AcDbEntity
  8
Color Fill
 62
   250
420
  2301728
370
    13
100
AcDbVertex
100
AcDb2dVertex
 10
5.791517909249503
 20
-4.664441666666662
 30
0.0
  0
VERTEX
  5
8B
330
80
100
AcDbEntity
  8
Color Fill
 62
   250
420
  2301728
370
    13
100
AcDbVertex
100
AcDb2dVertex
 10
5.818604019676362
 20
-4.695691666666662
 30
0.0
  0
SEQEND
  5
8C
330
80
100
AcDbEntity
  8
Color Fill
 62
   250
420
  2301728
370
    13
  0
POLYLINE
  5
8D
330
6B
100
AcDbEntity
  8
Color Fill
 62
   250
420
  2301728
370
    13
100
AcDb2dPolyline
 66
     1
 10
0.0
 20
0.0
 30
0.0
  0
VERTEX
  5
8E
330
8D
100
AcDbEntity
  8
Color Fill
 62
   250
420
  2301728
370
    13
100
AcDbVertex
100
AcDb2dVertex
 10
5.049852650207766
 20
-4.411309722222212
 30
0.0
  0
VERTEX
  5
8F
330
8D
100
AcDbEntity
  8
Color Fill
 62
   250
420
  2301728
370
    13
100
AcDbVertex
100
AcDb2dVertex
 10
5.074849871798506
 20
-4.426934722222212
 30
0.0
  0
VERTEX
  5
90
330
8D
100
AcDbEntity
  8
Color Fill
 62
   250
420
  2301728
370
    13
100
AcDbVertex
100
AcDb2dVertex
 10
5.120687370640553
 20
-4.491536111111119
 30
0.0
  0
VERTEX
  5
91
330
8D
100
AcDbEntity
  8
Color Fill
 62
   250
420
  2301728
370
    13
100
AcDbVertex
100
AcDb2dVertex
 10
5.147772092178557
 20
-4.495687500000005
 30
0.0
  0
VERTEX
  5
92
330
8D
100
AcDbEntity
  8
Color Fill
 62
   250
420
  2301728
370
    13
100
AcDbVertex
100
AcDb2dVertex
 10
5.24568055555556
 20
-4.568604166666672
 30
0.0
  0
VERTEX
  5
93
330
8D
100
AcDbEntity
  8
Color Fill
 62
   250
420
  2301728
370
    13
100
AcDbVertex
100
AcDb2dVertex
 10
5.268602644681676
 20
-4.601941666666662
 30
0.0
  0
VERTEX
  5
94
330
8D
100
AcDbEntity
  8
Color Fill
 62
   250
420
  2301728
370
    13
100
AcDbVertex
100
AcDb2dVertex
 10
5.314629032407841
 20
-4.62902777777779
 30
0.0
  0
VERTEX
  5
95
330
8D
100
AcDbEntity
  8
Color Fill
 62
   250
420
  2301728
370
    13
100
AcDbVertex
100
AcDb2dVertex
 10
5.345688753845429
 20
-4.643608333333329
 30
0.0
  0
VERTEX
  5
96
330
8D
100
AcDbEntity
  8
Color Fill
 62
   250
420
  2301728
370
    13
100
AcDbVertex
100
AcDb2dVertex
 10
5.441522084757808
 20
-4.574855555555561
 30
0.0
  0
VERTEX
  5
97
330
8D
100
AcDbEntity
  8
Color Fill
 62
   250
420
  2301728
370
    13
100
AcDbVertex
100
AcDb2dVertex
 10
5.501938749898222
 20
-4.558187500000005
 30
0.0
  0
VERTEX
  5
98
330
8D
100
AcDbEntity
  8
Color Fill
 62
   250
420
  2301728
370
    13
100
AcDbVertex
100
AcDb2dVertex
 10
5.52902486032508
 20
-4.562351388888879
 30
0.0
  0
VERTEX
  5
99
330
8D
100
AcDbEntity
  8
Color Fill
 62
   250
420
  2301728
370
    13
100
AcDbVertex
100
AcDb2dVertex
 10
5.630601246647934
 20
-4.643608333333329
 30
0.0
  0
VERTEX
  5
9A
330
8D
100
AcDbEntity
  8
Color Fill
 62
   250
420
  2301728
370
    13
100
AcDbVertex
100
AcDb2dVertex
 10
5.691515133998008
 20
-4.651937500000005
 30
0.0
  0
VERTEX
  5
9B
330
8D
100
AcDbEntity
  8
Color Fill
 62
   250
420
  2301728
370
    13
100
AcDbVertex
100
AcDb2dVertex
 10
5.749851243635425
 20
-4.695691666666662
 30
0.0
  0
SEQEND
  5
9C
330
8D
100
AcDbEntity
  8
Color Fill
 62
   250
420
  2301728
370
    13
  0
POLYLINE
  5
9D
330
6B
100
AcDbEntity
  8
Color Fill
 62
   250
420
  2301728
370
    13
100
AcDb2dPolyline
 66
     1
 10
0.0
 20
0.0
 30
0.0
  0
VERTEX
  5
9E
330
9D
100
AcDbEntity
  8
Color Fill
 62
   250
420
  2301728
370
    13
100
AcDbVertex
100
AcDb2dVertex
 10
5.049852650207766
 20
-4.516520833333339
 30
0.0
  0
VERTEX
  5
9F
330
9D
100
AcDbEntity
  8
Color Fill
 62
   250
420
  2301728
370
    13
100
AcDbVertex
100
AcDb2dVertex
 10
5.087327649261068
 20
-4.543619444444453
 30
0.0
  0
VERTEX
  5
A0
330
9D
100
AcDbEntity
  8
Color Fill
 62
   250
420
  2301728
370
    13
100
AcDbVertex
100
AcDb2dVertex
 10
5.137355425775038
 20
-4.549858333333329
 30
0.0
  0
VERTEX
  5
A1
330
9D
100
AcDbEntity
  8
Color Fill
 62
   250
420
  2301728
370
    13
100
AcDbVertex
100
AcDb2dVertex
 10
5.237345701026848
 20
-4.622774999999996
 30
0.0
  0
VERTEX
  5
A2
330
9D
100
AcDbEntity
  8
Color Fill
 62
   250
420
  2301728
370
    13
100
AcDbVertex
100
AcDb2dVertex
 10
5.30189986606274
 20
-4.690050000000004
 30
0.0
  0
SEQEND
  5
A3
330
9D
100
AcDbEntity
  8
Color Fill
 62
   250
420
  2301728
370
    13
  0
POLYLINE
  5
A4
330
6B
100
AcDbEntity
  8
Color Fill
 62
   250
420
  2301728
370
    13
100
AcDb2dPolyline
 66
     1
 10
0.0
 20
0.0
 30
0.0
  0
VERTEX
  5
A5
330
A4
100
AcDbEntity
  8
Color Fill
 62
   250
420
  2301728
370
    13
100
AcDbVertex
100
AcDb2dVertex
 10
5.387349863904092
 20
-4.690050000000004
 30
0.0
  0
VERTEX
  5
A6
330
A4
100
AcDbEntity
  8
Color Fill
 62
   250
420
  2301728
370
    13
100
AcDbVertex
100
AcDb2dVertex
 10
5.491516527939287
 20
-4.612358333333329
 30
0.0
  0
VERTEX
  5
A7
330
A4
100
AcDbEntity
  8
Color Fill
 62
   250
420
  2301728
370
    13
100
AcDbVertex
100
AcDb2dVertex
 10
5.524848471541696
 20
-4.621188888888885
 30
0.0
  0
VERTEX
  5
A8
330
A4
100
AcDbEntity
  8
Color Fill
 62
   250
420
  2301728
370
    13
100
AcDbVertex
100
AcDb2dVertex
 10
5.618598469173372
 20
-4.691515277777777
 30
0.0
  0
SEQEND
  5
A9
330
A4
100
AcDbEntity
  8
Color Fill
 62
   250
420
  2301728
370
    13
  0
POLYLINE
  5
AA
330
6B
100
AcDbEntity
  8
Color Fill
 62
   250
420
  2301728
370
    13
100
AcDb2dPolyline
 66
     1
 10
0.0
 20
0.0
 30
0.0
  0
VERTEX
  5
AB
330
AA
100
AcDbEntity
  8
Color Fill
 62
   250
420
  2301728
370
    13
100
AcDbVertex
100
AcDb2dVertex
 10
5.485270694763736
 20
-4.688951388888881
 30
0.0
  0
VERTEX
  5
AC
330
AA
100
AcDbEntity
  8
Color Fill
 62
   250
420
  2301728
370
    13
100
AcDbVertex
100
AcDb2dVertex
 10
5.510267916354476
 20
-4.672770833333339
 30
0.0
  0
VERTEX
  5
AD
330
AA
100
AcDbEntity
  8
Color Fill
 62
   250
420
  2301728
370
    13
100
AcDbVertex
100
AcDb2dVertex
 10
5.537354026781334
 20
-4.676947222222225
 30
0.0
  0
VERTEX
  5
AE
330
AA
100
AcDbEntity
  8
Color Fill
 62
   250
420
  2301728
370
    13
100
AcDbVertex
100
AcDb2dVertex
 10
5.558187359588374
 20
-4.692559722222212
 30
0.0
  0
SEQEND
  5
AF
330
AA
100
AcDbEntity
  8
Color Fill
 62
   250
420
  2301728
370
    13
  0
POLYLINE
  5
B0
330
6B
100
AcDbEntity
  8
Color Fill
 62
   250
420
  2301728
370
    13
100
AcDb2dPolyline
 66
     1
 10
0.0
 20
0.0
 30
0.0
  0
VERTEX
  5
B1
330
B0
100
AcDbEntity
  8
Color Fill
 62
   250
420
  2301728
370
    13
100
AcDbVertex
100
AcDb2dVertex
 10
5.049852650207766
 20
-4.579033333333326
 30
0.0
  0
VERTEX
  5
B2
330
B0
100
AcDbEntity
  8
Color Fill
 62
   250
420
  2301728
370
    13
100
AcDbVertex
100
AcDb2dVertex
 10
5.072767927406655
 20
-4.595702777777786
 30
0.0
  0
VERTEX
  5
B3
330
B0
100
AcDbEntity
  8
Color Fill
 62
   250
420
  2301728
370
    13
100
AcDbVertex
100
AcDb2dVertex
 10
5.099854037833514
 20
-4.599854166666672
 30
0.0
  0
VERTEX
  5
B4
330
B0
100
AcDbEntity
  8
Color Fill
 62
   250
420
  2301728
370
    13
100
AcDbVertex
100
AcDb2dVertex
 10
5.199855424196155
 20
-4.672770833333339
 30
0.0
  0
VERTEX
  5
B5
330
B0
100
AcDbEntity
  8
Color Fill
 62
   250
420
  2301728
370
    13
100
AcDbVertex
100
AcDb2dVertex
 10
5.212442923878168
 20
-4.692559722222212
 30
0.0
  0
SEQEND
  5
B6
330
B0
100
AcDbEntity
  8
Color Fill
 62
   250
420
  2301728
370
    13
  0
POLYLINE
  5
B7
330
6B
100
AcDbEntity
  8
Color Fill
 62
   250
420
  2301728
370
    13
100
AcDb2dPolyline
 66
     1
 10
0.0
 20
0.0
 30
0.0
  0
VERTEX
  5
B8
330
B7
100
AcDbEntity
  8
Color Fill
 62
   250
420
  2301728
370
    13
100
AcDbVertex
100
AcDb2dVertex
 10
5.055576261174287
 20
-4.62902777777779
 30
0.0
  0
VERTEX
  5
B9
330
B7
100
AcDbEntity
  8
Color Fill
 62
   250
420
  2301728
370
    13
100
AcDbVertex
100
AcDb2dVertex
 10
5.112644315288182
 20
-4.670518055555552
 30
0.0
  0
VERTEX
  5
BA
330
B7
100
AcDbEntity
  8
Color Fill
 62
   250
420
  2301728
370
    13
100
AcDbVertex
100
AcDb2dVertex
 10
5.131144314820832
 20
-4.692559722222212
 30
0.0
  0
SEQEND
  5
BB
330
B7
100
AcDbEntity
  8
Color Fill
 62
   250
420
  2301728
370
    13
  0
POLYLINE
  5
BC
330
6B
100
AcDbEntity
  8
Color Fill
 62
   250
420
  2301728
370
    13
100
AcDb2dPolyline
 66
     1
 10
0.0
 20
0.0
 30
0.0
  0
VERTEX
  5
BD
330
BC
100
AcDbEntity
  8
Color Fill
 62
   250
420
  2301728
370
    13
100
AcDbVertex
100
AcDb2dVertex
 10
5.055576261174287
 20
-4.722031944444451
 30
0.0
  0
VERTEX
  5
BE
330
BC
100
AcDbEntity
  8
Color Fill
 62
   250
420
  2301728
370
    13
100
AcDbVertex
100
AcDb2dVertex
 10
5.087327649261068
 20
-4.722031944444451
 30
0.0
  0
VERTEX
  5
BF
330
BC
100
AcDbEntity
  8
Color Fill
 62
   250
420
  2301728
370
    13
100
AcDbVertex
100
AcDb2dVertex
 10
5.156101258634812
 20
-4.737345833333342
 30
0.0
  0
VERTEX
  5
C0
330
BC
100
AcDbEntity
  8
Color Fill
 62
   250
420
  2301728
370
    13
100
AcDbVertex
100
AcDb2dVertex
 10
5.224854034675748
 20
-4.787001388888888
 30
0.0
  0
VERTEX
  5
C1
330
BC
100
AcDbEntity
  8
Color Fill
 62
   250
420
  2301728
370
    13
100
AcDbVertex
100
AcDb2dVertex
 10
5.374851253108722
 20
-4.835272222222228
 30
0.0
  0
VERTEX
  5
C2
330
BC
100
AcDbEntity
  8
Color Fill
 62
   250
420
  2301728
370
    13
100
AcDbVertex
100
AcDb2dVertex
 10
5.451938751161328
 20
-4.889444444444456
 30
0.0
  0
VERTEX
  5
C3
330
BC
100
AcDbEntity
  8
Color Fill
 62
   250
420
  2301728
370
    13
100
AcDbVertex
100
AcDb2dVertex
 10
5.48318180592763
 20
-4.883191666666662
 30
0.0
  0
VERTEX
  5
C4
330
BC
100
AcDbEntity
  8
Color Fill
 62
   250
420
  2301728
370
    13
100
AcDbVertex
100
AcDb2dVertex
 10
5.584229025597172
 20
-4.80847222222221
 30
0.0
  0
VERTEX
  5
C5
330
BC
100
AcDbEntity
  8
Color Fill
 62
   250
420
  2301728
370
    13
100
AcDbVertex
100
AcDb2dVertex
 10
5.722765133208567
 20
-4.722031944444451
 30
0.0
  0
VERTEX
  5
C6
330
BC
100
AcDbEntity
  8
Color Fill
 62
   250
420
  2301728
370
    13
100
AcDbVertex
100
AcDb2dVertex
 10
5.76235540998621
 20
-4.722031944444451
 30
0.0
  0
VERTEX
  5
C7
330
BC
100
AcDbEntity
  8
Color Fill
 62
   250
420
  2301728
370
    13
100
AcDbVertex
100
AcDb2dVertex
 10
5.822767908460062
 20
-4.745374999999992
 30
0.0
  0
SEQEND
  5
C8
330
BC
100
AcDbEntity
  8
Color Fill
 62
   250
420
  2301728
370
    13
  0
POLYLINE
  5
C9
330
6B
100
AcDbEntity
  8
Color Fill
 62
   250
420
  2301728
370
    13
100
AcDb2dPolyline
 66
     1
 10
0.0
 20
0.0
 30
0.0
  0
VERTEX
  5
CA
330
C9
100
AcDbEntity
  8
Color Fill
 62
   250
420
  2301728
370
    13
100
AcDbVertex
100
AcDb2dVertex
 10
5.183844313489518
 20
-4.699855555555561
 30
0.0
  0
VERTEX
  5
CB
330
C9
100
AcDbEntity
  8
Color Fill
 62
   250
420
  2301728
370
    13
100
AcDbVertex
100
AcDb2dVertex
 10
5.283474866528195
 20
-4.7421875
 30
0.0
  0
VERTEX
  5
CC
330
C9
100
AcDbEntity
  8
Color Fill
 62
   250
420
  2301728
370
    13
100
AcDbVertex
100
AcDb2dVertex
 10
5.433187362746139
 20
-4.789429166666675
 30
0.0
  0
VERTEX
  5
CD
330
C9
100
AcDbEntity
  8
Color Fill
 62
   250
420
  2301728
370
    13
100
AcDbVertex
100
AcDb2dVertex
 10
5.469631806269919
 20
-4.782972222222219
 30
0.0
  0
VERTEX
  5
CE
330
C9
100
AcDbEntity
  8
Color Fill
 62
   250
420
  2301728
370
    13
100
AcDbVertex
100
AcDb2dVertex
 10
5.566515137155774
 20
-4.732638888888888
 30
0.0
  0
VERTEX
  5
CF
330
C9
100
AcDbEntity
  8
Color Fill
 62
   250
420
  2301728
370
    13
100
AcDbVertex
100
AcDb2dVertex
 10
5.649115135069122
 20
-4.695691666666662
 30
0.0
  0
SEQEND
  5
D0
330
C9
100
AcDbEntity
  8
Color Fill
 62
   250
420
  2301728
370
    13
  0
POLYLINE
  5
D1
330
6B
100
AcDbEntity
  8
Color Fill
 62
   250
420
  2301728
370
    13
100
AcDb2dPolyline
 66
     1
 10
0.0
 20
0.0
 30
0.0
  0
VERTEX
  5
D2
330
D1
100
AcDbEntity
  8
Color Fill
 62
   250
420
  2301728
370
    13
100
AcDbVertex
100
AcDb2dVertex
 10
5.327819444444445
 20
-4.699855555555561
 30
0.0
  0
VERTEX
  5
D3
330
D1
100
AcDbEntity
  8
Color Fill
 62
   250
420
  2301728
370
    13
100
AcDbVertex
100
AcDb2dVertex
 10
5.377820697478152
 20
-4.731486111111104
 30
0.0
  0
VERTEX
  5
D4
330
D1
100
AcDbEntity
  8
Color Fill
 62
   250
420
  2301728
370
    13
100
AcDbVertex
100
AcDb2dVertex
 10
5.416483196501455
 20
-4.731486111111104
 30
0.0
  0
VERTEX
  5
D5
330
D1
100
AcDbEntity
  8
Color Fill
 62
   250
420
  2301728
370
    13
100
AcDbVertex
100
AcDb2dVertex
 10
5.455830417729683
 20
-4.699855555555561
 30
0.0
  0
SEQEND
  5
D6
330
D1
100
AcDbEntity
  8
Color Fill
 62
   250
420
  2301728
370
    13
  0
POLYLINE
  5
D7
330
6B
100
AcDbEntity
  8
Color Fill
 62
   250
420
  2301728
370
    13
100
AcDb2dPolyline
 66
     1
 10
0.0
 20
0.0
 30
0.0
  0
VERTEX
  5
D8
330
D7
100
AcDbEntity
  8
Color Fill
 62
   250
420
  2301728
370
    13
100
AcDbVertex
100
AcDb2dVertex
 10
5.049852650207766
 20
-4.835272222222228
 30
0.0
  0
VERTEX
  5
D9
330
D7
100
AcDbEntity
  8
Color Fill
 62
   250
420
  2301728
370
    13
100
AcDbVertex
100
AcDb2dVertex
 10
5.068604038622955
 20
-4.820691666666662
 30
0.0
  0
VERTEX
  5
DA
330
D7
100
AcDbEntity
  8
Color Fill
 62
   250
420
  2301728
370
    13
100
AcDbVertex
100
AcDb2dVertex
 10
5.098191537875512
 20
-4.820691666666662
 30
0.0
  0
VERTEX
  5
DB
330
D7
100
AcDbEntity
  8
Color Fill
 62
   250
420
  2301728
370
    13
100
AcDbVertex
100
AcDb2dVertex
 10
5.30810542146153
 20
-4.877088888888895
 30
0.0
  0
VERTEX
  5
DC
330
D7
100
AcDbEntity
  8
Color Fill
 62
   250
420
  2301728
370
    13
100
AcDbVertex
100
AcDb2dVertex
 10
5.43109847391002
 20
-4.960286111111119
 30
0.0
  0
VERTEX
  5
DD
330
D7
100
AcDbEntity
  8
Color Fill
 62
   250
420
  2301728
370
    13
100
AcDbVertex
100
AcDb2dVertex
 10
5.501938749898222
 20
-4.981093055555548
 30
0.0
  0
VERTEX
  5
DE
330
D7
100
AcDbEntity
  8
Color Fill
 62
   250
420
  2301728
370
    13
100
AcDbVertex
100
AcDb2dVertex
 10
5.533176249109096
 20
-4.974854166666672
 30
0.0
  0
VERTEX
  5
DF
330
D7
100
AcDbEntity
  8
Color Fill
 62
   250
420
  2301728
370
    13
100
AcDbVertex
100
AcDb2dVertex
 10
5.641520690816529
 20
-4.820691666666662
 30
0.0
  0
VERTEX
  5
E0
330
D7
100
AcDbEntity
  8
Color Fill
 62
   250
420
  2301728
370
    13
100
AcDbVertex
100
AcDb2dVertex
 10
5.731879021867219
 20
-4.770833333333333
 30
0.0
  0
VERTEX
  5
E1
330
D7
100
AcDbEntity
  8
Color Fill
 62
   250
420
  2301728
370
    13
100
AcDbVertex
100
AcDb2dVertex
 10
5.826931797243762
 20
-4.805745833333327
 30
0.0
  0
SEQEND
  5
E2
330
D7
100
AcDbEntity
  8
Color Fill
 62
   250
420
  2301728
370
    13
  0
POLYLINE
  5
E3
330
6B
100
AcDbEntity
  8
Color Fill
 62
   250
420
  2301728
370
    13
100
AcDb2dPolyline
 66
     1
 10
0.0
 20
0.0
 30
0.0
  0
VERTEX
  5
E4
330
E3
100
AcDbEntity
  8
Color Fill
 62
   250
420
  2301728
370
    13
100
AcDbVertex
100
AcDb2dVertex
 10
5.055576261174287
 20
-4.890773611111121
 30
0.0
  0
VERTEX
  5
E5
330
E3
100
AcDbEntity
  8
Color Fill
 62
   250
420
  2301728
370
    13
100
AcDbVertex
100
AcDb2dVertex
 10
5.081095704974055
 20
-4.887355555555561
 30
0.0
  0
VERTEX
  5
E6
330
E3
100
AcDbEntity
  8
Color Fill
 62
   250
420
  2301728
370
    13
100
AcDbVertex
100
AcDb2dVertex
 10
5.224854034675748
 20
-4.930487500000001
 30
0.0
  0
VERTEX
  5
E7
330
E3
100
AcDbEntity
  8
Color Fill
 62
   250
420
  2301728
370
    13
100
AcDbVertex
100
AcDb2dVertex
 10
5.337355420722613
 20
-5.010280555555558
 30
0.0
  0
VERTEX
  5
E8
330
E3
100
AcDbEntity
  8
Color Fill
 62
   250
420
  2301728
370
    13
100
AcDbVertex
100
AcDb2dVertex
 10
5.391824863791044
 20
-5.025295833333328
 30
0.0
  0
SEQEND
  5
E9
330
E3
100
AcDbEntity
  8
Color Fill
 62
   250
420
  2301728
370
    13
  0
POLYLINE
  5
EA
330
6B
100
AcDbEntity
  8
Color Fill
 62
   250
420
  2301728
370
    13
100
AcDb2dPolyline
 66
     1
 10
0.0
 20
0.0
 30
0.0
  0
VERTEX
  5
EB
330
EA
100
AcDbEntity
  8
Color Fill
 62
   250
420
  2301728
370
    13
100
AcDbVertex
100
AcDb2dVertex
 10
5.539441526728599
 20
-5.028102777777778
 30
0.0
  0
VERTEX
  5
EC
330
EA
100
AcDbEntity
  8
Color Fill
 62
   250
420
  2301728
370
    13
100
AcDbVertex
100
AcDb2dVertex
 10
5.633191524360275
 20
-4.958197222222225
 30
0.0
  0
VERTEX
  5
ED
330
EA
100
AcDbEntity
  8
Color Fill
 62
   250
420
  2301728
370
    13
100
AcDbVertex
100
AcDb2dVertex
 10
5.685274856377873
 20
-4.881104166666672
 30
0.0
  0
VERTEX
  5
EE
330
EA
100
AcDbEntity
  8
Color Fill
 62
   250
420
  2301728
370
    13
100
AcDbVertex
100
AcDb2dVertex
 10
5.767170687642343
 20
-4.875962499999988
 30
0.0
  0
VERTEX
  5
EF
330
EA
100
AcDbEntity
  8
Color Fill
 62
   250
420
  2301728
370
    13
100
AcDbVertex
100
AcDb2dVertex
 10
5.818604019676362
 20
-4.889444444444456
 30
0.0
  0
SEQEND
  5
F0
330
EA
100
AcDbEntity
  8
Color Fill
 62
   250
420
  2301728
370
    13
  0
POLYLINE
  5
F1
330
6B
100
AcDbEntity
  8
Color Fill
 62
   250
420
  2301728
370
    13
100
AcDb2dPolyline
 66
     1
 10
0.0
 20
0.0
 30
0.0
  0
VERTEX
  5
F2
330
F1
100
AcDbEntity
  8
Color Fill
 62
   250
420
  2301728
370
    13
100
AcDbVertex
100
AcDb2dVertex
 10
5.643608190763794
 20
-5.022772222222228
 30
0.0
  0
VERTEX
  5
F3
330
F1
100
AcDbEntity
  8
Color Fill
 62
   250
420
  2301728
370
    13
100
AcDbVertex
100
AcDb2dVertex
 10
5.701144300421421
 20
-4.981093055555548
 30
0.0
  0
VERTEX
  5
F4
330
F1
100
AcDbEntity
  8
Color Fill
 62
   250
420
  2301728
370
    13
100
AcDbVertex
100
AcDb2dVertex
 10
5.735270688448205
 20
-4.97277777777779
 30
0.0
  0
VERTEX
  5
F5
330
F1
100
AcDbEntity
  8
Color Fill
 62
   250
420
  2301728
370
    13
100
AcDbVertex
100
AcDb2dVertex
 10
5.826931797243762
 20
-5.006104166666672
 30
0.0
  0
SEQEND
  5
F6
330
F1
100
AcDbEntity
  8
Color Fill
 62
   250
420
  2301728
370
    13
  0
POLYLINE
  5
F7
330
6B
100
AcDbEntity
  8
Color Fill
 62
   250
420
  2301728
370
    13
100
AcDb2dPolyline
 66
     1
 10
0.0
 20
0.0
 30
0.0
  0
VERTEX
  5
F8
330
F7
100
AcDbEntity
  8
Color Fill
 62
   250
420
  2301728
370
    13
100
AcDbVertex
100
AcDb2dVertex
 10
5.055576261174287
 20
-4.994655555555558
 30
0.0
  0
VERTEX
  5
F9
330
F7
100
AcDbEntity
  8
Color Fill
 62
   250
420
  2301728
370
    13
100
AcDbVertex
100
AcDb2dVertex
 10
5.097765148997395
 20
-4.985270833333339
 30
0.0
  0
VERTEX
  5
FA
330
F7
100
AcDbEntity
  8
Color Fill
 62
   250
420
  2301728
370
    13
100
AcDbVertex
100
AcDb2dVertex
 10
5.168599869430182
 20
-5.006104166666672
 30
0.0
  0
VERTEX
  5
FB
330
F7
100
AcDbEntity
  8
Color Fill
 62
   250
420
  2301728
370
    13
100
AcDbVertex
100
AcDb2dVertex
 10
5.202358201910707
 20
-5.028102777777778
 30
0.0
  0
SEQEND
  5
FC
330
F7
100
AcDbEntity
  8
Color Fill
 62
   250
420
  2301728
370
    13
  0
ENDBLK
  5
6E
330
6B
100
AcDbEntity
  8
0
100
AcDbBlockEnd
  0
BLOCK
  5
13B
330
139
100
AcDbEntity
  8
0
100
AcDbBlockBegin
  2
block 3
 70
     0
 10
0.0
 20
0.0
 30
0.0
  3
block 3
  1

  0
POLYLINE
  5
13D
330
139
100
AcDbEntity
  8
Wood
 62
   250
420
  2301728
370
    13
100
AcDb2dPolyline
 66
     1
 10
0.0
 20
0.0
 30
0.0
  0
VERTEX
  5
13E
330
13D
100
AcDbEntity
  8
Wood
 62
   250
420
  2301728
370
    13
100
AcDbVertex
100
AcDb2dVertex
 10
5.293877644043176
 20
-4.367566666666663
 30
0.0
  0
VERTEX
  5
13F
330
13D
100
AcDbEntity
  8
Wood
 62
   250
420
  2301728
370
    13
100
AcDbVertex
100
AcDb2dVertex
 10
5.329020698710943
 20
-4.414441666666663
 30
0.0
  0
VERTEX
  5
140
330
13D
100
AcDbEntity
  8
Wood
 62
   250
420
  2301728
370
    13
100
AcDbVertex
100
AcDb2dVertex
 10
5.356105420248948
 20
-4.420694444444456
 30
0.0
  0
VERTEX
  5
141
330
13D
100
AcDbEntity
  8
Wood
 62
   250
420
  2301728
370
    13
100
AcDbVertex
100
AcDb2dVertex
 10
5.552979026386613
 20
-4.362358333333329
 30
0.0
  0
SEQEND
  5
142
330
13D
100
AcDbEntity
  8
Wood
 62
   250
420
  2301728
370
    13
  0
POLYLINE
  5
143
330
139
100
AcDbEntity
  8
Wood
 62
   250
420
  2301728
370
    13
100
AcDb2dPolyline
 66
     1
 10
0.0
 20
0.0
 30
0.0
  0
VERTEX
  5
144
330
143
100
AcDbEntity
  8
Wood
 62
   250
420
  2301728
370
    13
100
AcDbVertex
100
AcDb2dVertex
 10
5.224854034675748
 20
-4.368611111111123
 30
0.0
  0
VERTEX
  5
145
330
143
100
AcDbEntity
  8
Wood
 62
   250
420
  2301728
370
    13
100
AcDbVertex
100
AcDb2dVertex
 10
5.293605421827831
 20
-4.464437500000005
 30
0.0
  0
VERTEX
  5
146
330
143
100
AcDbEntity
  8
Wood
 62
   250
420
  2301728
370
    13
100
AcDbVertex
100
AcDb2dVertex
 10
5.337355420722613
 20
-4.497259722222225
 30
0.0
  0
VERTEX
  5
147
330
143
100
AcDbEntity
  8
Wood
 62
   250
420
  2301728
370
    13
100
AcDbVertex
100
AcDb2dVertex
 10
5.370687364325022
 20
-4.506104166666672
 30
0.0
  0
VERTEX
  5
148
330
143
100
AcDbEntity
  8
Wood
 62
   250
420
  2301728
370
    13
100
AcDbVertex
100
AcDb2dVertex
 10
5.497762361114837
 20
-4.416530555555558
 30
0.0
  0
VERTEX
  5
149
330
143
100
AcDbEntity
  8
Wood
 62
   250
420
  2301728
370
    13
100
AcDbVertex
100
AcDb2dVertex
 10
5.566515137155774
 20
-4.401937500000005
 30
0.0
  0
VERTEX
  5
14A
330
143
100
AcDbEntity
  8
Wood
 62
   250
420
  2301728
370
    13
100
AcDbVertex
100
AcDb2dVertex
 10
5.683187356430608
 20
-4.476929166666675
 30
0.0
  0
VERTEX
  5
14B
330
143
100
AcDbEntity
  8
Wood
 62
   250
420
  2301728
370
    13
100
AcDbVertex
100
AcDb2dVertex
 10
5.751926243583006
 20
-4.574855555555561
 30
0.0
  0
VERTEX
  5
14C
330
143
100
AcDbEntity
  8
Wood
 62
   250
420
  2301728
370
    13
100
AcDbVertex
100
AcDb2dVertex
 10
5.824855408407327
 20
-4.62902777777779
 30
0.0
  0
SEQEND
  5
14D
330
143
100
AcDbEntity
  8
Wood
 62
   250
420
  2301728
370
    13
  0
POLYLINE
  5
14E
330
139
100
AcDbEntity
  8
Wood
 62
   250
420
  2301728
370
    13
100
AcDb2dPolyline
 66
     1
 10
0.0
 20
0.0
 30
0.0
  0
VERTEX
  5
14F
330
14E
100
AcDbEntity
  8
Wood
 62
   250
420
  2301728
370
    13
100
AcDbVertex
100
AcDb2dVertex
 10
5.120673481752015
 20
-4.368598611111111
 30
0.0
  0
VERTEX
  5
150
330
14E
100
AcDbEntity
  8
Wood
 62
   250
420
  2301728
370
    13
100
AcDbVertex
100
AcDb2dVertex
 10
5.201767924147841
 20
-4.470702777777786
 30
0.0
  0
VERTEX
  5
151
330
14E
100
AcDbEntity
  8
Wood
 62
   250
420
  2301728
370
    13
100
AcDbVertex
100
AcDb2dVertex
 10
5.306098477067786
 20
-4.551934722222212
 30
0.0
  0
VERTEX
  5
152
330
14E
100
AcDbEntity
  8
Wood
 62
   250
420
  2301728
370
    13
100
AcDbVertex
100
AcDb2dVertex
 10
5.333184587494643
 20
-4.556111111111123
 30
0.0
  0
VERTEX
  5
153
330
14E
100
AcDbEntity
  8
Wood
 62
   250
420
  2301728
370
    13
100
AcDbVertex
100
AcDb2dVertex
 10
5.451938751161328
 20
-4.520697222222225
 30
0.0
  0
VERTEX
  5
154
330
14E
100
AcDbEntity
  8
Wood
 62
   250
420
  2301728
370
    13
100
AcDbVertex
100
AcDb2dVertex
 10
5.516520693974295
 20
-4.476929166666675
 30
0.0
  0
VERTEX
  5
155
330
14E
100
AcDbEntity
  8
Wood
 62
   250
420
  2301728
370
    13
100
AcDbVertex
100
AcDb2dVertex
 10
5.570691525939158
 20
-4.485270833333339
 30
0.0
  0
VERTEX
  5
156
330
14E
100
AcDbEntity
  8
Wood
 62
   250
420
  2301728
370
    13
100
AcDbVertex
100
AcDb2dVertex
 10
5.638916666666672
 20
-4.572916666666666
 30
0.0
  0
VERTEX
  5
157
330
14E
100
AcDbEntity
  8
Wood
 62
   250
420
  2301728
370
    13
100
AcDbVertex
100
AcDb2dVertex
 10
5.691515133998008
 20
-4.591524999999996
 30
0.0
  0
VERTEX
  5
158
330
14E
100
AcDbEntity
  8
Wood
 62
   250
420
  2301728
370
    13
100
AcDbVertex
100
AcDb2dVertex
 10
5.791517909249503
 20
-4.664441666666662
 30
0.0
  0
VERTEX
  5
159
330
14E
100
AcDbEntity
  8
Wood
 62
   250
420
  2301728
370
    13
100
AcDbVertex
100
AcDb2dVertex
 10
5.818604019676362
 20
-4.695691666666662
 30
0.0
  0
SEQEND
  5
15A
330
14E
100
AcDbEntity
  8
Wood
 62
   250
420
  2301728
370
    13
  0
POLYLINE
  5
15B
330
139
100
AcDbEntity
  8
Wood
 62
   250
420
  2301728
370
    13
100
AcDb2dPolyline
 66
     1
 10
0.0
 20
0.0
 30
0.0
  0
VERTEX
  5
15C
330
15B
100
AcDbEntity
  8
Wood
 62
   250
420
  2301728
370
    13
100
AcDbVertex
100
AcDb2dVertex
 10
5.049852650207766
 20
-4.411309722222212
 30
0.0
  0
VERTEX
  5
15D
330
15B
100
AcDbEntity
  8
Wood
 62
   250
420
  2301728
370
    13
100
AcDbVertex
100
AcDb2dVertex
 10
5.074849871798506
 20
-4.426934722222212
 30
0.0
  0
VERTEX
  5
15E
330
15B
100
AcDbEntity
  8
Wood
 62
   250
420
  2301728
370
    13
100
AcDbVertex
100
AcDb2dVertex
 10
5.120687370640553
 20
-4.491536111111119
 30
0.0
  0
VERTEX
  5
15F
330
15B
100
AcDbEntity
  8
Wood
 62
   250
420
  2301728
370
    13
100
AcDbVertex
100
AcDb2dVertex
 10
5.147772092178557
 20
-4.495687500000005
 30
0.0
  0
VERTEX
  5
160
330
15B
100
AcDbEntity
  8
Wood
 62
   250
420
  2301728
370
    13
100
AcDbVertex
100
AcDb2dVertex
 10
5.24568055555556
 20
-4.568604166666672
 30
0.0
  0
VERTEX
  5
161
330
15B
100
AcDbEntity
  8
Wood
 62
   250
420
  2301728
370
    13
100
AcDbVertex
100
AcDb2dVertex
 10
5.268602644681676
 20
-4.601941666666662
 30
0.0
  0
VERTEX
  5
162
330
15B
100
AcDbEntity
  8
Wood
 62
   250
420
  2301728
370
    13
100
AcDbVertex
100
AcDb2dVertex
 10
5.314629032407841
 20
-4.62902777777779
 30
0.0
  0
VERTEX
  5
163
330
15B
100
AcDbEntity
  8
Wood
 62
   250
420
  2301728
370
    13
100
AcDbVertex
100
AcDb2dVertex
 10
5.345688753845429
 20
-4.643608333333329
 30
0.0
  0
VERTEX
  5
164
330
15B
100
AcDbEntity
  8
Wood
 62
   250
420
  2301728
370
    13
100
AcDbVertex
100
AcDb2dVertex
 10
5.441522084757808
 20
-4.574855555555561
 30
0.0
  0
VERTEX
  5
165
330
15B
100
AcDbEntity
  8
Wood
 62
   250
420
  2301728
370
    13
100
AcDbVertex
100
AcDb2dVertex
 10
5.501938749898222
 20
-4.558187500000005
 30
0.0
  0
VERTEX
  5
166
330
15B
100
AcDbEntity
  8
Wood
 62
   250
420
  2301728
370
    13
100
AcDbVertex
100
AcDb2dVertex
 10
5.52902486032508
 20
-4.562351388888879
 30
0.0
  0
VERTEX
  5
167
330
15B
100
AcDbEntity
  8
Wood
 62
   250
420
  2301728
370
    13
100
AcDbVertex
100
AcDb2dVertex
 10
5.630601246647934
 20
-4.643608333333329
 30
0.0
  0
VERTEX
  5
168
330
15B
100
AcDbEntity
  8
Wood
 62
   250
420
  2301728
370
    13
100
AcDbVertex
100
AcDb2dVertex
 10
5.691515133998008
 20
-4.651937500000005
 30
0.0
  0
VERTEX
  5
169
330
15B
100
AcDbEntity
  8
Wood
 62
   250
420
  2301728
370
    13
100
AcDbVertex
100
AcDb2dVertex
 10
5.749851243635425
 20
-4.695691666666662
 30
0.0
  0
SEQEND
  5
16A
330
15B
100
AcDbEntity
  8
Wood
 62
   250
420
  2301728
370
    13
  0
POLYLINE
  5
16B
330
139
100
AcDbEntity
  8
Wood
 62
   250
420
  2301728
370
    13
100
AcDb2dPolyline
 66
     1
 10
0.0
 20
0.0
 30
0.0
  0
VERTEX
  5
16C
330
16B
100
AcDbEntity
  8
Wood
 62
   250
420
  2301728
370
    13
100
AcDbVertex
100
AcDb2dVertex
 10
5.049852650207766
 20
-4.516520833333339
 30
0.0
  0
VERTEX
  5
16D
330
16B
100
AcDbEntity
  8
Wood
 62
   250
420
  2301728
370
    13
100
AcDbVertex
100
AcDb2dVertex
 10
5.087327649261068
 20
-4.543619444444453
 30
0.0
  0
VERTEX
  5
16E
330
16B
100
AcDbEntity
  8
Wood
 62
   250
420
  2301728
370
    13
100
AcDbVertex
100
AcDb2dVertex
 10
5.137355425775038
 20
-4.549858333333329
 30
0.0
  0
VERTEX
  5
16F
330
16B
100
AcDbEntity
  8
Wood
 62
   250
420
  2301728
370
    13
100
AcDbVertex
100
AcDb2dVertex
 10
5.237345701026848
 20
-4.622774999999996
 30
0.0
  0
VERTEX
  5
170
330
16B
100
AcDbEntity
  8
Wood
 62
   250
420
  2301728
370
    13
100
AcDbVertex
100
AcDb2dVertex
 10
5.30189986606274
 20
-4.690050000000004
 30
0.0
  0
SEQEND
  5
171
330
16B
100
AcDbEntity
  8
Wood
 62
   250
420
  2301728
370
    13
  0
POLYLINE
  5
172
330
139
100
AcDbEntity
  8
Wood
 62
   250
420
  2301728
370
    13
100
AcDb2dPolyline
 66
     1
 10
0.0
 20
0.0
 30
0.0
  0
VERTEX
  5
173
330
172
100
AcDbEntity
  8
Wood
 62
   250
420
  2301728
370
    13
100
AcDbVertex
100
AcDb2dVertex
 10
5.387349863904092
 20
-4.690050000000004
 30
0.0
  0
VERTEX
  5
174
330
172
100
AcDbEntity
  8
Wood
 62
   250
420
  2301728
370
    13
100
AcDbVertex
100
AcDb2dVertex
 10
5.491516527939287
 20
-4.612358333333329
 30
0.0
  0
VERTEX
  5
175
330
172
100
AcDbEntity
  8
Wood
 62
   250
420
  2301728
370
    13
100
AcDbVertex
100
AcDb2dVertex
 10
5.524848471541696
 20
-4.621188888888885
 30
0.0
  0
VERTEX
  5
176
330
172
100
AcDbEntity
  8
Wood
 62
   250
420
  2301728
370
    13
100
AcDbVertex
100
AcDb2dVertex
 10
5.618598469173372
 20
-4.691515277777777
 30
0.0
  0
SEQEND
  5
177
330
172
100
AcDbEntity
  8
Wood
 62
   250
420
  2301728
370
    13
  0
POLYLINE
  5
178
330
139
100
AcDbEntity
  8
Wood
 62
   250
420
  2301728
370
    13
100
AcDb2dPolyline
 66
     1
 10
0.0
 20
0.0
 30
0.0
  0
VERTEX
  5
179
330
178
100
AcDbEntity
  8
Wood
 62
   250
420
  2301728
370
    13
100
AcDbVertex
100
AcDb2dVertex
 10
5.485270694763736
 20
-4.688951388888881
 30
0.0
  0
VERTEX
  5
17A
330
178
100
AcDbEntity
  8
Wood
 62
   250
420
  2301728
370
    13
100
AcDbVertex
100
AcDb2dVertex
 10
5.510267916354476
 20
-4.672770833333339
 30
0.0
  0
VERTEX
  5
17B
330
178
100
AcDbEntity
  8
Wood
 62
   250
420
  2301728
370
    13
100
AcDbVertex
100
AcDb2dVertex
 10
5.537354026781334
 20
-4.676947222222225
 30
0.0
  0
VERTEX
  5
17C
330
178
100
AcDbEntity
  8
Wood
 62
   250
420
  2301728
370
    13
100
AcDbVertex
100
AcDb2dVertex
 10
5.558187359588374
 20
-4.692559722222212
 30
0.0
  0
SEQEND
  5
17D
330
178
100
AcDbEntity
  8
Wood
 62
   250
420
  2301728
370
    13
  0
POLYLINE
  5
17E
330
139
100
AcDbEntity
  8
Wood
 62
   250
420
  2301728
370
    13
100
AcDb2dPolyline
 66
     1
 10
0.0
 20
0.0
 30
0.0
  0
VERTEX
  5
17F
330
17E
100
AcDbEntity
  8
Wood
 62
   250
420
  2301728
370
    13
100
AcDbVertex
100
AcDb2dVertex
 10
5.049852650207766
 20
-4.579033333333326
 30
0.0
  0
VERTEX
  5
180
330
17E
100
AcDbEntity
  8
Wood
 62
   250
420
  2301728
370
    13
100
AcDbVertex
100
AcDb2dVertex
 10
5.072767927406655
 20
-4.595702777777786
 30
0.0
  0
VERTEX
  5
181
330
17E
100
AcDbEntity
  8
Wood
 62
   250
420
  2301728
370
    13
100
AcDbVertex
100
AcDb2dVertex
 10
5.099854037833514
 20
-4.599854166666672
 30
0.0
  0
VERTEX
  5
182
330
17E
100
AcDbEntity
  8
Wood
 62
   250
420
  2301728
370
    13
100
AcDbVertex
100
AcDb2dVertex
 10
5.199855424196155
 20
-4.672770833333339
 30
0.0
  0
VERTEX
  5
183
330
17E
100
AcDbEntity
  8
Wood
 62
   250
420
  2301728
370
    13
100
AcDbVertex
100
AcDb2dVertex
 10
5.212442923878168
 20
-4.692559722222212
 30
0.0
  0
SEQEND
  5
184
330
17E
100
AcDbEntity
  8
Wood
 62
   250
420
  2301728
370
    13
  0
POLYLINE
  5
185
330
139
100
AcDbEntity
  8
Wood
 62
   250
420
  2301728
370
    13
100
AcDb2dPolyline
 66
     1
 10
0.0
 20
0.0
 30
0.0
  0
VERTEX
  5
186
330
185
100
AcDbEntity
  8
Wood
 62
   250
420
  2301728
370
    13
100
AcDbVertex
100
AcDb2dVertex
 10
5.055576261174287
 20
-4.62902777777779
 30
0.0
  0
VERTEX
  5
187
330
185
100
AcDbEntity
  8
Wood
 62
   250
420
  2301728
370
    13
100
AcDbVertex
100
AcDb2dVertex
 10
5.112644315288182
 20
-4.670518055555552
 30
0.0
  0
VERTEX
  5
188
330
185
100
AcDbEntity
  8
Wood
 62
   250
420
  2301728
370
    13
100
AcDbVertex
100
AcDb2dVertex
 10
5.131144314820832
 20
-4.692559722222212
 30
0.0
  0
SEQEND
  5
189
330
185
100
AcDbEntity
  8
Wood
 62
   250
420
  2301728
370
    13
  0
POLYLINE
  5
18A
330
139
100
AcDbEntity
  8
Wood
 62
   250
420
  2301728
370
    13
100
AcDb2dPolyline
 66
     1
 10
0.0
 20
0.0
 30
0.0
  0
VERTEX
  5
18B
330
18A
100
AcDbEntity
  8
Wood
 62
   250
420
  2301728
370
    13
100
AcDbVertex
100
AcDb2dVertex
 10
5.055576261174287
 20
-4.722031944444451
 30
0.0
  0
VERTEX
  5
18C
330
18A
100
AcDbEntity
  8
Wood
 62
   250
420
  2301728
370
    13
100
AcDbVertex
100
AcDb2dVertex
 10
5.087327649261068
 20
-4.722031944444451
 30
0.0
  0
VERTEX
  5
18D
330
18A
100
AcDbEntity
  8
Wood
 62
   250
420
  2301728
370
    13
100
AcDbVertex
100
AcDb2dVertex
 10
5.156101258634812
 20
-4.737345833333342
 30
0.0
  0
VERTEX
  5
18E
330
18A
100
AcDbEntity
  8
Wood
 62
   250
420
  2301728
370
    13
100
AcDbVertex
100
AcDb2dVertex
 10
5.224854034675748
 20
-4.787001388888888
 30
0.0
  0
VERTEX
  5
18F
330
18A
100
AcDbEntity
  8
Wood
 62
   250
420
  2301728
370
    13
100
AcDbVertex
100
AcDb2dVertex
 10
5.374851253108722
 20
-4.835272222222228
 30
0.0
  0
VERTEX
  5
190
330
18A
100
AcDbEntity
  8
Wood
 62
   250
420
  2301728
370
    13
100
AcDbVertex
100
AcDb2dVertex
 10
5.451938751161328
 20
-4.889444444444456
 30
0.0
  0
VERTEX
  5
191
330
18A
100
AcDbEntity
  8
Wood
 62
   250
420
  2301728
370
    13
100
AcDbVertex
100
AcDb2dVertex
 10
5.48318180592763
 20
-4.883191666666662
 30
0.0
  0
VERTEX
  5
192
330
18A
100
AcDbEntity
  8
Wood
 62
   250
420
  2301728
370
    13
100
AcDbVertex
100
AcDb2dVertex
 10
5.584229025597172
 20
-4.80847222222221
 30
0.0
  0
VERTEX
  5
193
330
18A
100
AcDbEntity
  8
Wood
 62
   250
420
  2301728
370
    13
100
AcDbVertex
100
AcDb2dVertex
 10
5.722765133208567
 20
-4.722031944444451
 30
0.0
  0
VERTEX
  5
194
330
18A
100
AcDbEntity
  8
Wood
 62
   250
420
  2301728
370
    13
100
AcDbVertex
100
AcDb2dVertex
 10
5.76235540998621
 20
-4.722031944444451
 30
0.0
  0
VERTEX
  5
195
330
18A
100
AcDbEntity
  8
Wood
 62
   250
420
  2301728
370
    13
100
AcDbVertex
100
AcDb2dVertex
 10
5.822767908460062
 20
-4.745374999999992
 30
0.0
  0
SEQEND
  5
196
330
18A
100
AcDbEntity
  8
Wood
 62
   250
420
  2301728
370
    13
  0
POLYLINE
  5
197
330
139
100
AcDbEntity
  8
Wood
 62
   250
420
  2301728
370
    13
100
AcDb2dPolyline
 66
     1
 10
0.0
 20
0.0
 30
0.0
  0
VERTEX
  5
198
330
197
100
AcDbEntity
  8
Wood
 62
   250
420
  2301728
370
    13
100
AcDbVertex
100
AcDb2dVertex
 10
5.183844313489518
 20
-4.699855555555561
 30
0.0
  0
VERTEX
  5
199
330
197
100
AcDbEntity
  8
Wood
 62
   250
420
  2301728
370
    13
100
AcDbVertex
100
AcDb2dVertex
 10
5.283474866528195
 20
-4.7421875
 30
0.0
  0
VERTEX
  5
19A
330
197
100
AcDbEntity
  8
Wood
 62
   250
420
  2301728
370
    13
100
AcDbVertex
100
AcDb2dVertex
 10
5.433187362746139
 20
-4.789429166666675
 30
0.0
  0
VERTEX
  5
19B
330
197
100
AcDbEntity
  8
Wood
 62
   250
420
  2301728
370
    13
100
AcDbVertex
100
AcDb2dVertex
 10
5.469631806269919
 20
-4.782972222222219
 30
0.0
  0
VERTEX
  5
19C
330
197
100
AcDbEntity
  8
Wood
 62
   250
420
  2301728
370
    13
100
AcDbVertex
100
AcDb2dVertex
 10
5.566515137155774
 20
-4.732638888888888
 30
0.0
  0
VERTEX
  5
19D
330
197
100
AcDbEntity
  8
Wood
 62
   250
420
  2301728
370
    13
100
AcDbVertex
100
AcDb2dVertex
 10
5.649115135069122
 20
-4.695691666666662
 30
0.0
  0
SEQEND
  5
19E
330
197
100
AcDbEntity
  8
Wood
 62
   250
420
  2301728
370
    13
  0
POLYLINE
  5
19F
330
139
100
AcDbEntity
  8
Wood
 62
   250
420
  2301728
370
    13
100
AcDb2dPolyline
 66
     1
 10
0.0
 20
0.0
 30
0.0
  0
VERTEX
  5
1A0
330
19F
100
AcDbEntity
  8
Wood
 62
   250
420
  2301728
370
    13
100
AcDbVertex
100
AcDb2dVertex
 10
5.327819444444445
 20
-4.699855555555561
 30
0.0
  0
VERTEX
  5
1A1
330
19F
100
AcDbEntity
  8
Wood
 62
   250
420
  2301728
370
    13
100
AcDbVertex
100
AcDb2dVertex
 10
5.377820697478152
 20
-4.731486111111104
 30
0.0
  0
VERTEX
  5
1A2
330
19F
100
AcDbEntity
  8
Wood
 62
   250
420
  2301728
370
    13
100
AcDbVertex
100
AcDb2dVertex
 10
5.416483196501455
 20
-4.731486111111104
 30
0.0
  0
VERTEX
  5
1A3
330
19F
100
AcDbEntity
  8
Wood
 62
   250
420
  2301728
370
    13
100
AcDbVertex
100
AcDb2dVertex
 10
5.455830417729683
 20
-4.699855555555561
 30
0.0
  0
SEQEND
  5
1A4
330
19F
100
AcDbEntity
  8
Wood
 62
   250
420
  2301728
370
    13
  0
POLYLINE
  5
1A5
330
139
100
AcDbEntity
  8
Wood
 62
   250
420
  2301728
370
    13
100
AcDb2dPolyline
 66
     1
 10
0.0
 20
0.0
 30
0.0
  0
VERTEX
  5
1A6
330
1A5
100
AcDbEntity
  8
Wood
 62
   250
420
  2301728
370
    13
100
AcDbVertex
100
AcDb2dVertex
 10
5.049852650207766
 20
-4.835272222222228
 30
0.0
  0
VERTEX
  5
1A7
330
1A5
100
AcDbEntity
  8
Wood
 62
   250
420
  2301728
370
    13
100
AcDbVertex
100
AcDb2dVertex
 10
5.068604038622955
 20
-4.820691666666662
 30
0.0
  0
VERTEX
  5
1A8
330
1A5
100
AcDbEntity
  8
Wood
 62
   250
420
  2301728
370
    13
100
AcDbVertex
100
AcDb2dVertex
 10
5.098191537875512
 20
-4.820691666666662
 30
0.0
  0
VERTEX
  5
1A9
330
1A5
100
AcDbEntity
  8
Wood
 62
   250
420
  2301728
370
    13
100
AcDbVertex
100
AcDb2dVertex
 10
5.30810542146153
 20
-4.877088888888895
 30
0.0
  0
VERTEX
  5
1AA
330
1A5
100
AcDbEntity
  8
Wood
 62
   250
420
  2301728
370
    13
100
AcDbVertex
100
AcDb2dVertex
 10
5.43109847391002
 20
-4.960286111111119
 30
0.0
  0
VERTEX
  5
1AB
330
1A5
100
AcDbEntity
  8
Wood
 62
   250
420
  2301728
370
    13
100
AcDbVertex
100
AcDb2dVertex
 10
5.501938749898222
 20
-4.981093055555548
 30
0.0
  0
VERTEX
  5
1AC
330
1A5
100
AcDbEntity
  8
Wood
 62
   250
420
  2301728
370
    13
100
AcDbVertex
100
AcDb2dVertex
 10
5.533176249109096
 20
-4.974854166666672
 30
0.0
  0
VERTEX
  5
1AD
330
1A5
100
AcDbEntity
  8
Wood
 62
   250
420
  2301728
370
    13
100
AcDbVertex
100
AcDb2dVertex
 10
5.641520690816529
 20
-4.820691666666662
 30
0.0
  0
VERTEX
  5
1AE
330
1A5
100
AcDbEntity
  8
Wood
 62
   250
420
  2301728
370
    13
100
AcDbVertex
100
AcDb2dVertex
 10
5.731879021867219
 20
-4.770833333333333
 30
0.0
  0
VERTEX
  5
1AF
330
1A5
100
AcDbEntity
  8
Wood
 62
   250
420
  2301728
370
    13
100
AcDbVertex
100
AcDb2dVertex
 10
5.826931797243762
 20
-4.805745833333327
 30
0.0
  0
SEQEND
  5
1B0
330
1A5
100
AcDbEntity
  8
Wood
 62
   250
420
  2301728
370
    13
  0
POLYLINE
  5
1B1
330
139
100
AcDbEntity
  8
Wood
 62
   250
420
  2301728
370
    13
100
AcDb2dPolyline
 66
     1
 10
0.0
 20
0.0
 30
0.0
  0
VERTEX
  5
1B2
330
1B1
100
AcDbEntity
  8
Wood
 62
   250
420
  2301728
370
    13
100
AcDbVertex
100
AcDb2dVertex
 10
5.055576261174287
 20
-4.890773611111121
 30
0.0
  0
VERTEX
  5
1B3
330
1B1
100
AcDbEntity
  8
Wood
 62
   250
420
  2301728
370
    13
100
AcDbVertex
100
AcDb2dVertex
 10
5.081095704974055
 20
-4.887355555555561
 30
0.0
  0
VERTEX
  5
1B4
330
1B1
100
AcDbEntity
  8
Wood
 62
   250
420
  2301728
370
    13
100
AcDbVertex
100
AcDb2dVertex
 10
5.224854034675748
 20
-4.930487500000001
 30
0.0
  0
VERTEX
  5
1B5
330
1B1
100
AcDbEntity
  8
Wood
 62
   250
420
  2301728
370
    13
100
AcDbVertex
100
AcDb2dVertex
 10
5.337355420722613
 20
-5.010280555555558
 30
0.0
  0
VERTEX
  5
1B6
330
1B1
100
AcDbEntity
  8
Wood
 62
   250
420
  2301728
370
    13
100
AcDbVertex
100
AcDb2dVertex
 10
5.391824863791044
 20
-5.025295833333328
 30
0.0
  0
SEQEND
  5
1B7
330
1B1
100
AcDbEntity
  8
Wood
 62
   250
420
  2301728
370
    13
  0
POLYLINE
  5
1B8
330
139
100
AcDbEntity
  8
Wood
 62
   250
420
  2301728
370
    13
100
AcDb2dPolyline
 66
     1
 10
0.0
 20
0.0
 30
0.0
  0
VERTEX
  5
1B9
330
1B8
100
AcDbEntity
  8
Wood
 62
   250
420
  2301728
370
    13
100
AcDbVertex
100
AcDb2dVertex
 10
5.539441526728599
 20
-5.028102777777778
 30
0.0
  0
VERTEX
  5
1BA
330
1B8
100
AcDbEntity
  8
Wood
 62
   250
420
  2301728
370
    13
100
AcDbVertex
100
AcDb2dVertex
 10
5.633191524360275
 20
-4.958197222222225
 30
0.0
  0
VERTEX
  5
1BB
330
1B8
100
AcDbEntity
  8
Wood
 62
   250
420
  2301728
370
    13
100
AcDbVertex
100
AcDb2dVertex
 10
5.685274856377873
 20
-4.881104166666672
 30
0.0
  0
VERTEX
  5
1BC
330
1B8
100
AcDbEntity
  8
Wood
 62
   250
420
  2301728
370
    13
100
AcDbVertex
100
AcDb2dVertex
 10
5.767170687642343
 20
-4.875962499999988
 30
0.0
  0
VERTEX
  5
1BD
330
1B8
100
AcDbEntity
  8
Wood
 62
   250
420
  2301728
370
    13
100
AcDbVertex
100
AcDb2dVertex
 10
5.818604019676362
 20
-4.889444444444456
 30
0.0
  0
SEQEND
  5
1BE
330
1B8
100
AcDbEntity
  8
Wood
 62
   250
420
  2301728
370
    13
  0
POLYLINE
  5
1BF
330
139
100
AcDbEntity
  8
Wood
 62
   250
420
  2301728
370
    13
100
AcDb2dPolyline
 66
     1
 10
0.0
 20
0.0
 30
0.0
  0
VERTEX
  5
1C0
330
1BF
100
AcDbEntity
  8
Wood
 62
   250
420
  2301728
370
    13
100
AcDbVertex
100
AcDb2dVertex
 10
5.643608190763794
 20
-5.022772222222228
 30
0.0
  0
VERTEX
  5
1C1
330
1BF
100
AcDbEntity
  8
Wood
 62
   250
420
  2301728
370
    13
100
AcDbVertex
100
AcDb2dVertex
 10
5.701144300421421
 20
-4.981093055555548
 30
0.0
  0
VERTEX
  5
1C2
330
1BF
100
AcDbEntity
  8
Wood
 62
   250
420
  2301728
370
    13
100
AcDbVertex
100
AcDb2dVertex
 10
5.735270688448205
 20
-4.97277777777779
 30
0.0
  0
VERTEX
  5
1C3
330
1BF
100
AcDbEntity
  8
Wood
 62
   250
420
  2301728
370
    13
100
AcDbVertex
100
AcDb2dVertex
 10
5.826931797243762
 20
-5.006104166666672
 30
0.0
  0
SEQEND
  5
1C4
330
1BF
100
AcDbEntity
  8
Wood
 62
   250
420
  2301728
370
    13
  0
POLYLINE
  5
1C5
330
139
100
AcDbEntity
  8
Wood
 62
   250
420
  2301728
370
    13
100
AcDb2dPolyline
 66
     1
 10
0.0
 20
0.0
 30
0.0
  0
VERTEX
  5
1C6
330
1C5
100
AcDbEntity
  8
Wood
 62
   250
420
  2301728
370
    13
100
AcDbVertex
100
AcDb2dVertex
 10
5.055576261174287
 20
-4.994655555555558
 30
0.0
  0
VERTEX
  5
1C7
330
1C5
100
AcDbEntity
  8
Wood
 62
   250
420
  2301728
370
    13
100
AcDbVertex
100
AcDb2dVertex
 10
5.097765148997395
 20
-4.985270833333339
 30
0.0
  0
VERTEX
  5
1C8
330
1C5
100
AcDbEntity
  8
Wood
 62
   250
420
  2301728
370
    13
100
AcDbVertex
100
AcDb2dVertex
 10
5.168599869430182
 20
-5.006104166666672
 30
0.0
  0
VERTEX
  5
1C9
330
1C5
100
AcDbEntity
  8
Wood
 62
   250
420
  2301728
370
    13
100
AcDbVertex
100
AcDb2dVertex
 10
5.202358201910707
 20
-5.028102777777778
 30
0.0
  0
SEQEND
  5
1CA
330
1C5
100
AcDbEntity
  8
Wood
 62
   250
420
  2301728
370
    13
  0
ENDBLK
  5
13C
330
139
100
AcDbEntity
  8
0
100
AcDbBlockEnd
  0
BLOCK
  5
1CE
330
1CC
100
AcDbEntity
  8
0
100
AcDbBlockBegin
  2
block 4
 70
     0
 10
0.0
 20
0.0
 30
0.0
  3
block 4
  1

  0
POLYLINE
  5
1D0
330
1CC
100
AcDbEntity
  8
SDWC screw
  6
AI-Linetype-1
 62
   250
420
  2301728
370
    18
100
AcDb2dPolyline
 66
     1
 10
0.0
 20
0.0
 30
0.0
  0
VERTEX
  5
1D1
330
1D0
100
AcDbEntity
  8
SDWC screw
  6
AI-Linetype-1
 62
   250
420
  2301728
370
    18
100
AcDbVertex
100
AcDb2dVertex
 10
5.806816519974139
 20
-5.040798611111111
 30
0.0
  0
VERTEX
  5
1D2
330
1D0
100
AcDbEntity
  8
SDWC screw
  6
AI-Linetype-1
 62
   250
420
  2301728
370
    18
100
AcDbVertex
100
AcDb2dVertex
 10
5.30361653268604
 20
-3.827988888888891
 30
0.0
  0
VERTEX
  5
1D3
330
1D0
100
AcDbEntity
  8
SDWC screw
  6
AI-Linetype-1
 62
   250
420
  2301728
370
    18
100
AcDbVertex
100
AcDb2dVertex
 10
5.252740145082397
 20
-3.759800000000003
 30
0.0
  0
VERTEX
  5
1D4
330
1D0
100
AcDbEntity
  8
SDWC screw
  6
AI-Linetype-1
 62
   250
420
  2301728
370
    18
100
AcDbVertex
100
AcDb2dVertex
 10
5.264838755887872
 20
-3.849161111111117
 30
0.0
  0
VERTEX
  5
1D5
330
1D0
100
AcDbEntity
  8
SDWC screw
  6
AI-Linetype-1
 62
   250
420
  2301728
370
    18
100
AcDbVertex
100
AcDb2dVertex
 10
5.762938743304807
 20
-5.060641666666672
 30
0.0
  0
SEQEND
  5
1D8
330
1D0
100
AcDbEntity
  8
SDWC screw
  6
AI-Linetype-1
 62
   250
420
  2301728
370
    18
  0
HATCH
  5
1D7
330
1CC
100
AcDbEntity
  8
SDWC screw
 62
    30
420
 15955765
100
AcDbHatch
 10
0.0
 20
0.0
 30
0.0
210
0.0
220
0.0
230
1.0
  2
SOLID
 70
     1
 71
     0
 91
        1
 92
        1
 93
        5
 72
     1
 10
5.806816519974139
 20
-5.040798611111111
 11
5.30361653268604
 21
-3.827988888888891
 72
     1
 10
5.30361653268604
 20
-3.827988888888891
 11
5.252740145082397
 21
-3.759800000000003
 72
     1
 10
5.252740145082397
 20
-3.759800000000003
 11
5.264838755887872
 21
-3.849161111111117
 72
     1
 10
5.264838755887872
 20
-3.849161111111117
 11
5.762938743304807
 21
-5.060641666666672
 72
     1
 10
5.762938743304807
 20
-5.060641666666672
 11
5.806816519974139
 21
-5.040798611111111
 97
        0
 75
     2
 76
     1
 98
        0
  0
POLYLINE
  5
1D9
330
1CC
100
AcDbEntity
  8
SDWC screw
  6
AI-Linetype-2
 62
   250
420
  2301728
370
    20
100
AcDb2dPolyline
 66
     1
 10
0.0
 20
0.0
 30
0.0
  0
VERTEX
  5
1DA
330
1D9
100
AcDbEntity
  8
SDWC screw
  6
AI-Linetype-2
 62
   250
420
  2301728
370
    20
100
AcDbVertex
100
AcDb2dVertex
 10
5.82655124169782
 20
-5.082437499999994
 30
0.0
  0
VERTEX
  5
1DB
330
1D9
100
AcDbEntity
  8
SDWC screw
  6
AI-Linetype-2
 62
   250
420
  2301728
370
    20
100
AcDbVertex
100
AcDb2dVertex
 10
5.762531798870643
 20
-5.109754166666662
 30
0.0
  0
VERTEX
  5
1DC
330
1D9
100
AcDbEntity
  8
SDWC screw
  6
AI-Linetype-2
 62
   250
420
  2301728
370
    20
100
AcDbVertex
100
AcDb2dVertex
 10
5.744398465995396
 20
-5.067247222222224
 30
0.0
  0
VERTEX
  5
1DD
330
1D9
100
AcDbEntity
  8
SDWC screw
  6
AI-Linetype-2
 62
   250
420
  2301728
370
    20
100
AcDbVertex
100
AcDb2dVertex
 10
5.825167908399433
 20
-5.032783333333327
 30
0.0
  0
VERTEX
  5
1DE
330
1D9
100
AcDbEntity
  8
SDWC screw
  6
AI-Linetype-2
 62
   250
420
  2301728
370
    20
100
AcDbVertex
100
AcDb2dVertex
 10
5.82655124169782
 20
-5.082437499999994
 30
0.0
  0
SEQEND
  5
1E1
330
1D9
100
AcDbEntity
  8
SDWC screw
  6
AI-Linetype-2
 62
   250
420
  2301728
370
    20
  0
HATCH
  5
1E0
330
1CC
100
AcDbEntity
  8
SDWC screw
 62
    30
420
 15955765
100
AcDbHatch
 10
0.0
 20
0.0
 30
0.0
210
0.0
220
0.0
230
1.0
  2
SOLID
 70
     1
 71
     0
 91
        1
 92
        1
 93
        4
 72
     1
 10
5.82655124169782
 20
-5.082437499999994
 11
5.762531798870643
 21
-5.109754166666662
 72
     1
 10
5.762531798870643
 20
-5.109754166666662
 11
5.744398465995396
 21
-5.067247222222224
 72
     1
 10
5.744398465995396
 20
-5.067247222222224
 11
5.825167908399433
 21
-5.032783333333327
 72
     1
 10
5.825167908399433
 20
-5.032783333333327
 11
5.82655124169782
 21
-5.082437499999994
 97
        0
 75
     2
 76
     1
 98
        0
  0
POLYLINE
  5
1E2
330
1CC
100
AcDbEntity
  8
SDWC screw
 62
   250
420
  2301728
370
    20
100
AcDb2dPolyline
 66
     1
 10
0.0
 20
0.0
 30
0.0
  0
VERTEX
  5
1E3
330
1E2
100
AcDbEntity
  8
SDWC screw
 62
   250
420
  2301728
370
    20
100
AcDbVertex
100
AcDb2dVertex
 10
5.825167908399433
 20
-5.032783333333327
 30
0.0
  0
VERTEX
  5
1E4
330
1E2
100
AcDbEntity
  8
SDWC screw
 62
   250
420
  2301728
370
    20
100
AcDbVertex
100
AcDb2dVertex
 10
5.843302630163533
 20
-5.075290277777766
 30
0.0
  0
VERTEX
  5
1E5
330
1E2
100
AcDbEntity
  8
SDWC screw
 62
   250
420
  2301728
370
    20
100
AcDbVertex
100
AcDb2dVertex
 10
5.82655124169782
 20
-5.082437499999994
 30
0.0
  0
VERTEX
  5
1E6
330
1E2
100
AcDbEntity
  8
SDWC screw
 62
   250
420
  2301728
370
    20
100
AcDbVertex
100
AcDb2dVertex
 10
5.825167908399433
 20
-5.032783333333327
 30
0.0
  0
SEQEND
  5
1E8
330
1E2
100
AcDbEntity
  8
SDWC screw
 62
   250
420
  2301728
370
    20
  0
HATCH
  5
1E7
330
1CC
100
AcDbEntity
  8
SDWC screw
 62
    30
420
 15955765
100
AcDbHatch
 10
0.0
 20
0.0
 30
0.0
210
0.0
220
0.0
230
1.0
  2
SOLID
 70
     1
 71
     0
 91
        1
 92
        1
 93
        3
 72
     1
 10
5.825167908399433
 20
-5.032783333333327
 11
5.843302630163533
 21
-5.075290277777766
 72
     1
 10
5.843302630163533
 20
-5.075290277777766
 11
5.82655124169782
 21
-5.082437499999994
 72
     1
 10
5.82655124169782
 20
-5.082437499999994
 11
5.825167908399433
 21
-5.032783333333327
 97
        0
 75
     2
 76
     1
 98
        0
  0
POLYLINE
  5
1E9
330
1CC
100
AcDbEntity
  8
SDWC screw
  6
AI-Linetype-3
 62
   250
420
  2301728
370
    18
100
AcDb2dPolyline
 66
     1
 10
0.0
 20
0.0
 30
0.0
  0
VERTEX
  5
1EA
330
1E9
100
AcDbEntity
  8
SDWC screw
  6
AI-Linetype-3
 62
   250
420
  2301728
370
    18
100
AcDbVertex
100
AcDb2dVertex
 10
5.752142910244199
 20
-5.043077777777777
 30
0.0
  0
VERTEX
  5
1EB
330
1E9
100
AcDbEntity
  8
SDWC screw
  6
AI-Linetype-3
 62
   250
420
  2301728
370
    18
100
AcDbVertex
100
AcDb2dVertex
 10
5.742065132721008
 20
-5.040744444444448
 30
0.0
  0
VERTEX
  5
1EC
330
1E9
100
AcDbEntity
  8
SDWC screw
  6
AI-Linetype-3
 62
   250
420
  2301728
370
    18
100
AcDbVertex
100
AcDb2dVertex
 10
5.798067909084036
 20
-4.992133333333337
 30
0.0
  0
VERTEX
  5
1ED
330
1E9
100
AcDbEntity
  8
SDWC screw
  6
AI-Linetype-3
 62
   250
420
  2301728
370
    18
100
AcDbVertex
100
AcDb2dVertex
 10
5.785590131621474
 20
-4.990654166666673
 30
0.0
  0
SEQEND
  5
1F0
330
1E9
100
AcDbEntity
  8
SDWC screw
  6
AI-Linetype-3
 62
   250
420
  2301728
370
    18
  0
HATCH
  5
1EF
330
1CC
100
AcDbEntity
  8
SDWC screw
 62
    30
420
 15955765
100
AcDbHatch
 10
0.0
 20
0.0
 30
0.0
210
0.0
220
0.0
230
1.0
  2
SOLID
 70
     1
 71
     0
 91
        1
 92
        1
 93
        4
 72
     1
 10
5.752142910244199
 20
-5.043077777777777
 11
5.742065132721008
 21
-5.040744444444448
 72
     1
 10
5.742065132721008
 20
-5.040744444444448
 11
5.798067909084036
 21
-4.992133333333338
 72
     1
 10
5.798067909084036
 20
-4.992133333333337
 11
5.785590131621474
 21
-4.990654166666672
 72
     1
 10
5.785590131621474
 20
-4.990654166666673
 11
5.752142910244199
 21
-5.043077777777778
 97
        0
 75
     2
 76
     1
 98
        0
  0
POLYLINE
  5
1F1
330
1CC
100
AcDbEntity
  8
SDWC screw
  6
AI-Linetype-4
 62
   250
420
  2301728
370
    18
100
AcDb2dPolyline
 66
     1
 10
0.0
 20
0.0
 30
0.0
  0
VERTEX
  5
1F2
330
1F1
100
AcDbEntity
  8
SDWC screw
  6
AI-Linetype-4
 62
   250
420
  2301728
370
    18
100
AcDbVertex
100
AcDb2dVertex
 10
5.738931799466829
 20
-5.005643055555563
 30
0.0
  0
VERTEX
  5
1F3
330
1F1
100
AcDbEntity
  8
SDWC screw
  6
AI-Linetype-4
 62
   250
420
  2301728
370
    18
100
AcDbVertex
100
AcDb2dVertex
 10
5.728854021943637
 20
-5.003309722222235
 30
0.0
  0
VERTEX
  5
1F4
330
1F1
100
AcDbEntity
  8
SDWC screw
  6
AI-Linetype-4
 62
   250
420
  2301728
370
    18
100
AcDbVertex
100
AcDb2dVertex
 10
5.784858187195519
 20
-4.954698611111123
 30
0.0
  0
VERTEX
  5
1F5
330
1F1
100
AcDbEntity
  8
SDWC screw
  6
AI-Linetype-4
 62
   250
420
  2301728
370
    18
100
AcDbVertex
100
AcDb2dVertex
 10
5.772379020844103
 20
-4.953219444444433
 30
0.0
  0
SEQEND
  5
1F8
330
1F1
100
AcDbEntity
  8
SDWC screw
  6
AI-Linetype-4
 62
   250
420
  2301728
370
    18
  0
HATCH
  5
1F7
330
1CC
100
AcDbEntity
  8
SDWC screw
 62
    30
420
 15955765
100
AcDbHatch
 10
0.0
 20
0.0
 30
0.0
210
0.0
220
0.0
230
1.0
  2
SOLID
 70
     1
 71
     0
 91
        1
 92
        1
 93
        4
 72
     1
 10
5.738931799466829
 20
-5.005643055555563
 11
5.728854021943637
 21
-5.003309722222234
 72
     1
 10
5.728854021943637
 20
-5.003309722222235
 11
5.784858187195519
 21
-4.954698611111124
 72
     1
 10
5.784858187195519
 20
-4.954698611111123
 11
5.772379020844103
 21
-4.953219444444433
 72
     1
 10
5.772379020844103
 20
-4.953219444444433
 11
5.738931799466829
 21
-5.005643055555563
 97
        0
 75
     2
 76
     1
 98
        0
  0
POLYLINE
  5
1F9
330
1CC
100
AcDbEntity
  8
SDWC screw
  6
AI-Linetype-5
 62
   250
420
  2301728
370
    18
100
AcDb2dPolyline
 66
     1
 10
0.0
 20
0.0
 30
0.0
  0
VERTEX
  5
1FA
330
1F9
100
AcDbEntity
  8
SDWC screw
  6
AI-Linetype-5
 62
   250
420
  2301728
370
    18
100
AcDbVertex
100
AcDb2dVertex
 10
5.72113735547191
 20
-4.971163888888896
 30
0.0
  0
VERTEX
  5
1FB
330
1F9
100
AcDbEntity
  8
SDWC screw
  6
AI-Linetype-5
 62
   250
420
  2301728
370
    18
100
AcDbVertex
100
AcDb2dVertex
 10
5.711073466837257
 20
-4.968831944444446
 30
0.0
  0
VERTEX
  5
1FC
330
1F9
100
AcDbEntity
  8
SDWC screw
  6
AI-Linetype-5
 62
   250
420
  2301728
370
    18
100
AcDbVertex
100
AcDb2dVertex
 10
5.767062354311747
 20
-4.920220833333334
 30
0.0
  0
VERTEX
  5
1FD
330
1F9
100
AcDbEntity
  8
SDWC screw
  6
AI-Linetype-5
 62
   250
420
  2301728
370
    18
100
AcDbVertex
100
AcDb2dVertex
 10
5.754598465737723
 20
-4.91874166666667
 30
0.0
  0
SEQEND
  5
200
330
1F9
100
AcDbEntity
  8
SDWC screw
  6
AI-Linetype-5
 62
   250
420
  2301728
370
    18
  0
HATCH
  5
1FF
330
1CC
100
AcDbEntity
  8
SDWC screw
 62
    30
420
 15955765
100
AcDbHatch
 10
0.0
 20
0.0
 30
0.0
210
0.0
220
0.0
230
1.0
  2
SOLID
 70
     1
 71
     0
 91
        1
 92
        1
 93
        4
 72
     1
 10
5.72113735547191
 20
-4.971163888888896
 11
5.711073466837257
 21
-4.968831944444446
 72
     1
 10
5.711073466837257
 20
-4.968831944444446
 11
5.767062354311747
 21
-4.920220833333335
 72
     1
 10
5.767062354311747
 20
-4.920220833333334
 11
5.754598465737723
 21
-4.918741666666669
 72
     1
 10
5.754598465737723
 20
-4.91874166666667
 11
5.72113735547191
 21
-4.971163888888896
 97
        0
 75
     2
 76
     1
 98
        0
  0
POLYLINE
  5
201
330
1CC
100
AcDbEntity
  8
SDWC screw
  6
AI-Linetype-6
 62
   250
420
  2301728
370
    18
100
AcDb2dPolyline
 66
     1
 10
0.0
 20
0.0
 30
0.0
  0
VERTEX
  5
202
330
201
100
AcDbEntity
  8
SDWC screw
  6
AI-Linetype-6
 62
   250
420
  2301728
370
    18
100
AcDbVertex
100
AcDb2dVertex
 10
5.70792624469454
 20
-4.933729166666656
 30
0.0
  0
VERTEX
  5
203
330
201
100
AcDbEntity
  8
SDWC screw
  6
AI-Linetype-6
 62
   250
420
  2301728
370
    18
100
AcDbVertex
100
AcDb2dVertex
 10
5.697862356059886
 20
-4.931395833333327
 30
0.0
  0
VERTEX
  5
204
330
201
100
AcDbEntity
  8
SDWC screw
  6
AI-Linetype-6
 62
   250
420
  2301728
370
    18
100
AcDbVertex
100
AcDb2dVertex
 10
5.753851243534377
 20
-4.882784722222216
 30
0.0
  0
VERTEX
  5
205
330
201
100
AcDbEntity
  8
SDWC screw
  6
AI-Linetype-6
 62
   250
420
  2301728
370
    18
100
AcDbVertex
100
AcDb2dVertex
 10
5.741387354960352
 20
-4.881306944444455
 30
0.0
  0
SEQEND
  5
208
330
201
100
AcDbEntity
  8
SDWC screw
  6
AI-Linetype-6
 62
   250
420
  2301728
370
    18
  0
HATCH
  5
207
330
1CC
100
AcDbEntity
  8
SDWC screw
 62
    30
420
 15955765
100
AcDbHatch
 10
0.0
 20
0.0
 30
0.0
210
0.0
220
0.0
230
1.0
  2
SOLID
 70
     1
 71
     0
 91
        1
 92
        1
 93
        4
 72
     1
 10
5.70792624469454
 20
-4.933729166666656
 11
5.697862356059886
 21
-4.931395833333327
 72
     1
 10
5.697862356059886
 20
-4.931395833333327
 11
5.753851243534377
 21
-4.882784722222216
 72
     1
 10
5.753851243534377
 20
-4.882784722222216
 11
5.741387354960352
 21
-4.881306944444455
 72
     1
 10
5.741387354960352
 20
-4.881306944444455
 11
5.70792624469454
 21
-4.933729166666656
 97
        0
 75
     2
 76
     1
 98
        0
  0
POLYLINE
  5
209
330
1CC
100
AcDbEntity
  8
SDWC screw
  6
AI-Linetype-7
 62
   250
420
  2301728
370
    18
100
AcDb2dPolyline
 66
     1
 10
0.0
 20
0.0
 30
0.0
  0
VERTEX
  5
20A
330
209
100
AcDbEntity
  8
SDWC screw
  6
AI-Linetype-7
 62
   250
420
  2301728
370
    18
100
AcDbVertex
100
AcDb2dVertex
 10
5.693142911734665
 20
-4.898695833333325
 30
0.0
  0
VERTEX
  5
20B
330
209
100
AcDbEntity
  8
SDWC screw
  6
AI-Linetype-7
 62
   250
420
  2301728
370
    18
100
AcDbVertex
100
AcDb2dVertex
 10
5.683065134211473
 20
-4.896362499999996
 30
0.0
  0
VERTEX
  5
20C
330
209
100
AcDbEntity
  8
SDWC screw
  6
AI-Linetype-7
 62
   250
420
  2301728
370
    18
100
AcDbVertex
100
AcDb2dVertex
 10
5.739067910574501
 20
-4.847751388888885
 30
0.0
  0
VERTEX
  5
20D
330
209
100
AcDbEntity
  8
SDWC screw
  6
AI-Linetype-7
 62
   250
420
  2301728
370
    18
100
AcDbVertex
100
AcDb2dVertex
 10
5.726590133111939
 20
-4.84627222222222
 30
0.0
  0
SEQEND
  5
210
330
209
100
AcDbEntity
  8
SDWC screw
  6
AI-Linetype-7
 62
   250
420
  2301728
370
    18
  0
HATCH
  5
20F
330
1CC
100
AcDbEntity
  8
SDWC screw
 62
    30
420
 15955765
100
AcDbHatch
 10
0.0
 20
0.0
 30
0.0
210
0.0
220
0.0
230
1.0
  2
SOLID
 70
     1
 71
     0
 91
        1
 92
        1
 93
        4
 72
     1
 10
5.693142911734665
 20
-4.898695833333325
 11
5.683065134211473
 21
-4.896362499999996
 72
     1
 10
5.683065134211473
 20
-4.896362499999996
 11
5.739067910574501
 21
-4.847751388888885
 72
     1
 10
5.739067910574501
 20
-4.847751388888885
 11
5.726590133111939
 21
-4.84627222222222
 72
     1
 10
5.726590133111939
 20
-4.84627222222222
 11
5.693142911734665
 21
-4.898695833333325
 97
        0
 75
     2
 76
     1
 98
        0
  0
POLYLINE
  5
211
330
1CC
100
AcDbEntity
  8
SDWC screw
  6
AI-Linetype-8
 62
   250
420
  2301728
370
    18
100
AcDb2dPolyline
 66
     1
 10
0.0
 20
0.0
 30
0.0
  0
VERTEX
  5
212
330
211
100
AcDbEntity
  8
SDWC screw
  6
AI-Linetype-8
 62
   250
420
  2301728
370
    18
100
AcDbVertex
100
AcDb2dVertex
 10
5.679931800957294
 20
-4.861259722222232
 30
0.0
  0
VERTEX
  5
213
330
211
100
AcDbEntity
  8
SDWC screw
  6
AI-Linetype-8
 62
   250
420
  2301728
370
    18
100
AcDbVertex
100
AcDb2dVertex
 10
5.669854023434103
 20
-4.858927777777782
 30
0.0
  0
VERTEX
  5
214
330
211
100
AcDbEntity
  8
SDWC screw
  6
AI-Linetype-8
 62
   250
420
  2301728
370
    18
100
AcDbVertex
100
AcDb2dVertex
 10
5.725856799797131
 20
-4.810316666666671
 30
0.0
  0
VERTEX
  5
215
330
211
100
AcDbEntity
  8
SDWC screw
  6
AI-Linetype-8
 62
   250
420
  2301728
370
    18
100
AcDbVertex
100
AcDb2dVertex
 10
5.713379022334569
 20
-4.808837500000006
 30
0.0
  0
SEQEND
  5
218
330
211
100
AcDbEntity
  8
SDWC screw
  6
AI-Linetype-8
 62
   250
420
  2301728
370
    18
  0
HATCH
  5
217
330
1CC
100
AcDbEntity
  8
SDWC screw
 62
    30
420
 15955765
100
AcDbHatch
 10
0.0
 20
0.0
 30
0.0
210
0.0
220
0.0
230
1.0
  2
SOLID
 70
     1
 71
     0
 91
        1
 92
        1
 93
        4
 72
     1
 10
5.679931800957294
 20
-4.861259722222232
 11
5.669854023434103
 21
-4.858927777777782
 72
     1
 10
5.669854023434103
 20
-4.858927777777782
 11
5.725856799797131
 21
-4.810316666666671
 72
     1
 10
5.725856799797131
 20
-4.810316666666671
 11
5.713379022334569
 21
-4.808837500000006
 72
     1
 10
5.713379022334569
 20
-4.808837500000006
 11
5.679931800957294
 21
-4.861259722222232
 97
        0
 75
     2
 76
     1
 98
        0
  0
POLYLINE
  5
219
330
1CC
100
AcDbEntity
  8
SDWC screw
  6
AI-Linetype-9
 62
   250
420
  2301728
370
    18
100
AcDb2dPolyline
 66
     1
 10
0.0
 20
0.0
 30
0.0
  0
VERTEX
  5
21A
330
219
100
AcDbEntity
  8
SDWC screw
  6
AI-Linetype-9
 62
   250
420
  2301728
370
    18
100
AcDbVertex
100
AcDb2dVertex
 10
5.662135968073522
 20
-4.826781944444443
 30
0.0
  0
VERTEX
  5
21B
330
219
100
AcDbEntity
  8
SDWC screw
  6
AI-Linetype-9
 62
   250
420
  2301728
370
    18
100
AcDbVertex
100
AcDb2dVertex
 10
5.652072079438867
 20
-4.824449999999993
 30
0.0
  0
VERTEX
  5
21C
330
219
100
AcDbEntity
  8
SDWC screw
  6
AI-Linetype-9
 62
   250
420
  2301728
370
    18
100
AcDbVertex
100
AcDb2dVertex
 10
5.708062355802213
 20
-4.775838888888883
 30
0.0
  0
VERTEX
  5
21D
330
219
100
AcDbEntity
  8
SDWC screw
  6
AI-Linetype-9
 62
   250
420
  2301728
370
    18
100
AcDbVertex
100
AcDb2dVertex
 10
5.695597222222229
 20
-4.774359722222218
 30
0.0
  0
SEQEND
  5
220
330
219
100
AcDbEntity
  8
SDWC screw
  6
AI-Linetype-9
 62
   250
420
  2301728
370
    18
  0
HATCH
  5
21F
330
1CC
100
AcDbEntity
  8
SDWC screw
 62
    30
420
 15955765
100
AcDbHatch
 10
0.0
 20
0.0
 30
0.0
210
0.0
220
0.0
230
1.0
  2
SOLID
 70
     1
 71
     0
 91
        1
 92
        1
 93
        4
 72
     1
 10
5.662135968073522
 20
-4.826781944444443
 11
5.652072079438868
 21
-4.824449999999993
 72
     1
 10
5.652072079438867
 20
-4.824449999999993
 11
5.708062355802212
 21
-4.775838888888883
 72
     1
 10
5.708062355802213
 20
-4.775838888888883
 11
5.695597222222229
 21
-4.774359722222218
 72
     1
 10
5.695597222222229
 20
-4.774359722222218
 11
5.662135968073521
 21
-4.826781944444443
 97
        0
 75
     2
 76
     1
 98
        0
  0
POLYLINE
  5
221
330
1CC
100
AcDbEntity
  8
SDWC screw
  6
AI-Linetype-10
 62
   250
420
  2301728
370
    18
100
AcDb2dPolyline
 66
     1
 10
0.0
 20
0.0
 30
0.0
  0
VERTEX
  5
222
330
221
100
AcDbEntity
  8
SDWC screw
  6
AI-Linetype-10
 62
   250
420
  2301728
370
    18
100
AcDbVertex
100
AcDb2dVertex
 10
5.648926246185005
 20
-4.789347222222229
 30
0.0
  0
VERTEX
  5
223
330
221
100
AcDbEntity
  8
SDWC screw
  6
AI-Linetype-10
 62
   250
420
  2301728
370
    18
100
AcDbVertex
100
AcDb2dVertex
 10
5.638861111111106
 20
-4.787013888888901
 30
0.0
  0
VERTEX
  5
224
330
221
100
AcDbEntity
  8
SDWC screw
  6
AI-Linetype-10
 62
   250
420
  2301728
370
    18
100
AcDbVertex
100
AcDb2dVertex
 10
5.694851245024842
 20
-4.73840277777779
 30
0.0
  0
VERTEX
  5
225
330
221
100
AcDbEntity
  8
SDWC screw
  6
AI-Linetype-10
 62
   250
420
  2301728
370
    18
100
AcDbVertex
100
AcDb2dVertex
 10
5.682385967561964
 20
-4.736925000000004
 30
0.0
  0
SEQEND
  5
228
330
221
100
AcDbEntity
  8
SDWC screw
  6
AI-Linetype-10
 62
   250
420
  2301728
370
    18
  0
HATCH
  5
227
330
1CC
100
AcDbEntity
  8
SDWC screw
 62
    30
420
 15955765
100
AcDbHatch
 10
0.0
 20
0.0
 30
0.0
210
0.0
220
0.0
230
1.0
  2
SOLID
 70
     1
 71
     0
 91
        1
 92
        1
 93
        4
 72
     1
 10
5.648926246185005
 20
-4.789347222222229
 11
5.638861111111106
 21
-4.7870138888889
 72
     1
 10
5.638861111111106
 20
-4.787013888888901
 11
5.694851245024842
 21
-4.73840277777779
 72
     1
 10
5.694851245024842
 20
-4.73840277777779
 11
5.682385967561964
 21
-4.736925000000004
 72
     1
 10
5.682385967561964
 20
-4.736925000000004
 11
5.648926246185005
 21
-4.789347222222229
 97
        0
 75
     2
 76
     1
 98
        0
  0
POLYLINE
  5
229
330
1CC
100
AcDbEntity
  8
SDWC screw
  6
AI-Linetype-11
 62
   250
420
  2301728
370
    18
100
AcDb2dPolyline
 66
     1
 10
0.0
 20
0.0
 30
0.0
  0
VERTEX
  5
22A
330
229
100
AcDbEntity
  8
SDWC screw
  6
AI-Linetype-11
 62
   250
420
  2301728
370
    18
100
AcDbVertex
100
AcDb2dVertex
 10
5.631781802173665
 20
-4.751437499999989
 30
0.0
  0
VERTEX
  5
22B
330
229
100
AcDbEntity
  8
SDWC screw
  6
AI-Linetype-11
 62
   250
420
  2301728
370
    18
100
AcDbVertex
100
AcDb2dVertex
 10
5.621717913539012
 20
-4.749104166666661
 30
0.0
  0
VERTEX
  5
22C
330
229
100
AcDbEntity
  8
SDWC screw
  6
AI-Linetype-11
 62
   250
420
  2301728
370
    18
100
AcDbVertex
100
AcDb2dVertex
 10
5.677706801013502
 20
-4.700493055555549
 30
0.0
  0
VERTEX
  5
22D
330
229
100
AcDbEntity
  8
SDWC screw
  6
AI-Linetype-11
 62
   250
420
  2301728
370
    18
100
AcDbVertex
100
AcDb2dVertex
 10
5.665242912439478
 20
-4.699015277777789
 30
0.0
  0
SEQEND
  5
230
330
229
100
AcDbEntity
  8
SDWC screw
  6
AI-Linetype-11
 62
   250
420
  2301728
370
    18
  0
HATCH
  5
22F
330
1CC
100
AcDbEntity
  8
SDWC screw
 62
    30
420
 15955765
100
AcDbHatch
 10
0.0
 20
0.0
 30
0.0
210
0.0
220
0.0
230
1.0
  2
SOLID
 70
     1
 71
     0
 91
        1
 92
        1
 93
        4
 72
     1
 10
5.631781802173665
 20
-4.751437499999989
 11
5.621717913539012
 21
-4.74910416666666
 72
     1
 10
5.621717913539012
 20
-4.749104166666661
 11
5.677706801013502
 21
-4.70049305555555
 72
     1
 10
5.677706801013502
 20
-4.700493055555549
 11
5.665242912439478
 21
-4.699015277777788
 72
     1
 10
5.665242912439478
 20
-4.699015277777789
 11
5.631781802173665
 21
-4.75143749999999
 97
        0
 75
     2
 76
     1
 98
        0
  0
POLYLINE
  5
231
330
1CC
100
AcDbEntity
  8
SDWC screw
  6
AI-Linetype-12
 62
   250
420
  2301728
370
    18
100
AcDb2dPolyline
 66
     1
 10
0.0
 20
0.0
 30
0.0
  0
VERTEX
  5
232
330
231
100
AcDbEntity
  8
SDWC screw
  6
AI-Linetype-12
 62
   250
420
  2301728
370
    18
100
AcDbVertex
100
AcDb2dVertex
 10
5.618570691396295
 20
-4.714002777777775
 30
0.0
  0
VERTEX
  5
233
330
231
100
AcDbEntity
  8
SDWC screw
  6
AI-Linetype-12
 62
   250
420
  2301728
370
    18
100
AcDbVertex
100
AcDb2dVertex
 10
5.608506802761641
 20
-4.711669444444447
 30
0.0
  0
VERTEX
  5
234
330
231
100
AcDbEntity
  8
SDWC screw
  6
AI-Linetype-12
 62
   250
420
  2301728
370
    18
100
AcDbVertex
100
AcDb2dVertex
 10
5.664497079124986
 20
-4.663058333333336
 30
0.0
  0
VERTEX
  5
235
330
231
100
AcDbEntity
  8
SDWC screw
  6
AI-Linetype-12
 62
   250
420
  2301728
370
    18
100
AcDbVertex
100
AcDb2dVertex
 10
5.652031801662107
 20
-4.66158055555555
 30
0.0
  0
SEQEND
  5
238
330
231
100
AcDbEntity
  8
SDWC screw
  6
AI-Linetype-12
 62
   250
420
  2301728
370
    18
  0
HATCH
  5
237
330
1CC
100
AcDbEntity
  8
SDWC screw
 62
    30
420
 15955765
100
AcDbHatch
 10
0.0
 20
0.0
 30
0.0
210
0.0
220
0.0
230
1.0
  2
SOLID
 70
     1
 71
     0
 91
        1
 92
        1
 93
        4
 72
     1
 10
5.618570691396295
 20
-4.714002777777775
 11
5.608506802761641
 21
-4.711669444444446
 72
     1
 10
5.608506802761641
 20
-4.711669444444447
 11
5.664497079124986
 21
-4.663058333333336
 72
     1
 10
5.664497079124986
 20
-4.663058333333336
 11
5.652031801662107
 21
-4.66158055555555
 72
     1
 10
5.652031801662107
 20
-4.66158055555555
 11
5.618570691396295
 21
-4.714002777777775
 97
        0
 75
     2
 76
     1
 98
        0
  0
POLYLINE
  5
239
330
1CC
100
AcDbEntity
  8
SDWC screw
  6
AI-Linetype-13
 62
   250
420
  2301728
370
    18
100
AcDb2dPolyline
 66
     1
 10
0.0
 20
0.0
 30
0.0
  0
VERTEX
  5
23A
330
239
100
AcDbEntity
  8
SDWC screw
  6
AI-Linetype-13
 62
   250
420
  2301728
370
    18
100
AcDbVertex
100
AcDb2dVertex
 10
5.600788747401061
 20
-4.679525000000012
 30
0.0
  0
VERTEX
  5
23B
330
239
100
AcDbEntity
  8
SDWC screw
  6
AI-Linetype-13
 62
   250
420
  2301728
370
    18
100
AcDbVertex
100
AcDb2dVertex
 10
5.590712358766723
 20
-4.677191666666658
 30
0.0
  0
VERTEX
  5
23C
330
239
100
AcDbEntity
  8
SDWC screw
  6
AI-Linetype-13
 62
   250
420
  2301728
370
    18
100
AcDbVertex
100
AcDb2dVertex
 10
5.646715135129751
 20
-4.628580555555547
 30
0.0
  0
VERTEX
  5
23D
330
239
100
AcDbEntity
  8
SDWC screw
  6
AI-Linetype-13
 62
   250
420
  2301728
370
    18
100
AcDbVertex
100
AcDb2dVertex
 10
5.634249999999989
 20
-4.627102777777787
 30
0.0
  0
SEQEND
  5
240
330
239
100
AcDbEntity
  8
SDWC screw
  6
AI-Linetype-13
 62
   250
420
  2301728
370
    18
  0
HATCH
  5
23F
330
1CC
100
AcDbEntity
  8
SDWC screw
 62
    30
420
 15955765
100
AcDbHatch
 10
0.0
 20
0.0
 30
0.0
210
0.0
220
0.0
230
1.0
  2
SOLID
 70
     1
 71
     0
 91
        1
 92
        1
 93
        4
 72
     1
 10
5.600788747401061
 20
-4.679525000000012
 11
5.590712358766723
 21
-4.677191666666658
 72
     1
 10
5.590712358766723
 20
-4.677191666666658
 11
5.646715135129751
 21
-4.628580555555548
 72
     1
 10
5.646715135129751
 20
-4.628580555555547
 11
5.634249999999989
 21
-4.627102777777786
 72
     1
 10
5.634249999999989
 20
-4.627102777777787
 11
5.60078874740106
 21
-4.679525000000012
 97
        0
 75
     2
 76
     1
 98
        0
  0
POLYLINE
  5
241
330
1CC
100
AcDbEntity
  8
SDWC screw
  6
AI-Linetype-14
 62
   250
420
  2301728
370
    18
100
AcDb2dPolyline
 66
     1
 10
0.0
 20
0.0
 30
0.0
  0
VERTEX
  5
242
330
241
100
AcDbEntity
  8
SDWC screw
  6
AI-Linetype-14
 62
   250
420
  2301728
370
    18
100
AcDbVertex
100
AcDb2dVertex
 10
5.587579025512544
 20
-4.642090277777773
 30
0.0
  0
VERTEX
  5
243
330
241
100
AcDbEntity
  8
SDWC screw
  6
AI-Linetype-14
 62
   250
420
  2301728
370
    18
100
AcDbVertex
100
AcDb2dVertex
 10
5.577501247989352
 20
-4.639756944444444
 30
0.0
  0
VERTEX
  5
244
330
241
100
AcDbEntity
  8
SDWC screw
  6
AI-Linetype-14
 62
   250
420
  2301728
370
    18
100
AcDbVertex
100
AcDb2dVertex
 10
5.633504024352381
 20
-4.591145833333333
 30
0.0
  0
VERTEX
  5
245
330
241
100
AcDbEntity
  8
SDWC screw
  6
AI-Linetype-14
 62
   250
420
  2301728
370
    18
100
AcDbVertex
100
AcDb2dVertex
 10
5.621038746889503
 20
-4.589668055555547
 30
0.0
  0
SEQEND
  5
248
330
241
100
AcDbEntity
  8
SDWC screw
  6
AI-Linetype-14
 62
   250
420
  2301728
370
    18
  0
HATCH
  5
247
330
1CC
100
AcDbEntity
  8
SDWC screw
 62
    30
420
 15955765
100
AcDbHatch
 10
0.0
 20
0.0
 30
0.0
210
0.0
220
0.0
230
1.0
  2
SOLID
 70
     1
 71
     0
 91
        1
 92
        1
 93
        4
 72
     1
 10
5.587579025512544
 20
-4.642090277777773
 11
5.577501247989352
 21
-4.639756944444444
 72
     1
 10
5.577501247989352
 20
-4.639756944444444
 11
5.633504024352381
 21
-4.591145833333333
 72
     1
 10
5.633504024352381
 20
-4.591145833333333
 11
5.621038746889503
 21
-4.589668055555547
 72
     1
 10
5.621038746889503
 20
-4.589668055555547
 11
5.587579025512544
 21
-4.642090277777773
 97
        0
 75
     2
 76
     1
 98
        0
  0
POLYLINE
  5
249
330
1CC
100
AcDbEntity
  8
SDWC screw
  6
AI-Linetype-15
 62
   250
420
  2301728
370
    18
100
AcDb2dPolyline
 66
     1
 10
0.0
 20
0.0
 30
0.0
  0
VERTEX
  5
24A
330
249
100
AcDbEntity
  8
SDWC screw
  6
AI-Linetype-15
 62
   250
420
  2301728
370
    18
100
AcDbVertex
100
AcDb2dVertex
 10
5.572780414775277
 20
-4.607055555555562
 30
0.0
  0
VERTEX
  5
24B
330
249
100
AcDbEntity
  8
SDWC screw
  6
AI-Linetype-15
 62
   250
420
  2301728
370
    18
100
AcDbVertex
100
AcDb2dVertex
 10
5.562716526140624
 20
-4.604722222222234
 30
0.0
  0
VERTEX
  5
24C
330
249
100
AcDbEntity
  8
SDWC screw
  6
AI-Linetype-15
 62
   250
420
  2301728
370
    18
100
AcDbVertex
100
AcDb2dVertex
 10
5.618706802503968
 20
-4.556111111111123
 30
0.0
  0
VERTEX
  5
24D
330
249
100
AcDbEntity
  8
SDWC screw
  6
AI-Linetype-15
 62
   250
420
  2301728
370
    18
100
AcDbVertex
100
AcDb2dVertex
 10
5.60624152504109
 20
-4.554633333333337
 30
0.0
  0
SEQEND
  5
250
330
249
100
AcDbEntity
  8
SDWC screw
  6
AI-Linetype-15
 62
   250
420
  2301728
370
    18
  0
HATCH
  5
24F
330
1CC
100
AcDbEntity
  8
SDWC screw
 62
    30
420
 15955765
100
AcDbHatch
 10
0.0
 20
0.0
 30
0.0
210
0.0
220
0.0
230
1.0
  2
SOLID
 70
     1
 71
     0
 91
        1
 92
        1
 93
        4
 72
     1
 10
5.572780414775277
 20
-4.607055555555562
 11
5.562716526140624
 21
-4.604722222222233
 72
     1
 10
5.562716526140624
 20
-4.604722222222234
 11
5.618706802503968
 21
-4.556111111111123
 72
     1
 10
5.618706802503968
 20
-4.556111111111123
 11
5.60624152504109
 21
-4.554633333333337
 72
     1
 10
5.60624152504109
 20
-4.554633333333337
 11
5.572780414775277
 21
-4.607055555555562
 97
        0
 75
     2
 76
     1
 98
        0
  0
POLYLINE
  5
251
330
1CC
100
AcDbEntity
  8
SDWC screw
  6
AI-Linetype-16
 62
   250
420
  2301728
370
    18
100
AcDb2dPolyline
 66
     1
 10
0.0
 20
0.0
 30
0.0
  0
VERTEX
  5
252
330
251
100
AcDbEntity
  8
SDWC screw
  6
AI-Linetype-16
 62
   250
420
  2301728
370
    18
100
AcDbVertex
100
AcDb2dVertex
 10
5.55957069288676
 20
-4.569620833333324
 30
0.0
  0
VERTEX
  5
253
330
251
100
AcDbEntity
  8
SDWC screw
  6
AI-Linetype-16
 62
   250
420
  2301728
370
    18
100
AcDbVertex
100
AcDb2dVertex
 10
5.549506804252107
 20
-4.567287499999995
 30
0.0
  0
VERTEX
  5
254
330
251
100
AcDbEntity
  8
SDWC screw
  6
AI-Linetype-16
 62
   250
420
  2301728
370
    18
100
AcDbVertex
100
AcDb2dVertex
 10
5.605495691726597
 20
-4.518676388888884
 30
0.0
  0
VERTEX
  5
255
330
251
100
AcDbEntity
  8
SDWC screw
  6
AI-Linetype-16
 62
   250
420
  2301728
370
    18
100
AcDbVertex
100
AcDb2dVertex
 10
5.593030414263719
 20
-4.517198611111123
 30
0.0
  0
SEQEND
  5
258
330
251
100
AcDbEntity
  8
SDWC screw
  6
AI-Linetype-16
 62
   250
420
  2301728
370
    18
  0
HATCH
  5
257
330
1CC
100
AcDbEntity
  8
SDWC screw
 62
    30
420
 15955765
100
AcDbHatch
 10
0.0
 20
0.0
 30
0.0
210
0.0
220
0.0
230
1.0
  2
SOLID
 70
     1
 71
     0
 91
        1
 92
        1
 93
        4
 72
     1
 10
5.55957069288676
 20
-4.569620833333324
 11
5.549506804252107
 21
-4.567287499999995
 72
     1
 10
5.549506804252107
 20
-4.567287499999995
 11
5.605495691726597
 21
-4.518676388888884
 72
     1
 10
5.605495691726597
 20
-4.518676388888884
 11
5.593030414263719
 21
-4.517198611111123
 72
     1
 10
5.593030414263719
 20
-4.517198611111123
 11
5.55957069288676
 21
-4.569620833333324
 97
        0
 75
     2
 76
     1
 98
        0
  0
POLYLINE
  5
259
330
1CC
100
AcDbEntity
  8
SDWC screw
  6
AI-Linetype-17
 62
   250
420
  2301728
370
    18
100
AcDb2dPolyline
 66
     1
 10
0.0
 20
0.0
 30
0.0
  0
VERTEX
  5
25A
330
259
100
AcDbEntity
  8
SDWC screw
  6
AI-Linetype-17
 62
   250
420
  2301728
370
    18
100
AcDbVertex
100
AcDb2dVertex
 10
5.541788748891526
 20
-4.53514305555556
 30
0.0
  0
VERTEX
  5
25B
330
259
100
AcDbEntity
  8
SDWC screw
  6
AI-Linetype-17
 62
   250
420
  2301728
370
    18
100
AcDbVertex
100
AcDb2dVertex
 10
5.531710971368335
 20
-4.532809722222232
 30
0.0
  0
VERTEX
  5
25C
330
259
100
AcDbEntity
  8
SDWC screw
  6
AI-Linetype-17
 62
   250
420
  2301728
370
    18
100
AcDbVertex
100
AcDb2dVertex
 10
5.587713747731363
 20
-4.48419861111112
 30
0.0
  0
VERTEX
  5
25D
330
259
100
AcDbEntity
  8
SDWC screw
  6
AI-Linetype-17
 62
   250
420
  2301728
370
    18
100
AcDbVertex
100
AcDb2dVertex
 10
5.575249999999995
 20
-4.482720833333334
 30
0.0
  0
SEQEND
  5
260
330
259
100
AcDbEntity
  8
SDWC screw
  6
AI-Linetype-17
 62
   250
420
  2301728
370
    18
  0
HATCH
  5
25F
330
1CC
100
AcDbEntity
  8
SDWC screw
 62
    30
420
 15955765
100
AcDbHatch
 10
0.0
 20
0.0
 30
0.0
210
0.0
220
0.0
230
1.0
  2
SOLID
 70
     1
 71
     0
 91
        1
 92
        1
 93
        4
 72
     1
 10
5.541788748891526
 20
-4.53514305555556
 11
5.531710971368335
 21
-4.532809722222231
 72
     1
 10
5.531710971368335
 20
-4.532809722222232
 11
5.587713747731363
 21
-4.484198611111121
 72
     1
 10
5.587713747731363
 20
-4.48419861111112
 11
5.575249999999995
 21
-4.482720833333334
 72
     1
 10
5.575249999999995
 20
-4.482720833333334
 11
5.541788748891526
 21
-4.53514305555556
 97
        0
 75
     2
 76
     1
 98
        0
  0
POLYLINE
  5
261
330
1CC
100
AcDbEntity
  8
SDWC screw
  6
AI-Linetype-18
 62
   250
420
  2301728
370
    18
100
AcDb2dPolyline
 66
     1
 10
0.0
 20
0.0
 30
0.0
  0
VERTEX
  5
262
330
261
100
AcDbEntity
  8
SDWC screw
  6
AI-Linetype-18
 62
   250
420
  2301728
370
    18
100
AcDbVertex
100
AcDb2dVertex
 10
5.528577638114156
 20
-4.497708333333321
 30
0.0
  0
VERTEX
  5
263
330
261
100
AcDbEntity
  8
SDWC screw
  6
AI-Linetype-18
 62
   250
420
  2301728
370
    18
100
AcDbVertex
100
AcDb2dVertex
 10
5.518500000000004
 20
-4.495374999999992
 30
0.0
  0
VERTEX
  5
264
330
261
100
AcDbEntity
  8
SDWC screw
  6
AI-Linetype-18
 62
   250
420
  2301728
370
    18
100
AcDbVertex
100
AcDb2dVertex
 10
5.574504025842846
 20
-4.446763888888881
 30
0.0
  0
VERTEX
  5
265
330
261
100
AcDbEntity
  8
SDWC screw
  6
AI-Linetype-18
 62
   250
420
  2301728
370
    18
100
AcDbVertex
100
AcDb2dVertex
 10
5.562038748379968
 20
-4.445284722222216
 30
0.0
  0
SEQEND
  5
268
330
261
100
AcDbEntity
  8
SDWC screw
  6
AI-Linetype-18
 62
   250
420
  2301728
370
    18
  0
HATCH
  5
267
330
1CC
100
AcDbEntity
  8
SDWC screw
 62
    30
420
 15955765
100
AcDbHatch
 10
0.0
 20
0.0
 30
0.0
210
0.0
220
0.0
230
1.0
  2
SOLID
 70
     1
 71
     0
 91
        1
 92
        1
 93
        4
 72
     1
 10
5.528577638114156
 20
-4.497708333333321
 11
5.518500000000005
 21
-4.495374999999992
 72
     1
 10
5.518500000000004
 20
-4.495374999999992
 11
5.574504025842846
 21
-4.446763888888881
 72
     1
 10
5.574504025842846
 20
-4.446763888888881
 11
5.562038748379968
 21
-4.445284722222216
 72
     1
 10
5.562038748379968
 20
-4.445284722222216
 11
5.528577638114156
 21
-4.497708333333321
 97
        0
 75
     2
 76
     1
 98
        0
  0
POLYLINE
  5
269
330
1CC
100
AcDbEntity
  8
SDWC screw
  6
AI-Linetype-19
 62
   250
420
  2301728
370
    18
100
AcDb2dPolyline
 66
     1
 10
0.0
 20
0.0
 30
0.0
  0
VERTEX
  5
26A
330
269
100
AcDbEntity
  8
SDWC screw
  6
AI-Linetype-19
 62
   250
420
  2301728
370
    18
100
AcDbVertex
100
AcDb2dVertex
 10
5.511908194090816
 20
-4.461711111111122
 30
0.0
  0
VERTEX
  5
26B
330
269
100
AcDbEntity
  8
SDWC screw
  6
AI-Linetype-19
 62
   250
420
  2301728
370
    18
100
AcDbVertex
100
AcDb2dVertex
 10
5.501830416567625
 20
-4.459377777777768
 30
0.0
  0
VERTEX
  5
26C
330
269
100
AcDbEntity
  8
SDWC screw
  6
AI-Linetype-19
 62
   250
420
  2301728
370
    18
100
AcDbVertex
100
AcDb2dVertex
 10
5.557834581819507
 20
-4.410766666666657
 30
0.0
  0
VERTEX
  5
26D
330
269
100
AcDbEntity
  8
SDWC screw
  6
AI-Linetype-19
 62
   250
420
  2301728
370
    18
100
AcDbVertex
100
AcDb2dVertex
 10
5.545355415468091
 20
-4.409301388888884
 30
0.0
  0
SEQEND
  5
270
330
269
100
AcDbEntity
  8
SDWC screw
  6
AI-Linetype-19
 62
   250
420
  2301728
370
    18
  0
HATCH
  5
26F
330
1CC
100
AcDbEntity
  8
SDWC screw
 62
    30
420
 15955765
100
AcDbHatch
 10
0.0
 20
0.0
 30
0.0
210
0.0
220
0.0
230
1.0
  2
SOLID
 70
     1
 71
     0
 91
        1
 92
        1
 93
        4
 72
     1
 10
5.511908194090816
 20
-4.461711111111122
 11
5.501830416567625
 21
-4.459377777777768
 72
     1
 10
5.501830416567625
 20
-4.459377777777768
 11
5.557834581819507
 21
-4.410766666666658
 72
     1
 10
5.557834581819507
 20
-4.410766666666657
 11
5.545355415468091
 21
-4.409301388888884
 72
     1
 10
5.545355415468091
 20
-4.409301388888884
 11
5.511908194090816
 21
-4.461711111111122
 97
        0
 75
     2
 76
     1
 98
        0
  0
POLYLINE
  5
271
330
1CC
100
AcDbEntity
  8
SDWC screw
  6
AI-Linetype-20
 62
   250
420
  2301728
370
    18
100
AcDb2dPolyline
 66
     1
 10
0.0
 20
0.0
 30
0.0
  0
VERTEX
  5
272
330
271
100
AcDbEntity
  8
SDWC screw
  6
AI-Linetype-20
 62
   250
420
  2301728
370
    18
100
AcDbVertex
100
AcDb2dVertex
 10
5.4986984722023
 20
-4.424276388888883
 30
0.0
  0
VERTEX
  5
273
330
271
100
AcDbEntity
  8
SDWC screw
  6
AI-Linetype-20
 62
   250
420
  2301728
370
    18
100
AcDbVertex
100
AcDb2dVertex
 10
5.488620694679108
 20
-4.421943055555554
 30
0.0
  0
VERTEX
  5
274
330
271
100
AcDbEntity
  8
SDWC screw
  6
AI-Linetype-20
 62
   250
420
  2301728
370
    18
100
AcDbVertex
100
AcDb2dVertex
 10
5.544623471042137
 20
-4.373331944444443
 30
0.0
  0
VERTEX
  5
275
330
271
100
AcDbEntity
  8
SDWC screw
  6
AI-Linetype-20
 62
   250
420
  2301728
370
    18
100
AcDbVertex
100
AcDb2dVertex
 10
5.532145693579574
 20
-4.37186666666667
 30
0.0
  0
SEQEND
  5
278
330
271
100
AcDbEntity
  8
SDWC screw
  6
AI-Linetype-20
 62
   250
420
  2301728
370
    18
  0
HATCH
  5
277
330
1CC
100
AcDbEntity
  8
SDWC screw
 62
    30
420
 15955765
100
AcDbHatch
 10
0.0
 20
0.0
 30
0.0
210
0.0
220
0.0
230
1.0
  2
SOLID
 70
     1
 71
     0
 91
        1
 92
        1
 93
        4
 72
     1
 10
5.4986984722023
 20
-4.424276388888883
 11
5.488620694679109
 21
-4.421943055555554
 72
     1
 10
5.488620694679108
 20
-4.421943055555554
 11
5.544623471042136
 21
-4.373331944444443
 72
     1
 10
5.544623471042137
 20
-4.373331944444443
 11
5.532145693579575
 21
-4.37186666666667
 72
     1
 10
5.532145693579574
 20
-4.37186666666667
 11
5.4986984722023
 21
-4.424276388888883
 97
        0
 75
     2
 76
     1
 98
        0
  0
POLYLINE
  5
279
330
1CC
100
AcDbEntity
  8
SDWC screw
  6
AI-Linetype-21
 62
   250
420
  2301728
370
    18
100
AcDb2dPolyline
 66
     1
 10
0.0
 20
0.0
 30
0.0
  0
VERTEX
  5
27A
330
279
100
AcDbEntity
  8
SDWC screw
  6
AI-Linetype-21
 62
   250
420
  2301728
370
    18
100
AcDbVertex
100
AcDb2dVertex
 10
5.480909583762796
 20
-4.389797222222215
 30
0.0
  0
VERTEX
  5
27B
330
279
100
AcDbEntity
  8
SDWC screw
  6
AI-Linetype-21
 62
   250
420
  2301728
370
    18
100
AcDbVertex
100
AcDb2dVertex
 10
5.470831806239604
 20
-4.387465277777766
 30
0.0
  0
VERTEX
  5
27C
330
279
100
AcDbEntity
  8
SDWC screw
  6
AI-Linetype-21
 62
   250
420
  2301728
370
    18
100
AcDbVertex
100
AcDb2dVertex
 10
5.526827638158364
 20
-4.338854166666654
 30
0.0
  0
VERTEX
  5
27D
330
279
100
AcDbEntity
  8
SDWC screw
  6
AI-Linetype-21
 62
   250
420
  2301728
370
    18
100
AcDbVertex
100
AcDb2dVertex
 10
5.51436374958434
 20
-4.337388888888881
 30
0.0
  0
SEQEND
  5
280
330
279
100
AcDbEntity
  8
SDWC screw
  6
AI-Linetype-21
 62
   250
420
  2301728
370
    18
  0
HATCH
  5
27F
330
1CC
100
AcDbEntity
  8
SDWC screw
 62
    30
420
 15955765
100
AcDbHatch
 10
0.0
 20
0.0
 30
0.0
210
0.0
220
0.0
230
1.0
  2
SOLID
 70
     1
 71
     0
 91
        1
 92
        1
 93
        4
 72
     1
 10
5.480909583762796
 20
-4.389797222222215
 11
5.470831806239604
 21
-4.387465277777766
 72
     1
 10
5.470831806239604
 20
-4.387465277777766
 11
5.526827638158364
 21
-4.338854166666655
 72
     1
 10
5.526827638158364
 20
-4.338854166666654
 11
5.51436374958434
 21
-4.337388888888881
 72
     1
 10
5.51436374958434
 20
-4.337388888888881
 11
5.480909583762797
 21
-4.389797222222215
 97
        0
 75
     2
 76
     1
 98
        0
  0
POLYLINE
  5
281
330
1CC
100
AcDbEntity
  8
SDWC screw
  6
AI-Linetype-22
 62
   250
420
  2301728
370
    18
100
AcDb2dPolyline
 66
     1
 10
0.0
 20
0.0
 30
0.0
  0
VERTEX
  5
282
330
281
100
AcDbEntity
  8
SDWC screw
  6
AI-Linetype-22
 62
   250
420
  2301728
370
    18
100
AcDbVertex
100
AcDb2dVertex
 10
5.467698472985426
 20
-4.352362500000001
 30
0.0
  0
VERTEX
  5
283
330
281
100
AcDbEntity
  8
SDWC screw
  6
AI-Linetype-22
 62
   250
420
  2301728
370
    18
100
AcDbVertex
100
AcDb2dVertex
 10
5.457620695462234
 20
-4.350029166666673
 30
0.0
  0
VERTEX
  5
284
330
281
100
AcDbEntity
  8
SDWC screw
  6
AI-Linetype-22
 62
   250
420
  2301728
370
    18
100
AcDbVertex
100
AcDb2dVertex
 10
5.513624999999997
 20
-4.301418055555561
 30
0.0
  0
VERTEX
  5
285
330
281
100
AcDbEntity
  8
SDWC screw
  6
AI-Linetype-22
 62
   250
420
  2301728
370
    18
100
AcDbVertex
100
AcDb2dVertex
 10
5.501152777777772
 20
-4.299954166666668
 30
0.0
  0
SEQEND
  5
288
330
281
100
AcDbEntity
  8
SDWC screw
  6
AI-Linetype-22
 62
   250
420
  2301728
370
    18
  0
HATCH
  5
287
330
1CC
100
AcDbEntity
  8
SDWC screw
 62
    30
420
 15955765
100
AcDbHatch
 10
0.0
 20
0.0
 30
0.0
210
0.0
220
0.0
230
1.0
  2
SOLID
 70
     1
 71
     0
 91
        1
 92
        1
 93
        4
 72
     1
 10
5.467698472985426
 20
-4.352362500000001
 11
5.457620695462235
 21
-4.350029166666672
 72
     1
 10
5.457620695462234
 20
-4.350029166666673
 11
5.513624999999996
 21
-4.301418055555562
 72
     1
 10
5.513624999999997
 20
-4.301418055555561
 11
5.501152777777772
 21
-4.299954166666667
 72
     1
 10
5.501152777777772
 20
-4.299954166666668
 11
5.467698472985425
 21
-4.352362500000002
 97
        0
 75
     2
 76
     1
 98
        0
  0
POLYLINE
  5
289
330
1CC
100
AcDbEntity
  8
SDWC screw
  6
AI-Linetype-23
 62
   250
420
  2301728
370
    18
100
AcDb2dPolyline
 66
     1
 10
0.0
 20
0.0
 30
0.0
  0
VERTEX
  5
28A
330
289
100
AcDbEntity
  8
SDWC screw
  6
AI-Linetype-23
 62
   250
420
  2301728
370
    18
100
AcDbVertex
100
AcDb2dVertex
 10
5.452908195581282
 20
-4.317341666666658
 30
0.0
  0
VERTEX
  5
28B
330
289
100
AcDbEntity
  8
SDWC screw
  6
AI-Linetype-23
 62
   250
420
  2301728
370
    18
100
AcDbVertex
100
AcDb2dVertex
 10
5.44283041805809
 20
-4.315009722222233
 30
0.0
  0
VERTEX
  5
28C
330
289
100
AcDbEntity
  8
SDWC screw
  6
AI-Linetype-23
 62
   250
420
  2301728
370
    18
100
AcDbVertex
100
AcDb2dVertex
 10
5.498833333333335
 20
-4.266398611111122
 30
0.0
  0
VERTEX
  5
28D
330
289
100
AcDbEntity
  8
SDWC screw
  6
AI-Linetype-23
 62
   250
420
  2301728
370
    18
100
AcDbVertex
100
AcDb2dVertex
 10
5.486362361402826
 20
-4.264905555555566
 30
0.0
  0
SEQEND
  5
290
330
289
100
AcDbEntity
  8
SDWC screw
  6
AI-Linetype-23
 62
   250
420
  2301728
370
    18
  0
HATCH
  5
28F
330
1CC
100
AcDbEntity
  8
SDWC screw
 62
    30
420
 15955765
100
AcDbHatch
 10
0.0
 20
0.0
 30
0.0
210
0.0
220
0.0
230
1.0
  2
SOLID
 70
     1
 71
     0
 91
        1
 92
        1
 93
        4
 72
     1
 10
5.452908195581282
 20
-4.317341666666658
 11
5.44283041805809
 21
-4.315009722222233
 72
     1
 10
5.44283041805809
 20
-4.315009722222233
 11
5.498833333333335
 21
-4.266398611111122
 72
     1
 10
5.498833333333335
 20
-4.266398611111122
 11
5.486362361402826
 21
-4.264905555555566
 72
     1
 10
5.486362361402826
 20
-4.264905555555566
 11
5.452908195581283
 21
-4.317341666666658
 97
        0
 75
     2
 76
     1
 98
        0
  0
POLYLINE
  5
291
330
1CC
100
AcDbEntity
  8
SDWC screw
  6
AI-Linetype-24
 62
   250
420
  2301728
370
    18
100
AcDb2dPolyline
 66
     1
 10
0.0
 20
0.0
 30
0.0
  0
VERTEX
  5
292
330
291
100
AcDbEntity
  8
SDWC screw
  6
AI-Linetype-24
 62
   250
420
  2301728
370
    18
100
AcDbVertex
100
AcDb2dVertex
 10
5.439697084803911
 20
-4.279906944444443
 30
0.0
  0
VERTEX
  5
293
330
291
100
AcDbEntity
  8
SDWC screw
  6
AI-Linetype-24
 62
   250
420
  2301728
370
    18
100
AcDbVertex
100
AcDb2dVertex
 10
5.42961930728072
 20
-4.277574999999993
 30
0.0
  0
VERTEX
  5
294
330
291
100
AcDbEntity
  8
SDWC screw
  6
AI-Linetype-24
 62
   250
420
  2301728
370
    18
100
AcDbVertex
100
AcDb2dVertex
 10
5.485622083643748
 20
-4.228963888888883
 30
0.0
  0
VERTEX
  5
295
330
291
100
AcDbEntity
  8
SDWC screw
  6
AI-Linetype-24
 62
   250
420
  2301728
370
    18
100
AcDbVertex
100
AcDb2dVertex
 10
5.473151250625455
 20
-4.227470833333339
 30
0.0
  0
SEQEND
  5
298
330
291
100
AcDbEntity
  8
SDWC screw
  6
AI-Linetype-24
 62
   250
420
  2301728
370
    18
  0
HATCH
  5
297
330
1CC
100
AcDbEntity
  8
SDWC screw
 62
    30
420
 15955765
100
AcDbHatch
 10
0.0
 20
0.0
 30
0.0
210
0.0
220
0.0
230
1.0
  2
SOLID
 70
     1
 71
     0
 91
        1
 92
        1
 93
        4
 72
     1
 10
5.439697084803911
 20
-4.279906944444443
 11
5.42961930728072
 21
-4.277574999999993
 72
     1
 10
5.42961930728072
 20
-4.277574999999993
 11
5.485622083643748
 21
-4.228963888888883
 72
     1
 10
5.485622083643748
 20
-4.228963888888883
 11
5.473151250625454
 21
-4.227470833333339
 72
     1
 10
5.473151250625455
 20
-4.227470833333339
 11
5.439697084803912
 21
-4.279906944444443
 97
        0
 75
     2
 76
     1
 98
        0
  0
POLYLINE
  5
299
330
1CC
100
AcDbEntity
  8
SDWC screw
  6
AI-Linetype-25
 62
   250
420
  2301728
370
    18
100
AcDb2dPolyline
 66
     1
 10
0.0
 20
0.0
 30
0.0
  0
VERTEX
  5
29A
330
299
100
AcDbEntity
  8
SDWC screw
  6
AI-Linetype-25
 62
   250
420
  2301728
370
    18
100
AcDbVertex
100
AcDb2dVertex
 10
5.421908196364408
 20
-4.245429166666668
 30
0.0
  0
VERTEX
  5
29B
330
299
100
AcDbEntity
  8
SDWC screw
  6
AI-Linetype-25
 62
   250
420
  2301728
370
    18
100
AcDbVertex
100
AcDb2dVertex
 10
5.41183180773007
 20
-4.243095833333339
 30
0.0
  0
VERTEX
  5
29C
330
299
100
AcDbEntity
  8
SDWC screw
  6
AI-Linetype-25
 62
   250
420
  2301728
370
    18
100
AcDbVertex
100
AcDb2dVertex
 10
5.467834584093098
 20
-4.194484722222228
 30
0.0
  0
VERTEX
  5
29D
330
299
100
AcDbEntity
  8
SDWC screw
  6
AI-Linetype-25
 62
   250
420
  2301728
370
    18
100
AcDbVertex
100
AcDb2dVertex
 10
5.455362362185964
 20
-4.19299305555555
 30
0.0
  0
SEQEND
  5
2A0
330
299
100
AcDbEntity
  8
SDWC screw
  6
AI-Linetype-25
 62
   250
420
  2301728
370
    18
  0
HATCH
  5
29F
330
1CC
100
AcDbEntity
  8
SDWC screw
 62
    30
420
 15955765
100
AcDbHatch
 10
0.0
 20
0.0
 30
0.0
210
0.0
220
0.0
230
1.0
  2
SOLID
 70
     1
 71
     0
 91
        1
 92
        1
 93
        4
 72
     1
 10
5.421908196364408
 20
-4.245429166666668
 11
5.41183180773007
 21
-4.243095833333339
 72
     1
 10
5.41183180773007
 20
-4.243095833333339
 11
5.467834584093098
 21
-4.194484722222228
 72
     1
 10
5.467834584093098
 20
-4.194484722222228
 11
5.455362362185963
 21
-4.192993055555551
 72
     1
 10
5.455362362185964
 20
-4.19299305555555
 11
5.421908196364408
 21
-4.245429166666667
 97
        0
 75
     2
 76
     1
 98
        0
  0
POLYLINE
  5
2A1
330
1CC
100
AcDbEntity
  8
SDWC screw
  6
AI-Linetype-26
 62
   250
420
  2301728
370
    18
100
AcDb2dPolyline
 66
     1
 10
0.0
 20
0.0
 30
0.0
  0
VERTEX
  5
2A2
330
2A1
100
AcDbEntity
  8
SDWC screw
  6
AI-Linetype-26
 62
   250
420
  2301728
370
    18
100
AcDbVertex
100
AcDb2dVertex
 10
5.408698474475892
 20
-4.207994444444441
 30
0.0
  0
VERTEX
  5
2A3
330
2A1
100
AcDbEntity
  8
SDWC screw
  6
AI-Linetype-26
 62
   250
420
  2301728
370
    18
100
AcDbVertex
100
AcDb2dVertex
 10
5.398620696952699
 20
-4.205661111111112
 30
0.0
  0
VERTEX
  5
2A4
330
2A1
100
AcDbEntity
  8
SDWC screw
  6
AI-Linetype-26
 62
   250
420
  2301728
370
    18
100
AcDbVertex
100
AcDb2dVertex
 10
5.454623473315729
 20
-4.157036111111109
 30
0.0
  0
VERTEX
  5
2A5
330
2A1
100
AcDbEntity
  8
SDWC screw
  6
AI-Linetype-26
 62
   250
420
  2301728
370
    18
100
AcDbVertex
100
AcDb2dVertex
 10
5.442152777777778
 20
-4.155572222222228
 30
0.0
  0
SEQEND
  5
2A8
330
2A1
100
AcDbEntity
  8
SDWC screw
  6
AI-Linetype-26
 62
   250
420
  2301728
370
    18
  0
HATCH
  5
2A7
330
1CC
100
AcDbEntity
  8
SDWC screw
 62
    30
420
 15955765
100
AcDbHatch
 10
0.0
 20
0.0
 30
0.0
210
0.0
220
0.0
230
1.0
  2
SOLID
 70
     1
 71
     0
 91
        1
 92
        1
 93
        4
 72
     1
 10
5.408698474475892
 20
-4.207994444444441
 11
5.3986206969527
 21
-4.205661111111112
 72
     1
 10
5.398620696952699
 20
-4.205661111111112
 11
5.454623473315728
 21
-4.157036111111109
 72
     1
 10
5.454623473315729
 20
-4.157036111111109
 11
5.442152777777778
 21
-4.155572222222228
 72
     1
 10
5.442152777777778
 20
-4.155572222222228
 11
5.408698474475892
 21
-4.207994444444441
 97
        0
 75
     2
 76
     1
 98
        0
  0
POLYLINE
  5
2A9
330
1CC
100
AcDbEntity
  8
SDWC screw
  6
AI-Linetype-27
 62
   250
420
  2301728
370
    18
100
AcDb2dPolyline
 66
     1
 10
0.0
 20
0.0
 30
0.0
  0
VERTEX
  5
2AA
330
2A9
100
AcDbEntity
  8
SDWC screw
  6
AI-Linetype-27
 62
   250
420
  2301728
370
    18
100
AcDbVertex
100
AcDb2dVertex
 10
5.391554030464552
 20
-4.170084722222226
 30
0.0
  0
VERTEX
  5
2AB
330
2A9
100
AcDbEntity
  8
SDWC screw
  6
AI-Linetype-27
 62
   250
420
  2301728
370
    18
100
AcDbVertex
100
AcDb2dVertex
 10
5.38147625294136
 20
-4.167751388888885
 30
0.0
  0
VERTEX
  5
2AC
330
2A9
100
AcDbEntity
  8
SDWC screw
  6
AI-Linetype-27
 62
   250
420
  2301728
370
    18
100
AcDbVertex
100
AcDb2dVertex
 10
5.437479029304389
 20
-4.119140277777774
 30
0.0
  0
VERTEX
  5
2AD
330
2A9
100
AcDbEntity
  8
SDWC screw
  6
AI-Linetype-27
 62
   250
420
  2301728
370
    18
100
AcDbVertex
100
AcDb2dVertex
 10
5.425008196286095
 20
-4.117648611111109
 30
0.0
  0
SEQEND
  5
2B0
330
2A9
100
AcDbEntity
  8
SDWC screw
  6
AI-Linetype-27
 62
   250
420
  2301728
370
    18
  0
HATCH
  5
2AF
330
1CC
100
AcDbEntity
  8
SDWC screw
 62
    30
420
 15955765
100
AcDbHatch
 10
0.0
 20
0.0
 30
0.0
210
0.0
220
0.0
230
1.0
  2
SOLID
 70
     1
 71
     0
 91
        1
 92
        1
 93
        4
 72
     1
 10
5.391554030464552
 20
-4.170084722222226
 11
5.38147625294136
 21
-4.167751388888885
 72
     1
 10
5.38147625294136
 20
-4.167751388888885
 11
5.437479029304389
 21
-4.119140277777774
 72
     1
 10
5.437479029304389
 20
-4.119140277777774
 11
5.425008196286095
 21
-4.117648611111109
 72
     1
 10
5.425008196286095
 20
-4.117648611111109
 11
5.391554030464552
 21
-4.170084722222226
 97
        0
 75
     2
 76
     1
 98
        0
  0
POLYLINE
  5
2B1
330
1CC
100
AcDbEntity
  8
SDWC screw
  6
AI-Linetype-28
 62
   250
420
  2301728
370
    18
100
AcDb2dPolyline
 66
     1
 10
0.0
 20
0.0
 30
0.0
  0
VERTEX
  5
2B2
330
2B1
100
AcDbEntity
  8
SDWC screw
  6
AI-Linetype-28
 62
   250
420
  2301728
370
    18
100
AcDbVertex
100
AcDb2dVertex
 10
5.378342919687181
 20
-4.13265
 30
0.0
  0
VERTEX
  5
2B3
330
2B1
100
AcDbEntity
  8
SDWC screw
  6
AI-Linetype-28
 62
   250
420
  2301728
370
    18
100
AcDbVertex
100
AcDb2dVertex
 10
5.36826514216399
 20
-4.130316666666671
 30
0.0
  0
VERTEX
  5
2B4
330
2B1
100
AcDbEntity
  8
SDWC screw
  6
AI-Linetype-28
 62
   250
420
  2301728
370
    18
100
AcDbVertex
100
AcDb2dVertex
 10
5.424269307415872
 20
-4.08170555555556
 30
0.0
  0
VERTEX
  5
2B5
330
2B1
100
AcDbEntity
  8
SDWC screw
  6
AI-Linetype-28
 62
   250
420
  2301728
370
    18
100
AcDbVertex
100
AcDb2dVertex
 10
5.411797085508725
 20
-4.080213888888895
 30
0.0
  0
SEQEND
  5
2B8
330
2B1
100
AcDbEntity
  8
SDWC screw
  6
AI-Linetype-28
 62
   250
420
  2301728
370
    18
  0
HATCH
  5
2B7
330
1CC
100
AcDbEntity
  8
SDWC screw
 62
    30
420
 15955765
100
AcDbHatch
 10
0.0
 20
0.0
 30
0.0
210
0.0
220
0.0
230
1.0
  2
SOLID
 70
     1
 71
     0
 91
        1
 92
        1
 93
        4
 72
     1
 10
5.378342919687181
 20
-4.13265
 11
5.36826514216399
 21
-4.130316666666671
 72
     1
 10
5.36826514216399
 20
-4.130316666666671
 11
5.424269307415872
 21
-4.08170555555556
 72
     1
 10
5.424269307415872
 20
-4.08170555555556
 11
5.411797085508725
 21
-4.080213888888895
 72
     1
 10
5.411797085508725
 20
-4.080213888888895
 11
5.378342919687181
 21
-4.132649999999999
 97
        0
 75
     2
 76
     1
 98
        0
  0
POLYLINE
  5
2B9
330
1CC
100
AcDbEntity
  8
SDWC screw
  6
AI-Linetype-29
 62
   250
420
  2301728
370
    18
100
AcDb2dPolyline
 66
     1
 10
0.0
 20
0.0
 30
0.0
  0
VERTEX
  5
2BA
330
2B9
100
AcDbEntity
  8
SDWC screw
  6
AI-Linetype-29
 62
   250
420
  2301728
370
    18
100
AcDbVertex
100
AcDb2dVertex
 10
5.360555555555556
 20
-4.098172222222224
 30
0.0
  0
VERTEX
  5
2BB
330
2B9
100
AcDbEntity
  8
SDWC screw
  6
AI-Linetype-29
 62
   250
420
  2301728
370
    18
100
AcDbVertex
100
AcDb2dVertex
 10
5.350477642613352
 20
-4.095838888888895
 30
0.0
  0
VERTEX
  5
2BC
330
2B9
100
AcDbEntity
  8
SDWC screw
  6
AI-Linetype-29
 62
   250
420
  2301728
370
    18
100
AcDbVertex
100
AcDb2dVertex
 10
5.406480418976368
 20
-4.047220833333338
 30
0.0
  0
VERTEX
  5
2BD
330
2B9
100
AcDbEntity
  8
SDWC screw
  6
AI-Linetype-29
 62
   250
420
  2301728
370
    18
100
AcDbVertex
100
AcDb2dVertex
 10
5.394009585958075
 20
-4.045743055555552
 30
0.0
  0
SEQEND
  5
2C0
330
2B9
100
AcDbEntity
  8
SDWC screw
  6
AI-Linetype-29
 62
   250
420
  2301728
370
    18
  0
HATCH
  5
2BF
330
1CC
100
AcDbEntity
  8
SDWC screw
 62
    30
420
 15955765
100
AcDbHatch
 10
0.0
 20
0.0
 30
0.0
210
0.0
220
0.0
230
1.0
  2
SOLID
 70
     1
 71
     0
 91
        1
 92
        1
 93
        4
 72
     1
 10
5.360555555555556
 20
-4.098172222222224
 11
5.350477642613352
 21
-4.095838888888895
 72
     1
 10
5.350477642613352
 20
-4.095838888888895
 11
5.406480418976368
 21
-4.047220833333338
 72
     1
 10
5.406480418976368
 20
-4.047220833333338
 11
5.394009585958075
 21
-4.045743055555552
 72
     1
 10
5.394009585958075
 20
-4.045743055555552
 11
5.360555555555555
 21
-4.098172222222224
 97
        0
 75
     2
 76
     1
 98
        0
  0
POLYLINE
  5
2C1
330
1CC
100
AcDbEntity
  8
SDWC screw
  6
AI-Linetype-30
 62
   250
420
  2301728
370
    18
100
AcDb2dPolyline
 66
     1
 10
0.0
 20
0.0
 30
0.0
  0
VERTEX
  5
2C2
330
2C1
100
AcDbEntity
  8
SDWC screw
  6
AI-Linetype-30
 62
   250
420
  2301728
370
    18
100
AcDbVertex
100
AcDb2dVertex
 10
5.347344309359161
 20
-4.060730555555551
 30
0.0
  0
VERTEX
  5
2C3
330
2C1
100
AcDbEntity
  8
SDWC screw
  6
AI-Linetype-30
 62
   250
420
  2301728
370
    18
100
AcDbVertex
100
AcDb2dVertex
 10
5.33726653183597
 20
-4.058397222222222
 30
0.0
  0
VERTEX
  5
2C4
330
2C1
100
AcDbEntity
  8
SDWC screw
  6
AI-Linetype-30
 62
   250
420
  2301728
370
    18
100
AcDbVertex
100
AcDb2dVertex
 10
5.393269308198998
 20
-4.009786111111111
 30
0.0
  0
VERTEX
  5
2C5
330
2C1
100
AcDbEntity
  8
SDWC screw
  6
AI-Linetype-30
 62
   250
420
  2301728
370
    18
100
AcDbVertex
100
AcDb2dVertex
 10
5.380798475180705
 20
-4.008306944444446
 30
0.0
  0
SEQEND
  5
2C8
330
2C1
100
AcDbEntity
  8
SDWC screw
  6
AI-Linetype-30
 62
   250
420
  2301728
370
    18
  0
HATCH
  5
2C7
330
1CC
100
AcDbEntity
  8
SDWC screw
 62
    30
420
 15955765
100
AcDbHatch
 10
0.0
 20
0.0
 30
0.0
210
0.0
220
0.0
230
1.0
  2
SOLID
 70
     1
 71
     0
 91
        1
 92
        1
 93
        4
 72
     1
 10
5.347344309359161
 20
-4.060730555555551
 11
5.33726653183597
 21
-4.058397222222222
 72
     1
 10
5.33726653183597
 20
-4.058397222222222
 11
5.393269308198998
 21
-4.009786111111111
 72
     1
 10
5.393269308198998
 20
-4.009786111111111
 11
5.380798475180704
 21
-4.008306944444446
 72
     1
 10
5.380798475180705
 20
-4.008306944444446
 11
5.347344309359162
 21
-4.060730555555551
 97
        0
 75
     2
 76
     1
 98
        0
  0
POLYLINE
  5
2C9
330
1CC
100
AcDbEntity
  8
SDWC screw
  6
AI-Linetype-31
 62
   250
420
  2301728
370
    18
100
AcDb2dPolyline
 66
     1
 10
0.0
 20
0.0
 30
0.0
  0
VERTEX
  5
2CA
330
2C9
100
AcDbEntity
  8
SDWC screw
  6
AI-Linetype-31
 62
   250
420
  2301728
370
    18
100
AcDbVertex
100
AcDb2dVertex
 10
5.332552643066164
 20
-4.025695833333328
 30
0.0
  0
VERTEX
  5
2CB
330
2C9
100
AcDbEntity
  8
SDWC screw
  6
AI-Linetype-31
 62
   250
420
  2301728
370
    18
100
AcDbVertex
100
AcDb2dVertex
 10
5.322476254431826
 20
-4.023362499999999
 30
0.0
  0
VERTEX
  5
2CC
330
2C9
100
AcDbEntity
  8
SDWC screw
  6
AI-Linetype-31
 62
   250
420
  2301728
370
    18
100
AcDbVertex
100
AcDb2dVertex
 10
5.378479030794854
 20
-3.974751388888889
 30
0.0
  0
VERTEX
  5
2CD
330
2C9
100
AcDbEntity
  8
SDWC screw
  6
AI-Linetype-31
 62
   250
420
  2301728
370
    18
100
AcDbVertex
100
AcDb2dVertex
 10
5.366006808887707
 20
-3.973273611111115
 30
0.0
  0
SEQEND
  5
2D0
330
2C9
100
AcDbEntity
  8
SDWC screw
  6
AI-Linetype-31
 62
   250
420
  2301728
370
    18
  0
HATCH
  5
2CF
330
1CC
100
AcDbEntity
  8
SDWC screw
 62
    30
420
 15955765
100
AcDbHatch
 10
0.0
 20
0.0
 30
0.0
210
0.0
220
0.0
230
1.0
  2
SOLID
 70
     1
 71
     0
 91
        1
 92
        1
 93
        4
 72
     1
 10
5.332552643066164
 20
-4.025695833333328
 11
5.322476254431826
 21
-4.023362499999999
 72
     1
 10
5.322476254431826
 20
-4.023362499999999
 11
5.378479030794854
 21
-3.974751388888888
 72
     1
 10
5.378479030794854
 20
-3.974751388888889
 11
5.366006808887707
 21
-3.973273611111115
 72
     1
 10
5.366006808887707
 20
-3.973273611111115
 11
5.332552643066164
 21
-4.025695833333328
 97
        0
 75
     2
 76
     1
 98
        0
  0
POLYLINE
  5
2D1
330
1CC
100
AcDbEntity
  8
SDWC screw
  6
AI-Linetype-32
 62
   250
420
  2301728
370
    18
100
AcDb2dPolyline
 66
     1
 10
0.0
 20
0.0
 30
0.0
  0
VERTEX
  5
2D2
330
2D1
100
AcDbEntity
  8
SDWC screw
  6
AI-Linetype-32
 62
   250
420
  2301728
370
    18
100
AcDbVertex
100
AcDb2dVertex
 10
5.319342921177647
 20
-3.988261111111115
 30
0.0
  0
VERTEX
  5
2D3
330
2D1
100
AcDbEntity
  8
SDWC screw
  6
AI-Linetype-32
 62
   250
420
  2301728
370
    18
100
AcDbVertex
100
AcDb2dVertex
 10
5.309265143654455
 20
-3.985927777777773
 30
0.0
  0
VERTEX
  5
2D4
330
2D1
100
AcDbEntity
  8
SDWC screw
  6
AI-Linetype-32
 62
   250
420
  2301728
370
    18
100
AcDbVertex
100
AcDb2dVertex
 10
5.365267920017484
 20
-3.937316666666662
 30
0.0
  0
VERTEX
  5
2D5
330
2D1
100
AcDbEntity
  8
SDWC screw
  6
AI-Linetype-32
 62
   250
420
  2301728
370
    18
100
AcDbVertex
100
AcDb2dVertex
 10
5.35279708699919
 20
-3.935838888888889
 30
0.0
  0
SEQEND
  5
2D8
330
2D1
100
AcDbEntity
  8
SDWC screw
  6
AI-Linetype-32
 62
   250
420
  2301728
370
    18
  0
HATCH
  5
2D7
330
1CC
100
AcDbEntity
  8
SDWC screw
 62
    30
420
 15955765
100
AcDbHatch
 10
0.0
 20
0.0
 30
0.0
210
0.0
220
0.0
230
1.0
  2
SOLID
 70
     1
 71
     0
 91
        1
 92
        1
 93
        4
 72
     1
 10
5.319342921177647
 20
-3.988261111111115
 11
5.309265143654455
 21
-3.985927777777773
 72
     1
 10
5.309265143654455
 20
-3.985927777777773
 11
5.365267920017484
 21
-3.937316666666662
 72
     1
 10
5.365267920017484
 20
-3.937316666666662
 11
5.35279708699919
 21
-3.935838888888889
 72
     1
 10
5.35279708699919
 20
-3.935838888888889
 11
5.319342921177647
 21
-3.988261111111114
 97
        0
 75
     2
 76
     1
 98
        0
  0
POLYLINE
  5
2D9
330
1CC
100
AcDbEntity
  8
SDWC screw
  6
AI-Linetype-33
 62
   250
420
  2301728
370
    18
100
AcDb2dPolyline
 66
     1
 10
0.0
 20
0.0
 30
0.0
  0
VERTEX
  5
2DA
330
2D9
100
AcDbEntity
  8
SDWC screw
  6
AI-Linetype-33
 62
   250
420
  2301728
370
    18
100
AcDbVertex
100
AcDb2dVertex
 10
5.301554032738143
 20
-3.953783333333338
 30
0.0
  0
VERTEX
  5
2DB
330
2D9
100
AcDbEntity
  8
SDWC screw
  6
AI-Linetype-33
 62
   250
420
  2301728
370
    18
100
AcDbVertex
100
AcDb2dVertex
 10
5.291476255214952
 20
-3.951449999999997
 30
0.0
  0
VERTEX
  5
2DC
330
2D9
100
AcDbEntity
  8
SDWC screw
  6
AI-Linetype-33
 62
   250
420
  2301728
370
    18
100
AcDbVertex
100
AcDb2dVertex
 10
5.347480420466834
 20
-3.902838888888886
 30
0.0
  0
VERTEX
  5
2DD
330
2D9
100
AcDbEntity
  8
SDWC screw
  6
AI-Linetype-33
 62
   250
420
  2301728
370
    18
100
AcDbVertex
100
AcDb2dVertex
 10
5.335008198559686
 20
-3.901359722222221
 30
0.0
  0
SEQEND
  5
2E0
330
2D9
100
AcDbEntity
  8
SDWC screw
  6
AI-Linetype-33
 62
   250
420
  2301728
370
    18
  0
HATCH
  5
2DF
330
1CC
100
AcDbEntity
  8
SDWC screw
 62
    30
420
 15955765
100
AcDbHatch
 10
0.0
 20
0.0
 30
0.0
210
0.0
220
0.0
230
1.0
  2
SOLID
 70
     1
 71
     0
 91
        1
 92
        1
 93
        4
 72
     1
 10
5.301554032738143
 20
-3.953783333333338
 11
5.291476255214952
 21
-3.951449999999997
 72
     1
 10
5.291476255214952
 20
-3.951449999999997
 11
5.347480420466834
 21
-3.902838888888886
 72
     1
 10
5.347480420466834
 20
-3.902838888888886
 11
5.335008198559686
 21
-3.901359722222221
 72
     1
 10
5.335008198559686
 20
-3.901359722222221
 11
5.301554032738143
 21
-3.953783333333338
 97
        0
 75
     2
 76
     1
 98
        0
  0
POLYLINE
  5
2E1
330
1CC
100
AcDbEntity
  8
SDWC screw
  6
AI-Linetype-34
 62
   250
420
  2301728
370
    18
100
AcDb2dPolyline
 66
     1
 10
0.0
 20
0.0
 30
0.0
  0
VERTEX
  5
2E2
330
2E1
100
AcDbEntity
  8
SDWC screw
  6
AI-Linetype-34
 62
   250
420
  2301728
370
    18
100
AcDbVertex
100
AcDb2dVertex
 10
5.288342921960773
 20
-3.916348611111112
 30
0.0
  0
VERTEX
  5
2E3
330
2E1
100
AcDbEntity
  8
SDWC screw
  6
AI-Linetype-34
 62
   250
420
  2301728
370
    18
100
AcDbVertex
100
AcDb2dVertex
 10
5.278266533326435
 20
-3.914015277777783
 30
0.0
  0
VERTEX
  5
2E4
330
2E1
100
AcDbEntity
  8
SDWC screw
  6
AI-Linetype-34
 62
   250
420
  2301728
370
    18
100
AcDbVertex
100
AcDb2dVertex
 10
5.334269309689463
 20
-3.865404166666672
 30
0.0
  0
VERTEX
  5
2E5
330
2E1
100
AcDbEntity
  8
SDWC screw
  6
AI-Linetype-34
 62
   250
420
  2301728
370
    18
100
AcDbVertex
100
AcDb2dVertex
 10
5.321797087782316
 20
-3.863924999999995
 30
0.0
  0
SEQEND
  5
2E8
330
2E1
100
AcDbEntity
  8
SDWC screw
  6
AI-Linetype-34
 62
   250
420
  2301728
370
    18
  0
HATCH
  5
2E7
330
1CC
100
AcDbEntity
  8
SDWC screw
 62
    30
420
 15955765
100
AcDbHatch
 10
0.0
 20
0.0
 30
0.0
210
0.0
220
0.0
230
1.0
  2
SOLID
 70
     1
 71
     0
 91
        1
 92
        1
 93
        4
 72
     1
 10
5.288342921960773
 20
-3.916348611111112
 11
5.278266533326435
 21
-3.914015277777783
 72
     1
 10
5.278266533326435
 20
-3.914015277777783
 11
5.334269309689463
 21
-3.865404166666672
 72
     1
 10
5.334269309689463
 20
-3.865404166666672
 11
5.321797087782316
 21
-3.863924999999994
 72
     1
 10
5.321797087782316
 20
-3.863924999999995
 11
5.288342921960773
 21
-3.916348611111112
 97
        0
 75
     2
 76
     1
 98
        0
  0
POLYLINE
  5
2E9
330
1CC
100
AcDbEntity
  8
SDWC screw
  6
AI-Linetype-35
 62
   250
420
  2301728
370
    18
100
AcDb2dPolyline
 66
     1
 10
0.0
 20
0.0
 30
0.0
  0
VERTEX
  5
2EA
330
2E9
100
AcDbEntity
  8
SDWC screw
  6
AI-Linetype-35
 62
   250
420
  2301728
370
    18
100
AcDbVertex
100
AcDb2dVertex
 10
5.270555555555549
 20
-3.882412499999999
 30
0.0
  0
VERTEX
  5
2EB
330
2E9
100
AcDbEntity
  8
SDWC screw
  6
AI-Linetype-35
 62
   250
420
  2301728
370
    18
100
AcDbVertex
100
AcDb2dVertex
 10
5.260477644886931
 20
-3.880079166666671
 30
0.0
  0
VERTEX
  5
2EC
330
2E9
100
AcDbEntity
  8
SDWC screw
  6
AI-Linetype-35
 62
   250
420
  2301728
370
    18
100
AcDbVertex
100
AcDb2dVertex
 10
5.31648042124996
 20
-3.831468055555559
 30
0.0
  0
VERTEX
  5
2ED
330
2E9
100
AcDbEntity
  8
SDWC screw
  6
AI-Linetype-35
 62
   250
420
  2301728
370
    18
100
AcDbVertex
100
AcDb2dVertex
 10
5.304009588231666
 20
-3.829990277777774
 30
0.0
  0
SEQEND
  5
2F0
330
2E9
100
AcDbEntity
  8
SDWC screw
  6
AI-Linetype-35
 62
   250
420
  2301728
370
    18
  0
HATCH
  5
2EF
330
1CC
100
AcDbEntity
  8
SDWC screw
 62
    30
420
 15955765
100
AcDbHatch
 10
0.0
 20
0.0
 30
0.0
210
0.0
220
0.0
230
1.0
  2
SOLID
 70
     1
 71
     0
 91
        1
 92
        1
 93
        4
 72
     1
 10
5.270555555555549
 20
-3.882412499999999
 11
5.260477644886931
 21
-3.880079166666671
 72
     1
 10
5.260477644886931
 20
-3.880079166666671
 11
5.31648042124996
 21
-3.831468055555559
 72
     1
 10
5.31648042124996
 20
-3.831468055555559
 11
5.304009588231666
 21
-3.829990277777774
 72
     1
 10
5.304009588231666
 20
-3.829990277777774
 11
5.270555555555549
 21
-3.882412499999999
 97
        0
 75
     2
 76
     1
 98
        0
  0
POLYLINE
  5
2F1
330
1CC
100
AcDbEntity
  8
SDWC screw
  6
AI-Linetype-36
 62
   250
420
  2301728
370
    18
100
AcDb2dPolyline
 66
     1
 10
0.0
 20
0.0
 30
0.0
  0
VERTEX
  5
2F2
330
2F1
100
AcDbEntity
  8
SDWC screw
  6
AI-Linetype-36
 62
   250
420
  2301728
370
    18
100
AcDbVertex
100
AcDb2dVertex
 10
5.262817922605588
 20
-3.844177777777784
 30
0.0
  0
VERTEX
  5
2F3
330
2F1
100
AcDbEntity
  8
SDWC screw
  6
AI-Linetype-36
 62
   250
420
  2301728
370
    18
100
AcDbVertex
100
AcDb2dVertex
 10
5.252740145082397
 20
-3.841844444444443
 30
0.0
  0
VERTEX
  5
2F4
330
2F1
100
AcDbEntity
  8
SDWC screw
  6
AI-Linetype-36
 62
   250
420
  2301728
370
    18
100
AcDbVertex
100
AcDb2dVertex
 10
5.297715143946233
 20
-3.803141666666672
 30
0.0
  0
VERTEX
  5
2F5
330
2F1
100
AcDbEntity
  8
SDWC screw
  6
AI-Linetype-36
 62
   250
420
  2301728
370
    18
100
AcDbVertex
100
AcDb2dVertex
 10
5.285244310927939
 20
-3.801662499999995
 30
0.0
  0
SEQEND
  5
2F8
330
2F1
100
AcDbEntity
  8
SDWC screw
  6
AI-Linetype-36
 62
   250
420
  2301728
370
    18
  0
HATCH
  5
2F7
330
1CC
100
AcDbEntity
  8
SDWC screw
 62
    30
420
 15955765
100
AcDbHatch
 10
0.0
 20
0.0
 30
0.0
210
0.0
220
0.0
230
1.0
  2
SOLID
 70
     1
 71
     0
 91
        1
 92
        1
 93
        4
 72
     1
 10
5.262817922605588
 20
-3.844177777777784
 11
5.252740145082397
 21
-3.841844444444442
 72
     1
 10
5.252740145082397
 20
-3.841844444444443
 11
5.297715143946233
 21
-3.803141666666673
 72
     1
 10
5.297715143946233
 20
-3.803141666666672
 11
5.285244310927939
 21
-3.801662499999995
 72
     1
 10
5.285244310927939
 20
-3.801662499999995
 11
5.262817922605588
 21
-3.844177777777784
 97
        0
 75
     2
 76
     1
 98
        0
  0
ENDBLK
  5
1CF
330
1CC
100
AcDbEntity
  8
0
100
AcDbBlockEnd
  0
BLOCK
  5
30B
330
309
100
AcDbEntity
  8
0
100
AcDbBlockBegin
  2
block 5
 70
     0
 10
0.0
 20
0.0
 30
0.0
  3
block 5
  1

  0
POLYLINE
  5
30D
330
309
100
AcDbEntity
  8
SDWC screw
 62
   250
420
  2301728
370
    13
100
AcDb2dPolyline
 66
     1
 10
0.0
 20
0.0
 30
0.0
  0
VERTEX
  5
30E
330
30D
100
AcDbEntity
  8
SDWC screw
 62
   250
420
  2301728
370
    13
100
AcDbVertex
100
AcDb2dVertex
 10
5.293877644043176
 20
-4.367566666666663
 30
0.0
  0
VERTEX
  5
30F
330
30D
100
AcDbEntity
  8
SDWC screw
 62
   250
420
  2301728
370
    13
100
AcDbVertex
100
AcDb2dVertex
 10
5.329020698710943
 20
-4.414441666666663
 30
0.0
  0
VERTEX
  5
310
330
30D
100
AcDbEntity
  8
SDWC screw
 62
   250
420
  2301728
370
    13
100
AcDbVertex
100
AcDb2dVertex
 10
5.356105420248948
 20
-4.420694444444456
 30
0.0
  0
VERTEX
  5
311
330
30D
100
AcDbEntity
  8
SDWC screw
 62
   250
420
  2301728
370
    13
100
AcDbVertex
100
AcDb2dVertex
 10
5.552979026386613
 20
-4.362358333333329
 30
0.0
  0
SEQEND
  5
312
330
30D
100
AcDbEntity
  8
SDWC screw
 62
   250
420
  2301728
370
    13
  0
POLYLINE
  5
313
330
309
100
AcDbEntity
  8
SDWC screw
 62
   250
420
  2301728
370
    13
100
AcDb2dPolyline
 66
     1
 10
0.0
 20
0.0
 30
0.0
  0
VERTEX
  5
314
330
313
100
AcDbEntity
  8
SDWC screw
 62
   250
420
  2301728
370
    13
100
AcDbVertex
100
AcDb2dVertex
 10
5.224854034675748
 20
-4.368611111111123
 30
0.0
  0
VERTEX
  5
315
330
313
100
AcDbEntity
  8
SDWC screw
 62
   250
420
  2301728
370
    13
100
AcDbVertex
100
AcDb2dVertex
 10
5.293605421827831
 20
-4.464437500000005
 30
0.0
  0
VERTEX
  5
316
330
313
100
AcDbEntity
  8
SDWC screw
 62
   250
420
  2301728
370
    13
100
AcDbVertex
100
AcDb2dVertex
 10
5.337355420722613
 20
-4.497259722222225
 30
0.0
  0
VERTEX
  5
317
330
313
100
AcDbEntity
  8
SDWC screw
 62
   250
420
  2301728
370
    13
100
AcDbVertex
100
AcDb2dVertex
 10
5.370687364325022
 20
-4.506104166666672
 30
0.0
  0
VERTEX
  5
318
330
313
100
AcDbEntity
  8
SDWC screw
 62
   250
420
  2301728
370
    13
100
AcDbVertex
100
AcDb2dVertex
 10
5.497762361114837
 20
-4.416530555555558
 30
0.0
  0
VERTEX
  5
319
330
313
100
AcDbEntity
  8
SDWC screw
 62
   250
420
  2301728
370
    13
100
AcDbVertex
100
AcDb2dVertex
 10
5.566515137155774
 20
-4.401937500000005
 30
0.0
  0
VERTEX
  5
31A
330
313
100
AcDbEntity
  8
SDWC screw
 62
   250
420
  2301728
370
    13
100
AcDbVertex
100
AcDb2dVertex
 10
5.683187356430608
 20
-4.476929166666675
 30
0.0
  0
VERTEX
  5
31B
330
313
100
AcDbEntity
  8
SDWC screw
 62
   250
420
  2301728
370
    13
100
AcDbVertex
100
AcDb2dVertex
 10
5.751926243583006
 20
-4.574855555555561
 30
0.0
  0
VERTEX
  5
31C
330
313
100
AcDbEntity
  8
SDWC screw
 62
   250
420
  2301728
370
    13
100
AcDbVertex
100
AcDb2dVertex
 10
5.824855408407327
 20
-4.62902777777779
 30
0.0
  0
SEQEND
  5
31D
330
313
100
AcDbEntity
  8
SDWC screw
 62
   250
420
  2301728
370
    13
  0
POLYLINE
  5
31E
330
309
100
AcDbEntity
  8
SDWC screw
 62
   250
420
  2301728
370
    13
100
AcDb2dPolyline
 66
     1
 10
0.0
 20
0.0
 30
0.0
  0
VERTEX
  5
31F
330
31E
100
AcDbEntity
  8
SDWC screw
 62
   250
420
  2301728
370
    13
100
AcDbVertex
100
AcDb2dVertex
 10
5.120673481752015
 20
-4.368598611111111
 30
0.0
  0
VERTEX
  5
320
330
31E
100
AcDbEntity
  8
SDWC screw
 62
   250
420
  2301728
370
    13
100
AcDbVertex
100
AcDb2dVertex
 10
5.201767924147841
 20
-4.470702777777786
 30
0.0
  0
VERTEX
  5
321
330
31E
100
AcDbEntity
  8
SDWC screw
 62
   250
420
  2301728
370
    13
100
AcDbVertex
100
AcDb2dVertex
 10
5.306098477067786
 20
-4.551934722222212
 30
0.0
  0
VERTEX
  5
322
330
31E
100
AcDbEntity
  8
SDWC screw
 62
   250
420
  2301728
370
    13
100
AcDbVertex
100
AcDb2dVertex
 10
5.333184587494643
 20
-4.556111111111123
 30
0.0
  0
VERTEX
  5
323
330
31E
100
AcDbEntity
  8
SDWC screw
 62
   250
420
  2301728
370
    13
100
AcDbVertex
100
AcDb2dVertex
 10
5.451938751161328
 20
-4.520697222222225
 30
0.0
  0
VERTEX
  5
324
330
31E
100
AcDbEntity
  8
SDWC screw
 62
   250
420
  2301728
370
    13
100
AcDbVertex
100
AcDb2dVertex
 10
5.516520693974295
 20
-4.476929166666675
 30
0.0
  0
VERTEX
  5
325
330
31E
100
AcDbEntity
  8
SDWC screw
 62
   250
420
  2301728
370
    13
100
AcDbVertex
100
AcDb2dVertex
 10
5.570691525939158
 20
-4.485270833333339
 30
0.0
  0
VERTEX
  5
326
330
31E
100
AcDbEntity
  8
SDWC screw
 62
   250
420
  2301728
370
    13
100
AcDbVertex
100
AcDb2dVertex
 10
5.638916666666672
 20
-4.572916666666666
 30
0.0
  0
VERTEX
  5
327
330
31E
100
AcDbEntity
  8
SDWC screw
 62
   250
420
  2301728
370
    13
100
AcDbVertex
100
AcDb2dVertex
 10
5.691515133998008
 20
-4.591524999999996
 30
0.0
  0
VERTEX
  5
328
330
31E
100
AcDbEntity
  8
SDWC screw
 62
   250
420
  2301728
370
    13
100
AcDbVertex
100
AcDb2dVertex
 10
5.791517909249503
 20
-4.664441666666662
 30
0.0
  0
VERTEX
  5
329
330
31E
100
AcDbEntity
  8
SDWC screw
 62
   250
420
  2301728
370
    13
100
AcDbVertex
100
AcDb2dVertex
 10
5.818604019676362
 20
-4.695691666666662
 30
0.0
  0
SEQEND
  5
32A
330
31E
100
AcDbEntity
  8
SDWC screw
 62
   250
420
  2301728
370
    13
  0
POLYLINE
  5
32B
330
309
100
AcDbEntity
  8
SDWC screw
 62
   250
420
  2301728
370
    13
100
AcDb2dPolyline
 66
     1
 10
0.0
 20
0.0
 30
0.0
  0
VERTEX
  5
32C
330
32B
100
AcDbEntity
  8
SDWC screw
 62
   250
420
  2301728
370
    13
100
AcDbVertex
100
AcDb2dVertex
 10
5.049852650207766
 20
-4.411309722222212
 30
0.0
  0
VERTEX
  5
32D
330
32B
100
AcDbEntity
  8
SDWC screw
 62
   250
420
  2301728
370
    13
100
AcDbVertex
100
AcDb2dVertex
 10
5.074849871798506
 20
-4.426934722222212
 30
0.0
  0
VERTEX
  5
32E
330
32B
100
AcDbEntity
  8
SDWC screw
 62
   250
420
  2301728
370
    13
100
AcDbVertex
100
AcDb2dVertex
 10
5.120687370640553
 20
-4.491536111111119
 30
0.0
  0
VERTEX
  5
32F
330
32B
100
AcDbEntity
  8
SDWC screw
 62
   250
420
  2301728
370
    13
100
AcDbVertex
100
AcDb2dVertex
 10
5.147772092178557
 20
-4.495687500000005
 30
0.0
  0
VERTEX
  5
330
330
32B
100
AcDbEntity
  8
SDWC screw
 62
   250
420
  2301728
370
    13
100
AcDbVertex
100
AcDb2dVertex
 10
5.24568055555556
 20
-4.568604166666672
 30
0.0
  0
VERTEX
  5
331
330
32B
100
AcDbEntity
  8
SDWC screw
 62
   250
420
  2301728
370
    13
100
AcDbVertex
100
AcDb2dVertex
 10
5.268602644681676
 20
-4.601941666666662
 30
0.0
  0
VERTEX
  5
332
330
32B
100
AcDbEntity
  8
SDWC screw
 62
   250
420
  2301728
370
    13
100
AcDbVertex
100
AcDb2dVertex
 10
5.314629032407841
 20
-4.62902777777779
 30
0.0
  0
VERTEX
  5
333
330
32B
100
AcDbEntity
  8
SDWC screw
 62
   250
420
  2301728
370
    13
100
AcDbVertex
100
AcDb2dVertex
 10
5.345688753845429
 20
-4.643608333333329
 30
0.0
  0
VERTEX
  5
334
330
32B
100
AcDbEntity
  8
SDWC screw
 62
   250
420
  2301728
370
    13
100
AcDbVertex
100
AcDb2dVertex
 10
5.441522084757808
 20
-4.574855555555561
 30
0.0
  0
VERTEX
  5
335
330
32B
100
AcDbEntity
  8
SDWC screw
 62
   250
420
  2301728
370
    13
100
AcDbVertex
100
AcDb2dVertex
 10
5.501938749898222
 20
-4.558187500000005
 30
0.0
  0
VERTEX
  5
336
330
32B
100
AcDbEntity
  8
SDWC screw
 62
   250
420
  2301728
370
    13
100
AcDbVertex
100
AcDb2dVertex
 10
5.52902486032508
 20
-4.562351388888879
 30
0.0
  0
VERTEX
  5
337
330
32B
100
AcDbEntity
  8
SDWC screw
 62
   250
420
  2301728
370
    13
100
AcDbVertex
100
AcDb2dVertex
 10
5.630601246647934
 20
-4.643608333333329
 30
0.0
  0
VERTEX
  5
338
330
32B
100
AcDbEntity
  8
SDWC screw
 62
   250
420
  2301728
370
    13
100
AcDbVertex
100
AcDb2dVertex
 10
5.691515133998008
 20
-4.651937500000005
 30
0.0
  0
VERTEX
  5
339
330
32B
100
AcDbEntity
  8
SDWC screw
 62
   250
420
  2301728
370
    13
100
AcDbVertex
100
AcDb2dVertex
 10
5.749851243635425
 20
-4.695691666666662
 30
0.0
  0
SEQEND
  5
33A
330
32B
100
AcDbEntity
  8
SDWC screw
 62
   250
420
  2301728
370
    13
  0
POLYLINE
  5
33B
330
309
100
AcDbEntity
  8
SDWC screw
 62
   250
420
  2301728
370
    13
100
AcDb2dPolyline
 66
     1
 10
0.0
 20
0.0
 30
0.0
  0
VERTEX
  5
33C
330
33B
100
AcDbEntity
  8
SDWC screw
 62
   250
420
  2301728
370
    13
100
AcDbVertex
100
AcDb2dVertex
 10
5.049852650207766
 20
-4.516520833333339
 30
0.0
  0
VERTEX
  5
33D
330
33B
100
AcDbEntity
  8
SDWC screw
 62
   250
420
  2301728
370
    13
100
AcDbVertex
100
AcDb2dVertex
 10
5.087327649261068
 20
-4.543619444444453
 30
0.0
  0
VERTEX
  5
33E
330
33B
100
AcDbEntity
  8
SDWC screw
 62
   250
420
  2301728
370
    13
100
AcDbVertex
100
AcDb2dVertex
 10
5.137355425775038
 20
-4.549858333333329
 30
0.0
  0
VERTEX
  5
33F
330
33B
100
AcDbEntity
  8
SDWC screw
 62
   250
420
  2301728
370
    13
100
AcDbVertex
100
AcDb2dVertex
 10
5.237345701026848
 20
-4.622774999999996
 30
0.0
  0
VERTEX
  5
340
330
33B
100
AcDbEntity
  8
SDWC screw
 62
   250
420
  2301728
370
    13
100
AcDbVertex
100
AcDb2dVertex
 10
5.30189986606274
 20
-4.690050000000004
 30
0.0
  0
SEQEND
  5
341
330
33B
100
AcDbEntity
  8
SDWC screw
 62
   250
420
  2301728
370
    13
  0
POLYLINE
  5
342
330
309
100
AcDbEntity
  8
SDWC screw
 62
   250
420
  2301728
370
    13
100
AcDb2dPolyline
 66
     1
 10
0.0
 20
0.0
 30
0.0
  0
VERTEX
  5
343
330
342
100
AcDbEntity
  8
SDWC screw
 62
   250
420
  2301728
370
    13
100
AcDbVertex
100
AcDb2dVertex
 10
5.387349863904092
 20
-4.690050000000004
 30
0.0
  0
VERTEX
  5
344
330
342
100
AcDbEntity
  8
SDWC screw
 62
   250
420
  2301728
370
    13
100
AcDbVertex
100
AcDb2dVertex
 10
5.491516527939287
 20
-4.612358333333329
 30
0.0
  0
VERTEX
  5
345
330
342
100
AcDbEntity
  8
SDWC screw
 62
   250
420
  2301728
370
    13
100
AcDbVertex
100
AcDb2dVertex
 10
5.524848471541696
 20
-4.621188888888885
 30
0.0
  0
VERTEX
  5
346
330
342
100
AcDbEntity
  8
SDWC screw
 62
   250
420
  2301728
370
    13
100
AcDbVertex
100
AcDb2dVertex
 10
5.618598469173372
 20
-4.691515277777777
 30
0.0
  0
SEQEND
  5
347
330
342
100
AcDbEntity
  8
SDWC screw
 62
   250
420
  2301728
370
    13
  0
POLYLINE
  5
348
330
309
100
AcDbEntity
  8
SDWC screw
 62
   250
420
  2301728
370
    13
100
AcDb2dPolyline
 66
     1
 10
0.0
 20
0.0
 30
0.0
  0
VERTEX
  5
349
330
348
100
AcDbEntity
  8
SDWC screw
 62
   250
420
  2301728
370
    13
100
AcDbVertex
100
AcDb2dVertex
 10
5.485270694763736
 20
-4.688951388888881
 30
0.0
  0
VERTEX
  5
34A
330
348
100
AcDbEntity
  8
SDWC screw
 62
   250
420
  2301728
370
    13
100
AcDbVertex
100
AcDb2dVertex
 10
5.510267916354476
 20
-4.672770833333339
 30
0.0
  0
VERTEX
  5
34B
330
348
100
AcDbEntity
  8
SDWC screw
 62
   250
420
  2301728
370
    13
100
AcDbVertex
100
AcDb2dVertex
 10
5.537354026781334
 20
-4.676947222222225
 30
0.0
  0
VERTEX
  5
34C
330
348
100
AcDbEntity
  8
SDWC screw
 62
   250
420
  2301728
370
    13
100
AcDbVertex
100
AcDb2dVertex
 10
5.558187359588374
 20
-4.692559722222212
 30
0.0
  0
SEQEND
  5
34D
330
348
100
AcDbEntity
  8
SDWC screw
 62
   250
420
  2301728
370
    13
  0
POLYLINE
  5
34E
330
309
100
AcDbEntity
  8
SDWC screw
 62
   250
420
  2301728
370
    13
100
AcDb2dPolyline
 66
     1
 10
0.0
 20
0.0
 30
0.0
  0
VERTEX
  5
34F
330
34E
100
AcDbEntity
  8
SDWC screw
 62
   250
420
  2301728
370
    13
100
AcDbVertex
100
AcDb2dVertex
 10
5.049852650207766
 20
-4.579033333333326
 30
0.0
  0
VERTEX
  5
350
330
34E
100
AcDbEntity
  8
SDWC screw
 62
   250
420
  2301728
370
    13
100
AcDbVertex
100
AcDb2dVertex
 10
5.072767927406655
 20
-4.595702777777786
 30
0.0
  0
VERTEX
  5
351
330
34E
100
AcDbEntity
  8
SDWC screw
 62
   250
420
  2301728
370
    13
100
AcDbVertex
100
AcDb2dVertex
 10
5.099854037833514
 20
-4.599854166666672
 30
0.0
  0
VERTEX
  5
352
330
34E
100
AcDbEntity
  8
SDWC screw
 62
   250
420
  2301728
370
    13
100
AcDbVertex
100
AcDb2dVertex
 10
5.199855424196155
 20
-4.672770833333339
 30
0.0
  0
VERTEX
  5
353
330
34E
100
AcDbEntity
  8
SDWC screw
 62
   250
420
  2301728
370
    13
100
AcDbVertex
100
AcDb2dVertex
 10
5.212442923878168
 20
-4.692559722222212
 30
0.0
  0
SEQEND
  5
354
330
34E
100
AcDbEntity
  8
SDWC screw
 62
   250
420
  2301728
370
    13
  0
POLYLINE
  5
355
330
309
100
AcDbEntity
  8
SDWC screw
 62
   250
420
  2301728
370
    13
100
AcDb2dPolyline
 66
     1
 10
0.0
 20
0.0
 30
0.0
  0
VERTEX
  5
356
330
355
100
AcDbEntity
  8
SDWC screw
 62
   250
420
  2301728
370
    13
100
AcDbVertex
100
AcDb2dVertex
 10
5.055576261174287
 20
-4.62902777777779
 30
0.0
  0
VERTEX
  5
357
330
355
100
AcDbEntity
  8
SDWC screw
 62
   250
420
  2301728
370
    13
100
AcDbVertex
100
AcDb2dVertex
 10
5.112644315288182
 20
-4.670518055555552
 30
0.0
  0
VERTEX
  5
358
330
355
100
AcDbEntity
  8
SDWC screw
 62
   250
420
  2301728
370
    13
100
AcDbVertex
100
AcDb2dVertex
 10
5.131144314820832
 20
-4.692559722222212
 30
0.0
  0
SEQEND
  5
359
330
355
100
AcDbEntity
  8
SDWC screw
 62
   250
420
  2301728
370
    13
  0
POLYLINE
  5
35A
330
309
100
AcDbEntity
  8
SDWC screw
 62
   250
420
  2301728
370
    13
100
AcDb2dPolyline
 66
     1
 10
0.0
 20
0.0
 30
0.0
  0
VERTEX
  5
35B
330
35A
100
AcDbEntity
  8
SDWC screw
 62
   250
420
  2301728
370
    13
100
AcDbVertex
100
AcDb2dVertex
 10
5.055576261174287
 20
-4.722031944444451
 30
0.0
  0
VERTEX
  5
35C
330
35A
100
AcDbEntity
  8
SDWC screw
 62
   250
420
  2301728
370
    13
100
AcDbVertex
100
AcDb2dVertex
 10
5.087327649261068
 20
-4.722031944444451
 30
0.0
  0
VERTEX
  5
35D
330
35A
100
AcDbEntity
  8
SDWC screw
 62
   250
420
  2301728
370
    13
100
AcDbVertex
100
AcDb2dVertex
 10
5.156101258634812
 20
-4.737345833333342
 30
0.0
  0
VERTEX
  5
35E
330
35A
100
AcDbEntity
  8
SDWC screw
 62
   250
420
  2301728
370
    13
100
AcDbVertex
100
AcDb2dVertex
 10
5.224854034675748
 20
-4.787001388888888
 30
0.0
  0
VERTEX
  5
35F
330
35A
100
AcDbEntity
  8
SDWC screw
 62
   250
420
  2301728
370
    13
100
AcDbVertex
100
AcDb2dVertex
 10
5.374851253108722
 20
-4.835272222222228
 30
0.0
  0
VERTEX
  5
360
330
35A
100
AcDbEntity
  8
SDWC screw
 62
   250
420
  2301728
370
    13
100
AcDbVertex
100
AcDb2dVertex
 10
5.451938751161328
 20
-4.889444444444456
 30
0.0
  0
VERTEX
  5
361
330
35A
100
AcDbEntity
  8
SDWC screw
 62
   250
420
  2301728
370
    13
100
AcDbVertex
100
AcDb2dVertex
 10
5.48318180592763
 20
-4.883191666666662
 30
0.0
  0
VERTEX
  5
362
330
35A
100
AcDbEntity
  8
SDWC screw
 62
   250
420
  2301728
370
    13
100
AcDbVertex
100
AcDb2dVertex
 10
5.584229025597172
 20
-4.80847222222221
 30
0.0
  0
VERTEX
  5
363
330
35A
100
AcDbEntity
  8
SDWC screw
 62
   250
420
  2301728
370
    13
100
AcDbVertex
100
AcDb2dVertex
 10
5.722765133208567
 20
-4.722031944444451
 30
0.0
  0
VERTEX
  5
364
330
35A
100
AcDbEntity
  8
SDWC screw
 62
   250
420
  2301728
370
    13
100
AcDbVertex
100
AcDb2dVertex
 10
5.76235540998621
 20
-4.722031944444451
 30
0.0
  0
VERTEX
  5
365
330
35A
100
AcDbEntity
  8
SDWC screw
 62
   250
420
  2301728
370
    13
100
AcDbVertex
100
AcDb2dVertex
 10
5.822767908460062
 20
-4.745374999999992
 30
0.0
  0
SEQEND
  5
366
330
35A
100
AcDbEntity
  8
SDWC screw
 62
   250
420
  2301728
370
    13
  0
POLYLINE
  5
367
330
309
100
AcDbEntity
  8
SDWC screw
 62
   250
420
  2301728
370
    13
100
AcDb2dPolyline
 66
     1
 10
0.0
 20
0.0
 30
0.0
  0
VERTEX
  5
368
330
367
100
AcDbEntity
  8
SDWC screw
 62
   250
420
  2301728
370
    13
100
AcDbVertex
100
AcDb2dVertex
 10
5.183844313489518
 20
-4.699855555555561
 30
0.0
  0
VERTEX
  5
369
330
367
100
AcDbEntity
  8
SDWC screw
 62
   250
420
  2301728
370
    13
100
AcDbVertex
100
AcDb2dVertex
 10
5.283474866528195
 20
-4.7421875
 30
0.0
  0
VERTEX
  5
36A
330
367
100
AcDbEntity
  8
SDWC screw
 62
   250
420
  2301728
370
    13
100
AcDbVertex
100
AcDb2dVertex
 10
5.433187362746139
 20
-4.789429166666675
 30
0.0
  0
VERTEX
  5
36B
330
367
100
AcDbEntity
  8
SDWC screw
 62
   250
420
  2301728
370
    13
100
AcDbVertex
100
AcDb2dVertex
 10
5.469631806269919
 20
-4.782972222222219
 30
0.0
  0
VERTEX
  5
36C
330
367
100
AcDbEntity
  8
SDWC screw
 62
   250
420
  2301728
370
    13
100
AcDbVertex
100
AcDb2dVertex
 10
5.566515137155774
 20
-4.732638888888888
 30
0.0
  0
VERTEX
  5
36D
330
367
100
AcDbEntity
  8
SDWC screw
 62
   250
420
  2301728
370
    13
100
AcDbVertex
100
AcDb2dVertex
 10
5.649115135069122
 20
-4.695691666666662
 30
0.0
  0
SEQEND
  5
36E
330
367
100
AcDbEntity
  8
SDWC screw
 62
   250
420
  2301728
370
    13
  0
POLYLINE
  5
36F
330
309
100
AcDbEntity
  8
SDWC screw
 62
   250
420
  2301728
370
    13
100
AcDb2dPolyline
 66
     1
 10
0.0
 20
0.0
 30
0.0
  0
VERTEX
  5
370
330
36F
100
AcDbEntity
  8
SDWC screw
 62
   250
420
  2301728
370
    13
100
AcDbVertex
100
AcDb2dVertex
 10
5.327819444444445
 20
-4.699855555555561
 30
0.0
  0
VERTEX
  5
371
330
36F
100
AcDbEntity
  8
SDWC screw
 62
   250
420
  2301728
370
    13
100
AcDbVertex
100
AcDb2dVertex
 10
5.377820697478152
 20
-4.731486111111104
 30
0.0
  0
VERTEX
  5
372
330
36F
100
AcDbEntity
  8
SDWC screw
 62
   250
420
  2301728
370
    13
100
AcDbVertex
100
AcDb2dVertex
 10
5.416483196501455
 20
-4.731486111111104
 30
0.0
  0
VERTEX
  5
373
330
36F
100
AcDbEntity
  8
SDWC screw
 62
   250
420
  2301728
370
    13
100
AcDbVertex
100
AcDb2dVertex
 10
5.455830417729683
 20
-4.699855555555561
 30
0.0
  0
SEQEND
  5
374
330
36F
100
AcDbEntity
  8
SDWC screw
 62
   250
420
  2301728
370
    13
  0
POLYLINE
  5
375
330
309
100
AcDbEntity
  8
SDWC screw
 62
   250
420
  2301728
370
    13
100
AcDb2dPolyline
 66
     1
 10
0.0
 20
0.0
 30
0.0
  0
VERTEX
  5
376
330
375
100
AcDbEntity
  8
SDWC screw
 62
   250
420
  2301728
370
    13
100
AcDbVertex
100
AcDb2dVertex
 10
5.049852650207766
 20
-4.835272222222228
 30
0.0
  0
VERTEX
  5
377
330
375
100
AcDbEntity
  8
SDWC screw
 62
   250
420
  2301728
370
    13
100
AcDbVertex
100
AcDb2dVertex
 10
5.068604038622955
 20
-4.820691666666662
 30
0.0
  0
VERTEX
  5
378
330
375
100
AcDbEntity
  8
SDWC screw
 62
   250
420
  2301728
370
    13
100
AcDbVertex
100
AcDb2dVertex
 10
5.098191537875512
 20
-4.820691666666662
 30
0.0
  0
VERTEX
  5
379
330
375
100
AcDbEntity
  8
SDWC screw
 62
   250
420
  2301728
370
    13
100
AcDbVertex
100
AcDb2dVertex
 10
5.30810542146153
 20
-4.877088888888895
 30
0.0
  0
VERTEX
  5
37A
330
375
100
AcDbEntity
  8
SDWC screw
 62
   250
420
  2301728
370
    13
100
AcDbVertex
100
AcDb2dVertex
 10
5.43109847391002
 20
-4.960286111111119
 30
0.0
  0
VERTEX
  5
37B
330
375
100
AcDbEntity
  8
SDWC screw
 62
   250
420
  2301728
370
    13
100
AcDbVertex
100
AcDb2dVertex
 10
5.501938749898222
 20
-4.981093055555548
 30
0.0
  0
VERTEX
  5
37C
330
375
100
AcDbEntity
  8
SDWC screw
 62
   250
420
  2301728
370
    13
100
AcDbVertex
100
AcDb2dVertex
 10
5.533176249109096
 20
-4.974854166666672
 30
0.0
  0
VERTEX
  5
37D
330
375
100
AcDbEntity
  8
SDWC screw
 62
   250
420
  2301728
370
    13
100
AcDbVertex
100
AcDb2dVertex
 10
5.641520690816529
 20
-4.820691666666662
 30
0.0
  0
VERTEX
  5
37E
330
375
100
AcDbEntity
  8
SDWC screw
 62
   250
420
  2301728
370
    13
100
AcDbVertex
100
AcDb2dVertex
 10
5.731879021867219
 20
-4.770833333333333
 30
0.0
  0
VERTEX
  5
37F
330
375
100
AcDbEntity
  8
SDWC screw
 62
   250
420
  2301728
370
    13
100
AcDbVertex
100
AcDb2dVertex
 10
5.826931797243762
 20
-4.805745833333327
 30
0.0
  0
SEQEND
  5
380
330
375
100
AcDbEntity
  8
SDWC screw
 62
   250
420
  2301728
370
    13
  0
POLYLINE
  5
381
330
309
100
AcDbEntity
  8
SDWC screw
 62
   250
420
  2301728
370
    13
100
AcDb2dPolyline
 66
     1
 10
0.0
 20
0.0
 30
0.0
  0
VERTEX
  5
382
330
381
100
AcDbEntity
  8
SDWC screw
 62
   250
420
  2301728
370
    13
100
AcDbVertex
100
AcDb2dVertex
 10
5.055576261174287
 20
-4.890773611111121
 30
0.0
  0
VERTEX
  5
383
330
381
100
AcDbEntity
  8
SDWC screw
 62
   250
420
  2301728
370
    13
100
AcDbVertex
100
AcDb2dVertex
 10
5.081095704974055
 20
-4.887355555555561
 30
0.0
  0
VERTEX
  5
384
330
381
100
AcDbEntity
  8
SDWC screw
 62
   250
420
  2301728
370
    13
100
AcDbVertex
100
AcDb2dVertex
 10
5.224854034675748
 20
-4.930487500000001
 30
0.0
  0
VERTEX
  5
385
330
381
100
AcDbEntity
  8
SDWC screw
 62
   250
420
  2301728
370
    13
100
AcDbVertex
100
AcDb2dVertex
 10
5.337355420722613
 20
-5.010280555555558
 30
0.0
  0
VERTEX
  5
386
330
381
100
AcDbEntity
  8
SDWC screw
 62
   250
420
  2301728
370
    13
100
AcDbVertex
100
AcDb2dVertex
 10
5.391824863791044
 20
-5.025295833333328
 30
0.0
  0
SEQEND
  5
387
330
381
100
AcDbEntity
  8
SDWC screw
 62
   250
420
  2301728
370
    13
  0
POLYLINE
  5
388
330
309
100
AcDbEntity
  8
SDWC screw
 62
   250
420
  2301728
370
    13
100
AcDb2dPolyline
 66
     1
 10
0.0
 20
0.0
 30
0.0
  0
VERTEX
  5
389
330
388
100
AcDbEntity
  8
SDWC screw
 62
   250
420
  2301728
370
    13
100
AcDbVertex
100
AcDb2dVertex
 10
5.539441526728599
 20
-5.028102777777778
 30
0.0
  0
VERTEX
  5
38A
330
388
100
AcDbEntity
  8
SDWC screw
 62
   250
420
  2301728
370
    13
100
AcDbVertex
100
AcDb2dVertex
 10
5.633191524360275
 20
-4.958197222222225
 30
0.0
  0
VERTEX
  5
38B
330
388
100
AcDbEntity
  8
SDWC screw
 62
   250
420
  2301728
370
    13
100
AcDbVertex
100
AcDb2dVertex
 10
5.685274856377873
 20
-4.881104166666672
 30
0.0
  0
VERTEX
  5
38C
330
388
100
AcDbEntity
  8
SDWC screw
 62
   250
420
  2301728
370
    13
100
AcDbVertex
100
AcDb2dVertex
 10
5.767170687642343
 20
-4.875962499999988
 30
0.0
  0
VERTEX
  5
38D
330
388
100
AcDbEntity
  8
SDWC screw
 62
   250
420
  2301728
370
    13
100
AcDbVertex
100
AcDb2dVertex
 10
5.818604019676362
 20
-4.889444444444456
 30
0.0
  0
SEQEND
  5
38E
330
388
100
AcDbEntity
  8
SDWC screw
 62
   250
420
  2301728
370
    13
  0
POLYLINE
  5
38F
330
309
100
AcDbEntity
  8
SDWC screw
 62
   250
420
  2301728
370
    13
100
AcDb2dPolyline
 66
     1
 10
0.0
 20
0.0
 30
0.0
  0
VERTEX
  5
390
330
38F
100
AcDbEntity
  8
SDWC screw
 62
   250
420
  2301728
370
    13
100
AcDbVertex
100
AcDb2dVertex
 10
5.643608190763794
 20
-5.022772222222228
 30
0.0
  0
VERTEX
  5
391
330
38F
100
AcDbEntity
  8
SDWC screw
 62
   250
420
  2301728
370
    13
100
AcDbVertex
100
AcDb2dVertex
 10
5.701144300421421
 20
-4.981093055555548
 30
0.0
  0
VERTEX
  5
392
330
38F
100
AcDbEntity
  8
SDWC screw
 62
   250
420
  2301728
370
    13
100
AcDbVertex
100
AcDb2dVertex
 10
5.735270688448205
 20
-4.97277777777779
 30
0.0
  0
VERTEX
  5
393
330
38F
100
AcDbEntity
  8
SDWC screw
 62
   250
420
  2301728
370
    13
100
AcDbVertex
100
AcDb2dVertex
 10
5.826931797243762
 20
-5.006104166666672
 30
0.0
  0
SEQEND
  5
394
330
38F
100
AcDbEntity
  8
SDWC screw
 62
   250
420
  2301728
370
    13
  0
POLYLINE
  5
395
330
309
100
AcDbEntity
  8
SDWC screw
 62
   250
420
  2301728
370
    13
100
AcDb2dPolyline
 66
     1
 10
0.0
 20
0.0
 30
0.0
  0
VERTEX
  5
396
330
395
100
AcDbEntity
  8
SDWC screw
 62
   250
420
  2301728
370
    13
100
AcDbVertex
100
AcDb2dVertex
 10
5.055576261174287
 20
-4.994655555555558
 30
0.0
  0
VERTEX
  5
397
330
395
100
AcDbEntity
  8
SDWC screw
 62
   250
420
  2301728
370
    13
100
AcDbVertex
100
AcDb2dVertex
 10
5.097765148997395
 20
-4.985270833333339
 30
0.0
  0
VERTEX
  5
398
330
395
100
AcDbEntity
  8
SDWC screw
 62
   250
420
  2301728
370
    13
100
AcDbVertex
100
AcDb2dVertex
 10
5.168599869430182
 20
-5.006104166666672
 30
0.0
  0
VERTEX
  5
399
330
395
100
AcDbEntity
  8
SDWC screw
 62
   250
420
  2301728
370
    13
100
AcDbVertex
100
AcDb2dVertex
 10
5.202358201910707
 20
-5.028102777777778
 30
0.0
  0
SEQEND
  5
39A
330
395
100
AcDbEntity
  8
SDWC screw
 62
   250
420
  2301728
370
    13
  0
ENDBLK
  5
30C
330
309
100
AcDbEntity
  8
0
100
AcDbBlockEnd
  0
ENDSEC
  0
SECTION
  2
ENTITIES
  0
POLYLINE
  5
41
330
1F
100
AcDbEntity
  8
Color Fill
370
     0
100
AcDb2dPolyline
 66
     1
 10
0.0
 20
0.0
 30
0.0
  0
VERTEX
  5
42
330
41
100
AcDbEntity
  8
Color Fill
370
     0
100
AcDbVertex
100
AcDb2dVertex
 10
4.274848503119352
 20
-5.154012500000008
 30
0.0
  0
VERTEX
  5
43
330
41
100
AcDbEntity
  8
Color Fill
370
     0
100
AcDbVertex
100
AcDb2dVertex
 10
4.274848503119352
 20
-3.787354166666672
 30
0.0
  0
VERTEX
  5
44
330
41
100
AcDbEntity
  8
Color Fill
370
     0
100
AcDbVertex
100
AcDb2dVertex
 10
6.160265122156387
 20
-2.826931944444444
 30
0.0
  0
VERTEX
  5
45
330
41
100
AcDbEntity
  8
Color Fill
370
     0
100
AcDbVertex
100
AcDb2dVertex
 10
6.387545671970353
 20
-3.276041666666667
 30
0.0
  0
VERTEX
  5
46
330
41
100
AcDbEntity
  8
Color Fill
370
     0
100
AcDbVertex
100
AcDb2dVertex
 10
6.529024835062955
 20
-3.284722222222222
 30
0.0
  0
VERTEX
  5
47
330
41
100
AcDbEntity
  8
Color Fill
370
     0
100
AcDbVertex
100
AcDb2dVertex
 10
6.351941506203123
 20
-3.476941666666663
 30
0.0
  0
VERTEX
  5
48
330
41
100
AcDbEntity
  8
Color Fill
370
     0
100
AcDbVertex
100
AcDb2dVertex
 10
6.486179002811999
 20
-3.466477777777779
 30
0.0
  0
VERTEX
  5
49
330
41
100
AcDbEntity
  8
Color Fill
370
     0
100
AcDbVertex
100
AcDb2dVertex
 10
6.712348441542922
 20
-3.910272222222223
 30
0.0
  0
VERTEX
  5
4A
330
41
100
AcDbEntity
  8
Color Fill
370
     0
100
AcDbVertex
100
AcDb2dVertex
 10
4.274848503119352
 20
-5.154012500000008
 30
0.0
  0
SEQEND
  5
4C
330
41
100
AcDbEntity
  8
Color Fill
370
     0
  0
HATCH
  5
4B
330
1F
100
AcDbEntity
  8
Color Fill
 62
    43
420
 15510365
100
AcDbHatch
 10
0.0
 20
0.0
 30
0.0
210
0.0
220
0.0
230
1.0
  2
SOLID
 70
     1
 71
     0
 91
        1
 92
        1
 93
        8
 72
     1
 10
4.274848503119352
 20
-5.154012500000008
 11
4.274848503119352
 21
-3.787354166666672
 72
     1
 10
4.274848503119352
 20
-3.787354166666672
 11
6.160265122156387
 21
-2.826931944444444
 72
     1
 10
6.160265122156387
 20
-2.826931944444444
 11
6.387545671970353
 21
-3.276041666666667
 72
     1
 10
6.387545671970353
 20
-3.276041666666667
 11
6.529024835062955
 21
-3.284722222222222
 72
     1
 10
6.529024835062955
 20
-3.284722222222222
 11
6.351941506203123
 21
-3.476941666666663
 72
     1
 10
6.351941506203123
 20
-3.476941666666663
 11
6.486179002811999
 21
-3.466477777777779
 72
     1
 10
6.486179002811999
 20
-3.466477777777779
 11
6.712348441542922
 21
-3.910272222222223
 72
     1
 10
6.712348441542922
 20
-3.910272222222223
 11
4.274848503119352
 21
-5.154012500000008
 97
        0
 75
     2
 76
     1
 98
        0
  0
POLYLINE
  5
4D
330
1F
100
AcDbEntity
  8
Color Fill
370
     0
100
AcDb2dPolyline
 66
     1
 10
0.0
 20
0.0
 30
0.0
  0
VERTEX
  5
4E
330
4D
100
AcDbEntity
  8
Color Fill
370
     0
100
AcDbVertex
100
AcDb2dVertex
 10
5.824855408407327
 20
-5.581108333333329
 30
0.0
  0
VERTEX
  5
4F
330
4D
100
AcDbEntity
  8
Color Fill
370
     0
100
AcDbVertex
100
AcDb2dVertex
 10
5.534070693530944
 20
-5.581108333333329
 30
0.0
  0
VERTEX
  5
50
330
4D
100
AcDbEntity
  8
Color Fill
370
     0
100
AcDbVertex
100
AcDb2dVertex
 10
5.493598472331137
 20
-5.677083333333333
 30
0.0
  0
VERTEX
  5
51
330
4D
100
AcDbEntity
  8
Color Fill
370
     0
100
AcDbVertex
100
AcDb2dVertex
 10
5.395684585915761
 20
-5.483181944444444
 30
0.0
  0
VERTEX
  5
52
330
4D
100
AcDbEntity
  8
Color Fill
370
     0
100
AcDbVertex
100
AcDb2dVertex
 10
5.342406809483893
 20
-5.581108333333329
 30
0.0
  0
VERTEX
  5
53
330
4D
100
AcDbEntity
  8
Color Fill
370
     0
100
AcDbVertex
100
AcDb2dVertex
 10
5.049852650207766
 20
-5.581108333333329
 30
0.0
  0
VERTEX
  5
54
330
4D
100
AcDbEntity
  8
Color Fill
370
     0
100
AcDbVertex
100
AcDb2dVertex
 10
5.049852650207766
 20
-4.364447222222225
 30
0.0
  0
VERTEX
  5
55
330
4D
100
AcDbEntity
  8
Color Fill
370
     0
100
AcDbVertex
100
AcDb2dVertex
 10
5.824855408407327
 20
-4.364447222222225
 30
0.0
  0
VERTEX
  5
56
330
4D
100
AcDbEntity
  8
Color Fill
370
     0
100
AcDbVertex
100
AcDb2dVertex
 10
5.824855408407327
 20
-5.581108333333329
 30
0.0
  0
SEQEND
  5
58
330
4D
100
AcDbEntity
  8
Color Fill
370
     0
  0
HATCH
  5
57
330
1F
100
AcDbEntity
  8
Color Fill
 62
    43
420
 15510365
100
AcDbHatch
 10
0.0
 20
0.0
 30
0.0
210
0.0
220
0.0
230
1.0
  2
SOLID
 70
     1
 71
     0
 91
        1
 92
        1
 93
        8
 72
     1
 10
5.824855408407327
 20
-5.581108333333329
 11
5.534070693530944
 21
-5.581108333333329
 72
     1
 10
5.534070693530944
 20
-5.581108333333329
 11
5.493598472331137
 21
-5.677083333333333
 72
     1
 10
5.493598472331137
 20
-5.677083333333333
 11
5.395684585915761
 21
-5.483181944444444
 72
     1
 10
5.395684585915761
 20
-5.483181944444444
 11
5.342406809483893
 21
-5.581108333333329
 72
     1
 10
5.342406809483893
 20
-5.581108333333329
 11
5.049852650207766
 21
-5.581108333333329
 72
     1
 10
5.049852650207766
 20
-5.581108333333329
 11
5.049852650207766
 21
-4.364447222222225
 72
     1
 10
5.049852650207766
 20
-4.364447222222225
 11
5.824855408407327
 21
-4.364447222222225
 72
     1
 10
5.824855408407327
 20
-4.364447222222225
 11
5.824855408407327
 21
-5.581108333333329
 97
        0
 75
     2
 76
     1
 98
        0
  0
POLYLINE
  5
59
330
1F
100
AcDbEntity
  8
Color Fill
 62
   250
420
  2301728
370
    35
100
AcDb2dPolyline
 66
     1
 10
0.0
 20
0.0
 30
0.0
  0
VERTEX
  5
5A
330
59
100
AcDbEntity
  8
Color Fill
 62
   250
420
  2301728
370
    35
100
AcDbVertex
100
AcDb2dVertex
 10
5.049852650207766
 20
-4.695691666666662
 30
0.0
  0
VERTEX
  5
5B
330
59
100
AcDbEntity
  8
Color Fill
 62
   250
420
  2301728
370
    35
100
AcDbVertex
100
AcDb2dVertex
 10
5.827976241661822
 20
-4.695691666666662
 30
0.0
  0
SEQEND
  5
5C
330
59
100
AcDbEntity
  8
Color Fill
 62
   250
420
  2301728
370
    35
  0
POLYLINE
  5
5D
330
1F
100
AcDbEntity
  8
Color Fill
 62
   250
420
  2301728
370
    35
100
AcDb2dPolyline
 66
     1
 10
0.0
 20
0.0
 30
0.0
  0
VERTEX
  5
5E
330
5D
100
AcDbEntity
  8
Color Fill
 62
   250
420
  2301728
370
    35
100
AcDbVertex
100
AcDb2dVertex
 10
5.049852650207766
 20
-5.028102777777778
 30
0.0
  0
VERTEX
  5
5F
330
5D
100
AcDbEntity
  8
Color Fill
 62
   250
420
  2301728
370
    35
100
AcDbVertex
100
AcDb2dVertex
 10
5.827976241661822
 20
-5.028102777777778
 30
0.0
  0
SEQEND
  5
60
330
5D
100
AcDbEntity
  8
Color Fill
 62
   250
420
  2301728
370
    35
  0
POLYLINE
  5
61
330
1F
100
AcDbEntity
  8
Color Fill
 62
   250
420
  2301728
370
    13
100
AcDb2dPolyline
 66
     1
 10
0.0
 20
0.0
 30
0.0
  0
VERTEX
  5
62
330
61
100
AcDbEntity
  8
Color Fill
 62
   250
420
  2301728
370
    13
100
AcDbVertex
100
AcDb2dVertex
 10
5.638916666666672
 20
-4.368598611111111
 30
0.0
  0
VERTEX
  5
63
330
61
100
AcDbEntity
  8
Color Fill
 62
   250
420
  2301728
370
    13
100
AcDbVertex
100
AcDb2dVertex
 10
5.770684576442464
 20
-4.464437500000005
 30
0.0
  0
VERTEX
  5
64
330
61
100
AcDbEntity
  8
Color Fill
 62
   250
420
  2301728
370
    13
100
AcDbVertex
100
AcDb2dVertex
 10
5.824855408407327
 20
-4.543619444444453
 30
0.0
  0
SEQEND
  5
65
330
61
100
AcDbEntity
  8
Color Fill
 62
   250
420
  2301728
370
    13
  0
POLYLINE
  5
66
330
1F
100
AcDbEntity
  8
Color Fill
 62
   250
420
  2301728
370
    13
100
AcDb2dPolyline
 66
     1
 10
0.0
 20
0.0
 30
0.0
  0
VERTEX
  5
67
330
66
100
AcDbEntity
  8
Color Fill
 62
   250
420
  2301728
370
    13
100
AcDbVertex
100
AcDb2dVertex
 10
5.722765133208567
 20
-4.364447222222225
 30
0.0
  0
VERTEX
  5
68
330
66
100
AcDbEntity
  8
Color Fill
 62
   250
420
  2301728
370
    13
100
AcDbVertex
100
AcDb2dVertex
 10
5.786322076047427
 20
-4.404024999999996
 30
0.0
  0
VERTEX
  5
69
330
66
100
AcDbEntity
  8
Color Fill
 62
   250
420
  2301728
370
    13
100
AcDbVertex
100
AcDb2dVertex
 10
5.826931797243762
 20
-4.454020833333339
 30
0.0
  0
SEQEND
  5
6A
330
66
100
AcDbEntity
  8
Color Fill
 62
   250
420
  2301728
370
    13
  0
INSERT
  5
6C
330
1F
100
AcDbEntity
  8
Color Fill
100
AcDbBlockReference
  2
block 2
 10
0.0
 20
0.0
 30
0.0
  0
SPLINE
  5
FD
330
1F
100
AcDbEntity
  8
Color Fill
370
     0
100
AcDbSpline
210
0.0
220
0.0
230
1.0
 70
    11
 71
     3
 72
    17
 73
    13
 74
     0
 42
0.0000000001
 43
0.0000000001
 12
1.0
 22
0.0
 32
0.0
 13
1.0
 23
0.0
 33
0.0
 40
0.0
 40
0.0
 40
0.0
 40
0.0
 40
1.0
 40
1.0
 40
1.0
 40
2.0
 40
2.0
 40
2.0
 40
3.0
 40
3.0
 40
3.0
 40
4.0
 40
4.0
 40
4.0
 40
4.0
 10
4.891391543099719
 20
-3.759793055555557
 30
0.0
 10
5.081698482736607
 20
-3.628159722222222
 30
0.0
 10
5.30133736607695
 20
-3.535943055555562
 30
0.0
 10
5.538519304529674
 20
-3.494927777777775
 30
0.0
 10
5.538519304529674
 20
-3.494927777777775
 30
0.0
 10
5.809813742120645
 20
-5.022868055555565
 30
0.0
 10
5.809813742120645
 20
-5.022868055555565
 30
0.0
 10
5.809813742120645
 20
-5.022868055555565
 30
0.0
 10
5.737752632829951
 20
-5.022772222222228
 30
0.0
 10
5.737752632829951
 20
-5.022772222222228
 30
0.0
 10
5.737752632829951
 20
-5.022772222222228
 30
0.0
 10
4.891391543099719
 20
-3.759793055555557
 30
0.0
 10
4.891391543099719
 20
-3.759793055555557
 30
0.0
  0
HATCH
  5
FE
330
1F
100
AcDbEntity
  8
Color Fill
 62
    31
420
 16042649
100
AcDbHatch
 10
0.0
 20
0.0
 30
0.0
210
0.0
220
0.0
230
1.0
  2
SOLID
 70
     1
 71
     0
 91
        1
 92
        1
 93
        1
 72
     4
 94
        3
 73
     0
 74
     1
 95
       17
 96
       13
 40
0.0
 40
0.0
 40
0.0
 40
0.0
 40
1.0
 40
1.0
 40
1.0
 40
2.0
 40
2.0
 40
2.0
 40
3.0
 40
3.0
 40
3.0
 40
4.0
 40
4.0
 40
4.0
 40
4.0
 10
4.891391543099719
 20
-3.759793055555557
 10
5.081698482736607
 20
-3.628159722222222
 10
5.30133736607695
 20
-3.535943055555562
 10
5.538519304529674
 20
-3.494927777777775
 10
5.538519304529674
 20
-3.494927777777775
 10
5.809813742120645
 20
-5.022868055555565
 10
5.809813742120645
 20
-5.022868055555565
 10
5.809813742120645
 20
-5.022868055555565
 10
5.737752632829951
 20
-5.022772222222228
 10
5.737752632829951
 20
-5.022772222222228
 10
5.737752632829951
 20
-5.022772222222228
 10
4.891391543099719
 20
-3.759793055555557
 10
4.891391543099719
 20
-3.759793055555557
 97
        0
 97
        0
 75
     2
 76
     1
 98
        0
  0
POLYLINE
  5
FF
330
1F
100
AcDbEntity
  8
Color Fill
370
     0
100
AcDb2dPolyline
 66
     1
 10
0.0
 20
0.0
 30
0.0
  0
VERTEX
  5
100
330
FF
100
AcDbEntity
  8
Color Fill
370
     0
100
AcDbVertex
100
AcDb2dVertex
 10
5.44283041805809
 20
-4.364447222222225
 30
0.0
  0
VERTEX
  5
101
330
FF
100
AcDbEntity
  8
Color Fill
370
     0
100
AcDbVertex
100
AcDb2dVertex
 10
5.559705415105579
 20
-4.364447222222225
 30
0.0
  0
SEQEND
  5
102
330
FF
100
AcDbEntity
  8
Color Fill
370
     0
  0
POLYLINE
  5
103
330
1F
100
AcDbEntity
  8
Color Fill
370
     0
100
AcDb2dPolyline
 66
     1
 10
0.0
 20
0.0
 30
0.0
  0
VERTEX
  5
104
330
103
100
AcDbEntity
  8
Color Fill
370
     0
100
AcDbVertex
100
AcDb2dVertex
 10
5.585177636684319
 20
-4.695691666666662
 30
0.0
  0
VERTEX
  5
105
330
103
100
AcDbEntity
  8
Color Fill
370
     0
100
AcDbVertex
100
AcDb2dVertex
 10
5.702040133732124
 20
-4.695691666666662
 30
0.0
  0
SEQEND
  5
106
330
103
100
AcDbEntity
  8
Color Fill
370
     0
  0
POLYLINE
  5
107
330
1F
100
AcDbEntity
  8
Color Fill
370
     0
100
AcDb2dPolyline
 66
     1
 10
0.0
 20
0.0
 30
0.0
  0
VERTEX
  5
108
330
107
100
AcDbEntity
  8
Color Fill
370
     0
100
AcDbVertex
100
AcDb2dVertex
 10
5.711615133490239
 20
-5.028102777777778
 30
0.0
  0
VERTEX
  5
109
330
107
100
AcDbEntity
  8
Color Fill
370
     0
100
AcDbVertex
100
AcDb2dVertex
 10
5.828504019426267
 20
-5.028102777777778
 30
0.0
  0
SEQEND
  5
10A
330
107
100
AcDbEntity
  8
Color Fill
370
     0
  0
POLYLINE
  5
10B
330
1F
100
AcDbEntity
  8
Color Fill
370
     0
100
AcDb2dPolyline
 66
     1
 10
0.0
 20
0.0
 30
0.0
  0
VERTEX
  5
10C
330
10B
100
AcDbEntity
  8
Color Fill
370
     0
100
AcDbVertex
100
AcDb2dVertex
 10
5.824829019519105
 20
-5.01000972222222
 30
0.0
  0
VERTEX
  5
10D
330
10B
100
AcDbEntity
  8
Color Fill
370
     0
100
AcDbVertex
100
AcDb2dVertex
 10
5.824829019519105
 20
-5.111083333333327
 30
0.0
  0
SEQEND
  5
10E
330
10B
100
AcDbEntity
  8
Color Fill
370
     0
  0
POLYLINE
  5
110
330
1F
100
AcDbEntity
  8
Wood
 62
   250
420
  2301728
370
    35
100
AcDb2dPolyline
 66
     1
 10
0.0
 20
0.0
 30
0.0
  0
VERTEX
  5
111
330
110
100
AcDbEntity
  8
Wood
 62
   250
420
  2301728
370
    35
100
AcDbVertex
100
AcDb2dVertex
 10
5.049852650207766
 20
-4.75857222222223
 30
0.0
  0
VERTEX
  5
112
330
110
100
AcDbEntity
  8
Wood
 62
   250
420
  2301728
370
    35
100
AcDbVertex
100
AcDb2dVertex
 10
4.274848503119352
 20
-5.154012500000008
 30
0.0
  0
VERTEX
  5
113
330
110
100
AcDbEntity
  8
Wood
 62
   250
420
  2301728
370
    35
100
AcDbVertex
100
AcDb2dVertex
 10
4.274848503119352
 20
-3.787354166666672
 30
0.0
  0
VERTEX
  5
114
330
110
100
AcDbEntity
  8
Wood
 62
   250
420
  2301728
370
    35
100
AcDbVertex
100
AcDb2dVertex
 10
6.160265122156387
 20
-2.826931944444444
 30
0.0
  0
VERTEX
  5
115
330
110
100
AcDbEntity
  8
Wood
 62
   250
420
  2301728
370
    35
100
AcDbVertex
100
AcDb2dVertex
 10
6.387545671970353
 20
-3.276041666666667
 30
0.0
  0
VERTEX
  5
116
330
110
100
AcDbEntity
  8
Wood
 62
   250
420
  2301728
370
    35
100
AcDbVertex
100
AcDb2dVertex
 10
6.529024835062955
 20
-3.284722222222222
 30
0.0
  0
VERTEX
  5
117
330
110
100
AcDbEntity
  8
Wood
 62
   250
420
  2301728
370
    35
100
AcDbVertex
100
AcDb2dVertex
 10
6.351941506203123
 20
-3.476941666666663
 30
0.0
  0
VERTEX
  5
118
330
110
100
AcDbEntity
  8
Wood
 62
   250
420
  2301728
370
    35
100
AcDbVertex
100
AcDb2dVertex
 10
6.486179002811999
 20
-3.466477777777779
 30
0.0
  0
VERTEX
  5
119
330
110
100
AcDbEntity
  8
Wood
 62
   250
420
  2301728
370
    35
100
AcDbVertex
100
AcDb2dVertex
 10
6.712348441542922
 20
-3.910272222222223
 30
0.0
  0
VERTEX
  5
11A
330
110
100
AcDbEntity
  8
Wood
 62
   250
420
  2301728
370
    35
100
AcDbVertex
100
AcDb2dVertex
 10
5.822265130694985
 20
-4.364447222222225
 30
0.0
  0
SEQEND
  5
11B
330
110
100
AcDbEntity
  8
Wood
 62
   250
420
  2301728
370
    35
  0
POLYLINE
  5
11C
330
1F
100
AcDbEntity
  8
Wood
 62
   250
420
  2301728
370
    35
100
AcDb2dPolyline
 66
     1
 10
0.0
 20
0.0
 30
0.0
  0
VERTEX
  5
11D
330
11C
100
AcDbEntity
  8
Wood
 62
   250
420
  2301728
370
    35
100
AcDbVertex
100
AcDb2dVertex
 10
5.824855408407327
 20
-5.581108333333329
 30
0.0
  0
VERTEX
  5
11E
330
11C
100
AcDbEntity
  8
Wood
 62
   250
420
  2301728
370
    35
100
AcDbVertex
100
AcDb2dVertex
 10
5.534070693530944
 20
-5.581108333333329
 30
0.0
  0
VERTEX
  5
11F
330
11C
100
AcDbEntity
  8
Wood
 62
   250
420
  2301728
370
    35
100
AcDbVertex
100
AcDb2dVertex
 10
5.493598472331137
 20
-5.677083333333333
 30
0.0
  0
VERTEX
  5
120
330
11C
100
AcDbEntity
  8
Wood
 62
   250
420
  2301728
370
    35
100
AcDbVertex
100
AcDb2dVertex
 10
5.395684585915761
 20
-5.483181944444444
 30
0.0
  0
VERTEX
  5
121
330
11C
100
AcDbEntity
  8
Wood
 62
   250
420
  2301728
370
    35
100
AcDbVertex
100
AcDb2dVertex
 10
5.342406809483893
 20
-5.581108333333329
 30
0.0
  0
VERTEX
  5
122
330
11C
100
AcDbEntity
  8
Wood
 62
   250
420
  2301728
370
    35
100
AcDbVertex
100
AcDb2dVertex
 10
5.049852650207766
 20
-5.581108333333329
 30
0.0
  0
VERTEX
  5
123
330
11C
100
AcDbEntity
  8
Wood
 62
   250
420
  2301728
370
    35
100
AcDbVertex
100
AcDb2dVertex
 10
5.049852650207766
 20
-4.364447222222225
 30
0.0
  0
VERTEX
  5
124
330
11C
100
AcDbEntity
  8
Wood
 62
   250
420
  2301728
370
    35
100
AcDbVertex
100
AcDb2dVertex
 10
5.824855408407327
 20
-4.364447222222225
 30
0.0
  0
VERTEX
  5
125
330
11C
100
AcDbEntity
  8
Wood
 62
   250
420
  2301728
370
    35
100
AcDbVertex
100
AcDb2dVertex
 10
5.824855408407327
 20
-5.581108333333329
 30
0.0
  0
SEQEND
  5
126
330
11C
100
AcDbEntity
  8
Wood
 62
   250
420
  2301728
370
    35
  0
POLYLINE
  5
127
330
1F
100
AcDbEntity
  8
Wood
 62
   250
420
  2301728
370
    35
100
AcDb2dPolyline
 66
     1
 10
0.0
 20
0.0
 30
0.0
  0
VERTEX
  5
128
330
127
100
AcDbEntity
  8
Wood
 62
   250
420
  2301728
370
    35
100
AcDbVertex
100
AcDb2dVertex
 10
5.049852650207766
 20
-4.695691666666662
 30
0.0
  0
VERTEX
  5
129
330
127
100
AcDbEntity
  8
Wood
 62
   250
420
  2301728
370
    35
100
AcDbVertex
100
AcDb2dVertex
 10
5.827976241661822
 20
-4.695691666666662
 30
0.0
  0
SEQEND
  5
12A
330
127
100
AcDbEntity
  8
Wood
 62
   250
420
  2301728
370
    35
  0
POLYLINE
  5
12B
330
1F
100
AcDbEntity
  8
Wood
 62
   250
420
  2301728
370
    35
100
AcDb2dPolyline
 66
     1
 10
0.0
 20
0.0
 30
0.0
  0
VERTEX
  5
12C
330
12B
100
AcDbEntity
  8
Wood
 62
   250
420
  2301728
370
    35
100
AcDbVertex
100
AcDb2dVertex
 10
5.049852650207766
 20
-5.028102777777778
 30
0.0
  0
VERTEX
  5
12D
330
12B
100
AcDbEntity
  8
Wood
 62
   250
420
  2301728
370
    35
100
AcDbVertex
100
AcDb2dVertex
 10
5.827976241661822
 20
-5.028102777777778
 30
0.0
  0
SEQEND
  5
12E
330
12B
100
AcDbEntity
  8
Wood
 62
   250
420
  2301728
370
    35
  0
POLYLINE
  5
12F
330
1F
100
AcDbEntity
  8
Wood
 62
   250
420
  2301728
370
    13
100
AcDb2dPolyline
 66
     1
 10
0.0
 20
0.0
 30
0.0
  0
VERTEX
  5
130
330
12F
100
AcDbEntity
  8
Wood
 62
   250
420
  2301728
370
    13
100
AcDbVertex
100
AcDb2dVertex
 10
5.638916666666672
 20
-4.368598611111111
 30
0.0
  0
VERTEX
  5
131
330
12F
100
AcDbEntity
  8
Wood
 62
   250
420
  2301728
370
    13
100
AcDbVertex
100
AcDb2dVertex
 10
5.770684576442464
 20
-4.464437500000005
 30
0.0
  0
VERTEX
  5
132
330
12F
100
AcDbEntity
  8
Wood
 62
   250
420
  2301728
370
    13
100
AcDbVertex
100
AcDb2dVertex
 10
5.824855408407327
 20
-4.543619444444453
 30
0.0
  0
SEQEND
  5
133
330
12F
100
AcDbEntity
  8
Wood
 62
   250
420
  2301728
370
    13
  0
POLYLINE
  5
134
330
1F
100
AcDbEntity
  8
Wood
 62
   250
420
  2301728
370
    13
100
AcDb2dPolyline
 66
     1
 10
0.0
 20
0.0
 30
0.0
  0
VERTEX
  5
135
330
134
100
AcDbEntity
  8
Wood
 62
   250
420
  2301728
370
    13
100
AcDbVertex
100
AcDb2dVertex
 10
5.722765133208567
 20
-4.364447222222225
 30
0.0
  0
VERTEX
  5
136
330
134
100
AcDbEntity
  8
Wood
 62
   250
420
  2301728
370
    13
100
AcDbVertex
100
AcDb2dVertex
 10
5.786322076047427
 20
-4.404024999999996
 30
0.0
  0
VERTEX
  5
137
330
134
100
AcDbEntity
  8
Wood
 62
   250
420
  2301728
370
    13
100
AcDbVertex
100
AcDb2dVertex
 10
5.826931797243762
 20
-4.454020833333339
 30
0.0
  0
SEQEND
  5
138
330
134
100
AcDbEntity
  8
Wood
 62
   250
420
  2301728
370
    13
  0
INSERT
  5
13A
330
1F
100
AcDbEntity
  8
Wood
100
AcDbBlockReference
  2
block 3
 10
0.0
 20
0.0
 30
0.0
  0
INSERT
  5
1CD
330
1F
100
AcDbEntity
  8
SDWC screw
100
AcDbBlockReference
  2
block 4
 10
0.0
 20
0.0
 30
0.0
  0
POLYLINE
  5
2F9
330
1F
100
AcDbEntity
  8
SDWC screw
 62
   250
420
  2301728
370
    35
100
AcDb2dPolyline
 66
     1
 10
0.0
 20
0.0
 30
0.0
  0
VERTEX
  5
2FA
330
2F9
100
AcDbEntity
  8
SDWC screw
 62
   250
420
  2301728
370
    35
100
AcDbVertex
100
AcDb2dVertex
 10
5.44283041805809
 20
-4.364447222222225
 30
0.0
  0
VERTEX
  5
2FB
330
2F9
100
AcDbEntity
  8
SDWC screw
 62
   250
420
  2301728
370
    35
100
AcDbVertex
100
AcDb2dVertex
 10
5.559705415105579
 20
-4.364447222222225
 30
0.0
  0
SEQEND
  5
2FC
330
2F9
100
AcDbEntity
  8
SDWC screw
 62
   250
420
  2301728
370
    35
  0
POLYLINE
  5
2FD
330
1F
100
AcDbEntity
  8
SDWC screw
 62
   250
420
  2301728
370
    35
100
AcDb2dPolyline
 66
     1
 10
0.0
 20
0.0
 30
0.0
  0
VERTEX
  5
2FE
330
2FD
100
AcDbEntity
  8
SDWC screw
 62
   250
420
  2301728
370
    35
100
AcDbVertex
100
AcDb2dVertex
 10
5.585177636684319
 20
-4.695691666666662
 30
0.0
  0
VERTEX
  5
2FF
330
2FD
100
AcDbEntity
  8
SDWC screw
 62
   250
420
  2301728
370
    35
100
AcDbVertex
100
AcDb2dVertex
 10
5.702040133732124
 20
-4.695691666666662
 30
0.0
  0
SEQEND
  5
300
330
2FD
100
AcDbEntity
  8
SDWC screw
 62
   250
420
  2301728
370
    35
  0
POLYLINE
  5
301
330
1F
100
AcDbEntity
  8
SDWC screw
 62
   250
420
  2301728
370
    35
100
AcDb2dPolyline
 66
     1
 10
0.0
 20
0.0
 30
0.0
  0
VERTEX
  5
302
330
301
100
AcDbEntity
  8
SDWC screw
 62
   250
420
  2301728
370
    35
100
AcDbVertex
100
AcDb2dVertex
 10
5.711615133490239
 20
-5.028102777777778
 30
0.0
  0
VERTEX
  5
303
330
301
100
AcDbEntity
  8
SDWC screw
 62
   250
420
  2301728
370
    35
100
AcDbVertex
100
AcDb2dVertex
 10
5.828504019426267
 20
-5.028102777777778
 30
0.0
  0
SEQEND
  5
304
330
301
100
AcDbEntity
  8
SDWC screw
 62
   250
420
  2301728
370
    35
  0
POLYLINE
  5
305
330
1F
100
AcDbEntity
  8
SDWC screw
 62
   250
420
  2301728
370
    35
100
AcDb2dPolyline
 66
     1
 10
0.0
 20
0.0
 30
0.0
  0
VERTEX
  5
306
330
305
100
AcDbEntity
  8
SDWC screw
 62
   250
420
  2301728
370
    35
100
AcDbVertex
100
AcDb2dVertex
 10
5.824829019519105
 20
-5.01000972222222
 30
0.0
  0
VERTEX
  5
307
330
305
100
AcDbEntity
  8
SDWC screw
 62
   250
420
  2301728
370
    35
100
AcDbVertex
100
AcDb2dVertex
 10
5.824829019519105
 20
-5.111083333333327
 30
0.0
  0
SEQEND
  5
308
330
305
100
AcDbEntity
  8
SDWC screw
 62
   250
420
  2301728
370
    35
  0
INSERT
  5
30A
330
1F
100
AcDbEntity
  8
SDWC screw
100
AcDbBlockReference
  2
block 5
 10
0.0
 20
0.0
 30
0.0
  0
POLYLINE
  5
39C
330
1F
100
AcDbEntity
  8
Callout
  6
AI-Linetype-37
 62
   250
420
  2301728
370
    13
100
AcDb2dPolyline
 66
     1
 10
0.0
 20
0.0
 30
0.0
  0
VERTEX
  5
39D
330
39C
100
AcDbEntity
  8
Callout
  6
AI-Linetype-37
 62
   250
420
  2301728
370
    13
100
AcDbVertex
100
AcDb2dVertex
 10
5.242099867573415
 20
-3.735276388888893
 30
0.0
  0
VERTEX
  5
39E
330
39C
100
AcDbEntity
  8
Callout
  6
AI-Linetype-37
 62
   250
420
  2301728
370
    13
100
AcDbVertex
100
AcDb2dVertex
 10
5.034865150586382
 20
-3.198831944444439
 30
0.0
  0
SEQEND
  5
3A0
330
39C
100
AcDbEntity
  8
Callout
  6
AI-Linetype-37
 62
   250
420
  2301728
370
    13
  0
MTEXT
  5
3A1
330
1F
100
AcDbEntity
  8
Callout
 62
   250
420
  2301728
100
AcDbMText
 10
4.358310275607638
 20
-3.122685386074914
 30
0.0
 40
0.118
 41
0.0
 46
0.0
 71
     7
 72
     1
  1
\fHelvetica Neue LT Std 57 Condensed|b0|i0|c0|p34;\W1; Optimal 22.5°
 73
     1
 44
1.0
  0
MTEXT
  5
3A2
330
1F
100
AcDbEntity
  8
Callout
 62
   250
420
  2301728
100
AcDbMText
 10
5.788472493489583
 20
-3.405490398406982
 30
0.0
 40
0.1081666666666666
 41
0.0
 46
0.0
 71
     7
 72
     1
  1
\fHelvetica Neue LT Std 57 Condensed|b0|i0|c0|p34;\W1;0°
 73
     1
 44
1.0
  0
MTEXT
  5
3A3
330
1F
100
AcDbEntity
  8
Callout
 62
   250
420
  2301728
100
AcDbMText
 10
5.460828993055555
 20
-3.439954969618055
 30
0.0
 40
0.1081666666666666
 41
0.0
 46
0.0
 71
     7
 72
     1
  1
\fHelvetica Neue LT Std 57 Condensed|b0|i0|c0|p34;\W1;10°
 73
     1
 44
1.0
  0
MTEXT
  5
3A4
330
1F
100
AcDbEntity
  8
Callout
 62
   250
420
  2301728
100
AcDbMText
 10
4.72161865234375
 20
-3.720269150204128
 30
0.0
 40
0.1081666666666666
 41
0.0
 46
0.0
 71
     7
 72
     1
  1
\fHelvetica Neue LT Std 57 Condensed|b0|i0|c0|p34;\W1;30°
 73
     1
 44
1.0
  0
MTEXT
  5
3A5
330
1F
100
AcDbEntity
  8
Callout
 62
   250
420
  2301728
100
AcDbMText
 10
6.157687717013888
 20
-5.02587890625
 30
0.0
 40
0.118
 41
0.0
 46
0.0
 71
     7
 72
     1
  1
\fHelvetica Neue LT Std 57 Condensed|b0|i0|c0|p34;\W1;13mm Max.
 73
     1
 44
1.0
  0
POLYLINE
  5
3A6
330
1F
100
AcDbEntity
  8
Callout
  6
AI-Linetype-38
 62
   250
420
  2301728
370
    13
100
AcDb2dPolyline
 66
     1
 10
0.0
 20
0.0
 30
0.0
  0
VERTEX
  5
3A7
330
3A6
100
AcDbEntity
  8
Callout
  6
AI-Linetype-38
 62
   250
420
  2301728
370
    13
100
AcDbVertex
100
AcDb2dVertex
 10
5.824855408407327
 20
-4.322768055555545
 30
0.0
  0
VERTEX
  5
3A8
330
3A6
100
AcDbEntity
  8
Callout
  6
AI-Linetype-38
 62
   250
420
  2301728
370
    13
100
AcDbVertex
100
AcDb2dVertex
 10
5.824855408407327
 20
-3.466376388888888
 30
0.0
  0
SEQEND
  5
3AA
330
3A6
100
AcDbEntity
  8
Callout
  6
AI-Linetype-38
 62
   250
420
  2301728
370
    13
  0
POLYLINE
  5
3AB
330
1F
100
AcDbEntity
  8
Callout
370
     0
100
AcDb2dPolyline
 66
     1
 10
0.0
 20
0.0
 30
0.0
  0
VERTEX
  5
3AC
330
3AB
100
AcDbEntity
  8
Callout
370
     0
100
AcDbVertex
100
AcDb2dVertex
 10
6.035197069760316
 20
-4.908325000000003
 30
0.0
  0
VERTEX
  5
3AD
330
3AB
100
AcDbEntity
  8
Callout
370
     0
100
AcDbVertex
100
AcDb2dVertex
 10
6.005031792744577
 20
-4.81419583333334
 30
0.0
  0
VERTEX
  5
3AE
330
3AB
100
AcDbEntity
  8
Callout
370
     0
100
AcDbVertex
100
AcDb2dVertex
 10
6.062892902393994
 20
-4.814670833333341
 30
0.0
  0
VERTEX
  5
3AF
330
3AB
100
AcDbEntity
  8
Callout
370
     0
100
AcDbVertex
100
AcDb2dVertex
 10
6.035197069760316
 20
-4.908325000000003
 30
0.0
  0
SEQEND
  5
3B1
330
3AB
100
AcDbEntity
  8
Callout
370
     0
  0
HATCH
  5
3B0
330
1F
100
AcDbEntity
  8
Callout
 62
   250
420
  2301728
100
AcDbHatch
 10
0.0
 20
0.0
 30
0.0
210
0.0
220
0.0
230
1.0
  2
SOLID
 70
     1
 71
     0
 91
        1
 92
        1
 93
        3
 72
     1
 10
6.035197069760316
 20
-4.908325000000003
 11
6.005031792744577
 21
-4.81419583333334
 72
     1
 10
6.005031792744577
 20
-4.81419583333334
 11
6.062892902393994
 21
-4.814670833333341
 72
     1
 10
6.062892902393994
 20
-4.814670833333341
 11
6.035197069760316
 21
-4.908325000000003
 97
        0
 75
     2
 76
     1
 98
        0
  0
POLYLINE
  5
3B2
330
1F
100
AcDbEntity
  8
Callout
  6
AI-Linetype-39
 62
   250
420
  2301728
370
    13
100
AcDb2dPolyline
 66
     1
 10
0.0
 20
0.0
 30
0.0
  0
VERTEX
  5
3B3
330
3B2
100
AcDbEntity
  8
Callout
  6
AI-Linetype-39
 62
   250
420
  2301728
370
    13
100
AcDbVertex
100
AcDb2dVertex
 10
5.729601244146983
 20
-5.016004166666662
 30
0.0
  0
VERTEX
  5
3B4
330
3B2
100
AcDbEntity
  8
Callout
  6
AI-Linetype-39
 62
   250
420
  2301728
370
    13
100
AcDbVertex
100
AcDb2dVertex
 10
4.891424876432211
 20
-3.759800000000003
 30
0.0
  0
SEQEND
  5
3B6
330
3B2
100
AcDbEntity
  8
Callout
  6
AI-Linetype-39
 62
   250
420
  2301728
370
    13
  0
POLYLINE
  5
3B7
330
1F
100
AcDbEntity
  8
Callout
 62
   250
420
  2301728
370
    13
100
AcDb2dPolyline
 66
     1
 10
0.0
 20
0.0
 30
0.0
  0
VERTEX
  5
3B8
330
3B7
100
AcDbEntity
  8
Callout
 62
   250
420
  2301728
370
    13
100
AcDbVertex
100
AcDb2dVertex
 10
5.854166666666666
 20
-5.032783333333327
 30
0.0
  0
VERTEX
  5
3B9
330
3B7
100
AcDbEntity
  8
Callout
 62
   250
420
  2301728
370
    13
100
AcDbVertex
100
AcDb2dVertex
 10
6.111111111111111
 20
-5.032783333333327
 30
0.0
  0
SEQEND
  5
3BA
330
3B7
100
AcDbEntity
  8
Callout
 62
   250
420
  2301728
370
    13
  0
POLYLINE
  5
3BB
330
1F
100
AcDbEntity
  8
Callout
 62
   250
420
  2301728
370
    13
100
AcDb2dPolyline
 66
     1
 10
0.0
 20
0.0
 30
0.0
  0
VERTEX
  5
3BC
330
3BB
100
AcDbEntity
  8
Callout
 62
   250
420
  2301728
370
    13
100
AcDbVertex
100
AcDb2dVertex
 10
5.854166666666666
 20
-4.907525000000001
 30
0.0
  0
VERTEX
  5
3BD
330
3BB
100
AcDbEntity
  8
Callout
 62
   250
420
  2301728
370
    13
100
AcDbVertex
100
AcDb2dVertex
 10
6.111111111111111
 20
-4.907525000000001
 30
0.0
  0
SEQEND
  5
3BE
330
3BB
100
AcDbEntity
  8
Callout
 62
   250
420
  2301728
370
    13
  0
POLYLINE
  5
3BF
330
1F
100
AcDbEntity
  8
Callout
 62
   250
420
  2301728
370
    18
100
AcDb2dPolyline
 66
     1
 10
0.0
 20
0.0
 30
0.0
  0
VERTEX
  5
3C0
330
3BF
100
AcDbEntity
  8
Callout
 62
   250
420
  2301728
370
    18
100
AcDbVertex
100
AcDb2dVertex
 10
6.033962347569286
 20
-4.835041666666661
 30
0.0
  0
VERTEX
  5
3C1
330
3BF
100
AcDbEntity
  8
Callout
 62
   250
420
  2301728
370
    18
100
AcDbVertex
100
AcDb2dVertex
 10
6.033962347569286
 20
-4.728529166666678
 30
0.0
  0
SEQEND
  5
3C2
330
3BF
100
AcDbEntity
  8
Callout
 62
   250
420
  2301728
370
    18
  0
POLYLINE
  5
3C3
330
1F
100
AcDbEntity
  8
Callout
370
     0
100
AcDb2dPolyline
 66
     1
 10
0.0
 20
0.0
 30
0.0
  0
VERTEX
  5
3C4
330
3C3
100
AcDbEntity
  8
Callout
370
     0
100
AcDbVertex
100
AcDb2dVertex
 10
6.032727625378255
 20
-5.032783333333327
 30
0.0
  0
VERTEX
  5
3C5
330
3C3
100
AcDbEntity
  8
Callout
370
     0
100
AcDbVertex
100
AcDb2dVertex
 10
6.062892902393994
 20
-5.12691249999999
 30
0.0
  0
VERTEX
  5
3C6
330
3C3
100
AcDbEntity
  8
Callout
370
     0
100
AcDbVertex
100
AcDb2dVertex
 10
6.005031792744577
 20
-5.126437499999989
 30
0.0
  0
VERTEX
  5
3C7
330
3C3
100
AcDbEntity
  8
Callout
370
     0
100
AcDbVertex
100
AcDb2dVertex
 10
6.032727625378255
 20
-5.032783333333327
 30
0.0
  0
SEQEND
  5
3C9
330
3C3
100
AcDbEntity
  8
Callout
370
     0
  0
HATCH
  5
3C8
330
1F
100
AcDbEntity
  8
Callout
 62
   250
420
  2301728
100
AcDbHatch
 10
0.0
 20
0.0
 30
0.0
210
0.0
220
0.0
230
1.0
  2
SOLID
 70
     1
 71
     0
 91
        1
 92
        1
 93
        3
 72
     1
 10
6.032727625378255
 20
-5.032783333333327
 11
6.062892902393994
 21
-5.12691249999999
 72
     1
 10
6.062892902393994
 20
-5.12691249999999
 11
6.005031792744577
 21
-5.126437499999989
 72
     1
 10
6.005031792744577
 20
-5.126437499999989
 11
6.032727625378255
 21
-5.032783333333327
 97
        0
 75
     2
 76
     1
 98
        0
  0
POLYLINE
  5
3CA
330
1F
100
AcDbEntity
  8
Callout
 62
   250
420
  2301728
370
    18
100
AcDb2dPolyline
 66
     1
 10
0.0
 20
0.0
 30
0.0
  0
VERTEX
  5
3CB
330
3CA
100
AcDbEntity
  8
Callout
 62
   250
420
  2301728
370
    18
100
AcDbVertex
100
AcDb2dVertex
 10
6.033962347569286
 20
-5.106065277777765
 30
0.0
  0
VERTEX
  5
3CC
330
3CA
100
AcDbEntity
  8
Callout
 62
   250
420
  2301728
370
    18
100
AcDbVertex
100
AcDb2dVertex
 10
6.033962347569286
 20
-5.212579166666678
 30
0.0
  0
SEQEND
  5
3CD
330
3CA
100
AcDbEntity
  8
Callout
 62
   250
420
  2301728
370
    18
  0
POLYLINE
  5
3CE
330
1F
100
AcDbEntity
  8
Callout
  6
AI-Linetype-40
 62
   250
420
  2301728
370
    13
100
AcDb2dPolyline
 66
     1
 10
0.0
 20
0.0
 30
0.0
  0
VERTEX
  5
3CF
330
3CE
100
AcDbEntity
  8
Callout
  6
AI-Linetype-40
 62
   250
420
  2301728
370
    13
100
AcDbVertex
100
AcDb2dVertex
 10
5.539441526728599
 20
-3.49768055555555
 30
0.0
  0
VERTEX
  5
3D0
330
3CE
100
AcDbEntity
  8
Callout
  6
AI-Linetype-40
 62
   250
420
  2301728
370
    13
100
AcDbVertex
100
AcDb2dVertex
 10
5.806816519974139
 20
-5.016872222222219
 30
0.0
  0
SEQEND
  5
3D2
330
3CE
100
AcDbEntity
  8
Callout
  6
AI-Linetype-40
 62
   250
420
  2301728
370
    13
  0
MTEXT
  5
3D3
330
1F
100
AcDbEntity
  8
Callout
 62
   250
420
  2301728
100
AcDbMText
 10
4.726020601060655
 20
-6.226058642069498
 30
0.0
 40
0.118
 41
0.0
 46
0.0
 71
     7
 72
     1
  1
\fHelvetica Neue LT Std 55 Roman|b0|i0|c0|p34;\W1;SIMPSON Strong-Tie\H0.068794;®\H0.118; ^C
 73
     1
 44
1.0
  0
MTEXT
  5
3D4
330
1F
100
AcDbEntity
  8
Callout
 62
   250
420
  2301728
100
AcDbMText
 10
4.354397879706489
 20
-6.42606406741672
 30
0.0
 40
0.118
 41
0.0
 46
0.0
 71
     7
 72
     1
  1
\fHelvetica Neue LT Std 55 Roman|b0|i0|c0|p34;\W1;SDWC Truss/Rafter-to-Top Plate 
 73
     1
 44
1.0
  0
MTEXT
  5
3D5
330
1F
100
AcDbEntity
  8
Callout
 62
   250
420
  2301728
100
AcDbMText
 10
4.233989079793294
 20
-6.626069492763943
 30
0.0
 40
0.118
 41
0.0
 46
0.0
 71
     7
 72
     1
  1
\fHelvetica Neue LT Std 55 Roman|b0|i0|c0|p34;\W1;(double) Installation - Cross Section 
 73
     1
 44
1.0
  0
MTEXT
  5
3D6
330
1F
100
AcDbEntity
  8
Callout
 62
   250
420
  2301728
100
AcDbMText
 10
5.128966013590494
 20
-2.826930099063449
 30
0.0
 40
0.118
 41
0.0
 46
0.0
 71
     7
 72
     1
  1
\fHelvetica Neue LT Std 57 Condensed|b0|i0|c0|p34;\W1;Truss/Rafter
 73
     1
 44
1.0
  0
MTEXT
  5
3D7
330
1F
100
AcDbEntity
  8
Callout
 62
   250
420
  2301728
100
AcDbMText
 10
6.157699584960938
 20
-4.497707155015733
 30
0.0
 40
0.118
 41
0.0
 46
0.0
 71
     7
 72
     1
  1
\fHelvetica Neue LT Std 57 Condensed|b0|i0|c0|p34;\W1;Double Top Plate
 73
     1
 44
1.0
  0
POLYLINE
  5
3D8
330
1F
100
AcDbEntity
  8
Callout
 62
   250
420
  2301728
370
    18
100
AcDb2dPolyline
 66
     1
 10
0.0
 20
0.0
 30
0.0
  0
VERTEX
  5
3D9
330
3D8
100
AcDbEntity
  8
Callout
 62
   250
420
  2301728
370
    18
100
AcDbVertex
100
AcDb2dVertex
 10
5.378479030794854
 20
-2.872237644297848
 30
0.0
  0
VERTEX
  5
3DA
330
3D8
100
AcDbEntity
  8
Callout
 62
   250
420
  2301728
370
    18
100
AcDbVertex
100
AcDb2dVertex
 10
5.507232499742423
 20
-3.122685465952549
 30
0.0
  0
SEQEND
  5
3DB
330
3D8
100
AcDbEntity
  8
Callout
 62
   250
420
  2301728
370
    18
  0
POLYLINE
  5
3DC
330
1F
100
AcDbEntity
  8
Callout
 62
   250
420
  2301728
370
    18
100
AcDb2dPolyline
 66
     1
 10
0.0
 20
0.0
 30
0.0
  0
VERTEX
  5
3DD
330
3DC
100
AcDbEntity
  8
Callout
 62
   250
420
  2301728
370
    18
100
AcDbVertex
100
AcDb2dVertex
 10
6.139336917562736
 20
-4.456109027777782
 30
0.0
  0
VERTEX
  5
3DE
330
3DC
100
AcDbEntity
  8
Callout
 62
   250
420
  2301728
370
    18
100
AcDbVertex
100
AcDb2dVertex
 10
5.839389781565337
 20
-4.74648001179369
 30
0.0
  0
SEQEND
  5
3DF
330
3DC
100
AcDbEntity
  8
Callout
 62
   250
420
  2301728
370
    18
  0
POLYLINE
  5
3E0
330
1F
100
AcDbEntity
  8
Callout
 62
   250
420
  2301728
370
    18
100
AcDb2dPolyline
 66
     1
 10
0.0
 20
0.0
 30
0.0
  0
VERTEX
  5
3E1
330
3E0
100
AcDbEntity
  8
Callout
 62
   250
420
  2301728
370
    18
100
AcDbVertex
100
AcDb2dVertex
 10
6.139336917562736
 20
-4.456109027777782
 30
0.0
  0
VERTEX
  5
3E2
330
3E0
100
AcDbEntity
  8
Callout
 62
   250
420
  2301728
370
    18
100
AcDbVertex
100
AcDb2dVertex
 10
5.839389781565337
 20
-4.509632714230166
 30
0.0
  0
SEQEND
  5
3E3
330
3E0
100
AcDbEntity
  8
Callout
 62
   250
420
  2301728
370
    18
  0
ENDSEC
  0
SECTION
  2
OBJECTS
  0
DICTIONARY
  5
C
330
0
100
AcDbDictionary
281
     1
  3
ACAD_GROUP
350
D
  3
ACAD_LAYOUT
350
1A
  3
ACAD_MATERIAL
350
3B
  3
ACAD_MLEADERSTYLE
350
3E5
  3
ACAD_MLINESTYLE
350
17
  3
ACAD_PLOTSETTINGS
350
19
  3
ACAD_PLOTSTYLENAME
350
E
  3
ACAD_TABLESTYLE
350
3E4
  3
ACAD_VISUALSTYLE
350
2A
  0
SUN
  5
3F
330
29
100
AcDbSun
 90
        1
290
     0
 63
     7
421
 16777215
 40
1.0
291
     1
 91
  2455826
 92
 54000000
292
     0
 70
     2
 71
   256
280
     1
  0
DICTIONARY
  5
D
102
{ACAD_REACTORS
330
C
102
}
330
C
100
AcDbDictionary
281
     1
  0
DICTIONARY
  5
1A
102
{ACAD_REACTORS
330
C
102
}
330
C
100
AcDbDictionary
281
     1
  3
Layout1
350
1E
  3
Layout2
350
26
  3
Model
350
22
  0
DICTIONARY
  5
3B
102
{ACAD_REACTORS
330
C
102
}
330
C
100
AcDbDictionary
281
     1
  3
ByBlock
350
3D
  3
ByLayer
350
3C
  3
Global
350
3E
  0
DICTIONARY
  5
3E5
102
{ACAD_REACTORS
330
C
102
}
330
C
100
AcDbDictionary
281
     1
  0
DICTIONARY
  5
17
102
{ACAD_REACTORS
330
C
102
}
330
C
100
AcDbDictionary
281
     1
  3
Standard
350
18
  0
DICTIONARY
  5
19
102
{ACAD_REACTORS
330
C
102
}
330
C
100
AcDbDictionary
281
     1
  0
ACDBDICTIONARYWDFLT
  5
E
102
{ACAD_REACTORS
330
C
102
}
330
C
100
AcDbDictionary
281
     1
  3
Normal
350
F
100
AcDbDictionaryWithDefault
340
F
  0
DICTIONARY
  5
3E4
102
{ACAD_REACTORS
330
C
102
}
330
C
100
AcDbDictionary
281
     1
  0
DICTIONARY
  5
2A
102
{ACAD_REACTORS
330
C
102
}
330
C
100
AcDbDictionary
281
     1
  3
2dWireframe
350
2F
  3
3D Hidden
350
31
  3
3dWireframe
350
30
  3
Basic
350
32
  3
Brighten
350
36
  3
ColorChange
350
3A
  3
Conceptual
350
34
  3
Dim
350
35
  3
Facepattern
350
39
  3
Flat
350
2B
  3
FlatWithEdges
350
2C
  3
Gouraud
350
2D
  3
GouraudWithEdges
350
2E
  3
Linepattern
350
38
  3
Realistic
350
33
  3
Thicken
350
37
  0
LAYOUT
  5
1E
102
{ACAD_REACTORS
330
1A
102
}
330
1A
100
AcDbPlotSettings
  1

  2
none_device
  4

  6

 40
0.0
 41
0.0
 42
0.0
 43
0.0
 44
0.0
 45
0.0
 46
0.0
 47
0.0
 48
0.0
 49
0.0
140
0.0
141
0.0
142
1.0
143
1.0
 70
   688
 72
     0
 73
     0
 74
     5
  7

 75
    16
 76
     0
 77
     2
 78
   300
147
1.0
148
0.0
149
0.0
100
AcDbLayout
  1
Layout1
 70
     1
 71
     1
 10
0.0
 20
0.0
 11
12.0
 21
9.0
 12
0.0
 22
0.0
 32
0.0
 14
1.000000000000000E+20
 24
1.000000000000000E+20
 34
1.000000000000000E+20
 15
-1.000000000000000E+20
 25
-1.000000000000000E+20
 35
-1.000000000000000E+20
146
0.0
 13
0.0
 23
0.0
 33
0.0
 16
1.0
 26
0.0
 36
0.0
 17
0.0
 27
1.0
 37
0.0
 76
     0
330
1B
  0
LAYOUT
  5
26
102
{ACAD_REACTORS
330
1A
102
}
330
1A
100
AcDbPlotSettings
  1

  2
none_device
  4

  6

 40
0.0
 41
0.0
 42
0.0
 43
0.0
 44
0.0
 45
0.0
 46
0.0
 47
0.0
 48
0.0
 49
0.0
140
0.0
141
0.0
142
1.0
143
1.0
 70
   688
 72
     0
 73
     0
 74
     5
  7

 75
    16
 76
     0
 77
     2
 78
   300
147
1.0
148
0.0
149
0.0
100
AcDbLayout
  1
Layout2
 70
     1
 71
     2
 10
0.0
 20
0.0
 11
0.0
 21
0.0
 12
0.0
 22
0.0
 32
0.0
 14
0.0
 24
0.0
 34
0.0
 15
0.0
 25
0.0
 35
0.0
146
0.0
 13
0.0
 23
0.0
 33
0.0
 16
1.0
 26
0.0
 36
0.0
 17
0.0
 27
1.0
 37
0.0
 76
     0
330
23
  0
LAYOUT
  5
22
102
{ACAD_REACTORS
330
1A
102
}
330
1A
100
AcDbPlotSettings
  1

  2
none_device
  4

  6

 40
0.0
 41
0.0
 42
0.0
 43
0.0
 44
0.0
 45
0.0
 46
0.0
 47
0.0
 48
0.0
 49
0.0
140
0.0
141
0.0
142
1.0
143
1.0
 70
  1712
 72
     0
 73
     0
 74
     0
  7

 75
     0
 76
     0
 77
     2
 78
   300
147
1.0
148
0.0
149
0.0
100
AcDbLayout
  1
Model
 70
     1
 71
     0
 10
0.0
 20
0.0
 11
12.0
 21
9.0
 12
0.0
 22
0.0
 32
0.0
 14
1.000000000000000E+20
 24
1.000000000000000E+20
 34
1.000000000000000E+20
 15
-1.000000000000000E+20
 25
-1.000000000000000E+20
 35
-1.000000000000000E+20
146
0.0
 13
0.0
 23
0.0
 33
0.0
 16
1.0
 26
0.0
 36
0.0
 17
0.0
 27
1.0
 37
0.0
 76
     0
330
1F
331
29
  0
MATERIAL
  5
3D
102
{ACAD_REACTORS
330
3B
102
}
330
3B
100
AcDbMaterial
  1
ByBlock
 72
     1
 94
      127
  0
MATERIAL
  5
3C
102
{ACAD_REACTORS
330
3B
102
}
330
3B
100
AcDbMaterial
  1
ByLayer
 72
     1
 94
      127
  0
MATERIAL
  5
3E
102
{ACAD_REACTORS
330
3B
102
}
330
3B
100
AcDbMaterial
  1
Global
 72
     1
 94
      127
  0
MLINESTYLE
  5
18
102
{ACAD_REACTORS
330
17
102
}
330
17
100
AcDbMlineStyle
  2
Standard
 70
     0
  3

 62
   256
 51
90.0
 52
90.0
 71
     2
 49
0.5
 62
   256
  6
BYLAYER
 49
-0.5
 62
   256
  6
BYLAYER
  0
ACDBPLACEHOLDER
  5
F
102
{ACAD_REACTORS
330
E
102
}
330
E
  0
VISUALSTYLE
  5
2F
102
{ACAD_REACTORS
330
2A
102
}
330
2A
100
AcDbVisualStyle
  2
2dWireframe
 70
     4
177
     2
291
     0
 71
     0
176
     1
 72
     2
176
     1
 73
     0
176
     1
 90
        0
176
     1
 40
-0.6
176
     1
 41
-30.0
176
     1
 62
     5
 63
     7
421
 16777215
176
     1
 74
     1
176
     1
 91
        4
176
     1
 64
     7
176
     1
 65
   257
176
     1
 75
     1
176
     1
175
     1
176
     1
 42
1.0
176
     1
 92
        0
176
     1
 66
   257
176
     1
 43
1.0
176
     1
 76
     1
176
     1
 77
     6
176
     1
 78
     2
176
     1
 67
     7
176
     1
 79
     5
176
     1
170
     0
176
     1
171
     0
176
     1
290
     0
176
     1
 93
        1
176
     1
 44
0.0
176
     1
173
     0
176
     1
  0
VISUALSTYLE
  5
31
102
{ACAD_REACTORS
330
2A
102
}
330
2A
100
AcDbVisualStyle
  2
3D Hidden
 70
     6
177
     2
291
     0
 71
     1
176
     1
 72
     2
176
     1
 73
     2
176
     1
 90
        0
176
     1
 40
-0.6
176
     1
 41
-30.0
176
     1
 62
     5
 63
     7
421
 16777215
176
     1
 74
     2
176
     1
 91
        2
176
     1
 64
     7
176
     1
 65
   257
176
     1
 75
     2
176
     1
175
     1
176
     1
 42
40.0
176
     1
 92
        0
176
     1
 66
   257
176
     1
 43
1.0
176
     1
 76
     1
176
     1
 77
     6
176
     1
 78
     2
176
     1
 67
     7
176
     1
 79
     3
176
     1
170
     0
176
     1
171
     0
176
     1
290
     0
176
     1
 93
        1
176
     1
 44
0.0
176
     1
173
     0
176
     1
  0
VISUALSTYLE
  5
30
102
{ACAD_REACTORS
330
2A
102
}
330
2A
100
AcDbVisualStyle
  2
3dWireframe
 70
     5
177
     2
291
     0
 71
     0
176
     1
 72
     2
176
     1
 73
     0
176
     1
 90
        0
176
     1
 40
-0.6
176
     1
 41
-30.0
176
     1
 62
     5
 63
     7
421
 16777215
176
     1
 74
     1
176
     1
 91
        4
176
     1
 64
     7
176
     1
 65
   257
176
     1
 75
     1
176
     1
175
     1
176
     1
 42
1.0
176
     1
 92
        0
176
     1
 66
   257
176
     1
 43
1.0
176
     1
 76
     1
176
     1
 77
     6
176
     1
 78
     2
176
     1
 67
     7
176
     1
 79
     5
176
     1
170
     0
176
     1
171
     0
176
     1
290
     0
176
     1
 93
        1
176
     1
 44
0.0
176
     1
173
     0
176
     1
  0
VISUALSTYLE
  5
32
102
{ACAD_REACTORS
330
2A
102
}
330
2A
100
AcDbVisualStyle
  2
Basic
 70
     7
177
     2
291
     1
 71
     1
176
     1
 72
     0
176
     1
 73
     1
176
     1
 90
        0
176
     1
 40
-0.6
176
     1
 41
-30.0
176
     1
 62
     5
 63
     7
421
 16777215
176
     1
 74
     0
176
     1
 91
        4
176
     1
 64
     7
176
     1
 65
   257
176
     1
 75
     1
176
     1
175
     1
176
     1
 42
1.0
176
     1
 92
        8
176
     1
 66
     7
176
     1
 43
1.0
176
     1
 76
     1
176
     1
 77
     6
176
     1
 78
     2
176
     1
 67
     7
176
     1
 79
     5
176
     1
170
     0
176
     1
171
     0
176
     1
290
     0
176
     1
 93
        1
176
     1
 44
0.0
176
     1
173
     0
176
     1
  0
VISUALSTYLE
  5
36
102
{ACAD_REACTORS
330
2A
102
}
330
2A
100
AcDbVisualStyle
  2
Brighten
 70
    12
177
     2
291
     1
 71
     2
176
     1
 72
     2
176
     1
 73
     0
176
     1
 90
        0
176
     1
 40
-0.6
176
     1
 41
-30.0
176
     1
 62
     5
 63
     7
421
 16777215
176
     1
 74
     1
176
     1
 91
        4
176
     1
 64
     7
176
     1
 65
   257
176
     1
 75
     1
176
     1
175
     1
176
     1
 42
1.0
176
     1
 92
        8
176
     1
 66
     7
176
     1
 43
1.0
176
     1
 76
     1
176
     1
 77
     6
176
     1
 78
     2
176
     1
 67
     7
176
     1
 79
     5
176
     1
170
     0
176
     1
171
     0
176
     1
290
     0
176
     1
 93
        1
176
     1
 44
50.0
176
     1
173
     0
176
     1
  0
VISUALSTYLE
  5
3A
102
{ACAD_REACTORS
330
2A
102
}
330
2A
100
AcDbVisualStyle
  2
ColorChange
 70
    16
177
     2
291
     1
 71
     2
176
     1
 72
     2
176
     1
 73
     3
176
     1
 90
        0
176
     1
 40
-0.6
176
     1
 41
-30.0
176
     1
 62
     5
 63
     8
421
  8421504
176
     1
 74
     1
176
     1
 91
        4
176
     1
 64
     7
176
     1
 65
   257
176
     1
 75
     1
176
     1
175
     1
176
     1
 42
1.0
176
     1
 92
        8
176
     1
 66
     8
424
  8421504
176
     1
 43
1.0
176
     1
 76
     1
176
     1
 77
     6
176
     1
 78
     2
176
     1
 67
     7
176
     1
 79
     5
176
     1
170
     0
176
     1
171
     0
176
     1
290
     0
176
     1
 93
        1
176
     1
 44
0.0
176
     1
173
     0
176
     1
  0
VISUALSTYLE
  5
34
102
{ACAD_REACTORS
330
2A
102
}
330
2A
100
AcDbVisualStyle
  2
Conceptual
 70
     9
177
     2
291
     0
 71
     3
176
     1
 72
     2
176
     1
 73
     0
176
     1
 90
        0
176
     1
 40
-0.6
176
     1
 41
-30.0
176
     1
 62
     5
 63
     7
421
 16777215
176
     1
 74
     2
176
     1
 91
        2
176
     1
 64
     7
176
     1
 65
   257
176
     1
 75
     1
176
     1
175
     1
176
     1
 42
40.0
176
     1
 92
        8
176
     1
 66
     7
176
     1
 43
1.0
176
     1
 76
     1
176
     1
 77
     6
176
     1
 78
     2
176
     1
 67
     7
176
     1
 79
     3
176
     1
170
     0
176
     1
171
     0
176
     1
290
     0
176
     1
 93
        1
176
     1
 44
0.0
176
     1
173
     0
176
     1
  0
VISUALSTYLE
  5
35
102
{ACAD_REACTORS
330
2A
102
}
330
2A
100
AcDbVisualStyle
  2
Dim
 70
    11
177
     2
291
     1
 71
     2
176
     1
 72
     2
176
     1
 73
     0
176
     1
 90
        0
176
     1
 40
-0.6
176
     1
 41
-30.0
176
     1
 62
     5
 63
     7
421
 16777215
176
     1
 74
     1
176
     1
 91
        4
176
     1
 64
     7
176
     1
 65
   257
176
     1
 75
     1
176
     1
175
     1
176
     1
 42
1.0
176
     1
 92
        8
176
     1
 66
     7
176
     1
 43
1.0
176
     1
 76
     1
176
     1
 77
     6
176
     1
 78
     2
176
     1
 67
     7
176
     1
 79
     5
176
     1
170
     0
176
     1
171
     0
176
     1
290
     0
176
     1
 93
        1
176
     1
 44
-50.0
176
     1
173
     0
176
     1
  0
VISUALSTYLE
  5
39
102
{ACAD_REACTORS
330
2A
102
}
330
2A
100
AcDbVisualStyle
  2
Facepattern
 70
    15
177
     2
291
     1
 71
     2
176
     1
 72
     2
176
     1
 73
     0
176
     1
 90
        0
176
     1
 40
-0.6
176
     1
 41
-30.0
176
     1
 62
     5
 63
     7
421
 16777215
176
     1
 74
     1
176
     1
 91
        4
176
     1
 64
     7
176
     1
 65
   257
176
     1
 75
     1
176
     1
175
     1
176
     1
 42
1.0
176
     1
 92
        8
176
     1
 66
     7
176
     1
 43
1.0
176
     1
 76
     1
176
     1
 77
     6
176
     1
 78
     2
176
     1
 67
     7
176
     1
 79
     5
176
     1
170
     0
176
     1
171
     0
176
     1
290
     0
176
     1
 93
        1
176
     1
 44
0.0
176
     1
173
     0
176
     1
  0
VISUALSTYLE
  5
2B
102
{ACAD_REACTORS
330
2A
102
}
330
2A
100
AcDbVisualStyle
  2
Flat
 70
     0
177
     2
291
     1
 71
     2
176
     1
 72
     1
176
     1
 73
     1
176
     1
 90
        2
176
     1
 40
-0.6
176
     1
 41
30.0
176
     1
 62
     5
 63
     7
421
 16777215
176
     1
 74
     0
176
     1
 91
        4
176
     1
 64
     7
176
     1
 65
   257
176
     1
 75
     1
176
     1
175
     1
176
     1
 42
1.0
176
     1
 92
        8
176
     1
 66
     7
176
     1
 43
1.0
176
     1
 76
     1
176
     1
 77
     6
176
     1
 78
     2
176
     1
 67
     7
176
     1
 79
     5
176
     1
170
     0
176
     1
171
     0
176
     1
290
     0
176
     1
 93
       13
176
     1
 44
0.0
176
     1
173
     0
176
     1
  0
VISUALSTYLE
  5
2C
102
{ACAD_REACTORS
330
2A
102
}
330
2A
100
AcDbVisualStyle
  2
FlatWithEdges
 70
     1
177
     2
291
     1
 71
     2
176
     1
 72
     1
176
     1
 73
     1
176
     1
 90
        2
176
     1
 40
-0.6
176
     1
 41
30.0
176
     1
 62
     5
 63
     7
421
 16777215
176
     1
 74
     1
176
     1
 91
        4
176
     1
 64
     7
176
     1
 65
   257
176
     1
 75
     1
176
     1
175
     1
176
     1
 42
1.0
176
     1
 92
        0
176
     1
 66
   257
176
     1
 43
1.0
176
     1
 76
     1
176
     1
 77
     6
176
     1
 78
     2
176
     1
 67
     7
176
     1
 79
     5
176
     1
170
     0
176
     1
171
     0
176
     1
290
     0
176
     1
 93
       13
176
     1
 44
0.0
176
     1
173
     0
176
     1
  0
VISUALSTYLE
  5
2D
102
{ACAD_REACTORS
330
2A
102
}
330
2A
100
AcDbVisualStyle
  2
Gouraud
 70
     2
177
     2
291
     1
 71
     2
176
     1
 72
     2
176
     1
 73
     1
176
     1
 90
        2
176
     1
 40
-0.6
176
     1
 41
30.0
176
     1
 62
     5
 63
     7
421
 16777215
176
     1
 74
     0
176
     1
 91
        4
176
     1
 64
     7
176
     1
 65
   257
176
     1
 75
     1
176
     1
175
     1
176
     1
 42
1.0
176
     1
 92
        0
176
     1
 66
     7
176
     1
 43
1.0
176
     1
 76
     1
176
     1
 77
     6
176
     1
 78
     2
176
     1
 67
     7
176
     1
 79
     5
176
     1
170
     0
176
     1
171
     0
176
     1
290
     0
176
     1
 93
       13
176
     1
 44
0.0
176
     1
173
     0
176
     1
  0
VISUALSTYLE
  5
2E
102
{ACAD_REACTORS
330
2A
102
}
330
2A
100
AcDbVisualStyle
  2
GouraudWithEdges
 70
     3
177
     2
291
     1
 71
     2
176
     1
 72
     2
176
     1
 73
     1
176
     1
 90
        2
176
     1
 40
-0.6
176
     1
 41
30.0
176
     1
 62
     5
 63
     7
421
 16777215
176
     1
 74
     1
176
     1
 91
        4
176
     1
 64
     7
176
     1
 65
   257
176
     1
 75
     1
176
     1
175
     1
176
     1
 42
1.0
176
     1
 92
        0
176
     1
 66
   257
176
     1
 43
1.0
176
     1
 76
     1
176
     1
 77
     6
176
     1
 78
     2
176
     1
 67
     7
176
     1
 79
     5
176
     1
170
     0
176
     1
171
     0
176
     1
290
     0
176
     1
 93
       13
176
     1
 44
0.0
176
     1
173
     0
176
     1
  0
VISUALSTYLE
  5
38
102
{ACAD_REACTORS
330
2A
102
}
330
2A
100
AcDbVisualStyle
  2
Linepattern
 70
    14
177
     2
291
     1
 71
     2
176
     1
 72
     2
176
     1
 73
     0
176
     1
 90
        0
176
     1
 40
-0.6
176
     1
 41
-30.0
176
     1
 62
     5
 63
     7
421
 16777215
176
     1
 74
     1
176
     1
 91
        4
176
     1
 64
     7
176
     1
 65
   257
176
     1
 75
     7
176
     1
175
     7
176
     1
 42
1.0
176
     1
 92
        8
176
     1
 66
     7
176
     1
 43
1.0
176
     1
 76
     1
176
     1
 77
     6
176
     1
 78
     2
176
     1
 67
     7
176
     1
 79
     5
176
     1
170
     0
176
     1
171
     0
176
     1
290
     0
176
     1
 93
        1
176
     1
 44
0.0
176
     1
173
     0
176
     1
  0
VISUALSTYLE
  5
33
102
{ACAD_REACTORS
330
2A
102
}
330
2A
100
AcDbVisualStyle
  2
Realistic
 70
     8
177
     2
291
     0
 71
     2
176
     1
 72
     2
176
     1
 73
     0
176
     1
 90
        0
176
     1
 40
-0.6
176
     1
 41
-30.0
176
     1
 62
     5
 63
     7
421
 16777215
176
     1
 74
     1
176
     1
 91
        0
176
     1
 64
     7
176
     1
 65
   257
176
     1
 75
     1
176
     1
175
     1
176
     1
 42
1.0
176
     1
 92
        8
176
     1
 66
     8
424
  7895160
176
     1
 43
1.0
176
     1
 76
     1
176
     1
 77
     6
176
     1
 78
     2
176
     1
 67
     7
176
     1
 79
     5
176
     1
170
     0
176
     1
171
     0
176
     1
290
     0
176
     1
 93
       13
176
     1
 44
0.0
176
     1
173
     0
176
     1
  0
VISUALSTYLE
  5
37
102
{ACAD_REACTORS
330
2A
102
}
330
2A
100
AcDbVisualStyle
  2
Thicken
 70
    13
177
     2
291
     1
 71
     2
176
     1
 72
     2
176
     1
 73
     0
176
     1
 90
        0
176
     1
 40
-0.6
176
     1
 41
-30.0
176
     1
 62
     5
 63
     7
421
 16777215
176
     1
 74
     1
176
     1
 91
        4
176
     1
 64
     7
176
     1
 65
   257
176
     1
 75
     1
176
     1
175
     1
176
     1
 42
1.0
176
     1
 92
       12
176
     1
 66
     7
176
     1
 43
1.0
176
     1
 76
     1
176
     1
 77
     6
176
     1
 78
     2
176
     1
 67
     7
176
     1
 79
     5
176
     1
170
     0
176
     1
171
     0
176
     1
290
     0
176
     1
 93
        1
176
     1
 44
0.0
176
     1
173
     0
176
     1
  0
ENDSEC
  0
EOF
