  0
SECTION
  2
HEADER
  9
$ACADVER
  1
AC1024
  9
$ACADMAINTVER
 70
     6
  9
$DWGCODEPAGE
  3
ANSI_1252
  9
$INSBASE
 10
0.0
 20
0.0
 30
0.0
  9
$EXTMIN
 10
1.000000000000000E+20
 20
1.000000000000000E+20
 30
1.000000000000000E+20
  9
$EXTMAX
 10
-1.000000000000000E+20
 20
-1.000000000000000E+20
 30
-1.000000000000000E+20
  9
$LIMMIN
 10
0.0
 20
0.0
  9
$LIMMAX
 10
12.0
 20
9.0
  9
$ORTHOMODE
 70
     0
  9
$REGENMODE
 70
     1
  9
$FILLMODE
 70
     1
  9
$QTEXTMODE
 70
     0
  9
$MIRRTEXT
 70
     1
  9
$LTSCALE
 40
1.0
  9
$ATTMODE
 70
     1
  9
$TEXTSIZE
 40
0.2
  9
$TRACEWID
 40
0.05
  9
$TEXTSTYLE
  7
Standard
  9
$CLAYER
  8
0
  9
$CELTYPE
  6
ByLayer
  9
$CECOLOR
 62
   256
  9
$CELTSCALE
 40
1.0
  9
$DISPSILH
 70
     0
  9
$DIMSCALE
 40
1.0
  9
$DIMASZ
 40
0.18
  9
$DIMEXO
 40
0.0625
  9
$DIMDLI
 40
0.38
  9
$DIMRND
 40
0.0
  9
$DIMDLE
 40
0.0
  9
$DIMEXE
 40
0.18
  9
$DIMTP
 40
0.0
  9
$DIMTM
 40
0.0
  9
$DIMTXT
 40
0.18
  9
$DIMCEN
 40
0.09
  9
$DIMTSZ
 40
0.0
  9
$DIMTOL
 70
     0
  9
$DIMLIM
 70
     0
  9
$DIMTIH
 70
     1
  9
$DIMTOH
 70
     1
  9
$DIMSE1
 70
     0
  9
$DIMSE2
 70
     0
  9
$DIMTAD
 70
     0
  9
$DIMZIN
 70
     0
  9
$DIMBLK
  1

  9
$DIMASO
 70
     1
  9
$DIMSHO
 70
     1
  9
$DIMPOST
  1

  9
$DIMAPOST
  1

  9
$DIMALT
 70
     0
  9
$DIMALTD
 70
     2
  9
$DIMALTF
 40
25.4
  9
$DIMLFAC
 40
1.0
  9
$DIMTOFL
 70
     0
  9
$DIMTVP
 40
0.0
  9
$DIMTIX
 70
     0
  9
$DIMSOXD
 70
     0
  9
$DIMSAH
 70
     0
  9
$DIMBLK1
  1

  9
$DIMBLK2
  1

  9
$DIMSTYLE
  2
Standard
  9
$DIMCLRD
 70
     0
  9
$DIMCLRE
 70
     0
  9
$DIMCLRT
 70
     0
  9
$DIMTFAC
 40
1.0
  9
$DIMGAP
 40
0.09
  9
$DIMJUST
 70
     0
  9
$DIMSD1
 70
     0
  9
$DIMSD2
 70
     0
  9
$DIMTOLJ
 70
     1
  9
$DIMTZIN
 70
     0
  9
$DIMALTZ
 70
     0
  9
$DIMALTTZ
 70
     0
  9
$DIMUPT
 70
     0
  9
$DIMDEC
 70
     4
  9
$DIMTDEC
 70
     4
  9
$DIMALTU
 70
     2
  9
$DIMALTTD
 70
     2
  9
$DIMTXSTY
  7
Standard
  9
$DIMAUNIT
 70
     0
  9
$DIMADEC
 70
     0
  9
$DIMALTRND
 40
0.0
  9
$DIMAZIN
 70
     0
  9
$DIMDSEP
 70
    46
  9
$DIMATFIT
 70
     3
  9
$DIMFRAC
 70
     0
  9
$DIMLDRBLK
  1

  9
$DIMLUNIT
 70
     2
  9
$DIMLWD
 70
    -2
  9
$DIMLWE
 70
    -2
  9
$DIMTMOVE
 70
     0
  9
$DIMFXL
 40
1.0
  9
$DIMFXLON
 70
     0
  9
$DIMJOGANG
 40
0.7853981633974483
  9
$DIMTFILL
 70
     0
  9
$DIMTFILLCLR
 70
     0
  9
$DIMARCSYM
 70
     0
  9
$DIMLTYPE
  6

  9
$DIMLTEX1
  6

  9
$DIMLTEX2
  6

  9
$DIMTXTDIRECTION
 70
     0
  9
$LUNITS
 70
     2
  9
$LUPREC
 70
     4
  9
$SKETCHINC
 40
0.1
  9
$FILLETRAD
 40
0.5
  9
$AUNITS
 70
     0
  9
$AUPREC
 70
     0
  9
$MENU
  1
.
  9
$ELEVATION
 40
0.0
  9
$PELEVATION
 40
0.0
  9
$THICKNESS
 40
0.0
  9
$LIMCHECK
 70
     0
  9
$CHAMFERA
 40
0.5
  9
$CHAMFERB
 40
0.5
  9
$CHAMFERC
 40
1.0
  9
$CHAMFERD
 40
0.0
  9
$SKPOLY
 70
     0
  9
$TDCREATE
 40
2459135.534651829
  9
$TDUCREATE
 40
2459134.992985162
  9
$TDUPDATE
 40
2459135.534651829
  9
$TDUUPDATE
 40
2459134.992985162
  9
$TDINDWG
 40
0.0000000116
  9
$TDUSRTIMER
 40
0.0000000116
  9
$USRTIMER
 70
     1
  9
$ANGBASE
 50
0.0
  9
$ANGDIR
 70
     0
  9
$PDMODE
 70
     0
  9
$PDSIZE
 40
0.0
  9
$PLINEWID
 40
0.0
  9
$SPLFRAME
 70
     0
  9
$SPLINETYPE
 70
     6
  9
$SPLINESEGS
 70
     8
  9
$HANDSEED
  5
1BF
  9
$SURFTAB1
 70
     6
  9
$SURFTAB2
 70
     6
  9
$SURFTYPE
 70
     6
  9
$SURFU
 70
     6
  9
$SURFV
 70
     6
  9
$UCSBASE
  2

  9
$UCSNAME
  2

  9
$UCSORG
 10
0.0
 20
0.0
 30
0.0
  9
$UCSXDIR
 10
1.0
 20
0.0
 30
0.0
  9
$UCSYDIR
 10
0.0
 20
1.0
 30
0.0
  9
$UCSORTHOREF
  2

  9
$UCSORTHOVIEW
 70
     0
  9
$UCSORGTOP
 10
0.0
 20
0.0
 30
0.0
  9
$UCSORGBOTTOM
 10
0.0
 20
0.0
 30
0.0
  9
$UCSORGLEFT
 10
0.0
 20
0.0
 30
0.0
  9
$UCSORGRIGHT
 10
0.0
 20
0.0
 30
0.0
  9
$UCSORGFRONT
 10
0.0
 20
0.0
 30
0.0
  9
$UCSORGBACK
 10
0.0
 20
0.0
 30
0.0
  9
$PUCSBASE
  2

  9
$PUCSNAME
  2

  9
$PUCSORG
 10
0.0
 20
0.0
 30
0.0
  9
$PUCSXDIR
 10
1.0
 20
0.0
 30
0.0
  9
$PUCSYDIR
 10
0.0
 20
1.0
 30
0.0
  9
$PUCSORTHOREF
  2

  9
$PUCSORTHOVIEW
 70
     0
  9
$PUCSORGTOP
 10
0.0
 20
0.0
 30
0.0
  9
$PUCSORGBOTTOM
 10
0.0
 20
0.0
 30
0.0
  9
$PUCSORGLEFT
 10
0.0
 20
0.0
 30
0.0
  9
$PUCSORGRIGHT
 10
0.0
 20
0.0
 30
0.0
  9
$PUCSORGFRONT
 10
0.0
 20
0.0
 30
0.0
  9
$PUCSORGBACK
 10
0.0
 20
0.0
 30
0.0
  9
$USERI1
 70
     0
  9
$USERI2
 70
     0
  9
$USERI3
 70
     0
  9
$USERI4
 70
     0
  9
$USERI5
 70
     0
  9
$USERR1
 40
0.0
  9
$USERR2
 40
0.0
  9
$USERR3
 40
0.0
  9
$USERR4
 40
0.0
  9
$USERR5
 40
0.0
  9
$WORLDVIEW
 70
     1
  9
$SHADEDGE
 70
     3
  9
$SHADEDIF
 70
    70
  9
$TILEMODE
 70
     1
  9
$MAXACTVP
 70
    64
  9
$PINSBASE
 10
0.0
 20
0.0
 30
0.0
  9
$PLIMCHECK
 70
     0
  9
$PEXTMIN
 10
1.000000000000000E+20
 20
1.000000000000000E+20
 30
1.000000000000000E+20
  9
$PEXTMAX
 10
-1.000000000000000E+20
 20
-1.000000000000000E+20
 30
-1.000000000000000E+20
  9
$PLIMMIN
 10
0.0
 20
0.0
  9
$PLIMMAX
 10
12.0
 20
9.0
  9
$UNITMODE
 70
     0
  9
$VISRETAIN
 70
     1
  9
$PLINEGEN
 70
     0
  9
$PSLTSCALE
 70
     1
  9
$TREEDEPTH
 70
  3020
  9
$CMLSTYLE
  2
Standard
  9
$CMLJUST
 70
     0
  9
$CMLSCALE
 40
1.0
  9
$PROXYGRAPHICS
 70
     1
  9
$MEASUREMENT
 70
     0
  9
$CELWEIGHT
370
    -1
  9
$ENDCAPS
280
     0
  9
$JOINSTYLE
280
     0
  9
$LWDISPLAY
290
     1
  9
$INSUNITS
 70
     1
  9
$HYPERLINKBASE
  1

  9
$STYLESHEET
  1

  9
$XEDIT
290
     1
  9
$CEPSNTYPE
380
     0
  9
$PSTYLEMODE
290
     1
  9
$FINGERPRINTGUID
  2
{746F4E8F-821C-4633-AFAB-0F48CF48676B}
  9
$VERSIONGUID
  2
{FAEB1C32-E019-11D5-929B-00C0DF256EC4}
  9
$EXTNAMES
290
     1
  9
$PSVPSCALE
 40
0.0
  9
$OLESTARTUP
290
     0
  9
$SORTENTS
280
   127
  9
$INDEXCTL
280
     0
  9
$HIDETEXT
280
     1
  9
$XCLIPFRAME
280
     2
  9
$HALOGAP
280
     0
  9
$OBSCOLOR
 70
   257
  9
$OBSLTYPE
280
     0
  9
$INTERSECTIONDISPLAY
280
     0
  9
$INTERSECTIONCOLOR
 70
   257
  9
$DIMASSOC
280
     2
  9
$PROJECTNAME
  1

  9
$CAMERADISPLAY
290
     0
  9
$LENSLENGTH
 40
50.0
  9
$CAMERAHEIGHT
 40
0.0
  9
$STEPSPERSEC
 40
2.0
  9
$STEPSIZE
 40
6.0
  9
$3DDWFPREC
 40
2.0
  9
$PSOLWIDTH
 40
0.25
  9
$PSOLHEIGHT
 40
4.0
  9
$LOFTANG1
 40
1.570796326794897
  9
$LOFTANG2
 40
1.570796326794897
  9
$LOFTMAG1
 40
0.0
  9
$LOFTMAG2
 40
0.0
  9
$LOFTPARAM
 70
     7
  9
$LOFTNORMALS
280
     1
  9
$LATITUDE
 40
37.795
  9
$LONGITUDE
 40
-122.394
  9
$NORTHDIRECTION
 40
0.0
  9
$TIMEZONE
 70
 -8000
  9
$LIGHTGLYPHDISPLAY
280
     1
  9
$TILEMODELIGHTSYNCH
280
     1
  9
$CMATERIAL
347
3C
  9
$SOLIDHIST
280
     1
  9
$SHOWHIST
280
     1
  9
$DWFFRAME
280
     2
  9
$DGNFRAME
280
     2
  9
$REALWORLDSCALE
290
     1
  9
$INTERFERECOLOR
 62
   256
  9
$CSHADOW
280
     0
  9
$SHADOWPLANELOCATION
 40
0.0
  0
ENDSEC
  0
SECTION
  2
CLASSES
  0
CLASS
  1
ACDBDICTIONARYWDFLT
  2
AcDbDictionaryWithDefault
  3
ObjectDBX Classes
 90
        0
 91
        4
280
     0
281
     0
  0
CLASS
  1
VISUALSTYLE
  2
AcDbVisualStyle
  3
ObjectDBX Classes
 90
     4095
 91
        4
280
     0
281
     0
  0
CLASS
  1
MATERIAL
  2
AcDbMaterial
  3
ObjectDBX Classes
 90
     1153
 91
        4
280
     0
281
     0
  0
CLASS
  1
SUN
  2
AcDbSun
  3
SCENEOE
 90
     1024
 91
        4
280
     0
281
     0
  0
ENDSEC
  0
SECTION
  2
TABLES
  0
TABLE
  2
VPORT
  5
8
330
0
100
AcDbSymbolTable
 70
     1
  0
VPORT
  5
29
330
8
100
AcDbSymbolTableRecord
100
AcDbViewportTableRecord
  2
*Active
 70
     0
 10
0.0
 20
0.0
 11
1.0
 21
1.0
 12
0.0
 22
0.0
 13
0.0
 23
0.0
 14
0.5
 24
0.5
 15
0.5
 25
0.5
 16
0.0
 26
0.0
 36
1.0
 17
4.25
 27
5.5
 37
0.0
 40
11.0
 41
0.7727272727272727
 42
50.0
 43
0.0
 44
0.0
 50
0.0
 51
0.0
 71
     0
 72
   100
 73
     1
 74
     3
 75
     0
 76
     0
 77
     0
 78
     0
281
     0
 65
     1
110
0.0
120
0.0
130
0.0
111
1.0
121
0.0
131
0.0
112
0.0
122
1.0
132
0.0
 79
     0
146
0.0
 60
     3
 61
     5
292
     1
282
     1
141
0.0
142
0.0
 63
   250
361
3F
  0
ENDTAB
  0
TABLE
  2
LTYPE
  5
5
330
0
100
AcDbSymbolTable
 70
     1
  0
LTYPE
  5
14
330
5
100
AcDbSymbolTableRecord
100
AcDbLinetypeTableRecord
  2
ByBlock
 70
     0
  3

 72
    65
 73
     0
 40
0.0
  0
LTYPE
  5
15
330
5
100
AcDbSymbolTableRecord
100
AcDbLinetypeTableRecord
  2
ByLayer
 70
     0
  3

 72
    65
 73
     0
 40
0.0
  0
LTYPE
  5
16
330
5
100
AcDbSymbolTableRecord
100
AcDbLinetypeTableRecord
  2
Continuous
 70
     0
  3
Solid line
 72
    65
 73
     0
 40
0.0
  0
ENDTAB
  0
TABLE
  2
LAYER
  5
2
330
0
100
AcDbSymbolTable
 70
     3
  0
LAYER
  5
10
330
2
100
AcDbSymbolTableRecord
100
AcDbLayerTableRecord
  2
0
 70
     0
 62
     7
  6
Continuous
370
    -3
390
F
347
3E
  0
LAYER
  5
40
330
2
100
AcDbSymbolTableRecord
100
AcDbLayerTableRecord
  2
Layer 1
 70
     0
 62
     7
  6
Continuous
370
    -3
390
F
347
3E
  0
LAYER
  5
137
330
2
100
AcDbSymbolTableRecord
100
AcDbLayerTableRecord
  2
Layer 3
 70
     0
 62
     7
  6
Continuous
370
    -3
390
F
347
3E
  0
ENDTAB
  0
TABLE
  2
STYLE
  5
3
330
0
100
AcDbSymbolTable
 70
     1
  0
STYLE
  5
11
330
3
100
AcDbSymbolTableRecord
100
AcDbTextStyleTableRecord
  2
Standard
 70
     0
 40
0.0
 41
1.0
 50
0.0
 71
     0
 42
0.2
  3
txt
  4

  0
ENDTAB
  0
TABLE
  2
VIEW
  5
6
330
0
100
AcDbSymbolTable
 70
     0
  0
ENDTAB
  0
TABLE
  2
UCS
  5
7
330
0
100
AcDbSymbolTable
 70
     0
  0
ENDTAB
  0
TABLE
  2
APPID
  5
9
330
0
100
AcDbSymbolTable
 70
     1
  0
APPID
  5
12
330
9
100
AcDbSymbolTableRecord
100
AcDbRegAppTableRecord
  2
ACAD
 70
     0
  0
ENDTAB
  0
TABLE
  2
DIMSTYLE
  5
A
330
0
100
AcDbSymbolTable
 70
     1
100
AcDbDimStyleTable
  0
DIMSTYLE
105
27
330
A
100
AcDbSymbolTableRecord
100
AcDbDimStyleTableRecord
  2
Standard
 70
     0
178
     0
340
11
  0
ENDTAB
  0
TABLE
  2
BLOCK_RECORD
  5
1
330
0
100
AcDbSymbolTable
 70
    14
  0
BLOCK_RECORD
  5
1F
330
1
100
AcDbSymbolTableRecord
100
AcDbBlockTableRecord
  2
*Model_Space
340
22
 70
     0
280
     1
281
     0
  0
BLOCK_RECORD
  5
1B
330
1
100
AcDbSymbolTableRecord
100
AcDbBlockTableRecord
  2
*Paper_Space
340
1E
 70
     0
280
     1
281
     0
  0
BLOCK_RECORD
  5
23
330
1
100
AcDbSymbolTableRecord
100
AcDbBlockTableRecord
  2
*Paper_Space0
340
26
 70
     0
280
     1
281
     0
  0
BLOCK_RECORD
  5
67
330
1
100
AcDbSymbolTableRecord
100
AcDbBlockTableRecord
  2
block 2
340
0
102
{BLKREFS
331
68
102
}
 70
     0
280
     1
281
     0
  0
BLOCK_RECORD
  5
6B
330
1
100
AcDbSymbolTableRecord
100
AcDbBlockTableRecord
  2
block 3
340
0
102
{BLKREFS
331
6C
102
}
 70
     0
280
     1
281
     0
  0
BLOCK_RECORD
  5
9F
330
1
100
AcDbSymbolTableRecord
100
AcDbBlockTableRecord
  2
block 4
340
0
102
{BLKREFS
331
A0
102
}
 70
     0
280
     1
281
     0
  0
BLOCK_RECORD
  5
A3
330
1
100
AcDbSymbolTableRecord
100
AcDbBlockTableRecord
  2
block 5
340
0
102
{BLKREFS
331
A4
102
}
 70
     0
280
     1
281
     0
  0
BLOCK_RECORD
  5
C0
330
1
100
AcDbSymbolTableRecord
100
AcDbBlockTableRecord
  2
block 6
340
0
102
{BLKREFS
331
C1
102
}
 70
     0
280
     1
281
     0
  0
BLOCK_RECORD
  5
D2
330
1
100
AcDbSymbolTableRecord
100
AcDbBlockTableRecord
  2
block 7
340
0
102
{BLKREFS
331
D3
102
}
 70
     0
280
     1
281
     0
  0
BLOCK_RECORD
  5
155
330
1
100
AcDbSymbolTableRecord
100
AcDbBlockTableRecord
  2
block 8
340
0
102
{BLKREFS
331
156
102
}
 70
     0
280
     1
281
     0
  0
BLOCK_RECORD
  5
159
330
1
100
AcDbSymbolTableRecord
100
AcDbBlockTableRecord
  2
block 9
340
0
102
{BLKREFS
331
15A
102
}
 70
     0
280
     1
281
     0
  0
BLOCK_RECORD
  5
169
330
1
100
AcDbSymbolTableRecord
100
AcDbBlockTableRecord
  2
block 10
340
0
102
{BLKREFS
331
16A
102
}
 70
     0
280
     1
281
     0
  0
BLOCK_RECORD
  5
181
330
1
100
AcDbSymbolTableRecord
100
AcDbBlockTableRecord
  2
block 11
340
0
102
{BLKREFS
331
182
102
}
 70
     0
280
     1
281
     0
  0
BLOCK_RECORD
  5
187
330
1
100
AcDbSymbolTableRecord
100
AcDbBlockTableRecord
  2
block 12
340
0
102
{BLKREFS
331
188
102
}
 70
     0
280
     1
281
     0
  0
BLOCK_RECORD
  5
19F
330
1
100
AcDbSymbolTableRecord
100
AcDbBlockTableRecord
  2
block 13
340
0
102
{BLKREFS
331
1A0
102
}
 70
     0
280
     1
281
     0
  0
BLOCK_RECORD
  5
1A5
330
1
100
AcDbSymbolTableRecord
100
AcDbBlockTableRecord
  2
block 14
340
0
102
{BLKREFS
331
1A6
102
}
 70
     0
280
     1
281
     0
  0
ENDTAB
  0
ENDSEC
  0
SECTION
  2
BLOCKS
  0
BLOCK
  5
20
330
1F
100
AcDbEntity
  8
0
100
AcDbBlockBegin
  2
*Model_Space
 70
     0
 10
0.0
 20
0.0
 30
0.0
  3
*Model_Space
  1

  0
ENDBLK
  5
21
330
1F
100
AcDbEntity
  8
0
100
AcDbBlockEnd
  0
BLOCK
  5
1C
330
1B
100
AcDbEntity
 67
     1
  8
0
100
AcDbBlockBegin
  2
*Paper_Space
 70
     0
 10
0.0
 20
0.0
 30
0.0
  3
*Paper_Space
  1

  0
ENDBLK
  5
1D
330
1B
100
AcDbEntity
 67
     1
  8
0
100
AcDbBlockEnd
  0
BLOCK
  5
24
330
23
100
AcDbEntity
  8
0
100
AcDbBlockBegin
  2
*Paper_Space0
 70
     0
 10
0.0
 20
0.0
 30
0.0
  3
*Paper_Space0
  1

  0
ENDBLK
  5
25
330
23
100
AcDbEntity
  8
0
100
AcDbBlockEnd
  0
BLOCK
  5
69
330
67
100
AcDbEntity
  8
0
100
AcDbBlockBegin
  2
block 2
 70
     0
 10
0.0
 20
0.0
 30
0.0
  3
block 2
  1

  0
INSERT
  5
6C
330
67
100
AcDbEntity
  8
Layer 1
100
AcDbBlockReference
  2
block 3
 10
0.0
 20
0.0
 30
0.0
  0
POLYLINE
  5
7F
330
67
100
AcDbEntity
  8
Layer 1
 62
   250
420
  2301728
370
    15
100
AcDb2dPolyline
 66
     1
 10
0.0
 20
0.0
 30
0.0
  0
VERTEX
  5
80
330
7F
100
AcDbEntity
  8
Layer 1
 62
   250
420
  2301728
370
    15
100
AcDbVertex
100
AcDb2dVertex
 10
6.11550540106489
 20
6.248541666666672
 30
0.0
  0
VERTEX
  5
81
330
7F
100
AcDbEntity
  8
Layer 1
 62
   250
420
  2301728
370
    15
100
AcDbVertex
100
AcDb2dVertex
 10
6.238213731298351
 20
6.313015118297598
 30
0.0
  0
SEQEND
  5
82
330
7F
100
AcDbEntity
  8
Layer 1
 62
   250
420
  2301728
370
    15
  0
POLYLINE
  5
83
330
67
100
AcDbEntity
  8
Layer 1
 62
   250
420
  2301728
370
    15
100
AcDb2dPolyline
 66
     1
 10
0.0
 20
0.0
 30
0.0
  0
VERTEX
  5
84
330
83
100
AcDbEntity
  8
Layer 1
 62
   250
420
  2301728
370
    15
100
AcDbVertex
100
AcDb2dVertex
 10
5.827922074996523
 20
6.097424845966088
 30
0.0
  0
VERTEX
  5
85
330
83
100
AcDbEntity
  8
Layer 1
 62
   250
420
  2301728
370
    15
100
AcDbVertex
100
AcDb2dVertex
 10
5.932291666666666
 20
6.152269289025045
 30
0.0
  0
SEQEND
  5
86
330
83
100
AcDbEntity
  8
Layer 1
 62
   250
420
  2301728
370
    15
  0
POLYLINE
  5
87
330
67
100
AcDbEntity
  8
Layer 1
370
     0
100
AcDb2dPolyline
 66
     1
 10
0.0
 20
0.0
 30
0.0
  0
VERTEX
  5
88
330
87
100
AcDbEntity
  8
Layer 1
370
     0
100
AcDbVertex
100
AcDb2dVertex
 10
5.806477631093811
 20
6.153429011217971
 30
0.0
  0
VERTEX
  5
89
330
87
100
AcDbEntity
  8
Layer 1
370
     0
100
AcDbVertex
100
AcDb2dVertex
 10
5.885267906881179
 20
6.06159845798225
 30
0.0
  0
VERTEX
  5
8A
330
87
100
AcDbEntity
  8
Layer 1
370
     0
100
AcDbVertex
100
AcDb2dVertex
 10
5.684244300848351
 20
6.014044292516902
 30
0.0
  0
VERTEX
  5
8B
330
87
100
AcDbEntity
  8
Layer 1
370
     0
100
AcDbVertex
100
AcDb2dVertex
 10
5.806477631093811
 20
6.153429011217971
 30
0.0
  0
SEQEND
  5
8D
330
87
100
AcDbEntity
  8
Layer 1
370
     0
  0
HATCH
  5
8C
330
67
100
AcDbEntity
  8
Layer 1
 62
   250
420
  2301728
100
AcDbHatch
 10
0.0
 20
0.0
 30
0.0
210
0.0
220
0.0
230
1.0
  2
SOLID
 70
     1
 71
     0
 91
        1
 92
        1
 93
        3
 72
     1
 10
5.806477631093811
 20
6.153429011217971
 11
5.885267906881179
 21
6.06159845798225
 72
     1
 10
5.885267906881179
 20
6.06159845798225
 11
5.684244300848351
 21
6.014044292516903
 72
     1
 10
5.684244300848351
 20
6.014044292516902
 11
5.806477631093811
 21
6.153429011217971
 97
        0
 75
     2
 76
     1
 98
        0
  0
POLYLINE
  5
8E
330
67
100
AcDbEntity
  8
Layer 1
370
     0
100
AcDb2dPolyline
 66
     1
 10
0.0
 20
0.0
 30
0.0
  0
VERTEX
  5
8F
330
8E
100
AcDbEntity
  8
Layer 1
370
     0
100
AcDbVertex
100
AcDb2dVertex
 10
6.181315121624619
 20
6.360751228202793
 30
0.0
  0
VERTEX
  5
90
330
8E
100
AcDbEntity
  8
Layer 1
370
     0
100
AcDbVertex
100
AcDb2dVertex
 10
6.267998452768147
 20
6.259704008533238
 30
0.0
  0
VERTEX
  5
91
330
8E
100
AcDbEntity
  8
Layer 1
370
     0
100
AcDbVertex
100
AcDb2dVertex
 10
6.376641505579149
 20
6.390135949682694
 30
0.0
  0
VERTEX
  5
92
330
8E
100
AcDbEntity
  8
Layer 1
370
     0
100
AcDbVertex
100
AcDb2dVertex
 10
6.181315121624619
 20
6.360751228202793
 30
0.0
  0
SEQEND
  5
94
330
8E
100
AcDbEntity
  8
Layer 1
370
     0
  0
HATCH
  5
93
330
67
100
AcDbEntity
  8
Layer 1
 62
   250
420
  2301728
100
AcDbHatch
 10
0.0
 20
0.0
 30
0.0
210
0.0
220
0.0
230
1.0
  2
SOLID
 70
     1
 71
     0
 91
        1
 92
        1
 93
        3
 72
     1
 10
6.181315121624619
 20
6.360751228202793
 11
6.267998452768148
 21
6.259704008533238
 72
     1
 10
6.267998452768147
 20
6.259704008533238
 11
6.376641505579148
 21
6.390135949682695
 72
     1
 10
6.376641505579149
 20
6.390135949682694
 11
6.181315121624619
 21
6.360751228202792
 97
        0
 75
     2
 76
     1
 98
        0
  0
ENDBLK
  5
6A
330
67
100
AcDbEntity
  8
0
100
AcDbBlockEnd
  0
BLOCK
  5
6D
330
6B
100
AcDbEntity
  8
0
100
AcDbBlockBegin
  2
block 3
 70
     0
 10
0.0
 20
0.0
 30
0.0
  3
block 3
  1

  0
POLYLINE
  5
6F
330
6B
100
AcDbEntity
  8
Layer 1
370
     0
100
AcDb2dPolyline
 66
     1
 10
0.0
 20
0.0
 30
0.0
  0
VERTEX
  5
70
330
6F
100
AcDbEntity
  8
Layer 1
370
     0
100
AcDbVertex
100
AcDb2dVertex
 10
6.026937347746752
 20
6.122144289786067
 30
0.0
  0
VERTEX
  5
71
330
6F
100
AcDbEntity
  8
Layer 1
370
     0
100
AcDbVertex
100
AcDb2dVertex
 10
6.012016514790351
 20
6.114324845539159
 30
0.0
  0
VERTEX
  5
72
330
6F
100
AcDbEntity
  8
Layer 1
370
     0
100
AcDbVertex
100
AcDb2dVertex
 10
5.917751239393914
 20
6.224216509429728
 30
0.0
  0
VERTEX
  5
73
330
6F
100
AcDbEntity
  8
Layer 1
370
     0
100
AcDbVertex
100
AcDb2dVertex
 10
5.994181793018671
 20
6.264234563974342
 30
0.0
  0
VERTEX
  5
74
330
6F
100
AcDbEntity
  8
Layer 1
370
     0
100
AcDbVertex
100
AcDb2dVertex
 10
6.005466514955818
 20
6.251077619862283
 30
0.0
  0
VERTEX
  5
75
330
6F
100
AcDbEntity
  8
Layer 1
370
     0
100
AcDbVertex
100
AcDb2dVertex
 10
5.943955405398608
 20
6.218872065120295
 30
0.0
  0
VERTEX
  5
76
330
6F
100
AcDbEntity
  8
Layer 1
370
     0
100
AcDbVertex
100
AcDb2dVertex
 10
5.972845682446556
 20
6.185194444444442
 30
0.0
  0
VERTEX
  5
77
330
6F
100
AcDbEntity
  8
Layer 1
370
     0
100
AcDbVertex
100
AcDb2dVertex
 10
6.026977625523513
 20
6.213541666666666
 30
0.0
  0
VERTEX
  5
78
330
6F
100
AcDbEntity
  8
Layer 1
370
     0
100
AcDbVertex
100
AcDb2dVertex
 10
6.038276236349197
 20
6.20037762114306
 30
0.0
  0
VERTEX
  5
79
330
6F
100
AcDbEntity
  8
Layer 1
370
     0
100
AcDbVertex
100
AcDb2dVertex
 10
5.98414429327224
 20
6.172037344081218
 30
0.0
  0
VERTEX
  5
7A
330
6F
100
AcDbEntity
  8
Layer 1
370
     0
100
AcDbVertex
100
AcDb2dVertex
 10
6.026937347746752
 20
6.122144289786067
 30
0.0
  0
SEQEND
  5
7B
330
6F
100
AcDbEntity
  8
Layer 1
370
     0
  0
HATCH
  5
7C
330
6B
100
AcDbEntity
  8
Layer 1
 62
   250
420
  2301728
100
AcDbHatch
 10
0.0
 20
0.0
 30
0.0
210
0.0
220
0.0
230
1.0
  2
SOLID
 70
     1
 71
     0
 91
        1
 92
        1
 93
       10
 72
     1
 10
6.026937347746752
 20
6.122144289786067
 11
6.012016514790351
 21
6.114324845539159
 72
     1
 10
6.012016514790351
 20
6.114324845539159
 11
5.917751239393914
 21
6.224216509429728
 72
     1
 10
5.917751239393914
 20
6.224216509429728
 11
5.994181793018671
 21
6.264234563974342
 72
     1
 10
5.994181793018671
 20
6.264234563974342
 11
6.005466514955818
 21
6.251077619862283
 72
     1
 10
6.005466514955818
 20
6.251077619862283
 11
5.943955405398608
 21
6.218872065120295
 72
     1
 10
5.943955405398608
 20
6.218872065120295
 11
5.972845682446556
 21
6.185194444444442
 72
     1
 10
5.972845682446556
 20
6.185194444444442
 11
6.026977625523513
 21
6.213541666666666
 72
     1
 10
6.026977625523513
 20
6.213541666666666
 11
6.038276236349197
 21
6.20037762114306
 72
     1
 10
6.038276236349197
 20
6.20037762114306
 11
5.98414429327224
 21
6.172037344081218
 72
     1
 10
5.98414429327224
 20
6.172037344081218
 11
6.026937347746752
 21
6.122144289786067
 97
        0
 75
     2
 76
     1
 98
        0
  0
SPLINE
  5
7D
330
6B
100
AcDbEntity
  8
Layer 1
370
     0
100
AcDbSpline
210
0.0
220
0.0
230
1.0
 70
    11
 71
     3
 72
    47
 73
    43
 74
     0
 42
0.0000000001
 43
0.0000000001
 12
1.0
 22
0.0
 32
0.0
 13
1.0
 23
0.0
 33
0.0
 40
0.0
 40
0.0
 40
0.0
 40
0.0
 40
1.0
 40
1.0
 40
1.0
 40
2.0
 40
2.0
 40
2.0
 40
3.0
 40
3.0
 40
3.0
 40
4.0
 40
4.0
 40
4.0
 40
5.0
 40
5.0
 40
5.0
 40
6.0
 40
6.0
 40
6.0
 40
7.0
 40
7.0
 40
7.0
 40
8.0
 40
8.0
 40
8.0
 40
9.0
 40
9.0
 40
9.0
 40
10.0
 40
10.0
 40
10.0
 40
11.0
 40
11.0
 40
11.0
 40
12.0
 40
12.0
 40
12.0
 40
13.0
 40
13.0
 40
13.0
 40
14.0
 40
14.0
 40
14.0
 40
14.0
 10
6.06560540232547
 20
6.16848456639319
 30
0.0
 10
6.035549847529182
 20
6.203531787730046
 30
0.0
 10
6.058213735845533
 20
6.220492898412683
 30
0.0
 10
6.069891513328305
 20
6.226616509369099
 30
0.0
 10
6.088649846187764
 20
6.236435953565483
 30
0.0
 10
6.114094289989427
 20
6.232231787005023
 30
0.0
 10
6.131292900666065
 20
6.212179009733821
 30
0.0
 10
6.147840122470269
 20
6.192898454665333
 30
0.0
 10
6.142048455949912
 20
6.178106788372335
 30
0.0
 10
6.133247067283365
 20
6.161079011024715
 30
0.0
 10
6.133247067283365
 20
6.161079011024715
 30
0.0
 10
6.127279011878575
 20
6.149088733549838
 30
0.0
 10
6.127279011878575
 20
6.149088733549838
 30
0.0
 10
6.119466512075936
 20
6.133247067283365
 30
0.0
 10
6.123466511974887
 20
6.123141511983097
 30
0.0
 10
6.126383178567872
 20
6.118679012095829
 30
0.0
 10
6.126383178567872
 20
6.118679012095829
 30
0.0
 10
6.185126232639454
 20
6.149434566874434
 30
0.0
 10
6.185126232639454
 20
6.149434566874434
 30
0.0
 10
6.185126232639454
 20
6.149434566874434
 30
0.0
 10
6.196031787919511
 20
6.136724844973287
 30
0.0
 10
6.196031787919511
 20
6.136724844973287
 30
0.0
 10
6.196031787919511
 20
6.136724844973287
 30
0.0
 10
6.122070678676815
 20
6.098008179284685
 30
0.0
 10
6.122070678676815
 20
6.098008179284685
 30
0.0
 10
6.103665123586223
 20
6.120754012043411
 30
0.0
 10
6.103569444444449
 20
6.138006789385346
 30
0.0
 10
6.110798456739354
 20
6.15399845564803
 30
0.0
 10
6.110798456739354
 20
6.15399845564803
 30
0.0
 10
6.118015123223712
 20
6.169745677472443
 30
0.0
 10
6.118015123223712
 20
6.169745677472443
 30
0.0
 10
6.123901234186127
 20
6.182366510486948
 30
0.0
 10
6.128390122961617
 20
6.191148454709542
 30
0.0
 10
6.116319444444444
 20
6.205234565464807
 30
0.0
 10
6.108967901230042
 20
6.213799843026209
 30
0.0
 10
6.09411651271633
 20
6.221774842824756
 30
0.0
 10
6.078273457561004
 20
6.213473454145565
 30
0.0
 10
6.057820680299907
 20
6.202765121082747
 30
0.0
 10
6.073174846578695
 20
6.183308177129839
 30
0.0
 10
6.079141513094631
 20
6.175570677325291
 30
0.0
 10
6.079141513094631
 20
6.175570677325291
 30
0.0
 10
6.06560540232547
 20
6.16848456639319
 30
0.0
 10
6.06560540232547
 20
6.16848456639319
 30
0.0
  0
HATCH
  5
7E
330
6B
100
AcDbEntity
  8
Layer 1
 62
   250
420
  2301728
100
AcDbHatch
 10
0.0
 20
0.0
 30
0.0
210
0.0
220
0.0
230
1.0
  2
SOLID
 70
     1
 71
     0
 91
        1
 92
        1
 93
        1
 72
     4
 94
        3
 73
     0
 74
     1
 95
       47
 96
       43
 40
0.0
 40
0.0
 40
0.0
 40
0.0
 40
1.0
 40
1.0
 40
1.0
 40
2.0
 40
2.0
 40
2.0
 40
3.0
 40
3.0
 40
3.0
 40
4.0
 40
4.0
 40
4.0
 40
5.0
 40
5.0
 40
5.0
 40
6.0
 40
6.0
 40
6.0
 40
7.0
 40
7.0
 40
7.0
 40
8.0
 40
8.0
 40
8.0
 40
9.0
 40
9.0
 40
9.0
 40
10.0
 40
10.0
 40
10.0
 40
11.0
 40
11.0
 40
11.0
 40
12.0
 40
12.0
 40
12.0
 40
13.0
 40
13.0
 40
13.0
 40
14.0
 40
14.0
 40
14.0
 40
14.0
 10
6.06560540232547
 20
6.16848456639319
 10
6.035549847529182
 20
6.203531787730046
 10
6.058213735845533
 20
6.220492898412683
 10
6.069891513328305
 20
6.226616509369099
 10
6.088649846187764
 20
6.236435953565483
 10
6.114094289989427
 20
6.232231787005023
 10
6.131292900666065
 20
6.212179009733821
 10
6.147840122470269
 20
6.192898454665333
 10
6.142048455949912
 20
6.178106788372335
 10
6.133247067283365
 20
6.161079011024715
 10
6.133247067283365
 20
6.161079011024715
 10
6.127279011878575
 20
6.149088733549838
 10
6.127279011878575
 20
6.149088733549838
 10
6.119466512075936
 20
6.133247067283365
 10
6.123466511974887
 20
6.123141511983097
 10
6.126383178567872
 20
6.118679012095829
 10
6.126383178567872
 20
6.118679012095829
 10
6.185126232639454
 20
6.149434566874434
 10
6.185126232639454
 20
6.149434566874434
 10
6.185126232639454
 20
6.149434566874434
 10
6.196031787919511
 20
6.136724844973287
 10
6.196031787919511
 20
6.136724844973287
 10
6.196031787919511
 20
6.136724844973287
 10
6.122070678676815
 20
6.098008179284685
 10
6.122070678676815
 20
6.098008179284685
 10
6.103665123586223
 20
6.120754012043411
 10
6.103569444444449
 20
6.138006789385346
 10
6.110798456739354
 20
6.15399845564803
 10
6.110798456739354
 20
6.15399845564803
 10
6.118015123223712
 20
6.169745677472443
 10
6.118015123223712
 20
6.169745677472443
 10
6.123901234186127
 20
6.182366510486948
 10
6.128390122961617
 20
6.191148454709542
 10
6.116319444444444
 20
6.205234565464807
 10
6.108967901230042
 20
6.213799843026209
 10
6.09411651271633
 20
6.221774842824756
 10
6.078273457561004
 20
6.213473454145565
 10
6.057820680299907
 20
6.202765121082747
 10
6.073174846578695
 20
6.183308177129839
 10
6.079141513094631
 20
6.175570677325291
 10
6.079141513094631
 20
6.175570677325291
 10
6.06560540232547
 20
6.16848456639319
 10
6.06560540232547
 20
6.16848456639319
 97
        0
 97
        0
 75
     2
 76
     1
 98
        0
  0
ENDBLK
  5
6E
330
6B
100
AcDbEntity
  8
0
100
AcDbBlockEnd
  0
BLOCK
  5
A1
330
9F
100
AcDbEntity
  8
0
100
AcDbBlockBegin
  2
block 4
 70
     0
 10
0.0
 20
0.0
 30
0.0
  3
block 4
  1

  0
INSERT
  5
A4
330
9F
100
AcDbEntity
  8
Layer 1
100
AcDbBlockReference
  2
block 5
 10
0.0
 20
0.0
 30
0.0
  0
POLYLINE
  5
B5
330
9F
100
AcDbEntity
  8
Layer 1
 62
   250
420
  2301728
370
    15
100
AcDb2dPolyline
 66
     1
 10
0.0
 20
0.0
 30
0.0
  0
VERTEX
  5
B6
330
B5
100
AcDbEntity
  8
Layer 1
 62
   250
420
  2301728
370
    15
100
AcDbVertex
100
AcDb2dVertex
 10
2.895447149077073
 20
5.273166666666662
 30
0.0
  0
VERTEX
  5
B7
330
B5
100
AcDbEntity
  8
Layer 1
 62
   250
420
  2301728
370
    15
100
AcDbVertex
100
AcDb2dVertex
 10
3.023383256956246
 20
5.219820701469567
 30
0.0
  0
SEQEND
  5
B8
330
B5
100
AcDbEntity
  8
Layer 1
 62
   250
420
  2301728
370
    15
  0
POLYLINE
  5
B9
330
9F
100
AcDbEntity
  8
Layer 1
370
     0
100
AcDb2dPolyline
 66
     1
 10
0.0
 20
0.0
 30
0.0
  0
VERTEX
  5
BA
330
B9
100
AcDbEntity
  8
Layer 1
370
     0
100
AcDbVertex
100
AcDb2dVertex
 10
3.02383742361144
 20
5.294080421815831
 30
0.0
  0
VERTEX
  5
BB
330
B9
100
AcDbEntity
  8
Layer 1
370
     0
100
AcDbVertex
100
AcDb2dVertex
 10
3.001349924179522
 20
5.162869314019392
 30
0.0
  0
VERTEX
  5
BC
330
B9
100
AcDbEntity
  8
Layer 1
370
     0
100
AcDbVertex
100
AcDb2dVertex
 10
3.171094364335861
 20
5.162434591808151
 30
0.0
  0
VERTEX
  5
BD
330
B9
100
AcDbEntity
  8
Layer 1
370
     0
100
AcDbVertex
100
AcDb2dVertex
 10
3.02383742361144
 20
5.294080421815831
 30
0.0
  0
SEQEND
  5
BF
330
B9
100
AcDbEntity
  8
Layer 1
370
     0
  0
HATCH
  5
BE
330
9F
100
AcDbEntity
  8
Layer 1
 62
   250
420
  2301728
100
AcDbHatch
 10
0.0
 20
0.0
 30
0.0
210
0.0
220
0.0
230
1.0
  2
SOLID
 70
     1
 71
     0
 91
        1
 92
        1
 93
        3
 72
     1
 10
3.02383742361144
 20
5.294080421815831
 11
3.001349924179522
 21
5.162869314019392
 72
     1
 10
3.001349924179522
 20
5.162869314019392
 11
3.171094364335861
 21
5.162434591808151
 72
     1
 10
3.171094364335861
 20
5.162434591808151
 11
3.02383742361144
 21
5.294080421815831
 97
        0
 75
     2
 76
     1
 98
        0
  0
INSERT
  5
C1
330
9F
100
AcDbEntity
  8
Layer 1
100
AcDbBlockReference
  2
block 6
 10
0.0
 20
0.0
 30
0.0
  0
ENDBLK
  5
A2
330
9F
100
AcDbEntity
  8
0
100
AcDbBlockEnd
  0
BLOCK
  5
A5
330
A3
100
AcDbEntity
  8
0
100
AcDbBlockBegin
  2
block 5
 70
     0
 10
0.0
 20
0.0
 30
0.0
  3
block 5
  1

  0
POLYLINE
  5
A7
330
A3
100
AcDbEntity
  8
Layer 1
370
     0
100
AcDb2dPolyline
 66
     1
 10
0.0
 20
0.0
 30
0.0
  0
VERTEX
  5
A8
330
A7
100
AcDbEntity
  8
Layer 1
370
     0
100
AcDbVertex
100
AcDb2dVertex
 10
2.741611111111107
 20
5.288479033068445
 30
0.0
  0
VERTEX
  5
A9
330
A7
100
AcDbEntity
  8
Layer 1
370
     0
100
AcDbVertex
100
AcDb2dVertex
 10
2.726080486688968
 20
5.294990144015072
 30
0.0
  0
VERTEX
  5
AA
330
A7
100
AcDbEntity
  8
Layer 1
370
     0
100
AcDbVertex
100
AcDb2dVertex
 10
2.750542986070994
 20
5.437690140410167
 30
0.0
  0
VERTEX
  5
AB
330
A7
100
AcDbEntity
  8
Layer 1
370
     0
100
AcDbVertex
100
AcDb2dVertex
 10
2.830112428505345
 20
5.404365141252027
 30
0.0
  0
VERTEX
  5
AC
330
A7
100
AcDbEntity
  8
Layer 1
370
     0
100
AcDbVertex
100
AcDb2dVertex
 10
2.827188817468103
 20
5.387288752794524
 30
0.0
  0
VERTEX
  5
AD
330
A7
100
AcDbEntity
  8
Layer 1
370
     0
100
AcDbVertex
100
AcDb2dVertex
 10
2.76314993019696
 20
5.414090141006353
 30
0.0
  0
VERTEX
  5
AE
330
A7
100
AcDbEntity
  8
Layer 1
370
     0
100
AcDbVertex
100
AcDb2dVertex
 10
2.755648541497572
 20
5.370361111111101
 30
0.0
  0
VERTEX
  5
AF
330
A7
100
AcDbEntity
  8
Layer 1
370
     0
100
AcDbVertex
100
AcDb2dVertex
 10
2.812011040073735
 20
5.346774864929102
 30
0.0
  0
VERTEX
  5
B0
330
A7
100
AcDbEntity
  8
Layer 1
370
     0
100
AcDbVertex
100
AcDb2dVertex
 10
2.809081873481066
 20
5.329670698694523
 30
0.0
  0
VERTEX
  5
B1
330
A7
100
AcDbEntity
  8
Layer 1
370
     0
100
AcDbVertex
100
AcDb2dVertex
 10
2.752719374904902
 20
5.353270698098337
 30
0.0
  0
VERTEX
  5
B2
330
A7
100
AcDbEntity
  8
Layer 1
370
     0
100
AcDbVertex
100
AcDb2dVertex
 10
2.741611111111107
 20
5.288479033068445
 30
0.0
  0
SEQEND
  5
B3
330
A7
100
AcDbEntity
  8
Layer 1
370
     0
  0
HATCH
  5
B4
330
A3
100
AcDbEntity
  8
Layer 1
 62
   250
420
  2301728
100
AcDbHatch
 10
0.0
 20
0.0
 30
0.0
210
0.0
220
0.0
230
1.0
  2
SOLID
 70
     1
 71
     0
 91
        1
 92
        1
 93
       10
 72
     1
 10
2.741611111111107
 20
5.288479033068445
 11
2.726080486688968
 21
5.294990144015072
 72
     1
 10
2.726080486688968
 20
5.294990144015072
 11
2.750542986070994
 21
5.437690140410167
 72
     1
 10
2.750542986070994
 20
5.437690140410167
 11
2.830112428505345
 21
5.404365141252027
 72
     1
 10
2.830112428505345
 20
5.404365141252027
 11
2.827188817468103
 21
5.387288752794524
 72
     1
 10
2.827188817468103
 20
5.387288752794524
 11
2.76314993019696
 21
5.414090141006353
 72
     1
 10
2.76314993019696
 20
5.414090141006353
 11
2.755648541497572
 21
5.370361111111101
 72
     1
 10
2.755648541497572
 20
5.370361111111101
 11
2.812011040073735
 21
5.346774864929102
 72
     1
 10
2.812011040073735
 20
5.346774864929102
 11
2.809081873481066
 21
5.329670698694523
 72
     1
 10
2.809081873481066
 20
5.329670698694523
 11
2.752719374904902
 21
5.353270698098337
 72
     1
 10
2.752719374904902
 20
5.353270698098337
 11
2.741611111111107
 21
5.288479033068445
 97
        0
 75
     2
 76
     1
 98
        0
  0
ENDBLK
  5
A6
330
A3
100
AcDbEntity
  8
0
100
AcDbBlockEnd
  0
BLOCK
  5
C2
330
C0
100
AcDbEntity
  8
0
100
AcDbBlockBegin
  2
block 6
 70
     0
 10
0.0
 20
0.0
 30
0.0
  3
block 6
  1

  0
SPLINE
  5
C4
330
C0
100
AcDbEntity
  8
Layer 1
370
     0
100
AcDbSpline
210
0.0
220
0.0
230
1.0
 70
    11
 71
     3
 72
    26
 73
    22
 74
     0
 42
0.0000000001
 43
0.0000000001
 12
1.0
 22
0.0
 32
0.0
 13
1.0
 23
0.0
 33
0.0
 40
0.0
 40
0.0
 40
0.0
 40
0.0
 40
1.0
 40
1.0
 40
1.0
 40
2.0
 40
2.0
 40
2.0
 40
3.0
 40
3.0
 40
3.0
 40
4.0
 40
4.0
 40
4.0
 40
5.0
 40
5.0
 40
5.0
 40
6.0
 40
6.0
 40
6.0
 40
7.0
 40
7.0
 40
7.0
 40
7.0
 10
2.844617983694459
 20
5.290540144127489
 30
0.0
 10
2.844617983694459
 20
5.290540144127489
 30
0.0
 10
2.81397770669072
 20
5.295912366213997
 30
0.0
 10
2.81397770669072
 20
5.295912366213997
 30
0.0
 10
2.81397770669072
 20
5.295912366213997
 30
0.0
 10
2.816155484413482
 20
5.308362365899484
 30
0.0
 10
2.816155484413482
 20
5.308362365899484
 30
0.0
 10
2.83671798389403
 20
5.305148477091785
 30
0.0
 10
2.848687428036101
 20
5.307006810378172
 30
0.0
 10
2.854912427878844
 20
5.329020698710943
 30
0.0
 10
2.854912427878844
 20
5.329020698710943
 30
0.0
 10
2.867356872008915
 20
5.326835976543912
 30
0.0
 10
2.867356872008915
 20
5.326835976543912
 30
0.0
 10
2.867356872008915
 20
5.326835976543912
 30
0.0
 10
2.84220409486655
 20
5.18318736906167
 30
0.0
 10
2.84220409486655
 20
5.18318736906167
 30
0.0
 10
2.84220409486655
 20
5.18318736906167
 30
0.0
 10
2.826306873045926
 20
5.185966535658129
 30
0.0
 10
2.826306873045926
 20
5.185966535658129
 30
0.0
 10
2.826306873045926
 20
5.185966535658129
 30
0.0
 10
2.844617983694459
 20
5.290540144127489
 30
0.0
 10
2.844617983694459
 20
5.290540144127489
 30
0.0
  0
HATCH
  5
C5
330
C0
100
AcDbEntity
  8
Layer 1
 62
   250
420
  2301728
100
AcDbHatch
 10
0.0
 20
0.0
 30
0.0
210
0.0
220
0.0
230
1.0
  2
SOLID
 70
     1
 71
     0
 91
        1
 92
        1
 93
        1
 72
     4
 94
        3
 73
     0
 74
     1
 95
       26
 96
       22
 40
0.0
 40
0.0
 40
0.0
 40
0.0
 40
1.0
 40
1.0
 40
1.0
 40
2.0
 40
2.0
 40
2.0
 40
3.0
 40
3.0
 40
3.0
 40
4.0
 40
4.0
 40
4.0
 40
5.0
 40
5.0
 40
5.0
 40
6.0
 40
6.0
 40
6.0
 40
7.0
 40
7.0
 40
7.0
 40
7.0
 10
2.844617983694459
 20
5.290540144127489
 10
2.844617983694459
 20
5.290540144127489
 10
2.81397770669072
 20
5.295912366213997
 10
2.81397770669072
 20
5.295912366213997
 10
2.81397770669072
 20
5.295912366213997
 10
2.816155484413482
 20
5.308362365899484
 10
2.816155484413482
 20
5.308362365899484
 10
2.83671798389403
 20
5.305148477091785
 10
2.848687428036101
 20
5.307006810378172
 10
2.854912427878844
 20
5.329020698710943
 10
2.854912427878844
 20
5.329020698710943
 10
2.867356872008915
 20
5.326835976543912
 10
2.867356872008915
 20
5.326835976543912
 10
2.867356872008915
 20
5.326835976543912
 10
2.84220409486655
 20
5.18318736906167
 10
2.84220409486655
 20
5.18318736906167
 10
2.84220409486655
 20
5.18318736906167
 10
2.826306873045926
 20
5.185966535658129
 10
2.826306873045926
 20
5.185966535658129
 10
2.826306873045926
 20
5.185966535658129
 10
2.844617983694459
 20
5.290540144127489
 10
2.844617983694459
 20
5.290540144127489
 97
        0
 97
        0
 75
     2
 76
     1
 98
        0
  0
ENDBLK
  5
C3
330
C0
100
AcDbEntity
  8
0
100
AcDbBlockEnd
  0
BLOCK
  5
D4
330
D2
100
AcDbEntity
  8
0
100
AcDbBlockBegin
  2
block 7
 70
     0
 10
0.0
 20
0.0
 30
0.0
  3
block 7
  1

  0
POLYLINE
  5
D6
330
D2
100
AcDbEntity
  8
Layer 1
 62
   250
420
  2301728
370
    25
100
AcDb2dPolyline
 66
     1
 10
0.0
 20
0.0
 30
0.0
  0
VERTEX
  5
D7
330
D6
100
AcDbEntity
  8
Layer 1
 62
   250
420
  2301728
370
    25
100
AcDbVertex
100
AcDb2dVertex
 10
4.219455448963142
 20
5.296684588416711
 30
0.0
  0
VERTEX
  5
D8
330
D6
100
AcDbEntity
  8
Layer 1
 62
   250
420
  2301728
370
    25
100
AcDbVertex
100
AcDb2dVertex
 10
4.263766558954861
 20
5.311210976938633
 30
0.0
  0
SEQEND
  5
D9
330
D6
100
AcDbEntity
  8
Layer 1
 62
   250
420
  2301728
370
    25
  0
POLYLINE
  5
DA
330
D2
100
AcDbEntity
  8
Layer 1
 62
   250
420
  2301728
370
    18
100
AcDb2dPolyline
 66
     1
 10
0.0
 20
0.0
 30
0.0
  0
VERTEX
  5
DB
330
DA
100
AcDbEntity
  8
Layer 1
 62
   250
420
  2301728
370
    18
100
AcDbVertex
100
AcDb2dVertex
 10
4.252916666666667
 20
5.283134588759013
 30
0.0
  0
VERTEX
  5
DC
330
DA
100
AcDbEntity
  8
Layer 1
 62
   250
420
  2301728
370
    18
100
AcDbVertex
100
AcDb2dVertex
 10
4.297241558109211
 20
5.297660977280935
 30
0.0
  0
SEQEND
  5
DD
330
DA
100
AcDbEntity
  8
Layer 1
 62
   250
420
  2301728
370
    18
  0
POLYLINE
  5
DE
330
D2
100
AcDbEntity
  8
Layer 1
 62
   250
420
  2301728
370
    18
100
AcDb2dPolyline
 66
     1
 10
0.0
 20
0.0
 30
0.0
  0
VERTEX
  5
DF
330
DE
100
AcDbEntity
  8
Layer 1
 62
   250
420
  2301728
370
    18
100
AcDbVertex
100
AcDb2dVertex
 10
4.263265170078638
 20
5.22820403459112
 30
0.0
  0
VERTEX
  5
E0
330
DE
100
AcDbEntity
  8
Layer 1
 62
   250
420
  2301728
370
    18
100
AcDbVertex
100
AcDb2dVertex
 10
4.307576280070356
 20
5.242702645335966
 30
0.0
  0
SEQEND
  5
E1
330
DE
100
AcDbEntity
  8
Layer 1
 62
   250
420
  2301728
370
    18
  0
POLYLINE
  5
E2
330
D2
100
AcDbEntity
  8
Layer 1
 62
   250
420
  2301728
370
    25
100
AcDb2dPolyline
 66
     1
 10
0.0
 20
0.0
 30
0.0
  0
VERTEX
  5
E3
330
E2
100
AcDbEntity
  8
Layer 1
 62
   250
420
  2301728
370
    25
100
AcDbVertex
100
AcDb2dVertex
 10
4.244940170541566
 20
5.206691535134572
 30
0.0
  0
VERTEX
  5
E4
330
E2
100
AcDbEntity
  8
Layer 1
 62
   250
420
  2301728
370
    25
100
AcDbVertex
100
AcDb2dVertex
 10
4.289252669422138
 20
5.221217923656493
 30
0.0
  0
SEQEND
  5
E5
330
E2
100
AcDbEntity
  8
Layer 1
 62
   250
420
  2301728
370
    25
  0
SPLINE
  5
E6
330
D2
100
AcDbEntity
  8
Layer 1
 62
   250
420
  2301728
370
    35
100
AcDbSpline
210
0.0
220
0.0
230
1.0
 70
     8
 71
     3
 72
    17
 73
    13
 74
     0
 42
0.0000000001
 43
0.0000000001
 12
1.0
 22
0.0
 32
0.0
 13
1.0
 23
0.0
 33
0.0
 40
0.0
 40
0.0
 40
0.0
 40
0.0
 40
1.0
 40
1.0
 40
1.0
 40
2.0
 40
2.0
 40
2.0
 40
3.0
 40
3.0
 40
3.0
 40
4.0
 40
4.0
 40
4.0
 40
4.0
 10
4.236192948540317
 20
5.303033199367443
 30
0.0
 10
4.23857905959115
 20
5.313395699105664
 30
0.0
 10
4.244940170541566
 20
5.324558198823675
 30
0.0
 10
4.264147114500803
 20
5.328463754280569
 30
0.0
 10
4.289034613872092
 20
5.333563754151732
 30
0.0
 10
4.315226279877101
 20
5.312798476898529
 30
0.0
 10
4.323038779679741
 20
5.280245699943103
 30
0.0
 10
4.330742946151783
 20
5.247654034099772
 30
0.0
 10
4.316948502055816
 20
5.216566534885108
 30
0.0
 10
4.292181836014808
 20
5.21065277777777
 30
0.0
 10
4.284233225104495
 20
5.208780423970691
 30
0.0
 10
4.276095725310066
 20
5.209702646169616
 30
0.0
 10
4.268500000000005
 20
5.212958333333341
 30
0.0
  0
SPLINE
  5
E7
330
D2
100
AcDbEntity
  8
Layer 1
 62
   250
420
  2301728
370
    25
100
AcDbSpline
210
0.0
220
0.0
230
1.0
 70
     8
 71
     3
 72
    11
 73
     7
 74
     0
 42
0.0000000001
 43
0.0000000001
 12
1.0
 22
0.0
 32
0.0
 13
1.0
 23
0.0
 33
0.0
 40
0.0
 40
0.0
 40
0.0
 40
0.0
 40
1.0
 40
1.0
 40
1.0
 40
2.0
 40
2.0
 40
2.0
 40
2.0
 10
4.258586003530177
 20
5.310533199177977
 30
0.0
 10
4.277615169716126
 20
5.315063754619081
 30
0.0
 10
4.297919335869866
 20
5.298474866149263
 30
0.0
 10
4.303927669051417
 20
5.273383200116465
 30
0.0
 10
4.309855446679446
 20
5.248277777777781
 30
0.0
 10
4.299262391391494
 20
5.224351256910672
 30
0.0
 10
4.28019155853993
 20
5.219820701469567
 30
0.0
  0
SPLINE
  5
E8
330
D2
100
AcDbEntity
  8
Layer 1
 62
   250
420
  2301728
370
    25
100
AcDbSpline
210
0.0
220
0.0
230
1.0
 70
    11
 71
     3
 72
    17
 73
    13
 74
     0
 42
0.0000000001
 43
0.0000000001
 12
1.0
 22
0.0
 32
0.0
 13
1.0
 23
0.0
 33
0.0
 40
0.0
 40
0.0
 40
0.0
 40
0.0
 40
1.0
 40
1.0
 40
1.0
 40
2.0
 40
2.0
 40
2.0
 40
3.0
 40
3.0
 40
3.0
 40
4.0
 40
4.0
 40
4.0
 40
4.0
 10
4.26878461438365
 20
5.260213756004709
 30
0.0
 10
4.274726280900217
 20
5.235120701083057
 30
0.0
 10
4.264119336723726
 20
5.211195701687453
 30
0.0
 10
4.245049892761017
 20
5.206625000000005
 30
0.0
 10
4.225992948797991
 20
5.202120701916707
 30
0.0
 10
4.205715171532473
 20
5.218736111111108
 30
0.0
 10
4.199706838350936
 20
5.243801256419323
 30
0.0
 10
4.193738782946133
 20
5.268838755786823
 30
0.0
 10
4.204386004899384
 20
5.292833333333343
 30
0.0
 10
4.223442948862422
 20
5.297363755066221
 30
0.0
 10
4.242486111111108
 20
5.301906810507009
 30
0.0
 10
4.262790170090637
 20
5.28527777777779
 30
0.0
 10
4.26878461438365
 20
5.260213756004709
 30
0.0
  0
SPLINE
  5
E9
330
D2
100
AcDbEntity
  8
Layer 1
 62
   250
420
  2301728
370
    18
100
AcDbSpline
210
0.0
220
0.0
230
1.0
 70
    11
 71
     3
 72
    17
 73
    13
 74
     0
 42
0.0000000001
 43
0.0000000001
 12
1.0
 22
0.0
 32
0.0
 13
1.0
 23
0.0
 33
0.0
 40
0.0
 40
0.0
 40
0.0
 40
0.0
 40
1.0
 40
1.0
 40
1.0
 40
2.0
 40
2.0
 40
2.0
 40
3.0
 40
3.0
 40
3.0
 40
4.0
 40
4.0
 40
4.0
 40
4.0
 10
4.256713781355251
 20
5.257323478299946
 30
0.0
 10
4.260552670147161
 20
5.241034589822548
 30
0.0
 10
4.253662392543447
 20
5.22544986799403
 30
0.0
 10
4.241279059522943
 20
5.222506812512822
 30
0.0
 10
4.2288818376139
 20
5.219577645920152
 30
0.0
 10
4.215698504613607
 20
5.23037347898076
 30
0.0
 10
4.211791666666664
 20
5.246676256346695
 30
0.0
 10
4.207912393699189
 20
5.26293875593587
 30
0.0
 10
4.214856837968202
 20
5.278537366652927
 30
0.0
 10
4.227240170988706
 20
5.281494311022672
 30
0.0
 10
4.239597222222224
 20
5.284423477615342
 30
0.0
 10
4.25279433700982
 20
5.273640144554419
 30
0.0
 10
4.256713781355251
 20
5.257323478299946
 30
0.0
  0
ENDBLK
  5
D5
330
D2
100
AcDbEntity
  8
0
100
AcDbBlockEnd
  0
BLOCK
  5
157
330
155
100
AcDbEntity
  8
0
100
AcDbBlockBegin
  2
block 8
 70
     0
 10
0.0
 20
0.0
 30
0.0
  3
block 8
  1

  0
INSERT
  5
15A
330
155
100
AcDbEntity
  8
Layer 3
100
AcDbBlockReference
  2
block 9
 10
0.0
 20
0.0
 30
0.0
  0
INSERT
  5
16A
330
155
100
AcDbEntity
  8
Layer 3
100
AcDbBlockReference
  2
block 10
 10
0.0
 20
0.0
 30
0.0
  0
ENDBLK
  5
158
330
155
100
AcDbEntity
  8
0
100
AcDbBlockEnd
  0
BLOCK
  5
15B
330
159
100
AcDbEntity
  8
0
100
AcDbBlockBegin
  2
block 9
 70
     0
 10
0.0
 20
0.0
 30
0.0
  3
block 9
  1

  0
SPLINE
  5
15D
330
159
100
AcDbEntity
  8
Layer 3
370
     0
100
AcDbSpline
210
0.0
220
0.0
230
1.0
 70
    11
 71
     3
 72
    14
 73
    10
 74
     0
 42
0.0000000001
 43
0.0000000001
 12
1.0
 22
0.0
 32
0.0
 13
1.0
 23
0.0
 33
0.0
 40
0.0
 40
0.0
 40
0.0
 40
0.0
 40
1.0
 40
1.0
 40
1.0
 40
2.0
 40
2.0
 40
2.0
 40
3.0
 40
3.0
 40
3.0
 40
3.0
 10
4.613592939006391
 20
6.176629010631889
 30
0.0
 10
4.613592939006391
 20
6.176629010631889
 30
0.0
 10
4.610379050198692
 20
6.167697066413084
 30
0.0
 10
4.610379050198692
 20
6.167697066413084
 30
0.0
 10
4.610379050198692
 20
6.167697066413084
 30
0.0
 10
4.631808216324012
 20
6.160672066590551
 30
0.0
 10
4.631808216324012
 20
6.160672066590551
 30
0.0
 10
4.623955438744613
 20
6.163112344306683
 30
0.0
 10
4.617716550013331
 20
6.168863733050279
 30
0.0
 10
4.613592939006391
 20
6.176629010631889
 30
0.0
  0
HATCH
  5
15E
330
159
100
AcDbEntity
  8
Layer 3
 62
     9
420
 12303808
100
AcDbHatch
 10
0.0
 20
0.0
 30
0.0
210
0.0
220
0.0
230
1.0
  2
SOLID
 70
     1
 71
     0
 91
        1
 92
        1
 93
        1
 72
     4
 94
        3
 73
     0
 74
     1
 95
       14
 96
       10
 40
0.0
 40
0.0
 40
0.0
 40
0.0
 40
1.0
 40
1.0
 40
1.0
 40
2.0
 40
2.0
 40
2.0
 40
3.0
 40
3.0
 40
3.0
 40
3.0
 10
4.613592939006391
 20
6.176629010631889
 10
4.613592939006391
 20
6.176629010631889
 10
4.610379050198692
 20
6.167697066413084
 10
4.610379050198692
 20
6.167697066413084
 10
4.610379050198692
 20
6.167697066413084
 10
4.631808216324012
 20
6.160672066590551
 10
4.631808216324012
 20
6.160672066590551
 10
4.623955438744613
 20
6.163112344306683
 10
4.617716550013331
 20
6.168863733050279
 10
4.613592939006391
 20
6.176629010631889
 97
        0
 97
        0
 75
     2
 76
     1
 98
        0
  0
POLYLINE
  5
15F
330
159
100
AcDbEntity
  8
Layer 3
370
     0
100
AcDb2dPolyline
 66
     1
 10
0.0
 20
0.0
 30
0.0
  0
VERTEX
  5
160
330
15F
100
AcDbEntity
  8
Layer 3
370
     0
100
AcDbVertex
100
AcDb2dVertex
 10
4.642158216062549
 20
6.256273453064345
 30
0.0
  0
VERTEX
  5
161
330
15F
100
AcDbEntity
  8
Layer 3
370
     0
100
AcDbVertex
100
AcDb2dVertex
 10
4.659288771185351
 20
6.250665119872691
 30
0.0
  0
SEQEND
  5
162
330
15F
100
AcDbEntity
  8
Layer 3
370
     0
  0
POLYLINE
  5
163
330
159
100
AcDbEntity
  8
Layer 3
370
     0
100
AcDb2dPolyline
 66
     1
 10
0.0
 20
0.0
 30
0.0
  0
VERTEX
  5
164
330
163
100
AcDbEntity
  8
Layer 3
370
     0
100
AcDbVertex
100
AcDb2dVertex
 10
4.631808216324012
 20
6.160672066590551
 30
0.0
  0
VERTEX
  5
165
330
163
100
AcDbEntity
  8
Layer 3
370
     0
100
AcDbVertex
100
AcDb2dVertex
 10
4.610379050198692
 20
6.167697066413084
 30
0.0
  0
SEQEND
  5
166
330
163
100
AcDbEntity
  8
Layer 3
370
     0
  0
SPLINE
  5
167
330
159
100
AcDbEntity
  8
Layer 3
370
     0
100
AcDbSpline
210
0.0
220
0.0
230
1.0
 70
    11
 71
     3
 72
    44
 73
    40
 74
     0
 42
0.0000000001
 43
0.0000000001
 12
1.0
 22
0.0
 32
0.0
 13
1.0
 23
0.0
 33
0.0
 40
0.0
 40
0.0
 40
0.0
 40
0.0
 40
1.0
 40
1.0
 40
1.0
 40
2.0
 40
2.0
 40
2.0
 40
3.0
 40
3.0
 40
3.0
 40
4.0
 40
4.0
 40
4.0
 40
5.0
 40
5.0
 40
5.0
 40
6.0
 40
6.0
 40
6.0
 40
7.0
 40
7.0
 40
7.0
 40
8.0
 40
8.0
 40
8.0
 40
9.0
 40
9.0
 40
9.0
 40
10.0
 40
10.0
 40
10.0
 40
11.0
 40
11.0
 40
11.0
 40
12.0
 40
12.0
 40
12.0
 40
13.0
 40
13.0
 40
13.0
 40
13.0
 10
4.655273493509008
 20
6.251356786521884
 30
0.0
 10
4.650227660303143
 20
6.252563730935839
 30
0.0
 10
4.645101271543758
 20
6.252204008722704
 30
0.0
 10
4.640149882779951
 20
6.250684564316644
 30
0.0
 10
4.640149882779951
 20
6.250684564316644
 30
0.0
 10
4.642158216062549
 20
6.256273453064345
 30
0.0
 10
4.642158216062549
 20
6.256273453064345
 30
0.0
 10
4.642158216062549
 20
6.256273453064345
 30
0.0
 10
4.642442938277579
 20
6.257066508599867
 30
0.0
 10
4.642442938277579
 20
6.257066508599867
 30
0.0
 10
4.640041666666674
 20
6.267483175003386
 30
0.0
 10
4.633640160722178
 20
6.278713730275235
 30
0.0
 10
4.614298494544124
 20
6.282673452397425
 30
0.0
 10
4.589233217399547
 20
6.287787341157127
 30
0.0
 10
4.562866551398959
 20
6.26689984168479
 30
0.0
 10
4.555012384930706
 20
6.234090120291411
 30
0.0
 10
4.547267940681902
 20
6.201320676674792
 30
0.0
 10
4.56114294033139
 20
6.170016510798935
 30
0.0
 10
4.586085995256831
 20
6.164076233171222
 30
0.0
 10
4.594074883943904
 20
6.162163733219535
 30
0.0
 10
4.602281828181023
 20
6.163126233195221
 30
0.0
 10
4.60991793909923
 20
6.166395677557071
 30
0.0
 10
4.60991793909923
 20
6.166395677557071
 30
0.0
 10
4.610379050198692
 20
6.167697066413084
 30
0.0
 10
4.610379050198692
 20
6.167697066413084
 30
0.0
 10
4.610379050198692
 20
6.167697066413084
 30
0.0
 10
4.613592939006391
 20
6.176629010631889
 30
0.0
 10
4.613592939006391
 20
6.176629010631889
 30
0.0
 10
4.617716550013331
 20
6.168863733050279
 30
0.0
 10
4.623955438744613
 20
6.163112344306683
 30
0.0
 10
4.631808216324012
 20
6.160672066590551
 30
0.0
 10
4.63239154964261
 20
6.160495677706118
 30
0.0
 10
4.63290682740737
 20
6.160162344381206
 30
0.0
 10
4.633517938503044
 20
6.160020677718131
 30
0.0
 10
4.652709604684888
 20
6.155463733388792
 30
0.0
 10
4.67310960416954
 20
6.172187344077429
 30
0.0
 10
4.679144326239313
 20
6.197441510106121
 30
0.0
 10
4.685166666666671
 20
6.222642898358369
 30
0.0
 10
4.67443877080263
 20
6.246772064415482
 30
0.0
 10
4.655273493509008
 20
6.251356786521884
 30
0.0
  0
HATCH
  5
168
330
159
100
AcDbEntity
  8
Layer 3
 62
     9
420
 12303808
100
AcDbHatch
 10
0.0
 20
0.0
 30
0.0
210
0.0
220
0.0
230
1.0
  2
SOLID
 70
     1
 71
     0
 91
        1
 92
        1
 93
        1
 72
     4
 94
        3
 73
     0
 74
     1
 95
       44
 96
       40
 40
0.0
 40
0.0
 40
0.0
 40
0.0
 40
1.0
 40
1.0
 40
1.0
 40
2.0
 40
2.0
 40
2.0
 40
3.0
 40
3.0
 40
3.0
 40
4.0
 40
4.0
 40
4.0
 40
5.0
 40
5.0
 40
5.0
 40
6.0
 40
6.0
 40
6.0
 40
7.0
 40
7.0
 40
7.0
 40
8.0
 40
8.0
 40
8.0
 40
9.0
 40
9.0
 40
9.0
 40
10.0
 40
10.0
 40
10.0
 40
11.0
 40
11.0
 40
11.0
 40
12.0
 40
12.0
 40
12.0
 40
13.0
 40
13.0
 40
13.0
 40
13.0
 10
4.655273493509008
 20
6.251356786521884
 10
4.650227660303143
 20
6.252563730935839
 10
4.645101271543758
 20
6.252204008722704
 10
4.640149882779951
 20
6.250684564316644
 10
4.640149882779951
 20
6.250684564316644
 10
4.642158216062549
 20
6.256273453064345
 10
4.642158216062549
 20
6.256273453064345
 10
4.642158216062549
 20
6.256273453064345
 10
4.642442938277579
 20
6.257066508599867
 10
4.642442938277579
 20
6.257066508599867
 10
4.640041666666674
 20
6.267483175003386
 10
4.633640160722178
 20
6.278713730275235
 10
4.614298494544124
 20
6.282673452397425
 10
4.589233217399547
 20
6.287787341157127
 10
4.562866551398959
 20
6.26689984168479
 10
4.555012384930706
 20
6.234090120291411
 10
4.547267940681902
 20
6.201320676674792
 10
4.56114294033139
 20
6.170016510798935
 10
4.586085995256831
 20
6.164076233171222
 10
4.594074883943904
 20
6.162163733219535
 10
4.602281828181023
 20
6.163126233195221
 10
4.60991793909923
 20
6.166395677557071
 10
4.60991793909923
 20
6.166395677557071
 10
4.610379050198692
 20
6.167697066413084
 10
4.610379050198692
 20
6.167697066413084
 10
4.610379050198692
 20
6.167697066413084
 10
4.613592939006391
 20
6.176629010631889
 10
4.613592939006391
 20
6.176629010631889
 10
4.617716550013331
 20
6.168863733050279
 10
4.623955438744613
 20
6.163112344306683
 10
4.631808216324012
 20
6.160672066590551
 10
4.63239154964261
 20
6.160495677706118
 10
4.63290682740737
 20
6.160162344381206
 10
4.633517938503044
 20
6.160020677718131
 10
4.652709604684888
 20
6.155463733388792
 10
4.67310960416954
 20
6.172187344077429
 10
4.679144326239313
 20
6.197441510106121
 10
4.685166666666671
 20
6.222642898358369
 10
4.67443877080263
 20
6.246772064415482
 10
4.655273493509008
 20
6.251356786521884
 97
        0
 97
        0
 75
     2
 76
     1
 98
        0
  0
ENDBLK
  5
15C
330
159
100
AcDbEntity
  8
0
100
AcDbBlockEnd
  0
BLOCK
  5
16B
330
169
100
AcDbEntity
  8
0
100
AcDbBlockBegin
  2
block 10
 70
     0
 10
0.0
 20
0.0
 30
0.0
  3
block 10
  1

  0
POLYLINE
  5
16D
330
169
100
AcDbEntity
  8
Layer 3
 62
   250
420
  2301728
370
    25
100
AcDb2dPolyline
 66
     1
 10
0.0
 20
0.0
 30
0.0
  0
VERTEX
  5
16E
330
16D
100
AcDbEntity
  8
Layer 3
 62
   250
420
  2301728
370
    25
100
AcDbVertex
100
AcDb2dVertex
 10
4.659816548949796
 20
6.250312342103825
 30
0.0
  0
VERTEX
  5
16F
330
16D
100
AcDbEntity
  8
Layer 3
 62
   250
420
  2301728
370
    25
100
AcDbVertex
100
AcDb2dVertex
 10
4.615192938965972
 20
6.264919286179267
 30
0.0
  0
SEQEND
  5
170
330
16D
100
AcDbEntity
  8
Layer 3
 62
   250
420
  2301728
370
    25
  0
POLYLINE
  5
171
330
169
100
AcDbEntity
  8
Layer 3
 62
   250
420
  2301728
370
    18
100
AcDb2dPolyline
 66
     1
 10
0.0
 20
0.0
 30
0.0
  0
VERTEX
  5
172
330
171
100
AcDbEntity
  8
Layer 3
 62
   250
420
  2301728
370
    18
100
AcDbVertex
100
AcDb2dVertex
 10
4.626126272023106
 20
6.236680555555558
 30
0.0
  0
VERTEX
  5
173
330
171
100
AcDbEntity
  8
Layer 3
 62
   250
420
  2301728
370
    18
100
AcDbVertex
100
AcDb2dVertex
 10
4.581515162038967
 20
6.251302619856586
 30
0.0
  0
SEQEND
  5
174
330
171
100
AcDbEntity
  8
Layer 3
 62
   250
420
  2301728
370
    18
  0
POLYLINE
  5
175
330
169
100
AcDbEntity
  8
Layer 3
 62
   250
420
  2301728
370
    18
100
AcDb2dPolyline
 66
     1
 10
0.0
 20
0.0
 30
0.0
  0
VERTEX
  5
176
330
175
100
AcDbEntity
  8
Layer 3
 62
   250
420
  2301728
370
    18
100
AcDbVertex
100
AcDb2dVertex
 10
4.615709605619586
 20
6.181355399401379
 30
0.0
  0
VERTEX
  5
177
330
175
100
AcDbEntity
  8
Layer 3
 62
   250
420
  2301728
370
    18
100
AcDbVertex
100
AcDb2dVertex
 10
4.571085995635763
 20
6.195977621254213
 30
0.0
  0
SEQEND
  5
178
330
175
100
AcDbEntity
  8
Layer 3
 62
   250
420
  2301728
370
    18
  0
POLYLINE
  5
179
330
169
100
AcDbEntity
  8
Layer 3
 62
   250
420
  2301728
370
    25
100
AcDb2dPolyline
 66
     1
 10
0.0
 20
0.0
 30
0.0
  0
VERTEX
  5
17A
330
179
100
AcDbEntity
  8
Layer 3
 62
   250
420
  2301728
370
    25
100
AcDbVertex
100
AcDb2dVertex
 10
4.634169327375477
 20
6.159722222222222
 30
0.0
  0
VERTEX
  5
17B
330
179
100
AcDbEntity
  8
Layer 3
 62
   250
420
  2301728
370
    25
100
AcDbVertex
100
AcDb2dVertex
 10
4.589545717391653
 20
6.17434289957853
 30
0.0
  0
SEQEND
  5
17C
330
179
100
AcDbEntity
  8
Layer 3
 62
   250
420
  2301728
370
    25
  0
SPLINE
  5
17D
330
169
100
AcDbEntity
  8
Layer 3
 62
   250
420
  2301728
370
    35
100
AcDbSpline
210
0.0
220
0.0
230
1.0
 70
     8
 71
     3
 72
    17
 73
    13
 74
     0
 42
0.0000000001
 43
0.0000000001
 12
1.0
 22
0.0
 32
0.0
 13
1.0
 23
0.0
 33
0.0
 40
0.0
 40
0.0
 40
0.0
 40
0.0
 40
1.0
 40
1.0
 40
1.0
 40
2.0
 40
2.0
 40
2.0
 40
3.0
 40
3.0
 40
3.0
 40
4.0
 40
4.0
 40
4.0
 40
4.0
 10
4.642970716042024
 20
6.256713730831001
 30
0.0
 10
4.640570716102653
 20
6.267130397234521
 30
0.0
 10
4.634169327375477
 20
6.278361111111116
 30
0.0
 10
4.614827661197422
 20
6.28232067462856
 30
0.0
 10
4.589762384052847
 20
6.287434563388261
 30
0.0
 10
4.563395718052258
 20
6.266547063915923
 30
0.0
 10
4.555541666666664
 20
6.233737342522545
 30
0.0
 10
4.5477971073352
 20
6.200967898905926
 30
0.0
 10
4.561672106984688
 20
6.169663733030069
 30
0.0
 10
4.58661516191013
 20
6.163723455402356
 30
0.0
 10
4.594604050597202
 20
6.16181095545067
 30
0.0
 10
4.602809605945468
 20
6.162773455426355
 30
0.0
 10
4.610445716863675
 20
6.166042899788206
 30
0.0
  0
SPLINE
  5
17E
330
169
100
AcDbEntity
  8
Layer 3
 62
   250
420
  2301728
370
    25
100
AcDbSpline
210
0.0
220
0.0
230
1.0
 70
     8
 71
     3
 72
    11
 73
     7
 74
     0
 42
0.0000000001
 43
0.0000000001
 12
1.0
 22
0.0
 32
0.0
 13
1.0
 23
0.0
 33
0.0
 40
0.0
 40
0.0
 40
0.0
 40
0.0
 40
1.0
 40
1.0
 40
1.0
 40
2.0
 40
2.0
 40
2.0
 40
2.0
 10
4.620429049944808
 20
6.264255397307149
 30
0.0
 10
4.601250000000012
 20
6.268838730524698
 30
0.0
 10
4.580810995390089
 20
6.252129008724599
 30
0.0
 10
4.574788773320001
 20
6.226847222222217
 30
0.0
 10
4.568792940138135
 20
6.201605398889821
 30
0.0
 10
4.579467939868461
 20
6.177490121721247
 30
0.0
 10
4.598673494938844
 20
6.172945677391604
 30
0.0
  0
SPLINE
  5
17F
330
169
100
AcDbEntity
  8
Layer 3
 62
   250
420
  2301728
370
    25
100
AcDbSpline
210
0.0
220
0.0
230
1.0
 70
    11
 71
     3
 72
    17
 73
    13
 74
     0
 42
0.0000000001
 43
0.0000000001
 12
1.0
 22
0.0
 32
0.0
 13
1.0
 23
0.0
 33
0.0
 40
0.0
 40
0.0
 40
0.0
 40
0.0
 40
1.0
 40
1.0
 40
1.0
 40
2.0
 40
2.0
 40
2.0
 40
3.0
 40
3.0
 40
3.0
 40
4.0
 40
4.0
 40
4.0
 40
4.0
 10
4.610148494648961
 20
6.213595676364699
 30
0.0
 10
4.604180555555558
 20
6.188340121447153
 30
0.0
 10
4.61484155008596
 20
6.164252622055654
 30
0.0
 10
4.634047105156342
 20
6.159667899949252
 30
0.0
 10
4.653238771338187
 20
6.155111111111106
 30
0.0
 10
4.673638888888894
 20
6.171834566308562
 30
0.0
 10
4.679673492892612
 20
6.197088732337256
 30
0.0
 10
4.6856957149627
 20
6.222290120589504
 30
0.0
 10
4.674967937455929
 20
6.246419286646616
 30
0.0
 10
4.655802660162307
 20
6.251004008753019
 30
0.0
 10
4.636637382868685
 20
6.255574841970883
 30
0.0
 10
4.616183216718733
 20
6.238851231282246
 30
0.0
 10
4.610148494648961
 20
6.213595676364699
 30
0.0
  0
SPLINE
  5
180
330
169
100
AcDbEntity
  8
Layer 3
 62
   250
420
  2301728
370
    18
100
AcDbSpline
210
0.0
220
0.0
230
1.0
 70
    11
 71
     3
 72
    17
 73
    13
 74
     0
 42
0.0000000001
 43
0.0000000001
 12
1.0
 22
0.0
 32
0.0
 13
1.0
 23
0.0
 33
0.0
 40
0.0
 40
0.0
 40
0.0
 40
0.0
 40
1.0
 40
1.0
 40
1.0
 40
2.0
 40
2.0
 40
2.0
 40
3.0
 40
3.0
 40
3.0
 40
4.0
 40
4.0
 40
4.0
 40
4.0
 10
4.622301272119734
 20
6.210692898660252
 30
0.0
 10
4.618422105551063
 20
6.19428178796372
 30
0.0
 10
4.62537904981976
 20
6.178629010581365
 30
0.0
 10
4.637830438394101
 20
6.175645677323397
 30
0.0
 10
4.650309604745517
 20
6.172688732953652
 30
0.0
 10
4.663601271076408
 20
6.183580399345171
 30
0.0
 10
4.667506826533301
 20
6.199977621153165
 30
0.0
 10
4.671441548656124
 20
6.216348454072937
 30
0.0
 10
4.664441548832959
 20
6.23202900923238
 30
0.0
 10
4.651977660258934
 20
6.235012342490336
 30
0.0
 10
4.639526271684594
 20
6.237969286860081
 30
0.0
 10
4.626247105353387
 20
6.227117898245321
 30
0.0
 10
4.622301272119734
 20
6.210692898660252
 30
0.0
  0
ENDBLK
  5
16C
330
169
100
AcDbEntity
  8
0
100
AcDbBlockEnd
  0
BLOCK
  5
183
330
181
100
AcDbEntity
  8
0
100
AcDbBlockBegin
  2
block 11
 70
     0
 10
0.0
 20
0.0
 30
0.0
  3
block 11
  1

  0
SPLINE
  5
185
330
181
100
AcDbEntity
  8
Layer 3
370
     0
100
AcDbSpline
210
0.0
220
0.0
230
1.0
 70
    11
 71
     3
 72
    29
 73
    25
 74
     0
 42
0.0000000001
 43
0.0000000001
 12
1.0
 22
0.0
 32
0.0
 13
1.0
 23
0.0
 33
0.0
 40
0.0
 40
0.0
 40
0.0
 40
0.0
 40
1.0
 40
1.0
 40
1.0
 40
2.0
 40
2.0
 40
2.0
 40
3.0
 40
3.0
 40
3.0
 40
4.0
 40
4.0
 40
4.0
 40
5.0
 40
5.0
 40
5.0
 40
6.0
 40
6.0
 40
6.0
 40
7.0
 40
7.0
 40
7.0
 40
8.0
 40
8.0
 40
8.0
 40
8.0
 10
5.054877650080824
 20
5.708956800224061
 30
0.0
 10
5.054877650080824
 20
5.708956800224061
 30
0.0
 10
5.054877650080824
 20
5.736734577300113
 30
0.0
 10
5.054877650080824
 20
5.736734577300113
 30
0.0
 10
5.054877650080824
 20
5.736734577300113
 30
0.0
 10
5.058349872215331
 20
5.754095687972645
 30
0.0
 10
5.103488759963915
 20
5.755831799039899
 30
0.0
 10
5.1486276477125
 20
5.757567910107152
 30
0.0
 10
5.150363758779753
 20
5.7297901330311
 30
0.0
 10
5.150363758779753
 20
5.7297901330311
 30
0.0
 10
5.150363758779753
 20
5.7297901330311
 30
0.0
 10
5.155572091981512
 20
5.707220689156808
 30
0.0
 10
5.155572091981512
 20
5.707220689156808
 30
0.0
 10
5.155572091981512
 20
5.707220689156808
 30
0.0
 10
5.172933202654045
 20
5.69854707826481
 30
0.0
 10
5.172933202654045
 20
5.691602633995798
 30
0.0
 10
5.172933202654045
 20
5.684658189726798
 30
0.0
 10
5.141683203443487
 20
5.658616523717986
 30
0.0
 10
5.108697093165675
 20
5.660352634785239
 30
0.0
 10
5.075710982887863
 20
5.662088745852492
 30
0.0
 10
5.035780428341038
 20
5.672505412256012
 30
0.0
 10
5.035780428341038
 20
5.689866522928544
 30
0.0
 10
5.035780428341038
 20
5.707220689156808
 30
0.0
 10
5.054877650080824
 20
5.708956800224061
 30
0.0
 10
5.054877650080824
 20
5.708956800224061
 30
0.0
  0
HATCH
  5
186
330
181
100
AcDbEntity
  8
Layer 3
 62
     9
420
 12303808
100
AcDbHatch
 10
0.0
 20
0.0
 30
0.0
210
0.0
220
0.0
230
1.0
  2
SOLID
 70
     1
 71
     0
 91
        1
 92
        1
 93
        1
 72
     4
 94
        3
 73
     0
 74
     1
 95
       29
 96
       25
 40
0.0
 40
0.0
 40
0.0
 40
0.0
 40
1.0
 40
1.0
 40
1.0
 40
2.0
 40
2.0
 40
2.0
 40
3.0
 40
3.0
 40
3.0
 40
4.0
 40
4.0
 40
4.0
 40
5.0
 40
5.0
 40
5.0
 40
6.0
 40
6.0
 40
6.0
 40
7.0
 40
7.0
 40
7.0
 40
8.0
 40
8.0
 40
8.0
 40
8.0
 10
5.054877650080824
 20
5.708956800224061
 10
5.054877650080824
 20
5.708956800224061
 10
5.054877650080824
 20
5.736734577300113
 10
5.054877650080824
 20
5.736734577300113
 10
5.054877650080824
 20
5.736734577300113
 10
5.058349872215331
 20
5.754095687972645
 10
5.103488759963915
 20
5.755831799039899
 10
5.1486276477125
 20
5.757567910107152
 10
5.150363758779753
 20
5.7297901330311
 10
5.150363758779753
 20
5.7297901330311
 10
5.150363758779753
 20
5.7297901330311
 10
5.155572091981512
 20
5.707220689156808
 10
5.155572091981512
 20
5.707220689156808
 10
5.155572091981512
 20
5.707220689156808
 10
5.172933202654045
 20
5.69854707826481
 10
5.172933202654045
 20
5.691602633995798
 10
5.172933202654045
 20
5.684658189726798
 10
5.141683203443487
 20
5.658616523717986
 10
5.108697093165675
 20
5.660352634785239
 10
5.075710982887863
 20
5.662088745852492
 10
5.035780428341038
 20
5.672505412256012
 10
5.035780428341038
 20
5.689866522928544
 10
5.035780428341038
 20
5.707220689156808
 10
5.054877650080824
 20
5.708956800224061
 10
5.054877650080824
 20
5.708956800224061
 97
        0
 97
        0
 75
     2
 76
     1
 98
        0
  0
INSERT
  5
188
330
181
100
AcDbEntity
  8
Layer 3
100
AcDbBlockReference
  2
block 12
 10
0.0
 20
0.0
 30
0.0
  0
ENDBLK
  5
184
330
181
100
AcDbEntity
  8
0
100
AcDbBlockEnd
  0
BLOCK
  5
189
330
187
100
AcDbEntity
  8
0
100
AcDbBlockBegin
  2
block 12
 70
     0
 10
0.0
 20
0.0
 30
0.0
  3
block 12
  1

  0
SPLINE
  5
18B
330
187
100
AcDbEntity
  8
Layer 3
 62
   250
420
  2301728
370
    35
100
AcDbSpline
210
0.0
220
0.0
230
1.0
 70
     8
 71
     3
 72
    17
 73
    13
 74
     0
 42
0.0000000001
 43
0.0000000001
 12
1.0
 22
0.0
 32
0.0
 13
1.0
 23
0.0
 33
0.0
 40
0.0
 40
0.0
 40
0.0
 40
0.0
 40
1.0
 40
1.0
 40
1.0
 40
2.0
 40
2.0
 40
2.0
 40
3.0
 40
3.0
 40
3.0
 40
4.0
 40
4.0
 40
4.0
 40
4.0
 10
5.150376258779437
 20
5.709499999999998
 30
0.0
 10
5.162420702919613
 20
5.704331800340898
 30
0.0
 10
5.169880424953387
 20
5.697163744966436
 30
0.0
 10
5.169880424953387
 20
5.689269300721421
 30
0.0
 10
5.169880424953387
 20
5.673535967785534
 30
0.0
 10
5.140272092368023
 20
5.660759579219403
 30
0.0
 10
5.103745704401868
 20
5.660759579219403
 30
0.0
 10
5.06724709421279
 20
5.660759579219403
 30
0.0
 10
5.037651261627111
 20
5.673535967785534
 30
0.0
 10
5.037651261627111
 20
5.689269300721421
 30
0.0
 10
5.037651261627111
 20
5.697109578301125
 30
0.0
 10
5.044962372553528
 20
5.704183189233541
 30
0.0
 10
5.056816538920732
 20
5.709337355770003
 30
0.0
  0
SPLINE
  5
18C
330
187
100
AcDbEntity
  8
Layer 3
 62
   250
420
  2301728
370
    25
100
AcDbSpline
210
0.0
220
0.0
230
1.0
 70
     8
 71
     3
 72
    11
 73
     7
 74
     0
 42
0.0000000001
 43
0.0000000001
 12
1.0
 22
0.0
 32
0.0
 13
1.0
 23
0.0
 33
0.0
 40
0.0
 40
0.0
 40
0.0
 40
0.0
 40
1.0
 40
1.0
 40
1.0
 40
2.0
 40
2.0
 40
2.0
 40
2.0
 10
5.152017925404632
 20
5.69575263389096
 30
0.0
 10
5.152017925404632
 20
5.684279023069696
 30
0.0
 10
5.130410981506025
 20
5.674947078860996
 30
0.0
 10
5.103745704401868
 20
5.674947078860996
 30
0.0
 10
5.07709431618625
 20
5.674947078860996
 30
0.0
 10
5.05551515006472
 20
5.684279023069696
 30
0.0
 10
5.05551515006472
 20
5.69575263389096
 30
0.0
  0
SPLINE
  5
18D
330
187
100
AcDbEntity
  8
Layer 3
 62
   250
420
  2301728
370
    25
100
AcDbSpline
210
0.0
220
0.0
230
1.0
 70
    11
 71
     3
 72
    17
 73
    13
 74
     0
 42
0.0000000001
 43
0.0000000001
 12
1.0
 22
0.0
 32
0.0
 13
1.0
 23
0.0
 33
0.0
 40
0.0
 40
0.0
 40
0.0
 40
0.0
 40
1.0
 40
1.0
 40
1.0
 40
2.0
 40
2.0
 40
2.0
 40
3.0
 40
3.0
 40
3.0
 40
4.0
 40
4.0
 40
4.0
 40
4.0
 10
5.152017925404632
 20
5.734809577348756
 30
0.0
 10
5.152017925404632
 20
5.723320688750087
 30
0.0
 10
5.130410981506025
 20
5.714002633429926
 30
0.0
 10
5.103745704401868
 20
5.714002633429926
 30
0.0
 10
5.07709431618625
 20
5.714002633429926
 30
0.0
 10
5.05551515006472
 20
5.723320688750087
 30
0.0
 10
5.05551515006472
 20
5.734809577348756
 30
0.0
 10
5.05551515006472
 20
5.74632485483562
 30
0.0
 10
5.07709431618625
 20
5.755629021267244
 30
0.0
 10
5.103745704401868
 20
5.755629021267244
 30
0.0
 10
5.130410981506025
 20
5.755629021267244
 30
0.0
 10
5.152017925404632
 20
5.74632485483562
 30
0.0
 10
5.152017925404632
 20
5.734809577348756
 30
0.0
  0
SPLINE
  5
18E
330
187
100
AcDbEntity
  8
Layer 3
 62
   250
420
  2301728
370
    18
100
AcDbSpline
210
0.0
220
0.0
230
1.0
 70
    11
 71
     3
 72
    17
 73
    13
 74
     0
 42
0.0000000001
 43
0.0000000001
 12
1.0
 22
0.0
 32
0.0
 13
1.0
 23
0.0
 33
0.0
 40
0.0
 40
0.0
 40
0.0
 40
0.0
 40
1.0
 40
1.0
 40
1.0
 40
2.0
 40
2.0
 40
2.0
 40
3.0
 40
3.0
 40
3.0
 40
4.0
 40
4.0
 40
4.0
 40
4.0
 10
5.1351318147201
 20
5.734822077348427
 30
0.0
 10
5.1351318147201
 20
5.727348466426116
 30
0.0
 10
5.121066537297641
 20
5.721299855467805
 30
0.0
 10
5.103745704401868
 20
5.721299855467805
 30
0.0
 10
5.08642626039495
 20
5.721299855467805
 30
0.0
 10
5.072401260749252
 20
5.727348466426116
 30
0.0
 10
5.072401260749252
 20
5.734822077348427
 30
0.0
 10
5.072401260749252
 20
5.742295688270739
 30
0.0
 10
5.08642626039495
 20
5.748358188117587
 30
0.0
 10
5.103745704401868
 20
5.748358188117587
 30
0.0
 10
5.121066537297641
 20
5.748358188117587
 30
0.0
 10
5.1351318147201
 20
5.742295688270739
 30
0.0
 10
5.1351318147201
 20
5.734822077348427
 30
0.0
  0
POLYLINE
  5
18F
330
187
100
AcDbEntity
  8
Layer 3
 62
   250
420
  2301728
370
    18
100
AcDb2dPolyline
 66
     1
 10
0.0
 20
0.0
 30
0.0
  0
VERTEX
  5
190
330
18F
100
AcDbEntity
  8
Layer 3
 62
   250
420
  2301728
370
    18
100
AcDbVertex
100
AcDb2dVertex
 10
5.128933203765579
 20
5.71577902227394
 30
0.0
  0
VERTEX
  5
191
330
18F
100
AcDbEntity
  8
Layer 3
 62
   250
420
  2301728
370
    18
100
AcDbVertex
100
AcDb2dVertex
 10
5.128933203765579
 20
5.677523467684801
 30
0.0
  0
SEQEND
  5
192
330
18F
100
AcDbEntity
  8
Layer 3
 62
   250
420
  2301728
370
    18
  0
POLYLINE
  5
193
330
187
100
AcDbEntity
  8
Layer 3
 62
   250
420
  2301728
370
    25
100
AcDb2dPolyline
 66
     1
 10
0.0
 20
0.0
 30
0.0
  0
VERTEX
  5
194
330
193
100
AcDbEntity
  8
Layer 3
 62
   250
420
  2301728
370
    25
100
AcDbVertex
100
AcDb2dVertex
 10
5.055663761172076
 20
5.730780410783861
 30
0.0
  0
VERTEX
  5
195
330
193
100
AcDbEntity
  8
Layer 3
 62
   250
420
  2301728
370
    25
100
AcDbVertex
100
AcDb2dVertex
 10
5.055663761172076
 20
5.69458735614262
 30
0.0
  0
SEQEND
  5
196
330
193
100
AcDbEntity
  8
Layer 3
 62
   250
420
  2301728
370
    25
  0
POLYLINE
  5
197
330
187
100
AcDbEntity
  8
Layer 3
 62
   250
420
  2301728
370
    25
100
AcDb2dPolyline
 66
     1
 10
0.0
 20
0.0
 30
0.0
  0
VERTEX
  5
198
330
197
100
AcDbEntity
  8
Layer 3
 62
   250
420
  2301728
370
    25
100
AcDbVertex
100
AcDb2dVertex
 10
5.151624999999992
 20
5.728095688629461
 30
0.0
  0
VERTEX
  5
199
330
197
100
AcDbEntity
  8
Layer 3
 62
   250
420
  2301728
370
    25
100
AcDbVertex
100
AcDb2dVertex
 10
5.151624999999992
 20
5.691684578438172
 30
0.0
  0
SEQEND
  5
19A
330
197
100
AcDbEntity
  8
Layer 3
 62
   250
420
  2301728
370
    25
  0
POLYLINE
  5
19B
330
187
100
AcDbEntity
  8
Layer 3
 62
   250
420
  2301728
370
    18
100
AcDb2dPolyline
 66
     1
 10
0.0
 20
0.0
 30
0.0
  0
VERTEX
  5
19C
330
19B
100
AcDbEntity
  8
Layer 3
 62
   250
420
  2301728
370
    18
100
AcDbVertex
100
AcDb2dVertex
 10
5.070488760797565
 20
5.716484577811671
 30
0.0
  0
VERTEX
  5
19D
330
19B
100
AcDbEntity
  8
Layer 3
 62
   250
420
  2301728
370
    18
100
AcDbVertex
100
AcDb2dVertex
 10
5.070488760797565
 20
5.681863745352934
 30
0.0
  0
SEQEND
  5
19E
330
19B
100
AcDbEntity
  8
Layer 3
 62
   250
420
  2301728
370
    18
  0
ENDBLK
  5
18A
330
187
100
AcDbEntity
  8
0
100
AcDbBlockEnd
  0
BLOCK
  5
1A1
330
19F
100
AcDbEntity
  8
0
100
AcDbBlockBegin
  2
block 13
 70
     0
 10
0.0
 20
0.0
 30
0.0
  3
block 13
  1

  0
SPLINE
  5
1A3
330
19F
100
AcDbEntity
  8
Layer 3
370
     0
100
AcDbSpline
210
0.0
220
0.0
230
1.0
 70
    11
 71
     3
 72
    29
 73
    25
 74
     0
 42
0.0000000001
 43
0.0000000001
 12
1.0
 22
0.0
 32
0.0
 13
1.0
 23
0.0
 33
0.0
 40
0.0
 40
0.0
 40
0.0
 40
0.0
 40
1.0
 40
1.0
 40
1.0
 40
2.0
 40
2.0
 40
2.0
 40
3.0
 40
3.0
 40
3.0
 40
4.0
 40
4.0
 40
4.0
 40
5.0
 40
5.0
 40
5.0
 40
6.0
 40
6.0
 40
6.0
 40
7.0
 40
7.0
 40
7.0
 40
8.0
 40
8.0
 40
8.0
 40
8.0
 10
4.648260993686159
 20
5.699822078232601
 30
0.0
 10
4.648260993686159
 20
5.699822078232601
 30
0.0
 10
4.648260993686159
 20
5.727599855308654
 30
0.0
 10
4.648260993686159
 20
5.727599855308654
 30
0.0
 10
4.648260993686159
 20
5.727599855308654
 30
0.0
 10
4.651733215820665
 20
5.744960965981186
 30
0.0
 10
4.696872103569249
 20
5.746697077048439
 30
0.0
 10
4.742010991317835
 20
5.748433188115692
 30
0.0
 10
4.743747102385087
 20
5.72065541103964
 30
0.0
 10
4.743747102385087
 20
5.72065541103964
 30
0.0
 10
4.743747102385087
 20
5.72065541103964
 30
0.0
 10
4.748955435586847
 20
5.698085967165349
 30
0.0
 10
4.748955435586847
 20
5.698085967165349
 30
0.0
 10
4.748955435586847
 20
5.698085967165349
 30
0.0
 10
4.76631654625938
 20
5.689412356273351
 30
0.0
 10
4.76631654625938
 20
5.682467912004338
 30
0.0
 10
4.76631654625938
 20
5.675523467735325
 30
0.0
 10
4.735066547048821
 20
5.649481801726526
 30
0.0
 10
4.702080436771009
 20
5.651217912793779
 30
0.0
 10
4.669094326493197
 20
5.652954023861033
 30
0.0
 10
4.629163771946373
 20
5.663370690264552
 30
0.0
 10
4.629163771946373
 20
5.680731800937084
 30
0.0
 10
4.629163771946373
 20
5.698085967165349
 30
0.0
 10
4.648260993686159
 20
5.699822078232601
 30
0.0
 10
4.648260993686159
 20
5.699822078232601
 30
0.0
  0
HATCH
  5
1A4
330
19F
100
AcDbEntity
  8
Layer 3
 62
     9
420
 12303808
100
AcDbHatch
 10
0.0
 20
0.0
 30
0.0
210
0.0
220
0.0
230
1.0
  2
SOLID
 70
     1
 71
     0
 91
        1
 92
        1
 93
        1
 72
     4
 94
        3
 73
     0
 74
     1
 95
       29
 96
       25
 40
0.0
 40
0.0
 40
0.0
 40
0.0
 40
1.0
 40
1.0
 40
1.0
 40
2.0
 40
2.0
 40
2.0
 40
3.0
 40
3.0
 40
3.0
 40
4.0
 40
4.0
 40
4.0
 40
5.0
 40
5.0
 40
5.0
 40
6.0
 40
6.0
 40
6.0
 40
7.0
 40
7.0
 40
7.0
 40
8.0
 40
8.0
 40
8.0
 40
8.0
 10
4.648260993686159
 20
5.699822078232601
 10
4.648260993686159
 20
5.699822078232601
 10
4.648260993686159
 20
5.727599855308654
 10
4.648260993686159
 20
5.727599855308654
 10
4.648260993686159
 20
5.727599855308654
 10
4.651733215820665
 20
5.744960965981186
 10
4.696872103569249
 20
5.746697077048439
 10
4.742010991317835
 20
5.748433188115692
 10
4.743747102385087
 20
5.72065541103964
 10
4.743747102385087
 20
5.72065541103964
 10
4.743747102385087
 20
5.72065541103964
 10
4.748955435586847
 20
5.698085967165349
 10
4.748955435586847
 20
5.698085967165349
 10
4.748955435586847
 20
5.698085967165349
 10
4.76631654625938
 20
5.689412356273351
 10
4.76631654625938
 20
5.682467912004338
 10
4.76631654625938
 20
5.675523467735325
 10
4.735066547048821
 20
5.649481801726526
 10
4.702080436771009
 20
5.651217912793779
 10
4.669094326493197
 20
5.652954023861033
 10
4.629163771946373
 20
5.663370690264552
 10
4.629163771946373
 20
5.680731800937084
 10
4.629163771946373
 20
5.698085967165349
 10
4.648260993686159
 20
5.699822078232601
 10
4.648260993686159
 20
5.699822078232601
 97
        0
 97
        0
 75
     2
 76
     1
 98
        0
  0
INSERT
  5
1A6
330
19F
100
AcDbEntity
  8
Layer 3
100
AcDbBlockReference
  2
block 14
 10
0.0
 20
0.0
 30
0.0
  0
ENDBLK
  5
1A2
330
19F
100
AcDbEntity
  8
0
100
AcDbBlockEnd
  0
BLOCK
  5
1A7
330
1A5
100
AcDbEntity
  8
0
100
AcDbBlockBegin
  2
block 14
 70
     0
 10
0.0
 20
0.0
 30
0.0
  3
block 14
  1

  0
SPLINE
  5
1A9
330
1A5
100
AcDbEntity
  8
Layer 3
 62
   250
420
  2301728
370
    35
100
AcDbSpline
210
0.0
220
0.0
230
1.0
 70
     8
 71
     3
 72
    17
 73
    13
 74
     0
 42
0.0000000001
 43
0.0000000001
 12
1.0
 22
0.0
 32
0.0
 13
1.0
 23
0.0
 33
0.0
 40
0.0
 40
0.0
 40
0.0
 40
0.0
 40
1.0
 40
1.0
 40
1.0
 40
2.0
 40
2.0
 40
2.0
 40
3.0
 40
3.0
 40
3.0
 40
4.0
 40
4.0
 40
4.0
 40
4.0
 10
4.743760991273626
 20
5.700365133774438
 30
0.0
 10
4.755805555555551
 20
5.695197078349438
 30
0.0
 10
4.763265157447576
 20
5.688029022974963
 30
0.0
 10
4.763265157447576
 20
5.680134578729949
 30
0.0
 10
4.763265157447576
 20
5.664401245794074
 30
0.0
 10
4.733655435973358
 20
5.651625000000005
 30
0.0
 10
4.697130436896057
 20
5.651625000000005
 30
0.0
 10
4.660630437818124
 20
5.651625000000005
 30
0.0
 10
4.631035994121299
 20
5.664401245794074
 30
0.0
 10
4.631035994121299
 20
5.680134578729949
 30
0.0
 10
4.631035994121299
 20
5.687974856309665
 30
0.0
 10
4.638345716158861
 20
5.695048467242082
 30
0.0
 10
4.650201271414921
 20
5.700202633778543
 30
0.0
  0
SPLINE
  5
1AA
330
1A5
100
AcDbEntity
  8
Layer 3
 62
   250
420
  2301728
370
    25
100
AcDbSpline
210
0.0
220
0.0
230
1.0
 70
     8
 71
     3
 72
    11
 73
     7
 74
     0
 42
0.0000000001
 43
0.0000000001
 12
1.0
 22
0.0
 32
0.0
 13
1.0
 23
0.0
 33
0.0
 40
0.0
 40
0.0
 40
0.0
 40
0.0
 40
1.0
 40
1.0
 40
1.0
 40
2.0
 40
2.0
 40
2.0
 40
2.0
 10
4.745401269009967
 20
5.6866179118995
 30
0.0
 10
4.745401269009967
 20
5.675144301078237
 30
0.0
 10
4.723795714000213
 20
5.665812356869537
 30
0.0
 10
4.697130436896057
 20
5.665812356869537
 30
0.0
 10
4.670477659791585
 20
5.665812356869537
 30
0.0
 10
4.648898493670054
 20
5.675144301078237
 30
0.0
 10
4.648898493670054
 20
5.6866179118995
 30
0.0
  0
SPLINE
  5
1AB
330
1A5
100
AcDbEntity
  8
Layer 3
 62
   250
420
  2301728
370
    25
100
AcDbSpline
210
0.0
220
0.0
230
1.0
 70
    11
 71
     3
 72
    17
 73
    13
 74
     0
 42
0.0000000001
 43
0.0000000001
 12
1.0
 22
0.0
 32
0.0
 13
1.0
 23
0.0
 33
0.0
 40
0.0
 40
0.0
 40
0.0
 40
0.0
 40
1.0
 40
1.0
 40
1.0
 40
2.0
 40
2.0
 40
2.0
 40
3.0
 40
3.0
 40
3.0
 40
4.0
 40
4.0
 40
4.0
 40
4.0
 10
4.745401269009967
 20
5.72567346646843
 30
0.0
 10
4.745401269009967
 20
5.714185966758628
 30
0.0
 10
4.723795714000213
 20
5.704867911438466
 30
0.0
 10
4.697130436896057
 20
5.704867911438466
 30
0.0
 10
4.670477659791585
 20
5.704867911438466
 30
0.0
 10
4.648898493670054
 20
5.714185966758628
 30
0.0
 10
4.648898493670054
 20
5.72567346646843
 30
0.0
 10
4.648898493670054
 20
5.737188743955307
 30
0.0
 10
4.670477659791585
 20
5.746494299275796
 30
0.0
 10
4.697130436896057
 20
5.746494299275796
 30
0.0
 10
4.723795714000213
 20
5.746494299275796
 30
0.0
 10
4.745401269009967
 20
5.737188743955307
 30
0.0
 10
4.745401269009967
 20
5.72567346646843
 30
0.0
  0
SPLINE
  5
1AC
330
1A5
100
AcDbEntity
  8
Layer 3
 62
   250
420
  2301728
370
    18
100
AcDbSpline
210
0.0
220
0.0
230
1.0
 70
    11
 71
     3
 72
    17
 73
    13
 74
     0
 42
0.0000000001
 43
0.0000000001
 12
1.0
 22
0.0
 32
0.0
 13
1.0
 23
0.0
 33
0.0
 40
0.0
 40
0.0
 40
0.0
 40
0.0
 40
1.0
 40
1.0
 40
1.0
 40
2.0
 40
2.0
 40
2.0
 40
3.0
 40
3.0
 40
3.0
 40
4.0
 40
4.0
 40
4.0
 40
4.0
 10
4.728515158325434
 20
5.725687355356968
 30
0.0
 10
4.728515158325434
 20
5.718213744434656
 30
0.0
 10
4.714449880902976
 20
5.712165133476345
 30
0.0
 10
4.697130436896057
 20
5.712165133476345
 30
0.0
 10
4.679809604000284
 20
5.712165133476345
 30
0.0
 10
4.665784604354585
 20
5.718213744434656
 30
0.0
 10
4.665784604354585
 20
5.725687355356968
 30
0.0
 10
4.665784604354585
 20
5.73316096627928
 30
0.0
 10
4.679809604000284
 20
5.739223466126128
 30
0.0
 10
4.697130436896057
 20
5.739223466126128
 30
0.0
 10
4.714449880902976
 20
5.739223466126128
 30
0.0
 10
4.728515158325434
 20
5.73316096627928
 30
0.0
 10
4.728515158325434
 20
5.725687355356968
 30
0.0
  0
POLYLINE
  5
1AD
330
1A5
100
AcDbEntity
  8
Layer 3
 62
   250
420
  2301728
370
    18
100
AcDb2dPolyline
 66
     1
 10
0.0
 20
0.0
 30
0.0
  0
VERTEX
  5
1AE
330
1AD
100
AcDbEntity
  8
Layer 3
 62
   250
420
  2301728
370
    18
100
AcDbVertex
100
AcDb2dVertex
 10
4.722316547370913
 20
5.70664430028248
 30
0.0
  0
VERTEX
  5
1AF
330
1AD
100
AcDbEntity
  8
Layer 3
 62
   250
420
  2301728
370
    18
100
AcDbVertex
100
AcDb2dVertex
 10
4.722316547370913
 20
5.668388888888885
 30
0.0
  0
SEQEND
  5
1B0
330
1AD
100
AcDbEntity
  8
Layer 3
 62
   250
420
  2301728
370
    18
  0
POLYLINE
  5
1B1
330
1A5
100
AcDbEntity
  8
Layer 3
 62
   250
420
  2301728
370
    25
100
AcDb2dPolyline
 66
     1
 10
0.0
 20
0.0
 30
0.0
  0
VERTEX
  5
1B2
330
1B1
100
AcDbEntity
  8
Layer 3
 62
   250
420
  2301728
370
    25
100
AcDbVertex
100
AcDb2dVertex
 10
4.64904710477741
 20
5.721645688792401
 30
0.0
  0
VERTEX
  5
1B3
330
1B1
100
AcDbEntity
  8
Layer 3
 62
   250
420
  2301728
370
    25
100
AcDbVertex
100
AcDb2dVertex
 10
4.64904710477741
 20
5.685451245262306
 30
0.0
  0
SEQEND
  5
1B4
330
1B1
100
AcDbEntity
  8
Layer 3
 62
   250
420
  2301728
370
    25
  0
POLYLINE
  5
1B5
330
1A5
100
AcDbEntity
  8
Layer 3
 62
   250
420
  2301728
370
    25
100
AcDb2dPolyline
 66
     1
 10
0.0
 20
0.0
 30
0.0
  0
VERTEX
  5
1B6
330
1B5
100
AcDbEntity
  8
Layer 3
 62
   250
420
  2301728
370
    25
100
AcDbVertex
100
AcDb2dVertex
 10
4.74500821346434
 20
5.718959577749147
 30
0.0
  0
VERTEX
  5
1B7
330
1B5
100
AcDbEntity
  8
Layer 3
 62
   250
420
  2301728
370
    25
100
AcDbVertex
100
AcDb2dVertex
 10
4.74500821346434
 20
5.682549856446713
 30
0.0
  0
SEQEND
  5
1B8
330
1B5
100
AcDbEntity
  8
Layer 3
 62
   250
420
  2301728
370
    25
  0
POLYLINE
  5
1B9
330
1A5
100
AcDbEntity
  8
Layer 3
 62
   250
420
  2301728
370
    18
100
AcDb2dPolyline
 66
     1
 10
0.0
 20
0.0
 30
0.0
  0
VERTEX
  5
1BA
330
1B9
100
AcDbEntity
  8
Layer 3
 62
   250
420
  2301728
370
    18
100
AcDbVertex
100
AcDb2dVertex
 10
4.663872104402899
 20
5.707349855820212
 30
0.0
  0
VERTEX
  5
1BB
330
1B9
100
AcDbEntity
  8
Layer 3
 62
   250
420
  2301728
370
    18
100
AcDbVertex
100
AcDb2dVertex
 10
4.663872104402899
 20
5.672729023361474
 30
0.0
  0
SEQEND
  5
1BC
330
1B9
100
AcDbEntity
  8
Layer 3
 62
   250
420
  2301728
370
    18
  0
ENDBLK
  5
1A8
330
1A5
100
AcDbEntity
  8
0
100
AcDbBlockEnd
  0
ENDSEC
  0
SECTION
  2
ENTITIES
  0
SPLINE
  5
41
330
1F
100
AcDbEntity
  8
Layer 1
 62
   250
420
  2301728
370
    35
100
AcDbSpline
210
0.0
220
0.0
230
1.0
 70
    11
 71
     3
 72
    86
 73
    82
 74
     0
 42
0.0000000001
 43
0.0000000001
 12
1.0
 22
0.0
 32
0.0
 13
1.0
 23
0.0
 33
0.0
 40
0.0
 40
0.0
 40
0.0
 40
0.0
 40
1.0
 40
1.0
 40
1.0
 40
2.0
 40
2.0
 40
2.0
 40
3.0
 40
3.0
 40
3.0
 40
4.0
 40
4.0
 40
4.0
 40
5.0
 40
5.0
 40
5.0
 40
6.0
 40
6.0
 40
6.0
 40
7.0
 40
7.0
 40
7.0
 40
8.0
 40
8.0
 40
8.0
 40
9.0
 40
9.0
 40
9.0
 40
10.0
 40
10.0
 40
10.0
 40
11.0
 40
11.0
 40
11.0
 40
12.0
 40
12.0
 40
12.0
 40
13.0
 40
13.0
 40
13.0
 40
14.0
 40
14.0
 40
14.0
 40
15.0
 40
15.0
 40
15.0
 40
16.0
 40
16.0
 40
16.0
 40
17.0
 40
17.0
 40
17.0
 40
18.0
 40
18.0
 40
18.0
 40
19.0
 40
19.0
 40
19.0
 40
20.0
 40
20.0
 40
20.0
 40
21.0
 40
21.0
 40
21.0
 40
22.0
 40
22.0
 40
22.0
 40
23.0
 40
23.0
 40
23.0
 40
24.0
 40
24.0
 40
24.0
 40
25.0
 40
25.0
 40
25.0
 40
26.0
 40
26.0
 40
26.0
 40
27.0
 40
27.0
 40
27.0
 40
27.0
 10
4.432861111111101
 20
5.993055555555555
 30
0.0
 10
4.432861111111101
 20
5.993055555555555
 30
0.0
 10
5.690972222222222
 20
5.644097222222222
 30
0.0
 10
5.690972222222222
 20
5.644097222222222
 30
0.0
 10
5.690972222222222
 20
5.644097222222222
 30
0.0
 10
6.277777777777778
 20
5.475694444444444
 30
0.0
 10
6.277777777777778
 20
5.475694444444444
 30
0.0
 10
6.277777777777778
 20
5.475694444444444
 30
0.0
 10
6.296875
 20
5.473958333333333
 30
0.0
 10
6.296875
 20
5.442708333333333
 30
0.0
 10
6.296875
 20
5.442708333333333
 30
0.0
 10
6.296875
 20
5.0625
 30
0.0
 10
6.296875
 20
5.0625
 30
0.0
 10
6.296875
 20
5.0625
 30
0.0
 10
6.267361111111111
 20
5.041666666666666
 30
0.0
 10
6.267361111111111
 20
5.041666666666666
 30
0.0
 10
6.267361111111111
 20
5.041666666666666
 30
0.0
 10
5.828125
 20
5.192708333333333
 30
0.0
 10
5.828125
 20
5.192708333333333
 30
0.0
 10
5.828125
 20
5.192708333333333
 30
0.0
 10
5.828125
 20
5.173611111111111
 30
0.0
 10
5.828125
 20
5.173611111111111
 30
0.0
 10
5.828125
 20
5.173611111111111
 30
0.0
 10
5.613430555555547
 20
5.046291666666674
 30
0.0
 10
5.613430555555547
 20
5.046291666666674
 30
0.0
 10
5.613430555555547
 20
5.046291666666674
 30
0.0
 10
5.601847222222229
 20
5.03470833333333
 30
0.0
 10
5.601847222222229
 20
5.018513888888896
 30
0.0
 10
5.601847222222229
 20
5.018513888888896
 30
0.0
 10
5.601847222222229
 20
4.618055555555555
 30
0.0
 10
5.601847222222229
 20
4.618055555555555
 30
0.0
 10
5.601847222222229
 20
4.618055555555555
 30
0.0
 10
5.56438458165404
 20
4.589030439626892
 30
0.0
 10
5.56438458165404
 20
4.589030439626892
 30
0.0
 10
5.56438458165404
 20
4.589030439626892
 30
0.0
 10
5.196194444444447
 20
4.731227658256911
 30
0.0
 10
5.196194444444447
 20
4.731227658256911
 30
0.0
 10
5.196194444444447
 20
4.731227658256911
 30
0.0
 10
5.196763888888881
 20
4.619709605518538
 30
0.0
 10
5.196763888888881
 20
4.619709605518538
 30
0.0
 10
5.195272090978606
 20
4.590590161809713
 30
0.0
 10
5.180555555555555
 20
4.58565277777777
 30
0.0
 10
5.180555555555555
 20
4.58565277777777
 30
0.0
 10
5.180555555555555
 20
4.58565277777777
 30
0.0
 10
4.990192929492675
 20
4.463962387230822
 30
0.0
 10
4.990192929492675
 20
4.463962387230822
 30
0.0
 10
4.990192929492675
 20
4.463962387230822
 30
0.0
 10
4.953708333333325
 20
4.476847222222229
 30
0.0
 10
4.953708333333325
 20
4.476847222222229
 30
0.0
 10
4.953708333333325
 20
4.476847222222229
 30
0.0
 10
4.928236111111119
 20
4.506944444444444
 30
0.0
 10
4.928236111111119
 20
4.506944444444444
 30
0.0
 10
4.928236111111119
 20
4.506944444444444
 30
0.0
 10
4.858791666666674
 20
4.25
 30
0.0
 10
4.858791666666674
 20
4.25
 30
0.0
 10
4.858791666666674
 20
4.25
 30
0.0
 10
4.826402777777781
 20
4.270833333333333
 30
0.0
 10
4.826402777777781
 20
4.270833333333333
 30
0.0
 10
4.826402777777781
 20
4.270833333333333
 30
0.0
 10
4.774549879384722
 20
4.323174890787413
 30
0.0
 10
4.774549879384722
 20
4.323174890787413
 30
0.0
 10
4.774549879384722
 20
4.323174890787413
 30
0.0
 10
4.506944444444444
 20
4.155097222222214
 30
0.0
 10
4.506944444444444
 20
4.155097222222214
 30
0.0
 10
4.481486111111104
 20
4.138902777777781
 30
0.0
 10
4.462958333333341
 20
4.150458333333341
 30
0.0
 10
4.462958333333341
 20
4.150458333333341
 30
0.0
 10
4.462958333333341
 20
4.150458333333341
 30
0.0
 10
4.11342350719729
 20
4.314819444444437
 30
0.0
 10
4.11342350719729
 20
4.314819444444437
 30
0.0
 10
4.099534618659264
 20
4.321763888888881
 30
0.0
 10
4.099487396438235
 20
4.336697112668036
 30
0.0
 10
4.099487396438235
 20
4.336697112668036
 30
0.0
 10
4.099487396438235
 20
4.336697112668036
 30
0.0
 10
4.099487396438235
 20
5.154758203113184
 30
0.0
 10
4.099487396438235
 20
5.154758203113184
 30
0.0
 10
4.099487396438235
 20
5.154758203113184
 30
0.0
 10
3.625047130645827
 20
5.345024864973311
 30
0.0
 10
3.625047130645827
 20
5.345024864973311
 30
0.0
 10
3.625047130645827
 20
5.345024864973311
 30
0.0
 10
4.432861111111101
 20
5.993055555555555
 30
0.0
 10
4.432861111111101
 20
5.993055555555555
 30
0.0
  0
HATCH
  5
42
330
1F
100
AcDbEntity
  8
Layer 1
 62
   253
420
 10987947
100
AcDbHatch
 10
0.0
 20
0.0
 30
0.0
210
0.0
220
0.0
230
1.0
  2
SOLID
 70
     1
 71
     0
 91
        1
 92
        1
 93
        1
 72
     4
 94
        3
 73
     0
 74
     1
 95
       86
 96
       82
 40
0.0
 40
0.0
 40
0.0
 40
0.0
 40
1.0
 40
1.0
 40
1.0
 40
2.0
 40
2.0
 40
2.0
 40
3.0
 40
3.0
 40
3.0
 40
4.0
 40
4.0
 40
4.0
 40
5.0
 40
5.0
 40
5.0
 40
6.0
 40
6.0
 40
6.0
 40
7.0
 40
7.0
 40
7.0
 40
8.0
 40
8.0
 40
8.0
 40
9.0
 40
9.0
 40
9.0
 40
10.0
 40
10.0
 40
10.0
 40
11.0
 40
11.0
 40
11.0
 40
12.0
 40
12.0
 40
12.0
 40
13.0
 40
13.0
 40
13.0
 40
14.0
 40
14.0
 40
14.0
 40
15.0
 40
15.0
 40
15.0
 40
16.0
 40
16.0
 40
16.0
 40
17.0
 40
17.0
 40
17.0
 40
18.0
 40
18.0
 40
18.0
 40
19.0
 40
19.0
 40
19.0
 40
20.0
 40
20.0
 40
20.0
 40
21.0
 40
21.0
 40
21.0
 40
22.0
 40
22.0
 40
22.0
 40
23.0
 40
23.0
 40
23.0
 40
24.0
 40
24.0
 40
24.0
 40
25.0
 40
25.0
 40
25.0
 40
26.0
 40
26.0
 40
26.0
 40
27.0
 40
27.0
 40
27.0
 40
27.0
 10
4.432861111111101
 20
5.993055555555555
 10
4.432861111111101
 20
5.993055555555555
 10
5.690972222222222
 20
5.644097222222222
 10
5.690972222222222
 20
5.644097222222222
 10
5.690972222222222
 20
5.644097222222222
 10
6.277777777777778
 20
5.475694444444444
 10
6.277777777777778
 20
5.475694444444444
 10
6.277777777777778
 20
5.475694444444444
 10
6.296875
 20
5.473958333333333
 10
6.296875
 20
5.442708333333333
 10
6.296875
 20
5.442708333333333
 10
6.296875
 20
5.0625
 10
6.296875
 20
5.0625
 10
6.296875
 20
5.0625
 10
6.267361111111111
 20
5.041666666666666
 10
6.267361111111111
 20
5.041666666666666
 10
6.267361111111111
 20
5.041666666666666
 10
5.828125
 20
5.192708333333333
 10
5.828125
 20
5.192708333333333
 10
5.828125
 20
5.192708333333333
 10
5.828125
 20
5.173611111111111
 10
5.828125
 20
5.173611111111111
 10
5.828125
 20
5.173611111111111
 10
5.613430555555547
 20
5.046291666666674
 10
5.613430555555547
 20
5.046291666666674
 10
5.613430555555547
 20
5.046291666666674
 10
5.601847222222229
 20
5.03470833333333
 10
5.601847222222229
 20
5.018513888888896
 10
5.601847222222229
 20
5.018513888888896
 10
5.601847222222229
 20
4.618055555555555
 10
5.601847222222229
 20
4.618055555555555
 10
5.601847222222229
 20
4.618055555555555
 10
5.56438458165404
 20
4.589030439626892
 10
5.56438458165404
 20
4.589030439626892
 10
5.56438458165404
 20
4.589030439626892
 10
5.196194444444447
 20
4.731227658256911
 10
5.196194444444447
 20
4.731227658256911
 10
5.196194444444447
 20
4.731227658256911
 10
5.196763888888881
 20
4.619709605518538
 10
5.196763888888881
 20
4.619709605518538
 10
5.195272090978606
 20
4.590590161809713
 10
5.180555555555555
 20
4.58565277777777
 10
5.180555555555555
 20
4.58565277777777
 10
5.180555555555555
 20
4.58565277777777
 10
4.990192929492675
 20
4.463962387230822
 10
4.990192929492675
 20
4.463962387230822
 10
4.990192929492675
 20
4.463962387230822
 10
4.953708333333325
 20
4.476847222222229
 10
4.953708333333325
 20
4.476847222222229
 10
4.953708333333325
 20
4.476847222222229
 10
4.928236111111119
 20
4.506944444444444
 10
4.928236111111119
 20
4.506944444444444
 10
4.928236111111119
 20
4.506944444444444
 10
4.858791666666674
 20
4.25
 10
4.858791666666674
 20
4.25
 10
4.858791666666674
 20
4.25
 10
4.826402777777781
 20
4.270833333333333
 10
4.826402777777781
 20
4.270833333333333
 10
4.826402777777781
 20
4.270833333333333
 10
4.774549879384722
 20
4.323174890787413
 10
4.774549879384722
 20
4.323174890787413
 10
4.774549879384722
 20
4.323174890787413
 10
4.506944444444444
 20
4.155097222222214
 10
4.506944444444444
 20
4.155097222222214
 10
4.481486111111104
 20
4.138902777777781
 10
4.462958333333341
 20
4.150458333333341
 10
4.462958333333341
 20
4.150458333333341
 10
4.462958333333341
 20
4.150458333333341
 10
4.11342350719729
 20
4.314819444444437
 10
4.11342350719729
 20
4.314819444444437
 10
4.099534618659264
 20
4.321763888888881
 10
4.099487396438235
 20
4.336697112668036
 10
4.099487396438235
 20
4.336697112668036
 10
4.099487396438235
 20
4.336697112668036
 10
4.099487396438235
 20
5.154758203113184
 10
4.099487396438235
 20
5.154758203113184
 10
4.099487396438235
 20
5.154758203113184
 10
3.625047130645827
 20
5.345024864973311
 10
3.625047130645827
 20
5.345024864973311
 10
3.625047130645827
 20
5.345024864973311
 10
4.432861111111101
 20
5.993055555555555
 10
4.432861111111101
 20
5.993055555555555
 97
        0
 97
        0
 75
     2
 76
     1
 98
        0
  0
SPLINE
  5
43
330
1F
100
AcDbEntity
  8
Layer 1
370
     0
100
AcDbSpline
210
0.0
220
0.0
230
1.0
 70
    11
 71
     3
 72
    50
 73
    46
 74
     0
 42
0.0000000001
 43
0.0000000001
 12
1.0
 22
0.0
 32
0.0
 13
1.0
 23
0.0
 33
0.0
 40
0.0
 40
0.0
 40
0.0
 40
0.0
 40
1.0
 40
1.0
 40
1.0
 40
2.0
 40
2.0
 40
2.0
 40
3.0
 40
3.0
 40
3.0
 40
4.0
 40
4.0
 40
4.0
 40
5.0
 40
5.0
 40
5.0
 40
6.0
 40
6.0
 40
6.0
 40
7.0
 40
7.0
 40
7.0
 40
8.0
 40
8.0
 40
8.0
 40
9.0
 40
9.0
 40
9.0
 40
10.0
 40
10.0
 40
10.0
 40
11.0
 40
11.0
 40
11.0
 40
12.0
 40
12.0
 40
12.0
 40
13.0
 40
13.0
 40
13.0
 40
14.0
 40
14.0
 40
14.0
 40
15.0
 40
15.0
 40
15.0
 40
15.0
 10
3.364583333333333
 20
6.326388888888888
 30
0.0
 10
3.364583333333333
 20
6.326388888888888
 30
0.0
 10
3.201388888888889
 20
6.375
 30
0.0
 10
3.201388888888889
 20
6.375
 30
0.0
 10
3.180555555555555
 20
6.381944444444444
 30
0.0
 10
3.152777777777778
 20
6.378472222222221
 30
0.0
 10
3.152777777777778
 20
6.378472222222221
 30
0.0
 10
3.152777777777778
 20
6.378472222222221
 30
0.0
 10
2.97408742486823
 20
6.327779006813519
 30
0.0
 10
2.97408742486823
 20
6.327779006813519
 30
0.0
 10
2.97408742486823
 20
6.327779006813519
 30
0.0
 10
2.972222222222222
 20
6.284722222222221
 30
0.0
 10
2.972222222222222
 20
6.284722222222221
 30
0.0
 10
2.972222222222222
 20
6.284722222222221
 30
0.0
 10
2.710645764856672
 20
6.300923451936391
 30
0.0
 10
2.710645764856672
 20
6.300923451936391
 30
0.0
 10
2.710645764856672
 20
6.300923451936391
 30
0.0
 10
2.709798542655853
 20
6.252813730929524
 30
0.0
 10
2.709798542655853
 20
6.252813730929524
 30
0.0
 10
2.709798542655853
 20
6.252813730929524
 30
0.0
 10
2.430555555555555
 20
6.173611111111111
 30
0.0
 10
2.430555555555555
 20
6.173611111111111
 30
0.0
 10
2.405069444444444
 20
6.166354010891458
 30
0.0
 10
2.40740966140595
 20
6.149305555555555
 30
0.0
 10
2.40740966140595
 20
6.149305555555555
 30
0.0
 10
2.40740966140595
 20
6.149305555555555
 30
0.0
 10
2.40740966140595
 20
5.833333333333333
 30
0.0
 10
2.40740966140595
 20
5.833333333333333
 30
0.0
 10
2.40740966140595
 20
5.833333333333333
 30
0.0
 10
3.007038812924697
 20
5.592861111111106
 30
0.0
 10
3.007038812924697
 20
5.592861111111106
 30
0.0
 10
3.007038812924697
 20
5.592861111111106
 30
0.0
 10
3.368055555555555
 20
5.729166666666666
 30
0.0
 10
3.368055555555555
 20
5.729166666666666
 30
0.0
 10
3.368055555555555
 20
5.729166666666666
 30
0.0
 10
3.368055555555555
 20
5.99479845966976
 30
0.0
 10
3.368055555555555
 20
5.99479845966976
 30
0.0
 10
3.368055555555555
 20
5.99479845966976
 30
0.0
 10
3.442708333333333
 20
6.118055555555555
 30
0.0
 10
3.442708333333333
 20
6.118055555555555
 30
0.0
 10
3.442708333333333
 20
6.118055555555555
 30
0.0
 10
3.263888888888889
 20
6.175347222222222
 30
0.0
 10
3.263888888888889
 20
6.175347222222222
 30
0.0
 10
3.263888888888889
 20
6.175347222222222
 30
0.0
 10
3.364583333333333
 20
6.326388888888888
 30
0.0
 10
3.364583333333333
 20
6.326388888888888
 30
0.0
  0
HATCH
  5
44
330
1F
100
AcDbEntity
  8
Layer 1
 62
   253
420
 10987947
100
AcDbHatch
 10
0.0
 20
0.0
 30
0.0
210
0.0
220
0.0
230
1.0
  2
SOLID
 70
     1
 71
     0
 91
        1
 92
        1
 93
        1
 72
     4
 94
        3
 73
     0
 74
     1
 95
       50
 96
       46
 40
0.0
 40
0.0
 40
0.0
 40
0.0
 40
1.0
 40
1.0
 40
1.0
 40
2.0
 40
2.0
 40
2.0
 40
3.0
 40
3.0
 40
3.0
 40
4.0
 40
4.0
 40
4.0
 40
5.0
 40
5.0
 40
5.0
 40
6.0
 40
6.0
 40
6.0
 40
7.0
 40
7.0
 40
7.0
 40
8.0
 40
8.0
 40
8.0
 40
9.0
 40
9.0
 40
9.0
 40
10.0
 40
10.0
 40
10.0
 40
11.0
 40
11.0
 40
11.0
 40
12.0
 40
12.0
 40
12.0
 40
13.0
 40
13.0
 40
13.0
 40
14.0
 40
14.0
 40
14.0
 40
15.0
 40
15.0
 40
15.0
 40
15.0
 10
3.364583333333333
 20
6.326388888888888
 10
3.364583333333333
 20
6.326388888888888
 10
3.201388888888889
 20
6.375
 10
3.201388888888889
 20
6.375
 10
3.180555555555555
 20
6.381944444444444
 10
3.152777777777778
 20
6.378472222222221
 10
3.152777777777778
 20
6.378472222222221
 10
3.152777777777778
 20
6.378472222222221
 10
2.97408742486823
 20
6.327779006813519
 10
2.97408742486823
 20
6.327779006813519
 10
2.97408742486823
 20
6.327779006813519
 10
2.972222222222222
 20
6.284722222222221
 10
2.972222222222222
 20
6.284722222222221
 10
2.972222222222222
 20
6.284722222222221
 10
2.710645764856672
 20
6.300923451936391
 10
2.710645764856672
 20
6.300923451936391
 10
2.710645764856672
 20
6.300923451936391
 10
2.709798542655853
 20
6.252813730929524
 10
2.709798542655853
 20
6.252813730929524
 10
2.709798542655853
 20
6.252813730929524
 10
2.430555555555555
 20
6.173611111111111
 10
2.430555555555555
 20
6.173611111111111
 10
2.405069444444444
 20
6.166354010891458
 10
2.40740966140595
 20
6.149305555555555
 10
2.40740966140595
 20
6.149305555555555
 10
2.40740966140595
 20
6.149305555555555
 10
2.40740966140595
 20
5.833333333333333
 10
2.40740966140595
 20
5.833333333333333
 10
2.40740966140595
 20
5.833333333333333
 10
3.007038812924697
 20
5.592861111111106
 10
3.007038812924697
 20
5.592861111111106
 10
3.007038812924697
 20
5.592861111111106
 10
3.368055555555555
 20
5.729166666666666
 10
3.368055555555555
 20
5.729166666666666
 10
3.368055555555555
 20
5.729166666666666
 10
3.368055555555555
 20
5.99479845966976
 10
3.368055555555555
 20
5.99479845966976
 10
3.368055555555555
 20
5.99479845966976
 10
3.442708333333333
 20
6.118055555555555
 10
3.442708333333333
 20
6.118055555555555
 10
3.442708333333333
 20
6.118055555555555
 10
3.263888888888889
 20
6.175347222222222
 10
3.263888888888889
 20
6.175347222222222
 10
3.263888888888889
 20
6.175347222222222
 10
3.364583333333333
 20
6.326388888888888
 10
3.364583333333333
 20
6.326388888888888
 97
        0
 97
        0
 75
     2
 76
     1
 98
        0
  0
SPLINE
  5
45
330
1F
100
AcDbEntity
  8
Layer 1
 62
   250
420
  2301728
370
    35
100
AcDbSpline
210
0.0
220
0.0
230
1.0
 70
     8
 71
     3
 72
    80
 73
    76
 74
     0
 42
0.0000000001
 43
0.0000000001
 12
1.0
 22
0.0
 32
0.0
 13
1.0
 23
0.0
 33
0.0
 40
0.0
 40
0.0
 40
0.0
 40
0.0
 40
1.0
 40
1.0
 40
1.0
 40
2.0
 40
2.0
 40
2.0
 40
3.0
 40
3.0
 40
3.0
 40
4.0
 40
4.0
 40
4.0
 40
5.0
 40
5.0
 40
5.0
 40
6.0
 40
6.0
 40
6.0
 40
7.0
 40
7.0
 40
7.0
 40
8.0
 40
8.0
 40
8.0
 40
9.0
 40
9.0
 40
9.0
 40
10.0
 40
10.0
 40
10.0
 40
11.0
 40
11.0
 40
11.0
 40
12.0
 40
12.0
 40
12.0
 40
13.0
 40
13.0
 40
13.0
 40
14.0
 40
14.0
 40
14.0
 40
15.0
 40
15.0
 40
15.0
 40
16.0
 40
16.0
 40
16.0
 40
17.0
 40
17.0
 40
17.0
 40
18.0
 40
18.0
 40
18.0
 40
19.0
 40
19.0
 40
19.0
 40
20.0
 40
20.0
 40
20.0
 40
21.0
 40
21.0
 40
21.0
 40
22.0
 40
22.0
 40
22.0
 40
23.0
 40
23.0
 40
23.0
 40
24.0
 40
24.0
 40
24.0
 40
25.0
 40
25.0
 40
25.0
 40
25.0
 10
5.690972222222222
 20
5.644097222222222
 30
0.0
 10
5.690972222222222
 20
5.644097222222222
 30
0.0
 10
6.277777777777778
 20
5.475694444444444
 30
0.0
 10
6.277777777777778
 20
5.475694444444444
 30
0.0
 10
6.277777777777778
 20
5.475694444444444
 30
0.0
 10
6.296875
 20
5.473958333333333
 30
0.0
 10
6.296875
 20
5.442708333333333
 30
0.0
 10
6.296875
 20
5.442708333333333
 30
0.0
 10
6.296875
 20
5.0625
 30
0.0
 10
6.296875
 20
5.0625
 30
0.0
 10
6.296875
 20
5.0625
 30
0.0
 10
6.267361111111111
 20
5.041666666666666
 30
0.0
 10
6.267361111111111
 20
5.041666666666666
 30
0.0
 10
6.267361111111111
 20
5.041666666666666
 30
0.0
 10
5.828125
 20
5.192708333333333
 30
0.0
 10
5.828125
 20
5.192708333333333
 30
0.0
 10
5.828125
 20
5.192708333333333
 30
0.0
 10
5.828125
 20
5.173611111111111
 30
0.0
 10
5.828125
 20
5.173611111111111
 30
0.0
 10
5.828125
 20
5.173611111111111
 30
0.0
 10
5.613430555555547
 20
5.046291666666674
 30
0.0
 10
5.613430555555547
 20
5.046291666666674
 30
0.0
 10
5.613430555555547
 20
5.046291666666674
 30
0.0
 10
5.601847222222229
 20
5.03470833333333
 30
0.0
 10
5.601847222222229
 20
5.018513888888896
 30
0.0
 10
5.601847222222229
 20
5.018513888888896
 30
0.0
 10
5.601847222222229
 20
4.618055555555555
 30
0.0
 10
5.601847222222229
 20
4.618055555555555
 30
0.0
 10
5.601847222222229
 20
4.618055555555555
 30
0.0
 10
5.56438458165404
 20
4.589030439626892
 30
0.0
 10
5.56438458165404
 20
4.589030439626892
 30
0.0
 10
5.56438458165404
 20
4.589030439626892
 30
0.0
 10
5.196194444444447
 20
4.731227658256911
 30
0.0
 10
5.196194444444447
 20
4.731227658256911
 30
0.0
 10
5.196194444444447
 20
4.731227658256911
 30
0.0
 10
5.196763888888881
 20
4.619709605518538
 30
0.0
 10
5.196763888888881
 20
4.619709605518538
 30
0.0
 10
5.195272090978606
 20
4.590590161809713
 30
0.0
 10
5.180555555555555
 20
4.58565277777777
 30
0.0
 10
5.180555555555555
 20
4.58565277777777
 30
0.0
 10
5.180555555555555
 20
4.58565277777777
 30
0.0
 10
4.990192929492675
 20
4.463962387230822
 30
0.0
 10
4.990192929492675
 20
4.463962387230822
 30
0.0
 10
4.990192929492675
 20
4.463962387230822
 30
0.0
 10
4.953708333333325
 20
4.476847222222229
 30
0.0
 10
4.953708333333325
 20
4.476847222222229
 30
0.0
 10
4.953708333333325
 20
4.476847222222229
 30
0.0
 10
4.928236111111119
 20
4.506944444444444
 30
0.0
 10
4.928236111111119
 20
4.506944444444444
 30
0.0
 10
4.928236111111119
 20
4.506944444444444
 30
0.0
 10
4.858791666666674
 20
4.25
 30
0.0
 10
4.858791666666674
 20
4.25
 30
0.0
 10
4.858791666666674
 20
4.25
 30
0.0
 10
4.826402777777781
 20
4.270833333333333
 30
0.0
 10
4.826402777777781
 20
4.270833333333333
 30
0.0
 10
4.826402777777781
 20
4.270833333333333
 30
0.0
 10
4.774549879384722
 20
4.323174890787413
 30
0.0
 10
4.774549879384722
 20
4.323174890787413
 30
0.0
 10
4.774549879384722
 20
4.323174890787413
 30
0.0
 10
4.506944444444444
 20
4.155097222222214
 30
0.0
 10
4.506944444444444
 20
4.155097222222214
 30
0.0
 10
4.481486111111104
 20
4.138902777777781
 30
0.0
 10
4.462958333333341
 20
4.150458333333341
 30
0.0
 10
4.462958333333341
 20
4.150458333333341
 30
0.0
 10
4.462958333333341
 20
4.150458333333341
 30
0.0
 10
4.11342350719729
 20
4.314819444444437
 30
0.0
 10
4.11342350719729
 20
4.314819444444437
 30
0.0
 10
4.099534618659264
 20
4.321763888888881
 30
0.0
 10
4.099487396438235
 20
4.336697112668036
 30
0.0
 10
4.099487396438235
 20
4.336697112668036
 30
0.0
 10
4.099487396438235
 20
4.336697112668036
 30
0.0
 10
4.099487396438235
 20
5.154758203113184
 30
0.0
 10
4.099487396438235
 20
5.154758203113184
 30
0.0
 10
4.099487396438235
 20
5.154758203113184
 30
0.0
 10
3.625047130645827
 20
5.345024864973311
 30
0.0
 10
3.625047130645827
 20
5.345024864973311
 30
0.0
  0
POLYLINE
  5
46
330
1F
100
AcDbEntity
  8
Layer 1
 62
   250
420
  2301728
370
    25
100
AcDb2dPolyline
 66
     1
 10
0.0
 20
0.0
 30
0.0
  0
VERTEX
  5
47
330
46
100
AcDbEntity
  8
Layer 1
 62
   250
420
  2301728
370
    25
100
AcDbVertex
100
AcDb2dVertex
 10
3.366319444444444
 20
6.322916666666666
 30
0.0
  0
VERTEX
  5
48
330
46
100
AcDbEntity
  8
Layer 1
 62
   250
420
  2301728
370
    25
100
AcDbVertex
100
AcDb2dVertex
 10
3.390625
 20
6.3125
 30
0.0
  0
SEQEND
  5
49
330
46
100
AcDbEntity
  8
Layer 1
 62
   250
420
  2301728
370
    25
  0
POLYLINE
  5
4A
330
1F
100
AcDbEntity
  8
Layer 1
 62
   250
420
  2301728
370
    35
100
AcDb2dPolyline
 66
     1
 10
0.0
 20
0.0
 30
0.0
  0
VERTEX
  5
4B
330
4A
100
AcDbEntity
  8
Layer 1
 62
   250
420
  2301728
370
    35
100
AcDbVertex
100
AcDb2dVertex
 10
3.434027777777778
 20
6.119791666666666
 30
0.0
  0
VERTEX
  5
4C
330
4A
100
AcDbEntity
  8
Layer 1
 62
   250
420
  2301728
370
    35
100
AcDbVertex
100
AcDb2dVertex
 10
3.472222222222222
 20
6.105902777777778
 30
0.0
  0
SEQEND
  5
4D
330
4A
100
AcDbEntity
  8
Layer 1
 62
   250
420
  2301728
370
    35
  0
POLYLINE
  5
4E
330
1F
100
AcDbEntity
  8
Layer 1
 62
   250
420
  2301728
370
    25
100
AcDb2dPolyline
 66
     1
 10
0.0
 20
0.0
 30
0.0
  0
VERTEX
  5
4F
330
4E
100
AcDbEntity
  8
Layer 1
 62
   250
420
  2301728
370
    25
100
AcDbVertex
100
AcDb2dVertex
 10
3.367187414937689
 20
5.992194444444445
 30
0.0
  0
VERTEX
  5
50
330
4E
100
AcDbEntity
  8
Layer 1
 62
   250
420
  2301728
370
    25
100
AcDbVertex
100
AcDb2dVertex
 10
3.394097222222222
 20
5.980902777777778
 30
0.0
  0
SEQEND
  5
51
330
4E
100
AcDbEntity
  8
Layer 1
 62
   250
420
  2301728
370
    25
  0
POLYLINE
  5
52
330
1F
100
AcDbEntity
  8
Layer 1
 62
   250
420
  2301728
370
    25
100
AcDb2dPolyline
 66
     1
 10
0.0
 20
0.0
 30
0.0
  0
VERTEX
  5
53
330
52
100
AcDbEntity
  8
Layer 1
 62
   250
420
  2301728
370
    25
100
AcDbVertex
100
AcDb2dVertex
 10
2.940972222222222
 20
5.5625
 30
0.0
  0
VERTEX
  5
54
330
52
100
AcDbEntity
  8
Layer 1
 62
   250
420
  2301728
370
    25
100
AcDbVertex
100
AcDb2dVertex
 10
2.970486111111111
 20
5.550347222222222
 30
0.0
  0
SEQEND
  5
55
330
52
100
AcDbEntity
  8
Layer 1
 62
   250
420
  2301728
370
    25
  0
SPLINE
  5
56
330
1F
100
AcDbEntity
  8
Layer 1
 62
   250
420
  2301728
370
    35
100
AcDbSpline
210
0.0
220
0.0
230
1.0
 70
    11
 71
     3
 72
    95
 73
    91
 74
     0
 42
0.0000000001
 43
0.0000000001
 12
1.0
 22
0.0
 32
0.0
 13
1.0
 23
0.0
 33
0.0
 40
0.0
 40
0.0
 40
0.0
 40
0.0
 40
1.0
 40
1.0
 40
1.0
 40
2.0
 40
2.0
 40
2.0
 40
3.0
 40
3.0
 40
3.0
 40
4.0
 40
4.0
 40
4.0
 40
5.0
 40
5.0
 40
5.0
 40
6.0
 40
6.0
 40
6.0
 40
7.0
 40
7.0
 40
7.0
 40
8.0
 40
8.0
 40
8.0
 40
9.0
 40
9.0
 40
9.0
 40
10.0
 40
10.0
 40
10.0
 40
11.0
 40
11.0
 40
11.0
 40
12.0
 40
12.0
 40
12.0
 40
13.0
 40
13.0
 40
13.0
 40
14.0
 40
14.0
 40
14.0
 40
15.0
 40
15.0
 40
15.0
 40
16.0
 40
16.0
 40
16.0
 40
17.0
 40
17.0
 40
17.0
 40
18.0
 40
18.0
 40
18.0
 40
19.0
 40
19.0
 40
19.0
 40
20.0
 40
20.0
 40
20.0
 40
21.0
 40
21.0
 40
21.0
 40
22.0
 40
22.0
 40
22.0
 40
23.0
 40
23.0
 40
23.0
 40
24.0
 40
24.0
 40
24.0
 40
25.0
 40
25.0
 40
25.0
 40
26.0
 40
26.0
 40
26.0
 40
27.0
 40
27.0
 40
27.0
 40
28.0
 40
28.0
 40
28.0
 40
29.0
 40
29.0
 40
29.0
 40
30.0
 40
30.0
 40
30.0
 40
30.0
 10
5.479248472693649
 20
6.166483177554861
 30
0.0
 10
5.479248472693649
 20
6.166483177554861
 30
0.0
 10
5.934027777777778
 20
6.368055555555555
 30
0.0
 10
5.934027777777778
 20
6.368055555555555
 30
0.0
 10
5.934027777777778
 20
6.368055555555555
 30
0.0
 10
5.951388888888888
 20
6.378472222222221
 30
0.0
 10
5.951388888888888
 20
6.416666666666666
 30
0.0
 10
5.951388888888888
 20
6.416666666666666
 30
0.0
 10
5.951388888888888
 20
6.864583333333333
 30
0.0
 10
5.951388888888888
 20
6.864583333333333
 30
0.0
 10
5.951388888888888
 20
6.864583333333333
 30
0.0
 10
6.024305555555555
 20
6.947916666666666
 30
0.0
 10
6.024305555555555
 20
6.947916666666666
 30
0.0
 10
6.024305555555555
 20
6.947916666666666
 30
0.0
 10
5.895833333333333
 20
7.027777777777778
 30
0.0
 10
5.895833333333333
 20
7.027777777777778
 30
0.0
 10
5.895833333333333
 20
7.027777777777778
 30
0.0
 10
5.951388888888888
 20
7.098958333333333
 30
0.0
 10
5.951388888888888
 20
7.098958333333333
 30
0.0
 10
5.951388888888888
 20
7.098958333333333
 30
0.0
 10
5.951388888888888
 20
7.611111111111111
 30
0.0
 10
5.951388888888888
 20
7.611111111111111
 30
0.0
 10
5.951388888888888
 20
7.611111111111111
 30
0.0
 10
5.947916666666666
 20
7.628472222222221
 30
0.0
 10
5.927083333333333
 20
7.631944444444444
 30
0.0
 10
5.927083333333333
 20
7.631944444444444
 30
0.0
 10
5.600694444444444
 20
7.680555555555555
 30
0.0
 10
5.600694444444444
 20
7.680555555555555
 30
0.0
 10
5.600694444444444
 20
7.680555555555555
 30
0.0
 10
5.5625
 20
7.684027777777778
 30
0.0
 10
5.539930555555555
 20
7.675347222222221
 30
0.0
 10
5.539930555555555
 20
7.675347222222221
 30
0.0
 10
3.001736111111111
 20
7.119791666666666
 30
0.0
 10
3.001736111111111
 20
7.119791666666666
 30
0.0
 10
3.001736111111111
 20
7.119791666666666
 30
0.0
 10
2.9375
 20
7.125
 30
0.0
 10
2.9375
 20
7.069444444444444
 30
0.0
 10
2.9375
 20
7.069444444444444
 30
0.0
 10
2.9375
 20
7.027777777777778
 30
0.0
 10
2.9375
 20
7.027777777777778
 30
0.0
 10
2.9375
 20
7.027777777777778
 30
0.0
 10
2.972222222222222
 20
7.013888888888888
 30
0.0
 10
2.972222222222222
 20
7.013888888888888
 30
0.0
 10
2.972222222222222
 20
7.013888888888888
 30
0.0
 10
3.135416666666667
 20
7.052083333333333
 30
0.0
 10
3.135416666666667
 20
7.052083333333333
 30
0.0
 10
3.135416666666667
 20
7.052083333333333
 30
0.0
 10
3.344516582177069
 20
7.004719267490347
 30
0.0
 10
3.344516582177069
 20
7.004719267490347
 30
0.0
 10
3.344516582177069
 20
7.004719267490347
 30
0.0
 10
3.367044359385747
 20
7.001342878686753
 30
0.0
 10
3.368055555555555
 20
6.961805555555555
 30
0.0
 10
3.368055555555555
 20
6.961805555555555
 30
0.0
 10
3.368055555555555
 20
6.324652777777778
 30
0.0
 10
3.368055555555555
 20
6.324652777777778
 30
0.0
 10
3.368055555555555
 20
6.324652777777778
 30
0.0
 10
3.263888888888889
 20
6.175347222222222
 30
0.0
 10
3.263888888888889
 20
6.175347222222222
 30
0.0
 10
3.263888888888889
 20
6.175347222222222
 30
0.0
 10
3.442708333333333
 20
6.118055555555555
 30
0.0
 10
3.442708333333333
 20
6.118055555555555
 30
0.0
 10
3.442708333333333
 20
6.118055555555555
 30
0.0
 10
3.368055555555555
 20
5.99479845966976
 30
0.0
 10
3.368055555555555
 20
5.99479845966976
 30
0.0
 10
3.368055555555555
 20
5.99479845966976
 30
0.0
 10
3.368055555555555
 20
5.991319444444444
 30
0.0
 10
3.368055555555555
 20
5.991319444444444
 30
0.0
 10
3.368055555555555
 20
5.991319444444444
 30
0.0
 10
3.368055555555555
 20
5.729166666666666
 30
0.0
 10
3.368055555555555
 20
5.729166666666666
 30
0.0
 10
3.368055555555555
 20
5.729166666666666
 30
0.0
 10
2.9375
 20
5.5625
 30
0.0
 10
2.9375
 20
5.5625
 30
0.0
 10
2.9375
 20
5.5625
 30
0.0
 10
2.9375
 20
5.458333333333333
 30
0.0
 10
2.9375
 20
5.458333333333333
 30
0.0
 10
2.9375
 20
5.458333333333333
 30
0.0
 10
2.934027777777778
 20
5.430555555555555
 30
0.0
 10
2.961805555555555
 20
5.416666666666666
 30
0.0
 10
2.961805555555555
 20
5.416666666666666
 30
0.0
 10
3.34375
 20
5.246527777777778
 30
0.0
 10
3.34375
 20
5.246527777777778
 30
0.0
 10
3.34375
 20
5.246527777777778
 30
0.0
 10
3.370991581508254
 20
5.234483201099161
 30
0.0
 10
3.395833333333333
 20
5.243055555555555
 30
0.0
 10
3.395833333333333
 20
5.243055555555555
 30
0.0
 10
4.4879693310688
 20
5.727125000000001
 30
0.0
 10
4.4879693310688
 20
5.727125000000001
 30
0.0
 10
4.4879693310688
 20
5.727125000000001
 30
0.0
 10
5.479248472693649
 20
6.166483177554861
 30
0.0
 10
5.479248472693649
 20
6.166483177554861
 30
0.0
  0
HATCH
  5
57
330
1F
100
AcDbEntity
  8
Layer 1
 62
   253
420
 10987947
100
AcDbHatch
 10
0.0
 20
0.0
 30
0.0
210
0.0
220
0.0
230
1.0
  2
SOLID
 70
     1
 71
     0
 91
        1
 92
        1
 93
        1
 72
     4
 94
        3
 73
     0
 74
     1
 95
       95
 96
       91
 40
0.0
 40
0.0
 40
0.0
 40
0.0
 40
1.0
 40
1.0
 40
1.0
 40
2.0
 40
2.0
 40
2.0
 40
3.0
 40
3.0
 40
3.0
 40
4.0
 40
4.0
 40
4.0
 40
5.0
 40
5.0
 40
5.0
 40
6.0
 40
6.0
 40
6.0
 40
7.0
 40
7.0
 40
7.0
 40
8.0
 40
8.0
 40
8.0
 40
9.0
 40
9.0
 40
9.0
 40
10.0
 40
10.0
 40
10.0
 40
11.0
 40
11.0
 40
11.0
 40
12.0
 40
12.0
 40
12.0
 40
13.0
 40
13.0
 40
13.0
 40
14.0
 40
14.0
 40
14.0
 40
15.0
 40
15.0
 40
15.0
 40
16.0
 40
16.0
 40
16.0
 40
17.0
 40
17.0
 40
17.0
 40
18.0
 40
18.0
 40
18.0
 40
19.0
 40
19.0
 40
19.0
 40
20.0
 40
20.0
 40
20.0
 40
21.0
 40
21.0
 40
21.0
 40
22.0
 40
22.0
 40
22.0
 40
23.0
 40
23.0
 40
23.0
 40
24.0
 40
24.0
 40
24.0
 40
25.0
 40
25.0
 40
25.0
 40
26.0
 40
26.0
 40
26.0
 40
27.0
 40
27.0
 40
27.0
 40
28.0
 40
28.0
 40
28.0
 40
29.0
 40
29.0
 40
29.0
 40
30.0
 40
30.0
 40
30.0
 40
30.0
 10
5.479248472693649
 20
6.166483177554861
 10
5.479248472693649
 20
6.166483177554861
 10
5.934027777777778
 20
6.368055555555555
 10
5.934027777777778
 20
6.368055555555555
 10
5.934027777777778
 20
6.368055555555555
 10
5.951388888888888
 20
6.378472222222221
 10
5.951388888888888
 20
6.416666666666666
 10
5.951388888888888
 20
6.416666666666666
 10
5.951388888888888
 20
6.864583333333333
 10
5.951388888888888
 20
6.864583333333333
 10
5.951388888888888
 20
6.864583333333333
 10
6.024305555555555
 20
6.947916666666666
 10
6.024305555555555
 20
6.947916666666666
 10
6.024305555555555
 20
6.947916666666666
 10
5.895833333333333
 20
7.027777777777778
 10
5.895833333333333
 20
7.027777777777778
 10
5.895833333333333
 20
7.027777777777778
 10
5.951388888888888
 20
7.098958333333333
 10
5.951388888888888
 20
7.098958333333333
 10
5.951388888888888
 20
7.098958333333333
 10
5.951388888888888
 20
7.611111111111111
 10
5.951388888888888
 20
7.611111111111111
 10
5.951388888888888
 20
7.611111111111111
 10
5.947916666666666
 20
7.628472222222221
 10
5.927083333333333
 20
7.631944444444444
 10
5.927083333333333
 20
7.631944444444444
 10
5.600694444444444
 20
7.680555555555555
 10
5.600694444444444
 20
7.680555555555555
 10
5.600694444444444
 20
7.680555555555555
 10
5.5625
 20
7.684027777777778
 10
5.539930555555555
 20
7.675347222222221
 10
5.539930555555555
 20
7.675347222222221
 10
3.001736111111111
 20
7.119791666666666
 10
3.001736111111111
 20
7.119791666666666
 10
3.001736111111111
 20
7.119791666666666
 10
2.9375
 20
7.125
 10
2.9375
 20
7.069444444444444
 10
2.9375
 20
7.069444444444444
 10
2.9375
 20
7.027777777777778
 10
2.9375
 20
7.027777777777778
 10
2.9375
 20
7.027777777777778
 10
2.972222222222222
 20
7.013888888888888
 10
2.972222222222222
 20
7.013888888888888
 10
2.972222222222222
 20
7.013888888888888
 10
3.135416666666667
 20
7.052083333333333
 10
3.135416666666667
 20
7.052083333333333
 10
3.135416666666667
 20
7.052083333333333
 10
3.344516582177069
 20
7.004719267490347
 10
3.344516582177069
 20
7.004719267490347
 10
3.344516582177069
 20
7.004719267490347
 10
3.367044359385747
 20
7.001342878686753
 10
3.368055555555555
 20
6.961805555555555
 10
3.368055555555555
 20
6.961805555555555
 10
3.368055555555555
 20
6.324652777777778
 10
3.368055555555555
 20
6.324652777777778
 10
3.368055555555555
 20
6.324652777777778
 10
3.263888888888889
 20
6.175347222222222
 10
3.263888888888889
 20
6.175347222222222
 10
3.263888888888889
 20
6.175347222222222
 10
3.442708333333333
 20
6.118055555555555
 10
3.442708333333333
 20
6.118055555555555
 10
3.442708333333333
 20
6.118055555555555
 10
3.368055555555555
 20
5.99479845966976
 10
3.368055555555555
 20
5.99479845966976
 10
3.368055555555555
 20
5.99479845966976
 10
3.368055555555555
 20
5.991319444444444
 10
3.368055555555555
 20
5.991319444444444
 10
3.368055555555555
 20
5.991319444444444
 10
3.368055555555555
 20
5.729166666666666
 10
3.368055555555555
 20
5.729166666666666
 10
3.368055555555555
 20
5.729166666666666
 10
2.9375
 20
5.5625
 10
2.9375
 20
5.5625
 10
2.9375
 20
5.5625
 10
2.9375
 20
5.458333333333333
 10
2.9375
 20
5.458333333333333
 10
2.9375
 20
5.458333333333333
 10
2.934027777777778
 20
5.430555555555555
 10
2.961805555555555
 20
5.416666666666666
 10
2.961805555555555
 20
5.416666666666666
 10
3.34375
 20
5.246527777777778
 10
3.34375
 20
5.246527777777778
 10
3.34375
 20
5.246527777777778
 10
3.370991581508254
 20
5.234483201099161
 10
3.395833333333333
 20
5.243055555555555
 10
3.395833333333333
 20
5.243055555555555
 10
4.4879693310688
 20
5.727125000000001
 10
4.4879693310688
 20
5.727125000000001
 10
4.4879693310688
 20
5.727125000000001
 10
5.479248472693649
 20
6.166483177554861
 10
5.479248472693649
 20
6.166483177554861
 97
        0
 97
        0
 75
     2
 76
     1
 98
        0
  0
SPLINE
  5
58
330
1F
100
AcDbEntity
  8
Layer 1
 62
   250
420
  2301728
370
    35
100
AcDbSpline
210
0.0
220
0.0
230
1.0
 70
     8
 71
     3
 72
    11
 73
     7
 74
     0
 42
0.0000000001
 43
0.0000000001
 12
1.0
 22
0.0
 32
0.0
 13
1.0
 23
0.0
 33
0.0
 40
0.0
 40
0.0
 40
0.0
 40
0.0
 40
1.0
 40
1.0
 40
1.0
 40
2.0
 40
2.0
 40
2.0
 40
2.0
 10
2.972222222222222
 20
7.083333333333333
 30
0.0
 10
2.977430555555555
 20
7.092013888888888
 30
0.0
 10
2.987847222222222
 20
7.086805555555555
 30
0.0
 10
2.987847222222222
 20
7.086805555555555
 30
0.0
 10
2.987847222222222
 20
7.086805555555555
 30
0.0
 10
3.196947141460542
 20
7.039441488835412
 30
0.0
 10
3.196947141460542
 20
7.039441488835412
 30
0.0
  0
SPLINE
  5
59
330
1F
100
AcDbEntity
  8
Layer 1
 62
   250
420
  2301728
370
    25
100
AcDbSpline
210
0.0
220
0.0
230
1.0
 70
     8
 71
     3
 72
    32
 73
    28
 74
     0
 42
0.0000000001
 43
0.0000000001
 12
1.0
 22
0.0
 32
0.0
 13
1.0
 23
0.0
 33
0.0
 40
0.0
 40
0.0
 40
0.0
 40
0.0
 40
1.0
 40
1.0
 40
1.0
 40
2.0
 40
2.0
 40
2.0
 40
3.0
 40
3.0
 40
3.0
 40
4.0
 40
4.0
 40
4.0
 40
5.0
 40
5.0
 40
5.0
 40
6.0
 40
6.0
 40
6.0
 40
7.0
 40
7.0
 40
7.0
 40
8.0
 40
8.0
 40
8.0
 40
9.0
 40
9.0
 40
9.0
 40
9.0
 10
2.944444444444444
 20
7.097222222222221
 30
0.0
 10
2.944444444444444
 20
7.097222222222221
 30
0.0
 10
2.951388888888889
 20
7.128472222222221
 30
0.0
 10
3.017361111111111
 20
7.114583333333333
 30
0.0
 10
3.017361111111111
 20
7.114583333333333
 30
0.0
 10
3.354166666666667
 20
7.03125
 30
0.0
 10
3.354166666666667
 20
7.03125
 30
0.0
 10
3.354166666666667
 20
7.03125
 30
0.0
 10
3.388448525511699
 20
7.026685933602089
 30
0.0
 10
3.392361111111111
 20
6.974378990479029
 30
0.0
 10
3.392361111111111
 20
6.974378990479029
 30
0.0
 10
3.392361111111111
 20
6.317708333333333
 30
0.0
 10
3.392361111111111
 20
6.317708333333333
 30
0.0
 10
3.392361111111111
 20
6.317708333333333
 30
0.0
 10
3.289930555555555
 20
6.168402777777778
 30
0.0
 10
3.289930555555555
 20
6.168402777777778
 30
0.0
 10
3.289930555555555
 20
6.168402777777778
 30
0.0
 10
3.467013888888889
 20
6.111111111111111
 30
0.0
 10
3.467013888888889
 20
6.111111111111111
 30
0.0
 10
3.467013888888889
 20
6.111111111111111
 30
0.0
 10
3.392361111111111
 20
5.98438179326624
 30
0.0
 10
3.392361111111111
 20
5.98438179326624
 30
0.0
 10
3.392361111111111
 20
5.98438179326624
 30
0.0
 10
3.392361111111111
 20
5.276462366705346
 30
0.0
 10
3.392361111111111
 20
5.276462366705346
 30
0.0
 10
3.392361111111111
 20
5.276462366705346
 30
0.0
 10
3.391269358773772
 20
5.226602645742686
 30
0.0
 10
3.34375
 20
5.246527777777778
 30
0.0
  0
SPLINE
  5
5A
330
1F
100
AcDbEntity
  8
Layer 1
 62
   250
420
  2301728
370
    25
100
AcDbSpline
210
0.0
220
0.0
230
1.0
 70
     8
 71
     3
 72
    11
 73
     7
 74
     0
 42
0.0000000001
 43
0.0000000001
 12
1.0
 22
0.0
 32
0.0
 13
1.0
 23
0.0
 33
0.0
 40
0.0
 40
0.0
 40
0.0
 40
0.0
 40
1.0
 40
1.0
 40
1.0
 40
2.0
 40
2.0
 40
2.0
 40
2.0
 10
2.965277777777778
 20
7.015625
 30
0.0
 10
2.965277777777778
 20
7.015625
 30
0.0
 10
2.965277777777778
 20
7.072265099117329
 30
0.0
 10
2.965277777777778
 20
7.072265099117329
 30
0.0
 10
2.965277777777778
 20
7.072265099117329
 30
0.0
 10
2.967013888888889
 20
7.082681765520848
 30
0.0
 10
2.973958333333333
 20
7.084417876588102
 30
0.0
  0
POLYLINE
  5
5B
330
1F
100
AcDbEntity
  8
Layer 1
 62
   250
420
  2301728
370
    25
100
AcDb2dPolyline
 66
     1
 10
0.0
 20
0.0
 30
0.0
  0
VERTEX
  5
5C
330
5B
100
AcDbEntity
  8
Layer 1
 62
   250
420
  2301728
370
    25
100
AcDbVertex
100
AcDb2dVertex
 10
3.430216580012105
 20
7.017055555555556
 30
0.0
  0
VERTEX
  5
5D
330
5B
100
AcDbEntity
  8
Layer 1
 62
   250
420
  2301728
370
    25
100
AcDbVertex
100
AcDb2dVertex
 10
3.409722222222222
 20
7.012152777777778
 30
0.0
  0
SEQEND
  5
5E
330
5B
100
AcDbEntity
  8
Layer 1
 62
   250
420
  2301728
370
    25
  0
POLYLINE
  5
5F
330
1F
100
AcDbEntity
  8
Layer 1
 62
   250
420
  2301728
370
    25
100
AcDb2dPolyline
 66
     1
 10
0.0
 20
0.0
 30
0.0
  0
VERTEX
  5
60
330
5F
100
AcDbEntity
  8
Layer 1
 62
   250
420
  2301728
370
    25
100
AcDbVertex
100
AcDb2dVertex
 10
5.867634573993301
 20
7.600599807992694
 30
0.0
  0
VERTEX
  5
61
330
5F
100
AcDbEntity
  8
Layer 1
 62
   250
420
  2301728
370
    25
100
AcDbVertex
100
AcDb2dVertex
 10
3.458027777777779
 20
7.023708333333338
 30
0.0
  0
SEQEND
  5
62
330
5F
100
AcDbEntity
  8
Layer 1
 62
   250
420
  2301728
370
    25
  0
POLYLINE
  5
63
330
1F
100
AcDbEntity
  8
Layer 1
 62
   250
420
  2301728
370
    25
100
AcDb2dPolyline
 66
     1
 10
0.0
 20
0.0
 30
0.0
  0
VERTEX
  5
64
330
63
100
AcDbEntity
  8
Layer 1
 62
   250
420
  2301728
370
    25
100
AcDbVertex
100
AcDb2dVertex
 10
5.911458333333333
 20
7.611111111111111
 30
0.0
  0
VERTEX
  5
65
330
63
100
AcDbEntity
  8
Layer 1
 62
   250
420
  2301728
370
    25
100
AcDbVertex
100
AcDb2dVertex
 10
5.895127628854324
 20
7.607191474492841
 30
0.0
  0
SEQEND
  5
66
330
63
100
AcDbEntity
  8
Layer 1
 62
   250
420
  2301728
370
    25
  0
INSERT
  5
68
330
1F
100
AcDbEntity
  8
Layer 1
100
AcDbBlockReference
  2
block 2
 10
0.0
 20
0.0
 30
0.0
  0
SPLINE
  5
95
330
1F
100
AcDbEntity
  8
Layer 1
 62
   250
420
  2301728
370
    25
100
AcDbSpline
210
0.0
220
0.0
230
1.0
 70
     8
 71
     3
 72
    20
 73
    16
 74
     0
 42
0.0000000001
 43
0.0000000001
 12
1.0
 22
0.0
 32
0.0
 13
1.0
 23
0.0
 33
0.0
 40
0.0
 40
0.0
 40
0.0
 40
0.0
 40
1.0
 40
1.0
 40
1.0
 40
2.0
 40
2.0
 40
2.0
 40
3.0
 40
3.0
 40
3.0
 40
4.0
 40
4.0
 40
4.0
 40
5.0
 40
5.0
 40
5.0
 40
5.0
 10
3.366319444444444
 20
5.703125
 30
0.0
 10
3.366319444444444
 20
5.703125
 30
0.0
 10
2.965277777777778
 20
5.546875
 30
0.0
 10
2.965277777777778
 20
5.546875
 30
0.0
 10
2.965277777777778
 20
5.546875
 30
0.0
 10
2.965277777777778
 20
5.465277777777778
 30
0.0
 10
2.965277777777778
 20
5.465277777777778
 30
0.0
 10
2.965277777777778
 20
5.465277777777778
 30
0.0
 10
2.961805555555555
 20
5.447916666666666
 30
0.0
 10
2.975694444444444
 20
5.440972222222222
 30
0.0
 10
2.975694444444444
 20
5.440972222222222
 30
0.0
 10
3.34375
 20
5.276041666666666
 30
0.0
 10
3.34375
 20
5.276041666666666
 30
0.0
 10
3.34375
 20
5.276041666666666
 30
0.0
 10
3.361111111111111
 20
5.272569444444444
 30
0.0
 10
3.364583333333333
 20
5.28125
 30
0.0
  0
POLYLINE
  5
96
330
1F
100
AcDbEntity
  8
Layer 1
 62
   250
420
  2301728
370
    25
100
AcDb2dPolyline
 66
     1
 10
0.0
 20
0.0
 30
0.0
  0
VERTEX
  5
97
330
96
100
AcDbEntity
  8
Layer 1
 62
   250
420
  2301728
370
    25
100
AcDbVertex
100
AcDb2dVertex
 10
3.041842978712137
 20
5.47879986159387
 30
0.0
  0
VERTEX
  5
98
330
96
100
AcDbEntity
  8
Layer 1
 62
   250
420
  2301728
370
    25
100
AcDbVertex
100
AcDb2dVertex
 10
3.366319444444444
 20
5.605902777777778
 30
0.0
  0
SEQEND
  5
99
330
96
100
AcDbEntity
  8
Layer 1
 62
   250
420
  2301728
370
    25
  0
POLYLINE
  5
9A
330
1F
100
AcDbEntity
  8
Layer 1
 62
   250
420
  2301728
370
    25
100
AcDb2dPolyline
 66
     1
 10
0.0
 20
0.0
 30
0.0
  0
VERTEX
  5
9B
330
9A
100
AcDbEntity
  8
Layer 1
 62
   250
420
  2301728
370
    25
100
AcDbVertex
100
AcDb2dVertex
 10
2.989583333333333
 20
5.458333333333333
 30
0.0
  0
VERTEX
  5
9C
330
9A
100
AcDbEntity
  8
Layer 1
 62
   250
420
  2301728
370
    25
100
AcDbVertex
100
AcDb2dVertex
 10
3.01569992381701
 20
5.468559584074783
 30
0.0
  0
SEQEND
  5
9D
330
9A
100
AcDbEntity
  8
Layer 1
 62
   250
420
  2301728
370
    25
  0
SPLINE
  5
9E
330
1F
100
AcDbEntity
  8
Layer 1
 62
   250
420
  2301728
370
    35
100
AcDbSpline
210
0.0
220
0.0
230
1.0
 70
     8
 71
     3
 72
    11
 73
     7
 74
     0
 42
0.0000000001
 43
0.0000000001
 12
1.0
 22
0.0
 32
0.0
 13
1.0
 23
0.0
 33
0.0
 40
0.0
 40
0.0
 40
0.0
 40
0.0
 40
1.0
 40
1.0
 40
1.0
 40
2.0
 40
2.0
 40
2.0
 40
2.0
 10
3.368055555555555
 20
5.743055555555555
 30
0.0
 10
3.368055555555555
 20
5.743055555555555
 30
0.0
 10
3.368055555555555
 20
5.289930555555555
 30
0.0
 10
3.368055555555555
 20
5.289930555555555
 30
0.0
 10
3.368055555555555
 20
5.289930555555555
 30
0.0
 10
3.368055555555555
 20
5.28125
 30
0.0
 10
3.357638888888889
 20
5.277777777777778
 30
0.0
  0
INSERT
  5
A0
330
1F
100
AcDbEntity
  8
Layer 1
100
AcDbBlockReference
  2
block 4
 10
0.0
 20
0.0
 30
0.0
  0
SPLINE
  5
C6
330
1F
100
AcDbEntity
  8
Layer 1
 62
   250
420
  2301728
370
    25
100
AcDbSpline
210
0.0
220
0.0
230
1.0
 70
     8
 71
     3
 72
    11
 73
     7
 74
     0
 42
0.0000000001
 43
0.0000000001
 12
1.0
 22
0.0
 32
0.0
 13
1.0
 23
0.0
 33
0.0
 40
0.0
 40
0.0
 40
0.0
 40
0.0
 40
1.0
 40
1.0
 40
1.0
 40
2.0
 40
2.0
 40
2.0
 40
2.0
 10
6.270833333333333
 20
5.052111111111117
 30
0.0
 10
6.270833333333333
 20
5.052111111111117
 30
0.0
 10
6.270833333333333
 20
5.428236111111119
 30
0.0
 10
6.270833333333333
 20
5.428236111111119
 30
0.0
 10
6.270833333333333
 20
5.428236111111119
 30
0.0
 10
6.26390277777778
 20
5.4375
 30
0.0
 10
6.252319444444437
 20
5.435180555555562
 30
0.0
  0
SPLINE
  5
C7
330
1F
100
AcDbEntity
  8
Layer 1
 62
   250
420
  2301728
370
    25
100
AcDbSpline
210
0.0
220
0.0
230
1.0
 70
     8
 71
     3
 72
    14
 73
    10
 74
     0
 42
0.0000000001
 43
0.0000000001
 12
1.0
 22
0.0
 32
0.0
 13
1.0
 23
0.0
 33
0.0
 40
0.0
 40
0.0
 40
0.0
 40
0.0
 40
1.0
 40
1.0
 40
1.0
 40
2.0
 40
2.0
 40
2.0
 40
3.0
 40
3.0
 40
3.0
 40
3.0
 10
5.831556797126924
 20
5.212022090555466
 30
0.0
 10
5.831556797126924
 20
5.212022090555466
 30
0.0
 10
5.583333333333333
 20
5.064805555555545
 30
0.0
 10
5.583333333333333
 20
5.064805555555545
 30
0.0
 10
5.583333333333333
 20
5.064805555555545
 30
0.0
 10
5.567125000000007
 20
5.055541666666664
 30
0.0
 10
5.567125000000007
 20
5.030083333333323
 30
0.0
 10
5.567125000000007
 20
5.030083333333323
 30
0.0
 10
5.567125000000007
 20
4.588392939642997
 30
0.0
 10
5.567125000000007
 20
4.588392939642997
 30
0.0
  0
SPLINE
  5
C8
330
1F
100
AcDbEntity
  8
Layer 1
 62
   250
420
  2301728
370
    25
100
AcDbSpline
210
0.0
220
0.0
230
1.0
 70
     8
 71
     3
 72
    11
 73
     7
 74
     0
 42
0.0000000001
 43
0.0000000001
 12
1.0
 22
0.0
 32
0.0
 13
1.0
 23
0.0
 33
0.0
 40
0.0
 40
0.0
 40
0.0
 40
0.0
 40
1.0
 40
1.0
 40
1.0
 40
2.0
 40
2.0
 40
2.0
 40
2.0
 10
6.293986111111103
 20
5.456013888888896
 30
0.0
 10
6.293986111111103
 20
5.456013888888896
 30
0.0
 10
6.282402777777785
 20
5.476847222222229
 30
0.0
 10
6.254625000000007
 20
5.462958333333341
 30
0.0
 10
6.254625000000007
 20
5.462958333333341
 30
0.0
 10
6.044976236179941
 20
5.338609587357596
 30
0.0
 10
6.044976236179941
 20
5.338609587357596
 30
0.0
  0
POLYLINE
  5
C9
330
1F
100
AcDbEntity
  8
Layer 1
 62
   250
420
  2301728
370
    25
100
AcDb2dPolyline
 66
     1
 10
0.0
 20
0.0
 30
0.0
  0
VERTEX
  5
CA
330
C9
100
AcDbEntity
  8
Layer 1
 62
   250
420
  2301728
370
    25
100
AcDbVertex
100
AcDb2dVertex
 10
5.817125000000007
 20
5.247680555555562
 30
0.0
  0
VERTEX
  5
CB
330
C9
100
AcDbEntity
  8
Layer 1
 62
   250
420
  2301728
370
    25
100
AcDbVertex
100
AcDb2dVertex
 10
5.798611111111111
 20
5.289347222222229
 30
0.0
  0
VERTEX
  5
CC
330
C9
100
AcDbEntity
  8
Layer 1
 62
   250
420
  2301728
370
    25
100
AcDbVertex
100
AcDb2dVertex
 10
6.071180555555555
 20
5.273830422327389
 30
0.0
  0
SEQEND
  5
CD
330
C9
100
AcDbEntity
  8
Layer 1
 62
   250
420
  2301728
370
    25
  0
POLYLINE
  5
CE
330
1F
100
AcDbEntity
  8
Layer 1
 62
   250
420
  2301728
370
    25
100
AcDb2dPolyline
 66
     1
 10
0.0
 20
0.0
 30
0.0
  0
VERTEX
  5
CF
330
CE
100
AcDbEntity
  8
Layer 1
 62
   250
420
  2301728
370
    25
100
AcDbVertex
100
AcDb2dVertex
 10
2.439812438365152
 20
6.157409566672968
 30
0.0
  0
VERTEX
  5
D0
330
CE
100
AcDbEntity
  8
Layer 1
 62
   250
420
  2301728
370
    25
100
AcDbVertex
100
AcDb2dVertex
 10
2.454324937998535
 20
6.152283177913583
 30
0.0
  0
SEQEND
  5
D1
330
CE
100
AcDbEntity
  8
Layer 1
 62
   250
420
  2301728
370
    25
  0
INSERT
  5
D3
330
1F
100
AcDbEntity
  8
Layer 1
100
AcDbBlockReference
  2
block 7
 10
0.0
 20
0.0
 30
0.0
  0
POLYLINE
  5
EA
330
1F
100
AcDbEntity
  8
Layer 1
 62
   250
420
  2301728
370
    35
100
AcDb2dPolyline
 66
     1
 10
0.0
 20
0.0
 30
0.0
  0
VERTEX
  5
EB
330
EA
100
AcDbEntity
  8
Layer 1
 62
   250
420
  2301728
370
    35
100
AcDbVertex
100
AcDb2dVertex
 10
4.9375
 20
4.527791666666669
 30
0.0
  0
VERTEX
  5
EC
330
EA
100
AcDbEntity
  8
Layer 1
 62
   250
420
  2301728
370
    35
100
AcDbVertex
100
AcDb2dVertex
 10
4.986111111111111
 20
4.472222222222222
 30
0.0
  0
SEQEND
  5
ED
330
EA
100
AcDbEntity
  8
Layer 1
 62
   250
420
  2301728
370
    35
  0
POLYLINE
  5
EE
330
1F
100
AcDbEntity
  8
Layer 1
 62
   250
420
  2301728
370
    35
100
AcDb2dPolyline
 66
     1
 10
0.0
 20
0.0
 30
0.0
  0
VERTEX
  5
EF
330
EE
100
AcDbEntity
  8
Layer 1
 62
   250
420
  2301728
370
    35
100
AcDbVertex
100
AcDb2dVertex
 10
4.789347222222229
 20
4.342597222222214
 30
0.0
  0
VERTEX
  5
F0
330
EE
100
AcDbEntity
  8
Layer 1
 62
   250
420
  2301728
370
    35
100
AcDbVertex
100
AcDb2dVertex
 10
4.861111111111111
 20
4.268513888888896
 30
0.0
  0
SEQEND
  5
F1
330
EE
100
AcDbEntity
  8
Layer 1
 62
   250
420
  2301728
370
    35
  0
POLYLINE
  5
F2
330
1F
100
AcDbEntity
  8
Layer 1
 62
   250
420
  2301728
370
    35
100
AcDb2dPolyline
 66
     1
 10
0.0
 20
0.0
 30
0.0
  0
VERTEX
  5
F3
330
F2
100
AcDbEntity
  8
Layer 1
 62
   250
420
  2301728
370
    35
100
AcDbVertex
100
AcDb2dVertex
 10
4.747680555555562
 20
4.305555555555555
 30
0.0
  0
VERTEX
  5
F4
330
F2
100
AcDbEntity
  8
Layer 1
 62
   250
420
  2301728
370
    35
100
AcDbVertex
100
AcDb2dVertex
 10
4.793049878917373
 20
4.337063779325439
 30
0.0
  0
SEQEND
  5
F5
330
F2
100
AcDbEntity
  8
Layer 1
 62
   250
420
  2301728
370
    35
  0
POLYLINE
  5
F6
330
1F
100
AcDbEntity
  8
Layer 1
 62
   250
420
  2301728
370
    35
100
AcDb2dPolyline
 66
     1
 10
0.0
 20
0.0
 30
0.0
  0
VERTEX
  5
F7
330
F6
100
AcDbEntity
  8
Layer 1
 62
   250
420
  2301728
370
    35
100
AcDbVertex
100
AcDb2dVertex
 10
4.921291666666674
 20
4.479166666666666
 30
0.0
  0
VERTEX
  5
F8
330
F6
100
AcDbEntity
  8
Layer 1
 62
   250
420
  2301728
370
    35
100
AcDbVertex
100
AcDb2dVertex
 10
4.935180555555562
 20
4.537041666666659
 30
0.0
  0
SEQEND
  5
F9
330
F6
100
AcDbEntity
  8
Layer 1
 62
   250
420
  2301728
370
    35
  0
POLYLINE
  5
FA
330
1F
100
AcDbEntity
  8
Layer 1
 62
   250
420
  2301728
370
    35
100
AcDb2dPolyline
 66
     1
 10
0.0
 20
0.0
 30
0.0
  0
VERTEX
  5
FB
330
FA
100
AcDbEntity
  8
Layer 1
 62
   250
420
  2301728
370
    35
100
AcDbVertex
100
AcDb2dVertex
 10
5.828125
 20
5.206705424023109
 30
0.0
  0
VERTEX
  5
FC
330
FA
100
AcDbEntity
  8
Layer 1
 62
   250
420
  2301728
370
    35
100
AcDbVertex
100
AcDb2dVertex
 10
5.828125
 20
5.173611111111111
 30
0.0
  0
SEQEND
  5
FD
330
FA
100
AcDbEntity
  8
Layer 1
 62
   250
420
  2301728
370
    35
  0
POLYLINE
  5
FE
330
1F
100
AcDbEntity
  8
Layer 1
 62
   250
420
  2301728
370
    35
100
AcDb2dPolyline
 66
     1
 10
0.0
 20
0.0
 30
0.0
  0
VERTEX
  5
FF
330
FE
100
AcDbEntity
  8
Layer 1
 62
   250
420
  2301728
370
    35
100
AcDbVertex
100
AcDb2dVertex
 10
6.046291666666674
 20
5.337958333333341
 30
0.0
  0
VERTEX
  5
100
330
FE
100
AcDbEntity
  8
Layer 1
 62
   250
420
  2301728
370
    35
100
AcDbVertex
100
AcDb2dVertex
 10
6.071180555555555
 20
5.273830422327389
 30
0.0
  0
VERTEX
  5
101
330
FE
100
AcDbEntity
  8
Layer 1
 62
   250
420
  2301728
370
    35
100
AcDbVertex
100
AcDb2dVertex
 10
6.071180555555555
 20
5.240736111111119
 30
0.0
  0
VERTEX
  5
102
330
FE
100
AcDbEntity
  8
Layer 1
 62
   250
420
  2301728
370
    35
100
AcDbVertex
100
AcDb2dVertex
 10
5.8125
 20
5.259263888888881
 30
0.0
  0
VERTEX
  5
103
330
FE
100
AcDbEntity
  8
Layer 1
 62
   250
420
  2301728
370
    35
100
AcDbVertex
100
AcDb2dVertex
 10
5.828125
 20
5.206705424023109
 30
0.0
  0
SEQEND
  5
104
330
FE
100
AcDbEntity
  8
Layer 1
 62
   250
420
  2301728
370
    35
  0
SPLINE
  5
105
330
1F
100
AcDbEntity
  8
Layer 1
 62
   250
420
  2301728
370
    35
100
AcDbSpline
210
0.0
220
0.0
230
1.0
 70
     8
 71
     3
 72
    11
 73
     7
 74
     0
 42
0.0000000001
 43
0.0000000001
 12
1.0
 22
0.0
 32
0.0
 13
1.0
 23
0.0
 33
0.0
 40
0.0
 40
0.0
 40
0.0
 40
0.0
 40
1.0
 40
1.0
 40
1.0
 40
2.0
 40
2.0
 40
2.0
 40
2.0
 10
6.057874999999992
 20
5.3125
 30
0.0
 10
6.057874999999992
 20
5.3125
 30
0.0
 10
6.252319444444437
 20
5.428236111111119
 30
0.0
 10
6.252319444444437
 20
5.428236111111119
 30
0.0
 10
6.252319444444437
 20
5.428236111111119
 30
0.0
 10
6.261583333333343
 20
5.437486111111108
 30
0.0
 10
6.266208333333325
 20
5.428236111111119
 30
0.0
  0
POLYLINE
  5
106
330
1F
100
AcDbEntity
  8
Layer 1
 62
   250
420
  2301728
370
    35
100
AcDb2dPolyline
 66
     1
 10
0.0
 20
0.0
 30
0.0
  0
VERTEX
  5
107
330
106
100
AcDbEntity
  8
Layer 1
 62
   250
420
  2301728
370
    35
100
AcDbVertex
100
AcDb2dVertex
 10
5.206434590696618
 20
4.726887380588778
 30
0.0
  0
VERTEX
  5
108
330
106
100
AcDbEntity
  8
Layer 1
 62
   250
420
  2301728
370
    35
100
AcDbVertex
100
AcDb2dVertex
 10
4.84296376654533
 20
4.866347222222227
 30
0.0
  0
VERTEX
  5
109
330
106
100
AcDbEntity
  8
Layer 1
 62
   250
420
  2301728
370
    35
100
AcDbVertex
100
AcDb2dVertex
 10
4.536580440951891
 20
4.983899874096096
 30
0.0
  0
VERTEX
  5
10A
330
106
100
AcDbEntity
  8
Layer 1
 62
   250
420
  2301728
370
    35
100
AcDbVertex
100
AcDb2dVertex
 10
4.490138888888901
 20
5.001708333333327
 30
0.0
  0
SEQEND
  5
10B
330
106
100
AcDbEntity
  8
Layer 1
 62
   250
420
  2301728
370
    35
  0
POLYLINE
  5
10C
330
1F
100
AcDbEntity
  8
Layer 1
 62
   250
420
  2301728
370
    35
100
AcDb2dPolyline
 66
     1
 10
0.0
 20
0.0
 30
0.0
  0
VERTEX
  5
10D
330
10C
100
AcDbEntity
  8
Layer 1
 62
   250
420
  2301728
370
    35
100
AcDbVertex
100
AcDb2dVertex
 10
4.093627674364042
 20
5.153617925364212
 30
0.0
  0
VERTEX
  5
10E
330
10C
100
AcDbEntity
  8
Layer 1
 62
   250
420
  2301728
370
    35
100
AcDbVertex
100
AcDb2dVertex
 10
4.490138888888901
 20
5.001708333333327
 30
0.0
  0
SEQEND
  5
10F
330
10C
100
AcDbEntity
  8
Layer 1
 62
   250
420
  2301728
370
    35
  0
POLYLINE
  5
110
330
1F
100
AcDbEntity
  8
Layer 1
 62
   250
420
  2301728
370
    25
100
AcDb2dPolyline
 66
     1
 10
0.0
 20
0.0
 30
0.0
  0
VERTEX
  5
111
330
110
100
AcDbEntity
  8
Layer 1
 62
   250
420
  2301728
370
    25
100
AcDbVertex
100
AcDb2dVertex
 10
4.486016553340353
 20
4.223375000000007
 30
0.0
  0
VERTEX
  5
112
330
110
100
AcDbEntity
  8
Layer 1
 62
   250
420
  2301728
370
    25
100
AcDbVertex
100
AcDb2dVertex
 10
4.486016553340353
 20
5.003933206923344
 30
0.0
  0
SEQEND
  5
113
330
110
100
AcDbEntity
  8
Layer 1
 62
   250
420
  2301728
370
    25
  0
POLYLINE
  5
114
330
1F
100
AcDbEntity
  8
Layer 1
 62
   250
420
  2301728
370
    25
100
AcDb2dPolyline
 66
     1
 10
0.0
 20
0.0
 30
0.0
  0
VERTEX
  5
115
330
114
100
AcDbEntity
  8
Layer 1
 62
   250
420
  2301728
370
    25
100
AcDbVertex
100
AcDb2dVertex
 10
4.486016553340353
 20
4.170138888888888
 30
0.0
  0
VERTEX
  5
116
330
114
100
AcDbEntity
  8
Layer 1
 62
   250
420
  2301728
370
    25
100
AcDbVertex
100
AcDb2dVertex
 10
4.486016553340353
 20
4.190972222222222
 30
0.0
  0
SEQEND
  5
117
330
114
100
AcDbEntity
  8
Layer 1
 62
   250
420
  2301728
370
    25
  0
POLYLINE
  5
118
330
1F
100
AcDbEntity
  8
Layer 1
 62
   250
420
  2301728
370
    25
100
AcDb2dPolyline
 66
     1
 10
0.0
 20
0.0
 30
0.0
  0
VERTEX
  5
119
330
118
100
AcDbEntity
  8
Layer 1
 62
   250
420
  2301728
370
    25
100
AcDbVertex
100
AcDb2dVertex
 10
3.365526303868541
 20
5.834933185930518
 30
0.0
  0
VERTEX
  5
11A
330
118
100
AcDbEntity
  8
Layer 1
 62
   250
420
  2301728
370
    25
100
AcDbVertex
100
AcDb2dVertex
 10
2.477023548536231
 20
6.144259567005165
 30
0.0
  0
SEQEND
  5
11B
330
118
100
AcDbEntity
  8
Layer 1
 62
   250
420
  2301728
370
    25
  0
POLYLINE
  5
11C
330
1F
100
AcDbEntity
  8
Layer 1
 62
   250
420
  2301728
370
    25
100
AcDb2dPolyline
 66
     1
 10
0.0
 20
0.0
 30
0.0
  0
VERTEX
  5
11D
330
11C
100
AcDbEntity
  8
Layer 1
 62
   250
420
  2301728
370
    25
100
AcDbVertex
100
AcDb2dVertex
 10
5.511392916326056
 20
5.089612371425574
 30
0.0
  0
VERTEX
  5
11E
330
11C
100
AcDbEntity
  8
Layer 1
 62
   250
420
  2301728
370
    25
100
AcDbVertex
100
AcDb2dVertex
 10
4.912258209239249
 20
5.297145699516173
 30
0.0
  0
VERTEX
  5
11F
330
11C
100
AcDbEntity
  8
Layer 1
 62
   250
420
  2301728
370
    25
100
AcDbVertex
100
AcDb2dVertex
 10
4.515394330375986
 20
5.434611111111104
 30
0.0
  0
VERTEX
  5
120
330
11C
100
AcDbEntity
  8
Layer 1
 62
   250
420
  2301728
370
    25
100
AcDbVertex
100
AcDb2dVertex
 10
4.13208739561469
 20
5.568060970450056
 30
0.0
  0
SEQEND
  5
121
330
11C
100
AcDbEntity
  8
Layer 1
 62
   250
420
  2301728
370
    25
  0
POLYLINE
  5
122
330
1F
100
AcDbEntity
  8
Layer 1
 62
   250
420
  2301728
370
    25
100
AcDb2dPolyline
 66
     1
 10
0.0
 20
0.0
 30
0.0
  0
VERTEX
  5
123
330
122
100
AcDbEntity
  8
Layer 1
 62
   250
420
  2301728
370
    25
100
AcDbVertex
100
AcDb2dVertex
 10
5.553236111111119
 20
5.075059594015429
 30
0.0
  0
VERTEX
  5
124
330
122
100
AcDbEntity
  8
Layer 1
 62
   250
420
  2301728
370
    25
100
AcDbVertex
100
AcDb2dVertex
 10
5.534870693510735
 20
5.081448482742922
 30
0.0
  0
SEQEND
  5
125
330
122
100
AcDbEntity
  8
Layer 1
 62
   250
420
  2301728
370
    25
  0
SPLINE
  5
126
330
1F
100
AcDbEntity
  8
Layer 1
 62
   250
420
  2301728
370
    35
100
AcDbSpline
210
0.0
220
0.0
230
1.0
 70
     8
 71
     3
 72
    35
 73
    31
 74
     0
 42
0.0000000001
 43
0.0000000001
 12
1.0
 22
0.0
 32
0.0
 13
1.0
 23
0.0
 33
0.0
 40
0.0
 40
0.0
 40
0.0
 40
0.0
 40
1.0
 40
1.0
 40
1.0
 40
2.0
 40
2.0
 40
2.0
 40
3.0
 40
3.0
 40
3.0
 40
4.0
 40
4.0
 40
4.0
 40
5.0
 40
5.0
 40
5.0
 40
6.0
 40
6.0
 40
6.0
 40
7.0
 40
7.0
 40
7.0
 40
8.0
 40
8.0
 40
8.0
 40
9.0
 40
9.0
 40
9.0
 40
10.0
 40
10.0
 40
10.0
 40
10.0
 10
3.007038812924697
 20
5.592861111111106
 30
0.0
 10
3.007038812924697
 20
5.592861111111106
 30
0.0
 10
2.40740966140595
 20
5.833333333333333
 30
0.0
 10
2.40740966140595
 20
5.833333333333333
 30
0.0
 10
2.40740966140595
 20
5.833333333333333
 30
0.0
 10
2.40740966140595
 20
6.149305555555555
 30
0.0
 10
2.40740966140595
 20
6.149305555555555
 30
0.0
 10
2.40740966140595
 20
6.149305555555555
 30
0.0
 10
2.405069444444444
 20
6.166354010891458
 30
0.0
 10
2.430555555555555
 20
6.173611111111111
 30
0.0
 10
2.430555555555555
 20
6.173611111111111
 30
0.0
 10
2.709798542655853
 20
6.252813730929524
 30
0.0
 10
2.709798542655853
 20
6.252813730929524
 30
0.0
 10
2.709798542655853
 20
6.252813730929524
 30
0.0
 10
2.710645764856672
 20
6.300923451936391
 30
0.0
 10
2.710645764856672
 20
6.300923451936391
 30
0.0
 10
2.710645764856672
 20
6.300923451936391
 30
0.0
 10
2.972222222222222
 20
6.284722222222221
 30
0.0
 10
2.972222222222222
 20
6.284722222222221
 30
0.0
 10
2.972222222222222
 20
6.284722222222221
 30
0.0
 10
2.97408742486823
 20
6.327779006813519
 30
0.0
 10
2.97408742486823
 20
6.327779006813519
 30
0.0
 10
2.97408742486823
 20
6.327779006813519
 30
0.0
 10
3.152777777777778
 20
6.378472222222221
 30
0.0
 10
3.152777777777778
 20
6.378472222222221
 30
0.0
 10
3.152777777777778
 20
6.378472222222221
 30
0.0
 10
3.180555555555555
 20
6.381944444444444
 30
0.0
 10
3.201388888888889
 20
6.375
 30
0.0
 10
3.201388888888889
 20
6.375
 30
0.0
 10
3.364583333333333
 20
6.326388888888888
 30
0.0
 10
3.364583333333333
 20
6.326388888888888
 30
0.0
  0
POLYLINE
  5
127
330
1F
100
AcDbEntity
  8
Layer 1
 62
   250
420
  2301728
370
    35
100
AcDb2dPolyline
 66
     1
 10
0.0
 20
0.0
 30
0.0
  0
VERTEX
  5
128
330
127
100
AcDbEntity
  8
Layer 1
 62
   250
420
  2301728
370
    35
100
AcDbVertex
100
AcDb2dVertex
 10
4.382880444834679
 20
5.562297081706775
 30
0.0
  0
VERTEX
  5
129
330
127
100
AcDbEntity
  8
Layer 1
 62
   250
420
  2301728
370
    35
100
AcDbVertex
100
AcDb2dVertex
 10
3.035684645534376
 20
4.948635986098048
 30
0.0
  0
SEQEND
  5
12A
330
127
100
AcDbEntity
  8
Layer 1
 62
   250
420
  2301728
370
    35
  0
POLYLINE
  5
12B
330
1F
100
AcDbEntity
  8
Layer 1
 62
   250
420
  2301728
370
    35
100
AcDb2dPolyline
 66
     1
 10
0.0
 20
0.0
 30
0.0
  0
VERTEX
  5
12C
330
12B
100
AcDbEntity
  8
Layer 1
 62
   250
420
  2301728
370
    35
100
AcDbVertex
100
AcDb2dVertex
 10
3.328694444444447
 20
5.212986111111099
 30
0.0
  0
VERTEX
  5
12D
330
12B
100
AcDbEntity
  8
Layer 1
 62
   250
420
  2301728
370
    35
100
AcDbVertex
100
AcDb2dVertex
 10
3.016248534914262
 20
5.071749999999989
 30
0.0
  0
SEQEND
  5
12E
330
12B
100
AcDbEntity
  8
Layer 1
 62
   250
420
  2301728
370
    35
  0
MTEXT
  5
12F
330
1F
100
AcDbEntity
  8
Layer 1
 62
   250
420
  2301728
100
AcDbMText
 10
3.116353352864583
 20
4.604695638020833
 30
0.0
 40
0.1376666666666666
 41
0.0
 46
0.0
 71
     7
 72
     1
  1
\fHelvetica Neue LT Std 65 Medium|b0|i0|c0|p34;\W1.00033;12.7mm
 73
     1
 44
1.0
  0
MTEXT
  5
130
330
1F
100
AcDbEntity
  8
Layer 1
 62
   250
420
  2301728
100
AcDbMText
 10
3.116353352864583
 20
4.371362288792928
 30
0.0
 40
0.1376666666666666
 41
0.0
 46
0.0
 71
     7
 72
     1
  1
\fHelvetica Neue LT Std 65 Medium|b0|i0|c0|p34;\W1.00033;Gap
 73
     1
 44
1.0
  0
MTEXT
  5
131
330
1F
100
AcDbEntity
  8
Layer 1
 62
   250
420
  2301728
100
AcDbMText
 10
3.116353352864583
 20
4.138028939565022
 30
0.0
 40
0.1376666666666666
 41
0.0
 46
0.0
 71
     7
 72
     1
  1
\fHelvetica Neue LT Std 65 Medium|b0|i0|c0|p34;\W1.00033;Max
 73
     1
 44
1.0
  0
POLYLINE
  5
132
330
1F
100
AcDbEntity
  8
Layer 1
 62
   250
420
  2301728
370
    25
100
AcDb2dPolyline
 66
     1
 10
0.0
 20
0.0
 30
0.0
  0
VERTEX
  5
133
330
132
100
AcDbEntity
  8
Layer 1
 62
   250
420
  2301728
370
    25
100
AcDbVertex
100
AcDb2dVertex
 10
3.077806866692501
 20
5.06023459438994
 30
0.0
  0
VERTEX
  5
134
330
132
100
AcDbEntity
  8
Layer 1
 62
   250
420
  2301728
370
    25
100
AcDbVertex
100
AcDb2dVertex
 10
3.080654088842796
 20
5.020263888888899
 30
0.0
  0
SEQEND
  5
135
330
132
100
AcDbEntity
  8
Layer 1
 62
   250
420
  2301728
370
    25
  0
SPLINE
  5
136
330
1F
100
AcDbEntity
  8
Layer 1
 62
   250
420
  2301728
370
    35
100
AcDbSpline
210
0.0
220
0.0
230
1.0
 70
     8
 71
     3
 72
     8
 73
     4
 74
     0
 42
0.0000000001
 43
0.0000000001
 12
1.0
 22
0.0
 32
0.0
 13
1.0
 23
0.0
 33
0.0
 40
0.0
 40
0.0
 40
0.0
 40
0.0
 40
1.0
 40
1.0
 40
1.0
 40
1.0
 10
3.037686034372705
 20
5.007147095731043
 30
0.0
 10
3.037686034372705
 20
5.007147095731043
 30
0.0
 10
2.694851320811217
 20
4.776747101551437
 30
0.0
 10
3.042440200919271
 20
4.583130439775939
 30
0.0
  0
SPLINE
  5
138
330
1F
100
AcDbEntity
  8
Layer 3
 62
     7
420
 16777215
370
    25
100
AcDbSpline
210
0.0
220
0.0
230
1.0
 70
    11
 71
     3
 72
    35
 73
    31
 74
     0
 42
0.0000000001
 43
0.0000000001
 12
1.0
 22
0.0
 32
0.0
 13
1.0
 23
0.0
 33
0.0
 40
0.0
 40
0.0
 40
0.0
 40
0.0
 40
1.0
 40
1.0
 40
1.0
 40
2.0
 40
2.0
 40
2.0
 40
3.0
 40
3.0
 40
3.0
 40
4.0
 40
4.0
 40
4.0
 40
5.0
 40
5.0
 40
5.0
 40
6.0
 40
6.0
 40
6.0
 40
7.0
 40
7.0
 40
7.0
 40
8.0
 40
8.0
 40
8.0
 40
9.0
 40
9.0
 40
9.0
 40
10.0
 40
10.0
 40
10.0
 40
10.0
 10
4.715548491986334
 20
6.772263888888889
 30
0.0
 10
4.715548491986334
 20
6.772263888888889
 30
0.0
 10
4.75466515766483
 20
6.756116495992804
 30
0.0
 10
4.75466515766483
 20
6.756116495992804
 30
0.0
 10
4.75466515766483
 20
6.756116495992804
 30
0.0
 10
4.75466515766483
 20
5.88655555555556
 30
0.0
 10
4.75466515766483
 20
5.88655555555556
 30
0.0
 10
4.75466515766483
 20
5.864677629623555
 30
0.0
 10
4.751545713299189
 20
5.852919296587262
 30
0.0
 10
4.776556823778466
 20
5.83711111111111
 30
0.0
 10
4.776556823778466
 20
5.83711111111111
 30
0.0
 10
5.245280423048623
 20
5.703206800369318
 30
0.0
 10
5.245280423048623
 20
5.703206800369318
 30
0.0
 10
5.245280423048623
 20
5.703206800369318
 30
0.0
 10
5.245280423048623
 20
5.669188745673131
 30
0.0
 10
5.245280423048623
 20
5.669188745673131
 30
0.0
 10
5.245280423048623
 20
5.669188745673131
 30
0.0
 10
4.928113764394261
 20
5.503845694294506
 30
0.0
 10
4.928113764394261
 20
5.503845694294506
 30
0.0
 10
4.928113764394261
 20
5.503845694294506
 30
0.0
 10
4.459160998463227
 20
5.661763888888887
 30
0.0
 10
4.459160998463227
 20
5.661763888888887
 30
0.0
 10
4.423231832704206
 20
5.686170689688575
 30
0.0
 10
4.406033222027569
 20
5.70299568926354
 30
0.0
 10
4.406033222027569
 20
5.767042909867794
 30
0.0
 10
4.406033222027569
 20
5.767042909867794
 30
0.0
 10
4.406033222027569
 20
6.703503997321907
 30
0.0
 10
4.406033222027569
 20
6.703503997321907
 30
0.0
 10
4.406033222027569
 20
6.703503997321907
 30
0.0
 10
4.715548491986334
 20
6.772263888888889
 30
0.0
 10
4.715548491986334
 20
6.772263888888889
 30
0.0
  0
HATCH
  5
139
330
1F
100
AcDbEntity
  8
Layer 3
 62
     9
420
 12307926
100
AcDbHatch
 10
0.0
 20
0.0
 30
0.0
210
0.0
220
0.0
230
1.0
  2
SOLID
 70
     1
 71
     0
 91
        1
 92
        1
 93
        1
 72
     4
 94
        3
 73
     0
 74
     1
 95
       35
 96
       31
 40
0.0
 40
0.0
 40
0.0
 40
0.0
 40
1.0
 40
1.0
 40
1.0
 40
2.0
 40
2.0
 40
2.0
 40
3.0
 40
3.0
 40
3.0
 40
4.0
 40
4.0
 40
4.0
 40
5.0
 40
5.0
 40
5.0
 40
6.0
 40
6.0
 40
6.0
 40
7.0
 40
7.0
 40
7.0
 40
8.0
 40
8.0
 40
8.0
 40
9.0
 40
9.0
 40
9.0
 40
10.0
 40
10.0
 40
10.0
 40
10.0
 10
4.715548491986334
 20
6.772263888888889
 10
4.715548491986334
 20
6.772263888888889
 10
4.75466515766483
 20
6.756116495992804
 10
4.75466515766483
 20
6.756116495992804
 10
4.75466515766483
 20
6.756116495992804
 10
4.75466515766483
 20
5.88655555555556
 10
4.75466515766483
 20
5.88655555555556
 10
4.75466515766483
 20
5.864677629623555
 10
4.751545713299189
 20
5.852919296587262
 10
4.776556823778466
 20
5.83711111111111
 10
4.776556823778466
 20
5.83711111111111
 10
5.245280423048623
 20
5.703206800369318
 10
5.245280423048623
 20
5.703206800369318
 10
5.245280423048623
 20
5.703206800369318
 10
5.245280423048623
 20
5.669188745673131
 10
5.245280423048623
 20
5.669188745673131
 10
5.245280423048623
 20
5.669188745673131
 10
4.928113764394261
 20
5.503845694294506
 10
4.928113764394261
 20
5.503845694294506
 10
4.928113764394261
 20
5.503845694294506
 10
4.459160998463227
 20
5.661763888888887
 10
4.459160998463227
 20
5.661763888888887
 10
4.423231832704206
 20
5.686170689688575
 10
4.406033222027569
 20
5.70299568926354
 10
4.406033222027569
 20
5.767042909867794
 10
4.406033222027569
 20
5.767042909867794
 10
4.406033222027569
 20
6.703503997321907
 10
4.406033222027569
 20
6.703503997321907
 10
4.406033222027569
 20
6.703503997321907
 10
4.715548491986334
 20
6.772263888888889
 10
4.715548491986334
 20
6.772263888888889
 97
        0
 97
        0
 75
     2
 76
     1
 98
        0
  0
SPLINE
  5
13A
330
1F
100
AcDbEntity
  8
Layer 3
 62
     7
420
 16777215
370
    18
100
AcDbSpline
210
0.0
220
0.0
230
1.0
 70
     8
 71
     3
 72
    20
 73
    16
 74
     0
 42
0.0000000001
 43
0.0000000001
 12
1.0
 22
0.0
 32
0.0
 13
1.0
 23
0.0
 33
0.0
 40
0.0
 40
0.0
 40
0.0
 40
0.0
 40
1.0
 40
1.0
 40
1.0
 40
2.0
 40
2.0
 40
2.0
 40
3.0
 40
3.0
 40
3.0
 40
4.0
 40
4.0
 40
4.0
 40
5.0
 40
5.0
 40
5.0
 40
5.0
 10
5.245280423048623
 20
5.703206800369318
 30
0.0
 10
5.245280423048623
 20
5.703206800369318
 30
0.0
 10
4.928113764394261
 20
5.542202637769959
 30
0.0
 10
4.928113764394261
 20
5.542202637769959
 30
0.0
 10
4.928113764394261
 20
5.542202637769959
 30
0.0
 10
4.466973498265866
 20
5.691440133999903
 30
0.0
 10
4.466973498265866
 20
5.691440133999903
 30
0.0
 10
4.443006832204648
 20
5.707695689144808
 30
0.0
 10
4.435194444444455
 20
5.720730411037746
 30
0.0
 10
4.435194444444455
 20
5.749905410300723
 30
0.0
 10
4.435194444444455
 20
5.749905410300723
 30
0.0
 10
4.435194444444455
 20
6.681674831206692
 30
0.0
 10
4.435194444444455
 20
6.681674831206692
 30
0.0
 10
4.435194444444455
 20
6.681674831206692
 30
0.0
 10
4.75466515766483
 20
6.755506773785984
 30
0.0
 10
4.75466515766483
 20
6.755506773785984
 30
0.0
  0
POLYLINE
  5
13B
330
1F
100
AcDbEntity
  8
Layer 3
 62
     7
420
 16777215
370
    18
100
AcDb2dPolyline
 66
     1
 10
0.0
 20
0.0
 30
0.0
  0
VERTEX
  5
13C
330
13B
100
AcDbEntity
  8
Layer 3
 62
     7
420
 16777215
370
    18
100
AcDbVertex
100
AcDb2dVertex
 10
4.435072110182874
 20
6.681877608979347
 30
0.0
  0
VERTEX
  5
13D
330
13B
100
AcDbEntity
  8
Layer 3
 62
     7
420
 16777215
370
    18
100
AcDbVertex
100
AcDb2dVertex
 10
4.40662905534585
 20
6.703009552889953
 30
0.0
  0
SEQEND
  5
13E
330
13B
100
AcDbEntity
  8
Layer 3
 62
     7
420
 16777215
370
    18
  0
POLYLINE
  5
13F
330
1F
100
AcDbEntity
  8
Layer 3
 62
     7
420
 16777215
370
    18
100
AcDb2dPolyline
 66
     1
 10
0.0
 20
0.0
 30
0.0
  0
VERTEX
  5
140
330
13F
100
AcDbEntity
  8
Layer 3
 62
     7
420
 16777215
370
    18
100
AcDbVertex
100
AcDb2dVertex
 10
4.928113764394261
 20
5.542202637769959
 30
0.0
  0
VERTEX
  5
141
330
13F
100
AcDbEntity
  8
Layer 3
 62
     7
420
 16777215
370
    18
100
AcDbVertex
100
AcDb2dVertex
 10
4.928113764394261
 20
5.503736111111114
 30
0.0
  0
SEQEND
  5
142
330
13F
100
AcDbEntity
  8
Layer 3
 62
     7
420
 16777215
370
    18
  0
SPLINE
  5
143
330
1F
100
AcDbEntity
  8
Layer 3
 62
     7
420
 16777215
370
    18
100
AcDbSpline
210
0.0
220
0.0
230
1.0
 70
    11
 71
     3
 72
    17
 73
    13
 74
     0
 42
0.0000000001
 43
0.0000000001
 12
1.0
 22
0.0
 32
0.0
 13
1.0
 23
0.0
 33
0.0
 40
0.0
 40
0.0
 40
0.0
 40
0.0
 40
1.0
 40
1.0
 40
1.0
 40
2.0
 40
2.0
 40
2.0
 40
3.0
 40
3.0
 40
3.0
 40
4.0
 40
4.0
 40
4.0
 40
4.0
 10
4.681084603968075
 20
5.662495690286656
 30
0.0
 10
4.661959604451213
 20
5.663845690252552
 30
0.0
 10
4.646456827065069
 20
5.67403874555061
 30
0.0
 10
4.646456827065069
 20
5.68529568971068
 30
0.0
 10
4.646456827065069
 20
5.696526244982528
 30
0.0
 10
4.661959604451213
 20
5.704508189225331
 30
0.0
 10
4.681084603968075
 20
5.703165133703704
 30
0.0
 10
4.700195714596399
 20
5.701829022626346
 30
0.0
 10
4.715698491982544
 20
5.691663745105365
 30
0.0
 10
4.715698491982544
 20
5.680433189833517
 30
0.0
 10
4.715698491982544
 20
5.669176245673447
 30
0.0
 10
4.700195714596399
 20
5.661159579209311
 30
0.0
 10
4.681084603968075
 20
5.662495690286656
 30
0.0
  0
SPLINE
  5
144
330
1F
100
AcDbEntity
  8
Layer 3
 62
     7
420
 16777215
370
    15
100
AcDbSpline
210
0.0
220
0.0
230
1.0
 70
    11
 71
     3
 72
    17
 73
    13
 74
     0
 42
0.0000000001
 43
0.0000000001
 12
1.0
 22
0.0
 32
0.0
 13
1.0
 23
0.0
 33
0.0
 40
0.0
 40
0.0
 40
0.0
 40
0.0
 40
1.0
 40
1.0
 40
1.0
 40
2.0
 40
2.0
 40
2.0
 40
3.0
 40
3.0
 40
3.0
 40
4.0
 40
4.0
 40
4.0
 40
4.0
 10
4.656670715695933
 20
5.670945690073191
 30
0.0
 10
4.662935993315437
 20
5.666883190175819
 30
0.0
 10
4.671590159763481
 20
5.663980412471371
 30
0.0
 10
4.681084603968075
 20
5.663309579154984
 30
0.0
 10
4.690877659276238
 20
5.662631801394329
 30
0.0
 10
4.698879047962994
 20
5.664699856897641
 30
0.0
 10
4.705185992248112
 20
5.668111111111115
 30
0.0
 10
4.699069444444452
 20
5.671745690052981
 30
0.0
 10
4.689927659300237
 20
5.674608189980669
 30
0.0
 10
4.681084603968075
 20
5.675224856631758
 30
0.0
 10
4.671508215321106
 20
5.675902777777777
 30
0.0
 10
4.662935993315437
 20
5.674187356657967
 30
0.0
 10
4.656670715695933
 20
5.670945690073191
 30
0.0
  0
SPLINE
  5
145
330
1F
100
AcDbEntity
  8
Layer 3
 62
     7
420
 16777215
370
    18
100
AcDbSpline
210
0.0
220
0.0
230
1.0
 70
    11
 71
     3
 72
    17
 73
    13
 74
     0
 42
0.0000000001
 43
0.0000000001
 12
1.0
 22
0.0
 32
0.0
 13
1.0
 23
0.0
 33
0.0
 40
0.0
 40
0.0
 40
0.0
 40
0.0
 40
1.0
 40
1.0
 40
1.0
 40
2.0
 40
2.0
 40
2.0
 40
3.0
 40
3.0
 40
3.0
 40
4.0
 40
4.0
 40
4.0
 40
4.0
 10
5.114135981917166
 20
5.667487356827223
 30
0.0
 10
5.095024871288842
 20
5.668823467904581
 30
0.0
 10
5.079508205014159
 20
5.678967912092755
 30
0.0
 10
5.079508205014159
 20
5.690158189587843
 30
0.0
 10
5.079508205014159
 20
5.701348467082931
 30
0.0
 10
5.095024871288842
 20
5.709323466881478
 30
0.0
 10
5.114135981917166
 20
5.707987355804107
 30
0.0
 10
5.133247092545489
 20
5.706651244726749
 30
0.0
 10
5.148749999999987
 20
5.696505411649721
 30
0.0
 10
5.148749999999987
 20
5.685316523043487
 30
0.0
 10
5.148749999999987
 20
5.6741262455484
 30
0.0
 10
5.133247092545489
 20
5.666151245749865
 30
0.0
 10
5.114135981917166
 20
5.667487356827223
 30
0.0
  0
SPLINE
  5
146
330
1F
100
AcDbEntity
  8
Layer 3
 62
     7
420
 16777215
370
    15
100
AcDbSpline
210
0.0
220
0.0
230
1.0
 70
    11
 71
     3
 72
    17
 73
    13
 74
     0
 42
0.0000000001
 43
0.0000000001
 12
1.0
 22
0.0
 32
0.0
 13
1.0
 23
0.0
 33
0.0
 40
0.0
 40
0.0
 40
0.0
 40
0.0
 40
1.0
 40
1.0
 40
1.0
 40
2.0
 40
2.0
 40
2.0
 40
3.0
 40
3.0
 40
3.0
 40
4.0
 40
4.0
 40
4.0
 40
4.0
 10
5.089734593644708
 20
5.675890134392741
 30
0.0
 10
5.095987371264528
 20
5.671847222222216
 30
0.0
 10
5.104655426601109
 20
5.668965134567669
 30
0.0
 10
5.114135981917166
 20
5.668301245695551
 30
0.0
 10
5.123941537225012
 20
5.667616523490627
 30
0.0
 10
5.131944444444444
 20
5.669684578993938
 30
0.0
 10
5.138237370197203
 20
5.673067912241802
 30
0.0
 10
5.132134592573594
 20
5.676697078816788
 30
0.0
 10
5.122992926137865
 20
5.679538745411668
 30
0.0
 10
5.114135981917166
 20
5.680155412062769
 30
0.0
 10
5.104573482158735
 20
5.680819444444447
 30
0.0
 10
5.096001260153066
 20
5.679117912088966
 30
0.0
 10
5.089734593644708
 20
5.675890134392741
 30
0.0
  0
SPLINE
  5
147
330
1F
100
AcDbEntity
  8
Layer 3
 62
     7
420
 16777215
370
    18
100
AcDbSpline
210
0.0
220
0.0
230
1.0
 70
    11
 71
     3
 72
    41
 73
    37
 74
     0
 42
0.0000000001
 43
0.0000000001
 12
1.0
 22
0.0
 32
0.0
 13
1.0
 23
0.0
 33
0.0
 40
0.0
 40
0.0
 40
0.0
 40
0.0
 40
1.0
 40
1.0
 40
1.0
 40
2.0
 40
2.0
 40
2.0
 40
3.0
 40
3.0
 40
3.0
 40
4.0
 40
4.0
 40
4.0
 40
5.0
 40
5.0
 40
5.0
 40
6.0
 40
6.0
 40
6.0
 40
7.0
 40
7.0
 40
7.0
 40
8.0
 40
8.0
 40
8.0
 40
9.0
 40
9.0
 40
9.0
 40
10.0
 40
10.0
 40
10.0
 40
11.0
 40
11.0
 40
11.0
 40
12.0
 40
12.0
 40
12.0
 40
12.0
 10
4.725666666666661
 20
6.644863721025508
 30
0.0
 10
4.725734602840121
 20
6.652920665266416
 30
0.0
 10
4.723415158454271
 20
6.66022344285971
 30
0.0
 10
4.717665158599528
 20
6.665297053842651
 30
0.0
 10
4.705647103347574
 20
6.675909553574557
 30
0.0
 10
4.685248492751776
 20
6.672152777777783
 30
0.0
 10
4.672119326416779
 20
6.656901220721415
 30
0.0
 10
4.66506654881717
 20
6.648722222222217
 30
0.0
 10
4.661620715570885
 20
6.638733165624823
 30
0.0
 10
4.661716548901798
 20
6.629740110296463
 30
0.0
 10
4.661716548901798
 20
6.629740110296463
 30
0.0
 10
4.66178321556678
 20
5.842909574617907
 30
0.0
 10
4.66178321556678
 20
5.842909574617907
 30
0.0
 10
4.66178321556678
 20
5.805419297787213
 30
0.0
 10
4.663872104402899
 20
5.804226242261797
 30
0.0
 10
4.678452659590119
 20
5.793837353635366
 30
0.0
 10
4.678452659590119
 20
5.793837353635366
 30
0.0
 10
4.966335985650908
 20
5.706467911398047
 30
0.0
 10
4.966335985650908
 20
5.706467911398047
 30
0.0
 10
4.989094318409317
 20
5.700092911559093
 30
0.0
 10
4.996988762654332
 20
5.698960967143244
 30
0.0
 10
5.014620706653355
 20
5.699910967119245
 30
0.0
 10
5.040934594877499
 20
5.701327633750124
 30
0.0
 10
5.055569444444447
 20
5.733445688494308
 30
0.0
 10
5.016410984385907
 20
5.7489290214365
 30
0.0
 10
5.009047095683045
 20
5.751844299140644
 30
0.0
 10
4.857123488409848
 20
5.794358186955529
 30
0.0
 10
4.83344154456366
 20
5.801337353445888
 30
0.0
 10
4.83344154456366
 20
5.801337353445888
 30
0.0
 10
4.743027777777772
 20
5.829942908278806
 30
0.0
 10
4.743027777777772
 20
5.829942908278806
 30
0.0
 10
4.728976269424897
 20
5.840298463572759
 30
0.0
 10
4.725856825059256
 20
5.839999999999994
 30
0.0
 10
4.725856825059256
 20
5.868130407314109
 30
0.0
 10
4.725856825059256
 20
5.868130407314109
 30
0.0
 10
4.725666666666661
 20
6.644863721025508
 30
0.0
 10
4.725666666666661
 20
6.644863721025508
 30
0.0
  0
SPLINE
  5
148
330
1F
100
AcDbEntity
  8
Layer 3
 62
     7
420
 16777215
370
    18
100
AcDbSpline
210
0.0
220
0.0
230
1.0
 70
    11
 71
     3
 72
    41
 73
    37
 74
     0
 42
0.0000000001
 43
0.0000000001
 12
1.0
 22
0.0
 32
0.0
 13
1.0
 23
0.0
 33
0.0
 40
0.0
 40
0.0
 40
0.0
 40
0.0
 40
1.0
 40
1.0
 40
1.0
 40
2.0
 40
2.0
 40
2.0
 40
3.0
 40
3.0
 40
3.0
 40
4.0
 40
4.0
 40
4.0
 40
5.0
 40
5.0
 40
5.0
 40
6.0
 40
6.0
 40
6.0
 40
7.0
 40
7.0
 40
7.0
 40
8.0
 40
8.0
 40
8.0
 40
9.0
 40
9.0
 40
9.0
 40
10.0
 40
10.0
 40
10.0
 40
11.0
 40
11.0
 40
11.0
 40
12.0
 40
12.0
 40
12.0
 40
12.0
 10
4.528483218934221
 20
6.607923444180919
 30
0.0
 10
4.528563774487742
 20
6.615973443977559
 30
0.0
 10
4.52625821899043
 20
6.62327777777778
 30
0.0
 10
4.520508219135687
 20
6.628356776998063
 30
0.0
 10
4.508477663884049
 20
6.638970665618823
 30
0.0
 10
4.488063775510859
 20
6.635213721269287
 30
0.0
 10
4.474934609175862
 20
6.619967888321096
 30
0.0
 10
4.46789572046479
 20
6.611781777416783
 30
0.0
 10
4.464437387218823
 20
6.601792888780235
 30
0.0
 10
4.464545720549419
 20
6.592799833451863
 30
0.0
 10
4.464545720549419
 20
6.592799833451863
 30
0.0
 10
4.46462627610294
 20
5.763922076613299
 30
0.0
 10
4.46462627610294
 20
5.763922076613299
 30
0.0
 10
4.46462627610294
 20
5.726433188671459
 30
0.0
 10
4.466701276050521
 20
5.725247077590325
 30
0.0
 10
4.48128183123774
 20
5.714849855630746
 30
0.0
 10
4.48128183123774
 20
5.714849855630746
 30
0.0
 10
4.542602663021979
 20
5.694641522807918
 30
0.0
 10
4.542602663021979
 20
5.694641522807918
 30
0.0
 10
4.55847222222221
 20
5.68998180070341
 30
0.0
 10
4.563109606948374
 20
5.689242911833199
 30
0.0
 10
4.576266551060447
 20
5.688320689634262
 30
0.0
 10
4.602552661507515
 20
5.686483189680681
 30
0.0
 10
4.623873494302239
 20
5.697441522737184
 30
0.0
 10
4.623873494302239
 20
5.712822077904193
 30
0.0
 10
4.623873494302239
 20
5.720744299926284
 30
0.0
 10
4.616740161149108
 20
5.727844299746923
 30
0.0
 10
4.603637383702335
 20
5.733981799591876
 30
0.0
 10
4.603637383702335
 20
5.733981799591876
 30
0.0
 10
4.545870718494976
 20
5.750955410274198
 30
0.0
 10
4.545870718494976
 20
5.750955410274198
 30
0.0
 10
4.531805555555567
 20
5.761312354457004
 30
0.0
 10
4.528673496707193
 20
5.761020687797705
 30
0.0
 10
4.528673496707193
 20
5.789137353754086
 30
0.0
 10
4.528673496707193
 20
5.789137353754086
 30
0.0
 10
4.528483218934221
 20
6.607923444180919
 30
0.0
 10
4.528483218934221
 20
6.607923444180919
 30
0.0
  0
SPLINE
  5
149
330
1F
100
AcDbEntity
  8
Layer 3
 62
     7
420
 16777215
370
    18
100
AcDbSpline
210
0.0
220
0.0
230
1.0
 70
    11
 71
     3
 72
    29
 73
    25
 74
     0
 42
0.0000000001
 43
0.0000000001
 12
1.0
 22
0.0
 32
0.0
 13
1.0
 23
0.0
 33
0.0
 40
0.0
 40
0.0
 40
0.0
 40
0.0
 40
1.0
 40
1.0
 40
1.0
 40
2.0
 40
2.0
 40
2.0
 40
3.0
 40
3.0
 40
3.0
 40
4.0
 40
4.0
 40
4.0
 40
5.0
 40
5.0
 40
5.0
 40
6.0
 40
6.0
 40
6.0
 40
7.0
 40
7.0
 40
7.0
 40
8.0
 40
8.0
 40
8.0
 40
8.0
 10
4.623995716521373
 20
5.988858182042046
 30
0.0
 10
4.62410404985197
 20
5.979865126713674
 30
0.0
 10
4.620645716606001
 20
5.969869293632857
 30
0.0
 10
4.613606827894929
 20
5.961690127172814
 30
0.0
 10
4.600477661559934
 20
5.946438738669207
 30
0.0
 10
4.580063773186743
 20
5.942687349875087
 30
0.0
 10
4.568033217935104
 20
5.953301238495846
 30
0.0
 10
4.562283218080362
 20
5.958373460589933
 30
0.0
 10
4.55997766258305
 20
5.965677627072081
 30
0.0
 10
4.56005821813657
 20
5.973727626868721
 30
0.0
 10
4.56005821813657
 20
5.973727626868721
 30
0.0
 10
4.559867940363599
 20
6.499816502467486
 30
0.0
 10
4.559867940363599
 20
6.499816502467486
 30
0.0
 10
4.559759607033002
 20
6.508809557795858
 30
0.0
 10
4.563205440279287
 20
6.518798446432406
 30
0.0
 10
4.570258217878896
 20
6.52697761289245
 30
0.0
 10
4.583387384213893
 20
6.542222222222222
 30
0.0
 10
4.603787383698545
 20
6.545986111111106
 30
0.0
 10
4.615817938950183
 20
6.5353734460137
 30
0.0
 10
4.621567938804926
 20
6.530299835030746
 30
0.0
 10
4.623887383190777
 20
6.522997057437451
 30
0.0
 10
4.623806827637256
 20
6.514947057640825
 30
0.0
 10
4.623806827637256
 20
6.514947057640825
 30
0.0
 10
4.623995716521373
 20
5.988858182042046
 30
0.0
 10
4.623995716521373
 20
5.988858182042046
 30
0.0
  0
SPLINE
  5
14A
330
1F
100
AcDbEntity
  8
Layer 3
 62
     7
420
 16777215
370
    18
100
AcDbSpline
210
0.0
220
0.0
230
1.0
 70
     8
 71
     3
 72
    20
 73
    16
 74
     0
 42
0.0000000001
 43
0.0000000001
 12
1.0
 22
0.0
 32
0.0
 13
1.0
 23
0.0
 33
0.0
 40
0.0
 40
0.0
 40
0.0
 40
0.0
 40
1.0
 40
1.0
 40
1.0
 40
2.0
 40
2.0
 40
2.0
 40
3.0
 40
3.0
 40
3.0
 40
4.0
 40
4.0
 40
4.0
 40
5.0
 40
5.0
 40
5.0
 40
5.0
 10
4.58661516191013
 20
5.947102627541325
 30
0.0
 10
4.580580439840357
 20
5.947191516427968
 30
0.0
 10
4.574897106650597
 20
5.949158183044952
 30
0.0
 10
4.570380440098031
 20
5.953131794055682
 30
0.0
 10
4.564629051354435
 20
5.958210960594038
 30
0.0
 10
4.562309606968584
 20
5.965515127076186
 30
0.0
 10
4.562391551410959
 20
5.973565126872838
 30
0.0
 10
4.562391551410959
 20
5.973565126872838
 30
0.0
 10
4.562431829187719
 20
6.499633169138797
 30
0.0
 10
4.562431829187719
 20
6.499633169138797
 30
0.0
 10
4.562323495857123
 20
6.508633168911425
 30
0.0
 10
4.56555127355336
 20
6.518635946436511
 30
0.0
 10
4.572591551153285
 20
6.526815112896555
 30
0.0
 10
4.581434606485446
 20
6.537067890415338
 30
0.0
 10
4.593559606179142
 20
6.542127612509741
 30
0.0
 10
4.604206828132393
 20
6.541111111111111
 30
0.0
  0
SPLINE
  5
14B
330
1F
100
AcDbEntity
  8
Layer 3
 62
     7
420
 16777215
370
    25
100
AcDbSpline
210
0.0
220
0.0
230
1.0
 70
    11
 71
     3
 72
    26
 73
    22
 74
     0
 42
0.0000000001
 43
0.0000000001
 12
1.0
 22
0.0
 32
0.0
 13
1.0
 23
0.0
 33
0.0
 40
0.0
 40
0.0
 40
0.0
 40
0.0
 40
1.0
 40
1.0
 40
1.0
 40
2.0
 40
2.0
 40
2.0
 40
3.0
 40
3.0
 40
3.0
 40
4.0
 40
4.0
 40
4.0
 40
5.0
 40
5.0
 40
5.0
 40
6.0
 40
6.0
 40
6.0
 40
7.0
 40
7.0
 40
7.0
 40
7.0
 10
4.600558217113454
 20
6.541565112523939
 30
0.0
 10
4.601887383746543
 20
6.538051223723818
 30
0.0
 10
4.60286516149962
 20
6.534905390469955
 30
0.0
 10
4.602837383722544
 20
6.53081650168436
 30
0.0
 10
4.602837383722544
 20
6.53081650168436
 30
0.0
 10
4.602566550396053
 20
6.004754014973817
 30
0.0
 10
4.602566550396053
 20
6.004754014973817
 30
0.0
 10
4.602592939284275
 20
5.99303457082543
 30
0.0
 10
4.599229050480365
 20
5.985772071008896
 30
0.0
 10
4.592176272880756
 20
5.977592904548853
 30
0.0
 10
4.583658217540384
 20
5.967705404798632
 30
0.0
 10
4.572130440053822
 20
5.962640127148815
 30
0.0
 10
4.561767940315601
 20
5.963195682690335
 30
0.0
 10
4.561767940315601
 20
5.963195682690335
 30
0.0
 10
4.56138738476966
 20
6.499708333333337
 30
0.0
 10
4.56138738476966
 20
6.499708333333337
 30
0.0
 10
4.561279051439063
 20
6.508701224465262
 30
0.0
 10
4.5645068291353
 20
6.518710946434616
 30
0.0
 10
4.571559606734909
 20
6.526881779561537
 30
0.0
 10
4.579427662091701
 20
6.536024834886121
 30
0.0
 10
4.590820717359444
 20
6.541306779197144
 30
0.0
 10
4.600558217113454
 20
6.541565112523939
 30
0.0
  0
HATCH
  5
14C
330
1F
100
AcDbEntity
  8
Layer 3
 62
   253
420
 11711154
100
AcDbHatch
 10
0.0
 20
0.0
 30
0.0
210
0.0
220
0.0
230
1.0
  2
SOLID
 70
     1
 71
     0
 91
        1
 92
        1
 93
        1
 72
     4
 94
        3
 73
     0
 74
     1
 95
       26
 96
       22
 40
0.0
 40
0.0
 40
0.0
 40
0.0
 40
1.0
 40
1.0
 40
1.0
 40
2.0
 40
2.0
 40
2.0
 40
3.0
 40
3.0
 40
3.0
 40
4.0
 40
4.0
 40
4.0
 40
5.0
 40
5.0
 40
5.0
 40
6.0
 40
6.0
 40
6.0
 40
7.0
 40
7.0
 40
7.0
 40
7.0
 10
4.600558217113454
 20
6.541565112523939
 10
4.601887383746543
 20
6.538051223723818
 10
4.60286516149962
 20
6.534905390469955
 10
4.602837383722544
 20
6.53081650168436
 10
4.602837383722544
 20
6.53081650168436
 10
4.602566550396053
 20
6.004754014973817
 10
4.602566550396053
 20
6.004754014973817
 10
4.602592939284275
 20
5.99303457082543
 10
4.599229050480365
 20
5.985772071008896
 10
4.592176272880756
 20
5.977592904548853
 10
4.583658217540384
 20
5.967705404798632
 10
4.572130440053822
 20
5.962640127148815
 10
4.561767940315601
 20
5.963195682690335
 10
4.561767940315601
 20
5.963195682690335
 10
4.56138738476966
 20
6.499708333333337
 10
4.56138738476966
 20
6.499708333333337
 10
4.561279051439063
 20
6.508701224465262
 10
4.5645068291353
 20
6.518710946434616
 10
4.571559606734909
 20
6.526881779561537
 10
4.579427662091701
 20
6.536024834886121
 10
4.590820717359444
 20
6.541306779197144
 10
4.600558217113454
 20
6.541565112523939
 97
        0
 97
        0
 75
     2
 76
     1
 98
        0
  0
POLYLINE
  5
14D
330
1F
100
AcDbEntity
  8
Layer 3
 62
     7
420
 16777215
370
     9
100
AcDb2dPolyline
 66
     1
 10
0.0
 20
0.0
 30
0.0
  0
VERTEX
  5
14E
330
14D
100
AcDbEntity
  8
Layer 3
 62
     7
420
 16777215
370
     9
100
AcDbVertex
100
AcDb2dVertex
 10
4.651869326928337
 20
5.799858186816587
 30
0.0
  0
VERTEX
  5
14F
330
14D
100
AcDbEntity
  8
Layer 3
 62
     7
420
 16777215
370
     9
100
AcDbVertex
100
AcDb2dVertex
 10
4.566976273517361
 20
5.760484576700137
 30
0.0
  0
SEQEND
  5
150
330
14D
100
AcDbEntity
  8
Layer 3
 62
     7
420
 16777215
370
     9
  0
POLYLINE
  5
151
330
1F
100
AcDbEntity
  8
Layer 3
 62
     7
420
 16777215
370
     9
100
AcDb2dPolyline
 66
     1
 10
0.0
 20
0.0
 30
0.0
  0
VERTEX
  5
152
330
151
100
AcDbEntity
  8
Layer 3
 62
     7
420
 16777215
370
     9
100
AcDbVertex
100
AcDb2dVertex
 10
4.645616549308518
 20
5.810716519875617
 30
0.0
  0
VERTEX
  5
153
330
151
100
AcDbEntity
  8
Layer 3
 62
     7
420
 16777215
370
     9
100
AcDbVertex
100
AcDb2dVertex
 10
4.560723495897542
 20
5.771334576426043
 30
0.0
  0
SEQEND
  5
154
330
151
100
AcDbEntity
  8
Layer 3
 62
     7
420
 16777215
370
     9
  0
INSERT
  5
156
330
1F
100
AcDbEntity
  8
Layer 3
100
AcDbBlockReference
  2
block 8
 10
0.0
 20
0.0
 30
0.0
  0
INSERT
  5
182
330
1F
100
AcDbEntity
  8
Layer 3
100
AcDbBlockReference
  2
block 11
 10
0.0
 20
0.0
 30
0.0
  0
INSERT
  5
1A0
330
1F
100
AcDbEntity
  8
Layer 3
100
AcDbBlockReference
  2
block 13
 10
0.0
 20
0.0
 30
0.0
  0
ENDSEC
  0
SECTION
  2
OBJECTS
  0
DICTIONARY
  5
C
330
0
100
AcDbDictionary
281
     1
  3
ACAD_GROUP
350
D
  3
ACAD_LAYOUT
350
1A
  3
ACAD_MATERIAL
350
3B
  3
ACAD_MLEADERSTYLE
350
1BE
  3
ACAD_MLINESTYLE
350
17
  3
ACAD_PLOTSETTINGS
350
19
  3
ACAD_PLOTSTYLENAME
350
E
  3
ACAD_TABLESTYLE
350
1BD
  3
ACAD_VISUALSTYLE
350
2A
  0
SUN
  5
3F
330
29
100
AcDbSun
 90
        1
290
     0
 63
     7
421
 16777215
 40
1.0
291
     1
 91
  2455826
 92
 54000000
292
     0
 70
     2
 71
   256
280
     1
  0
DICTIONARY
  5
D
102
{ACAD_REACTORS
330
C
102
}
330
C
100
AcDbDictionary
281
     1
  0
DICTIONARY
  5
1A
102
{ACAD_REACTORS
330
C
102
}
330
C
100
AcDbDictionary
281
     1
  3
Layout1
350
1E
  3
Layout2
350
26
  3
Model
350
22
  0
DICTIONARY
  5
3B
102
{ACAD_REACTORS
330
C
102
}
330
C
100
AcDbDictionary
281
     1
  3
ByBlock
350
3D
  3
ByLayer
350
3C
  3
Global
350
3E
  0
DICTIONARY
  5
1BE
102
{ACAD_REACTORS
330
C
102
}
330
C
100
AcDbDictionary
281
     1
  0
DICTIONARY
  5
17
102
{ACAD_REACTORS
330
C
102
}
330
C
100
AcDbDictionary
281
     1
  3
Standard
350
18
  0
DICTIONARY
  5
19
102
{ACAD_REACTORS
330
C
102
}
330
C
100
AcDbDictionary
281
     1
  0
ACDBDICTIONARYWDFLT
  5
E
102
{ACAD_REACTORS
330
C
102
}
330
C
100
AcDbDictionary
281
     1
  3
Normal
350
F
100
AcDbDictionaryWithDefault
340
F
  0
DICTIONARY
  5
1BD
102
{ACAD_REACTORS
330
C
102
}
330
C
100
AcDbDictionary
281
     1
  0
DICTIONARY
  5
2A
102
{ACAD_REACTORS
330
C
102
}
330
C
100
AcDbDictionary
281
     1
  3
2dWireframe
350
2F
  3
3D Hidden
350
31
  3
3dWireframe
350
30
  3
Basic
350
32
  3
Brighten
350
36
  3
ColorChange
350
3A
  3
Conceptual
350
34
  3
Dim
350
35
  3
Facepattern
350
39
  3
Flat
350
2B
  3
FlatWithEdges
350
2C
  3
Gouraud
350
2D
  3
GouraudWithEdges
350
2E
  3
Linepattern
350
38
  3
Realistic
350
33
  3
Thicken
350
37
  0
LAYOUT
  5
1E
102
{ACAD_REACTORS
330
1A
102
}
330
1A
100
AcDbPlotSettings
  1

  2
none_device
  4

  6

 40
0.0
 41
0.0
 42
0.0
 43
0.0
 44
0.0
 45
0.0
 46
0.0
 47
0.0
 48
0.0
 49
0.0
140
0.0
141
0.0
142
1.0
143
1.0
 70
   688
 72
     0
 73
     0
 74
     5
  7

 75
    16
 76
     0
 77
     2
 78
   300
147
1.0
148
0.0
149
0.0
100
AcDbLayout
  1
Layout1
 70
     1
 71
     1
 10
0.0
 20
0.0
 11
12.0
 21
9.0
 12
0.0
 22
0.0
 32
0.0
 14
1.000000000000000E+20
 24
1.000000000000000E+20
 34
1.000000000000000E+20
 15
-1.000000000000000E+20
 25
-1.000000000000000E+20
 35
-1.000000000000000E+20
146
0.0
 13
0.0
 23
0.0
 33
0.0
 16
1.0
 26
0.0
 36
0.0
 17
0.0
 27
1.0
 37
0.0
 76
     0
330
1B
  0
LAYOUT
  5
26
102
{ACAD_REACTORS
330
1A
102
}
330
1A
100
AcDbPlotSettings
  1

  2
none_device
  4

  6

 40
0.0
 41
0.0
 42
0.0
 43
0.0
 44
0.0
 45
0.0
 46
0.0
 47
0.0
 48
0.0
 49
0.0
140
0.0
141
0.0
142
1.0
143
1.0
 70
   688
 72
     0
 73
     0
 74
     5
  7

 75
    16
 76
     0
 77
     2
 78
   300
147
1.0
148
0.0
149
0.0
100
AcDbLayout
  1
Layout2
 70
     1
 71
     2
 10
0.0
 20
0.0
 11
0.0
 21
0.0
 12
0.0
 22
0.0
 32
0.0
 14
0.0
 24
0.0
 34
0.0
 15
0.0
 25
0.0
 35
0.0
146
0.0
 13
0.0
 23
0.0
 33
0.0
 16
1.0
 26
0.0
 36
0.0
 17
0.0
 27
1.0
 37
0.0
 76
     0
330
23
  0
LAYOUT
  5
22
102
{ACAD_REACTORS
330
1A
102
}
330
1A
100
AcDbPlotSettings
  1

  2
none_device
  4

  6

 40
0.0
 41
0.0
 42
0.0
 43
0.0
 44
0.0
 45
0.0
 46
0.0
 47
0.0
 48
0.0
 49
0.0
140
0.0
141
0.0
142
1.0
143
1.0
 70
  1712
 72
     0
 73
     0
 74
     0
  7

 75
     0
 76
     0
 77
     2
 78
   300
147
1.0
148
0.0
149
0.0
100
AcDbLayout
  1
Model
 70
     1
 71
     0
 10
0.0
 20
0.0
 11
12.0
 21
9.0
 12
0.0
 22
0.0
 32
0.0
 14
1.000000000000000E+20
 24
1.000000000000000E+20
 34
1.000000000000000E+20
 15
-1.000000000000000E+20
 25
-1.000000000000000E+20
 35
-1.000000000000000E+20
146
0.0
 13
0.0
 23
0.0
 33
0.0
 16
1.0
 26
0.0
 36
0.0
 17
0.0
 27
1.0
 37
0.0
 76
     0
330
1F
331
29
  0
MATERIAL
  5
3D
102
{ACAD_REACTORS
330
3B
102
}
330
3B
100
AcDbMaterial
  1
ByBlock
 72
     1
 94
      127
  0
MATERIAL
  5
3C
102
{ACAD_REACTORS
330
3B
102
}
330
3B
100
AcDbMaterial
  1
ByLayer
 72
     1
 94
      127
  0
MATERIAL
  5
3E
102
{ACAD_REACTORS
330
3B
102
}
330
3B
100
AcDbMaterial
  1
Global
 72
     1
 94
      127
  0
MLINESTYLE
  5
18
102
{ACAD_REACTORS
330
17
102
}
330
17
100
AcDbMlineStyle
  2
Standard
 70
     0
  3

 62
   256
 51
90.0
 52
90.0
 71
     2
 49
0.5
 62
   256
  6
BYLAYER
 49
-0.5
 62
   256
  6
BYLAYER
  0
ACDBPLACEHOLDER
  5
F
102
{ACAD_REACTORS
330
E
102
}
330
E
  0
VISUALSTYLE
  5
2F
102
{ACAD_REACTORS
330
2A
102
}
330
2A
100
AcDbVisualStyle
  2
2dWireframe
 70
     4
177
     2
291
     0
 71
     0
176
     1
 72
     2
176
     1
 73
     0
176
     1
 90
        0
176
     1
 40
-0.6
176
     1
 41
-30.0
176
     1
 62
     5
 63
     7
421
 16777215
176
     1
 74
     1
176
     1
 91
        4
176
     1
 64
     7
176
     1
 65
   257
176
     1
 75
     1
176
     1
175
     1
176
     1
 42
1.0
176
     1
 92
        0
176
     1
 66
   257
176
     1
 43
1.0
176
     1
 76
     1
176
     1
 77
     6
176
     1
 78
     2
176
     1
 67
     7
176
     1
 79
     5
176
     1
170
     0
176
     1
171
     0
176
     1
290
     0
176
     1
 93
        1
176
     1
 44
0.0
176
     1
173
     0
176
     1
  0
VISUALSTYLE
  5
31
102
{ACAD_REACTORS
330
2A
102
}
330
2A
100
AcDbVisualStyle
  2
3D Hidden
 70
     6
177
     2
291
     0
 71
     1
176
     1
 72
     2
176
     1
 73
     2
176
     1
 90
        0
176
     1
 40
-0.6
176
     1
 41
-30.0
176
     1
 62
     5
 63
     7
421
 16777215
176
     1
 74
     2
176
     1
 91
        2
176
     1
 64
     7
176
     1
 65
   257
176
     1
 75
     2
176
     1
175
     1
176
     1
 42
40.0
176
     1
 92
        0
176
     1
 66
   257
176
     1
 43
1.0
176
     1
 76
     1
176
     1
 77
     6
176
     1
 78
     2
176
     1
 67
     7
176
     1
 79
     3
176
     1
170
     0
176
     1
171
     0
176
     1
290
     0
176
     1
 93
        1
176
     1
 44
0.0
176
     1
173
     0
176
     1
  0
VISUALSTYLE
  5
30
102
{ACAD_REACTORS
330
2A
102
}
330
2A
100
AcDbVisualStyle
  2
3dWireframe
 70
     5
177
     2
291
     0
 71
     0
176
     1
 72
     2
176
     1
 73
     0
176
     1
 90
        0
176
     1
 40
-0.6
176
     1
 41
-30.0
176
     1
 62
     5
 63
     7
421
 16777215
176
     1
 74
     1
176
     1
 91
        4
176
     1
 64
     7
176
     1
 65
   257
176
     1
 75
     1
176
     1
175
     1
176
     1
 42
1.0
176
     1
 92
        0
176
     1
 66
   257
176
     1
 43
1.0
176
     1
 76
     1
176
     1
 77
     6
176
     1
 78
     2
176
     1
 67
     7
176
     1
 79
     5
176
     1
170
     0
176
     1
171
     0
176
     1
290
     0
176
     1
 93
        1
176
     1
 44
0.0
176
     1
173
     0
176
     1
  0
VISUALSTYLE
  5
32
102
{ACAD_REACTORS
330
2A
102
}
330
2A
100
AcDbVisualStyle
  2
Basic
 70
     7
177
     2
291
     1
 71
     1
176
     1
 72
     0
176
     1
 73
     1
176
     1
 90
        0
176
     1
 40
-0.6
176
     1
 41
-30.0
176
     1
 62
     5
 63
     7
421
 16777215
176
     1
 74
     0
176
     1
 91
        4
176
     1
 64
     7
176
     1
 65
   257
176
     1
 75
     1
176
     1
175
     1
176
     1
 42
1.0
176
     1
 92
        8
176
     1
 66
     7
176
     1
 43
1.0
176
     1
 76
     1
176
     1
 77
     6
176
     1
 78
     2
176
     1
 67
     7
176
     1
 79
     5
176
     1
170
     0
176
     1
171
     0
176
     1
290
     0
176
     1
 93
        1
176
     1
 44
0.0
176
     1
173
     0
176
     1
  0
VISUALSTYLE
  5
36
102
{ACAD_REACTORS
330
2A
102
}
330
2A
100
AcDbVisualStyle
  2
Brighten
 70
    12
177
     2
291
     1
 71
     2
176
     1
 72
     2
176
     1
 73
     0
176
     1
 90
        0
176
     1
 40
-0.6
176
     1
 41
-30.0
176
     1
 62
     5
 63
     7
421
 16777215
176
     1
 74
     1
176
     1
 91
        4
176
     1
 64
     7
176
     1
 65
   257
176
     1
 75
     1
176
     1
175
     1
176
     1
 42
1.0
176
     1
 92
        8
176
     1
 66
     7
176
     1
 43
1.0
176
     1
 76
     1
176
     1
 77
     6
176
     1
 78
     2
176
     1
 67
     7
176
     1
 79
     5
176
     1
170
     0
176
     1
171
     0
176
     1
290
     0
176
     1
 93
        1
176
     1
 44
50.0
176
     1
173
     0
176
     1
  0
VISUALSTYLE
  5
3A
102
{ACAD_REACTORS
330
2A
102
}
330
2A
100
AcDbVisualStyle
  2
ColorChange
 70
    16
177
     2
291
     1
 71
     2
176
     1
 72
     2
176
     1
 73
     3
176
     1
 90
        0
176
     1
 40
-0.6
176
     1
 41
-30.0
176
     1
 62
     5
 63
     8
421
  8421504
176
     1
 74
     1
176
     1
 91
        4
176
     1
 64
     7
176
     1
 65
   257
176
     1
 75
     1
176
     1
175
     1
176
     1
 42
1.0
176
     1
 92
        8
176
     1
 66
     8
424
  8421504
176
     1
 43
1.0
176
     1
 76
     1
176
     1
 77
     6
176
     1
 78
     2
176
     1
 67
     7
176
     1
 79
     5
176
     1
170
     0
176
     1
171
     0
176
     1
290
     0
176
     1
 93
        1
176
     1
 44
0.0
176
     1
173
     0
176
     1
  0
VISUALSTYLE
  5
34
102
{ACAD_REACTORS
330
2A
102
}
330
2A
100
AcDbVisualStyle
  2
Conceptual
 70
     9
177
     2
291
     0
 71
     3
176
     1
 72
     2
176
     1
 73
     0
176
     1
 90
        0
176
     1
 40
-0.6
176
     1
 41
-30.0
176
     1
 62
     5
 63
     7
421
 16777215
176
     1
 74
     2
176
     1
 91
        2
176
     1
 64
     7
176
     1
 65
   257
176
     1
 75
     1
176
     1
175
     1
176
     1
 42
40.0
176
     1
 92
        8
176
     1
 66
     7
176
     1
 43
1.0
176
     1
 76
     1
176
     1
 77
     6
176
     1
 78
     2
176
     1
 67
     7
176
     1
 79
     3
176
     1
170
     0
176
     1
171
     0
176
     1
290
     0
176
     1
 93
        1
176
     1
 44
0.0
176
     1
173
     0
176
     1
  0
VISUALSTYLE
  5
35
102
{ACAD_REACTORS
330
2A
102
}
330
2A
100
AcDbVisualStyle
  2
Dim
 70
    11
177
     2
291
     1
 71
     2
176
     1
 72
     2
176
     1
 73
     0
176
     1
 90
        0
176
     1
 40
-0.6
176
     1
 41
-30.0
176
     1
 62
     5
 63
     7
421
 16777215
176
     1
 74
     1
176
     1
 91
        4
176
     1
 64
     7
176
     1
 65
   257
176
     1
 75
     1
176
     1
175
     1
176
     1
 42
1.0
176
     1
 92
        8
176
     1
 66
     7
176
     1
 43
1.0
176
     1
 76
     1
176
     1
 77
     6
176
     1
 78
     2
176
     1
 67
     7
176
     1
 79
     5
176
     1
170
     0
176
     1
171
     0
176
     1
290
     0
176
     1
 93
        1
176
     1
 44
-50.0
176
     1
173
     0
176
     1
  0
VISUALSTYLE
  5
39
102
{ACAD_REACTORS
330
2A
102
}
330
2A
100
AcDbVisualStyle
  2
Facepattern
 70
    15
177
     2
291
     1
 71
     2
176
     1
 72
     2
176
     1
 73
     0
176
     1
 90
        0
176
     1
 40
-0.6
176
     1
 41
-30.0
176
     1
 62
     5
 63
     7
421
 16777215
176
     1
 74
     1
176
     1
 91
        4
176
     1
 64
     7
176
     1
 65
   257
176
     1
 75
     1
176
     1
175
     1
176
     1
 42
1.0
176
     1
 92
        8
176
     1
 66
     7
176
     1
 43
1.0
176
     1
 76
     1
176
     1
 77
     6
176
     1
 78
     2
176
     1
 67
     7
176
     1
 79
     5
176
     1
170
     0
176
     1
171
     0
176
     1
290
     0
176
     1
 93
        1
176
     1
 44
0.0
176
     1
173
     0
176
     1
  0
VISUALSTYLE
  5
2B
102
{ACAD_REACTORS
330
2A
102
}
330
2A
100
AcDbVisualStyle
  2
Flat
 70
     0
177
     2
291
     1
 71
     2
176
     1
 72
     1
176
     1
 73
     1
176
     1
 90
        2
176
     1
 40
-0.6
176
     1
 41
30.0
176
     1
 62
     5
 63
     7
421
 16777215
176
     1
 74
     0
176
     1
 91
        4
176
     1
 64
     7
176
     1
 65
   257
176
     1
 75
     1
176
     1
175
     1
176
     1
 42
1.0
176
     1
 92
        8
176
     1
 66
     7
176
     1
 43
1.0
176
     1
 76
     1
176
     1
 77
     6
176
     1
 78
     2
176
     1
 67
     7
176
     1
 79
     5
176
     1
170
     0
176
     1
171
     0
176
     1
290
     0
176
     1
 93
       13
176
     1
 44
0.0
176
     1
173
     0
176
     1
  0
VISUALSTYLE
  5
2C
102
{ACAD_REACTORS
330
2A
102
}
330
2A
100
AcDbVisualStyle
  2
FlatWithEdges
 70
     1
177
     2
291
     1
 71
     2
176
     1
 72
     1
176
     1
 73
     1
176
     1
 90
        2
176
     1
 40
-0.6
176
     1
 41
30.0
176
     1
 62
     5
 63
     7
421
 16777215
176
     1
 74
     1
176
     1
 91
        4
176
     1
 64
     7
176
     1
 65
   257
176
     1
 75
     1
176
     1
175
     1
176
     1
 42
1.0
176
     1
 92
        0
176
     1
 66
   257
176
     1
 43
1.0
176
     1
 76
     1
176
     1
 77
     6
176
     1
 78
     2
176
     1
 67
     7
176
     1
 79
     5
176
     1
170
     0
176
     1
171
     0
176
     1
290
     0
176
     1
 93
       13
176
     1
 44
0.0
176
     1
173
     0
176
     1
  0
VISUALSTYLE
  5
2D
102
{ACAD_REACTORS
330
2A
102
}
330
2A
100
AcDbVisualStyle
  2
Gouraud
 70
     2
177
     2
291
     1
 71
     2
176
     1
 72
     2
176
     1
 73
     1
176
     1
 90
        2
176
     1
 40
-0.6
176
     1
 41
30.0
176
     1
 62
     5
 63
     7
421
 16777215
176
     1
 74
     0
176
     1
 91
        4
176
     1
 64
     7
176
     1
 65
   257
176
     1
 75
     1
176
     1
175
     1
176
     1
 42
1.0
176
     1
 92
        0
176
     1
 66
     7
176
     1
 43
1.0
176
     1
 76
     1
176
     1
 77
     6
176
     1
 78
     2
176
     1
 67
     7
176
     1
 79
     5
176
     1
170
     0
176
     1
171
     0
176
     1
290
     0
176
     1
 93
       13
176
     1
 44
0.0
176
     1
173
     0
176
     1
  0
VISUALSTYLE
  5
2E
102
{ACAD_REACTORS
330
2A
102
}
330
2A
100
AcDbVisualStyle
  2
GouraudWithEdges
 70
     3
177
     2
291
     1
 71
     2
176
     1
 72
     2
176
     1
 73
     1
176
     1
 90
        2
176
     1
 40
-0.6
176
     1
 41
30.0
176
     1
 62
     5
 63
     7
421
 16777215
176
     1
 74
     1
176
     1
 91
        4
176
     1
 64
     7
176
     1
 65
   257
176
     1
 75
     1
176
     1
175
     1
176
     1
 42
1.0
176
     1
 92
        0
176
     1
 66
   257
176
     1
 43
1.0
176
     1
 76
     1
176
     1
 77
     6
176
     1
 78
     2
176
     1
 67
     7
176
     1
 79
     5
176
     1
170
     0
176
     1
171
     0
176
     1
290
     0
176
     1
 93
       13
176
     1
 44
0.0
176
     1
173
     0
176
     1
  0
VISUALSTYLE
  5
38
102
{ACAD_REACTORS
330
2A
102
}
330
2A
100
AcDbVisualStyle
  2
Linepattern
 70
    14
177
     2
291
     1
 71
     2
176
     1
 72
     2
176
     1
 73
     0
176
     1
 90
        0
176
     1
 40
-0.6
176
     1
 41
-30.0
176
     1
 62
     5
 63
     7
421
 16777215
176
     1
 74
     1
176
     1
 91
        4
176
     1
 64
     7
176
     1
 65
   257
176
     1
 75
     7
176
     1
175
     7
176
     1
 42
1.0
176
     1
 92
        8
176
     1
 66
     7
176
     1
 43
1.0
176
     1
 76
     1
176
     1
 77
     6
176
     1
 78
     2
176
     1
 67
     7
176
     1
 79
     5
176
     1
170
     0
176
     1
171
     0
176
     1
290
     0
176
     1
 93
        1
176
     1
 44
0.0
176
     1
173
     0
176
     1
  0
VISUALSTYLE
  5
33
102
{ACAD_REACTORS
330
2A
102
}
330
2A
100
AcDbVisualStyle
  2
Realistic
 70
     8
177
     2
291
     0
 71
     2
176
     1
 72
     2
176
     1
 73
     0
176
     1
 90
        0
176
     1
 40
-0.6
176
     1
 41
-30.0
176
     1
 62
     5
 63
     7
421
 16777215
176
     1
 74
     1
176
     1
 91
        0
176
     1
 64
     7
176
     1
 65
   257
176
     1
 75
     1
176
     1
175
     1
176
     1
 42
1.0
176
     1
 92
        8
176
     1
 66
     8
424
  7895160
176
     1
 43
1.0
176
     1
 76
     1
176
     1
 77
     6
176
     1
 78
     2
176
     1
 67
     7
176
     1
 79
     5
176
     1
170
     0
176
     1
171
     0
176
     1
290
     0
176
     1
 93
       13
176
     1
 44
0.0
176
     1
173
     0
176
     1
  0
VISUALSTYLE
  5
37
102
{ACAD_REACTORS
330
2A
102
}
330
2A
100
AcDbVisualStyle
  2
Thicken
 70
    13
177
     2
291
     1
 71
     2
176
     1
 72
     2
176
     1
 73
     0
176
     1
 90
        0
176
     1
 40
-0.6
176
     1
 41
-30.0
176
     1
 62
     5
 63
     7
421
 16777215
176
     1
 74
     1
176
     1
 91
        4
176
     1
 64
     7
176
     1
 65
   257
176
     1
 75
     1
176
     1
175
     1
176
     1
 42
1.0
176
     1
 92
       12
176
     1
 66
     7
176
     1
 43
1.0
176
     1
 76
     1
176
     1
 77
     6
176
     1
 78
     2
176
     1
 67
     7
176
     1
 79
     5
176
     1
170
     0
176
     1
171
     0
176
     1
290
     0
176
     1
 93
        1
176
     1
 44
0.0
176
     1
173
     0
176
     1
  0
ENDSEC
  0
EOF
