  0
SECTION
  2
HEADER
  9
$ACADVER
  1
AC1024
  9
$ACADMAINTVER
 70
     6
  9
$DWGCODEPAGE
  3
ANSI_1252
  9
$INSBASE
 10
0.0
 20
0.0
 30
0.0
  9
$EXTMIN
 10
1.000000000000000E+20
 20
1.000000000000000E+20
 30
1.000000000000000E+20
  9
$EXTMAX
 10
-1.000000000000000E+20
 20
-1.000000000000000E+20
 30
-1.000000000000000E+20
  9
$LIMMIN
 10
0.0
 20
0.0
  9
$LIMMAX
 10
12.0
 20
9.0
  9
$ORTHOMODE
 70
     0
  9
$REGENMODE
 70
     1
  9
$FILLMODE
 70
     1
  9
$QTEXTMODE
 70
     0
  9
$MIRRTEXT
 70
     1
  9
$LTSCALE
 40
1.0
  9
$ATTMODE
 70
     1
  9
$TEXTSIZE
 40
0.2
  9
$TRACEWID
 40
0.05
  9
$TEXTSTYLE
  7
Standard
  9
$CLAYER
  8
0
  9
$CELTYPE
  6
ByLayer
  9
$CECOLOR
 62
   256
  9
$CELTSCALE
 40
1.0
  9
$DISPSILH
 70
     0
  9
$DIMSCALE
 40
1.0
  9
$DIMASZ
 40
0.18
  9
$DIMEXO
 40
0.0625
  9
$DIMDLI
 40
0.38
  9
$DIMRND
 40
0.0
  9
$DIMDLE
 40
0.0
  9
$DIMEXE
 40
0.18
  9
$DIMTP
 40
0.0
  9
$DIMTM
 40
0.0
  9
$DIMTXT
 40
0.18
  9
$DIMCEN
 40
0.09
  9
$DIMTSZ
 40
0.0
  9
$DIMTOL
 70
     0
  9
$DIMLIM
 70
     0
  9
$DIMTIH
 70
     1
  9
$DIMTOH
 70
     1
  9
$DIMSE1
 70
     0
  9
$DIMSE2
 70
     0
  9
$DIMTAD
 70
     0
  9
$DIMZIN
 70
     0
  9
$DIMBLK
  1

  9
$DIMASO
 70
     1
  9
$DIMSHO
 70
     1
  9
$DIMPOST
  1

  9
$DIMAPOST
  1

  9
$DIMALT
 70
     0
  9
$DIMALTD
 70
     2
  9
$DIMALTF
 40
25.4
  9
$DIMLFAC
 40
1.0
  9
$DIMTOFL
 70
     0
  9
$DIMTVP
 40
0.0
  9
$DIMTIX
 70
     0
  9
$DIMSOXD
 70
     0
  9
$DIMSAH
 70
     0
  9
$DIMBLK1
  1

  9
$DIMBLK2
  1

  9
$DIMSTYLE
  2
Standard
  9
$DIMCLRD
 70
     0
  9
$DIMCLRE
 70
     0
  9
$DIMCLRT
 70
     0
  9
$DIMTFAC
 40
1.0
  9
$DIMGAP
 40
0.09
  9
$DIMJUST
 70
     0
  9
$DIMSD1
 70
     0
  9
$DIMSD2
 70
     0
  9
$DIMTOLJ
 70
     1
  9
$DIMTZIN
 70
     0
  9
$DIMALTZ
 70
     0
  9
$DIMALTTZ
 70
     0
  9
$DIMUPT
 70
     0
  9
$DIMDEC
 70
     4
  9
$DIMTDEC
 70
     4
  9
$DIMALTU
 70
     2
  9
$DIMALTTD
 70
     2
  9
$DIMTXSTY
  7
Standard
  9
$DIMAUNIT
 70
     0
  9
$DIMADEC
 70
     0
  9
$DIMALTRND
 40
0.0
  9
$DIMAZIN
 70
     0
  9
$DIMDSEP
 70
    46
  9
$DIMATFIT
 70
     3
  9
$DIMFRAC
 70
     0
  9
$DIMLDRBLK
  1

  9
$DIMLUNIT
 70
     2
  9
$DIMLWD
 70
    -2
  9
$DIMLWE
 70
    -2
  9
$DIMTMOVE
 70
     0
  9
$DIMFXL
 40
1.0
  9
$DIMFXLON
 70
     0
  9
$DIMJOGANG
 40
0.7853981633974483
  9
$DIMTFILL
 70
     0
  9
$DIMTFILLCLR
 70
     0
  9
$DIMARCSYM
 70
     0
  9
$DIMLTYPE
  6

  9
$DIMLTEX1
  6

  9
$DIMLTEX2
  6

  9
$DIMTXTDIRECTION
 70
     0
  9
$LUNITS
 70
     2
  9
$LUPREC
 70
     4
  9
$SKETCHINC
 40
0.1
  9
$FILLETRAD
 40
0.5
  9
$AUNITS
 70
     0
  9
$AUPREC
 70
     0
  9
$MENU
  1
.
  9
$ELEVATION
 40
0.0
  9
$PELEVATION
 40
0.0
  9
$THICKNESS
 40
0.0
  9
$LIMCHECK
 70
     0
  9
$CHAMFERA
 40
0.5
  9
$CHAMFERB
 40
0.5
  9
$CHAMFERC
 40
1.0
  9
$CHAMFERD
 40
0.0
  9
$SKPOLY
 70
     0
  9
$TDCREATE
 40
2458857.899894456
  9
$TDUCREATE
 40
2458857.358227789
  9
$TDUPDATE
 40
2458857.899894665
  9
$TDUUPDATE
 40
2458857.358227998
  9
$TDINDWG
 40
0.0000000116
  9
$TDUSRTIMER
 40
0.0000000116
  9
$USRTIMER
 70
     1
  9
$ANGBASE
 50
0.0
  9
$ANGDIR
 70
     0
  9
$PDMODE
 70
     0
  9
$PDSIZE
 40
0.0
  9
$PLINEWID
 40
0.0
  9
$SPLFRAME
 70
     0
  9
$SPLINETYPE
 70
     6
  9
$SPLINESEGS
 70
     8
  9
$HANDSEED
  5
150
  9
$SURFTAB1
 70
     6
  9
$SURFTAB2
 70
     6
  9
$SURFTYPE
 70
     6
  9
$SURFU
 70
     6
  9
$SURFV
 70
     6
  9
$UCSBASE
  2

  9
$UCSNAME
  2

  9
$UCSORG
 10
0.0
 20
0.0
 30
0.0
  9
$UCSXDIR
 10
1.0
 20
0.0
 30
0.0
  9
$UCSYDIR
 10
0.0
 20
1.0
 30
0.0
  9
$UCSORTHOREF
  2

  9
$UCSORTHOVIEW
 70
     0
  9
$UCSORGTOP
 10
0.0
 20
0.0
 30
0.0
  9
$UCSORGBOTTOM
 10
0.0
 20
0.0
 30
0.0
  9
$UCSORGLEFT
 10
0.0
 20
0.0
 30
0.0
  9
$UCSORGRIGHT
 10
0.0
 20
0.0
 30
0.0
  9
$UCSORGFRONT
 10
0.0
 20
0.0
 30
0.0
  9
$UCSORGBACK
 10
0.0
 20
0.0
 30
0.0
  9
$PUCSBASE
  2

  9
$PUCSNAME
  2

  9
$PUCSORG
 10
0.0
 20
0.0
 30
0.0
  9
$PUCSXDIR
 10
1.0
 20
0.0
 30
0.0
  9
$PUCSYDIR
 10
0.0
 20
1.0
 30
0.0
  9
$PUCSORTHOREF
  2

  9
$PUCSORTHOVIEW
 70
     0
  9
$PUCSORGTOP
 10
0.0
 20
0.0
 30
0.0
  9
$PUCSORGBOTTOM
 10
0.0
 20
0.0
 30
0.0
  9
$PUCSORGLEFT
 10
0.0
 20
0.0
 30
0.0
  9
$PUCSORGRIGHT
 10
0.0
 20
0.0
 30
0.0
  9
$PUCSORGFRONT
 10
0.0
 20
0.0
 30
0.0
  9
$PUCSORGBACK
 10
0.0
 20
0.0
 30
0.0
  9
$USERI1
 70
     0
  9
$USERI2
 70
     0
  9
$USERI3
 70
     0
  9
$USERI4
 70
     0
  9
$USERI5
 70
     0
  9
$USERR1
 40
0.0
  9
$USERR2
 40
0.0
  9
$USERR3
 40
0.0
  9
$USERR4
 40
0.0
  9
$USERR5
 40
0.0
  9
$WORLDVIEW
 70
     1
  9
$SHADEDGE
 70
     3
  9
$SHADEDIF
 70
    70
  9
$TILEMODE
 70
     1
  9
$MAXACTVP
 70
    64
  9
$PINSBASE
 10
0.0
 20
0.0
 30
0.0
  9
$PLIMCHECK
 70
     0
  9
$PEXTMIN
 10
1.000000000000000E+20
 20
1.000000000000000E+20
 30
1.000000000000000E+20
  9
$PEXTMAX
 10
-1.000000000000000E+20
 20
-1.000000000000000E+20
 30
-1.000000000000000E+20
  9
$PLIMMIN
 10
0.0
 20
0.0
  9
$PLIMMAX
 10
12.0
 20
9.0
  9
$UNITMODE
 70
     0
  9
$VISRETAIN
 70
     1
  9
$PLINEGEN
 70
     0
  9
$PSLTSCALE
 70
     1
  9
$TREEDEPTH
 70
  3020
  9
$CMLSTYLE
  2
Standard
  9
$CMLJUST
 70
     0
  9
$CMLSCALE
 40
1.0
  9
$PROXYGRAPHICS
 70
     1
  9
$MEASUREMENT
 70
     0
  9
$CELWEIGHT
370
    -1
  9
$ENDCAPS
280
     0
  9
$JOINSTYLE
280
     0
  9
$LWDISPLAY
290
     1
  9
$INSUNITS
 70
     0
  9
$HYPERLINKBASE
  1

  9
$STYLESHEET
  1

  9
$XEDIT
290
     1
  9
$CEPSNTYPE
380
     0
  9
$PSTYLEMODE
290
     1
  9
$FINGERPRINTGUID
  2
{30EEC0DC-C2F5-4C0A-AEEA-C73BA41A62B0}
  9
$VERSIONGUID
  2
{FAEB1C32-E019-11D5-929B-00C0DF256EC4}
  9
$EXTNAMES
290
     1
  9
$PSVPSCALE
 40
0.0
  9
$OLESTARTUP
290
     0
  9
$SORTENTS
280
   127
  9
$INDEXCTL
280
     0
  9
$HIDETEXT
280
     1
  9
$XCLIPFRAME
280
     2
  9
$HALOGAP
280
     0
  9
$OBSCOLOR
 70
   257
  9
$OBSLTYPE
280
     0
  9
$INTERSECTIONDISPLAY
280
     0
  9
$INTERSECTIONCOLOR
 70
   257
  9
$DIMASSOC
280
     2
  9
$PROJECTNAME
  1

  9
$CAMERADISPLAY
290
     0
  9
$LENSLENGTH
 40
50.0
  9
$CAMERAHEIGHT
 40
0.0
  9
$STEPSPERSEC
 40
2.0
  9
$STEPSIZE
 40
6.0
  9
$3DDWFPREC
 40
2.0
  9
$PSOLWIDTH
 40
0.25
  9
$PSOLHEIGHT
 40
4.0
  9
$LOFTANG1
 40
1.570796326794897
  9
$LOFTANG2
 40
1.570796326794897
  9
$LOFTMAG1
 40
0.0
  9
$LOFTMAG2
 40
0.0
  9
$LOFTPARAM
 70
     7
  9
$LOFTNORMALS
280
     1
  9
$LATITUDE
 40
37.795
  9
$LONGITUDE
 40
-122.394
  9
$NORTHDIRECTION
 40
0.0
  9
$TIMEZONE
 70
 -8000
  9
$LIGHTGLYPHDISPLAY
280
     1
  9
$TILEMODELIGHTSYNCH
280
     1
  9
$CMATERIAL
347
3C
  9
$SOLIDHIST
280
     1
  9
$SHOWHIST
280
     1
  9
$DWFFRAME
280
     2
  9
$DGNFRAME
280
     2
  9
$REALWORLDSCALE
290
     1
  9
$INTERFERECOLOR
 62
   256
  9
$CSHADOW
280
     0
  9
$SHADOWPLANELOCATION
 40
0.0
  0
ENDSEC
  0
SECTION
  2
CLASSES
  0
CLASS
  1
ACDBDICTIONARYWDFLT
  2
AcDbDictionaryWithDefault
  3
ObjectDBX Classes
 90
        0
 91
        4
280
     0
281
     0
  0
CLASS
  1
VISUALSTYLE
  2
AcDbVisualStyle
  3
ObjectDBX Classes
 90
     4095
 91
        4
280
     0
281
     0
  0
CLASS
  1
MATERIAL
  2
AcDbMaterial
  3
ObjectDBX Classes
 90
     1153
 91
        4
280
     0
281
     0
  0
CLASS
  1
SUN
  2
AcDbSun
  3
SCENEOE
 90
     1024
 91
        4
280
     0
281
     0
  0
ENDSEC
  0
SECTION
  2
TABLES
  0
TABLE
  2
VPORT
  5
8
330
0
100
AcDbSymbolTable
 70
     1
  0
VPORT
  5
29
330
8
100
AcDbSymbolTableRecord
100
AcDbViewportTableRecord
  2
*Active
 70
     0
 10
0.0
 20
0.0
 11
1.0
 21
1.0
 12
0.0
 22
0.0
 13
0.0
 23
0.0
 14
0.5
 24
0.5
 15
0.5
 25
0.5
 16
0.0
 26
0.0
 36
1.0
 17
277.0271930017043
 27
423.657739297505
 37
0.0
 40
841.8897637795271
 41
0.7070707070707065
 42
50.0
 43
0.0
 44
0.0
 50
0.0
 51
0.0
 71
     0
 72
   100
 73
     1
 74
     3
 75
     0
 76
     0
 77
     0
 78
     0
281
     0
 65
     1
110
0.0
120
0.0
130
0.0
111
1.0
121
0.0
131
0.0
112
0.0
122
1.0
132
0.0
 79
     0
146
0.0
 60
     3
 61
     5
292
     1
282
     1
141
0.0
142
0.0
 63
   250
361
3F
  0
ENDTAB
  0
TABLE
  2
LTYPE
  5
5
330
0
100
AcDbSymbolTable
 70
     3
  0
LTYPE
  5
14
330
5
100
AcDbSymbolTableRecord
100
AcDbLinetypeTableRecord
  2
ByBlock
 70
     0
  3

 72
    65
 73
     0
 40
0.0
  0
LTYPE
  5
15
330
5
100
AcDbSymbolTableRecord
100
AcDbLinetypeTableRecord
  2
ByLayer
 70
     0
  3

 72
    65
 73
     0
 40
0.0
  0
LTYPE
  5
16
330
5
100
AcDbSymbolTableRecord
100
AcDbLinetypeTableRecord
  2
Continuous
 70
     0
  3
Solid line
 72
    65
 73
     0
 40
0.0
  0
LTYPE
  5
132
330
5
100
AcDbSymbolTableRecord
100
AcDbLinetypeTableRecord
  2
AI-Linetype-1
 70
     0
  3
Adobe Illustrator Linetype No. 1
 72
    65
 73
     2
 40
12.0
 49
6.0
 74
     0
 49
-6.0
 74
     0
  0
LTYPE
  5
137
330
5
100
AcDbSymbolTableRecord
100
AcDbLinetypeTableRecord
  2
AI-Linetype-2
 70
     0
  3
Adobe Illustrator Linetype No. 2
 72
    65
 73
     2
 40
12.0
 49
6.0
 74
     0
 49
-6.0
 74
     0
  0
ENDTAB
  0
TABLE
  2
LAYER
  5
2
330
0
100
AcDbSymbolTable
 70
     5
  0
LAYER
  5
10
330
2
100
AcDbSymbolTableRecord
100
AcDbLayerTableRecord
  2
0
 70
     0
 62
     7
  6
Continuous
370
    -3
390
F
347
3E
  0
LAYER
  5
40
330
2
100
AcDbSymbolTableRecord
100
AcDbLayerTableRecord
  2
Wood
 70
     0
 62
     7
  6
Continuous
370
    -3
390
F
347
3E
  0
LAYER
  5
7F
330
2
100
AcDbSymbolTableRecord
100
AcDbLayerTableRecord
  2
Isolation Mode
 70
     0
 62
     7
  6
Continuous
370
    -3
390
F
347
3E
  0
LAYER
  5
12A
330
2
100
AcDbSymbolTableRecord
100
AcDbLayerTableRecord
  2
Layer 5
 70
     0
 62
     7
  6
Continuous
370
    -3
390
F
347
3E
  0
LAYER
  5
139
330
2
100
AcDbSymbolTableRecord
100
AcDbLayerTableRecord
  2
Layer 6
 70
     0
 62
     7
  6
Continuous
370
    -3
390
F
347
3E
  0
ENDTAB
  0
TABLE
  2
STYLE
  5
3
330
0
100
AcDbSymbolTable
 70
     1
  0
STYLE
  5
11
330
3
100
AcDbSymbolTableRecord
100
AcDbTextStyleTableRecord
  2
Standard
 70
     0
 40
0.0
 41
1.0
 50
0.0
 71
     0
 42
0.2
  3
txt
  4

  0
ENDTAB
  0
TABLE
  2
VIEW
  5
6
330
0
100
AcDbSymbolTable
 70
     0
  0
ENDTAB
  0
TABLE
  2
UCS
  5
7
330
0
100
AcDbSymbolTable
 70
     0
  0
ENDTAB
  0
TABLE
  2
APPID
  5
9
330
0
100
AcDbSymbolTable
 70
     1
  0
APPID
  5
12
330
9
100
AcDbSymbolTableRecord
100
AcDbRegAppTableRecord
  2
ACAD
 70
     0
  0
ENDTAB
  0
TABLE
  2
DIMSTYLE
  5
A
330
0
100
AcDbSymbolTable
 70
     1
100
AcDbDimStyleTable
  0
DIMSTYLE
105
27
330
A
100
AcDbSymbolTableRecord
100
AcDbDimStyleTableRecord
  2
Standard
 70
     0
178
     0
340
11
  0
ENDTAB
  0
TABLE
  2
BLOCK_RECORD
  5
1
330
0
100
AcDbSymbolTable
 70
    10
  0
BLOCK_RECORD
  5
1F
330
1
100
AcDbSymbolTableRecord
100
AcDbBlockTableRecord
  2
*Model_Space
340
22
 70
     0
280
     1
281
     0
  0
BLOCK_RECORD
  5
1B
330
1
100
AcDbSymbolTableRecord
100
AcDbBlockTableRecord
  2
*Paper_Space
340
1E
 70
     0
280
     1
281
     0
  0
BLOCK_RECORD
  5
23
330
1
100
AcDbSymbolTableRecord
100
AcDbBlockTableRecord
  2
*Paper_Space0
340
26
 70
     0
280
     1
281
     0
  0
BLOCK_RECORD
  5
41
330
1
100
AcDbSymbolTableRecord
100
AcDbBlockTableRecord
  2
block 2
340
0
102
{BLKREFS
331
42
102
}
 70
     0
280
     1
281
     0
  0
BLOCK_RECORD
  5
51
330
1
100
AcDbSymbolTableRecord
100
AcDbBlockTableRecord
  2
block 3
340
0
102
{BLKREFS
331
52
102
}
 70
     0
280
     1
281
     0
  0
BLOCK_RECORD
  5
80
330
1
100
AcDbSymbolTableRecord
100
AcDbBlockTableRecord
  2
block 4
340
0
102
{BLKREFS
331
81
102
}
 70
     0
280
     1
281
     0
  0
BLOCK_RECORD
  5
84
330
1
100
AcDbSymbolTableRecord
100
AcDbBlockTableRecord
  2
block 5
340
0
102
{BLKREFS
331
85
102
}
 70
     0
280
     1
281
     0
  0
BLOCK_RECORD
  5
88
330
1
100
AcDbSymbolTableRecord
100
AcDbBlockTableRecord
  2
block 6
340
0
102
{BLKREFS
331
89
102
}
 70
     0
280
     1
281
     0
  0
BLOCK_RECORD
  5
D3
330
1
100
AcDbSymbolTableRecord
100
AcDbBlockTableRecord
  2
block 7
340
0
102
{BLKREFS
331
D4
102
}
 70
     0
280
     1
281
     0
  0
BLOCK_RECORD
  5
D9
330
1
100
AcDbSymbolTableRecord
100
AcDbBlockTableRecord
  2
block 8
340
0
102
{BLKREFS
331
DA
102
}
 70
     0
280
     1
281
     0
  0
BLOCK_RECORD
  5
124
330
1
100
AcDbSymbolTableRecord
100
AcDbBlockTableRecord
  2
block 9
340
0
102
{BLKREFS
331
125
102
}
 70
     0
280
     1
281
     0
  0
BLOCK_RECORD
  5
12B
330
1
100
AcDbSymbolTableRecord
100
AcDbBlockTableRecord
  2
block 10
340
0
102
{BLKREFS
331
12C
102
}
 70
     0
280
     1
281
     0
  0
ENDTAB
  0
ENDSEC
  0
SECTION
  2
BLOCKS
  0
BLOCK
  5
20
330
1F
100
AcDbEntity
  8
0
100
AcDbBlockBegin
  2
*Model_Space
 70
     0
 10
0.0
 20
0.0
 30
0.0
  3
*Model_Space
  1

  0
ENDBLK
  5
21
330
1F
100
AcDbEntity
  8
0
100
AcDbBlockEnd
  0
BLOCK
  5
1C
330
1B
100
AcDbEntity
 67
     1
  8
0
100
AcDbBlockBegin
  2
*Paper_Space
 70
     0
 10
0.0
 20
0.0
 30
0.0
  3
*Paper_Space
  1

  0
ENDBLK
  5
1D
330
1B
100
AcDbEntity
 67
     1
  8
0
100
AcDbBlockEnd
  0
BLOCK
  5
24
330
23
100
AcDbEntity
  8
0
100
AcDbBlockBegin
  2
*Paper_Space0
 70
     0
 10
0.0
 20
0.0
 30
0.0
  3
*Paper_Space0
  1

  0
ENDBLK
  5
25
330
23
100
AcDbEntity
  8
0
100
AcDbBlockEnd
  0
BLOCK
  5
43
330
41
100
AcDbEntity
  8
0
100
AcDbBlockBegin
  2
block 2
 70
     0
 10
0.0
 20
0.0
 30
0.0
  3
block 2
  1

  0
POLYLINE
  5
45
330
41
100
AcDbEntity
  8
Wood
 62
   250
420
  2301728
370
    35
100
AcDb2dPolyline
 66
     1
 10
0.0
 20
0.0
 30
0.0
  0
VERTEX
  5
46
330
45
100
AcDbEntity
  8
Wood
 62
   250
420
  2301728
370
    35
100
AcDbVertex
100
AcDb2dVertex
 10
306.6605922531016
 20
506.4541872058908
 30
0.0
  0
VERTEX
  5
47
330
45
100
AcDbEntity
  8
Wood
 62
   250
420
  2301728
370
    35
100
AcDbVertex
100
AcDb2dVertex
 10
172.7194956367384
 20
373.045690576073
 30
0.0
  0
VERTEX
  5
48
330
45
100
AcDbEntity
  8
Wood
 62
   250
420
  2301728
370
    35
100
AcDbVertex
100
AcDb2dVertex
 10
186.6805952840514
 20
359.0288909301671
 30
0.0
  0
VERTEX
  5
49
330
45
100
AcDbEntity
  8
Wood
 62
   250
420
  2301728
370
    35
100
AcDbVertex
100
AcDb2dVertex
 10
192.4809999999998
 20
361.7195908621943
 30
0.0
  0
VERTEX
  5
4A
330
45
100
AcDbEntity
  8
Wood
 62
   250
420
  2301728
370
    35
100
AcDbVertex
100
AcDb2dVertex
 10
188.8628952289218
 20
348.3235912006057
 30
0.0
  0
VERTEX
  5
4B
330
45
100
AcDbEntity
  8
Wood
 62
   250
420
  2301728
370
    35
100
AcDbVertex
100
AcDb2dVertex
 10
194.6632950823914
 20
351.0142911326329
 30
0.0
  0
VERTEX
  5
4C
330
45
100
AcDbEntity
  8
Wood
 62
   250
420
  2301728
370
    35
100
AcDbVertex
100
AcDb2dVertex
 10
208.6243947297044
 20
336.9974914867271
 30
0.0
  0
VERTEX
  5
4D
330
45
100
AcDbEntity
  8
Wood
 62
   250
420
  2301728
370
    35
100
AcDbVertex
100
AcDb2dVertex
 10
378.0810904488681
 20
506.4541872058908
 30
0.0
  0
VERTEX
  5
4E
330
45
100
AcDbEntity
  8
Wood
 62
   250
420
  2301728
370
    35
100
AcDbVertex
100
AcDb2dVertex
 10
306.6605922531016
 20
506.4541872058908
 30
0.0
  0
SEQEND
  5
50
330
45
100
AcDbEntity
  8
Wood
 62
   250
420
  2301728
370
    35
  0
HATCH
  5
4F
330
41
100
AcDbEntity
  8
Wood
 62
    43
420
 15510365
100
AcDbHatch
 10
0.0
 20
0.0
 30
0.0
210
0.0
220
0.0
230
1.0
  2
SOLID
 70
     1
 71
     0
 91
        1
 92
        1
 93
        8
 72
     1
 10
306.6605922531016
 20
506.4541872058908
 11
172.7194956367384
 21
373.045690576073
 72
     1
 10
172.7194956367384
 20
373.045690576073
 11
186.6805952840514
 21
359.0288909301671
 72
     1
 10
186.6805952840514
 20
359.0288909301671
 11
192.4809999999998
 21
361.7195908621943
 72
     1
 10
192.4809999999998
 20
361.7195908621943
 11
188.8628952289218
 21
348.3235912006057
 72
     1
 10
188.8628952289218
 20
348.3235912006057
 11
194.6632950823914
 21
351.0142911326329
 72
     1
 10
194.6632950823914
 20
351.0142911326329
 11
208.6243947297044
 21
336.9974914867271
 72
     1
 10
208.6243947297044
 20
336.9974914867271
 11
378.0810904488681
 21
506.4541872058908
 72
     1
 10
378.0810904488681
 20
506.4541872058908
 11
306.6605922531016
 21
506.4541872058908
 97
        0
 75
     2
 76
     1
 98
        0
  0
ENDBLK
  5
44
330
41
100
AcDbEntity
  8
0
100
AcDbBlockEnd
  0
BLOCK
  5
53
330
51
100
AcDbEntity
  8
0
100
AcDbBlockBegin
  2
block 3
 70
     0
 10
0.0
 20
0.0
 30
0.0
  3
block 3
  1

  0
POLYLINE
  5
55
330
51
100
AcDbEntity
  8
Wood
 62
   250
420
  2301728
370
    35
100
AcDb2dPolyline
 66
     1
 10
0.0
 20
0.0
 30
0.0
  0
VERTEX
  5
56
330
55
100
AcDbEntity
  8
Wood
 62
   250
420
  2301728
370
    35
100
AcDbVertex
100
AcDb2dVertex
 10
141.7483964191342
 20
506.4541872058908
 30
0.0
  0
VERTEX
  5
57
330
55
100
AcDbEntity
  8
Wood
 62
   250
420
  2301728
370
    35
100
AcDbVertex
100
AcDb2dVertex
 10
141.7483964191342
 20
470.2362881208319
 30
0.0
  0
VERTEX
  5
58
330
55
100
AcDbEntity
  8
Wood
 62
   250
420
  2301728
370
    35
100
AcDbVertex
100
AcDb2dVertex
 10
148.7795962415112
 20
467.6612881858819
 30
0.0
  0
VERTEX
  5
59
330
55
100
AcDbEntity
  8
Wood
 62
   250
420
  2301728
370
    35
100
AcDbVertex
100
AcDb2dVertex
 10
134.8876965924501
 20
459.6775883875671
 30
0.0
  0
VERTEX
  5
5A
330
55
100
AcDbEntity
  8
Wood
 62
   250
420
  2301728
370
    35
100
AcDbVertex
100
AcDb2dVertex
 10
141.7483964191342
 20
457.1650884510382
 30
0.0
  0
VERTEX
  5
5B
330
55
100
AcDbEntity
  8
Wood
 62
   250
420
  2301728
370
    35
100
AcDbVertex
100
AcDb2dVertex
 10
141.7483964191342
 20
420.885289367543
 30
0.0
  0
VERTEX
  5
5C
330
55
100
AcDbEntity
  8
Wood
 62
   250
420
  2301728
370
    35
100
AcDbVertex
100
AcDb2dVertex
 10
141.8330964169954
 20
420.885289367543
 30
0.0
  0
VERTEX
  5
5D
330
55
100
AcDbEntity
  8
Wood
 62
   250
420
  2301728
370
    35
100
AcDbVertex
100
AcDb2dVertex
 10
412.1354895885815
 20
420.885289367543
 30
0.0
  0
VERTEX
  5
5E
330
55
100
AcDbEntity
  8
Wood
 62
   250
420
  2301728
370
    35
100
AcDbVertex
100
AcDb2dVertex
 10
412.1354895885815
 20
457.1650884510382
 30
0.0
  0
VERTEX
  5
5F
330
55
100
AcDbEntity
  8
Wood
 62
   250
420
  2301728
370
    35
100
AcDbVertex
100
AcDb2dVertex
 10
405.2747897618974
 20
459.6775883875671
 30
0.0
  0
VERTEX
  5
60
330
55
100
AcDbEntity
  8
Wood
 62
   250
420
  2301728
370
    35
100
AcDbVertex
100
AcDb2dVertex
 10
419.1666894109585
 20
467.6612881858819
 30
0.0
  0
VERTEX
  5
61
330
55
100
AcDbEntity
  8
Wood
 62
   250
420
  2301728
370
    35
100
AcDbVertex
100
AcDb2dVertex
 10
412.1354895885815
 20
470.2362881208319
 30
0.0
  0
VERTEX
  5
62
330
55
100
AcDbEntity
  8
Wood
 62
   250
420
  2301728
370
    35
100
AcDbVertex
100
AcDb2dVertex
 10
412.1354895885815
 20
506.4541872058908
 30
0.0
  0
VERTEX
  5
63
330
55
100
AcDbEntity
  8
Wood
 62
   250
420
  2301728
370
    35
100
AcDbVertex
100
AcDb2dVertex
 10
141.8336964169794
 20
506.4541872058908
 30
0.0
  0
VERTEX
  5
64
330
55
100
AcDbEntity
  8
Wood
 62
   250
420
  2301728
370
    35
100
AcDbVertex
100
AcDb2dVertex
 10
141.7483964191342
 20
506.4541872058908
 30
0.0
  0
SEQEND
  5
66
330
55
100
AcDbEntity
  8
Wood
 62
   250
420
  2301728
370
    35
  0
HATCH
  5
65
330
51
100
AcDbEntity
  8
Wood
 62
    43
420
 15510365
100
AcDbHatch
 10
0.0
 20
0.0
 30
0.0
210
0.0
220
0.0
230
1.0
  2
SOLID
 70
     1
 71
     0
 91
        1
 92
        1
 93
       14
 72
     1
 10
141.7483964191342
 20
506.4541872058908
 11
141.7483964191342
 21
470.2362881208319
 72
     1
 10
141.7483964191342
 20
470.2362881208319
 11
148.7795962415112
 21
467.6612881858819
 72
     1
 10
148.7795962415112
 20
467.6612881858819
 11
134.8876965924501
 21
459.6775883875671
 72
     1
 10
134.8876965924501
 20
459.6775883875671
 11
141.7483964191342
 21
457.1650884510382
 72
     1
 10
141.7483964191342
 20
457.1650884510382
 11
141.7483964191342
 21
420.885289367543
 72
     1
 10
141.7483964191342
 20
420.885289367543
 11
141.8330964169954
 21
420.885289367543
 72
     1
 10
141.8330964169954
 20
420.885289367543
 11
412.1354895885815
 21
420.885289367543
 72
     1
 10
412.1354895885815
 20
420.885289367543
 11
412.1354895885815
 21
457.1650884510382
 72
     1
 10
412.1354895885815
 20
457.1650884510382
 11
405.2747897618974
 21
459.6775883875671
 72
     1
 10
405.2747897618974
 20
459.6775883875671
 11
419.1666894109585
 21
467.6612881858819
 72
     1
 10
419.1666894109585
 20
467.6612881858819
 11
412.1354895885815
 21
470.2362881208319
 72
     1
 10
412.1354895885815
 20
470.2362881208319
 11
412.1354895885815
 21
506.4541872058908
 72
     1
 10
412.1354895885815
 20
506.4541872058908
 11
141.8336964169794
 21
506.4541872058908
 72
     1
 10
141.8336964169794
 20
506.4541872058908
 11
141.7483964191342
 21
506.4541872058908
 97
        0
 75
     2
 76
     1
 98
        0
  0
ENDBLK
  5
54
330
51
100
AcDbEntity
  8
0
100
AcDbBlockEnd
  0
BLOCK
  5
82
330
80
100
AcDbEntity
  8
0
100
AcDbBlockBegin
  2
block 4
 70
     0
 10
0.0
 20
0.0
 30
0.0
  3
block 4
  1

  0
INSERT
  5
85
330
80
100
AcDbEntity
  8
Isolation Mode
100
AcDbBlockReference
  2
block 5
 10
0.0
 20
0.0
 30
0.0
  0
ENDBLK
  5
83
330
80
100
AcDbEntity
  8
0
100
AcDbBlockEnd
  0
BLOCK
  5
86
330
84
100
AcDbEntity
  8
0
100
AcDbBlockBegin
  2
block 5
 70
     0
 10
0.0
 20
0.0
 30
0.0
  3
block 5
  1

  0
ENDBLK
  5
87
330
84
100
AcDbEntity
  8
0
100
AcDbBlockEnd
  0
BLOCK
  5
8A
330
88
100
AcDbEntity
  8
0
100
AcDbBlockBegin
  2
block 6
 70
     0
 10
0.0
 20
0.0
 30
0.0
  3
block 6
  1

  0
SPLINE
  5
8C
330
88
100
AcDbEntity
  8
Isolation Mode
 62
    18
420
        0
370
    18
100
AcDbSpline
210
0.0
220
0.0
230
1.0
 70
    11
 71
     3
 72
    89
 73
    85
 74
     0
 42
0.0000000001
 43
0.0000000001
 12
1.0
 22
0.0
 32
0.0
 13
1.0
 23
0.0
 33
0.0
 40
0.0
 40
0.0
 40
0.0
 40
0.0
 40
1.0
 40
1.0
 40
1.0
 40
2.0
 40
2.0
 40
2.0
 40
3.0
 40
3.0
 40
3.0
 40
4.0
 40
4.0
 40
4.0
 40
5.0
 40
5.0
 40
5.0
 40
6.0
 40
6.0
 40
6.0
 40
7.0
 40
7.0
 40
7.0
 40
8.0
 40
8.0
 40
8.0
 40
9.0
 40
9.0
 40
9.0
 40
10.0
 40
10.0
 40
10.0
 40
11.0
 40
11.0
 40
11.0
 40
12.0
 40
12.0
 40
12.0
 40
13.0
 40
13.0
 40
13.0
 40
14.0
 40
14.0
 40
14.0
 40
15.0
 40
15.0
 40
15.0
 40
16.0
 40
16.0
 40
16.0
 40
17.0
 40
17.0
 40
17.0
 40
18.0
 40
18.0
 40
18.0
 40
19.0
 40
19.0
 40
19.0
 40
20.0
 40
20.0
 40
20.0
 40
21.0
 40
21.0
 40
21.0
 40
22.0
 40
22.0
 40
22.0
 40
23.0
 40
23.0
 40
23.0
 40
24.0
 40
24.0
 40
24.0
 40
25.0
 40
25.0
 40
25.0
 40
26.0
 40
26.0
 40
26.0
 40
27.0
 40
27.0
 40
27.0
 40
28.0
 40
28.0
 40
28.0
 40
28.0
 10
282.4975928635104
 20
430.2868891300386
 30
0.0
 10
282.0500928748152
 20
430.2877891300159
 30
0.0
 10
281.6422928851171
 20
430.0304891365158
 30
0.0
 10
281.4504928899623
 20
429.6261891467293
 30
0.0
 10
280.7628929073326
 20
428.1765891833493
 30
0.0
 10
279.5940000000001
 20
427.0100892128175
 30
0.0
 10
278.143
 20
426.3253892301145
 30
0.0
 10
274.6777930610551
 20
424.6900892714257
 30
0.0
 10
270.5428931655124
 20
426.1735892339493
 30
0.0
 10
268.9076932068201
 20
429.6388891464094
 30
0.0
 10
268.7170932116351
 20
430.0427891362051
 30
0.0
 10
268.3108932218965
 20
430.3008891296849
 30
0.0
 10
267.8641932331811
 20
430.3017891296622
 30
0.0
 10
267.8641932331811
 20
430.3017891296622
 30
0.0
 10
267.0974932525496
 20
430.3032891296243
 30
0.0
 10
267.0974932525496
 20
430.3032891296243
 30
0.0
 10
266.458893268682
 20
430.3045891295924
 30
0.0
 10
265.9421932817349
 20
430.823289116488
 30
0.0
 10
265.9434932817021
 20
431.4618891003556
 30
0.0
 10
265.9434932817021
 20
431.4618891003556
 30
0.0
 10
265.9450932816617
 20
432.2430000000004
 30
0.0
 10
265.9450932816617
 20
432.2430000000004
 30
0.0
 10
265.9433932817046
 20
432.6928890692579
 30
0.0
 10
265.6807932883385
 20
433.1009999999997
 30
0.0
 10
265.2720932986631
 20
433.2890890541967
 30
0.0
 10
263.8280000000004
 20
433.9775890368037
 30
0.0
 10
262.6662933644911
 20
435.1438890073414
 30
0.0
 10
261.9834933817401
 20
436.5906889707912
 30
0.0
 10
260.3481934230513
 20
440.0559999999996
 30
0.0
 10
261.8316933855749
 20
444.1907887787966
 30
0.0
 10
265.2970000000005
 20
445.8260887374854
 30
0.0
 10
265.7008932878307
 20
446.0166887326704
 30
0.0
 10
265.9589999999998
 20
446.422888722409
 30
0.0
 10
265.9598932812878
 20
446.8694887111269
 30
0.0
 10
265.9598932812878
 20
446.8694887111269
 30
0.0
 10
265.9613932812499
 20
447.6505886913947
 30
0.0
 10
265.9613932812499
 20
447.6505886913947
 30
0.0
 10
265.9626932812171
 20
448.2891886752623
 30
0.0
 10
266.4813932681136
 20
448.8058886622093
 30
0.0
 10
267.1200932519787
 20
448.8045886622422
 30
0.0
 10
267.1200932519787
 20
448.8045886622422
 30
0.0
 10
267.901093232249
 20
448.8029999999999
 30
0.0
 10
267.901093232249
 20
448.8029999999999
 30
0.0
 10
268.3476932209669
 20
448.8020886623053
 30
0.0
 10
268.7548932106802
 20
449.0585886558256
 30
0.0
 10
268.9471932058223
 20
449.4616886456424
 30
0.0
 10
269.6376931883788
 20
450.9099999999999
 30
0.0
 10
270.8087931587943
 20
452.0740885796477
 30
0.0
 10
272.2610931221061
 20
452.7560000000003
 30
0.0
 10
275.7295930344844
 20
454.384488521282
 30
0.0
 10
279.8614929301039
 20
452.892888558963
 30
0.0
 10
281.4899999999998
 20
449.4244886465822
 30
0.0
 10
281.6800928841621
 20
449.0193886568159
 30
0.0
 10
282.0868928738855
 20
448.7604886633562
 30
0.0
 10
282.5343928625807
 20
448.759588663379
 30
0.0
 10
282.5343928625807
 20
448.759588663379
 30
0.0
 10
283.3086928430203
 20
448.7579999999998
 30
0.0
 10
283.3086928430203
 20
448.7579999999998
 30
0.0
 10
283.9472928268879
 20
448.7566886634522
 30
0.0
 10
284.4639999999999
 20
448.2380000000003
 30
0.0
 10
284.4626928138678
 20
447.5993886926881
 30
0.0
 10
284.4626928138678
 20
447.5993886926881
 30
0.0
 10
284.4611928139057
 20
446.8326887120566
 30
0.0
 10
284.4611928139057
 20
446.8326887120566
 30
0.0
 10
284.4602928139284
 20
446.3860887233386
 30
0.0
 10
284.7166928074512
 20
445.9787887336279
 30
0.0
 10
285.1198927972664
 20
445.7865887384833
 30
0.0
 10
286.563892760787
 20
445.0980887558762
 30
0.0
 10
287.7256927314374
 20
443.931688785342
 30
0.0
 10
288.408392714191
 20
442.4849999999997
 30
0.0
 10
290.0436926728798
 20
439.0196889094295
 30
0.0
 10
288.5601927103562
 20
434.8848890138834
 30
0.0
 10
285.094892797897
 20
433.2495890551945
 30
0.0
 10
284.6853928082419
 20
433.0631890599034
 30
0.0
 10
284.4211928149161
 20
432.6560890701876
 30
0.0
 10
284.4176928150046
 20
432.206189081553
 30
0.0
 10
284.4176928150046
 20
432.206189081553
 30
0.0
 10
284.4161928150425
 20
431.439389100924
 30
0.0
 10
284.4161928150425
 20
431.439389100924
 30
0.0
 10
284.4148928150753
 20
430.8007891170564
 30
0.0
 10
283.8961928281788
 20
430.2840891301094
 30
0.0
 10
283.2575928443111
 20
430.2853891300774
 30
0.0
 10
283.2575928443111
 20
430.2853891300774
 30
0.0
 10
282.4975928635104
 20
430.2868891300386
 30
0.0
 10
282.4975928635104
 20
430.2868891300386
 30
0.0
  0
HATCH
  5
8D
330
88
100
AcDbEntity
  8
Isolation Mode
 62
   250
420
  2301728
100
AcDbHatch
 10
0.0
 20
0.0
 30
0.0
210
0.0
220
0.0
230
1.0
  2
SOLID
 70
     1
 71
     0
 91
        1
 92
        1
 93
        1
 72
     4
 94
        3
 73
     0
 74
     1
 95
       89
 96
       85
 40
0.0
 40
0.0
 40
0.0
 40
0.0
 40
1.0
 40
1.0
 40
1.0
 40
2.0
 40
2.0
 40
2.0
 40
3.0
 40
3.0
 40
3.0
 40
4.0
 40
4.0
 40
4.0
 40
5.0
 40
5.0
 40
5.0
 40
6.0
 40
6.0
 40
6.0
 40
7.0
 40
7.0
 40
7.0
 40
8.0
 40
8.0
 40
8.0
 40
9.0
 40
9.0
 40
9.0
 40
10.0
 40
10.0
 40
10.0
 40
11.0
 40
11.0
 40
11.0
 40
12.0
 40
12.0
 40
12.0
 40
13.0
 40
13.0
 40
13.0
 40
14.0
 40
14.0
 40
14.0
 40
15.0
 40
15.0
 40
15.0
 40
16.0
 40
16.0
 40
16.0
 40
17.0
 40
17.0
 40
17.0
 40
18.0
 40
18.0
 40
18.0
 40
19.0
 40
19.0
 40
19.0
 40
20.0
 40
20.0
 40
20.0
 40
21.0
 40
21.0
 40
21.0
 40
22.0
 40
22.0
 40
22.0
 40
23.0
 40
23.0
 40
23.0
 40
24.0
 40
24.0
 40
24.0
 40
25.0
 40
25.0
 40
25.0
 40
26.0
 40
26.0
 40
26.0
 40
27.0
 40
27.0
 40
27.0
 40
28.0
 40
28.0
 40
28.0
 40
28.0
 10
282.4975928635104
 20
430.2868891300386
 10
282.0500928748152
 20
430.2877891300159
 10
281.6422928851171
 20
430.0304891365158
 10
281.4504928899623
 20
429.6261891467293
 10
280.7628929073326
 20
428.1765891833493
 10
279.5940000000001
 20
427.0100892128175
 10
278.143
 20
426.3253892301145
 10
274.6777930610551
 20
424.6900892714257
 10
270.5428931655124
 20
426.1735892339493
 10
268.9076932068201
 20
429.6388891464094
 10
268.7170932116351
 20
430.0427891362051
 10
268.3108932218965
 20
430.3008891296849
 10
267.8641932331811
 20
430.3017891296622
 10
267.8641932331811
 20
430.3017891296622
 10
267.0974932525496
 20
430.3032891296243
 10
267.0974932525496
 20
430.3032891296243
 10
266.458893268682
 20
430.3045891295924
 10
265.9421932817349
 20
430.823289116488
 10
265.9434932817021
 20
431.4618891003556
 10
265.9434932817021
 20
431.4618891003556
 10
265.9450932816617
 20
432.2430000000004
 10
265.9450932816617
 20
432.2430000000004
 10
265.9433932817046
 20
432.6928890692579
 10
265.6807932883385
 20
433.1009999999997
 10
265.2720932986631
 20
433.2890890541967
 10
263.8280000000004
 20
433.9775890368037
 10
262.6662933644911
 20
435.1438890073414
 10
261.9834933817401
 20
436.5906889707912
 10
260.3481934230513
 20
440.0559999999996
 10
261.8316933855749
 20
444.1907887787966
 10
265.2970000000005
 20
445.8260887374854
 10
265.7008932878307
 20
446.0166887326704
 10
265.9589999999998
 20
446.422888722409
 10
265.9598932812878
 20
446.8694887111269
 10
265.9598932812878
 20
446.8694887111269
 10
265.9613932812499
 20
447.6505886913947
 10
265.9613932812499
 20
447.6505886913947
 10
265.9626932812171
 20
448.2891886752623
 10
266.4813932681136
 20
448.8058886622093
 10
267.1200932519787
 20
448.8045886622422
 10
267.1200932519787
 20
448.8045886622422
 10
267.901093232249
 20
448.8029999999999
 10
267.901093232249
 20
448.8029999999999
 10
268.3476932209669
 20
448.8020886623053
 10
268.7548932106802
 20
449.0585886558256
 10
268.9471932058223
 20
449.4616886456424
 10
269.6376931883788
 20
450.9099999999999
 10
270.8087931587943
 20
452.0740885796477
 10
272.2610931221061
 20
452.7560000000003
 10
275.7295930344844
 20
454.384488521282
 10
279.8614929301039
 20
452.892888558963
 10
281.4899999999998
 20
449.4244886465822
 10
281.6800928841621
 20
449.0193886568159
 10
282.0868928738855
 20
448.7604886633562
 10
282.5343928625807
 20
448.759588663379
 10
282.5343928625807
 20
448.759588663379
 10
283.3086928430203
 20
448.7579999999998
 10
283.3086928430203
 20
448.7579999999998
 10
283.9472928268879
 20
448.7566886634522
 10
284.4639999999999
 20
448.2380000000003
 10
284.4626928138678
 20
447.5993886926881
 10
284.4626928138678
 20
447.5993886926881
 10
284.4611928139057
 20
446.8326887120566
 10
284.4611928139057
 20
446.8326887120566
 10
284.4602928139284
 20
446.3860887233386
 10
284.7166928074512
 20
445.9787887336279
 10
285.1198927972664
 20
445.7865887384833
 10
286.563892760787
 20
445.0980887558762
 10
287.7256927314374
 20
443.931688785342
 10
288.408392714191
 20
442.4849999999997
 10
290.0436926728798
 20
439.0196889094295
 10
288.5601927103562
 20
434.8848890138834
 10
285.094892797897
 20
433.2495890551945
 10
284.6853928082419
 20
433.0631890599034
 10
284.4211928149161
 20
432.6560890701876
 10
284.4176928150046
 20
432.206189081553
 10
284.4176928150046
 20
432.206189081553
 10
284.4161928150425
 20
431.439389100924
 10
284.4161928150425
 20
431.439389100924
 10
284.4148928150753
 20
430.8007891170564
 10
283.8961928281788
 20
430.2840891301094
 10
283.2575928443111
 20
430.2853891300774
 10
283.2575928443111
 20
430.2853891300774
 10
282.4975928635104
 20
430.2868891300386
 10
282.4975928635104
 20
430.2868891300386
 97
        0
 97
        0
 75
     2
 76
     1
 98
        0
  0
SPLINE
  5
8E
330
88
100
AcDbEntity
  8
Isolation Mode
 62
    18
420
        0
370
    18
100
AcDbSpline
210
0.0
220
0.0
230
1.0
 70
    11
 71
     3
 72
    20
 73
    16
 74
     0
 42
0.0000000001
 43
0.0000000001
 12
1.0
 22
0.0
 32
0.0
 13
1.0
 23
0.0
 33
0.0
 40
0.0
 40
0.0
 40
0.0
 40
0.0
 40
1.0
 40
1.0
 40
1.0
 40
2.0
 40
2.0
 40
2.0
 40
3.0
 40
3.0
 40
3.0
 40
4.0
 40
4.0
 40
4.0
 40
5.0
 40
5.0
 40
5.0
 40
5.0
 10
268.4895932173822
 20
439.5497888960381
 30
0.0
 10
268.4895932173822
 20
443.3048888011763
 30
0.0
 10
271.5337931404792
 20
446.3490000000002
 30
0.0
 10
275.2888930456174
 20
446.3490000000002
 30
0.0
 10
279.0439999999999
 20
446.3490000000002
 30
0.0
 10
282.0880928738552
 20
443.3048888011763
 30
0.0
 10
282.0880928738552
 20
439.5497888960381
 30
0.0
 10
282.0880928738552
 20
435.7946889908999
 30
0.0
 10
279.0439999999999
 20
432.7505890678003
 30
0.0
 10
275.2888930456174
 20
432.7505890678003
 30
0.0
 10
271.5337931404792
 20
432.7505890678003
 30
0.0
 10
268.4895932173822
 20
435.7946889908999
 30
0.0
 10
268.4895932173822
 20
439.5497888960381
 30
0.0
 10
268.4895932173822
 20
439.5497888960381
 30
0.0
 10
268.4895932173822
 20
439.5497888960381
 30
0.0
 10
268.4895932173822
 20
439.5497888960381
 30
0.0
  0
HATCH
  5
8F
330
88
100
AcDbEntity
  8
Isolation Mode
 62
   250
420
  2301728
100
AcDbHatch
 10
0.0
 20
0.0
 30
0.0
210
0.0
220
0.0
230
1.0
  2
SOLID
 70
     1
 71
     0
 91
        1
 92
        1
 93
        1
 72
     4
 94
        3
 73
     0
 74
     1
 95
       20
 96
       16
 40
0.0
 40
0.0
 40
0.0
 40
0.0
 40
1.0
 40
1.0
 40
1.0
 40
2.0
 40
2.0
 40
2.0
 40
3.0
 40
3.0
 40
3.0
 40
4.0
 40
4.0
 40
4.0
 40
5.0
 40
5.0
 40
5.0
 40
5.0
 10
268.4895932173822
 20
439.5497888960381
 10
268.4895932173822
 20
443.3048888011763
 10
271.5337931404792
 20
446.3490000000002
 10
275.2888930456174
 20
446.3490000000002
 10
279.0439999999999
 20
446.3490000000002
 10
282.0880928738552
 20
443.3048888011763
 10
282.0880928738552
 20
439.5497888960381
 10
282.0880928738552
 20
435.7946889908999
 10
279.0439999999999
 20
432.7505890678003
 10
275.2888930456174
 20
432.7505890678003
 10
271.5337931404792
 20
432.7505890678003
 10
268.4895932173822
 20
435.7946889908999
 10
268.4895932173822
 20
439.5497888960381
 10
268.4895932173822
 20
439.5497888960381
 10
268.4895932173822
 20
439.5497888960381
 10
268.4895932173822
 20
439.5497888960381
 97
        0
 97
        0
 75
     2
 76
     1
 98
        0
  0
POLYLINE
  5
90
330
88
100
AcDbEntity
  8
Isolation Mode
 62
    18
420
        0
370
    13
100
AcDb2dPolyline
 66
     1
 10
0.0
 20
0.0
 30
0.0
  0
VERTEX
  5
91
330
90
100
AcDbEntity
  8
Isolation Mode
 62
    18
420
        0
370
    13
100
AcDbVertex
100
AcDb2dVertex
 10
269.2081931992288
 20
439.5497888960381
 30
0.0
  0
VERTEX
  5
92
330
90
100
AcDbEntity
  8
Isolation Mode
 62
    18
420
        0
370
    13
100
AcDbVertex
100
AcDb2dVertex
 10
272.2020931235966
 20
434.3642890270348
 30
0.0
  0
VERTEX
  5
93
330
90
100
AcDbEntity
  8
Isolation Mode
 62
    18
420
        0
370
    13
100
AcDbVertex
100
AcDb2dVertex
 10
278.1897929723345
 20
434.3642890270348
 30
0.0
  0
VERTEX
  5
94
330
90
100
AcDbEntity
  8
Isolation Mode
 62
    18
420
        0
370
    13
100
AcDbVertex
100
AcDb2dVertex
 10
281.1836928967023
 20
439.5497888960381
 30
0.0
  0
VERTEX
  5
95
330
90
100
AcDbEntity
  8
Isolation Mode
 62
    18
420
        0
370
    13
100
AcDbVertex
100
AcDb2dVertex
 10
278.1897929723345
 20
444.7352887650413
 30
0.0
  0
VERTEX
  5
96
330
90
100
AcDbEntity
  8
Isolation Mode
 62
    18
420
        0
370
    13
100
AcDbVertex
100
AcDb2dVertex
 10
272.2020931235966
 20
444.7352887650413
 30
0.0
  0
VERTEX
  5
97
330
90
100
AcDbEntity
  8
Isolation Mode
 62
    18
420
        0
370
    13
100
AcDbVertex
100
AcDb2dVertex
 10
269.2081931992288
 20
439.5497888960381
 30
0.0
  0
SEQEND
  5
99
330
90
100
AcDbEntity
  8
Isolation Mode
 62
    18
420
        0
370
    13
  0
HATCH
  5
98
330
88
100
AcDbEntity
  8
Isolation Mode
 62
   250
420
  2301728
100
AcDbHatch
 10
0.0
 20
0.0
 30
0.0
210
0.0
220
0.0
230
1.0
  2
SOLID
 70
     1
 71
     0
 91
        1
 92
        1
 93
        6
 72
     1
 10
269.2081931992288
 20
439.5497888960381
 11
272.2020931235966
 21
434.3642890270348
 72
     1
 10
272.2020931235966
 20
434.3642890270348
 11
278.1897929723345
 21
434.3642890270348
 72
     1
 10
278.1897929723345
 20
434.3642890270348
 11
281.1836928967023
 21
439.5497888960381
 72
     1
 10
281.1836928967023
 20
439.5497888960381
 11
278.1897929723345
 21
444.7352887650413
 72
     1
 10
278.1897929723345
 20
444.7352887650413
 11
272.2020931235966
 21
444.7352887650413
 72
     1
 10
272.2020931235966
 20
444.7352887650413
 11
269.2081931992288
 21
439.5497888960381
 97
        0
 75
     2
 76
     1
 98
        0
  0
SPLINE
  5
9A
330
88
100
AcDbEntity
  8
Isolation Mode
 62
    18
420
        0
370
    13
100
AcDbSpline
210
0.0
220
0.0
230
1.0
 70
    11
 71
     3
 72
    20
 73
    16
 74
     0
 42
0.0000000001
 43
0.0000000001
 12
1.0
 22
0.0
 32
0.0
 13
1.0
 23
0.0
 33
0.0
 40
0.0
 40
0.0
 40
0.0
 40
0.0
 40
1.0
 40
1.0
 40
1.0
 40
2.0
 40
2.0
 40
2.0
 40
3.0
 40
3.0
 40
3.0
 40
4.0
 40
4.0
 40
4.0
 40
5.0
 40
5.0
 40
5.0
 40
5.0
 10
278.4317929662211
 20
438.3739999999998
 30
0.0
 10
279.0704929500862
 20
440.1610888805953
 30
0.0
 10
278.1394929736052
 20
442.1275888309174
 30
0.0
 10
276.3523930187512
 20
442.7662888147825
 30
0.0
 10
274.5652930638971
 20
443.4049999999997
 30
0.0
 10
272.5987931135751
 20
442.474088822164
 30
0.0
 10
271.96009312971
 20
440.6869999999999
 30
0.0
 10
271.3213931458449
 20
438.8997889124585
 30
0.0
 10
272.2523931223259
 20
436.9332889621364
 30
0.0
 10
274.0394930771799
 20
436.2945889782713
 30
0.0
 10
275.826593032034
 20
435.6558889944063
 30
0.0
 10
277.793092982356
 20
436.5868889708872
 30
0.0
 10
278.4317929662211
 20
438.3739999999998
 30
0.0
 10
278.4317929662211
 20
438.3739999999998
 30
0.0
 10
278.4317929662211
 20
438.3739999999998
 30
0.0
 10
278.4317929662211
 20
438.3739999999998
 30
0.0
  0
POLYLINE
  5
9B
330
88
100
AcDbEntity
  8
Isolation Mode
370
     0
100
AcDb2dPolyline
 66
     1
 10
0.0
 20
0.0
 30
0.0
  0
VERTEX
  5
9C
330
9B
100
AcDbEntity
  8
Isolation Mode
370
     0
100
AcDbVertex
100
AcDb2dVertex
 10
277.6910929849328
 20
439.8203888892021
 30
0.0
  0
VERTEX
  5
9D
330
9B
100
AcDbEntity
  8
Isolation Mode
370
     0
100
AcDbVertex
100
AcDb2dVertex
 10
278.1647929729661
 20
439.817
 30
0.0
  0
VERTEX
  5
9E
330
9B
100
AcDbEntity
  8
Isolation Mode
370
     0
100
AcDbVertex
100
AcDb2dVertex
 10
278.1636929729939
 20
439.6580888933022
 30
0.0
  0
VERTEX
  5
9F
330
9B
100
AcDbEntity
  8
Isolation Mode
370
     0
100
AcDbVertex
100
AcDb2dVertex
 10
277.6040000000003
 20
439.6620888932011
 30
0.0
  0
VERTEX
  5
A0
330
9B
100
AcDbEntity
  8
Isolation Mode
370
     0
100
AcDbVertex
100
AcDb2dVertex
 10
277.3935929924482
 20
439.3866889001583
 30
0.0
  0
VERTEX
  5
A1
330
9B
100
AcDbEntity
  8
Isolation Mode
370
     0
100
AcDbVertex
100
AcDb2dVertex
 10
278.1616929730444
 20
439.3811889002973
 30
0.0
  0
VERTEX
  5
A2
330
9B
100
AcDbEntity
  8
Isolation Mode
370
     0
100
AcDbVertex
100
AcDb2dVertex
 10
278.1605929730722
 20
439.2222889043114
 30
0.0
  0
VERTEX
  5
A3
330
9B
100
AcDbEntity
  8
Isolation Mode
370
     0
100
AcDbVertex
100
AcDb2dVertex
 10
277.3050000000003
 20
439.2283889041573
 30
0.0
  0
VERTEX
  5
A4
330
9B
100
AcDbEntity
  8
Isolation Mode
370
     0
100
AcDbVertex
100
AcDb2dVertex
 10
277.0736930005296
 20
438.8903889126959
 30
0.0
  0
VERTEX
  5
A5
330
9B
100
AcDbEntity
  8
Isolation Mode
370
     0
100
AcDbVertex
100
AcDb2dVertex
 10
276.88129300539
 20
438.8917889126606
 30
0.0
  0
VERTEX
  5
A6
330
9B
100
AcDbEntity
  8
Isolation Mode
370
     0
100
AcDbVertex
100
AcDb2dVertex
 10
277.1125929995469
 20
439.229788904122
 30
0.0
  0
VERTEX
  5
A7
330
9B
100
AcDbEntity
  8
Isolation Mode
370
     0
100
AcDbVertex
100
AcDb2dVertex
 10
276.6417930114403
 20
439.2330889040386
 30
0.0
  0
VERTEX
  5
A8
330
9B
100
AcDbEntity
  8
Isolation Mode
370
     0
100
AcDbVertex
100
AcDb2dVertex
 10
276.6428930114125
 20
439.3919999999998
 30
0.0
  0
VERTEX
  5
A9
330
9B
100
AcDbEntity
  8
Isolation Mode
370
     0
100
AcDbVertex
100
AcDb2dVertex
 10
277.1996929973466
 20
439.3879999999999
 30
0.0
  0
VERTEX
  5
AA
330
9B
100
AcDbEntity
  8
Isolation Mode
370
     0
100
AcDbVertex
100
AcDb2dVertex
 10
277.4071929921047
 20
439.6634888931658
 30
0.0
  0
VERTEX
  5
AB
330
9B
100
AcDbEntity
  8
Isolation Mode
370
     0
100
AcDbVertex
100
AcDb2dVertex
 10
276.644893011362
 20
439.6688888930294
 30
0.0
  0
VERTEX
  5
AC
330
9B
100
AcDbEntity
  8
Isolation Mode
370
     0
100
AcDbVertex
100
AcDb2dVertex
 10
276.6459999999997
 20
439.8277888890152
 30
0.0
  0
VERTEX
  5
AD
330
9B
100
AcDbEntity
  8
Isolation Mode
370
     0
100
AcDbVertex
100
AcDb2dVertex
 10
277.4986929897932
 20
439.8216888891693
 30
0.0
  0
VERTEX
  5
AE
330
9B
100
AcDbEntity
  8
Isolation Mode
370
     0
100
AcDbVertex
100
AcDb2dVertex
 10
277.728492983988
 20
440.1582888806661
 30
0.0
  0
VERTEX
  5
AF
330
9B
100
AcDbEntity
  8
Isolation Mode
370
     0
100
AcDbVertex
100
AcDb2dVertex
 10
277.9222929790922
 20
440.1568888807014
 30
0.0
  0
VERTEX
  5
B0
330
9B
100
AcDbEntity
  8
Isolation Mode
370
     0
100
AcDbVertex
100
AcDb2dVertex
 10
277.6910929849328
 20
439.8203888892021
 30
0.0
  0
SEQEND
  5
B1
330
9B
100
AcDbEntity
  8
Isolation Mode
370
     0
  0
MTEXT
  5
B2
330
88
100
AcDbEntity
  8
Isolation Mode
 62
    18
420
        0
100
AcDbMText
 10
274.3298764228821
 20
436.9792416095734
 30
0.0
 40
0.9203999662399291
 41
0.0
 46
0.0
 71
     7
 72
     1
  1
\fHelvetica LT Std Condensed|b0|i0|c0|p34;\W1;312
 73
     1
 44
1.0
  0
MTEXT
  5
B3
330
88
100
AcDbEntity
  8
Isolation Mode
 62
    18
420
        0
100
AcDbMText
 10
273.6571831703186
 20
441.0189258158207
 30
0.0
 40
0.9203999662399291
 41
0.0
 46
0.0
 71
     7
 72
     1
  1
\fHelvetica LT Std Condensed|b0|i0|c0|p34;\W1;WS22
 73
     1
 44
1.0
  0
POLYLINE
  5
B4
330
88
100
AcDbEntity
  8
Isolation Mode
 62
    18
420
        0
370
     5
100
AcDb2dPolyline
 66
     1
 10
0.0
 20
0.0
 30
0.0
  0
VERTEX
  5
B5
330
B4
100
AcDbEntity
  8
Isolation Mode
 62
    18
420
        0
370
     5
100
AcDbVertex
100
AcDb2dVertex
 10
274.8314930571723
 20
440.1334888812926
 30
0.0
  0
VERTEX
  5
14C
330
B4
100
AcDbEntity
  8
0
100
AcDbVertex
100
AcDb2dVertex
 10
274.8314930571723
 20
440.1334888812926
 30
0.0
  0
SEQEND
  5
B6
330
B4
100
AcDbEntity
  8
Isolation Mode
 62
    18
420
        0
370
     5
  0
SPLINE
  5
B7
330
88
100
AcDbEntity
  8
Isolation Mode
 62
    18
420
        0
370
     9
100
AcDbSpline
210
0.0
220
0.0
230
1.0
 70
    11
 71
     3
 72
    59
 73
    55
 74
     0
 42
0.0000000001
 43
0.0000000001
 12
1.0
 22
0.0
 32
0.0
 13
1.0
 23
0.0
 33
0.0
 40
0.0
 40
0.0
 40
0.0
 40
0.0
 40
1.0
 40
1.0
 40
1.0
 40
2.0
 40
2.0
 40
2.0
 40
3.0
 40
3.0
 40
3.0
 40
4.0
 40
4.0
 40
4.0
 40
5.0
 40
5.0
 40
5.0
 40
6.0
 40
6.0
 40
6.0
 40
7.0
 40
7.0
 40
7.0
 40
8.0
 40
8.0
 40
8.0
 40
9.0
 40
9.0
 40
9.0
 40
10.0
 40
10.0
 40
10.0
 40
11.0
 40
11.0
 40
11.0
 40
12.0
 40
12.0
 40
12.0
 40
13.0
 40
13.0
 40
13.0
 40
14.0
 40
14.0
 40
14.0
 40
15.0
 40
15.0
 40
15.0
 40
16.0
 40
16.0
 40
16.0
 40
17.0
 40
17.0
 40
17.0
 40
18.0
 40
18.0
 40
18.0
 40
18.0
 10
274.3776930686363
 20
440.1353888812446
 30
0.0
 10
274.3776930686363
 20
440.1353888812446
 30
0.0
 10
274.8314930571723
 20
440.1334888812926
 30
0.0
 10
274.8314930571723
 20
440.1334888812926
 30
0.0
 10
274.8314930571723
 20
440.1334888812926
 30
0.0
 10
275.0947930505208
 20
440.5786888700459
 30
0.0
 10
275.0947930505208
 20
440.5786888700459
 30
0.0
 10
275.0947930505208
 20
440.5786888700459
 30
0.0
 10
275.1878930481689
 20
440.7495888657286
 30
0.0
 10
275.2970930454103
 20
440.5545888706547
 30
0.0
 10
275.2970930454103
 20
440.5545888706547
 30
0.0
 10
275.5420930392211
 20
440.1334888812926
 30
0.0
 10
275.5420930392211
 20
440.1334888812926
 30
0.0
 10
275.5420930392211
 20
440.1334888812926
 30
0.0
 10
276.0755930257437
 20
440.1334888812926
 30
0.0
 10
276.0755930257437
 20
440.1334888812926
 30
0.0
 10
276.1402930241093
 20
440.1307888813608
 30
0.0
 10
276.2185930221312
 20
440.0973888822045
 30
0.0
 10
276.1426930240486
 20
439.9930000000004
 30
0.0
 10
276.1426930240486
 20
439.9930000000004
 30
0.0
 10
275.9003930301697
 20
439.544488896172
 30
0.0
 10
275.9003930301697
 20
439.544488896172
 30
0.0
 10
275.9003930301697
 20
439.544488896172
 30
0.0
 10
276.1696930233666
 20
439.0677889082144
 30
0.0
 10
276.1696930233666
 20
439.0677889082144
 30
0.0
 10
276.1841930230003
 20
439.0163889095129
 30
0.0
 10
276.1752930232251
 20
438.9154889120618
 30
0.0
 10
276.0107930273807
 20
438.9253889118118
 30
0.0
 10
276.0107930273807
 20
438.9253889118118
 30
0.0
 10
275.5392930392918
 20
438.9202889119406
 30
0.0
 10
275.5392930392918
 20
438.9202889119406
 30
0.0
 10
275.5392930392918
 20
438.9202889119406
 30
0.0
 10
275.2970930454103
 20
438.482
 30
0.0
 10
275.2970930454103
 20
438.482
 30
0.0
 10
275.2668930461732
 20
438.4413889240386
 30
0.0
 10
275.1960930479618
 20
438.3784889256276
 30
0.0
 10
275.0947930505208
 20
438.4807889230433
 30
0.0
 10
275.0947930505208
 20
438.4807889230433
 30
0.0
 10
274.8040930578645
 20
438.9253889118118
 30
0.0
 10
274.8040930578645
 20
438.9253889118118
 30
0.0
 10
274.8040930578645
 20
438.9253889118118
 30
0.0
 10
274.3690930688535
 20
438.9225889118834
 30
0.0
 10
274.3690930688535
 20
438.9225889118834
 30
0.0
 10
274.2684930713949
 20
438.9256889118042
 30
0.0
 10
274.1881930734235
 20
438.9532889111069
 30
0.0
 10
274.2770930711777
 20
439.1192889069134
 30
0.0
 10
274.2770930711777
 20
439.1192889069134
 30
0.0
 10
274.5174930651046
 20
439.544488896172
 30
0.0
 10
274.5174930651046
 20
439.544488896172
 30
0.0
 10
274.5174930651046
 20
439.544488896172
 30
0.0
 10
274.2320930723145
 20
439.9760888852688
 30
0.0
 10
274.2320930723145
 20
439.9760888852688
 30
0.0
 10
274.1675930739439
 20
440.0926888823233
 30
0.0
 10
274.2290000000003
 20
440.1334888812926
 30
0.0
 10
274.3776930686363
 20
440.1353888812446
 30
0.0
  0
SPLINE
  5
B8
330
88
100
AcDbEntity
  8
Isolation Mode
 62
    18
420
        0
370
     9
100
AcDbSpline
210
0.0
220
0.0
230
1.0
 70
    11
 71
     3
 72
    17
 73
    13
 74
     0
 42
0.0000000001
 43
0.0000000001
 12
1.0
 22
0.0
 32
0.0
 13
1.0
 23
0.0
 33
0.0
 40
0.0
 40
0.0
 40
0.0
 40
0.0
 40
1.0
 40
1.0
 40
1.0
 40
2.0
 40
2.0
 40
2.0
 40
3.0
 40
3.0
 40
3.0
 40
4.0
 40
4.0
 40
4.0
 40
4.0
 10
276.3157930196758
 20
439.544488896172
 30
0.0
 10
276.3157930196758
 20
440.1614888805852
 30
0.0
 10
275.8156930323094
 20
440.6615888679517
 30
0.0
 10
275.1986930478961
 20
440.6615888679517
 30
0.0
 10
274.5816930634828
 20
440.6615888679517
 30
0.0
 10
274.0815930761164
 20
440.1614888805852
 30
0.0
 10
274.0815930761164
 20
439.544488896172
 30
0.0
 10
274.0815930761164
 20
438.9274889117587
 30
0.0
 10
274.5816930634828
 20
438.4273889243923
 30
0.0
 10
275.1986930478961
 20
438.4273889243923
 30
0.0
 10
275.8156930323094
 20
438.4273889243923
 30
0.0
 10
276.3157930196758
 20
438.9274889117587
 30
0.0
 10
276.3157930196758
 20
439.544488896172
 30
0.0
  0
POLYLINE
  5
B9
330
88
100
AcDbEntity
  8
Isolation Mode
370
     0
100
AcDb2dPolyline
 66
     1
 10
0.0
 20
0.0
 30
0.0
  0
VERTEX
  5
BA
330
B9
100
AcDbEntity
  8
Isolation Mode
370
     0
100
AcDbVertex
100
AcDb2dVertex
 10
280.8478929051853
 20
436.5312889722918
 30
0.0
  0
VERTEX
  5
BB
330
B9
100
AcDbEntity
  8
Isolation Mode
370
     0
100
AcDbVertex
100
AcDb2dVertex
 10
280.6826929093586
 20
436.1920889808607
 30
0.0
  0
VERTEX
  5
BC
330
B9
100
AcDbEntity
  8
Isolation Mode
370
     0
100
AcDbVertex
100
AcDb2dVertex
 10
280.5688929122334
 20
436.2474889794612
 30
0.0
  0
VERTEX
  5
BD
330
B9
100
AcDbEntity
  8
Isolation Mode
370
     0
100
AcDbVertex
100
AcDb2dVertex
 10
280.7640929073023
 20
436.6483889693336
 30
0.0
  0
VERTEX
  5
BE
330
B9
100
AcDbEntity
  8
Isolation Mode
370
     0
100
AcDbVertex
100
AcDb2dVertex
 10
280.6384929104752
 20
436.8941889631242
 30
0.0
  0
VERTEX
  5
BF
330
B9
100
AcDbEntity
  8
Isolation Mode
370
     0
100
AcDbVertex
100
AcDb2dVertex
 10
280.3704929172454
 20
436.3440889770209
 30
0.0
  0
VERTEX
  5
C0
330
B9
100
AcDbEntity
  8
Isolation Mode
370
     0
100
AcDbVertex
100
AcDb2dVertex
 10
280.2567929201177
 20
436.3995889756188
 30
0.0
  0
VERTEX
  5
C1
330
B9
100
AcDbEntity
  8
Isolation Mode
370
     0
100
AcDbVertex
100
AcDb2dVertex
 10
280.555292912577
 20
437.0122889601407
 30
0.0
  0
VERTEX
  5
C2
330
B9
100
AcDbEntity
  8
Isolation Mode
370
     0
100
AcDbVertex
100
AcDb2dVertex
 10
280.3918929167048
 20
437.2946889530067
 30
0.0
  0
VERTEX
  5
C3
330
B9
100
AcDbEntity
  8
Isolation Mode
370
     0
100
AcDbVertex
100
AcDb2dVertex
 10
280.4589999999998
 20
437.4324889495256
 30
0.0
  0
VERTEX
  5
C4
330
B9
100
AcDbEntity
  8
Isolation Mode
370
     0
100
AcDbVertex
100
AcDb2dVertex
 10
280.6223929108819
 20
437.1500889566596
 30
0.0
  0
VERTEX
  5
C5
330
B9
100
AcDbEntity
  8
Isolation Mode
370
     0
100
AcDbVertex
100
AcDb2dVertex
 10
280.7865929067339
 20
437.4872889481412
 30
0.0
  0
VERTEX
  5
C6
330
B9
100
AcDbEntity
  8
Isolation Mode
370
     0
100
AcDbVertex
100
AcDb2dVertex
 10
280.900392903859
 20
437.4317889495433
 30
0.0
  0
VERTEX
  5
C7
330
B9
100
AcDbEntity
  8
Isolation Mode
370
     0
100
AcDbVertex
100
AcDb2dVertex
 10
280.7061929087649
 20
437.0330889596153
 30
0.0
  0
VERTEX
  5
C8
330
B9
100
AcDbEntity
  8
Isolation Mode
370
     0
100
AcDbVertex
100
AcDb2dVertex
 10
280.8327929055667
 20
436.7892889657742
 30
0.0
  0
VERTEX
  5
C9
330
B9
100
AcDbEntity
  8
Isolation Mode
370
     0
100
AcDbVertex
100
AcDb2dVertex
 10
281.0986928988495
 20
437.3351889519836
 30
0.0
  0
VERTEX
  5
CA
330
B9
100
AcDbEntity
  8
Isolation Mode
370
     0
100
AcDbVertex
100
AcDb2dVertex
 10
281.2124928959747
 20
437.2797889533831
 30
0.0
  0
VERTEX
  5
CB
330
B9
100
AcDbEntity
  8
Isolation Mode
370
     0
100
AcDbVertex
100
AcDb2dVertex
 10
280.915
 20
436.6690889688107
 30
0.0
  0
VERTEX
  5
CC
330
B9
100
AcDbEntity
  8
Isolation Mode
370
     0
100
AcDbVertex
100
AcDb2dVertex
 10
281.077892899375
 20
436.3882889759043
 30
0.0
  0
VERTEX
  5
CD
330
B9
100
AcDbEntity
  8
Isolation Mode
370
     0
100
AcDbVertex
100
AcDb2dVertex
 10
281.0102929010827
 20
436.2494889794107
 30
0.0
  0
VERTEX
  5
CE
330
B9
100
AcDbEntity
  8
Isolation Mode
370
     0
100
AcDbVertex
100
AcDb2dVertex
 10
280.8478929051853
 20
436.5312889722918
 30
0.0
  0
SEQEND
  5
CF
330
B9
100
AcDbEntity
  8
Isolation Mode
370
     0
  0
SPLINE
  5
D0
330
88
100
AcDbEntity
  8
Isolation Mode
 62
    18
420
        0
370
     9
100
AcDbSpline
210
0.0
220
0.0
230
1.0
 70
    11
 71
     3
 72
    20
 73
    16
 74
     0
 42
0.0000000001
 43
0.0000000001
 12
1.0
 22
0.0
 32
0.0
 13
1.0
 23
0.0
 33
0.0
 40
0.0
 40
0.0
 40
0.0
 40
0.0
 40
1.0
 40
1.0
 40
1.0
 40
2.0
 40
2.0
 40
2.0
 40
3.0
 40
3.0
 40
3.0
 40
4.0
 40
4.0
 40
4.0
 40
5.0
 40
5.0
 40
5.0
 40
5.0
 10
270.2373931732291
 20
443.5
 30
0.0
 10
270.2373931732291
 20
443.5796887942342
 30
0.0
 10
270.3019999999997
 20
443.6443887925998
 30
0.0
 10
270.3816931695837
 20
443.6443887925998
 30
0.0
 10
270.4613931675703
 20
443.6443887925998
 30
0.0
 10
270.5259999999998
 20
443.5796887942342
 30
0.0
 10
270.5259999999998
 20
443.5
 30
0.0
 10
270.5259999999998
 20
443.420288798261
 30
0.0
 10
270.4613931675703
 20
443.355688799893
 30
0.0
 10
270.3816931695837
 20
443.355688799893
 30
0.0
 10
270.3019999999997
 20
443.355688799893
 30
0.0
 10
270.2373931732291
 20
443.420288798261
 30
0.0
 10
270.2373931732291
 20
443.5
 30
0.0
 10
270.2373931732291
 20
443.5
 30
0.0
 10
270.2373931732291
 20
443.5
 30
0.0
 10
270.2373931732291
 20
443.5
 30
0.0
  0
SPLINE
  5
D1
330
88
100
AcDbEntity
  8
Isolation Mode
 62
    18
420
        0
370
     9
100
AcDbSpline
210
0.0
220
0.0
230
1.0
 70
    11
 71
     3
 72
    20
 73
    16
 74
     0
 42
0.0000000001
 43
0.0000000001
 12
1.0
 22
0.0
 32
0.0
 13
1.0
 23
0.0
 33
0.0
 40
0.0
 40
0.0
 40
0.0
 40
0.0
 40
1.0
 40
1.0
 40
1.0
 40
2.0
 40
2.0
 40
2.0
 40
3.0
 40
3.0
 40
3.0
 40
4.0
 40
4.0
 40
4.0
 40
5.0
 40
5.0
 40
5.0
 40
5.0
 10
269.7296931860546
 20
442.6245888183621
 30
0.0
 10
269.7296931860546
 20
442.7042888163487
 30
0.0
 10
269.7942931844227
 20
442.7688888147168
 30
0.0
 10
269.8739999999998
 20
442.7688888147168
 30
0.0
 10
269.9536931803959
 20
442.7688888147168
 30
0.0
 10
270.018293178764
 20
442.7042888163487
 30
0.0
 10
270.018293178764
 20
442.6245888183621
 30
0.0
 10
270.018293178764
 20
442.5448888203764
 30
0.0
 10
269.9536931803959
 20
442.4802888220074
 30
0.0
 10
269.8739999999998
 20
442.4802888220074
 30
0.0
 10
269.7942931844227
 20
442.4802888220074
 30
0.0
 10
269.7296931860546
 20
442.5448888203764
 30
0.0
 10
269.7296931860546
 20
442.6245888183621
 30
0.0
 10
269.7296931860546
 20
442.6245888183621
 30
0.0
 10
269.7296931860546
 20
442.6245888183621
 30
0.0
 10
269.7296931860546
 20
442.6245888183621
 30
0.0
  0
SPLINE
  5
D2
330
88
100
AcDbEntity
  8
Isolation Mode
 62
    18
420
        0
370
     9
100
AcDbSpline
210
0.0
220
0.0
230
1.0
 70
    11
 71
     3
 72
    20
 73
    16
 74
     0
 42
0.0000000001
 43
0.0000000001
 12
1.0
 22
0.0
 32
0.0
 13
1.0
 23
0.0
 33
0.0
 40
0.0
 40
0.0
 40
0.0
 40
0.0
 40
1.0
 40
1.0
 40
1.0
 40
2.0
 40
2.0
 40
2.0
 40
3.0
 40
3.0
 40
3.0
 40
4.0
 40
4.0
 40
4.0
 40
5.0
 40
5.0
 40
5.0
 40
5.0
 10
269.2218931988828
 20
441.7491888404766
 30
0.0
 10
269.2218931988828
 20
441.8288888384632
 30
0.0
 10
269.2864931972508
 20
441.8934888368312
 30
0.0
 10
269.3661931952374
 20
441.8934888368312
 30
0.0
 10
269.445893193224
 20
441.8934888368312
 30
0.0
 10
269.5104931915921
 20
441.8288888384632
 30
0.0
 10
269.5104931915921
 20
441.7491888404766
 30
0.0
 10
269.5104931915921
 20
441.66948884249
 30
0.0
 10
269.445893193224
 20
441.6048888441219
 30
0.0
 10
269.3661931952374
 20
441.6048888441219
 30
0.0
 10
269.2864931972508
 20
441.6048888441219
 30
0.0
 10
269.2218931988828
 20
441.66948884249
 30
0.0
 10
269.2218931988828
 20
441.7491888404766
 30
0.0
 10
269.2218931988828
 20
441.7491888404766
 30
0.0
 10
269.2218931988828
 20
441.7491888404766
 30
0.0
 10
269.2218931988828
 20
441.7491888404766
 30
0.0
  0
INSERT
  5
D4
330
88
100
AcDbEntity
  8
Isolation Mode
100
AcDbBlockReference
  2
block 7
 10
0.0
 20
0.0
 30
0.0
  0
ENDBLK
  5
8B
330
88
100
AcDbEntity
  8
0
100
AcDbBlockEnd
  0
BLOCK
  5
D5
330
D3
100
AcDbEntity
  8
0
100
AcDbBlockBegin
  2
block 7
 70
     0
 10
0.0
 20
0.0
 30
0.0
  3
block 7
  1

  0
SPLINE
  5
D7
330
D3
100
AcDbEntity
  8
Isolation Mode
370
     0
100
AcDbSpline
210
0.0
220
0.0
230
1.0
 70
    11
 71
     3
 72
    38
 73
    34
 74
     0
 42
0.0000000001
 43
0.0000000001
 12
1.0
 22
0.0
 32
0.0
 13
1.0
 23
0.0
 33
0.0
 40
0.0
 40
0.0
 40
0.0
 40
0.0
 40
1.0
 40
1.0
 40
1.0
 40
2.0
 40
2.0
 40
2.0
 40
3.0
 40
3.0
 40
3.0
 40
4.0
 40
4.0
 40
4.0
 40
5.0
 40
5.0
 40
5.0
 40
6.0
 40
6.0
 40
6.0
 40
7.0
 40
7.0
 40
7.0
 40
8.0
 40
8.0
 40
8.0
 40
9.0
 40
9.0
 40
9.0
 40
10.0
 40
10.0
 40
10.0
 40
11.0
 40
11.0
 40
11.0
 40
11.0
 10
272.3665931194409
 20
439.0707889081386
 30
0.0
 10
272.3665931194409
 20
439.0707889081386
 30
0.0
 10
272.3626931195395
 20
439.0348889090455
 30
0.0
 10
272.3626931195395
 20
439.0348889090455
 30
0.0
 10
272.3626931195395
 20
439.0348889090455
 30
0.0
 10
272.3973931186629
 20
439.0241889093159
 30
0.0
 10
272.3973931186629
 20
439.0241889093159
 30
0.0
 10
272.410293118337
 20
439.0203889094118
 30
0.0
 10
272.7125931107003
 20
438.926488911784
 30
0.0
 10
272.9967931035208
 20
438.9296889117031
 30
0.0
 10
273.3361930949468
 20
438.9332889116122
 30
0.0
 10
273.5206930902859
 20
439.0523889086035
 30
0.0
 10
273.5283930900914
 20
439.0572889084797
 30
0.0
 10
273.5283930900914
 20
439.0572889084797
 30
0.0
 10
273.5513930895104
 20
439.0725889080932
 30
0.0
 10
273.5513930895104
 20
439.0725889080932
 30
0.0
 10
273.5513930895104
 20
439.0725889080932
 30
0.0
 10
273.5479999999998
 20
439.099788907406
 30
0.0
 10
273.5479999999998
 20
439.099788907406
 30
0.0
 10
273.5470000000005
 20
439.1091889071686
 30
0.0
 10
273.5176930903617
 20
439.3312889015579
 30
0.0
 10
273.3461930946942
 20
439.5990000000002
 30
0.0
 10
273.1745930990292
 20
439.8671888880199
 30
0.0
 10
272.9763931040361
 20
439.9858888850213
 30
0.0
 10
272.9679999999998
 20
439.9905888849025
 30
0.0
 10
272.9679999999998
 20
439.9905888849025
 30
0.0
 10
272.942393104895
 20
440.0055888845236
 30
0.0
 10
272.942393104895
 20
440.0055888845236
 30
0.0
 10
272.942393104895
 20
440.0055888845236
 30
0.0
 10
272.9188931054887
 20
439.9881888849632
 30
0.0
 10
272.9188931054887
 20
439.9881888849632
 30
0.0
 10
272.898693105999
 20
439.973
 30
0.0
 10
272.4241931179859
 20
439.6135888944264
 30
0.0
 10
272.3665931194409
 20
439.0707889081386
 30
0.0
  0
SPLINE
  5
D8
330
D3
100
AcDbEntity
  8
Isolation Mode
370
     0
100
AcDbSpline
210
0.0
220
0.0
230
1.0
 70
    11
 71
     3
 72
    23
 73
    19
 74
     0
 42
0.0000000001
 43
0.0000000001
 12
1.0
 22
0.0
 32
0.0
 13
1.0
 23
0.0
 33
0.0
 40
0.0
 40
0.0
 40
0.0
 40
0.0
 40
1.0
 40
1.0
 40
1.0
 40
2.0
 40
2.0
 40
2.0
 40
3.0
 40
3.0
 40
3.0
 40
4.0
 40
4.0
 40
4.0
 40
5.0
 40
5.0
 40
5.0
 40
6.0
 40
6.0
 40
6.0
 40
6.0
 10
272.9477931047586
 20
439.897388887257
 30
0.0
 10
272.9698931042003
 20
439.8823888876359
 30
0.0
 10
273.003393103354
 20
439.8577888882573
 30
0.0
 10
273.0536931020833
 20
439.8115888894245
 30
0.0
 10
273.1181931004539
 20
439.7522888909234
 30
0.0
 10
273.1978930984405
 20
439.6660888931001
 30
0.0
 10
273.2715930965787
 20
439.5510888960052
 30
0.0
 10
273.4009999999998
 20
439.3494889010981
 30
0.0
 10
273.4427930922539
 20
439.1790000000001
 30
0.0
 10
273.4545930919558
 20
439.1177889069513
 30
0.0
 10
273.4012930933022
 20
439.0897889076587
 30
0.0
 10
273.2470000000003
 20
439.0211889093916
 30
0.0
 10
272.9956931035485
 20
439.0181889094674
 30
0.0
 10
272.7758931091012
 20
439.0160889095214
 30
0.0
 10
272.5454931149216
 20
439.0746889080401
 30
0.0
 10
272.4626931170133
 20
439.0976889074591
 30
0.0
 10
272.5247931154445
 20
439.517488896854
 30
0.0
 10
272.8574931070398
 20
439.8220000000001
 30
0.0
 10
272.9477931047586
 20
439.897388887257
 30
0.0
  0
ENDBLK
  5
D6
330
D3
100
AcDbEntity
  8
0
100
AcDbBlockEnd
  0
BLOCK
  5
DB
330
D9
100
AcDbEntity
  8
0
100
AcDbBlockBegin
  2
block 8
 70
     0
 10
0.0
 20
0.0
 30
0.0
  3
block 8
  1

  0
SPLINE
  5
DD
330
D9
100
AcDbEntity
  8
Isolation Mode
 62
    18
420
        0
370
    18
100
AcDbSpline
210
0.0
220
0.0
230
1.0
 70
    11
 71
     3
 72
    89
 73
    85
 74
     0
 42
0.0000000001
 43
0.0000000001
 12
1.0
 22
0.0
 32
0.0
 13
1.0
 23
0.0
 33
0.0
 40
0.0
 40
0.0
 40
0.0
 40
0.0
 40
1.0
 40
1.0
 40
1.0
 40
2.0
 40
2.0
 40
2.0
 40
3.0
 40
3.0
 40
3.0
 40
4.0
 40
4.0
 40
4.0
 40
5.0
 40
5.0
 40
5.0
 40
6.0
 40
6.0
 40
6.0
 40
7.0
 40
7.0
 40
7.0
 40
8.0
 40
8.0
 40
8.0
 40
9.0
 40
9.0
 40
9.0
 40
10.0
 40
10.0
 40
10.0
 40
11.0
 40
11.0
 40
11.0
 40
12.0
 40
12.0
 40
12.0
 40
13.0
 40
13.0
 40
13.0
 40
14.0
 40
14.0
 40
14.0
 40
15.0
 40
15.0
 40
15.0
 40
16.0
 40
16.0
 40
16.0
 40
17.0
 40
17.0
 40
17.0
 40
18.0
 40
18.0
 40
18.0
 40
19.0
 40
19.0
 40
19.0
 40
20.0
 40
20.0
 40
20.0
 40
21.0
 40
21.0
 40
21.0
 40
22.0
 40
22.0
 40
22.0
 40
23.0
 40
23.0
 40
23.0
 40
24.0
 40
24.0
 40
24.0
 40
25.0
 40
25.0
 40
25.0
 40
26.0
 40
26.0
 40
26.0
 40
27.0
 40
27.0
 40
27.0
 40
28.0
 40
28.0
 40
28.0
 40
28.0
 10
325.9334917662272
 20
473.6974880333946
 30
0.0
 10
325.4860000000008
 20
473.6983880333719
 30
0.0
 10
325.0781917878339
 20
473.4409999999998
 30
0.0
 10
324.8863917926792
 20
473.0367880500853
 30
0.0
 10
324.1987918100494
 20
471.5871880867053
 30
0.0
 10
323.0300000000007
 20
470.4206881161736
 30
0.0
 10
321.5789999999997
 20
469.7359999999999
 30
0.0
 10
318.113691963772
 20
468.1006881747817
 30
0.0
 10
313.9788920682258
 20
469.5841881373053
 30
0.0
 10
312.343592109537
 20
473.0494880497654
 30
0.0
 10
312.1530000000002
 20
473.4533880395611
 30
0.0
 10
311.7467921246134
 20
473.7113880330444
 30
0.0
 10
311.3001921358955
 20
473.7122880330207
 30
0.0
 10
311.3001921358955
 20
473.7122880330207
 30
0.0
 10
310.533492155264
 20
473.7137880329828
 30
0.0
 10
310.533492155264
 20
473.7137880329828
 30
0.0
 10
309.8947921713989
 20
473.71508803295
 30
0.0
 10
309.3781921844493
 20
474.2337880198465
 30
0.0
 10
309.379392184419
 20
474.8724880037116
 30
0.0
 10
309.379392184419
 20
474.8724880037116
 30
0.0
 10
309.3809999999994
 20
475.6534879839819
 30
0.0
 10
309.3809999999994
 20
475.6534879839819
 30
0.0
 10
309.3792921844215
 20
476.1033879726174
 30
0.0
 10
309.1166921910553
 20
476.511487962307
 30
0.0
 10
308.7080000000005
 20
476.6995879575552
 30
0.0
 10
307.263892237861
 20
477.3880879401622
 30
0.0
 10
306.102192267208
 20
478.5544879106974
 30
0.0
 10
305.419392284457
 20
480.0012878741472
 30
0.0
 10
303.7841923257656
 20
483.4664877866089
 30
0.0
 10
305.2676922882893
 20
487.6013876821526
 30
0.0
 10
308.7328922007509
 20
489.2365876408439
 30
0.0
 10
309.136892190545
 20
489.427187636029
 30
0.0
 10
309.3948921840274
 20
489.8333876257684
 30
0.0
 10
309.3957921840047
 20
490.2800876144829
 30
0.0
 10
309.3957921840047
 20
490.2800876144829
 30
0.0
 10
309.3972921839668
 20
491.0610875947532
 30
0.0
 10
309.3972921839668
 20
491.0610875947532
 30
0.0
 10
309.3985921839339
 20
491.6996875786208
 30
0.0
 10
309.9172921708305
 20
492.2163875655679
 30
0.0
 10
310.5560000000005
 20
492.2150875656007
 30
0.0
 10
310.5560000000005
 20
492.2150875656007
 30
0.0
 10
311.3369999999995
 20
492.2135875656386
 30
0.0
 10
311.3369999999995
 20
492.2135875656386
 30
0.0
 10
311.7835921236838
 20
492.2126875656613
 30
0.0
 10
312.1908921133945
 20
492.4690875591841
 30
0.0
 10
312.3830921085391
 20
492.8722875489984
 30
0.0
 10
313.0735920910956
 20
494.3204875124138
 30
0.0
 10
314.2446920615112
 20
495.4846874830037
 30
0.0
 10
315.6970000000001
 20
496.1665874657774
 30
0.0
 10
319.1654919372013
 20
497.795087424638
 30
0.0
 10
323.2973918328207
 20
496.303487462319
 30
0.0
 10
324.9258917916814
 20
492.835
 30
0.0
 10
325.1160917868765
 20
492.4300000000003
 30
0.0
 10
325.5227917766024
 20
492.1710000000003
 30
0.0
 10
325.9702917652976
 20
492.1700875667384
 30
0.0
 10
325.9702917652976
 20
492.1700875667384
 30
0.0
 10
326.7445917457371
 20
492.1685875667754
 30
0.0
 10
326.7445917457371
 20
492.1685875667754
 30
0.0
 10
327.3832917296022
 20
492.1672875668082
 30
0.0
 10
327.8998917165518
 20
491.6485875799117
 30
0.0
 10
327.8986917165821
 20
491.0098875960466
 30
0.0
 10
327.8986917165821
 20
491.0098875960466
 30
0.0
 10
327.8970917166225
 20
490.2431876154151
 30
0.0
 10
327.8970917166225
 20
490.2431876154151
 30
0.0
 10
327.8961917166453
 20
489.7965876266971
 30
0.0
 10
328.1526917101655
 20
489.3893876369839
 30
0.0
 10
328.5557916999824
 20
489.1971876418393
 30
0.0
 10
329.9998916635013
 20
488.5086876592322
 30
0.0
 10
331.1615916341543
 20
487.342287688698
 30
0.0
 10
331.8442916169079
 20
485.8954877252472
 30
0.0
 10
333.4795915755967
 20
482.4301878127881
 30
0.0
 10
331.9960916130731
 20
478.2953879172419
 30
0.0
 10
328.5307917006139
 20
476.660087958553
 30
0.0
 10
328.1212917109588
 20
476.4736879632619
 30
0.0
 10
327.8571917176305
 20
476.0666879735436
 30
0.0
 10
327.8536917177189
 20
475.6166879849116
 30
0.0
 10
327.8536917177189
 20
475.6166879849116
 30
0.0
 10
327.8520917177593
 20
474.8500000000004
 30
0.0
 10
327.8520917177593
 20
474.8500000000004
 30
0.0
 10
327.8508917177896
 20
474.2113880204124
 30
0.0
 10
327.3320917308956
 20
473.6946880334654
 30
0.0
 10
326.693491747028
 20
473.6959999999999
 30
0.0
 10
326.693491747028
 20
473.6959999999999
 30
0.0
 10
325.9334917662272
 20
473.6974880333946
 30
0.0
 10
325.9334917662272
 20
473.6974880333946
 30
0.0
  0
HATCH
  5
DE
330
D9
100
AcDbEntity
  8
Isolation Mode
 62
   250
420
  2301728
100
AcDbHatch
 10
0.0
 20
0.0
 30
0.0
210
0.0
220
0.0
230
1.0
  2
SOLID
 70
     1
 71
     0
 91
        1
 92
        1
 93
        1
 72
     4
 94
        3
 73
     0
 74
     1
 95
       89
 96
       85
 40
0.0
 40
0.0
 40
0.0
 40
0.0
 40
1.0
 40
1.0
 40
1.0
 40
2.0
 40
2.0
 40
2.0
 40
3.0
 40
3.0
 40
3.0
 40
4.0
 40
4.0
 40
4.0
 40
5.0
 40
5.0
 40
5.0
 40
6.0
 40
6.0
 40
6.0
 40
7.0
 40
7.0
 40
7.0
 40
8.0
 40
8.0
 40
8.0
 40
9.0
 40
9.0
 40
9.0
 40
10.0
 40
10.0
 40
10.0
 40
11.0
 40
11.0
 40
11.0
 40
12.0
 40
12.0
 40
12.0
 40
13.0
 40
13.0
 40
13.0
 40
14.0
 40
14.0
 40
14.0
 40
15.0
 40
15.0
 40
15.0
 40
16.0
 40
16.0
 40
16.0
 40
17.0
 40
17.0
 40
17.0
 40
18.0
 40
18.0
 40
18.0
 40
19.0
 40
19.0
 40
19.0
 40
20.0
 40
20.0
 40
20.0
 40
21.0
 40
21.0
 40
21.0
 40
22.0
 40
22.0
 40
22.0
 40
23.0
 40
23.0
 40
23.0
 40
24.0
 40
24.0
 40
24.0
 40
25.0
 40
25.0
 40
25.0
 40
26.0
 40
26.0
 40
26.0
 40
27.0
 40
27.0
 40
27.0
 40
28.0
 40
28.0
 40
28.0
 40
28.0
 10
325.9334917662272
 20
473.6974880333946
 10
325.4860000000008
 20
473.6983880333719
 10
325.0781917878339
 20
473.4409999999998
 10
324.8863917926792
 20
473.0367880500853
 10
324.1987918100494
 20
471.5871880867053
 10
323.0300000000007
 20
470.4206881161736
 10
321.5789999999997
 20
469.7359999999999
 10
318.113691963772
 20
468.1006881747817
 10
313.9788920682258
 20
469.5841881373053
 10
312.343592109537
 20
473.0494880497654
 10
312.1530000000002
 20
473.4533880395611
 10
311.7467921246134
 20
473.7113880330444
 10
311.3001921358955
 20
473.7122880330207
 10
311.3001921358955
 20
473.7122880330207
 10
310.533492155264
 20
473.7137880329828
 10
310.533492155264
 20
473.7137880329828
 10
309.8947921713989
 20
473.71508803295
 10
309.3781921844493
 20
474.2337880198465
 10
309.379392184419
 20
474.8724880037116
 10
309.379392184419
 20
474.8724880037116
 10
309.3809999999994
 20
475.6534879839819
 10
309.3809999999994
 20
475.6534879839819
 10
309.3792921844215
 20
476.1033879726174
 10
309.1166921910553
 20
476.511487962307
 10
308.7080000000005
 20
476.6995879575552
 10
307.263892237861
 20
477.3880879401622
 10
306.102192267208
 20
478.5544879106974
 10
305.419392284457
 20
480.0012878741472
 10
303.7841923257656
 20
483.4664877866089
 10
305.2676922882893
 20
487.6013876821526
 10
308.7328922007509
 20
489.2365876408439
 10
309.136892190545
 20
489.427187636029
 10
309.3948921840274
 20
489.8333876257684
 10
309.3957921840047
 20
490.2800876144829
 10
309.3957921840047
 20
490.2800876144829
 10
309.3972921839668
 20
491.0610875947532
 10
309.3972921839668
 20
491.0610875947532
 10
309.3985921839339
 20
491.6996875786208
 10
309.9172921708305
 20
492.2163875655679
 10
310.5560000000005
 20
492.2150875656007
 10
310.5560000000005
 20
492.2150875656007
 10
311.3369999999995
 20
492.2135875656386
 10
311.3369999999995
 20
492.2135875656386
 10
311.7835921236838
 20
492.2126875656613
 10
312.1908921133945
 20
492.4690875591841
 10
312.3830921085391
 20
492.8722875489984
 10
313.0735920910956
 20
494.3204875124138
 10
314.2446920615112
 20
495.4846874830037
 10
315.6970000000001
 20
496.1665874657774
 10
319.1654919372013
 20
497.795087424638
 10
323.2973918328207
 20
496.303487462319
 10
324.9258917916814
 20
492.835
 10
325.1160917868765
 20
492.4300000000003
 10
325.5227917766024
 20
492.1710000000003
 10
325.9702917652976
 20
492.1700875667384
 10
325.9702917652976
 20
492.1700875667384
 10
326.7445917457371
 20
492.1685875667754
 10
326.7445917457371
 20
492.1685875667754
 10
327.3832917296022
 20
492.1672875668082
 10
327.8998917165518
 20
491.6485875799117
 10
327.8986917165821
 20
491.0098875960466
 10
327.8986917165821
 20
491.0098875960466
 10
327.8970917166225
 20
490.2431876154151
 10
327.8970917166225
 20
490.2431876154151
 10
327.8961917166453
 20
489.7965876266971
 10
328.1526917101655
 20
489.3893876369839
 10
328.5557916999824
 20
489.1971876418393
 10
329.9998916635013
 20
488.5086876592322
 10
331.1615916341543
 20
487.342287688698
 10
331.8442916169079
 20
485.8954877252472
 10
333.4795915755967
 20
482.4301878127881
 10
331.9960916130731
 20
478.2953879172419
 10
328.5307917006139
 20
476.660087958553
 10
328.1212917109588
 20
476.4736879632619
 10
327.8571917176305
 20
476.0666879735436
 10
327.8536917177189
 20
475.6166879849116
 10
327.8536917177189
 20
475.6166879849116
 10
327.8520917177593
 20
474.8500000000004
 10
327.8520917177593
 20
474.8500000000004
 10
327.8508917177896
 20
474.2113880204124
 10
327.3320917308956
 20
473.6946880334654
 10
326.693491747028
 20
473.6959999999999
 10
326.693491747028
 20
473.6959999999999
 10
325.9334917662272
 20
473.6974880333946
 10
325.9334917662272
 20
473.6974880333946
 97
        0
 97
        0
 75
     2
 76
     1
 98
        0
  0
SPLINE
  5
DF
330
D9
100
AcDbEntity
  8
Isolation Mode
 62
    18
420
        0
370
    18
100
AcDbSpline
210
0.0
220
0.0
230
1.0
 70
    11
 71
     3
 72
    20
 73
    16
 74
     0
 42
0.0000000001
 43
0.0000000001
 12
1.0
 22
0.0
 32
0.0
 13
1.0
 23
0.0
 33
0.0
 40
0.0
 40
0.0
 40
0.0
 40
0.0
 40
1.0
 40
1.0
 40
1.0
 40
2.0
 40
2.0
 40
2.0
 40
3.0
 40
3.0
 40
3.0
 40
4.0
 40
4.0
 40
4.0
 40
5.0
 40
5.0
 40
5.0
 40
5.0
 10
311.9255921200966
 20
482.9602877993966
 30
0.0
 10
311.9255921200966
 20
486.7154877045323
 30
0.0
 10
314.9696920431961
 20
489.7595876276318
 30
0.0
 10
318.7247919483343
 20
489.7595876276318
 30
0.0
 10
322.4798918534725
 20
489.7595876276318
 30
0.0
 10
325.5239999999994
 20
486.7154877045323
 30
0.0
 10
325.5239999999994
 20
482.9602877993966
 30
0.0
 10
325.5239999999994
 20
479.2051878942584
 30
0.0
 10
322.4798918534725
 20
476.1610879711588
 30
0.0
 10
318.7247919483343
 20
476.1610879711588
 30
0.0
 10
314.9696920431961
 20
476.1610879711588
 30
0.0
 10
311.9255921200966
 20
479.2051878942584
 30
0.0
 10
311.9255921200966
 20
482.9602877993966
 30
0.0
 10
311.9255921200966
 20
482.9602877993966
 30
0.0
 10
311.9255921200966
 20
482.9602877993966
 30
0.0
 10
311.9255921200966
 20
482.9602877993966
 30
0.0
  0
HATCH
  5
E0
330
D9
100
AcDbEntity
  8
Isolation Mode
 62
   250
420
  2301728
100
AcDbHatch
 10
0.0
 20
0.0
 30
0.0
210
0.0
220
0.0
230
1.0
  2
SOLID
 70
     1
 71
     0
 91
        1
 92
        1
 93
        1
 72
     4
 94
        3
 73
     0
 74
     1
 95
       20
 96
       16
 40
0.0
 40
0.0
 40
0.0
 40
0.0
 40
1.0
 40
1.0
 40
1.0
 40
2.0
 40
2.0
 40
2.0
 40
3.0
 40
3.0
 40
3.0
 40
4.0
 40
4.0
 40
4.0
 40
5.0
 40
5.0
 40
5.0
 40
5.0
 10
311.9255921200966
 20
482.9602877993966
 10
311.9255921200966
 20
486.7154877045323
 10
314.9696920431961
 20
489.7595876276318
 10
318.7247919483343
 20
489.7595876276318
 10
322.4798918534725
 20
489.7595876276318
 10
325.5239999999994
 20
486.7154877045323
 10
325.5239999999994
 20
482.9602877993966
 10
325.5239999999994
 20
479.2051878942584
 10
322.4798918534725
 20
476.1610879711588
 10
318.7247919483343
 20
476.1610879711588
 10
314.9696920431961
 20
476.1610879711588
 10
311.9255921200966
 20
479.2051878942584
 10
311.9255921200966
 20
482.9602877993966
 10
311.9255921200966
 20
482.9602877993966
 10
311.9255921200966
 20
482.9602877993966
 10
311.9255921200966
 20
482.9602877993966
 97
        0
 97
        0
 75
     2
 76
     1
 98
        0
  0
POLYLINE
  5
E1
330
D9
100
AcDbEntity
  8
Isolation Mode
 62
    18
420
        0
370
    13
100
AcDb2dPolyline
 66
     1
 10
0.0
 20
0.0
 30
0.0
  0
VERTEX
  5
E2
330
E1
100
AcDbEntity
  8
Isolation Mode
 62
    18
420
        0
370
    13
100
AcDbVertex
100
AcDb2dVertex
 10
312.6440921019457
 20
482.9602877993966
 30
0.0
  0
VERTEX
  5
E3
330
E1
100
AcDbEntity
  8
Isolation Mode
 62
    18
420
        0
370
    13
100
AcDbVertex
100
AcDb2dVertex
 10
315.6380000000008
 20
477.7747879303934
 30
0.0
  0
VERTEX
  5
E4
330
E1
100
AcDbEntity
  8
Isolation Mode
 62
    18
420
        0
370
    13
100
AcDbVertex
100
AcDb2dVertex
 10
321.6256918750514
 20
477.7747879303934
 30
0.0
  0
VERTEX
  5
E5
330
E1
100
AcDbEntity
  8
Isolation Mode
 62
    18
420
        0
370
    13
100
AcDbVertex
100
AcDb2dVertex
 10
324.6195917994191
 20
482.9602877993966
 30
0.0
  0
VERTEX
  5
E6
330
E1
100
AcDbEntity
  8
Isolation Mode
 62
    18
420
        0
370
    13
100
AcDbVertex
100
AcDb2dVertex
 10
321.6256918750514
 20
488.1458876683973
 30
0.0
  0
VERTEX
  5
E7
330
E1
100
AcDbEntity
  8
Isolation Mode
 62
    18
420
        0
370
    13
100
AcDbVertex
100
AcDb2dVertex
 10
315.6380000000008
 20
488.1458876683973
 30
0.0
  0
VERTEX
  5
E8
330
E1
100
AcDbEntity
  8
Isolation Mode
 62
    18
420
        0
370
    13
100
AcDbVertex
100
AcDb2dVertex
 10
312.6440921019457
 20
482.9602877993966
 30
0.0
  0
SEQEND
  5
EA
330
E1
100
AcDbEntity
  8
Isolation Mode
 62
    18
420
        0
370
    13
  0
HATCH
  5
E9
330
D9
100
AcDbEntity
  8
Isolation Mode
 62
   250
420
  2301728
100
AcDbHatch
 10
0.0
 20
0.0
 30
0.0
210
0.0
220
0.0
230
1.0
  2
SOLID
 70
     1
 71
     0
 91
        1
 92
        1
 93
        6
 72
     1
 10
312.6440921019457
 20
482.9602877993966
 11
315.6380000000008
 21
477.7747879303934
 72
     1
 10
315.6380000000008
 20
477.7747879303934
 11
321.6256918750514
 21
477.7747879303934
 72
     1
 10
321.6256918750514
 20
477.7747879303934
 11
324.6195917994191
 21
482.9602877993966
 72
     1
 10
324.6195917994191
 20
482.9602877993966
 11
321.6256918750514
 21
488.1458876683973
 72
     1
 10
321.6256918750514
 20
488.1458876683973
 11
315.6380000000008
 21
488.1458876683973
 72
     1
 10
315.6380000000008
 20
488.1458876683973
 11
312.6440921019457
 21
482.9602877993966
 97
        0
 75
     2
 76
     1
 98
        0
  0
SPLINE
  5
EB
330
D9
100
AcDbEntity
  8
Isolation Mode
 62
    18
420
        0
370
    13
100
AcDbSpline
210
0.0
220
0.0
230
1.0
 70
    11
 71
     3
 72
    20
 73
    16
 74
     0
 42
0.0000000001
 43
0.0000000001
 12
1.0
 22
0.0
 32
0.0
 13
1.0
 23
0.0
 33
0.0
 40
0.0
 40
0.0
 40
0.0
 40
0.0
 40
1.0
 40
1.0
 40
1.0
 40
2.0
 40
2.0
 40
2.0
 40
3.0
 40
3.0
 40
3.0
 40
4.0
 40
4.0
 40
4.0
 40
5.0
 40
5.0
 40
5.0
 40
5.0
 10
321.867691868938
 20
481.7845878290973
 30
0.0
 10
322.5063918528031
 20
483.5716877839513
 30
0.0
 10
321.5753918763221
 20
485.5381877342734
 30
0.0
 10
319.788291921468
 20
486.1768877181385
 30
0.0
 10
318.001191966614
 20
486.8155877020035
 30
0.0
 10
316.034692016292
 20
485.8845877255226
 30
0.0
 10
315.3960000000006
 20
484.0974877706685
 30
0.0
 10
314.7572920485618
 20
482.3103878158145
 30
0.0
 10
315.6882920250428
 20
480.3438878654924
 30
0.0
 10
317.4753919798968
 20
479.7051878816274
 30
0.0
 10
319.2624919347509
 20
479.0664878977623
 30
0.0
 10
321.2289999999994
 20
479.9974878742432
 30
0.0
 10
321.867691868938
 20
481.7845878290973
 30
0.0
 10
321.867691868938
 20
481.7845878290973
 30
0.0
 10
321.867691868938
 20
481.7845878290973
 30
0.0
 10
321.867691868938
 20
481.7845878290973
 30
0.0
  0
POLYLINE
  5
EC
330
D9
100
AcDbEntity
  8
Isolation Mode
370
     0
100
AcDb2dPolyline
 66
     1
 10
0.0
 20
0.0
 30
0.0
  0
VERTEX
  5
ED
330
EC
100
AcDbEntity
  8
Isolation Mode
370
     0
100
AcDbVertex
100
AcDb2dVertex
 10
321.1270000000004
 20
483.2308877925607
 30
0.0
  0
VERTEX
  5
EE
330
EC
100
AcDbEntity
  8
Isolation Mode
370
     0
100
AcDbVertex
100
AcDb2dVertex
 10
321.600691875683
 20
483.227587792644
 30
0.0
  0
VERTEX
  5
EF
330
EC
100
AcDbEntity
  8
Isolation Mode
370
     0
100
AcDbVertex
100
AcDb2dVertex
 10
321.5995918757108
 20
483.0686877966582
 30
0.0
  0
VERTEX
  5
F0
330
EC
100
AcDbEntity
  8
Isolation Mode
370
     0
100
AcDbVertex
100
AcDb2dVertex
 10
321.03989188985
 20
483.0726877965571
 30
0.0
  0
VERTEX
  5
F1
330
EC
100
AcDbEntity
  8
Isolation Mode
370
     0
100
AcDbVertex
100
AcDb2dVertex
 10
320.8294918951651
 20
482.7971878035169
 30
0.0
  0
VERTEX
  5
F2
330
EC
100
AcDbEntity
  8
Isolation Mode
370
     0
100
AcDbVertex
100
AcDb2dVertex
 10
321.5975918757613
 20
482.7916878036558
 30
0.0
  0
VERTEX
  5
F3
330
EC
100
AcDbEntity
  8
Isolation Mode
370
     0
100
AcDbVertex
100
AcDb2dVertex
 10
321.5964918757891
 20
482.6328878076674
 30
0.0
  0
VERTEX
  5
F4
330
EC
100
AcDbEntity
  8
Isolation Mode
370
     0
100
AcDbVertex
100
AcDb2dVertex
 10
320.7408918974033
 20
482.6390000000001
 30
0.0
  0
VERTEX
  5
F5
330
EC
100
AcDbEntity
  8
Isolation Mode
370
     0
100
AcDbVertex
100
AcDb2dVertex
 10
320.5096919032439
 20
482.3010000000004
 30
0.0
  0
VERTEX
  5
F6
330
EC
100
AcDbEntity
  8
Isolation Mode
370
     0
100
AcDbVertex
100
AcDb2dVertex
 10
320.3172919081044
 20
482.3022878160191
 30
0.0
  0
VERTEX
  5
F7
330
EC
100
AcDbEntity
  8
Isolation Mode
370
     0
100
AcDbVertex
100
AcDb2dVertex
 10
320.5484919022638
 20
482.6402878074814
 30
0.0
  0
VERTEX
  5
F8
330
EC
100
AcDbEntity
  8
Isolation Mode
370
     0
100
AcDbVertex
100
AcDb2dVertex
 10
320.0776919141572
 20
482.6436878073946
 30
0.0
  0
VERTEX
  5
F9
330
EC
100
AcDbEntity
  8
Isolation Mode
370
     0
100
AcDbVertex
100
AcDb2dVertex
 10
320.0788919141269
 20
482.8025878033804
 30
0.0
  0
VERTEX
  5
FA
330
EC
100
AcDbEntity
  8
Isolation Mode
370
     0
100
AcDbVertex
100
AcDb2dVertex
 10
320.6355919000634
 20
482.7985878034824
 30
0.0
  0
VERTEX
  5
FB
330
EC
100
AcDbEntity
  8
Isolation Mode
370
     0
100
AcDbVertex
100
AcDb2dVertex
 10
320.8430918948216
 20
483.0740877965218
 30
0.0
  0
VERTEX
  5
FC
330
EC
100
AcDbEntity
  8
Isolation Mode
370
     0
100
AcDbVertex
100
AcDb2dVertex
 10
320.0807919140789
 20
483.0794877963854
 30
0.0
  0
VERTEX
  5
FD
330
EC
100
AcDbEntity
  8
Isolation Mode
370
     0
100
AcDbVertex
100
AcDb2dVertex
 10
320.0820000000003
 20
483.2383877923712
 30
0.0
  0
VERTEX
  5
FE
330
EC
100
AcDbEntity
  8
Isolation Mode
370
     0
100
AcDbVertex
100
AcDb2dVertex
 10
320.9345918925101
 20
483.2322877925253
 30
0.0
  0
VERTEX
  5
FF
330
EC
100
AcDbEntity
  8
Isolation Mode
370
     0
100
AcDbVertex
100
AcDb2dVertex
 10
321.1643918867048
 20
483.5687877840246
 30
0.0
  0
VERTEX
  5
100
330
EC
100
AcDbEntity
  8
Isolation Mode
370
     0
100
AcDbVertex
100
AcDb2dVertex
 10
321.3582918818065
 20
483.56738778406
 30
0.0
  0
VERTEX
  5
101
330
EC
100
AcDbEntity
  8
Isolation Mode
370
     0
100
AcDbVertex
100
AcDb2dVertex
 10
321.1270000000004
 20
483.2308877925607
 30
0.0
  0
SEQEND
  5
102
330
EC
100
AcDbEntity
  8
Isolation Mode
370
     0
  0
MTEXT
  5
103
330
D9
100
AcDbEntity
  8
Isolation Mode
 62
    18
420
        0
100
AcDbMText
 10
317.7658462524414
 20
480.3897819519043
 30
0.0
 40
0.9203999662399291
 41
0.0
 46
0.0
 71
     7
 72
     1
  1
\fHelvetica LT Std Condensed|b0|i0|c0|p34;\W1;312
 73
     1
 44
1.0
  0
MTEXT
  5
104
330
D9
100
AcDbEntity
  8
Isolation Mode
 62
    18
420
        0
100
AcDbMText
 10
317.0931434631348
 20
484.4294662475586
 30
0.0
 40
0.9203999662399291
 41
0.0
 46
0.0
 71
     7
 72
     1
  1
\fHelvetica LT Std Condensed|b0|i0|c0|p34;\W1;WS22
 73
     1
 44
1.0
  0
POLYLINE
  5
105
330
D9
100
AcDbEntity
  8
Isolation Mode
 62
    18
420
        0
370
     5
100
AcDb2dPolyline
 66
     1
 10
0.0
 20
0.0
 30
0.0
  0
VERTEX
  5
106
330
105
100
AcDbEntity
  8
Isolation Mode
 62
    18
420
        0
370
     5
100
AcDbVertex
100
AcDb2dVertex
 10
318.2673919598892
 20
483.5439999999999
 30
0.0
  0
VERTEX
  5
14D
330
105
100
AcDbEntity
  8
0
100
AcDbVertex
100
AcDb2dVertex
 10
318.2673919598892
 20
483.5439999999999
 30
0.0
  0
SEQEND
  5
107
330
105
100
AcDbEntity
  8
Isolation Mode
 62
    18
420
        0
370
     5
  0
SPLINE
  5
108
330
D9
100
AcDbEntity
  8
Isolation Mode
 62
    18
420
        0
370
     9
100
AcDbSpline
210
0.0
220
0.0
230
1.0
 70
    11
 71
     3
 72
    59
 73
    55
 74
     0
 42
0.0000000001
 43
0.0000000001
 12
1.0
 22
0.0
 32
0.0
 13
1.0
 23
0.0
 33
0.0
 40
0.0
 40
0.0
 40
0.0
 40
0.0
 40
1.0
 40
1.0
 40
1.0
 40
2.0
 40
2.0
 40
2.0
 40
3.0
 40
3.0
 40
3.0
 40
4.0
 40
4.0
 40
4.0
 40
5.0
 40
5.0
 40
5.0
 40
6.0
 40
6.0
 40
6.0
 40
7.0
 40
7.0
 40
7.0
 40
8.0
 40
8.0
 40
8.0
 40
9.0
 40
9.0
 40
9.0
 40
10.0
 40
10.0
 40
10.0
 40
11.0
 40
11.0
 40
11.0
 40
12.0
 40
12.0
 40
12.0
 40
13.0
 40
13.0
 40
13.0
 40
14.0
 40
14.0
 40
14.0
 40
15.0
 40
15.0
 40
15.0
 40
16.0
 40
16.0
 40
16.0
 40
17.0
 40
17.0
 40
17.0
 40
18.0
 40
18.0
 40
18.0
 40
18.0
 10
317.8135919713532
 20
483.5458877846031
 30
0.0
 10
317.8135919713532
 20
483.5458877846031
 30
0.0
 10
318.2673919598892
 20
483.5439999999999
 30
0.0
 10
318.2673919598892
 20
483.5439999999999
 30
0.0
 10
318.2673919598892
 20
483.5439999999999
 30
0.0
 10
318.5306919532377
 20
483.9892877734019
 30
0.0
 10
318.5306919532377
 20
483.9892877734019
 30
0.0
 10
318.5306919532377
 20
483.9892877734019
 30
0.0
 10
318.6237919508858
 20
484.1601877690846
 30
0.0
 10
318.7330000000002
 20
483.9651877740107
 30
0.0
 10
318.7330000000002
 20
483.9651877740107
 30
0.0
 10
318.9780919419354
 20
483.5439999999999
 30
0.0
 10
318.9780919419354
 20
483.5439999999999
 30
0.0
 10
318.9780919419354
 20
483.5439999999999
 30
0.0
 10
319.5114919284606
 20
483.5439999999999
 30
0.0
 10
319.5114919284606
 20
483.5439999999999
 30
0.0
 10
319.5761919268261
 20
483.5413877847168
 30
0.0
 10
319.6544919248481
 20
483.5079999999998
 30
0.0
 10
319.5785919267655
 20
483.4035877881979
 30
0.0
 10
319.5785919267655
 20
483.4035877881979
 30
0.0
 10
319.3362919328865
 20
482.9549999999999
 30
0.0
 10
319.3362919328865
 20
482.9549999999999
 30
0.0
 10
319.3362919328865
 20
482.9549999999999
 30
0.0
 10
319.6055919260834
 20
482.478287811573
 30
0.0
 10
319.6055919260834
 20
482.478287811573
 30
0.0
 10
319.6200919257171
 20
482.4269999999997
 30
0.0
 10
319.611191925942
 20
482.326
 30
0.0
 10
319.4466919300976
 20
482.3360000000002
 30
0.0
 10
319.4466919300976
 20
482.3360000000002
 30
0.0
 10
318.9751919420087
 20
482.3307878152991
 30
0.0
 10
318.9751919420087
 20
482.3307878152991
 30
0.0
 10
318.9751919420087
 20
482.3307878152991
 30
0.0
 10
318.7330000000002
 20
481.892587826369
 30
0.0
 10
318.7330000000002
 20
481.892587826369
 30
0.0
 10
318.7027919488901
 20
481.8519999999999
 30
0.0
 10
318.6319999999996
 20
481.7889999999998
 30
0.0
 10
318.5306919532377
 20
481.8913878263993
 30
0.0
 10
318.5306919532377
 20
481.8913878263993
 30
0.0
 10
318.2399999999998
 20
482.3360000000002
 30
0.0
 10
318.2399999999998
 20
482.3360000000002
 30
0.0
 10
318.2399999999998
 20
482.3360000000002
 30
0.0
 10
317.8050000000003
 20
482.333087815241
 30
0.0
 10
317.8050000000003
 20
482.333087815241
 30
0.0
 10
317.7043919741118
 20
482.3361878151627
 30
0.0
 10
317.6240919761403
 20
482.3637878144655
 30
0.0
 10
317.7129999999997
 20
482.5298878102694
 30
0.0
 10
317.7129999999997
 20
482.5298878102694
 30
0.0
 10
317.9533919678215
 20
482.9549999999999
 30
0.0
 10
317.9533919678215
 20
482.9549999999999
 30
0.0
 10
317.9533919678215
 20
482.9549999999999
 30
0.0
 10
317.6679999999997
 20
483.3866877886248
 30
0.0
 10
317.6679999999997
 20
483.3866877886248
 30
0.0
 10
317.6034919766607
 20
483.5032877856793
 30
0.0
 10
317.6648919751096
 20
483.5439999999999
 30
0.0
 10
317.8135919713532
 20
483.5458877846031
 30
0.0
  0
SPLINE
  5
109
330
D9
100
AcDbEntity
  8
Isolation Mode
 62
    18
420
        0
370
     9
100
AcDbSpline
210
0.0
220
0.0
230
1.0
 70
    11
 71
     3
 72
    17
 73
    13
 74
     0
 42
0.0000000001
 43
0.0000000001
 12
1.0
 22
0.0
 32
0.0
 13
1.0
 23
0.0
 33
0.0
 40
0.0
 40
0.0
 40
0.0
 40
0.0
 40
1.0
 40
1.0
 40
1.0
 40
2.0
 40
2.0
 40
2.0
 40
3.0
 40
3.0
 40
3.0
 40
4.0
 40
4.0
 40
4.0
 40
4.0
 10
319.7517919223901
 20
482.9549999999999
 30
0.0
 10
319.7517919223901
 20
483.5720000000001
 30
0.0
 10
319.2515919350262
 20
484.0721877713077
 30
0.0
 10
318.634591950613
 20
484.0721877713077
 30
0.0
 10
318.0175919661997
 20
484.0721877713077
 30
0.0
 10
317.5174919788333
 20
483.5720000000001
 30
0.0
 10
317.5174919788333
 20
482.9549999999999
 30
0.0
 10
317.5174919788333
 20
482.3380878151147
 30
0.0
 10
318.0175919661997
 20
481.8378878277508
 30
0.0
 10
318.634591950613
 20
481.8378878277508
 30
0.0
 10
319.2515919350262
 20
481.8378878277508
 30
0.0
 10
319.7517919223901
 20
482.3380878151147
 30
0.0
 10
319.7517919223901
 20
482.9549999999999
 30
0.0
  0
POLYLINE
  5
10A
330
D9
100
AcDbEntity
  8
Isolation Mode
370
     0
100
AcDb2dPolyline
 66
     1
 10
0.0
 20
0.0
 30
0.0
  0
VERTEX
  5
10B
330
10A
100
AcDbEntity
  8
Isolation Mode
370
     0
100
AcDbVertex
100
AcDb2dVertex
 10
324.2837918079022
 20
479.9418878756478
 30
0.0
  0
VERTEX
  5
10C
330
10A
100
AcDbEntity
  8
Isolation Mode
370
     0
100
AcDbVertex
100
AcDb2dVertex
 10
324.1185918120755
 20
479.6025878842192
 30
0.0
  0
VERTEX
  5
10D
330
10A
100
AcDbEntity
  8
Isolation Mode
370
     0
100
AcDbVertex
100
AcDb2dVertex
 10
324.0047918149503
 20
479.6580878828172
 30
0.0
  0
VERTEX
  5
10E
330
10A
100
AcDbEntity
  8
Isolation Mode
370
     0
100
AcDbVertex
100
AcDb2dVertex
 10
324.2000918100166
 20
480.0588878726921
 30
0.0
  0
VERTEX
  5
10F
330
10A
100
AcDbEntity
  8
Isolation Mode
370
     0
100
AcDbVertex
100
AcDb2dVertex
 10
324.0743918131921
 20
480.3047878664802
 30
0.0
  0
VERTEX
  5
110
330
10A
100
AcDbEntity
  8
Isolation Mode
370
     0
100
AcDbVertex
100
AcDb2dVertex
 10
323.8064918199598
 20
479.7546878803769
 30
0.0
  0
VERTEX
  5
111
330
10A
100
AcDbEntity
  8
Isolation Mode
370
     0
100
AcDbVertex
100
AcDb2dVertex
 10
323.6926918228346
 20
479.8100878789774
 30
0.0
  0
VERTEX
  5
112
330
10A
100
AcDbEntity
  8
Isolation Mode
370
     0
100
AcDbVertex
100
AcDb2dVertex
 10
323.9911918152939
 20
480.4228878634967
 30
0.0
  0
VERTEX
  5
113
330
10A
100
AcDbEntity
  8
Isolation Mode
370
     0
100
AcDbVertex
100
AcDb2dVertex
 10
323.8277918194217
 20
480.7051878563652
 30
0.0
  0
VERTEX
  5
114
330
10A
100
AcDbEntity
  8
Isolation Mode
370
     0
100
AcDbVertex
100
AcDb2dVertex
 10
323.8948918177266
 20
480.8429999999998
 30
0.0
  0
VERTEX
  5
115
330
10A
100
AcDbEntity
  8
Isolation Mode
370
     0
100
AcDbVertex
100
AcDb2dVertex
 10
324.0582918135988
 20
480.5605878600181
 30
0.0
  0
VERTEX
  5
116
330
10A
100
AcDbEntity
  8
Isolation Mode
370
     0
100
AcDbVertex
100
AcDb2dVertex
 10
324.2224918094507
 20
480.8977878514997
 30
0.0
  0
VERTEX
  5
117
330
10A
100
AcDbEntity
  8
Isolation Mode
370
     0
100
AcDbVertex
100
AcDb2dVertex
 10
324.3362918065759
 20
480.8423878528993
 30
0.0
  0
VERTEX
  5
118
330
10A
100
AcDbEntity
  8
Isolation Mode
370
     0
100
AcDbVertex
100
AcDb2dVertex
 10
324.1420918114818
 20
480.4435878629738
 30
0.0
  0
VERTEX
  5
119
330
10A
100
AcDbEntity
  8
Isolation Mode
370
     0
100
AcDbVertex
100
AcDb2dVertex
 10
324.2686918082836
 20
480.1997878691327
 30
0.0
  0
VERTEX
  5
11A
330
10A
100
AcDbEntity
  8
Isolation Mode
370
     0
100
AcDbVertex
100
AcDb2dVertex
 10
324.5346918015639
 20
480.7457878553396
 30
0.0
  0
VERTEX
  5
11B
330
10A
100
AcDbEntity
  8
Isolation Mode
370
     0
100
AcDbVertex
100
AcDb2dVertex
 10
324.6483917986916
 20
480.6902878567416
 30
0.0
  0
VERTEX
  5
11C
330
10A
100
AcDbEntity
  8
Isolation Mode
370
     0
100
AcDbVertex
100
AcDb2dVertex
 10
324.3510000000006
 20
480.0796878721667
 30
0.0
  0
VERTEX
  5
11D
330
10A
100
AcDbEntity
  8
Isolation Mode
370
     0
100
AcDbVertex
100
AcDb2dVertex
 10
324.5137918020919
 20
479.7988878792603
 30
0.0
  0
VERTEX
  5
11E
330
10A
100
AcDbEntity
  8
Isolation Mode
370
     0
100
AcDbVertex
100
AcDb2dVertex
 10
324.4461918037996
 20
479.6599999999999
 30
0.0
  0
VERTEX
  5
11F
330
10A
100
AcDbEntity
  8
Isolation Mode
370
     0
100
AcDbVertex
100
AcDb2dVertex
 10
324.2837918079022
 20
479.9418878756478
 30
0.0
  0
SEQEND
  5
120
330
10A
100
AcDbEntity
  8
Isolation Mode
370
     0
  0
SPLINE
  5
121
330
D9
100
AcDbEntity
  8
Isolation Mode
 62
    18
420
        0
370
     9
100
AcDbSpline
210
0.0
220
0.0
230
1.0
 70
    11
 71
     3
 72
    20
 73
    16
 74
     0
 42
0.0000000001
 43
0.0000000001
 12
1.0
 22
0.0
 32
0.0
 13
1.0
 23
0.0
 33
0.0
 40
0.0
 40
0.0
 40
0.0
 40
0.0
 40
1.0
 40
1.0
 40
1.0
 40
2.0
 40
2.0
 40
2.0
 40
3.0
 40
3.0
 40
3.0
 40
4.0
 40
4.0
 40
4.0
 40
5.0
 40
5.0
 40
5.0
 40
5.0
 10
313.6732920759459
 20
486.9105876996036
 30
0.0
 10
313.6732920759459
 20
486.9902876975902
 30
0.0
 10
313.737892074314
 20
487.0548876959583
 30
0.0
 10
313.8175920723006
 20
487.0548876959583
 30
0.0
 10
313.8972920702872
 20
487.0548876959583
 30
0.0
 10
313.9619999999995
 20
486.9902876975902
 30
0.0
 10
313.9619999999995
 20
486.9105876996036
 30
0.0
 10
313.9619999999995
 20
486.830887701617
 30
0.0
 10
313.8972920702872
 20
486.766287703249
 30
0.0
 10
313.8175920723006
 20
486.766287703249
 30
0.0
 10
313.737892074314
 20
486.766287703249
 30
0.0
 10
313.6732920759459
 20
486.830887701617
 30
0.0
 10
313.6732920759459
 20
486.9105876996036
 30
0.0
 10
313.6732920759459
 20
486.9105876996036
 30
0.0
 10
313.6732920759459
 20
486.9105876996036
 30
0.0
 10
313.6732920759459
 20
486.9105876996036
 30
0.0
  0
SPLINE
  5
122
330
D9
100
AcDbEntity
  8
Isolation Mode
 62
    18
420
        0
370
     9
100
AcDbSpline
210
0.0
220
0.0
230
1.0
 70
    11
 71
     3
 72
    20
 73
    16
 74
     0
 42
0.0000000001
 43
0.0000000001
 12
1.0
 22
0.0
 32
0.0
 13
1.0
 23
0.0
 33
0.0
 40
0.0
 40
0.0
 40
0.0
 40
0.0
 40
1.0
 40
1.0
 40
1.0
 40
2.0
 40
2.0
 40
2.0
 40
3.0
 40
3.0
 40
3.0
 40
4.0
 40
4.0
 40
4.0
 40
5.0
 40
5.0
 40
5.0
 40
5.0
 10
313.1655920887715
 20
486.0351877217181
 30
0.0
 10
313.1655920887715
 20
486.1148877197047
 30
0.0
 10
313.2301920871396
 20
486.1794877180728
 30
0.0
 10
313.3098920851262
 20
486.1794877180728
 30
0.0
 10
313.3895920831128
 20
486.1794877180728
 30
0.0
 10
313.4541920814809
 20
486.1148877197047
 30
0.0
 10
313.4541920814809
 20
486.0351877217181
 30
0.0
 10
313.4541920814809
 20
485.9554877237324
 30
0.0
 10
313.3895920831128
 20
485.8908877253634
 30
0.0
 10
313.3098920851262
 20
485.8908877253634
 30
0.0
 10
313.2301920871396
 20
485.8908877253634
 30
0.0
 10
313.1655920887715
 20
485.9554877237324
 30
0.0
 10
313.1655920887715
 20
486.0351877217181
 30
0.0
 10
313.1655920887715
 20
486.0351877217181
 30
0.0
 10
313.1655920887715
 20
486.0351877217181
 30
0.0
 10
313.1655920887715
 20
486.0351877217181
 30
0.0
  0
SPLINE
  5
123
330
D9
100
AcDbEntity
  8
Isolation Mode
 62
    18
420
        0
370
     9
100
AcDbSpline
210
0.0
220
0.0
230
1.0
 70
    11
 71
     3
 72
    20
 73
    16
 74
     0
 42
0.0000000001
 43
0.0000000001
 12
1.0
 22
0.0
 32
0.0
 13
1.0
 23
0.0
 33
0.0
 40
0.0
 40
0.0
 40
0.0
 40
0.0
 40
1.0
 40
1.0
 40
1.0
 40
2.0
 40
2.0
 40
2.0
 40
3.0
 40
3.0
 40
3.0
 40
4.0
 40
4.0
 40
4.0
 40
5.0
 40
5.0
 40
5.0
 40
5.0
 10
312.6577921015996
 20
485.1596877438351
 30
0.0
 10
312.6577921015996
 20
485.2393877418217
 30
0.0
 10
312.7223920999677
 20
485.3040000000001
 30
0.0
 10
312.8020920979543
 20
485.3040000000001
 30
0.0
 10
312.8817920959409
 20
485.3040000000001
 30
0.0
 10
312.946392094309
 20
485.2393877418217
 30
0.0
 10
312.946392094309
 20
485.1596877438351
 30
0.0
 10
312.946392094309
 20
485.0799999999999
 30
0.0
 10
312.8817920959409
 20
485.0153877474804
 30
0.0
 10
312.8020920979543
 20
485.0153877474804
 30
0.0
 10
312.7223920999677
 20
485.0153877474804
 30
0.0
 10
312.6577921015996
 20
485.0799999999999
 30
0.0
 10
312.6577921015996
 20
485.1596877438351
 30
0.0
 10
312.6577921015996
 20
485.1596877438351
 30
0.0
 10
312.6577921015996
 20
485.1596877438351
 30
0.0
 10
312.6577921015996
 20
485.1596877438351
 30
0.0
  0
INSERT
  5
125
330
D9
100
AcDbEntity
  8
Isolation Mode
100
AcDbBlockReference
  2
block 9
 10
0.0
 20
0.0
 30
0.0
  0
ENDBLK
  5
DC
330
D9
100
AcDbEntity
  8
0
100
AcDbBlockEnd
  0
BLOCK
  5
126
330
124
100
AcDbEntity
  8
0
100
AcDbBlockBegin
  2
block 9
 70
     0
 10
0.0
 20
0.0
 30
0.0
  3
block 9
  1

  0
SPLINE
  5
128
330
124
100
AcDbEntity
  8
Isolation Mode
370
     0
100
AcDbSpline
210
0.0
220
0.0
230
1.0
 70
    11
 71
     3
 72
    38
 73
    34
 74
     0
 42
0.0000000001
 43
0.0000000001
 12
1.0
 22
0.0
 32
0.0
 13
1.0
 23
0.0
 33
0.0
 40
0.0
 40
0.0
 40
0.0
 40
0.0
 40
1.0
 40
1.0
 40
1.0
 40
2.0
 40
2.0
 40
2.0
 40
3.0
 40
3.0
 40
3.0
 40
4.0
 40
4.0
 40
4.0
 40
5.0
 40
5.0
 40
5.0
 40
6.0
 40
6.0
 40
6.0
 40
7.0
 40
7.0
 40
7.0
 40
8.0
 40
8.0
 40
8.0
 40
9.0
 40
9.0
 40
9.0
 40
10.0
 40
10.0
 40
10.0
 40
11.0
 40
11.0
 40
11.0
 40
11.0
 10
315.8024920221578
 20
482.4813878114946
 30
0.0
 10
315.8024920221578
 20
482.4813878114946
 30
0.0
 10
315.7986920222538
 20
482.4453878124041
 30
0.0
 10
315.7986920222538
 20
482.4453878124041
 30
0.0
 10
315.7986920222538
 20
482.4453878124041
 30
0.0
 10
315.8333920213772
 20
482.4347878126719
 30
0.0
 10
315.8333920213772
 20
482.4347878126719
 30
0.0
 10
315.8461920210539
 20
482.4308878127704
 30
0.0
 10
316.1484920134171
 20
482.3369999999995
 30
0.0
 10
316.4326920062376
 20
482.3401878150617
 30
0.0
 10
316.7720919976637
 20
482.3437878149707
 30
0.0
 10
316.9566919930003
 20
482.462887811962
 30
0.0
 10
316.9642919928083
 20
482.4677878118382
 30
0.0
 10
316.9642919928083
 20
482.4677878118382
 30
0.0
 10
316.9872919922273
 20
482.4830878114517
 30
0.0
 10
316.9872919922273
 20
482.4830878114517
 30
0.0
 10
316.9872919922273
 20
482.4830878114517
 30
0.0
 10
316.9838919923131
 20
482.5102878107646
 30
0.0
 10
316.9838919923131
 20
482.5102878107646
 30
0.0
 10
316.9830000000002
 20
482.5196878105271
 30
0.0
 10
316.9535919930786
 20
482.7418878049139
 30
0.0
 10
316.782091997411
 20
483.0094877981537
 30
0.0
 10
316.610492001746
 20
483.2777877913759
 30
0.0
 10
316.4123920067505
 20
483.3963877883798
 30
0.0
 10
316.4038920069652
 20
483.4011877882585
 30
0.0
 10
316.4038920069652
 20
483.4011877882585
 30
0.0
 10
316.3782920076119
 20
483.4161877878796
 30
0.0
 10
316.3782920076119
 20
483.4161877878796
 30
0.0
 10
316.3782920076119
 20
483.4161877878796
 30
0.0
 10
316.3547920082055
 20
483.3986877883217
 30
0.0
 10
316.3547920082055
 20
483.3986877883217
 30
0.0
 10
316.3345920087158
 20
483.3834877887057
 30
0.0
 10
315.8600920207027
 20
483.0240877977849
 30
0.0
 10
315.8024920221578
 20
482.4813878114946
 30
0.0
  0
SPLINE
  5
129
330
124
100
AcDbEntity
  8
Isolation Mode
370
     0
100
AcDbSpline
210
0.0
220
0.0
230
1.0
 70
    11
 71
     3
 72
    23
 73
    19
 74
     0
 42
0.0000000001
 43
0.0000000001
 12
1.0
 22
0.0
 32
0.0
 13
1.0
 23
0.0
 33
0.0
 40
0.0
 40
0.0
 40
0.0
 40
0.0
 40
1.0
 40
1.0
 40
1.0
 40
2.0
 40
2.0
 40
2.0
 40
3.0
 40
3.0
 40
3.0
 40
4.0
 40
4.0
 40
4.0
 40
5.0
 40
5.0
 40
5.0
 40
6.0
 40
6.0
 40
6.0
 40
6.0
 10
316.3836920074755
 20
483.3078877906164
 30
0.0
 10
316.4057920069172
 20
483.2928877909944
 30
0.0
 10
316.4392920060709
 20
483.2683877916133
 30
0.0
 10
316.4895920048002
 20
483.2221877927805
 30
0.0
 10
316.5540920031708
 20
483.1628877942794
 30
0.0
 10
316.6337920011574
 20
483.0766877964561
 30
0.0
 10
316.7074919992956
 20
482.9615877993638
 30
0.0
 10
316.8368919960267
 20
482.7600000000002
 30
0.0
 10
316.8786919949707
 20
482.5894878087638
 30
0.0
 10
316.8904919946726
 20
482.5283878103073
 30
0.0
 10
316.8372919960166
 20
482.5002878110172
 30
0.0
 10
316.682891999917
 20
482.4316878127502
 30
0.0
 10
316.4315920062654
 20
482.4287878128234
 30
0.0
 10
316.211792011818
 20
482.4266878128774
 30
0.0
 10
315.9813920176384
 20
482.4852878113961
 30
0.0
 10
315.8985920197301
 20
482.5082878108151
 30
0.0
 10
315.9606920181614
 20
482.9279999999999
 30
0.0
 10
316.2933920097566
 20
483.2325877925177
 30
0.0
 10
316.3836920074755
 20
483.3078877906164
 30
0.0
  0
ENDBLK
  5
127
330
124
100
AcDbEntity
  8
0
100
AcDbBlockEnd
  0
BLOCK
  5
12D
330
12B
100
AcDbEntity
  8
0
100
AcDbBlockBegin
  2
block 10
 70
     0
 10
0.0
 20
0.0
 30
0.0
  3
block 10
  1

  0
POLYLINE
  5
12F
330
12B
100
AcDbEntity
  8
Layer 5
  6
AI-Linetype-1
 62
   250
420
  2301728
370
    35
100
AcDb2dPolyline
 66
     1
 10
0.0
 20
0.0
 30
0.0
  0
VERTEX
  5
130
330
12F
100
AcDbEntity
  8
Layer 5
  6
AI-Linetype-1
 62
   250
420
  2301728
370
    35
100
AcDbVertex
100
AcDb2dVertex
 10
305.8819149089522
 20
506.4541872058908
 30
0.0
  0
VERTEX
  5
131
330
12F
100
AcDbEntity
  8
Layer 5
  6
AI-Linetype-1
 62
   250
420
  2301728
370
    35
100
AcDbVertex
100
AcDb2dVertex
 10
223.4887299496177
 20
423.613047390596
 30
0.0
  0
SEQEND
  5
133
330
12F
100
AcDbEntity
  8
Layer 5
  6
AI-Linetype-1
 62
   250
420
  2301728
370
    35
  0
POLYLINE
  5
134
330
12B
100
AcDbEntity
  8
Layer 5
  6
AI-Linetype-2
 62
   250
420
  2301728
370
    35
100
AcDb2dPolyline
 66
     1
 10
0.0
 20
0.0
 30
0.0
  0
VERTEX
  5
135
330
134
100
AcDbEntity
  8
Layer 5
  6
AI-Linetype-2
 62
   250
420
  2301728
370
    35
100
AcDbVertex
100
AcDb2dVertex
 10
292.5725869388243
 20
420.945683695847
 30
0.0
  0
VERTEX
  5
136
330
134
100
AcDbEntity
  8
Layer 5
  6
AI-Linetype-2
 62
   250
420
  2301728
370
    35
100
AcDbVertex
100
AcDb2dVertex
 10
377.4417928799121
 20
506.5145815341948
 30
0.0
  0
SEQEND
  5
138
330
134
100
AcDbEntity
  8
Layer 5
  6
AI-Linetype-2
 62
   250
420
  2301728
370
    35
  0
ENDBLK
  5
12E
330
12B
100
AcDbEntity
  8
0
100
AcDbBlockEnd
  0
ENDSEC
  0
SECTION
  2
ENTITIES
  0
INSERT
  5
42
330
1F
100
AcDbEntity
  8
Wood
100
AcDbBlockReference
  2
block 2
 10
0.0
 20
0.0
 30
0.0
  0
INSERT
  5
52
330
1F
100
AcDbEntity
  8
Wood
100
AcDbBlockReference
  2
block 3
 10
0.0
 20
0.0
 30
0.0
  0
POLYLINE
  5
67
330
1F
100
AcDbEntity
  8
Wood
 62
   250
420
  2301728
370
    35
100
AcDb2dPolyline
 66
     1
 10
0.0
 20
0.0
 30
0.0
  0
VERTEX
  5
68
330
67
100
AcDbEntity
  8
Wood
 62
   250
420
  2301728
370
    35
100
AcDbVertex
100
AcDb2dVertex
 10
141.7483964191342
 20
420.885289367543
 30
0.0
  0
VERTEX
  5
69
330
67
100
AcDbEntity
  8
Wood
 62
   250
420
  2301728
370
    35
100
AcDbVertex
100
AcDb2dVertex
 10
141.7483964191342
 20
413.2301895609271
 30
0.0
  0
SEQEND
  5
6A
330
67
100
AcDbEntity
  8
Wood
 62
   250
420
  2301728
370
    35
  0
POLYLINE
  5
6B
330
1F
100
AcDbEntity
  8
Wood
 62
   250
420
  2301728
370
    35
100
AcDb2dPolyline
 66
     1
 10
0.0
 20
0.0
 30
0.0
  0
VERTEX
  5
6C
330
6B
100
AcDbEntity
  8
Wood
 62
   250
420
  2301728
370
    35
100
AcDbVertex
100
AcDb2dVertex
 10
141.7483964191342
 20
514.1487870115088
 30
0.0
  0
VERTEX
  5
6D
330
6B
100
AcDbEntity
  8
Wood
 62
   250
420
  2301728
370
    35
100
AcDbVertex
100
AcDb2dVertex
 10
141.7483964191342
 20
506.4541872058908
 30
0.0
  0
SEQEND
  5
6E
330
6B
100
AcDbEntity
  8
Wood
 62
   250
420
  2301728
370
    35
  0
POLYLINE
  5
6F
330
1F
100
AcDbEntity
  8
Wood
 62
   250
420
  2301728
370
    35
100
AcDb2dPolyline
 66
     1
 10
0.0
 20
0.0
 30
0.0
  0
VERTEX
  5
70
330
6F
100
AcDbEntity
  8
Wood
 62
   250
420
  2301728
370
    35
100
AcDbVertex
100
AcDb2dVertex
 10
208.6243947297044
 20
336.9974914867271
 30
0.0
  0
VERTEX
  5
71
330
6F
100
AcDbEntity
  8
Wood
 62
   250
420
  2301728
370
    35
100
AcDbVertex
100
AcDb2dVertex
 10
212.4399999999996
 20
333.1666915835012
 30
0.0
  0
SEQEND
  5
72
330
6F
100
AcDbEntity
  8
Wood
 62
   250
420
  2301728
370
    35
  0
POLYLINE
  5
73
330
1F
100
AcDbEntity
  8
Wood
 62
   250
420
  2301728
370
    35
100
AcDb2dPolyline
 66
     1
 10
0.0
 20
0.0
 30
0.0
  0
VERTEX
  5
74
330
73
100
AcDbEntity
  8
Wood
 62
   250
420
  2301728
370
    35
100
AcDbVertex
100
AcDb2dVertex
 10
168.0740957540911
 20
377.7096904582504
 30
0.0
  0
VERTEX
  5
75
330
73
100
AcDbEntity
  8
Wood
 62
   250
420
  2301728
370
    35
100
AcDbVertex
100
AcDb2dVertex
 10
172.7194956367384
 20
373.045690576073
 30
0.0
  0
SEQEND
  5
76
330
73
100
AcDbEntity
  8
Wood
 62
   250
420
  2301728
370
    35
  0
POLYLINE
  5
77
330
1F
100
AcDbEntity
  8
Wood
 62
   250
420
  2301728
370
    35
100
AcDb2dPolyline
 66
     1
 10
0.0
 20
0.0
 30
0.0
  0
VERTEX
  5
78
330
77
100
AcDbEntity
  8
Wood
 62
   250
420
  2301728
370
    35
100
AcDbVertex
100
AcDb2dVertex
 10
412.1354895885815
 20
420.885289367543
 30
0.0
  0
VERTEX
  5
79
330
77
100
AcDbEntity
  8
Wood
 62
   250
420
  2301728
370
    35
100
AcDbVertex
100
AcDb2dVertex
 10
412.1354895885815
 20
413.2301895609271
 30
0.0
  0
SEQEND
  5
7A
330
77
100
AcDbEntity
  8
Wood
 62
   250
420
  2301728
370
    35
  0
POLYLINE
  5
7B
330
1F
100
AcDbEntity
  8
Wood
 62
   250
420
  2301728
370
    35
100
AcDb2dPolyline
 66
     1
 10
0.0
 20
0.0
 30
0.0
  0
VERTEX
  5
7C
330
7B
100
AcDbEntity
  8
Wood
 62
   250
420
  2301728
370
    35
100
AcDbVertex
100
AcDb2dVertex
 10
412.1354895885815
 20
514.1487870115088
 30
0.0
  0
VERTEX
  5
7D
330
7B
100
AcDbEntity
  8
Wood
 62
   250
420
  2301728
370
    35
100
AcDbVertex
100
AcDb2dVertex
 10
412.1354895885815
 20
506.4541872058908
 30
0.0
  0
SEQEND
  5
7E
330
7B
100
AcDbEntity
  8
Wood
 62
   250
420
  2301728
370
    35
  0
INSERT
  5
81
330
1F
100
AcDbEntity
  8
Isolation Mode
100
AcDbBlockReference
  2
block 4
 10
0.0
 20
0.0
 30
0.0
  0
INSERT
  5
89
330
1F
100
AcDbEntity
  8
Isolation Mode
100
AcDbBlockReference
  2
block 6
 10
0.0
 20
0.0
 30
0.0
  0
INSERT
  5
DA
330
1F
100
AcDbEntity
  8
Isolation Mode
100
AcDbBlockReference
  2
block 8
 10
0.0
 20
0.0
 30
0.0
  0
INSERT
  5
12C
330
1F
100
AcDbEntity
  8
Layer 5
100
AcDbBlockReference
  2
block 10
 10
0.0
 20
0.0
 30
0.0
  0
MTEXT
  5
13A
330
1F
100
AcDbEntity
  8
Layer 6
 62
   250
420
  2236191
100
AcDbMText
 10
179.9640426635742
 20
279.8120422363281
 30
0.0
 40
8.495999999999999
 41
0.0
 46
0.0
 71
     7
 72
     1
  1
\fHelvetica Neue LT Std 55 Roman|b0|i0|c0|p34;\W1;SIMPSON Strong-Tie\H4.95317;®\H8.496; STN22 & SDWS ^C
 73
     1
 44
1.0
  0
MTEXT
  5
13B
330
1F
100
AcDbEntity
  8
Layer 6
 62
   250
420
  2236191
100
AcDbMText
 10
185.8766403198242
 20
265.4126281738281
 30
0.0
 40
8.495999999999999
 41
0.0
 46
0.0
 71
     7
 72
     1
  1
\fHelvetica Neue LT Std 55 Roman|b0|i0|c0|p34;\W1;Timber Brace Connection with Beam 
 73
     1
 44
1.0
  0
MTEXT
  5
13C
330
1F
100
AcDbEntity
  8
Layer 6
 62
   250
420
  2236191
100
AcDbMText
 10
344.3870544433594
 20
392.4274425506592
 30
0.0
 40
8.495999999999999
 41
0.0
 46
0.0
 71
     7
 72
     1
  1
\fHelvetica Neue LT Std 57 Condensed|b0|i0|c0|p34;\W1;Beam
 73
     1
 44
1.0
  0
MTEXT
  5
13D
330
1F
100
AcDbEntity
  8
Layer 6
 62
   250
420
  2236191
100
AcDbMText
 10
241.8064193725586
 20
332.0403442382812
 30
0.0
 40
8.495999999999999
 41
0.0
 46
0.0
 71
     7
 72
     1
  1
\fHelvetica Neue LT Std 57 Condensed|b0|i0|c0|p34;\W1;Bracing Timber
 73
     1
 44
1.0
  0
MTEXT
  5
13E
330
1F
100
AcDbEntity
  8
Layer 6
 62
   250
420
  2236191
100
AcDbMText
 10
264.6852493286133
 20
367.442741394043
 30
0.0
 40
8.495999999999999
 41
0.0
 46
0.0
 71
     7
 72
     1
  1
\fHelvetica Neue LT Std 57 Condensed|b0|i0|c0|p34;\W1;APDMW56 Decorative Washer with 
 73
     1
 44
1.0
  0
MTEXT
  5
13F
330
1F
100
AcDbEntity
  8
Layer 6
 62
   250
420
  2236191
100
AcDbMText
 10
264.6852493286133
 20
350.771842956543
 30
0.0
 40
8.495999999999999
 41
0.0
 46
0.0
 71
     7
 72
     1
  1
\fHelvetica Neue LT Std 57 Condensed|b0|i0|c0|p34;\W1;STN22 Hex-Head Washer & SDWS Screw
 73
     1
 44
1.0
  0
POLYLINE
  5
140
330
1F
100
AcDbEntity
  8
Layer 6
 62
   250
420
  2236191
370
    18
100
AcDb2dPolyline
 66
     1
 10
0.0
 20
0.0
 30
0.0
  0
VERTEX
  5
141
330
140
100
AcDbEntity
  8
Layer 6
 62
   250
420
  2236191
370
    18
100
AcDbVertex
100
AcDb2dVertex
 10
348.8387096774186
 20
406.322580645161
 30
0.0
  0
VERTEX
  5
142
330
140
100
AcDbEntity
  8
Layer 6
 62
   250
420
  2236191
370
    18
100
AcDbVertex
100
AcDb2dVertex
 10
339.9354838709678
 20
420.885289367543
 30
0.0
  0
SEQEND
  5
143
330
140
100
AcDbEntity
  8
Layer 6
 62
   250
420
  2236191
370
    18
  0
POLYLINE
  5
144
330
1F
100
AcDbEntity
  8
Layer 6
 62
   250
420
  2236191
370
    18
100
AcDb2dPolyline
 66
     1
 10
0.0
 20
0.0
 30
0.0
  0
VERTEX
  5
145
330
144
100
AcDbEntity
  8
Layer 6
 62
   250
420
  2236191
370
    18
100
AcDbVertex
100
AcDb2dVertex
 10
237.1287767716331
 20
339.9046012849394
 30
0.0
  0
VERTEX
  5
146
330
144
100
AcDbEntity
  8
Layer 6
 62
   250
420
  2236191
370
    18
100
AcDbVertex
100
AcDb2dVertex
 10
228.2255509651823
 20
354.4673100073214
 30
0.0
  0
SEQEND
  5
147
330
144
100
AcDbEntity
  8
Layer 6
 62
   250
420
  2236191
370
    18
  0
POLYLINE
  5
148
330
1F
100
AcDbEntity
  8
Layer 6
 62
   250
420
  2236191
370
    18
100
AcDb2dPolyline
 66
     1
 10
0.0
 20
0.0
 30
0.0
  0
VERTEX
  5
149
330
148
100
AcDbEntity
  8
Layer 6
 62
   250
420
  2236191
370
    18
100
AcDbVertex
100
AcDb2dVertex
 10
289.0735929438179
 20
386.967741935483
 30
0.0
  0
VERTEX
  5
14A
330
148
100
AcDbEntity
  8
Layer 6
 62
   250
420
  2236191
370
    18
100
AcDbVertex
100
AcDb2dVertex
 10
280.2567929201177
 20
428.2270380570371
 30
0.0
  0
SEQEND
  5
14B
330
148
100
AcDbEntity
  8
Layer 6
 62
   250
420
  2236191
370
    18
  0
ENDSEC
  0
SECTION
  2
OBJECTS
  0
DICTIONARY
  5
C
330
0
100
AcDbDictionary
281
     1
  3
ACAD_GROUP
350
D
  3
ACAD_LAYOUT
350
1A
  3
ACAD_MATERIAL
350
3B
  3
ACAD_MLEADERSTYLE
350
14F
  3
ACAD_MLINESTYLE
350
17
  3
ACAD_PLOTSETTINGS
350
19
  3
ACAD_PLOTSTYLENAME
350
E
  3
ACAD_TABLESTYLE
350
14E
  3
ACAD_VISUALSTYLE
350
2A
  0
SUN
  5
3F
330
29
100
AcDbSun
 90
        1
290
     0
 63
     7
421
 16777215
 40
1.0
291
     1
 91
  2455826
 92
 54000000
292
     0
 70
     2
 71
   256
280
     1
  0
DICTIONARY
  5
D
102
{ACAD_REACTORS
330
C
102
}
330
C
100
AcDbDictionary
281
     1
  0
DICTIONARY
  5
1A
102
{ACAD_REACTORS
330
C
102
}
330
C
100
AcDbDictionary
281
     1
  3
Layout1
350
1E
  3
Layout2
350
26
  3
Model
350
22
  0
DICTIONARY
  5
3B
102
{ACAD_REACTORS
330
C
102
}
330
C
100
AcDbDictionary
281
     1
  3
ByBlock
350
3D
  3
ByLayer
350
3C
  3
Global
350
3E
  0
DICTIONARY
  5
14F
102
{ACAD_REACTORS
330
C
102
}
330
C
100
AcDbDictionary
281
     1
  0
DICTIONARY
  5
17
102
{ACAD_REACTORS
330
C
102
}
330
C
100
AcDbDictionary
281
     1
  3
Standard
350
18
  0
DICTIONARY
  5
19
102
{ACAD_REACTORS
330
C
102
}
330
C
100
AcDbDictionary
281
     1
  0
ACDBDICTIONARYWDFLT
  5
E
102
{ACAD_REACTORS
330
C
102
}
330
C
100
AcDbDictionary
281
     1
  3
Normal
350
F
100
AcDbDictionaryWithDefault
340
F
  0
DICTIONARY
  5
14E
102
{ACAD_REACTORS
330
C
102
}
330
C
100
AcDbDictionary
281
     1
  0
DICTIONARY
  5
2A
102
{ACAD_REACTORS
330
C
102
}
330
C
100
AcDbDictionary
281
     1
  3
2dWireframe
350
2F
  3
3D Hidden
350
31
  3
3dWireframe
350
30
  3
Basic
350
32
  3
Brighten
350
36
  3
ColorChange
350
3A
  3
Conceptual
350
34
  3
Dim
350
35
  3
Facepattern
350
39
  3
Flat
350
2B
  3
FlatWithEdges
350
2C
  3
Gouraud
350
2D
  3
GouraudWithEdges
350
2E
  3
Linepattern
350
38
  3
Realistic
350
33
  3
Thicken
350
37
  0
LAYOUT
  5
1E
102
{ACAD_REACTORS
330
1A
102
}
330
1A
100
AcDbPlotSettings
  1

  2
none_device
  4

  6

 40
0.0
 41
0.0
 42
0.0
 43
0.0
 44
0.0
 45
0.0
 46
0.0
 47
0.0
 48
0.0
 49
0.0
140
0.0
141
0.0
142
1.0
143
1.0
 70
   688
 72
     0
 73
     0
 74
     5
  7

 75
    16
 76
     0
 77
     2
 78
   300
147
1.0
148
0.0
149
0.0
100
AcDbLayout
  1
Layout1
 70
     1
 71
     1
 10
0.0
 20
0.0
 11
12.0
 21
9.0
 12
0.0
 22
0.0
 32
0.0
 14
1.000000000000000E+20
 24
1.000000000000000E+20
 34
1.000000000000000E+20
 15
-1.000000000000000E+20
 25
-1.000000000000000E+20
 35
-1.000000000000000E+20
146
0.0
 13
0.0
 23
0.0
 33
0.0
 16
1.0
 26
0.0
 36
0.0
 17
0.0
 27
1.0
 37
0.0
 76
     0
330
1B
  0
LAYOUT
  5
26
102
{ACAD_REACTORS
330
1A
102
}
330
1A
100
AcDbPlotSettings
  1

  2
none_device
  4

  6

 40
0.0
 41
0.0
 42
0.0
 43
0.0
 44
0.0
 45
0.0
 46
0.0
 47
0.0
 48
0.0
 49
0.0
140
0.0
141
0.0
142
1.0
143
1.0
 70
   688
 72
     0
 73
     0
 74
     5
  7

 75
    16
 76
     0
 77
     2
 78
   300
147
1.0
148
0.0
149
0.0
100
AcDbLayout
  1
Layout2
 70
     1
 71
     2
 10
0.0
 20
0.0
 11
0.0
 21
0.0
 12
0.0
 22
0.0
 32
0.0
 14
0.0
 24
0.0
 34
0.0
 15
0.0
 25
0.0
 35
0.0
146
0.0
 13
0.0
 23
0.0
 33
0.0
 16
1.0
 26
0.0
 36
0.0
 17
0.0
 27
1.0
 37
0.0
 76
     0
330
23
  0
LAYOUT
  5
22
102
{ACAD_REACTORS
330
1A
102
}
330
1A
100
AcDbPlotSettings
  1

  2
none_device
  4

  6

 40
0.0
 41
0.0
 42
0.0
 43
0.0
 44
0.0
 45
0.0
 46
0.0
 47
0.0
 48
0.0
 49
0.0
140
0.0
141
0.0
142
1.0
143
1.0
 70
  1712
 72
     0
 73
     0
 74
     0
  7

 75
     0
 76
     0
 77
     2
 78
   300
147
1.0
148
0.0
149
0.0
100
AcDbLayout
  1
Model
 70
     1
 71
     0
 10
0.0
 20
0.0
 11
12.0
 21
9.0
 12
0.0
 22
0.0
 32
0.0
 14
1.000000000000000E+20
 24
1.000000000000000E+20
 34
1.000000000000000E+20
 15
-1.000000000000000E+20
 25
-1.000000000000000E+20
 35
-1.000000000000000E+20
146
0.0
 13
0.0
 23
0.0
 33
0.0
 16
1.0
 26
0.0
 36
0.0
 17
0.0
 27
1.0
 37
0.0
 76
     0
330
1F
331
29
  0
MATERIAL
  5
3D
102
{ACAD_REACTORS
330
3B
102
}
330
3B
100
AcDbMaterial
  1
ByBlock
 72
     1
 94
      127
  0
MATERIAL
  5
3C
102
{ACAD_REACTORS
330
3B
102
}
330
3B
100
AcDbMaterial
  1
ByLayer
 72
     1
 94
      127
  0
MATERIAL
  5
3E
102
{ACAD_REACTORS
330
3B
102
}
330
3B
100
AcDbMaterial
  1
Global
 72
     1
 94
      127
  0
MLINESTYLE
  5
18
102
{ACAD_REACTORS
330
17
102
}
330
17
100
AcDbMlineStyle
  2
Standard
 70
     0
  3

 62
   256
 51
90.0
 52
90.0
 71
     2
 49
0.5
 62
   256
  6
BYLAYER
 49
-0.5
 62
   256
  6
BYLAYER
  0
ACDBPLACEHOLDER
  5
F
102
{ACAD_REACTORS
330
E
102
}
330
E
  0
VISUALSTYLE
  5
2F
102
{ACAD_REACTORS
330
2A
102
}
330
2A
100
AcDbVisualStyle
  2
2dWireframe
 70
     4
177
     2
291
     0
 71
     0
176
     1
 72
     2
176
     1
 73
     0
176
     1
 90
        0
176
     1
 40
-0.6
176
     1
 41
-30.0
176
     1
 62
     5
 63
     7
421
 16777215
176
     1
 74
     1
176
     1
 91
        4
176
     1
 64
     7
176
     1
 65
   257
176
     1
 75
     1
176
     1
175
     1
176
     1
 42
1.0
176
     1
 92
        0
176
     1
 66
   257
176
     1
 43
1.0
176
     1
 76
     1
176
     1
 77
     6
176
     1
 78
     2
176
     1
 67
     7
176
     1
 79
     5
176
     1
170
     0
176
     1
171
     0
176
     1
290
     0
176
     1
 93
        1
176
     1
 44
0.0
176
     1
173
     0
176
     1
  0
VISUALSTYLE
  5
31
102
{ACAD_REACTORS
330
2A
102
}
330
2A
100
AcDbVisualStyle
  2
3D Hidden
 70
     6
177
     2
291
     0
 71
     1
176
     1
 72
     2
176
     1
 73
     2
176
     1
 90
        0
176
     1
 40
-0.6
176
     1
 41
-30.0
176
     1
 62
     5
 63
     7
421
 16777215
176
     1
 74
     2
176
     1
 91
        2
176
     1
 64
     7
176
     1
 65
   257
176
     1
 75
     2
176
     1
175
     1
176
     1
 42
40.0
176
     1
 92
        0
176
     1
 66
   257
176
     1
 43
1.0
176
     1
 76
     1
176
     1
 77
     6
176
     1
 78
     2
176
     1
 67
     7
176
     1
 79
     3
176
     1
170
     0
176
     1
171
     0
176
     1
290
     0
176
     1
 93
        1
176
     1
 44
0.0
176
     1
173
     0
176
     1
  0
VISUALSTYLE
  5
30
102
{ACAD_REACTORS
330
2A
102
}
330
2A
100
AcDbVisualStyle
  2
3dWireframe
 70
     5
177
     2
291
     0
 71
     0
176
     1
 72
     2
176
     1
 73
     0
176
     1
 90
        0
176
     1
 40
-0.6
176
     1
 41
-30.0
176
     1
 62
     5
 63
     7
421
 16777215
176
     1
 74
     1
176
     1
 91
        4
176
     1
 64
     7
176
     1
 65
   257
176
     1
 75
     1
176
     1
175
     1
176
     1
 42
1.0
176
     1
 92
        0
176
     1
 66
   257
176
     1
 43
1.0
176
     1
 76
     1
176
     1
 77
     6
176
     1
 78
     2
176
     1
 67
     7
176
     1
 79
     5
176
     1
170
     0
176
     1
171
     0
176
     1
290
     0
176
     1
 93
        1
176
     1
 44
0.0
176
     1
173
     0
176
     1
  0
VISUALSTYLE
  5
32
102
{ACAD_REACTORS
330
2A
102
}
330
2A
100
AcDbVisualStyle
  2
Basic
 70
     7
177
     2
291
     1
 71
     1
176
     1
 72
     0
176
     1
 73
     1
176
     1
 90
        0
176
     1
 40
-0.6
176
     1
 41
-30.0
176
     1
 62
     5
 63
     7
421
 16777215
176
     1
 74
     0
176
     1
 91
        4
176
     1
 64
     7
176
     1
 65
   257
176
     1
 75
     1
176
     1
175
     1
176
     1
 42
1.0
176
     1
 92
        8
176
     1
 66
     7
176
     1
 43
1.0
176
     1
 76
     1
176
     1
 77
     6
176
     1
 78
     2
176
     1
 67
     7
176
     1
 79
     5
176
     1
170
     0
176
     1
171
     0
176
     1
290
     0
176
     1
 93
        1
176
     1
 44
0.0
176
     1
173
     0
176
     1
  0
VISUALSTYLE
  5
36
102
{ACAD_REACTORS
330
2A
102
}
330
2A
100
AcDbVisualStyle
  2
Brighten
 70
    12
177
     2
291
     1
 71
     2
176
     1
 72
     2
176
     1
 73
     0
176
     1
 90
        0
176
     1
 40
-0.6
176
     1
 41
-30.0
176
     1
 62
     5
 63
     7
421
 16777215
176
     1
 74
     1
176
     1
 91
        4
176
     1
 64
     7
176
     1
 65
   257
176
     1
 75
     1
176
     1
175
     1
176
     1
 42
1.0
176
     1
 92
        8
176
     1
 66
     7
176
     1
 43
1.0
176
     1
 76
     1
176
     1
 77
     6
176
     1
 78
     2
176
     1
 67
     7
176
     1
 79
     5
176
     1
170
     0
176
     1
171
     0
176
     1
290
     0
176
     1
 93
        1
176
     1
 44
50.0
176
     1
173
     0
176
     1
  0
VISUALSTYLE
  5
3A
102
{ACAD_REACTORS
330
2A
102
}
330
2A
100
AcDbVisualStyle
  2
ColorChange
 70
    16
177
     2
291
     1
 71
     2
176
     1
 72
     2
176
     1
 73
     3
176
     1
 90
        0
176
     1
 40
-0.6
176
     1
 41
-30.0
176
     1
 62
     5
 63
     8
421
  8421504
176
     1
 74
     1
176
     1
 91
        4
176
     1
 64
     7
176
     1
 65
   257
176
     1
 75
     1
176
     1
175
     1
176
     1
 42
1.0
176
     1
 92
        8
176
     1
 66
     8
424
  8421504
176
     1
 43
1.0
176
     1
 76
     1
176
     1
 77
     6
176
     1
 78
     2
176
     1
 67
     7
176
     1
 79
     5
176
     1
170
     0
176
     1
171
     0
176
     1
290
     0
176
     1
 93
        1
176
     1
 44
0.0
176
     1
173
     0
176
     1
  0
VISUALSTYLE
  5
34
102
{ACAD_REACTORS
330
2A
102
}
330
2A
100
AcDbVisualStyle
  2
Conceptual
 70
     9
177
     2
291
     0
 71
     3
176
     1
 72
     2
176
     1
 73
     0
176
     1
 90
        0
176
     1
 40
-0.6
176
     1
 41
-30.0
176
     1
 62
     5
 63
     7
421
 16777215
176
     1
 74
     2
176
     1
 91
        2
176
     1
 64
     7
176
     1
 65
   257
176
     1
 75
     1
176
     1
175
     1
176
     1
 42
40.0
176
     1
 92
        8
176
     1
 66
     7
176
     1
 43
1.0
176
     1
 76
     1
176
     1
 77
     6
176
     1
 78
     2
176
     1
 67
     7
176
     1
 79
     3
176
     1
170
     0
176
     1
171
     0
176
     1
290
     0
176
     1
 93
        1
176
     1
 44
0.0
176
     1
173
     0
176
     1
  0
VISUALSTYLE
  5
35
102
{ACAD_REACTORS
330
2A
102
}
330
2A
100
AcDbVisualStyle
  2
Dim
 70
    11
177
     2
291
     1
 71
     2
176
     1
 72
     2
176
     1
 73
     0
176
     1
 90
        0
176
     1
 40
-0.6
176
     1
 41
-30.0
176
     1
 62
     5
 63
     7
421
 16777215
176
     1
 74
     1
176
     1
 91
        4
176
     1
 64
     7
176
     1
 65
   257
176
     1
 75
     1
176
     1
175
     1
176
     1
 42
1.0
176
     1
 92
        8
176
     1
 66
     7
176
     1
 43
1.0
176
     1
 76
     1
176
     1
 77
     6
176
     1
 78
     2
176
     1
 67
     7
176
     1
 79
     5
176
     1
170
     0
176
     1
171
     0
176
     1
290
     0
176
     1
 93
        1
176
     1
 44
-50.0
176
     1
173
     0
176
     1
  0
VISUALSTYLE
  5
39
102
{ACAD_REACTORS
330
2A
102
}
330
2A
100
AcDbVisualStyle
  2
Facepattern
 70
    15
177
     2
291
     1
 71
     2
176
     1
 72
     2
176
     1
 73
     0
176
     1
 90
        0
176
     1
 40
-0.6
176
     1
 41
-30.0
176
     1
 62
     5
 63
     7
421
 16777215
176
     1
 74
     1
176
     1
 91
        4
176
     1
 64
     7
176
     1
 65
   257
176
     1
 75
     1
176
     1
175
     1
176
     1
 42
1.0
176
     1
 92
        8
176
     1
 66
     7
176
     1
 43
1.0
176
     1
 76
     1
176
     1
 77
     6
176
     1
 78
     2
176
     1
 67
     7
176
     1
 79
     5
176
     1
170
     0
176
     1
171
     0
176
     1
290
     0
176
     1
 93
        1
176
     1
 44
0.0
176
     1
173
     0
176
     1
  0
VISUALSTYLE
  5
2B
102
{ACAD_REACTORS
330
2A
102
}
330
2A
100
AcDbVisualStyle
  2
Flat
 70
     0
177
     2
291
     1
 71
     2
176
     1
 72
     1
176
     1
 73
     1
176
     1
 90
        2
176
     1
 40
-0.6
176
     1
 41
30.0
176
     1
 62
     5
 63
     7
421
 16777215
176
     1
 74
     0
176
     1
 91
        4
176
     1
 64
     7
176
     1
 65
   257
176
     1
 75
     1
176
     1
175
     1
176
     1
 42
1.0
176
     1
 92
        8
176
     1
 66
     7
176
     1
 43
1.0
176
     1
 76
     1
176
     1
 77
     6
176
     1
 78
     2
176
     1
 67
     7
176
     1
 79
     5
176
     1
170
     0
176
     1
171
     0
176
     1
290
     0
176
     1
 93
       13
176
     1
 44
0.0
176
     1
173
     0
176
     1
  0
VISUALSTYLE
  5
2C
102
{ACAD_REACTORS
330
2A
102
}
330
2A
100
AcDbVisualStyle
  2
FlatWithEdges
 70
     1
177
     2
291
     1
 71
     2
176
     1
 72
     1
176
     1
 73
     1
176
     1
 90
        2
176
     1
 40
-0.6
176
     1
 41
30.0
176
     1
 62
     5
 63
     7
421
 16777215
176
     1
 74
     1
176
     1
 91
        4
176
     1
 64
     7
176
     1
 65
   257
176
     1
 75
     1
176
     1
175
     1
176
     1
 42
1.0
176
     1
 92
        0
176
     1
 66
   257
176
     1
 43
1.0
176
     1
 76
     1
176
     1
 77
     6
176
     1
 78
     2
176
     1
 67
     7
176
     1
 79
     5
176
     1
170
     0
176
     1
171
     0
176
     1
290
     0
176
     1
 93
       13
176
     1
 44
0.0
176
     1
173
     0
176
     1
  0
VISUALSTYLE
  5
2D
102
{ACAD_REACTORS
330
2A
102
}
330
2A
100
AcDbVisualStyle
  2
Gouraud
 70
     2
177
     2
291
     1
 71
     2
176
     1
 72
     2
176
     1
 73
     1
176
     1
 90
        2
176
     1
 40
-0.6
176
     1
 41
30.0
176
     1
 62
     5
 63
     7
421
 16777215
176
     1
 74
     0
176
     1
 91
        4
176
     1
 64
     7
176
     1
 65
   257
176
     1
 75
     1
176
     1
175
     1
176
     1
 42
1.0
176
     1
 92
        0
176
     1
 66
     7
176
     1
 43
1.0
176
     1
 76
     1
176
     1
 77
     6
176
     1
 78
     2
176
     1
 67
     7
176
     1
 79
     5
176
     1
170
     0
176
     1
171
     0
176
     1
290
     0
176
     1
 93
       13
176
     1
 44
0.0
176
     1
173
     0
176
     1
  0
VISUALSTYLE
  5
2E
102
{ACAD_REACTORS
330
2A
102
}
330
2A
100
AcDbVisualStyle
  2
GouraudWithEdges
 70
     3
177
     2
291
     1
 71
     2
176
     1
 72
     2
176
     1
 73
     1
176
     1
 90
        2
176
     1
 40
-0.6
176
     1
 41
30.0
176
     1
 62
     5
 63
     7
421
 16777215
176
     1
 74
     1
176
     1
 91
        4
176
     1
 64
     7
176
     1
 65
   257
176
     1
 75
     1
176
     1
175
     1
176
     1
 42
1.0
176
     1
 92
        0
176
     1
 66
   257
176
     1
 43
1.0
176
     1
 76
     1
176
     1
 77
     6
176
     1
 78
     2
176
     1
 67
     7
176
     1
 79
     5
176
     1
170
     0
176
     1
171
     0
176
     1
290
     0
176
     1
 93
       13
176
     1
 44
0.0
176
     1
173
     0
176
     1
  0
VISUALSTYLE
  5
38
102
{ACAD_REACTORS
330
2A
102
}
330
2A
100
AcDbVisualStyle
  2
Linepattern
 70
    14
177
     2
291
     1
 71
     2
176
     1
 72
     2
176
     1
 73
     0
176
     1
 90
        0
176
     1
 40
-0.6
176
     1
 41
-30.0
176
     1
 62
     5
 63
     7
421
 16777215
176
     1
 74
     1
176
     1
 91
        4
176
     1
 64
     7
176
     1
 65
   257
176
     1
 75
     7
176
     1
175
     7
176
     1
 42
1.0
176
     1
 92
        8
176
     1
 66
     7
176
     1
 43
1.0
176
     1
 76
     1
176
     1
 77
     6
176
     1
 78
     2
176
     1
 67
     7
176
     1
 79
     5
176
     1
170
     0
176
     1
171
     0
176
     1
290
     0
176
     1
 93
        1
176
     1
 44
0.0
176
     1
173
     0
176
     1
  0
VISUALSTYLE
  5
33
102
{ACAD_REACTORS
330
2A
102
}
330
2A
100
AcDbVisualStyle
  2
Realistic
 70
     8
177
     2
291
     0
 71
     2
176
     1
 72
     2
176
     1
 73
     0
176
     1
 90
        0
176
     1
 40
-0.6
176
     1
 41
-30.0
176
     1
 62
     5
 63
     7
421
 16777215
176
     1
 74
     1
176
     1
 91
        0
176
     1
 64
     7
176
     1
 65
   257
176
     1
 75
     1
176
     1
175
     1
176
     1
 42
1.0
176
     1
 92
        8
176
     1
 66
     8
424
  7895160
176
     1
 43
1.0
176
     1
 76
     1
176
     1
 77
     6
176
     1
 78
     2
176
     1
 67
     7
176
     1
 79
     5
176
     1
170
     0
176
     1
171
     0
176
     1
290
     0
176
     1
 93
       13
176
     1
 44
0.0
176
     1
173
     0
176
     1
  0
VISUALSTYLE
  5
37
102
{ACAD_REACTORS
330
2A
102
}
330
2A
100
AcDbVisualStyle
  2
Thicken
 70
    13
177
     2
291
     1
 71
     2
176
     1
 72
     2
176
     1
 73
     0
176
     1
 90
        0
176
     1
 40
-0.6
176
     1
 41
-30.0
176
     1
 62
     5
 63
     7
421
 16777215
176
     1
 74
     1
176
     1
 91
        4
176
     1
 64
     7
176
     1
 65
   257
176
     1
 75
     1
176
     1
175
     1
176
     1
 42
1.0
176
     1
 92
       12
176
     1
 66
     7
176
     1
 43
1.0
176
     1
 76
     1
176
     1
 77
     6
176
     1
 78
     2
176
     1
 67
     7
176
     1
 79
     5
176
     1
170
     0
176
     1
171
     0
176
     1
290
     0
176
     1
 93
        1
176
     1
 44
0.0
176
     1
173
     0
176
     1
  0
ENDSEC
  0
EOF
