  0
SECTION
  2
HEADER
  9
$ACADVER
  1
AC1024
  9
$ACADMAINTVER
 70
     6
  9
$DWGCODEPAGE
  3
ANSI_1252
  9
$INSBASE
 10
0.0
 20
0.0
 30
0.0
  9
$EXTMIN
 10
1.000000000000000E+20
 20
1.000000000000000E+20
 30
1.000000000000000E+20
  9
$EXTMAX
 10
-1.000000000000000E+20
 20
-1.000000000000000E+20
 30
-1.000000000000000E+20
  9
$LIMMIN
 10
0.0
 20
0.0
  9
$LIMMAX
 10
12.0
 20
9.0
  9
$ORTHOMODE
 70
     0
  9
$REGENMODE
 70
     1
  9
$FILLMODE
 70
     1
  9
$QTEXTMODE
 70
     0
  9
$MIRRTEXT
 70
     1
  9
$LTSCALE
 40
1.0
  9
$ATTMODE
 70
     1
  9
$TEXTSIZE
 40
0.2
  9
$TRACEWID
 40
0.05
  9
$TEXTSTYLE
  7
Standard
  9
$CLAYER
  8
0
  9
$CELTYPE
  6
ByLayer
  9
$CECOLOR
 62
   256
  9
$CELTSCALE
 40
1.0
  9
$DISPSILH
 70
     0
  9
$DIMSCALE
 40
1.0
  9
$DIMASZ
 40
0.18
  9
$DIMEXO
 40
0.0625
  9
$DIMDLI
 40
0.38
  9
$DIMRND
 40
0.0
  9
$DIMDLE
 40
0.0
  9
$DIMEXE
 40
0.18
  9
$DIMTP
 40
0.0
  9
$DIMTM
 40
0.0
  9
$DIMTXT
 40
0.18
  9
$DIMCEN
 40
0.09
  9
$DIMTSZ
 40
0.0
  9
$DIMTOL
 70
     0
  9
$DIMLIM
 70
     0
  9
$DIMTIH
 70
     1
  9
$DIMTOH
 70
     1
  9
$DIMSE1
 70
     0
  9
$DIMSE2
 70
     0
  9
$DIMTAD
 70
     0
  9
$DIMZIN
 70
     0
  9
$DIMBLK
  1

  9
$DIMASO
 70
     1
  9
$DIMSHO
 70
     1
  9
$DIMPOST
  1

  9
$DIMAPOST
  1

  9
$DIMALT
 70
     0
  9
$DIMALTD
 70
     2
  9
$DIMALTF
 40
25.4
  9
$DIMLFAC
 40
1.0
  9
$DIMTOFL
 70
     0
  9
$DIMTVP
 40
0.0
  9
$DIMTIX
 70
     0
  9
$DIMSOXD
 70
     0
  9
$DIMSAH
 70
     0
  9
$DIMBLK1
  1

  9
$DIMBLK2
  1

  9
$DIMSTYLE
  2
Standard
  9
$DIMCLRD
 70
     0
  9
$DIMCLRE
 70
     0
  9
$DIMCLRT
 70
     0
  9
$DIMTFAC
 40
1.0
  9
$DIMGAP
 40
0.09
  9
$DIMJUST
 70
     0
  9
$DIMSD1
 70
     0
  9
$DIMSD2
 70
     0
  9
$DIMTOLJ
 70
     1
  9
$DIMTZIN
 70
     0
  9
$DIMALTZ
 70
     0
  9
$DIMALTTZ
 70
     0
  9
$DIMUPT
 70
     0
  9
$DIMDEC
 70
     4
  9
$DIMTDEC
 70
     4
  9
$DIMALTU
 70
     2
  9
$DIMALTTD
 70
     2
  9
$DIMTXSTY
  7
Standard
  9
$DIMAUNIT
 70
     0
  9
$DIMADEC
 70
     0
  9
$DIMALTRND
 40
0.0
  9
$DIMAZIN
 70
     0
  9
$DIMDSEP
 70
    46
  9
$DIMATFIT
 70
     3
  9
$DIMFRAC
 70
     0
  9
$DIMLDRBLK
  1

  9
$DIMLUNIT
 70
     2
  9
$DIMLWD
 70
    -2
  9
$DIMLWE
 70
    -2
  9
$DIMTMOVE
 70
     0
  9
$DIMFXL
 40
1.0
  9
$DIMFXLON
 70
     0
  9
$DIMJOGANG
 40
0.7853981633974483
  9
$DIMTFILL
 70
     0
  9
$DIMTFILLCLR
 70
     0
  9
$DIMARCSYM
 70
     0
  9
$DIMLTYPE
  6

  9
$DIMLTEX1
  6

  9
$DIMLTEX2
  6

  9
$DIMTXTDIRECTION
 70
     0
  9
$LUNITS
 70
     2
  9
$LUPREC
 70
     4
  9
$SKETCHINC
 40
0.1
  9
$FILLETRAD
 40
0.5
  9
$AUNITS
 70
     0
  9
$AUPREC
 70
     0
  9
$MENU
  1
.
  9
$ELEVATION
 40
0.0
  9
$PELEVATION
 40
0.0
  9
$THICKNESS
 40
0.0
  9
$LIMCHECK
 70
     0
  9
$CHAMFERA
 40
0.5
  9
$CHAMFERB
 40
0.5
  9
$CHAMFERC
 40
1.0
  9
$CHAMFERD
 40
0.0
  9
$SKPOLY
 70
     0
  9
$TDCREATE
 40
2459101.653059745
  9
$TDUCREATE
 40
2459101.153059745
  9
$TDUPDATE
 40
2459101.653060371
  9
$TDUUPDATE
 40
2459101.153060371
  9
$TDINDWG
 40
0.0000000116
  9
$TDUSRTIMER
 40
0.0000000116
  9
$USRTIMER
 70
     1
  9
$ANGBASE
 50
0.0
  9
$ANGDIR
 70
     0
  9
$PDMODE
 70
     0
  9
$PDSIZE
 40
0.0
  9
$PLINEWID
 40
0.0
  9
$SPLFRAME
 70
     0
  9
$SPLINETYPE
 70
     6
  9
$SPLINESEGS
 70
     8
  9
$HANDSEED
  5
156
  9
$SURFTAB1
 70
     6
  9
$SURFTAB2
 70
     6
  9
$SURFTYPE
 70
     6
  9
$SURFU
 70
     6
  9
$SURFV
 70
     6
  9
$UCSBASE
  2

  9
$UCSNAME
  2

  9
$UCSORG
 10
0.0
 20
0.0
 30
0.0
  9
$UCSXDIR
 10
1.0
 20
0.0
 30
0.0
  9
$UCSYDIR
 10
0.0
 20
1.0
 30
0.0
  9
$UCSORTHOREF
  2

  9
$UCSORTHOVIEW
 70
     0
  9
$UCSORGTOP
 10
0.0
 20
0.0
 30
0.0
  9
$UCSORGBOTTOM
 10
0.0
 20
0.0
 30
0.0
  9
$UCSORGLEFT
 10
0.0
 20
0.0
 30
0.0
  9
$UCSORGRIGHT
 10
0.0
 20
0.0
 30
0.0
  9
$UCSORGFRONT
 10
0.0
 20
0.0
 30
0.0
  9
$UCSORGBACK
 10
0.0
 20
0.0
 30
0.0
  9
$PUCSBASE
  2

  9
$PUCSNAME
  2

  9
$PUCSORG
 10
0.0
 20
0.0
 30
0.0
  9
$PUCSXDIR
 10
1.0
 20
0.0
 30
0.0
  9
$PUCSYDIR
 10
0.0
 20
1.0
 30
0.0
  9
$PUCSORTHOREF
  2

  9
$PUCSORTHOVIEW
 70
     0
  9
$PUCSORGTOP
 10
0.0
 20
0.0
 30
0.0
  9
$PUCSORGBOTTOM
 10
0.0
 20
0.0
 30
0.0
  9
$PUCSORGLEFT
 10
0.0
 20
0.0
 30
0.0
  9
$PUCSORGRIGHT
 10
0.0
 20
0.0
 30
0.0
  9
$PUCSORGFRONT
 10
0.0
 20
0.0
 30
0.0
  9
$PUCSORGBACK
 10
0.0
 20
0.0
 30
0.0
  9
$USERI1
 70
     0
  9
$USERI2
 70
     0
  9
$USERI3
 70
     0
  9
$USERI4
 70
     0
  9
$USERI5
 70
     0
  9
$USERR1
 40
0.0
  9
$USERR2
 40
0.0
  9
$USERR3
 40
0.0
  9
$USERR4
 40
0.0
  9
$USERR5
 40
0.0
  9
$WORLDVIEW
 70
     1
  9
$SHADEDGE
 70
     3
  9
$SHADEDIF
 70
    70
  9
$TILEMODE
 70
     1
  9
$MAXACTVP
 70
    64
  9
$PINSBASE
 10
0.0
 20
0.0
 30
0.0
  9
$PLIMCHECK
 70
     0
  9
$PEXTMIN
 10
1.000000000000000E+20
 20
1.000000000000000E+20
 30
1.000000000000000E+20
  9
$PEXTMAX
 10
-1.000000000000000E+20
 20
-1.000000000000000E+20
 30
-1.000000000000000E+20
  9
$PLIMMIN
 10
0.0
 20
0.0
  9
$PLIMMAX
 10
12.0
 20
9.0
  9
$UNITMODE
 70
     0
  9
$VISRETAIN
 70
     1
  9
$PLINEGEN
 70
     0
  9
$PSLTSCALE
 70
     1
  9
$TREEDEPTH
 70
  3020
  9
$CMLSTYLE
  2
Standard
  9
$CMLJUST
 70
     0
  9
$CMLSCALE
 40
1.0
  9
$PROXYGRAPHICS
 70
     1
  9
$MEASUREMENT
 70
     0
  9
$CELWEIGHT
370
    -1
  9
$ENDCAPS
280
     0
  9
$JOINSTYLE
280
     0
  9
$LWDISPLAY
290
     1
  9
$INSUNITS
 70
     0
  9
$HYPERLINKBASE
  1

  9
$STYLESHEET
  1

  9
$XEDIT
290
     1
  9
$CEPSNTYPE
380
     0
  9
$PSTYLEMODE
290
     1
  9
$FINGERPRINTGUID
  2
{6A153948-313F-4698-A867-FFEE25517E64}
  9
$VERSIONGUID
  2
{FAEB1C32-E019-11D5-929B-00C0DF256EC4}
  9
$EXTNAMES
290
     1
  9
$PSVPSCALE
 40
0.0
  9
$OLESTARTUP
290
     0
  9
$SORTENTS
280
   127
  9
$INDEXCTL
280
     0
  9
$HIDETEXT
280
     1
  9
$XCLIPFRAME
280
     2
  9
$HALOGAP
280
     0
  9
$OBSCOLOR
 70
   257
  9
$OBSLTYPE
280
     0
  9
$INTERSECTIONDISPLAY
280
     0
  9
$INTERSECTIONCOLOR
 70
   257
  9
$DIMASSOC
280
     2
  9
$PROJECTNAME
  1

  9
$CAMERADISPLAY
290
     0
  9
$LENSLENGTH
 40
50.0
  9
$CAMERAHEIGHT
 40
0.0
  9
$STEPSPERSEC
 40
2.0
  9
$STEPSIZE
 40
6.0
  9
$3DDWFPREC
 40
2.0
  9
$PSOLWIDTH
 40
0.25
  9
$PSOLHEIGHT
 40
4.0
  9
$LOFTANG1
 40
1.570796326794897
  9
$LOFTANG2
 40
1.570796326794897
  9
$LOFTMAG1
 40
0.0
  9
$LOFTMAG2
 40
0.0
  9
$LOFTPARAM
 70
     7
  9
$LOFTNORMALS
280
     1
  9
$LATITUDE
 40
37.795
  9
$LONGITUDE
 40
-122.394
  9
$NORTHDIRECTION
 40
0.0
  9
$TIMEZONE
 70
 -8000
  9
$LIGHTGLYPHDISPLAY
280
     1
  9
$TILEMODELIGHTSYNCH
280
     1
  9
$CMATERIAL
347
3C
  9
$SOLIDHIST
280
     1
  9
$SHOWHIST
280
     1
  9
$DWFFRAME
280
     2
  9
$DGNFRAME
280
     2
  9
$REALWORLDSCALE
290
     1
  9
$INTERFERECOLOR
 62
   256
  9
$CSHADOW
280
     0
  9
$SHADOWPLANELOCATION
 40
0.0
  0
ENDSEC
  0
SECTION
  2
CLASSES
  0
CLASS
  1
ACDBDICTIONARYWDFLT
  2
AcDbDictionaryWithDefault
  3
ObjectDBX Classes
 90
        0
 91
        4
280
     0
281
     0
  0
CLASS
  1
VISUALSTYLE
  2
AcDbVisualStyle
  3
ObjectDBX Classes
 90
     4095
 91
        4
280
     0
281
     0
  0
CLASS
  1
MATERIAL
  2
AcDbMaterial
  3
ObjectDBX Classes
 90
     1153
 91
        4
280
     0
281
     0
  0
CLASS
  1
SUN
  2
AcDbSun
  3
SCENEOE
 90
     1024
 91
        4
280
     0
281
     0
  0
ENDSEC
  0
SECTION
  2
TABLES
  0
TABLE
  2
VPORT
  5
8
330
0
100
AcDbSymbolTable
 70
     1
  0
VPORT
  5
29
330
8
100
AcDbSymbolTableRecord
100
AcDbViewportTableRecord
  2
*Active
 70
     0
 10
0.0
 20
0.0
 11
1.0
 21
1.0
 12
0.0
 22
0.0
 13
0.0
 23
0.0
 14
0.5
 24
0.5
 15
0.5
 25
0.5
 16
0.0
 26
0.0
 36
1.0
 17
277.0271930017043
 27
423.657739297505
 37
0.0
 40
841.8897637795271
 41
0.7070707070707065
 42
50.0
 43
0.0
 44
0.0
 50
0.0
 51
0.0
 71
     0
 72
   100
 73
     1
 74
     3
 75
     0
 76
     0
 77
     0
 78
     0
281
     0
 65
     1
110
0.0
120
0.0
130
0.0
111
1.0
121
0.0
131
0.0
112
0.0
122
1.0
132
0.0
 79
     0
146
0.0
 60
     3
 61
     5
292
     1
282
     1
141
0.0
142
0.0
 63
   250
361
3F
  0
ENDTAB
  0
TABLE
  2
LTYPE
  5
5
330
0
100
AcDbSymbolTable
 70
     3
  0
LTYPE
  5
14
330
5
100
AcDbSymbolTableRecord
100
AcDbLinetypeTableRecord
  2
ByBlock
 70
     0
  3

 72
    65
 73
     0
 40
0.0
  0
LTYPE
  5
15
330
5
100
AcDbSymbolTableRecord
100
AcDbLinetypeTableRecord
  2
ByLayer
 70
     0
  3

 72
    65
 73
     0
 40
0.0
  0
LTYPE
  5
16
330
5
100
AcDbSymbolTableRecord
100
AcDbLinetypeTableRecord
  2
Continuous
 70
     0
  3
Solid line
 72
    65
 73
     0
 40
0.0
  0
LTYPE
  5
138
330
5
100
AcDbSymbolTableRecord
100
AcDbLinetypeTableRecord
  2
AI-Linetype-1
 70
     0
  3
Adobe Illustrator Linetype No. 1
 72
    65
 73
     2
 40
12.0
 49
6.0
 74
     0
 49
-6.0
 74
     0
  0
LTYPE
  5
13D
330
5
100
AcDbSymbolTableRecord
100
AcDbLinetypeTableRecord
  2
AI-Linetype-2
 70
     0
  3
Adobe Illustrator Linetype No. 2
 72
    65
 73
     2
 40
12.0
 49
6.0
 74
     0
 49
-6.0
 74
     0
  0
ENDTAB
  0
TABLE
  2
LAYER
  5
2
330
0
100
AcDbSymbolTable
 70
     5
  0
LAYER
  5
10
330
2
100
AcDbSymbolTableRecord
100
AcDbLayerTableRecord
  2
0
 70
     0
 62
     7
  6
Continuous
370
    -3
390
F
347
3E
  0
LAYER
  5
40
330
2
100
AcDbSymbolTableRecord
100
AcDbLayerTableRecord
  2
Wood
 70
     0
 62
     7
  6
Continuous
370
    -3
390
F
347
3E
  0
LAYER
  5
7F
330
2
100
AcDbSymbolTableRecord
100
AcDbLayerTableRecord
  2
Isolation Mode
 70
     0
 62
     7
  6
Continuous
370
    -3
390
F
347
3E
  0
LAYER
  5
130
330
2
100
AcDbSymbolTableRecord
100
AcDbLayerTableRecord
  2
Layer 5
 70
     0
 62
     7
  6
Continuous
370
    -3
390
F
347
3E
  0
LAYER
  5
13F
330
2
100
AcDbSymbolTableRecord
100
AcDbLayerTableRecord
  2
Layer 6
 70
     0
 62
     7
  6
Continuous
370
    -3
390
F
347
3E
  0
ENDTAB
  0
TABLE
  2
STYLE
  5
3
330
0
100
AcDbSymbolTable
 70
     1
  0
STYLE
  5
11
330
3
100
AcDbSymbolTableRecord
100
AcDbTextStyleTableRecord
  2
Standard
 70
     0
 40
0.0
 41
1.0
 50
0.0
 71
     0
 42
0.2
  3
txt
  4

  0
ENDTAB
  0
TABLE
  2
VIEW
  5
6
330
0
100
AcDbSymbolTable
 70
     0
  0
ENDTAB
  0
TABLE
  2
UCS
  5
7
330
0
100
AcDbSymbolTable
 70
     0
  0
ENDTAB
  0
TABLE
  2
APPID
  5
9
330
0
100
AcDbSymbolTable
 70
     1
  0
APPID
  5
12
330
9
100
AcDbSymbolTableRecord
100
AcDbRegAppTableRecord
  2
ACAD
 70
     0
  0
ENDTAB
  0
TABLE
  2
DIMSTYLE
  5
A
330
0
100
AcDbSymbolTable
 70
     1
100
AcDbDimStyleTable
  0
DIMSTYLE
105
27
330
A
100
AcDbSymbolTableRecord
100
AcDbDimStyleTableRecord
  2
Standard
 70
     0
178
     0
340
11
  0
ENDTAB
  0
TABLE
  2
BLOCK_RECORD
  5
1
330
0
100
AcDbSymbolTable
 70
    10
  0
BLOCK_RECORD
  5
1F
330
1
100
AcDbSymbolTableRecord
100
AcDbBlockTableRecord
  2
*Model_Space
340
22
 70
     0
280
     1
281
     0
  0
BLOCK_RECORD
  5
1B
330
1
100
AcDbSymbolTableRecord
100
AcDbBlockTableRecord
  2
*Paper_Space
340
1E
 70
     0
280
     1
281
     0
  0
BLOCK_RECORD
  5
23
330
1
100
AcDbSymbolTableRecord
100
AcDbBlockTableRecord
  2
*Paper_Space0
340
26
 70
     0
280
     1
281
     0
  0
BLOCK_RECORD
  5
41
330
1
100
AcDbSymbolTableRecord
100
AcDbBlockTableRecord
  2
block 2
340
0
102
{BLKREFS
331
42
102
}
 70
     0
280
     1
281
     0
  0
BLOCK_RECORD
  5
51
330
1
100
AcDbSymbolTableRecord
100
AcDbBlockTableRecord
  2
block 3
340
0
102
{BLKREFS
331
52
102
}
 70
     0
280
     1
281
     0
  0
BLOCK_RECORD
  5
80
330
1
100
AcDbSymbolTableRecord
100
AcDbBlockTableRecord
  2
block 4
340
0
102
{BLKREFS
331
81
102
}
 70
     0
280
     1
281
     0
  0
BLOCK_RECORD
  5
84
330
1
100
AcDbSymbolTableRecord
100
AcDbBlockTableRecord
  2
block 5
340
0
102
{BLKREFS
331
85
102
}
 70
     0
280
     1
281
     0
  0
BLOCK_RECORD
  5
88
330
1
100
AcDbSymbolTableRecord
100
AcDbBlockTableRecord
  2
block 6
340
0
102
{BLKREFS
331
89
102
}
 70
     0
280
     1
281
     0
  0
BLOCK_RECORD
  5
D5
330
1
100
AcDbSymbolTableRecord
100
AcDbBlockTableRecord
  2
block 7
340
0
102
{BLKREFS
331
D6
102
}
 70
     0
280
     1
281
     0
  0
BLOCK_RECORD
  5
DC
330
1
100
AcDbSymbolTableRecord
100
AcDbBlockTableRecord
  2
block 8
340
0
102
{BLKREFS
331
DD
102
}
 70
     0
280
     1
281
     0
  0
BLOCK_RECORD
  5
129
330
1
100
AcDbSymbolTableRecord
100
AcDbBlockTableRecord
  2
block 9
340
0
102
{BLKREFS
331
12A
102
}
 70
     0
280
     1
281
     0
  0
BLOCK_RECORD
  5
131
330
1
100
AcDbSymbolTableRecord
100
AcDbBlockTableRecord
  2
block 10
340
0
102
{BLKREFS
331
132
102
}
 70
     0
280
     1
281
     0
  0
ENDTAB
  0
ENDSEC
  0
SECTION
  2
BLOCKS
  0
BLOCK
  5
20
330
1F
100
AcDbEntity
  8
0
100
AcDbBlockBegin
  2
*Model_Space
 70
     0
 10
0.0
 20
0.0
 30
0.0
  3
*Model_Space
  1

  0
ENDBLK
  5
21
330
1F
100
AcDbEntity
  8
0
100
AcDbBlockEnd
  0
BLOCK
  5
1C
330
1B
100
AcDbEntity
 67
     1
  8
0
100
AcDbBlockBegin
  2
*Paper_Space
 70
     0
 10
0.0
 20
0.0
 30
0.0
  3
*Paper_Space
  1

  0
ENDBLK
  5
1D
330
1B
100
AcDbEntity
 67
     1
  8
0
100
AcDbBlockEnd
  0
BLOCK
  5
24
330
23
100
AcDbEntity
  8
0
100
AcDbBlockBegin
  2
*Paper_Space0
 70
     0
 10
0.0
 20
0.0
 30
0.0
  3
*Paper_Space0
  1

  0
ENDBLK
  5
25
330
23
100
AcDbEntity
  8
0
100
AcDbBlockEnd
  0
BLOCK
  5
43
330
41
100
AcDbEntity
  8
0
100
AcDbBlockBegin
  2
block 2
 70
     0
 10
0.0
 20
0.0
 30
0.0
  3
block 2
  1

  0
POLYLINE
  5
45
330
41
100
AcDbEntity
  8
Wood
 62
   250
420
  2301728
370
    35
100
AcDb2dPolyline
 66
     1
 10
0.0
 20
0.0
 30
0.0
  0
VERTEX
  5
46
330
45
100
AcDbEntity
  8
Wood
 62
   250
420
  2301728
370
    35
100
AcDbVertex
100
AcDb2dVertex
 10
306.6605922531016
 20
506.4541872058908
 30
0.0
  0
VERTEX
  5
47
330
45
100
AcDbEntity
  8
Wood
 62
   250
420
  2301728
370
    35
100
AcDbVertex
100
AcDb2dVertex
 10
172.7194956367384
 20
373.045690576073
 30
0.0
  0
VERTEX
  5
48
330
45
100
AcDbEntity
  8
Wood
 62
   250
420
  2301728
370
    35
100
AcDbVertex
100
AcDb2dVertex
 10
186.6805952840514
 20
359.0288909301671
 30
0.0
  0
VERTEX
  5
49
330
45
100
AcDbEntity
  8
Wood
 62
   250
420
  2301728
370
    35
100
AcDbVertex
100
AcDb2dVertex
 10
192.4809999999998
 20
361.7195908621943
 30
0.0
  0
VERTEX
  5
4A
330
45
100
AcDbEntity
  8
Wood
 62
   250
420
  2301728
370
    35
100
AcDbVertex
100
AcDb2dVertex
 10
188.8628952289218
 20
348.3235912006057
 30
0.0
  0
VERTEX
  5
4B
330
45
100
AcDbEntity
  8
Wood
 62
   250
420
  2301728
370
    35
100
AcDbVertex
100
AcDb2dVertex
 10
194.6632950823914
 20
351.0142911326329
 30
0.0
  0
VERTEX
  5
4C
330
45
100
AcDbEntity
  8
Wood
 62
   250
420
  2301728
370
    35
100
AcDbVertex
100
AcDb2dVertex
 10
208.6243947297044
 20
336.9974914867271
 30
0.0
  0
VERTEX
  5
4D
330
45
100
AcDbEntity
  8
Wood
 62
   250
420
  2301728
370
    35
100
AcDbVertex
100
AcDb2dVertex
 10
378.0810904488681
 20
506.4541872058908
 30
0.0
  0
VERTEX
  5
4E
330
45
100
AcDbEntity
  8
Wood
 62
   250
420
  2301728
370
    35
100
AcDbVertex
100
AcDb2dVertex
 10
306.6605922531016
 20
506.4541872058908
 30
0.0
  0
SEQEND
  5
50
330
45
100
AcDbEntity
  8
Wood
 62
   250
420
  2301728
370
    35
  0
HATCH
  5
4F
330
41
100
AcDbEntity
  8
Wood
 62
    43
420
 15510364
100
AcDbHatch
 10
0.0
 20
0.0
 30
0.0
210
0.0
220
0.0
230
1.0
  2
SOLID
 70
     1
 71
     0
 91
        1
 92
        1
 93
        8
 72
     1
 10
306.6605922531016
 20
506.4541872058908
 11
172.7194956367384
 21
373.045690576073
 72
     1
 10
172.7194956367384
 20
373.045690576073
 11
186.6805952840514
 21
359.0288909301671
 72
     1
 10
186.6805952840514
 20
359.0288909301671
 11
192.4809999999998
 21
361.7195908621943
 72
     1
 10
192.4809999999998
 20
361.7195908621943
 11
188.8628952289218
 21
348.3235912006057
 72
     1
 10
188.8628952289218
 20
348.3235912006057
 11
194.6632950823914
 21
351.0142911326329
 72
     1
 10
194.6632950823914
 20
351.0142911326329
 11
208.6243947297044
 21
336.9974914867271
 72
     1
 10
208.6243947297044
 20
336.9974914867271
 11
378.0810904488681
 21
506.4541872058908
 72
     1
 10
378.0810904488681
 20
506.4541872058908
 11
306.6605922531016
 21
506.4541872058908
 97
        0
 75
     2
 76
     1
 98
        0
  0
ENDBLK
  5
44
330
41
100
AcDbEntity
  8
0
100
AcDbBlockEnd
  0
BLOCK
  5
53
330
51
100
AcDbEntity
  8
0
100
AcDbBlockBegin
  2
block 3
 70
     0
 10
0.0
 20
0.0
 30
0.0
  3
block 3
  1

  0
POLYLINE
  5
55
330
51
100
AcDbEntity
  8
Wood
 62
   250
420
  2301728
370
    35
100
AcDb2dPolyline
 66
     1
 10
0.0
 20
0.0
 30
0.0
  0
VERTEX
  5
56
330
55
100
AcDbEntity
  8
Wood
 62
   250
420
  2301728
370
    35
100
AcDbVertex
100
AcDb2dVertex
 10
141.7483964191342
 20
506.4541872058908
 30
0.0
  0
VERTEX
  5
57
330
55
100
AcDbEntity
  8
Wood
 62
   250
420
  2301728
370
    35
100
AcDbVertex
100
AcDb2dVertex
 10
141.7483964191342
 20
470.2362881208319
 30
0.0
  0
VERTEX
  5
58
330
55
100
AcDbEntity
  8
Wood
 62
   250
420
  2301728
370
    35
100
AcDbVertex
100
AcDb2dVertex
 10
148.7795962415112
 20
467.6612881858819
 30
0.0
  0
VERTEX
  5
59
330
55
100
AcDbEntity
  8
Wood
 62
   250
420
  2301728
370
    35
100
AcDbVertex
100
AcDb2dVertex
 10
134.8876965924501
 20
459.6775883875671
 30
0.0
  0
VERTEX
  5
5A
330
55
100
AcDbEntity
  8
Wood
 62
   250
420
  2301728
370
    35
100
AcDbVertex
100
AcDb2dVertex
 10
141.7483964191342
 20
457.1650884510382
 30
0.0
  0
VERTEX
  5
5B
330
55
100
AcDbEntity
  8
Wood
 62
   250
420
  2301728
370
    35
100
AcDbVertex
100
AcDb2dVertex
 10
141.7483964191342
 20
420.885289367543
 30
0.0
  0
VERTEX
  5
5C
330
55
100
AcDbEntity
  8
Wood
 62
   250
420
  2301728
370
    35
100
AcDbVertex
100
AcDb2dVertex
 10
141.8330964169954
 20
420.885289367543
 30
0.0
  0
VERTEX
  5
5D
330
55
100
AcDbEntity
  8
Wood
 62
   250
420
  2301728
370
    35
100
AcDbVertex
100
AcDb2dVertex
 10
412.1354895885815
 20
420.885289367543
 30
0.0
  0
VERTEX
  5
5E
330
55
100
AcDbEntity
  8
Wood
 62
   250
420
  2301728
370
    35
100
AcDbVertex
100
AcDb2dVertex
 10
412.1354895885815
 20
457.1650884510382
 30
0.0
  0
VERTEX
  5
5F
330
55
100
AcDbEntity
  8
Wood
 62
   250
420
  2301728
370
    35
100
AcDbVertex
100
AcDb2dVertex
 10
405.2747897618974
 20
459.6775883875671
 30
0.0
  0
VERTEX
  5
60
330
55
100
AcDbEntity
  8
Wood
 62
   250
420
  2301728
370
    35
100
AcDbVertex
100
AcDb2dVertex
 10
419.1666894109585
 20
467.6612881858819
 30
0.0
  0
VERTEX
  5
61
330
55
100
AcDbEntity
  8
Wood
 62
   250
420
  2301728
370
    35
100
AcDbVertex
100
AcDb2dVertex
 10
412.1354895885815
 20
470.2362881208319
 30
0.0
  0
VERTEX
  5
62
330
55
100
AcDbEntity
  8
Wood
 62
   250
420
  2301728
370
    35
100
AcDbVertex
100
AcDb2dVertex
 10
412.1354895885815
 20
506.4541872058908
 30
0.0
  0
VERTEX
  5
63
330
55
100
AcDbEntity
  8
Wood
 62
   250
420
  2301728
370
    35
100
AcDbVertex
100
AcDb2dVertex
 10
141.8336964169794
 20
506.4541872058908
 30
0.0
  0
VERTEX
  5
64
330
55
100
AcDbEntity
  8
Wood
 62
   250
420
  2301728
370
    35
100
AcDbVertex
100
AcDb2dVertex
 10
141.7483964191342
 20
506.4541872058908
 30
0.0
  0
SEQEND
  5
66
330
55
100
AcDbEntity
  8
Wood
 62
   250
420
  2301728
370
    35
  0
HATCH
  5
65
330
51
100
AcDbEntity
  8
Wood
 62
    43
420
 15510364
100
AcDbHatch
 10
0.0
 20
0.0
 30
0.0
210
0.0
220
0.0
230
1.0
  2
SOLID
 70
     1
 71
     0
 91
        1
 92
        1
 93
       14
 72
     1
 10
141.7483964191342
 20
506.4541872058908
 11
141.7483964191342
 21
470.2362881208319
 72
     1
 10
141.7483964191342
 20
470.2362881208319
 11
148.7795962415112
 21
467.6612881858819
 72
     1
 10
148.7795962415112
 20
467.6612881858819
 11
134.8876965924501
 21
459.6775883875671
 72
     1
 10
134.8876965924501
 20
459.6775883875671
 11
141.7483964191342
 21
457.1650884510382
 72
     1
 10
141.7483964191342
 20
457.1650884510382
 11
141.7483964191342
 21
420.885289367543
 72
     1
 10
141.7483964191342
 20
420.885289367543
 11
141.8330964169954
 21
420.885289367543
 72
     1
 10
141.8330964169954
 20
420.885289367543
 11
412.1354895885815
 21
420.885289367543
 72
     1
 10
412.1354895885815
 20
420.885289367543
 11
412.1354895885815
 21
457.1650884510382
 72
     1
 10
412.1354895885815
 20
457.1650884510382
 11
405.2747897618974
 21
459.6775883875671
 72
     1
 10
405.2747897618974
 20
459.6775883875671
 11
419.1666894109585
 21
467.6612881858819
 72
     1
 10
419.1666894109585
 20
467.6612881858819
 11
412.1354895885815
 21
470.2362881208319
 72
     1
 10
412.1354895885815
 20
470.2362881208319
 11
412.1354895885815
 21
506.4541872058908
 72
     1
 10
412.1354895885815
 20
506.4541872058908
 11
141.8336964169794
 21
506.4541872058908
 72
     1
 10
141.8336964169794
 20
506.4541872058908
 11
141.7483964191342
 21
506.4541872058908
 97
        0
 75
     2
 76
     1
 98
        0
  0
ENDBLK
  5
54
330
51
100
AcDbEntity
  8
0
100
AcDbBlockEnd
  0
BLOCK
  5
82
330
80
100
AcDbEntity
  8
0
100
AcDbBlockBegin
  2
block 4
 70
     0
 10
0.0
 20
0.0
 30
0.0
  3
block 4
  1

  0
INSERT
  5
85
330
80
100
AcDbEntity
  8
Isolation Mode
100
AcDbBlockReference
  2
block 5
 10
0.0
 20
0.0
 30
0.0
  0
ENDBLK
  5
83
330
80
100
AcDbEntity
  8
0
100
AcDbBlockEnd
  0
BLOCK
  5
86
330
84
100
AcDbEntity
  8
0
100
AcDbBlockBegin
  2
block 5
 70
     0
 10
0.0
 20
0.0
 30
0.0
  3
block 5
  1

  0
ENDBLK
  5
87
330
84
100
AcDbEntity
  8
0
100
AcDbBlockEnd
  0
BLOCK
  5
8A
330
88
100
AcDbEntity
  8
0
100
AcDbBlockBegin
  2
block 6
 70
     0
 10
0.0
 20
0.0
 30
0.0
  3
block 6
  1

  0
SPLINE
  5
8C
330
88
100
AcDbEntity
  8
Isolation Mode
 62
     7
420
 16776959
370
    18
100
AcDbSpline
210
0.0
220
0.0
230
1.0
 70
    11
 71
     3
 72
    29
 73
    25
 74
     0
 42
0.0000000001
 43
0.0000000001
 12
1.0
 22
0.0
 32
0.0
 13
1.0
 23
0.0
 33
0.0
 40
0.0
 40
0.0
 40
0.0
 40
0.0
 40
1.0
 40
1.0
 40
1.0
 40
2.0
 40
2.0
 40
2.0
 40
3.0
 40
3.0
 40
3.0
 40
4.0
 40
4.0
 40
4.0
 40
5.0
 40
5.0
 40
5.0
 40
6.0
 40
6.0
 40
6.0
 40
7.0
 40
7.0
 40
7.0
 40
8.0
 40
8.0
 40
8.0
 40
8.0
 10
281.7996223675336
 20
450.8867342747399
 30
0.0
 10
281.7996223675336
 20
450.8867342747399
 30
0.0
 10
286.1218728784052
 20
445.7107767568523
 30
0.0
 10
286.1218728784052
 20
445.7107767568523
 30
0.0
 10
286.1218728784052
 20
445.7107767568523
 30
0.0
 10
286.2588121679937
 20
432.1503905504333
 30
0.0
 10
286.2588121679937
 20
432.1503905504333
 30
0.0
 10
286.2588121679937
 20
432.1503905504333
 30
0.0
 10
281.8955896171938
 20
428.3510628482582
 30
0.0
 10
281.8955896171938
 20
428.3510628482582
 30
0.0
 10
281.8955896171938
 20
428.3510628482582
 30
0.0
 10
268.963544064999
 20
428.1061645502377
 30
0.0
 10
267.7244343664443
 20
428.3544496256009
 30
0.0
 10
267.7244343664443
 20
428.3544496256009
 30
0.0
 10
263.5328804473411
 20
432.6264212827173
 30
0.0
 10
263.5328804473411
 20
432.6264212827173
 30
0.0
 10
263.5328804473411
 20
432.6264212827173
 30
0.0
 10
263.3209462802806
 20
446.8675375706434
 30
0.0
 10
263.3209462802806
 20
446.8675375706434
 30
0.0
 10
263.3209462802806
 20
446.8675375706434
 30
0.0
 10
269.0542265277709
 20
451.3404842678892
 30
0.0
 10
269.0542265277709
 20
451.3404842678892
 30
0.0
 10
269.0542265277709
 20
451.3404842678892
 30
0.0
 10
281.7996223675336
 20
450.8867342747399
 30
0.0
 10
281.7996223675336
 20
450.8867342747399
 30
0.0
  0
HATCH
  5
8D
330
88
100
AcDbEntity
  8
Isolation Mode
 62
   250
420
  2301728
100
AcDbHatch
 10
0.0
 20
0.0
 30
0.0
210
0.0
220
0.0
230
1.0
  2
SOLID
 70
     1
 71
     0
 91
        1
 92
        1
 93
        1
 72
     4
 94
        3
 73
     0
 74
     1
 95
       29
 96
       25
 40
0.0
 40
0.0
 40
0.0
 40
0.0
 40
1.0
 40
1.0
 40
1.0
 40
2.0
 40
2.0
 40
2.0
 40
3.0
 40
3.0
 40
3.0
 40
4.0
 40
4.0
 40
4.0
 40
5.0
 40
5.0
 40
5.0
 40
6.0
 40
6.0
 40
6.0
 40
7.0
 40
7.0
 40
7.0
 40
8.0
 40
8.0
 40
8.0
 40
8.0
 10
281.7996223675336
 20
450.8867342747399
 10
281.7996223675336
 20
450.8867342747399
 10
286.1218728784052
 20
445.7107767568523
 10
286.1218728784052
 20
445.7107767568523
 10
286.1218728784052
 20
445.7107767568523
 10
286.2588121679937
 20
432.1503905504333
 10
286.2588121679937
 20
432.1503905504333
 10
286.2588121679937
 20
432.1503905504333
 10
281.8955896171938
 20
428.3510628482582
 10
281.8955896171938
 20
428.3510628482582
 10
281.8955896171938
 20
428.3510628482582
 10
268.963544064999
 20
428.1061645502377
 10
267.7244343664443
 20
428.3544496256009
 10
267.7244343664443
 20
428.3544496256009
 10
263.5328804473411
 20
432.6264212827173
 10
263.5328804473411
 20
432.6264212827173
 10
263.5328804473411
 20
432.6264212827173
 10
263.3209462802806
 20
446.8675375706434
 10
263.3209462802806
 20
446.8675375706434
 10
263.3209462802806
 20
446.8675375706434
 10
269.0542265277709
 20
451.3404842678892
 10
269.0542265277709
 20
451.3404842678892
 10
269.0542265277709
 20
451.3404842678892
 10
281.7996223675336
 20
450.8867342747399
 10
281.7996223675336
 20
450.8867342747399
 97
        0
 97
        0
 75
     2
 76
     1
 98
        0
  0
SPLINE
  5
8E
330
88
100
AcDbEntity
  8
Isolation Mode
 62
     7
420
 16776959
370
    18
100
AcDbSpline
210
0.0
220
0.0
230
1.0
 70
    11
 71
     3
 72
    20
 73
    16
 74
     0
 42
0.0000000001
 43
0.0000000001
 12
1.0
 22
0.0
 32
0.0
 13
1.0
 23
0.0
 33
0.0
 40
0.0
 40
0.0
 40
0.0
 40
0.0
 40
1.0
 40
1.0
 40
1.0
 40
2.0
 40
2.0
 40
2.0
 40
3.0
 40
3.0
 40
3.0
 40
4.0
 40
4.0
 40
4.0
 40
5.0
 40
5.0
 40
5.0
 40
5.0
 10
270.21341829628
 20
444.3126014152585
 30
0.0
 10
272.8937833184873
 20
446.9425099013661
 30
0.0
 10
277.1986744799915
 20
446.9015434493613
 30
0.0
 10
279.828582966099
 20
444.2211784271549
 30
0.0
 10
282.4584963891893
 20
441.5408083732445
 30
0.0
 10
282.4175804339638
 20
437.2359924305974
 30
0.0
 10
279.7372154117575
 20
434.6060839444908
 30
0.0
 10
277.0568503895502
 20
431.9761754583833
 30
0.0
 10
272.7520422492098
 20
432.017073396386
 30
0.0
 10
270.1221288261195
 20
434.6974434502954
 30
0.0
 10
267.492220340012
 20
437.3778084725027
 30
0.0
 10
267.5330532740736
 20
441.682692929151
 30
0.0
 10
270.21341829628
 20
444.3126014152585
 30
0.0
 10
270.21341829628
 20
444.3126014152585
 30
0.0
 10
270.21341829628
 20
444.3126014152585
 30
0.0
 10
270.21341829628
 20
444.3126014152585
 30
0.0
  0
HATCH
  5
8F
330
88
100
AcDbEntity
  8
Isolation Mode
 62
   250
420
  2301728
100
AcDbHatch
 10
0.0
 20
0.0
 30
0.0
210
0.0
220
0.0
230
1.0
  2
SOLID
 70
     1
 71
     0
 91
        1
 92
        1
 93
        1
 72
     4
 94
        3
 73
     0
 74
     1
 95
       20
 96
       16
 40
0.0
 40
0.0
 40
0.0
 40
0.0
 40
1.0
 40
1.0
 40
1.0
 40
2.0
 40
2.0
 40
2.0
 40
3.0
 40
3.0
 40
3.0
 40
4.0
 40
4.0
 40
4.0
 40
5.0
 40
5.0
 40
5.0
 40
5.0
 10
270.21341829628
 20
444.3126014152585
 10
272.8937833184873
 20
446.9425099013661
 10
277.1986744799915
 20
446.9015434493613
 10
279.828582966099
 20
444.2211784271549
 10
282.4584963891893
 20
441.5408083732445
 10
282.4175804339638
 20
437.2359924305974
 10
279.7372154117575
 20
434.6060839444908
 10
277.0568503895502
 20
431.9761754583833
 10
272.7520422492098
 20
432.017073396386
 10
270.1221288261195
 20
434.6974434502954
 10
267.492220340012
 20
437.3778084725027
 10
267.5330532740736
 20
441.682692929151
 10
270.21341829628
 20
444.3126014152585
 10
270.21341829628
 20
444.3126014152585
 10
270.21341829628
 20
444.3126014152585
 10
270.21341829628
 20
444.3126014152585
 97
        0
 97
        0
 75
     2
 76
     1
 98
        0
  0
POLYLINE
  5
90
330
88
100
AcDbEntity
  8
Isolation Mode
 62
     7
420
 16776959
370
    13
100
AcDb2dPolyline
 66
     1
 10
0.0
 20
0.0
 30
0.0
  0
VERTEX
  5
91
330
90
100
AcDbEntity
  8
Isolation Mode
 62
     7
420
 16776959
370
    13
100
AcDbVertex
100
AcDb2dVertex
 10
270.7166944375595
 20
443.7996695878883
 30
0.0
  0
VERTEX
  5
92
330
90
100
AcDbEntity
  8
Isolation Mode
 62
     7
420
 16776959
370
    13
100
AcDbVertex
100
AcDb2dVertex
 10
269.1121167149686
 20
438.0309456405384
 30
0.0
  0
VERTEX
  5
93
330
90
100
AcDbEntity
  8
Isolation Mode
 62
     7
420
 16776959
370
    13
100
AcDbVertex
100
AcDb2dVertex
 10
273.305640999879
 20
433.7569658148432
 30
0.0
  0
VERTEX
  5
94
330
90
100
AcDbEntity
  8
Isolation Mode
 62
     7
420
 16776959
370
    13
100
AcDbVertex
100
AcDb2dVertex
 10
279.1038130430225
 20
435.2516385571726
 30
0.0
  0
VERTEX
  5
95
330
90
100
AcDbEntity
  8
Isolation Mode
 62
     7
420
 16776959
370
    13
100
AcDbVertex
100
AcDb2dVertex
 10
280.7083907656124
 20
441.0203625045233
 30
0.0
  0
VERTEX
  5
96
330
90
100
AcDbEntity
  8
Isolation Mode
 62
     7
420
 16776959
370
    13
100
AcDbVertex
100
AcDb2dVertex
 10
276.5148664807029
 20
445.2943423302186
 30
0.0
  0
VERTEX
  5
97
330
90
100
AcDbEntity
  8
Isolation Mode
 62
     7
420
 16776959
370
    13
100
AcDbVertex
100
AcDb2dVertex
 10
270.7166944375595
 20
443.7996695878883
 30
0.0
  0
SEQEND
  5
99
330
90
100
AcDbEntity
  8
Isolation Mode
 62
     7
420
 16776959
370
    13
  0
HATCH
  5
98
330
88
100
AcDbEntity
  8
Isolation Mode
 62
   250
420
  2301728
100
AcDbHatch
 10
0.0
 20
0.0
 30
0.0
210
0.0
220
0.0
230
1.0
  2
SOLID
 70
     1
 71
     0
 91
        1
 92
        1
 93
        6
 72
     1
 10
270.7166944375595
 20
443.7996695878883
 11
269.1121167149686
 21
438.0309456405384
 72
     1
 10
269.1121167149686
 20
438.0309456405384
 11
273.305640999879
 21
433.7569658148432
 72
     1
 10
273.305640999879
 20
433.7569658148432
 11
279.1038130430225
 21
435.2516385571726
 72
     1
 10
279.1038130430225
 20
435.2516385571726
 11
280.7083907656124
 21
441.0203625045233
 72
     1
 10
280.7083907656124
 20
441.0203625045233
 11
276.5148664807029
 21
445.2943423302186
 72
     1
 10
276.5148664807029
 20
445.2943423302186
 11
270.7166944375595
 21
443.7996695878883
 97
        0
 75
     2
 76
     1
 98
        0
  0
SPLINE
  5
9A
330
88
100
AcDbEntity
  8
Isolation Mode
 62
     7
420
 16776959
370
    13
100
AcDbSpline
210
0.0
220
0.0
230
1.0
 70
    11
 71
     3
 72
    20
 73
    16
 74
     0
 42
0.0000000001
 43
0.0000000001
 12
1.0
 22
0.0
 32
0.0
 13
1.0
 23
0.0
 33
0.0
 40
0.0
 40
0.0
 40
0.0
 40
0.0
 40
1.0
 40
1.0
 40
1.0
 40
2.0
 40
2.0
 40
2.0
 40
3.0
 40
3.0
 40
3.0
 40
4.0
 40
4.0
 40
4.0
 40
5.0
 40
5.0
 40
5.0
 40
5.0
 10
276.3372319471864
 20
436.3924548419409
 30
0.0
 10
278.0601616156928
 20
437.1881543417021
 30
0.0
 10
278.811804185958
 20
439.2299468035817
 30
0.0
 10
278.0160969302688
 20
440.9528843768185
 30
0.0
 10
277.2203976700293
 20
442.6758297949955
 30
0.0
 10
275.1786685920251
 20
443.4275345559663
 30
0.0
 10
273.4557389652273
 20
442.6318350971278
 30
0.0
 10
271.7327220662264
 20
441.8360500089429
 30
0.0
 10
270.9810794959603
 20
439.7942575470634
 30
0.0
 10
271.7767867516495
 20
438.0713199738266
 30
0.0
 10
272.5724940073387
 20
436.3483824005889
 30
0.0
 10
274.6142864692183
 20
435.5967398303237
 30
0.0
 10
276.3372319471864
 20
436.3924548419409
 30
0.0
 10
276.3372319471864
 20
436.3924548419409
 30
0.0
 10
276.3372319471864
 20
436.3924548419409
 30
0.0
 10
276.3372319471864
 20
436.3924548419409
 30
0.0
  0
POLYLINE
  5
9B
330
88
100
AcDbEntity
  8
Isolation Mode
370
     0
100
AcDb2dPolyline
 66
     1
 10
0.0
 20
0.0
 30
0.0
  0
VERTEX
  5
9C
330
9B
100
AcDbEntity
  8
Isolation Mode
370
     0
100
AcDbVertex
100
AcDb2dVertex
 10
276.850900576359
 20
437.9341493059947
 30
0.0
  0
VERTEX
  5
9D
330
9B
100
AcDbEntity
  8
Isolation Mode
370
     0
100
AcDbVertex
100
AcDb2dVertex
 10
277.1802404580021
 20
437.5936520143869
 30
0.0
  0
VERTEX
  5
9E
330
9B
100
AcDbEntity
  8
Isolation Mode
370
     0
100
AcDbVertex
100
AcDb2dVertex
 10
277.0660403881966
 20
437.4831427664112
 30
0.0
  0
VERTEX
  5
9F
330
9B
100
AcDbEntity
  8
Isolation Mode
370
     0
100
AcDbVertex
100
AcDb2dVertex
 10
276.676910970501
 20
437.8854492668579
 30
0.0
  0
VERTEX
  5
A0
330
9B
100
AcDbEntity
  8
Isolation Mode
370
     0
100
AcDbVertex
100
AcDb2dVertex
 10
276.3329724027426
 20
437.8427582068716
 30
0.0
  0
VERTEX
  5
A1
330
9B
100
AcDbEntity
  8
Isolation Mode
370
     0
100
AcDbVertex
100
AcDb2dVertex
 10
276.866990325183
 20
437.2906416533224
 30
0.0
  0
VERTEX
  5
A2
330
9B
100
AcDbEntity
  8
Isolation Mode
370
     0
100
AcDbVertex
100
AcDb2dVertex
 10
276.7527981861285
 20
437.1801401868051
 30
0.0
  0
VERTEX
  5
A3
330
9B
100
AcDbEntity
  8
Isolation Mode
370
     0
100
AcDbVertex
100
AcDb2dVertex
 10
276.1579322569269
 20
437.7951288629974
 30
0.0
  0
VERTEX
  5
A4
330
9B
100
AcDbEntity
  8
Isolation Mode
370
     0
100
AcDbVertex
100
AcDb2dVertex
 10
275.7546727874915
 20
437.723513763035
 30
0.0
  0
VERTEX
  5
A5
330
9B
100
AcDbEntity
  8
Isolation Mode
370
     0
100
AcDbVertex
100
AcDb2dVertex
 10
275.6209235180459
 20
437.8618280828005
 30
0.0
  0
VERTEX
  5
A6
330
9B
100
AcDbEntity
  8
Isolation Mode
370
     0
100
AcDbVertex
100
AcDb2dVertex
 10
276.0241780812648
 20
437.9334481831092
 30
0.0
  0
VERTEX
  5
A7
330
9B
100
AcDbEntity
  8
Isolation Mode
370
     0
100
AcDbVertex
100
AcDb2dVertex
 10
275.6968057847389
 20
438.2718132201144
 30
0.0
  0
VERTEX
  5
A8
330
9B
100
AcDbEntity
  8
Isolation Mode
370
     0
100
AcDbVertex
100
AcDb2dVertex
 10
275.811005846881
 20
438.3823224605712
 30
0.0
  0
VERTEX
  5
A9
330
9B
100
AcDbEntity
  8
Isolation Mode
370
     0
100
AcDbVertex
100
AcDb2dVertex
 10
276.1981091423204
 20
437.9820809547318
 30
0.0
  0
VERTEX
  5
AA
330
9B
100
AcDbEntity
  8
Isolation Mode
370
     0
100
AcDbVertex
100
AcDb2dVertex
 10
276.5400752211917
 20
438.0269092826493
 30
0.0
  0
VERTEX
  5
AB
330
9B
100
AcDbEntity
  8
Isolation Mode
370
     0
100
AcDbVertex
100
AcDb2dVertex
 10
276.0100479868061
 20
438.5748157997195
 30
0.0
  0
VERTEX
  5
AC
330
9B
100
AcDbEntity
  8
Isolation Mode
370
     0
100
AcDbVertex
100
AcDb2dVertex
 10
276.1242450204172
 20
438.6853122777748
 30
0.0
  0
VERTEX
  5
AD
330
9B
100
AcDbEntity
  8
Isolation Mode
370
     0
100
AcDbVertex
100
AcDb2dVertex
 10
276.7170799275882
 20
438.072393590116
 30
0.0
  0
VERTEX
  5
AE
330
9B
100
AcDbEntity
  8
Isolation Mode
370
     0
100
AcDbVertex
100
AcDb2dVertex
 10
277.118284645594
 20
438.1441038812727
 30
0.0
  0
VERTEX
  5
AF
330
9B
100
AcDbEntity
  8
Isolation Mode
370
     0
100
AcDbVertex
100
AcDb2dVertex
 10
277.2530144140628
 20
438.0047902509605
 30
0.0
  0
VERTEX
  5
B0
330
9B
100
AcDbEntity
  8
Isolation Mode
370
     0
100
AcDbVertex
100
AcDb2dVertex
 10
276.850900576359
 20
437.9341493059947
 30
0.0
  0
SEQEND
  5
B2
330
9B
100
AcDbEntity
  8
Isolation Mode
370
     0
  0
HATCH
  5
B1
330
88
100
AcDbEntity
  8
Isolation Mode
 62
     7
420
 16776959
100
AcDbHatch
 10
0.0
 20
0.0
 30
0.0
210
0.0
220
0.0
230
1.0
  2
SOLID
 70
     1
 71
     0
 91
        1
 92
        1
 93
       20
 72
     1
 10
276.850900576359
 20
437.9341493059947
 11
277.1802404580021
 21
437.5936520143869
 72
     1
 10
277.1802404580021
 20
437.5936520143869
 11
277.0660403881966
 21
437.4831427664112
 72
     1
 10
277.0660403881966
 20
437.4831427664112
 11
276.676910970501
 21
437.8854492668579
 72
     1
 10
276.676910970501
 20
437.8854492668579
 11
276.3329724027426
 21
437.8427582068716
 72
     1
 10
276.3329724027426
 20
437.8427582068716
 11
276.866990325183
 21
437.2906416533224
 72
     1
 10
276.866990325183
 20
437.2906416533224
 11
276.7527981861285
 21
437.1801401868051
 72
     1
 10
276.7527981861285
 20
437.1801401868051
 11
276.1579322569269
 21
437.7951288629974
 72
     1
 10
276.1579322569269
 20
437.7951288629974
 11
275.7546727874915
 21
437.723513763035
 72
     1
 10
275.7546727874915
 20
437.723513763035
 11
275.6209235180459
 21
437.8618280828005
 72
     1
 10
275.6209235180459
 20
437.8618280828005
 11
276.0241780812648
 21
437.9334481831092
 72
     1
 10
276.0241780812648
 20
437.9334481831092
 11
275.6968057847389
 21
438.2718132201144
 72
     1
 10
275.6968057847389
 20
438.2718132201144
 11
275.811005846881
 21
438.3823224605712
 72
     1
 10
275.811005846881
 20
438.3823224605712
 11
276.1981091423204
 21
437.9820809547318
 72
     1
 10
276.1981091423204
 20
437.9820809547318
 11
276.5400752211917
 21
438.0269092826493
 72
     1
 10
276.5400752211917
 20
438.0269092826493
 11
276.0100479868061
 21
438.5748157997195
 72
     1
 10
276.0100479868061
 20
438.5748157997195
 11
276.1242450204172
 21
438.6853122777748
 72
     1
 10
276.1242450204172
 20
438.6853122777748
 11
276.7170799275882
 21
438.072393590116
 72
     1
 10
276.7170799275882
 20
438.072393590116
 11
277.118284645594
 21
438.1441038812727
 72
     1
 10
277.118284645594
 20
438.1441038812727
 11
277.2530144140628
 21
438.0047902509605
 72
     1
 10
277.2530144140628
 20
438.0047902509605
 11
276.850900576359
 21
437.9341493059947
 97
        0
 75
     2
 76
     1
 98
        0
  0
MTEXT
  5
B3
330
88
100
AcDbEntity
  8
Isolation Mode
 62
     7
420
 16776959
100
AcDbMText
 10
272.469332291279
 20
438.3433151235804
 30
0.0
 40
0.9203999879941409
 41
0.0
 46
0.0
 71
     7
 72
     1
  1
\fHelvetica LT Std Condensed|b0|i0|c0|p34;\W1;312
 11
0.7003564669061226
 21
-0.7137932608695414
 31
0.0
 73
     1
 44
1.0
  0
MTEXT
  5
B4
330
88
100
AcDbEntity
  8
Isolation Mode
 62
     7
420
 16776959
100
AcDbMText
 10
274.8814274116885
 20
441.6527747546788
 30
0.0
 40
0.9203999879941409
 41
0.0
 46
0.0
 71
     7
 72
     1
  1
\fHelvetica LT Std Condensed|b0|i0|c0|p34;\W1;WS22
 11
0.7003564669061226
 21
-0.7137932608695414
 31
0.0
 73
     1
 44
1.0
  0
POLYLINE
  5
B5
330
88
100
AcDbEntity
  8
Isolation Mode
 62
     7
420
 16776959
370
     5
100
AcDb2dPolyline
 66
     1
 10
0.0
 20
0.0
 30
0.0
  0
VERTEX
  5
B6
330
B5
100
AcDbEntity
  8
Isolation Mode
 62
     7
420
 16776959
370
     5
100
AcDbVertex
100
AcDb2dVertex
 10
275.071649952296
 20
440.1945940783053
 30
0.0
  0
VERTEX
  5
152
330
B5
100
AcDbEntity
  8
0
100
AcDbVertex
100
AcDb2dVertex
 10
275.071649952296
 20
440.1945940783053
 30
0.0
  0
SEQEND
  5
B7
330
B5
100
AcDbEntity
  8
Isolation Mode
 62
     7
420
 16776959
370
     5
  0
SPLINE
  5
B8
330
88
100
AcDbEntity
  8
Isolation Mode
 62
     7
420
 16776959
370
     9
100
AcDbSpline
210
0.0
220
0.0
230
1.0
 70
    11
 71
     3
 72
    59
 73
    55
 74
     0
 42
0.0000000001
 43
0.0000000001
 12
1.0
 22
0.0
 32
0.0
 13
1.0
 23
0.0
 33
0.0
 40
0.0
 40
0.0
 40
0.0
 40
0.0
 40
1.0
 40
1.0
 40
1.0
 40
2.0
 40
2.0
 40
2.0
 40
3.0
 40
3.0
 40
3.0
 40
4.0
 40
4.0
 40
4.0
 40
5.0
 40
5.0
 40
5.0
 40
6.0
 40
6.0
 40
6.0
 40
7.0
 40
7.0
 40
7.0
 40
8.0
 40
8.0
 40
8.0
 40
9.0
 40
9.0
 40
9.0
 40
10.0
 40
10.0
 40
10.0
 40
11.0
 40
11.0
 40
11.0
 40
12.0
 40
12.0
 40
12.0
 40
13.0
 40
13.0
 40
13.0
 40
14.0
 40
14.0
 40
14.0
 40
15.0
 40
15.0
 40
15.0
 40
16.0
 40
16.0
 40
16.0
 40
17.0
 40
17.0
 40
17.0
 40
18.0
 40
18.0
 40
18.0
 40
18.0
 10
274.7551844047866
 20
440.5198441310868
 30
0.0
 10
274.7551844047866
 20
440.5198441310868
 30
0.0
 10
275.071649952296
 20
440.1945940783053
 30
0.0
 10
275.071649952296
 20
440.1945940783053
 30
0.0
 10
275.071649952296
 20
440.1945940783053
 30
0.0
 10
275.5738345578402
 20
440.3184510055953
 30
0.0
 10
275.5738345578402
 20
440.3184510055953
 30
0.0
 10
275.5738345578402
 20
440.3184510055953
 30
0.0
 10
275.7610250087873
 20
440.3716877707175
 30
0.0
 10
275.6983142493809
 20
440.1571720413849
 30
0.0
 10
275.6983142493809
 20
440.1571720413849
 30
0.0
 10
275.5693232420163
 20
439.6873725969117
 30
0.0
 10
275.5693232420163
 20
439.6873725969117
 30
0.0
 10
275.5693232420163
 20
439.6873725969117
 30
0.0
 10
275.9429634053504
 20
439.3065638995813
 30
0.0
 10
275.9429634053504
 20
439.3065638995813
 30
0.0
 10
275.9863492255663
 20
439.258490514092
 30
0.0
 10
276.0173464407453
 20
439.1792085975849
 30
0.0
 10
275.8896773055076
 20
439.1602760767701
 30
0.0
 10
275.8896773055076
 20
439.1602760767701
 30
0.0
 10
275.3998367336653
 20
439.0191105304493
 30
0.0
 10
275.3998367336653
 20
439.0191105304493
 30
0.0
 10
275.3998367336653
 20
439.0191105304493
 30
0.0
 10
275.2481774833714
 20
438.4930260917372
 30
0.0
 10
275.2481774833714
 20
438.4930260917372
 30
0.0
 10
275.2216436789213
 20
438.4466777683883
 30
0.0
 10
275.1433887679286
 20
438.3823645630009
 30
0.0
 10
275.0352466858949
 20
438.5067170809534
 30
0.0
 10
275.0352466858949
 20
438.5067170809534
 30
0.0
 10
274.7013882765814
 20
438.8396987790948
 30
0.0
 10
274.7013882765814
 20
438.8396987790948
 30
0.0
 10
274.7013882765814
 20
438.8396987790948
 30
0.0
 10
274.2189142721081
 20
438.7056210315995
 30
0.0
 10
274.2189142721081
 20
438.7056210315995
 30
0.0
 10
274.1687755949615
 20
438.6987353581617
 30
0.0
 10
274.0742927634228
 20
438.705219499675
 30
0.0
 10
274.0763677047371
 20
438.8491732199163
 30
0.0
 10
274.0763677047371
 20
438.8491732199163
 30
0.0
 10
274.190126563878
 20
439.3680513922363
 30
0.0
 10
274.190126563878
 20
439.3680513922363
 30
0.0
 10
274.190126563878
 20
439.3680513922363
 30
0.0
 10
273.8834728892716
 20
439.6765904566819
 30
0.0
 10
273.8834728892716
 20
439.6765904566819
 30
0.0
 10
273.8152297899833
 20
439.7505691623192
 30
0.0
 10
273.7786918610809
 20
439.8272165979406
 30
0.0
 10
273.9594432280492
 20
439.8800195481199
 30
0.0
 10
273.9594432280492
 20
439.8800195481199
 30
0.0
 10
274.4313138060634
 20
440.0062152118717
 30
0.0
 10
274.4313138060634
 20
440.0062152118717
 30
0.0
 10
274.4313138060634
 20
440.0062152118717
 30
0.0
 10
274.53950524215
 20
440.5122056461987
 30
0.0
 10
274.53950524215
 20
440.5122056461987
 30
0.0
 10
274.5775605440695
 20
440.6399068721084
 30
0.0
 10
274.6496900460606
 20
440.6246495648065
 30
0.0
 10
274.7551844047866
 20
440.5198441310868
 30
0.0
  0
SPLINE
  5
B9
330
88
100
AcDbEntity
  8
Isolation Mode
 62
     7
420
 16776959
370
     9
100
AcDbSpline
210
0.0
220
0.0
230
1.0
 70
    11
 71
     3
 72
    17
 73
    13
 74
     0
 42
0.0000000001
 43
0.0000000001
 12
1.0
 22
0.0
 32
0.0
 13
1.0
 23
0.0
 33
0.0
 40
0.0
 40
0.0
 40
0.0
 40
0.0
 40
1.0
 40
1.0
 40
1.0
 40
2.0
 40
2.0
 40
2.0
 40
3.0
 40
3.0
 40
3.0
 40
4.0
 40
4.0
 40
4.0
 40
4.0
 10
275.6907648008619
 20
438.7226008156013
 30
0.0
 10
276.1311752343263
 20
439.1547207420826
 30
0.0
 10
276.1378949791269
 20
439.8619370030365
 30
0.0
 10
275.7057750526465
 20
440.3023474365
 30
0.0
 10
275.273655126166
 20
440.7427578699644
 30
0.0
 10
274.5664388652112
 20
440.749477614766
 30
0.0
 10
274.1260284317477
 20
440.3173576882855
 30
0.0
 10
273.6856179982833
 20
439.8852377618041
 30
0.0
 10
273.6788982534817
 20
439.1780215008503
 30
0.0
 10
274.1110181799631
 20
438.7376110673858
 30
0.0
 10
274.5431381064436
 20
438.2972006339223
 30
0.0
 10
275.2503543673974
 20
438.2904808891208
 30
0.0
 10
275.6907648008619
 20
438.7226008156013
 30
0.0
  0
POLYLINE
  5
BA
330
88
100
AcDbEntity
  8
Isolation Mode
370
     0
100
AcDb2dPolyline
 66
     1
 10
0.0
 20
0.0
 30
0.0
  0
VERTEX
  5
BB
330
BA
100
AcDbEntity
  8
Isolation Mode
370
     0
100
AcDbVertex
100
AcDb2dVertex
 10
276.7140484324482
 20
433.3773044007303
 30
0.0
  0
VERTEX
  5
BC
330
BA
100
AcDbEntity
  8
Isolation Mode
370
     0
100
AcDbVertex
100
AcDb2dVertex
 10
276.3562308783385
 20
433.2576621390544
 30
0.0
  0
VERTEX
  5
BD
330
BA
100
AcDbEntity
  8
Isolation Mode
370
     0
100
AcDbVertex
100
AcDb2dVertex
 10
276.3160744608031
 20
433.3776915576209
 30
0.0
  0
VERTEX
  5
BE
330
BA
100
AcDbEntity
  8
Isolation Mode
370
     0
100
AcDbVertex
100
AcDb2dVertex
 10
276.7389437516049
 20
433.5191320145314
 30
0.0
  0
VERTEX
  5
BF
330
BA
100
AcDbEntity
  8
Isolation Mode
370
     0
100
AcDbVertex
100
AcDb2dVertex
 10
276.8264293622688
 20
433.7809320605156
 30
0.0
  0
VERTEX
  5
C0
330
BA
100
AcDbEntity
  8
Isolation Mode
370
     0
100
AcDbVertex
100
AcDb2dVertex
 10
276.246076169813
 20
433.5869625704199
 30
0.0
  0
VERTEX
  5
C1
330
BA
100
AcDbEntity
  8
Isolation Mode
370
     0
100
AcDbVertex
100
AcDb2dVertex
 10
276.2060611672459
 20
433.7069906453062
 30
0.0
  0
VERTEX
  5
C2
330
BA
100
AcDbEntity
  8
Isolation Mode
370
     0
100
AcDbVertex
100
AcDb2dVertex
 10
276.8524586885396
 20
433.9230317548127
 30
0.0
  0
VERTEX
  5
C3
330
BA
100
AcDbEntity
  8
Isolation Mode
370
     0
100
AcDbVertex
100
AcDb2dVertex
 10
276.9395956584312
 20
434.2374462314192
 30
0.0
  0
VERTEX
  5
C4
330
BA
100
AcDbEntity
  8
Isolation Mode
370
     0
100
AcDbVertex
100
AcDb2dVertex
 10
277.0849552473519
 20
434.2860547654227
 30
0.0
  0
VERTEX
  5
C5
330
BA
100
AcDbEntity
  8
Isolation Mode
370
     0
100
AcDbVertex
100
AcDb2dVertex
 10
276.9978133154409
 20
433.9716453460342
 30
0.0
  0
VERTEX
  5
C6
330
BA
100
AcDbEntity
  8
Isolation Mode
370
     0
100
AcDbVertex
100
AcDb2dVertex
 10
277.3535029266113
 20
434.0906006880678
 30
0.0
  0
VERTEX
  5
C7
330
BA
100
AcDbEntity
  8
Isolation Mode
370
     0
100
AcDbVertex
100
AcDb2dVertex
 10
277.3935879648225
 20
433.9705012338572
 30
0.0
  0
VERTEX
  5
C8
330
BA
100
AcDbEntity
  8
Isolation Mode
370
     0
100
AcDbVertex
100
AcDb2dVertex
 10
276.9729893756094
 20
433.8298877678781
 30
0.0
  0
VERTEX
  5
C9
330
BA
100
AcDbEntity
  8
Isolation Mode
370
     0
100
AcDbVertex
100
AcDb2dVertex
 10
276.8876317078848
 20
433.5687746415369
 30
0.0
  0
VERTEX
  5
CA
330
BA
100
AcDbEntity
  8
Isolation Mode
370
     0
100
AcDbVertex
100
AcDb2dVertex
 10
277.4635162201685
 20
433.7613016003825
 30
0.0
  0
VERTEX
  5
CB
330
BA
100
AcDbEntity
  8
Isolation Mode
370
     0
100
AcDbVertex
100
AcDb2dVertex
 10
277.5036726377048
 20
433.641272181816
 30
0.0
  0
VERTEX
  5
CC
330
BA
100
AcDbEntity
  8
Isolation Mode
370
     0
100
AcDbVertex
100
AcDb2dVertex
 10
276.859408029437
 20
433.425912926511
 30
0.0
  0
VERTEX
  5
CD
330
BA
100
AcDbEntity
  8
Isolation Mode
370
     0
100
AcDbVertex
100
AcDb2dVertex
 10
276.7730579804311
 20
433.1129809822805
 30
0.0
  0
VERTEX
  5
CE
330
BA
100
AcDbEntity
  8
Isolation Mode
370
     0
100
AcDbVertex
100
AcDb2dVertex
 10
276.6266393820597
 20
433.0640239312379
 30
0.0
  0
VERTEX
  5
CF
330
BA
100
AcDbEntity
  8
Isolation Mode
370
     0
100
AcDbVertex
100
AcDb2dVertex
 10
276.7140484324482
 20
433.3773044007303
 30
0.0
  0
SEQEND
  5
D1
330
BA
100
AcDbEntity
  8
Isolation Mode
370
     0
  0
HATCH
  5
D0
330
88
100
AcDbEntity
  8
Isolation Mode
 62
     7
420
 16776959
100
AcDbHatch
 10
0.0
 20
0.0
 30
0.0
210
0.0
220
0.0
230
1.0
  2
SOLID
 70
     1
 71
     0
 91
        1
 92
        1
 93
       20
 72
     1
 10
276.7140484324482
 20
433.3773044007303
 11
276.3562308783385
 21
433.2576621390544
 72
     1
 10
276.3562308783385
 20
433.2576621390544
 11
276.3160744608031
 21
433.3776915576209
 72
     1
 10
276.3160744608031
 20
433.3776915576209
 11
276.7389437516049
 21
433.5191320145314
 72
     1
 10
276.7389437516049
 20
433.5191320145314
 11
276.8264293622688
 21
433.7809320605156
 72
     1
 10
276.8264293622688
 20
433.7809320605156
 11
276.246076169813
 21
433.5869625704199
 72
     1
 10
276.246076169813
 20
433.5869625704199
 11
276.2060611672459
 21
433.7069906453062
 72
     1
 10
276.2060611672459
 20
433.7069906453062
 11
276.8524586885396
 21
433.9230317548127
 72
     1
 10
276.8524586885396
 20
433.9230317548127
 11
276.9395956584312
 21
434.2374462314192
 72
     1
 10
276.9395956584312
 20
434.2374462314192
 11
277.0849552473519
 21
434.2860547654227
 72
     1
 10
277.0849552473519
 20
434.2860547654227
 11
276.9978133154409
 21
433.9716453460342
 72
     1
 10
276.9978133154409
 20
433.9716453460342
 11
277.3535029266113
 21
434.0906006880678
 72
     1
 10
277.3535029266113
 20
434.0906006880678
 11
277.3935879648225
 21
433.9705012338572
 72
     1
 10
277.3935879648225
 20
433.9705012338572
 11
276.9729893756094
 21
433.8298877678781
 72
     1
 10
276.9729893756094
 20
433.8298877678781
 11
276.8876317078848
 21
433.5687746415369
 72
     1
 10
276.8876317078848
 20
433.5687746415369
 11
277.4635162201685
 21
433.7613016003825
 72
     1
 10
277.4635162201685
 20
433.7613016003825
 11
277.5036726377048
 21
433.641272181816
 72
     1
 10
277.5036726377048
 20
433.641272181816
 11
276.859408029437
 21
433.425912926511
 72
     1
 10
276.859408029437
 20
433.425912926511
 11
276.7730579804311
 21
433.1129809822805
 72
     1
 10
276.7730579804311
 20
433.1129809822805
 11
276.6266393820597
 21
433.0640239312379
 72
     1
 10
276.6266393820597
 20
433.0640239312379
 11
276.7140484324482
 21
433.3773044007303
 97
        0
 75
     2
 76
     1
 98
        0
  0
SPLINE
  5
D2
330
88
100
AcDbEntity
  8
Isolation Mode
 62
     7
420
 16776959
370
     9
100
AcDbSpline
210
0.0
220
0.0
230
1.0
 70
    11
 71
     3
 72
    20
 73
    16
 74
     0
 42
0.0000000001
 43
0.0000000001
 12
1.0
 22
0.0
 32
0.0
 13
1.0
 23
0.0
 33
0.0
 40
0.0
 40
0.0
 40
0.0
 40
0.0
 40
1.0
 40
1.0
 40
1.0
 40
2.0
 40
2.0
 40
2.0
 40
3.0
 40
3.0
 40
3.0
 40
4.0
 40
4.0
 40
4.0
 40
5.0
 40
5.0
 40
5.0
 40
5.0
 10
274.2571353724925
 20
445.8315894530879
 30
0.0
 10
274.3140166971243
 20
445.8874000151227
 30
0.0
 10
274.4054469288658
 20
445.886597159275
 30
0.0
 10
274.4612605552056
 20
445.8297127115484
 30
0.0
 10
274.5170789638614
 20
445.7728233897533
 30
0.0
 10
274.5161443533907
 20
445.6813944059013
 30
0.0
 10
274.4592630287598
 20
445.6255838438656
 30
0.0
 10
274.4023657098023
 20
445.5697575885897
 30
0.0
 10
274.3110068534224
 20
445.5706304841215
 30
0.0
 10
274.2551884447666
 20
445.6275198059157
 30
0.0
 10
274.1993748184268
 20
445.6844042536422
 30
0.0
 10
274.2002380535359
 20
445.7757631978111
 30
0.0
 10
274.2571353724925
 20
445.8315894530879
 30
0.0
 10
274.2571353724925
 20
445.8315894530879
 30
0.0
 10
274.2571353724925
 20
445.8315894530879
 30
0.0
 10
274.2571353724925
 20
445.8315894530879
 30
0.0
  0
SPLINE
  5
D3
330
88
100
AcDbEntity
  8
Isolation Mode
 62
     7
420
 16776959
370
     9
100
AcDbSpline
210
0.0
220
0.0
230
1.0
 70
    11
 71
     3
 72
    20
 73
    16
 74
     0
 42
0.0000000001
 43
0.0000000001
 12
1.0
 22
0.0
 32
0.0
 13
1.0
 23
0.0
 33
0.0
 40
0.0
 40
0.0
 40
0.0
 40
0.0
 40
1.0
 40
1.0
 40
1.0
 40
2.0
 40
2.0
 40
2.0
 40
3.0
 40
3.0
 40
3.0
 40
4.0
 40
4.0
 40
4.0
 40
5.0
 40
5.0
 40
5.0
 40
5.0
 10
273.2767017997567
 20
445.5808824061887
 30
0.0
 10
273.3335911215509
 20
445.6367008148445
 30
0.0
 10
273.4249451916521
 20
445.6358327974194
 30
0.0
 10
273.4807683750514
 20
445.5789386092756
 30
0.0
 10
273.5365820089628
 20
445.522054153831
 30
0.0
 10
273.5357139915386
 20
445.4307000837298
 30
0.0
 10
273.4788246697435
 20
445.374881675074
 30
0.0
 10
273.4219353479502
 20
445.3190632664191
 30
0.0
 10
273.3305812778481
 20
445.3199312838433
 30
0.0
 10
273.2747676439367
 20
445.3768157392878
 30
0.0
 10
273.2189444605374
 20
445.4337099274326
 30
0.0
 10
273.2198124779625
 20
445.5250639975338
 30
0.0
 10
273.2767017997567
 20
445.5808824061887
 30
0.0
 10
273.2767017997567
 20
445.5808824061887
 30
0.0
 10
273.2767017997567
 20
445.5808824061887
 30
0.0
 10
273.2767017997567
 20
445.5808824061887
 30
0.0
  0
SPLINE
  5
D4
330
88
100
AcDbEntity
  8
Isolation Mode
 62
     7
420
 16776959
370
     9
100
AcDbSpline
210
0.0
220
0.0
230
1.0
 70
    11
 71
     3
 72
    20
 73
    16
 74
     0
 42
0.0000000001
 43
0.0000000001
 12
1.0
 22
0.0
 32
0.0
 13
1.0
 23
0.0
 33
0.0
 40
0.0
 40
0.0
 40
0.0
 40
0.0
 40
1.0
 40
1.0
 40
1.0
 40
2.0
 40
2.0
 40
2.0
 40
3.0
 40
3.0
 40
3.0
 40
4.0
 40
4.0
 40
4.0
 40
5.0
 40
5.0
 40
5.0
 40
5.0
 10
272.2962061885382
 20
445.3302545852357
 30
0.0
 10
272.3530955103324
 20
445.3860729938915
 30
0.0
 10
272.4444495804337
 20
445.3852049764664
 30
0.0
 10
272.5002679890895
 20
445.3283156546722
 30
0.0
 10
272.5560863977453
 20
445.271426332878
 30
0.0
 10
272.5552183803202
 20
445.1800722627768
 30
0.0
 10
272.498329058526
 20
445.124253854121
 30
0.0
 10
272.4414397367318
 20
445.0684354454652
 30
0.0
 10
272.3500856666305
 20
445.0693034628903
 30
0.0
 10
272.2942672579748
 20
445.1261927846845
 30
0.0
 10
272.238448849319
 20
445.1830821064787
 30
0.0
 10
272.239316866744
 20
445.2744361765799
 30
0.0
 10
272.2962061885382
 20
445.3302545852357
 30
0.0
 10
272.2962061885382
 20
445.3302545852357
 30
0.0
 10
272.2962061885382
 20
445.3302545852357
 30
0.0
 10
272.2962061885382
 20
445.3302545852357
 30
0.0
  0
INSERT
  5
D6
330
88
100
AcDbEntity
  8
Isolation Mode
100
AcDbBlockReference
  2
block 7
 10
0.0
 20
0.0
 30
0.0
  0
ENDBLK
  5
8B
330
88
100
AcDbEntity
  8
0
100
AcDbBlockEnd
  0
BLOCK
  5
D7
330
D5
100
AcDbEntity
  8
0
100
AcDbBlockBegin
  2
block 7
 70
     0
 10
0.0
 20
0.0
 30
0.0
  3
block 7
  1

  0
SPLINE
  5
D9
330
D5
100
AcDbEntity
  8
Isolation Mode
370
     0
100
AcDbSpline
210
0.0
220
0.0
230
1.0
 70
    11
 71
     3
 72
    38
 73
    34
 74
     0
 42
0.0000000001
 43
0.0000000001
 12
1.0
 22
0.0
 32
0.0
 13
1.0
 23
0.0
 33
0.0
 40
0.0
 40
0.0
 40
0.0
 40
0.0
 40
1.0
 40
1.0
 40
1.0
 40
2.0
 40
2.0
 40
2.0
 40
3.0
 40
3.0
 40
3.0
 40
4.0
 40
4.0
 40
4.0
 40
5.0
 40
5.0
 40
5.0
 40
6.0
 40
6.0
 40
6.0
 40
7.0
 40
7.0
 40
7.0
 40
8.0
 40
8.0
 40
8.0
 40
9.0
 40
9.0
 40
9.0
 40
10.0
 40
10.0
 40
10.0
 40
11.0
 40
11.0
 40
11.0
 40
11.0
 10
272.586793267652
 20
441.20975425914
 30
0.0
 10
272.586793267652
 20
441.20975425914
 30
0.0
 10
272.5584366999465
 20
441.1873952564329
 30
0.0
 10
272.5584366999465
 20
441.1873952564329
 30
0.0
 10
272.5584366999465
 20
441.1873952564329
 30
0.0
 10
272.5751014808393
 20
441.155132816798
 30
0.0
 10
272.5751014808393
 20
441.155132816798
 30
0.0
 10
272.5814236646393
 20
441.1432635294204
 30
0.0
 10
272.7261162320183
 20
440.8617203606473
 30
0.0
 10
272.9274416720391
 20
440.6611014604432
 30
0.0
 10
273.1677123051149
 20
440.4213613155771
 30
0.0
 10
273.3819408449226
 20
440.3730789140691
 30
0.0
 10
273.390831176459
 20
440.3710144526467
 30
0.0
 10
273.390831176459
 20
440.3710144526467
 30
0.0
 10
273.4178604113713
 20
440.36531266157
 30
0.0
 10
273.4178604113713
 20
440.36531266157
 30
0.0
 10
273.4178604113713
 20
440.36531266157
 30
0.0
 10
273.4348992155265
 20
440.3867843213102
 30
0.0
 10
273.4348992155265
 20
440.3867843213102
 30
0.0
 10
273.4409085155867
 20
440.3940814651569
 30
0.0
 10
273.5789167122057
 20
440.5705497062836
 30
0.0
 10
273.6498959609826
 20
440.880458446054
 30
0.0
 10
273.7211462170972
 20
441.1907731881674
 30
0.0
 10
273.6670628281572
 20
441.4153793197493
 30
0.0
 10
273.664539491765
 20
441.4246619361747
 30
0.0
 10
273.664539491765
 20
441.4246619361747
 30
0.0
 10
273.6573124359993
 20
441.453445312115
 30
0.0
 10
273.6573124359993
 20
441.453445312115
 30
0.0
 10
273.6573124359993
 20
441.453445312115
 30
0.0
 10
273.6284340570455
 20
441.4580332512814
 30
0.0
 10
273.6284340570455
 20
441.4580332512814
 30
0.0
 10
273.6034451330679
 20
441.4618142411291
 30
0.0
 10
273.0145807734061
 20
441.5487932463784
 30
0.0
 10
272.586793267652
 20
441.20975425914
 30
0.0
  0
SPLINE
  5
DA
330
D5
100
AcDbEntity
  8
Isolation Mode
370
     0
100
AcDbSpline
210
0.0
220
0.0
230
1.0
 70
    11
 71
     3
 72
    23
 73
    19
 74
     0
 42
0.0000000001
 43
0.0000000001
 12
1.0
 22
0.0
 32
0.0
 13
1.0
 23
0.0
 33
0.0
 40
0.0
 40
0.0
 40
0.0
 40
0.0
 40
1.0
 40
1.0
 40
1.0
 40
2.0
 40
2.0
 40
2.0
 40
3.0
 40
3.0
 40
3.0
 40
4.0
 40
4.0
 40
4.0
 40
5.0
 40
5.0
 40
5.0
 40
6.0
 40
6.0
 40
6.0
 40
6.0
 10
273.5838619314645
 20
441.3738122612458
 30
0.0
 10
273.5886329101895
 20
441.3475320838124
 30
0.0
 10
273.5945355372141
 20
441.30639124149
 30
0.0
 10
273.5967862183743
 20
441.2381309734083
 30
0.0
 10
273.5996312695152
 20
441.1505601717899
 30
0.0
 10
273.5939207002693
 20
441.033300124448
 30
0.0
 10
273.5634507468385
 20
440.9001525709773
 30
0.0
 10
273.5101809893331
 20
440.6665909355679
 30
0.0
 10
273.4177572221988
 20
440.5173563041099
 30
0.0
 10
273.3823293622781
 20
440.4660639591975
 30
0.0
 10
273.3250141528479
 20
440.4844991588116
 30
0.0
 10
273.1679877710749
 20
440.54658807755
 30
0.0
 10
272.9898419823185
 20
440.7238681783856
 30
0.0
 10
272.8344046699194
 20
440.8792891855655
 30
0.0
 10
272.7148708293025
 20
441.0847880373676
 30
0.0
 10
272.6732985603512
 20
441.1599983164597
 30
0.0
 10
273.0164411007117
 20
441.4096813913684
 30
0.0
 10
273.4668076645039
 20
441.3854686970644
 30
0.0
 10
273.5838619314645
 20
441.3738122612458
 30
0.0
  0
HATCH
  5
DB
330
D5
100
AcDbEntity
  8
Isolation Mode
 62
     7
420
 16776959
100
AcDbHatch
 10
0.0
 20
0.0
 30
0.0
210
0.0
220
0.0
230
1.0
  2
SOLID
 70
     1
 71
     0
 91
        2
 92
        1
 93
        1
 72
     4
 94
        3
 73
     0
 74
     1
 95
       38
 96
       34
 40
0.0
 40
0.0
 40
0.0
 40
0.0
 40
1.0
 40
1.0
 40
1.0
 40
2.0
 40
2.0
 40
2.0
 40
3.0
 40
3.0
 40
3.0
 40
4.0
 40
4.0
 40
4.0
 40
5.0
 40
5.0
 40
5.0
 40
6.0
 40
6.0
 40
6.0
 40
7.0
 40
7.0
 40
7.0
 40
8.0
 40
8.0
 40
8.0
 40
9.0
 40
9.0
 40
9.0
 40
10.0
 40
10.0
 40
10.0
 40
11.0
 40
11.0
 40
11.0
 40
11.0
 10
272.586793267652
 20
441.20975425914
 10
272.586793267652
 20
441.20975425914
 10
272.5584366999465
 20
441.1873952564329
 10
272.5584366999465
 20
441.1873952564329
 10
272.5584366999465
 20
441.1873952564329
 10
272.5751014808393
 20
441.155132816798
 10
272.5751014808393
 20
441.155132816798
 10
272.5814236646393
 20
441.1432635294204
 10
272.7261162320183
 20
440.8617203606473
 10
272.9274416720391
 20
440.6611014604432
 10
273.1677123051149
 20
440.4213613155771
 10
273.3819408449226
 20
440.3730789140691
 10
273.390831176459
 20
440.3710144526467
 10
273.390831176459
 20
440.3710144526467
 10
273.4178604113713
 20
440.36531266157
 10
273.4178604113713
 20
440.36531266157
 10
273.4178604113713
 20
440.36531266157
 10
273.4348992155265
 20
440.3867843213102
 10
273.4348992155265
 20
440.3867843213102
 10
273.4409085155867
 20
440.3940814651569
 10
273.5789167122057
 20
440.5705497062836
 10
273.6498959609826
 20
440.880458446054
 10
273.7211462170972
 20
441.1907731881674
 10
273.6670628281572
 20
441.4153793197493
 10
273.664539491765
 20
441.4246619361747
 10
273.664539491765
 20
441.4246619361747
 10
273.6573124359993
 20
441.453445312115
 10
273.6573124359993
 20
441.453445312115
 10
273.6573124359993
 20
441.453445312115
 10
273.6284340570455
 20
441.4580332512814
 10
273.6284340570455
 20
441.4580332512814
 10
273.6034451330679
 20
441.4618142411291
 10
273.0145807734061
 20
441.5487932463784
 10
272.586793267652
 20
441.20975425914
 97
        0
 97
        0
 92
        1
 93
        1
 72
     4
 94
        3
 73
     0
 74
     1
 95
       23
 96
       19
 40
0.0
 40
0.0
 40
0.0
 40
0.0
 40
1.0
 40
1.0
 40
1.0
 40
2.0
 40
2.0
 40
2.0
 40
3.0
 40
3.0
 40
3.0
 40
4.0
 40
4.0
 40
4.0
 40
5.0
 40
5.0
 40
5.0
 40
6.0
 40
6.0
 40
6.0
 40
6.0
 10
273.5838619314645
 20
441.3738122612458
 10
273.5886329101895
 20
441.3475320838124
 10
273.5945355372141
 20
441.30639124149
 10
273.5967862183743
 20
441.2381309734083
 10
273.5996312695152
 20
441.1505601717899
 10
273.5939207002693
 20
441.033300124448
 10
273.5634507468385
 20
440.9001525709773
 10
273.5101809893331
 20
440.6665909355679
 10
273.4177572221988
 20
440.5173563041099
 10
273.3823293622781
 20
440.4660639591975
 10
273.3250141528479
 20
440.4844991588116
 10
273.1679877710749
 20
440.54658807755
 10
272.9898419823185
 20
440.7238681783856
 10
272.8344046699194
 20
440.8792891855655
 10
272.7148708293025
 20
441.0847880373676
 10
272.6732985603512
 20
441.1599983164597
 10
273.0164411007117
 20
441.4096813913684
 10
273.4668076645039
 20
441.3854686970644
 10
273.5838619314645
 20
441.3738122612458
 97
        0
 97
        0
 75
     2
 76
     1
 98
        0
  0
ENDBLK
  5
D8
330
D5
100
AcDbEntity
  8
0
100
AcDbBlockEnd
  0
BLOCK
  5
DE
330
DC
100
AcDbEntity
  8
0
100
AcDbBlockBegin
  2
block 8
 70
     0
 10
0.0
 20
0.0
 30
0.0
  3
block 8
  1

  0
SPLINE
  5
E0
330
DC
100
AcDbEntity
  8
Isolation Mode
 62
     7
420
 16776959
370
    18
100
AcDbSpline
210
0.0
220
0.0
230
1.0
 70
    11
 71
     3
 72
    29
 73
    25
 74
     0
 42
0.0000000001
 43
0.0000000001
 12
1.0
 22
0.0
 32
0.0
 13
1.0
 23
0.0
 33
0.0
 40
0.0
 40
0.0
 40
0.0
 40
0.0
 40
1.0
 40
1.0
 40
1.0
 40
2.0
 40
2.0
 40
2.0
 40
3.0
 40
3.0
 40
3.0
 40
4.0
 40
4.0
 40
4.0
 40
5.0
 40
5.0
 40
5.0
 40
6.0
 40
6.0
 40
6.0
 40
7.0
 40
7.0
 40
7.0
 40
8.0
 40
8.0
 40
8.0
 40
8.0
 10
323.4940626884745
 20
493.6654887150789
 30
0.0
 10
323.4940626884745
 20
493.6654887150789
 30
0.0
 10
327.644333030612
 20
488.3506376548057
 30
0.0
 10
327.644333030612
 20
488.3506376548057
 30
0.0
 10
327.644333030612
 20
488.3506376548057
 30
0.0
 10
327.3367161372844
 20
474.7930494370139
 30
0.0
 10
327.3367161372844
 20
474.7930494370139
 30
0.0
 10
327.3367161372844
 20
474.7930494370139
 30
0.0
 10
322.8513036999975
 20
471.1387810719707
 30
0.0
 10
322.8513036999975
 20
471.1387810719707
 30
0.0
 10
322.8513036999975
 20
471.1387810719707
 30
0.0
 10
309.9181798191239
 20
471.3179012059227
 30
0.0
 10
308.6878742412518
 20
471.6066684283733
 30
0.0
 10
308.6878742412518
 20
471.6066684283733
 30
0.0
 10
304.6385993959993
 20
476.0137354035323
 30
0.0
 10
304.6385993959993
 20
476.0137354035323
 30
0.0
 10
304.6385993959993
 20
476.0137354035323
 30
0.0
 10
304.8935746935585
 20
490.2541461003857
 30
0.0
 10
304.8935746935585
 20
490.2541461003857
 30
0.0
 10
304.8935746935585
 20
490.2541461003857
 30
0.0
 10
310.7703885321007
 20
494.5367637181271
 30
0.0
 10
310.7703885321007
 20
494.5367637181271
 30
0.0
 10
310.7703885321007
 20
494.5367637181271
 30
0.0
 10
323.4940626884745
 20
493.6654887150789
 30
0.0
 10
323.4940626884745
 20
493.6654887150789
 30
0.0
  0
HATCH
  5
E1
330
DC
100
AcDbEntity
  8
Isolation Mode
 62
   250
420
  2301728
100
AcDbHatch
 10
0.0
 20
0.0
 30
0.0
210
0.0
220
0.0
230
1.0
  2
SOLID
 70
     1
 71
     0
 91
        1
 92
        1
 93
        1
 72
     4
 94
        3
 73
     0
 74
     1
 95
       29
 96
       25
 40
0.0
 40
0.0
 40
0.0
 40
0.0
 40
1.0
 40
1.0
 40
1.0
 40
2.0
 40
2.0
 40
2.0
 40
3.0
 40
3.0
 40
3.0
 40
4.0
 40
4.0
 40
4.0
 40
5.0
 40
5.0
 40
5.0
 40
6.0
 40
6.0
 40
6.0
 40
7.0
 40
7.0
 40
7.0
 40
8.0
 40
8.0
 40
8.0
 40
8.0
 10
323.4940626884745
 20
493.6654887150789
 10
323.4940626884745
 20
493.6654887150789
 10
327.644333030612
 20
488.3506376548057
 10
327.644333030612
 20
488.3506376548057
 10
327.644333030612
 20
488.3506376548057
 10
327.3367161372844
 20
474.7930494370139
 10
327.3367161372844
 20
474.7930494370139
 10
327.3367161372844
 20
474.7930494370139
 10
322.8513036999975
 20
471.1387810719707
 10
322.8513036999975
 20
471.1387810719707
 10
322.8513036999975
 20
471.1387810719707
 10
309.9181798191239
 20
471.3179012059227
 10
308.6878742412518
 20
471.6066684283733
 10
308.6878742412518
 20
471.6066684283733
 10
304.6385993959993
 20
476.0137354035323
 10
304.6385993959993
 20
476.0137354035323
 10
304.6385993959993
 20
476.0137354035323
 10
304.8935746935585
 20
490.2541461003857
 10
304.8935746935585
 20
490.2541461003857
 10
304.8935746935585
 20
490.2541461003857
 10
310.7703885321007
 20
494.5367637181271
 10
310.7703885321007
 20
494.5367637181271
 10
310.7703885321007
 20
494.5367637181271
 10
323.4940626884745
 20
493.6654887150789
 10
323.4940626884745
 20
493.6654887150789
 97
        0
 97
        0
 75
     2
 76
     1
 98
        0
  0
SPLINE
  5
E2
330
DC
100
AcDbEntity
  8
Isolation Mode
 62
     7
420
 16776959
370
    18
100
AcDbSpline
210
0.0
220
0.0
230
1.0
 70
    11
 71
     3
 72
    20
 73
    16
 74
     0
 42
0.0000000001
 43
0.0000000001
 12
1.0
 22
0.0
 32
0.0
 13
1.0
 23
0.0
 33
0.0
 40
0.0
 40
0.0
 40
0.0
 40
0.0
 40
1.0
 40
1.0
 40
1.0
 40
2.0
 40
2.0
 40
2.0
 40
3.0
 40
3.0
 40
3.0
 40
4.0
 40
4.0
 40
4.0
 40
5.0
 40
5.0
 40
5.0
 40
5.0
 10
311.698597337192
 20
487.4746612436056
 30
0.0
 10
314.4637252731573
 20
490.0152995089466
 30
0.0
 10
318.7649604296239
 20
489.8332492648515
 30
0.0
 10
321.3055986949639
 20
487.0681213288863
 30
0.0
 10
323.8462417297051
 20
484.3029882020983
 30
0.0
 10
323.664244420781
 20
480.0018265688868
 30
0.0
 10
320.8991164848157
 20
477.4611883035459
 30
0.0
 10
318.1339885488505
 20
474.920550038205
 30
0.0
 10
313.8328341231845
 20
475.1025290838461
 30
0.0
 10
311.2921910884434
 20
477.8676622106341
 30
0.0
 10
308.7515528231015
 20
480.6327901465993
 30
0.0
 10
308.9334694012268
 20
484.9340229782647
 30
0.0
 10
311.698597337192
 20
487.4746612436056
 30
0.0
 10
311.698597337192
 20
487.4746612436056
 30
0.0
 10
311.698597337192
 20
487.4746612436056
 30
0.0
 10
311.698597337192
 20
487.4746612436056
 30
0.0
  0
HATCH
  5
E3
330
DC
100
AcDbEntity
  8
Isolation Mode
 62
   250
420
  2301728
100
AcDbHatch
 10
0.0
 20
0.0
 30
0.0
210
0.0
220
0.0
230
1.0
  2
SOLID
 70
     1
 71
     0
 91
        1
 92
        1
 93
        1
 72
     4
 94
        3
 73
     0
 74
     1
 95
       20
 96
       16
 40
0.0
 40
0.0
 40
0.0
 40
0.0
 40
1.0
 40
1.0
 40
1.0
 40
2.0
 40
2.0
 40
2.0
 40
3.0
 40
3.0
 40
3.0
 40
4.0
 40
4.0
 40
4.0
 40
5.0
 40
5.0
 40
5.0
 40
5.0
 10
311.698597337192
 20
487.4746612436056
 10
314.4637252731573
 20
490.0152995089466
 10
318.7649604296239
 20
489.8332492648515
 10
321.3055986949639
 20
487.0681213288863
 10
323.8462417297051
 20
484.3029882020983
 10
323.664244420781
 20
480.0018265688868
 10
320.8991164848157
 20
477.4611883035459
 10
318.1339885488505
 20
474.920550038205
 10
313.8328341231845
 20
475.1025290838461
 10
311.2921910884434
 20
477.8676622106341
 10
308.7515528231015
 20
480.6327901465993
 10
308.9334694012268
 20
484.9340229782647
 10
311.698597337192
 20
487.4746612436056
 10
311.698597337192
 20
487.4746612436056
 10
311.698597337192
 20
487.4746612436056
 10
311.698597337192
 20
487.4746612436056
 97
        0
 97
        0
 75
     2
 76
     1
 98
        0
  0
POLYLINE
  5
E4
330
DC
100
AcDbEntity
  8
Isolation Mode
 62
     7
420
 16776959
370
    13
100
AcDb2dPolyline
 66
     1
 10
0.0
 20
0.0
 30
0.0
  0
VERTEX
  5
E5
330
E4
100
AcDbEntity
  8
Isolation Mode
 62
     7
420
 16776959
370
    13
100
AcDbVertex
100
AcDb2dVertex
 10
312.1847901569508
 20
486.9455086418684
 30
0.0
  0
VERTEX
  5
E6
330
E4
100
AcDbEntity
  8
Isolation Mode
 62
     7
420
 16776959
370
    13
100
AcDbVertex
100
AcDb2dVertex
 10
310.3919872996794
 20
481.2324793610478
 30
0.0
  0
VERTEX
  5
E7
330
E4
100
AcDbEntity
  8
Isolation Mode
 62
     7
420
 16776959
370
    13
100
AcDbVertex
100
AcDb2dVertex
 10
314.4431656281868
 20
476.8233407116968
 30
0.0
  0
VERTEX
  5
E8
330
E4
100
AcDbEntity
  8
Isolation Mode
 62
     7
420
 16776959
370
    13
100
AcDbVertex
100
AcDb2dVertex
 10
320.287214472306
 20
478.1271577065672
 30
0.0
  0
VERTEX
  5
E9
330
E4
100
AcDbEntity
  8
Isolation Mode
 62
     7
420
 16776959
370
    13
100
AcDbVertex
100
AcDb2dVertex
 10
322.0800173295775
 20
483.8401869873887
 30
0.0
  0
VERTEX
  5
EA
330
E4
100
AcDbEntity
  8
Isolation Mode
 62
     7
420
 16776959
370
    13
100
AcDbVertex
100
AcDb2dVertex
 10
318.0288390010701
 20
488.2493256367397
 30
0.0
  0
VERTEX
  5
EB
330
E4
100
AcDbEntity
  8
Isolation Mode
 62
     7
420
 16776959
370
    13
100
AcDbVertex
100
AcDb2dVertex
 10
312.1847901569508
 20
486.9455086418684
 30
0.0
  0
SEQEND
  5
ED
330
E4
100
AcDbEntity
  8
Isolation Mode
 62
     7
420
 16776959
370
    13
  0
HATCH
  5
EC
330
DC
100
AcDbEntity
  8
Isolation Mode
 62
   250
420
  2301728
100
AcDbHatch
 10
0.0
 20
0.0
 30
0.0
210
0.0
220
0.0
230
1.0
  2
SOLID
 70
     1
 71
     0
 91
        1
 92
        1
 93
        6
 72
     1
 10
312.1847901569508
 20
486.9455086418684
 11
310.3919872996794
 21
481.2324793610478
 72
     1
 10
310.3919872996794
 20
481.2324793610478
 11
314.4431656281868
 21
476.8233407116968
 72
     1
 10
314.4431656281868
 20
476.8233407116968
 11
320.287214472306
 21
478.1271577065672
 72
     1
 10
320.287214472306
 20
478.1271577065672
 11
322.0800173295775
 21
483.8401869873887
 72
     1
 10
322.0800173295775
 20
483.8401869873887
 11
318.0288390010701
 21
488.2493256367397
 72
     1
 10
318.0288390010701
 20
488.2493256367397
 11
312.1847901569508
 21
486.9455086418684
 97
        0
 75
     2
 76
     1
 98
        0
  0
SPLINE
  5
EE
330
DC
100
AcDbEntity
  8
Isolation Mode
 62
     7
420
 16776959
370
    13
100
AcDbSpline
210
0.0
220
0.0
230
1.0
 70
    11
 71
     3
 72
    20
 73
    16
 74
     0
 42
0.0000000001
 43
0.0000000001
 12
1.0
 22
0.0
 32
0.0
 13
1.0
 23
0.0
 33
0.0
 40
0.0
 40
0.0
 40
0.0
 40
0.0
 40
1.0
 40
1.0
 40
1.0
 40
2.0
 40
2.0
 40
2.0
 40
3.0
 40
3.0
 40
3.0
 40
4.0
 40
4.0
 40
4.0
 40
5.0
 40
5.0
 40
5.0
 40
5.0
 10
317.5595136793163
 20
479.3580440292435
 30
0.0
 10
319.3075989960034
 20
480.0968417431795
 30
0.0
 10
320.1257635884358
 20
482.1128997062642
 30
0.0
 10
319.3869583818396
 20
483.8609931776591
 30
0.0
 10
318.6481614235381
 20
485.6090942277033
 30
0.0
 10
316.6321688487587
 20
486.427318899825
 30
0.0
 10
314.884083575098
 20
485.6885212254219
 30
0.0
 10
313.1359082693689
 20
484.9496408282939
 30
0.0
 10
312.3177436769365
 20
482.9335828652102
 30
0.0
 10
313.0565488835327
 20
481.1854893938153
 30
0.0
 10
313.795354090129
 20
479.4373959224195
 30
0.0
 10
315.8114120532136
 20
478.6192313299871
 30
0.0
 10
317.5595136793163
 20
479.3580440292435
 30
0.0
 10
317.5595136793163
 20
479.3580440292435
 30
0.0
 10
317.5595136793163
 20
479.3580440292435
 30
0.0
 10
317.5595136793163
 20
479.3580440292435
 30
0.0
  0
POLYLINE
  5
EF
330
DC
100
AcDbEntity
  8
Isolation Mode
370
     0
100
AcDb2dPolyline
 66
     1
 10
0.0
 20
0.0
 30
0.0
  0
VERTEX
  5
F0
330
EF
100
AcDbEntity
  8
Isolation Mode
370
     0
100
AcDbVertex
100
AcDb2dVertex
 10
318.1234399826626
 20
480.88207303339
 30
0.0
  0
VERTEX
  5
F1
330
EF
100
AcDbEntity
  8
Isolation Mode
370
     0
100
AcDbVertex
100
AcDb2dVertex
 10
318.4414420688536
 20
480.5309635968724
 30
0.0
  0
VERTEX
  5
F2
330
EF
100
AcDbEntity
  8
Isolation Mode
370
     0
100
AcDbVertex
100
AcDb2dVertex
 10
318.3236810894759
 20
480.4242569824191
 30
0.0
  0
VERTEX
  5
F3
330
EF
100
AcDbEntity
  8
Isolation Mode
370
     0
100
AcDbVertex
100
AcDb2dVertex
 10
317.9479475781955
 20
480.8391021975531
 30
0.0
  0
VERTEX
  5
F4
330
EF
100
AcDbEntity
  8
Isolation Mode
370
     0
100
AcDbVertex
100
AcDb2dVertex
 10
317.6027944952548
 20
480.8077077023127
 30
0.0
  0
VERTEX
  5
F5
330
EF
100
AcDbEntity
  8
Isolation Mode
370
     0
100
AcDbVertex
100
AcDb2dVertex
 10
318.1184281795668
 20
480.2383837753669
 30
0.0
  0
VERTEX
  5
F6
330
EF
100
AcDbEntity
  8
Isolation Mode
370
     0
100
AcDbVertex
100
AcDb2dVertex
 10
318.0006753817415
 20
480.1316846782374
 30
0.0
  0
VERTEX
  5
F7
330
EF
100
AcDbEntity
  8
Isolation Mode
370
     0
100
AcDbVertex
100
AcDb2dVertex
 10
317.426287210601
 20
480.7658414210246
 30
0.0
  0
VERTEX
  5
F8
330
EF
100
AcDbEntity
  8
Isolation Mode
370
     0
100
AcDbVertex
100
AcDb2dVertex
 10
317.020897028955
 20
480.7074828496134
 30
0.0
  0
VERTEX
  5
F9
330
EF
100
AcDbEntity
  8
Isolation Mode
370
     0
100
AcDbVertex
100
AcDb2dVertex
 10
316.8917532982578
 20
480.8501068831811
 30
0.0
  0
VERTEX
  5
FA
330
EF
100
AcDbEntity
  8
Isolation Mode
370
     0
100
AcDbVertex
100
AcDb2dVertex
 10
317.2971387402249
 20
480.908470613067
 30
0.0
  0
VERTEX
  5
FB
330
EF
100
AcDbEntity
  8
Isolation Mode
370
     0
100
AcDbVertex
100
AcDb2dVertex
 10
316.9810332908
 20
481.2573844471935
 30
0.0
  0
VERTEX
  5
FC
330
EF
100
AcDbEntity
  8
Isolation Mode
370
     0
100
AcDbVertex
100
AcDb2dVertex
 10
317.0987942622705
 20
481.3640910543827
 30
0.0
  0
VERTEX
  5
FD
330
EF
100
AcDbEntity
  8
Isolation Mode
370
     0
100
AcDbVertex
100
AcDb2dVertex
 10
317.4725704264529
 20
480.9513761365206
 30
0.0
  0
VERTEX
  5
FE
330
EF
100
AcDbEntity
  8
Isolation Mode
370
     0
100
AcDbVertex
100
AcDb2dVertex
 10
317.815822135819
 20
480.9849714055208
 30
0.0
  0
VERTEX
  5
FF
330
EF
100
AcDbEntity
  8
Isolation Mode
370
     0
100
AcDbVertex
100
AcDb2dVertex
 10
317.3040389985363
 20
481.5499567513762
 30
0.0
  0
VERTEX
  5
100
330
EF
100
AcDbEntity
  8
Isolation Mode
370
     0
100
AcDbVertex
100
AcDb2dVertex
 10
317.4217965247753
 20
481.6566507022908
 30
0.0
  0
VERTEX
  5
101
330
EF
100
AcDbEntity
  8
Isolation Mode
370
     0
100
AcDbVertex
100
AcDb2dVertex
 10
317.9942226153671
 20
481.0246294086201
 30
0.0
  0
VERTEX
  5
102
330
EF
100
AcDbEntity
  8
Isolation Mode
370
     0
100
AcDbVertex
100
AcDb2dVertex
 10
318.397562269869
 20
481.0831504707567
 30
0.0
  0
VERTEX
  5
103
330
EF
100
AcDbEntity
  8
Isolation Mode
370
     0
100
AcDbVertex
100
AcDb2dVertex
 10
318.5276532173048
 20
480.9394955247999
 30
0.0
  0
VERTEX
  5
104
330
EF
100
AcDbEntity
  8
Isolation Mode
370
     0
100
AcDbVertex
100
AcDb2dVertex
 10
318.1234399826626
 20
480.88207303339
 30
0.0
  0
SEQEND
  5
106
330
EF
100
AcDbEntity
  8
Isolation Mode
370
     0
  0
HATCH
  5
105
330
DC
100
AcDbEntity
  8
Isolation Mode
 62
     7
420
 16776959
100
AcDbHatch
 10
0.0
 20
0.0
 30
0.0
210
0.0
220
0.0
230
1.0
  2
SOLID
 70
     1
 71
     0
 91
        1
 92
        1
 93
       20
 72
     1
 10
318.1234399826626
 20
480.88207303339
 11
318.4414420688536
 21
480.5309635968724
 72
     1
 10
318.4414420688536
 20
480.5309635968724
 11
318.3236810894759
 21
480.4242569824191
 72
     1
 10
318.3236810894759
 20
480.4242569824191
 11
317.9479475781955
 21
480.8391021975531
 72
     1
 10
317.9479475781955
 20
480.8391021975531
 11
317.6027944952548
 21
480.8077077023127
 72
     1
 10
317.6027944952548
 20
480.8077077023127
 11
318.1184281795668
 21
480.2383837753669
 72
     1
 10
318.1184281795668
 20
480.2383837753669
 11
318.0006753817415
 21
480.1316846782374
 72
     1
 10
318.0006753817415
 20
480.1316846782374
 11
317.426287210601
 21
480.7658414210246
 72
     1
 10
317.426287210601
 20
480.7658414210246
 11
317.020897028955
 21
480.7074828496134
 72
     1
 10
317.020897028955
 20
480.7074828496134
 11
316.8917532982578
 21
480.8501068831811
 72
     1
 10
316.8917532982578
 20
480.8501068831811
 11
317.2971387402249
 21
480.908470613067
 72
     1
 10
317.2971387402249
 20
480.908470613067
 11
316.9810332908
 21
481.2573844471935
 72
     1
 10
316.9810332908
 20
481.2573844471935
 11
317.0987942622705
 21
481.3640910543827
 72
     1
 10
317.0987942622705
 20
481.3640910543827
 11
317.4725704264529
 21
480.9513761365206
 72
     1
 10
317.4725704264529
 20
480.9513761365206
 11
317.815822135819
 21
480.9849714055208
 72
     1
 10
317.815822135819
 20
480.9849714055208
 11
317.3040389985363
 21
481.5499567513762
 72
     1
 10
317.3040389985363
 20
481.5499567513762
 11
317.4217965247753
 21
481.6566507022908
 72
     1
 10
317.4217965247753
 20
481.6566507022908
 11
317.9942226153671
 21
481.0246294086201
 72
     1
 10
317.9942226153671
 20
481.0246294086201
 11
318.397562269869
 21
481.0831504707567
 72
     1
 10
318.397562269869
 20
481.0831504707567
 11
318.5276532173048
 21
480.9394955247999
 72
     1
 10
318.5276532173048
 20
480.9394955247999
 11
318.1234399826626
 21
480.88207303339
 97
        0
 75
     2
 76
     1
 98
        0
  0
MTEXT
  5
107
330
DC
100
AcDbEntity
  8
Isolation Mode
 62
     7
420
 16776959
100
AcDbMText
 10
313.7568927297834
 20
481.4345287383767
 30
0.0
 40
0.920399987006397
 41
0.0
 46
0.0
 71
     7
 72
     1
  1
\fHelvetica LT Std Condensed|b0|i0|c0|p34;\W1;312
 11
0.6765833940440158
 21
-0.736366016939864
 31
0.0
 73
     1
 44
1.0
  0
MTEXT
  5
108
330
DC
100
AcDbEntity
  8
Isolation Mode
 62
     7
420
 16776959
100
AcDbMText
 10
316.2766070699436
 20
484.6632392224274
 30
0.0
 40
0.920399987006397
 41
0.0
 46
0.0
 71
     7
 72
     1
  1
\fHelvetica LT Std Condensed|b0|i0|c0|p34;\W1;WS22
 11
0.6765833940440158
 21
-0.736366016939864
 31
0.0
 73
     1
 44
1.0
  0
POLYLINE
  5
109
330
DC
100
AcDbEntity
  8
Isolation Mode
 62
     7
420
 16776959
370
     5
100
AcDb2dPolyline
 66
     1
 10
0.0
 20
0.0
 30
0.0
  0
VERTEX
  5
10A
330
109
100
AcDbEntity
  8
Isolation Mode
 62
     7
420
 16776959
370
     5
100
AcDbVertex
100
AcDb2dVertex
 10
316.4192383297595
 20
483.1996234811986
 30
0.0
  0
VERTEX
  5
153
330
109
100
AcDbEntity
  8
0
100
AcDbVertex
100
AcDb2dVertex
 10
316.4192383297595
 20
483.1996234811986
 30
0.0
  0
SEQEND
  5
10B
330
109
100
AcDbEntity
  8
Isolation Mode
 62
     7
420
 16776959
370
     5
  0
SPLINE
  5
10C
330
DC
100
AcDbEntity
  8
Isolation Mode
 62
     7
420
 16776959
370
     9
100
AcDbSpline
210
0.0
220
0.0
230
1.0
 70
    11
 71
     3
 72
    59
 73
    55
 74
     0
 42
0.0000000001
 43
0.0000000001
 12
1.0
 22
0.0
 32
0.0
 13
1.0
 23
0.0
 33
0.0
 40
0.0
 40
0.0
 40
0.0
 40
0.0
 40
1.0
 40
1.0
 40
1.0
 40
2.0
 40
2.0
 40
2.0
 40
3.0
 40
3.0
 40
3.0
 40
4.0
 40
4.0
 40
4.0
 40
5.0
 40
5.0
 40
5.0
 40
6.0
 40
6.0
 40
6.0
 40
7.0
 40
7.0
 40
7.0
 40
8.0
 40
8.0
 40
8.0
 40
9.0
 40
9.0
 40
9.0
 40
10.0
 40
10.0
 40
10.0
 40
11.0
 40
11.0
 40
11.0
 40
12.0
 40
12.0
 40
12.0
 40
13.0
 40
13.0
 40
13.0
 40
14.0
 40
14.0
 40
14.0
 40
15.0
 40
15.0
 40
15.0
 40
16.0
 40
16.0
 40
16.0
 40
17.0
 40
17.0
 40
17.0
 40
18.0
 40
18.0
 40
18.0
 40
18.0
 10
316.1136038854747
 20
483.5350718767259
 30
0.0
 10
316.1136038854747
 20
483.5350718767259
 30
0.0
 10
316.4192383297595
 20
483.1996234811986
 30
0.0
 10
316.4192383297595
 20
483.1996234811986
 30
0.0
 10
316.4192383297595
 20
483.1996234811986
 30
0.0
 10
316.925212874341
 20
483.3069532381132
 30
0.0
 10
316.925212874341
 20
483.3069532381132
 30
0.0
 10
316.925212874341
 20
483.3069532381132
 30
0.0
 10
317.1140477353983
 20
483.354025664602
 30
0.0
 10
317.0443392725247
 20
483.1416807384085
 30
0.0
 10
317.0443392725247
 20
483.1416807384085
 30
0.0
 10
316.9000184824454
 20
482.6763618073956
 30
0.0
 10
316.9000184824454
 20
482.6763618073956
 30
0.0
 10
316.9000184824454
 20
482.6763618073956
 30
0.0
 10
317.2609757178216
 20
482.2835105507475
 30
0.0
 10
317.2609757178216
 20
482.2835105507475
 30
0.0
 10
317.3027624745901
 20
482.234040895939
 30
0.0
 10
317.3311443294315
 20
482.1537855537517
 30
0.0
 10
317.202923225861
 20
482.1390479475722
 30
0.0
 10
317.202923225861
 20
482.1390479475722
 30
0.0
 10
316.7087187397465
 20
482.01401425933
 30
0.0
 10
316.7087187397465
 20
482.01401425933
 30
0.0
 10
316.7087187397465
 20
482.01401425933
 30
0.0
 10
316.5398969767521
 20
481.4931835985635
 30
0.0
 10
316.5398969767521
 20
481.4931835985635
 30
0.0
 10
316.5118582238392
 20
481.4477299057426
 30
0.0
 10
316.4315373031459
 20
481.3860162996225
 30
0.0
 10
316.3275293597926
 20
481.5138466807821
 30
0.0
 10
316.3275293597926
 20
481.5138466807821
 30
0.0
 10
316.0047648276686
 20
481.8575926706771
 30
0.0
 10
316.0047648276686
 20
481.8575926706771
 30
0.0
 10
316.0047648276686
 20
481.8575926706771
 30
0.0
 10
315.5181552745507
 20
481.7394015111895
 30
0.0
 10
315.5181552745507
 20
481.7394015111895
 30
0.0
 10
315.4678178403665
 20
481.7341629842467
 30
0.0
 10
315.3735983158913
 20
481.7437406016143
 30
0.0
 10
315.3803906600551
 20
481.8875489567736
 30
0.0
 10
315.3803906600551
 20
481.8875489567736
 30
0.0
 10
315.5110961902938
 20
482.4024195231377
 30
0.0
 10
315.5110961902938
 20
482.4024195231377
 30
0.0
 10
315.5110961902938
 20
482.4024195231377
 30
0.0
 10
315.2147205934671
 20
482.7208442961146
 30
0.0
 10
315.2147205934671
 20
482.7208442961146
 30
0.0
 10
315.1489390396091
 20
482.7970201233838
 30
0.0
 10
315.1149330952467
 20
482.8748240139275
 30
0.0
 10
315.2973181127327
 20
482.9216739190006
 30
0.0
 10
315.2973181127327
 20
482.9216739190006
 30
0.0
 10
315.7730715779817
 20
483.0323347894473
 30
0.0
 10
315.7730715779817
 20
483.0323347894473
 30
0.0
 10
315.7730715779817
 20
483.0323347894473
 30
0.0
 10
315.8977902422612
 20
483.5345070320636
 30
0.0
 10
315.8977902422612
 20
483.5345070320636
 30
0.0
 10
315.9400108886402
 20
483.660892261114
 30
0.0
 10
316.0116015279891
 20
483.6432788900293
 30
0.0
 10
316.1136038854747
 20
483.5350718767259
 30
0.0
  0
SPLINE
  5
10D
330
DC
100
AcDbEntity
  8
Isolation Mode
 62
     7
420
 16776959
370
     9
100
AcDbSpline
210
0.0
220
0.0
230
1.0
 70
    11
 71
     3
 72
    17
 73
    13
 74
     0
 42
0.0000000001
 43
0.0000000001
 12
1.0
 22
0.0
 32
0.0
 13
1.0
 23
0.0
 33
0.0
 40
0.0
 40
0.0
 40
0.0
 40
0.0
 40
1.0
 40
1.0
 40
1.0
 40
2.0
 40
2.0
 40
2.0
 40
3.0
 40
3.0
 40
3.0
 40
4.0
 40
4.0
 40
4.0
 40
4.0
 10
316.9897714774688
 20
481.7081278263186
 30
0.0
 10
317.4441092944344
 20
482.1255797742597
 30
0.0
 10
317.4740065766055
 20
482.8321957571297
 30
0.0
 10
317.0565546286634
 20
483.2865335740962
 30
0.0
 10
316.6391026807232
 20
483.7408713910627
 30
0.0
 10
315.9324866978532
 20
483.7707686732329
 30
0.0
 10
315.4781488808876
 20
483.3533167252917
 30
0.0
 10
315.0238110639202
 20
482.9358647773497
 30
0.0
 10
314.9939137817491
 20
482.2292487944806
 30
0.0
 10
315.4113657296912
 20
481.7749109775141
 30
0.0
 10
315.8288176776332
 20
481.3205731605476
 30
0.0
 10
316.5354336605014
 20
481.2906758783774
 30
0.0
 10
316.9897714774688
 20
481.7081278263186
 30
0.0
  0
POLYLINE
  5
10E
330
DC
100
AcDbEntity
  8
Isolation Mode
370
     0
100
AcDb2dPolyline
 66
     1
 10
0.0
 20
0.0
 30
0.0
  0
VERTEX
  5
10F
330
10E
100
AcDbEntity
  8
Isolation Mode
370
     0
100
AcDbVertex
100
AcDb2dVertex
 10
317.8372970255768
 20
476.3321624619575
 30
0.0
  0
VERTEX
  5
110
330
10E
100
AcDbEntity
  8
Isolation Mode
370
     0
100
AcDbVertex
100
AcDb2dVertex
 10
317.4757501061031
 20
476.2243130399493
 30
0.0
  0
VERTEX
  5
111
330
10E
100
AcDbEntity
  8
Isolation Mode
370
     0
100
AcDbVertex
100
AcDb2dVertex
 10
317.4395495929493
 20
476.345594209296
 30
0.0
  0
VERTEX
  5
112
330
10E
100
AcDbEntity
  8
Isolation Mode
370
     0
100
AcDbVertex
100
AcDb2dVertex
 10
317.8668277956403
 20
476.4730978463431
 30
0.0
  0
VERTEX
  5
113
330
10E
100
AcDbEntity
  8
Isolation Mode
370
     0
100
AcDbVertex
100
AcDb2dVertex
 10
317.9628476834023
 20
476.7318896107108
 30
0.0
  0
VERTEX
  5
114
330
10E
100
AcDbEntity
  8
Isolation Mode
370
     0
100
AcDbVertex
100
AcDb2dVertex
 10
317.3764484043713
 20
476.5570471769734
 30
0.0
  0
VERTEX
  5
115
330
10E
100
AcDbEntity
  8
Isolation Mode
370
     0
100
AcDbVertex
100
AcDb2dVertex
 10
317.3403891861562
 20
476.6783223680595
 30
0.0
  0
VERTEX
  5
116
330
10E
100
AcDbEntity
  8
Isolation Mode
370
     0
100
AcDbVertex
100
AcDb2dVertex
 10
317.9935207694889
 20
476.8730597588847
 30
0.0
  0
VERTEX
  5
117
330
10E
100
AcDbEntity
  8
Isolation Mode
370
     0
100
AcDbVertex
100
AcDb2dVertex
 10
318.0909168006347
 20
477.1844491095999
 30
0.0
  0
VERTEX
  5
118
330
10E
100
AcDbEntity
  8
Isolation Mode
370
     0
100
AcDbVertex
100
AcDb2dVertex
 10
318.2377915729649
 20
477.2282669247197
 30
0.0
  0
VERTEX
  5
119
330
10E
100
AcDbEntity
  8
Isolation Mode
370
     0
100
AcDbVertex
100
AcDb2dVertex
 10
318.1403907482309
 20
476.9168827911508
 30
0.0
  0
VERTEX
  5
11A
330
10E
100
AcDbEntity
  8
Isolation Mode
370
     0
100
AcDbVertex
100
AcDb2dVertex
 10
318.4997883523374
 20
477.0241154123823
 30
0.0
  0
VERTEX
  5
11B
330
10E
100
AcDbEntity
  8
Isolation Mode
370
     0
100
AcDbVertex
100
AcDb2dVertex
 10
318.5359152288911
 20
476.9027665846979
 30
0.0
  0
VERTEX
  5
11C
330
10E
100
AcDbEntity
  8
Isolation Mode
370
     0
100
AcDbVertex
100
AcDb2dVertex
 10
318.1109336147674
 20
476.7760150651038
 30
0.0
  0
VERTEX
  5
11D
330
10E
100
AcDbEntity
  8
Isolation Mode
370
     0
100
AcDbVertex
100
AcDb2dVertex
 10
318.0170630423727
 20
476.5178401015119
 30
0.0
  0
VERTEX
  5
11E
330
10E
100
AcDbEntity
  8
Isolation Mode
370
     0
100
AcDbVertex
100
AcDb2dVertex
 10
318.5989487591305
 20
476.6913872536188
 30
0.0
  0
VERTEX
  5
11F
330
10E
100
AcDbEntity
  8
Isolation Mode
370
     0
100
AcDbVertex
100
AcDb2dVertex
 10
318.6351492722843
 20
476.5701060842721
 30
0.0
  0
VERTEX
  5
120
330
10E
100
AcDbEntity
  8
Isolation Mode
370
     0
100
AcDbVertex
100
AcDb2dVertex
 10
317.9841718057014
 20
476.3759802685954
 30
0.0
  0
VERTEX
  5
121
330
10E
100
AcDbEntity
  8
Isolation Mode
370
     0
100
AcDbVertex
100
AcDb2dVertex
 10
317.8876108670684
 20
476.066046859919
 30
0.0
  0
VERTEX
  5
122
330
10E
100
AcDbEntity
  8
Isolation Mode
370
     0
100
AcDbVertex
100
AcDb2dVertex
 10
317.7396662306419
 20
476.0219154272654
 30
0.0
  0
VERTEX
  5
123
330
10E
100
AcDbEntity
  8
Isolation Mode
370
     0
100
AcDbVertex
100
AcDb2dVertex
 10
317.8372970255768
 20
476.3321624619575
 30
0.0
  0
SEQEND
  5
125
330
10E
100
AcDbEntity
  8
Isolation Mode
370
     0
  0
HATCH
  5
124
330
DC
100
AcDbEntity
  8
Isolation Mode
 62
     7
420
 16776959
100
AcDbHatch
 10
0.0
 20
0.0
 30
0.0
210
0.0
220
0.0
230
1.0
  2
SOLID
 70
     1
 71
     0
 91
        1
 92
        1
 93
       20
 72
     1
 10
317.8372970255768
 20
476.3321624619575
 11
317.4757501061031
 21
476.2243130399493
 72
     1
 10
317.4757501061031
 20
476.2243130399493
 11
317.4395495929493
 21
476.345594209296
 72
     1
 10
317.4395495929493
 20
476.345594209296
 11
317.8668277956403
 21
476.4730978463431
 72
     1
 10
317.8668277956403
 20
476.4730978463431
 11
317.9628476834023
 21
476.7318896107108
 72
     1
 10
317.9628476834023
 20
476.7318896107108
 11
317.3764484043713
 21
476.5570471769734
 72
     1
 10
317.3764484043713
 20
476.5570471769734
 11
317.3403891861562
 21
476.6783223680595
 72
     1
 10
317.3403891861562
 20
476.6783223680595
 11
317.9935207694889
 21
476.8730597588847
 72
     1
 10
317.9935207694889
 20
476.8730597588847
 11
318.0909168006347
 21
477.1844491095999
 72
     1
 10
318.0909168006347
 20
477.1844491095999
 11
318.2377915729649
 21
477.2282669247197
 72
     1
 10
318.2377915729649
 20
477.2282669247197
 11
318.1403907482309
 21
476.9168827911508
 72
     1
 10
318.1403907482309
 20
476.9168827911508
 11
318.4997883523374
 21
477.0241154123823
 72
     1
 10
318.4997883523374
 20
477.0241154123823
 11
318.5359152288911
 21
476.9027665846979
 72
     1
 10
318.5359152288911
 20
476.9027665846979
 11
318.1109336147674
 21
476.7760150651038
 72
     1
 10
318.1109336147674
 20
476.7760150651038
 11
318.0170630423727
 21
476.5178401015119
 72
     1
 10
318.0170630423727
 20
476.5178401015119
 11
318.5989487591305
 21
476.6913872536188
 72
     1
 10
318.5989487591305
 20
476.6913872536188
 11
318.6351492722843
 21
476.5701060842721
 72
     1
 10
318.6351492722843
 20
476.5701060842721
 11
317.9841718057014
 21
476.3759802685954
 72
     1
 10
317.9841718057014
 20
476.3759802685954
 11
317.8876108670684
 21
476.066046859919
 72
     1
 10
317.8876108670684
 20
476.066046859919
 11
317.7396662306419
 21
476.0219154272654
 72
     1
 10
317.7396662306419
 20
476.0219154272654
 11
317.8372970255768
 21
476.3321624619575
 97
        0
 75
     2
 76
     1
 98
        0
  0
SPLINE
  5
126
330
DC
100
AcDbEntity
  8
Isolation Mode
 62
     7
420
 16776959
370
     9
100
AcDbSpline
210
0.0
220
0.0
230
1.0
 70
    11
 71
     3
 72
    20
 73
    16
 74
     0
 42
0.0000000001
 43
0.0000000001
 12
1.0
 22
0.0
 32
0.0
 13
1.0
 23
0.0
 33
0.0
 40
0.0
 40
0.0
 40
0.0
 40
0.0
 40
1.0
 40
1.0
 40
1.0
 40
2.0
 40
2.0
 40
2.0
 40
3.0
 40
3.0
 40
3.0
 40
4.0
 40
4.0
 40
4.0
 40
5.0
 40
5.0
 40
5.0
 40
5.0
 10
315.7899309668228
 20
488.8602880269018
 30
0.0
 10
315.8486110863087
 20
488.9142041423347
 30
0.0
 10
315.9399658725724
 20
488.9104048160043
 30
0.0
 10
315.9938849482969
 20
488.8517214746589
 30
0.0
 10
316.0478086440016
 20
488.7930331051084
 30
0.0
 10
316.0438776747487
 20
488.7016838847203
 30
0.0
 10
315.9851975552629
 20
488.6477677692865
 30
0.0
 10
315.9265009356495
 20
488.5938364933072
 30
0.0
 10
315.8352197821587
 20
488.5977034821417
 30
0.0
 10
315.7812960864521
 20
488.6563918516913
 30
0.0
 10
315.7273770107277
 20
488.7150751930376
 30
0.0
 10
315.7312343472095
 20
488.8063567509216
 30
0.0
 10
315.7899309668228
 20
488.8602880269018
 30
0.0
 10
315.7899309668228
 20
488.8602880269018
 30
0.0
 10
315.7899309668228
 20
488.8602880269018
 30
0.0
 10
315.7899309668228
 20
488.8602880269018
 30
0.0
  0
SPLINE
  5
127
330
DC
100
AcDbEntity
  8
Isolation Mode
 62
     7
420
 16776959
370
     9
100
AcDbSpline
210
0.0
220
0.0
230
1.0
 70
    11
 71
     3
 72
    20
 73
    16
 74
     0
 42
0.0000000001
 43
0.0000000001
 12
1.0
 22
0.0
 32
0.0
 13
1.0
 23
0.0
 33
0.0
 40
0.0
 40
0.0
 40
0.0
 40
0.0
 40
1.0
 40
1.0
 40
1.0
 40
2.0
 40
2.0
 40
2.0
 40
3.0
 40
3.0
 40
3.0
 40
4.0
 40
4.0
 40
4.0
 40
5.0
 40
5.0
 40
5.0
 40
5.0
 10
314.8018065434335
 20
488.6418523663142
 30
0.0
 10
314.860494912984
 20
488.6957760620207
 30
0.0
 10
314.9517714426638
 20
488.691914105555
 30
0.0
 10
315.0056997510383
 20
488.6332207157639
 30
0.0
 10
315.0596188340769
 20
488.5745373664558
 30
0.0
 10
315.0557568776112
 20
488.4832608367751
 30
0.0
 10
314.9970685080625
 20
488.4293371410686
 30
0.0
 10
314.9383801385138
 20
488.375413445362
 30
0.0
 10
314.8471036088322
 20
488.3792754018268
 30
0.0
 10
314.7931845257935
 20
488.4379587511348
 30
0.0
 10
314.7392562174191
 20
488.496652140926
 30
0.0
 10
314.7431181738848
 20
488.5879286706077
 30
0.0
 10
314.8018065434335
 20
488.6418523663142
 30
0.0
 10
314.8018065434335
 20
488.6418523663142
 30
0.0
 10
314.8018065434335
 20
488.6418523663142
 30
0.0
 10
314.8018065434335
 20
488.6418523663142
 30
0.0
  0
SPLINE
  5
128
330
DC
100
AcDbEntity
  8
Isolation Mode
 62
     7
420
 16776959
370
     9
100
AcDbSpline
210
0.0
220
0.0
230
1.0
 70
    11
 71
     3
 72
    20
 73
    16
 74
     0
 42
0.0000000001
 43
0.0000000001
 12
1.0
 22
0.0
 32
0.0
 13
1.0
 23
0.0
 33
0.0
 40
0.0
 40
0.0
 40
0.0
 40
0.0
 40
1.0
 40
1.0
 40
1.0
 40
2.0
 40
2.0
 40
2.0
 40
3.0
 40
3.0
 40
3.0
 40
4.0
 40
4.0
 40
4.0
 40
5.0
 40
5.0
 40
5.0
 40
5.0
 10
313.8136227117684
 20
488.4234979225985
 30
0.0
 10
313.8723110813189
 20
488.477421618305
 30
0.0
 10
313.9635876109987
 20
488.4735596618393
 30
0.0
 10
314.0175113067053
 20
488.4148712922897
 30
0.0
 10
314.0714350024118
 20
488.3561829227401
 30
0.0
 10
314.0675730459479
 20
488.2649063930594
 30
0.0
 10
314.0088846763974
 20
488.2109826973528
 30
0.0
 10
313.9501963068469
 20
488.1570590016463
 30
0.0
 10
313.8589197771671
 20
488.1609209581111
 30
0.0
 10
313.8049960814606
 20
488.2196093276607
 30
0.0
 10
313.751072385754
 20
488.2782976972112
 30
0.0
 10
313.7549343422197
 20
488.3695742268919
 30
0.0
 10
313.8136227117684
 20
488.4234979225985
 30
0.0
 10
313.8136227117684
 20
488.4234979225985
 30
0.0
 10
313.8136227117684
 20
488.4234979225985
 30
0.0
 10
313.8136227117684
 20
488.4234979225985
 30
0.0
  0
INSERT
  5
12A
330
DC
100
AcDbEntity
  8
Isolation Mode
100
AcDbBlockReference
  2
block 9
 10
0.0
 20
0.0
 30
0.0
  0
ENDBLK
  5
DF
330
DC
100
AcDbEntity
  8
0
100
AcDbBlockEnd
  0
BLOCK
  5
12B
330
129
100
AcDbEntity
  8
0
100
AcDbBlockBegin
  2
block 9
 70
     0
 10
0.0
 20
0.0
 30
0.0
  3
block 9
  1

  0
SPLINE
  5
12D
330
129
100
AcDbEntity
  8
Isolation Mode
370
     0
100
AcDbSpline
210
0.0
220
0.0
230
1.0
 70
    11
 71
     3
 72
    38
 73
    34
 74
     0
 42
0.0000000001
 43
0.0000000001
 12
1.0
 22
0.0
 32
0.0
 13
1.0
 23
0.0
 33
0.0
 40
0.0
 40
0.0
 40
0.0
 40
0.0
 40
1.0
 40
1.0
 40
1.0
 40
2.0
 40
2.0
 40
2.0
 40
3.0
 40
3.0
 40
3.0
 40
4.0
 40
4.0
 40
4.0
 40
5.0
 40
5.0
 40
5.0
 40
6.0
 40
6.0
 40
6.0
 40
7.0
 40
7.0
 40
7.0
 40
8.0
 40
8.0
 40
8.0
 40
9.0
 40
9.0
 40
9.0
 40
10.0
 40
10.0
 40
10.0
 40
11.0
 40
11.0
 40
11.0
 40
11.0
 10
313.9689918069544
 20
484.2956868522888
 30
0.0
 10
313.9689918069544
 20
484.2956868522888
 30
0.0
 10
313.9399175926483
 20
484.2742693361706
 30
0.0
 10
313.9399175926483
 20
484.2742693361706
 30
0.0
 10
313.9399175926483
 20
484.2742693361706
 30
0.0
 10
313.9555159199626
 20
484.2414779940445
 30
0.0
 10
313.9555159199626
 20
484.2414779940445
 30
0.0
 10
313.9614456548461
 20
484.2294078558907
 30
0.0
 10
314.096832045203
 20
483.9432732367968
 30
0.0
 10
314.2914734141159
 20
483.7361630887444
 30
0.0
 10
314.5237567322238
 20
483.488676171296
 30
0.0
 10
314.736287556203
 20
483.4333977268379
 30
0.0
 10
314.7451054416197
 20
483.4310429672832
 30
0.0
 10
314.7451054416197
 20
483.4310429672832
 30
0.0
 10
314.7719332591278
 20
483.4244582752463
 30
0.0
 10
314.7719332591278
 20
483.4244582752463
 30
0.0
 10
314.7719332591278
 20
483.4244582752463
 30
0.0
 10
314.789666706065
 20
483.4453598990785
 30
0.0
 10
314.789666706065
 20
483.4453598990785
 30
0.0
 10
314.7959119629868
 20
483.4524561488988
 30
0.0
 10
314.9396302811765
 20
483.624305930618
 30
0.0
 10
315.0207295843284
 20
483.9317215837182
 30
0.0
 10
315.1021130571462
 20
484.2395341379161
 30
0.0
 10
315.0554208736648
 20
484.4657923251825
 30
0.0
 10
315.0532031589501
 20
484.4751526636219
 30
0.0
 10
315.0532031589501
 20
484.4751526636219
 30
0.0
 10
315.0469234486463
 20
484.5041574615698
 30
0.0
 10
315.0469234486463
 20
484.5041574615698
 30
0.0
 10
315.0469234486463
 20
484.5041574615698
 30
0.0
 10
315.0182109708639
 20
484.5096895114966
 30
0.0
 10
315.0182109708639
 20
484.5096895114966
 30
0.0
 10
314.9933594078848
 20
484.5142875570837
 30
0.0
 10
314.4076624702448
 20
484.6205216320059
 30
0.0
 10
313.9689918069544
 20
484.2956868522888
 30
0.0
  0
SPLINE
  5
12E
330
129
100
AcDbEntity
  8
Isolation Mode
370
     0
100
AcDbSpline
210
0.0
220
0.0
230
1.0
 70
    11
 71
     3
 72
    23
 73
    19
 74
     0
 42
0.0000000001
 43
0.0000000001
 12
1.0
 22
0.0
 32
0.0
 13
1.0
 23
0.0
 33
0.0
 40
0.0
 40
0.0
 40
0.0
 40
0.0
 40
1.0
 40
1.0
 40
1.0
 40
2.0
 40
2.0
 40
2.0
 40
3.0
 40
3.0
 40
3.0
 40
4.0
 40
4.0
 40
4.0
 40
5.0
 40
5.0
 40
5.0
 40
6.0
 40
6.0
 40
6.0
 40
6.0
 10
314.9709021986037
 20
484.4269747630633
 30
0.0
 10
314.9748092015125
 20
484.4005523238829
 30
0.0
 10
314.9793601414785
 20
484.3592401119095
 30
0.0
 10
314.979372176871
 20
484.2909427501781
 30
0.0
 10
314.9793453018247
 20
484.203325749032
 30
0.0
 10
314.9697942490347
 20
484.0863158917791
 30
0.0
 10
314.9349763553746
 20
483.9542386290177
 30
0.0
 10
314.8740795342637
 20
483.7225485736044
 30
0.0
 10
314.7768138148385
 20
483.5764236004388
 30
0.0
 10
314.7397237303867
 20
483.5263200722138
 30
0.0
 10
314.6830435882457
 20
483.5466240448268
 30
0.0
 10
314.5281367353709
 20
483.613826614237
 30
0.0
 10
314.3558975626711
 20
483.7968507208216
 30
0.0
 10
314.2056381662806
 20
483.9572831407222
 30
0.0
 10
314.092904401723
 20
484.166589651546
 30
0.0
 10
314.0538197153382
 20
484.2431221735033
 30
0.0
 10
314.404961986862
 20
484.4814235500226
 30
0.0
 10
314.8542929048854
 20
484.4424617423801
 30
0.0
 10
314.9709021986037
 20
484.4269747630633
 30
0.0
  0
HATCH
  5
12F
330
129
100
AcDbEntity
  8
Isolation Mode
 62
     7
420
 16776959
100
AcDbHatch
 10
0.0
 20
0.0
 30
0.0
210
0.0
220
0.0
230
1.0
  2
SOLID
 70
     1
 71
     0
 91
        2
 92
        1
 93
        1
 72
     4
 94
        3
 73
     0
 74
     1
 95
       38
 96
       34
 40
0.0
 40
0.0
 40
0.0
 40
0.0
 40
1.0
 40
1.0
 40
1.0
 40
2.0
 40
2.0
 40
2.0
 40
3.0
 40
3.0
 40
3.0
 40
4.0
 40
4.0
 40
4.0
 40
5.0
 40
5.0
 40
5.0
 40
6.0
 40
6.0
 40
6.0
 40
7.0
 40
7.0
 40
7.0
 40
8.0
 40
8.0
 40
8.0
 40
9.0
 40
9.0
 40
9.0
 40
10.0
 40
10.0
 40
10.0
 40
11.0
 40
11.0
 40
11.0
 40
11.0
 10
313.9689918069544
 20
484.2956868522888
 10
313.9689918069544
 20
484.2956868522888
 10
313.9399175926483
 20
484.2742693361706
 10
313.9399175926483
 20
484.2742693361706
 10
313.9399175926483
 20
484.2742693361706
 10
313.9555159199626
 20
484.2414779940445
 10
313.9555159199626
 20
484.2414779940445
 10
313.9614456548461
 20
484.2294078558907
 10
314.096832045203
 20
483.9432732367968
 10
314.2914734141159
 20
483.7361630887444
 10
314.5237567322238
 20
483.488676171296
 10
314.736287556203
 20
483.4333977268379
 10
314.7451054416197
 20
483.4310429672832
 10
314.7451054416197
 20
483.4310429672832
 10
314.7719332591278
 20
483.4244582752463
 10
314.7719332591278
 20
483.4244582752463
 10
314.7719332591278
 20
483.4244582752463
 10
314.789666706065
 20
483.4453598990785
 10
314.789666706065
 20
483.4453598990785
 10
314.7959119629868
 20
483.4524561488988
 10
314.9396302811765
 20
483.624305930618
 10
315.0207295843284
 20
483.9317215837182
 10
315.1021130571462
 20
484.2395341379161
 10
315.0554208736648
 20
484.4657923251825
 10
315.0532031589501
 20
484.4751526636219
 10
315.0532031589501
 20
484.4751526636219
 10
315.0469234486463
 20
484.5041574615698
 10
315.0469234486463
 20
484.5041574615698
 10
315.0469234486463
 20
484.5041574615698
 10
315.0182109708639
 20
484.5096895114966
 10
315.0182109708639
 20
484.5096895114966
 10
314.9933594078848
 20
484.5142875570837
 10
314.4076624702448
 20
484.6205216320059
 10
313.9689918069544
 20
484.2956868522888
 97
        0
 97
        0
 92
        1
 93
        1
 72
     4
 94
        3
 73
     0
 74
     1
 95
       23
 96
       19
 40
0.0
 40
0.0
 40
0.0
 40
0.0
 40
1.0
 40
1.0
 40
1.0
 40
2.0
 40
2.0
 40
2.0
 40
3.0
 40
3.0
 40
3.0
 40
4.0
 40
4.0
 40
4.0
 40
5.0
 40
5.0
 40
5.0
 40
6.0
 40
6.0
 40
6.0
 40
6.0
 10
314.9709021986037
 20
484.4269747630633
 10
314.9748092015125
 20
484.4005523238829
 10
314.9793601414785
 20
484.3592401119095
 10
314.979372176871
 20
484.2909427501781
 10
314.9793453018247
 20
484.203325749032
 10
314.9697942490347
 20
484.0863158917791
 10
314.9349763553746
 20
483.9542386290177
 10
314.8740795342637
 20
483.7225485736044
 10
314.7768138148385
 20
483.5764236004388
 10
314.7397237303867
 20
483.5263200722138
 10
314.6830435882457
 20
483.5466240448268
 10
314.5281367353709
 20
483.613826614237
 10
314.3558975626711
 20
483.7968507208216
 10
314.2056381662806
 20
483.9572831407222
 10
314.092904401723
 20
484.166589651546
 10
314.0538197153382
 20
484.2431221735033
 10
314.404961986862
 20
484.4814235500226
 10
314.8542929048854
 20
484.4424617423801
 10
314.9709021986037
 20
484.4269747630633
 97
        0
 97
        0
 75
     2
 76
     1
 98
        0
  0
ENDBLK
  5
12C
330
129
100
AcDbEntity
  8
0
100
AcDbBlockEnd
  0
BLOCK
  5
133
330
131
100
AcDbEntity
  8
0
100
AcDbBlockBegin
  2
block 10
 70
     0
 10
0.0
 20
0.0
 30
0.0
  3
block 10
  1

  0
POLYLINE
  5
135
330
131
100
AcDbEntity
  8
Layer 5
  6
AI-Linetype-1
 62
   250
420
  2301728
370
    35
100
AcDb2dPolyline
 66
     1
 10
0.0
 20
0.0
 30
0.0
  0
VERTEX
  5
136
330
135
100
AcDbEntity
  8
Layer 5
  6
AI-Linetype-1
 62
   250
420
  2301728
370
    35
100
AcDbVertex
100
AcDb2dVertex
 10
305.8819149089522
 20
506.4541872058908
 30
0.0
  0
VERTEX
  5
137
330
135
100
AcDbEntity
  8
Layer 5
  6
AI-Linetype-1
 62
   250
420
  2301728
370
    35
100
AcDbVertex
100
AcDb2dVertex
 10
223.4887299496177
 20
423.613047390596
 30
0.0
  0
SEQEND
  5
139
330
135
100
AcDbEntity
  8
Layer 5
  6
AI-Linetype-1
 62
   250
420
  2301728
370
    35
  0
POLYLINE
  5
13A
330
131
100
AcDbEntity
  8
Layer 5
  6
AI-Linetype-2
 62
   250
420
  2301728
370
    35
100
AcDb2dPolyline
 66
     1
 10
0.0
 20
0.0
 30
0.0
  0
VERTEX
  5
13B
330
13A
100
AcDbEntity
  8
Layer 5
  6
AI-Linetype-2
 62
   250
420
  2301728
370
    35
100
AcDbVertex
100
AcDb2dVertex
 10
292.5725869388243
 20
420.945683695847
 30
0.0
  0
VERTEX
  5
13C
330
13A
100
AcDbEntity
  8
Layer 5
  6
AI-Linetype-2
 62
   250
420
  2301728
370
    35
100
AcDbVertex
100
AcDb2dVertex
 10
377.4417928799121
 20
506.5145815341948
 30
0.0
  0
SEQEND
  5
13E
330
13A
100
AcDbEntity
  8
Layer 5
  6
AI-Linetype-2
 62
   250
420
  2301728
370
    35
  0
ENDBLK
  5
134
330
131
100
AcDbEntity
  8
0
100
AcDbBlockEnd
  0
ENDSEC
  0
SECTION
  2
ENTITIES
  0
INSERT
  5
42
330
1F
100
AcDbEntity
  8
Wood
100
AcDbBlockReference
  2
block 2
 10
0.0
 20
0.0
 30
0.0
  0
INSERT
  5
52
330
1F
100
AcDbEntity
  8
Wood
100
AcDbBlockReference
  2
block 3
 10
0.0
 20
0.0
 30
0.0
  0
POLYLINE
  5
67
330
1F
100
AcDbEntity
  8
Wood
 62
   250
420
  2301728
370
    35
100
AcDb2dPolyline
 66
     1
 10
0.0
 20
0.0
 30
0.0
  0
VERTEX
  5
68
330
67
100
AcDbEntity
  8
Wood
 62
   250
420
  2301728
370
    35
100
AcDbVertex
100
AcDb2dVertex
 10
141.7483964191342
 20
420.885289367543
 30
0.0
  0
VERTEX
  5
69
330
67
100
AcDbEntity
  8
Wood
 62
   250
420
  2301728
370
    35
100
AcDbVertex
100
AcDb2dVertex
 10
141.7483964191342
 20
413.2301895609271
 30
0.0
  0
SEQEND
  5
6A
330
67
100
AcDbEntity
  8
Wood
 62
   250
420
  2301728
370
    35
  0
POLYLINE
  5
6B
330
1F
100
AcDbEntity
  8
Wood
 62
   250
420
  2301728
370
    35
100
AcDb2dPolyline
 66
     1
 10
0.0
 20
0.0
 30
0.0
  0
VERTEX
  5
6C
330
6B
100
AcDbEntity
  8
Wood
 62
   250
420
  2301728
370
    35
100
AcDbVertex
100
AcDb2dVertex
 10
141.7483964191342
 20
514.1487870115088
 30
0.0
  0
VERTEX
  5
6D
330
6B
100
AcDbEntity
  8
Wood
 62
   250
420
  2301728
370
    35
100
AcDbVertex
100
AcDb2dVertex
 10
141.7483964191342
 20
506.4541872058908
 30
0.0
  0
SEQEND
  5
6E
330
6B
100
AcDbEntity
  8
Wood
 62
   250
420
  2301728
370
    35
  0
POLYLINE
  5
6F
330
1F
100
AcDbEntity
  8
Wood
 62
   250
420
  2301728
370
    35
100
AcDb2dPolyline
 66
     1
 10
0.0
 20
0.0
 30
0.0
  0
VERTEX
  5
70
330
6F
100
AcDbEntity
  8
Wood
 62
   250
420
  2301728
370
    35
100
AcDbVertex
100
AcDb2dVertex
 10
208.6243947297044
 20
336.9974914867271
 30
0.0
  0
VERTEX
  5
71
330
6F
100
AcDbEntity
  8
Wood
 62
   250
420
  2301728
370
    35
100
AcDbVertex
100
AcDb2dVertex
 10
212.4399999999996
 20
333.1666915835012
 30
0.0
  0
SEQEND
  5
72
330
6F
100
AcDbEntity
  8
Wood
 62
   250
420
  2301728
370
    35
  0
POLYLINE
  5
73
330
1F
100
AcDbEntity
  8
Wood
 62
   250
420
  2301728
370
    35
100
AcDb2dPolyline
 66
     1
 10
0.0
 20
0.0
 30
0.0
  0
VERTEX
  5
74
330
73
100
AcDbEntity
  8
Wood
 62
   250
420
  2301728
370
    35
100
AcDbVertex
100
AcDb2dVertex
 10
168.0740957540911
 20
377.7096904582504
 30
0.0
  0
VERTEX
  5
75
330
73
100
AcDbEntity
  8
Wood
 62
   250
420
  2301728
370
    35
100
AcDbVertex
100
AcDb2dVertex
 10
172.7194956367384
 20
373.045690576073
 30
0.0
  0
SEQEND
  5
76
330
73
100
AcDbEntity
  8
Wood
 62
   250
420
  2301728
370
    35
  0
POLYLINE
  5
77
330
1F
100
AcDbEntity
  8
Wood
 62
   250
420
  2301728
370
    35
100
AcDb2dPolyline
 66
     1
 10
0.0
 20
0.0
 30
0.0
  0
VERTEX
  5
78
330
77
100
AcDbEntity
  8
Wood
 62
   250
420
  2301728
370
    35
100
AcDbVertex
100
AcDb2dVertex
 10
412.1354895885815
 20
420.885289367543
 30
0.0
  0
VERTEX
  5
79
330
77
100
AcDbEntity
  8
Wood
 62
   250
420
  2301728
370
    35
100
AcDbVertex
100
AcDb2dVertex
 10
412.1354895885815
 20
413.2301895609271
 30
0.0
  0
SEQEND
  5
7A
330
77
100
AcDbEntity
  8
Wood
 62
   250
420
  2301728
370
    35
  0
POLYLINE
  5
7B
330
1F
100
AcDbEntity
  8
Wood
 62
   250
420
  2301728
370
    35
100
AcDb2dPolyline
 66
     1
 10
0.0
 20
0.0
 30
0.0
  0
VERTEX
  5
7C
330
7B
100
AcDbEntity
  8
Wood
 62
   250
420
  2301728
370
    35
100
AcDbVertex
100
AcDb2dVertex
 10
412.1354895885815
 20
514.1487870115088
 30
0.0
  0
VERTEX
  5
7D
330
7B
100
AcDbEntity
  8
Wood
 62
   250
420
  2301728
370
    35
100
AcDbVertex
100
AcDb2dVertex
 10
412.1354895885815
 20
506.4541872058908
 30
0.0
  0
SEQEND
  5
7E
330
7B
100
AcDbEntity
  8
Wood
 62
   250
420
  2301728
370
    35
  0
INSERT
  5
81
330
1F
100
AcDbEntity
  8
Isolation Mode
100
AcDbBlockReference
  2
block 4
 10
0.0
 20
0.0
 30
0.0
  0
INSERT
  5
89
330
1F
100
AcDbEntity
  8
Isolation Mode
100
AcDbBlockReference
  2
block 6
 10
0.0
 20
0.0
 30
0.0
  0
INSERT
  5
DD
330
1F
100
AcDbEntity
  8
Isolation Mode
100
AcDbBlockReference
  2
block 8
 10
0.0
 20
0.0
 30
0.0
  0
INSERT
  5
132
330
1F
100
AcDbEntity
  8
Layer 5
100
AcDbBlockReference
  2
block 10
 10
0.0
 20
0.0
 30
0.0
  0
MTEXT
  5
140
330
1F
100
AcDbEntity
  8
Layer 6
 62
   250
420
  2236191
100
AcDbMText
 10
179.9640426635742
 20
279.8120422363281
 30
0.0
 40
8.495999999999999
 41
0.0
 46
0.0
 71
     7
 72
     1
  1
\fHelvetica Neue LT Std 55 Roman|b0|i0|c0|p34;\W1;SIMPSON Strong-Tie\H4.95317;®\H8.496; STN22 & SDWS ^C
 73
     1
 44
1.0
  0
MTEXT
  5
141
330
1F
100
AcDbEntity
  8
Layer 6
 62
   250
420
  2236191
100
AcDbMText
 10
185.8766403198242
 20
265.4126281738281
 30
0.0
 40
8.495999999999999
 41
0.0
 46
0.0
 71
     7
 72
     1
  1
\fHelvetica Neue LT Std 55 Roman|b0|i0|c0|p34;\W1;Timber Brace Connection with Beam 
 73
     1
 44
1.0
  0
MTEXT
  5
142
330
1F
100
AcDbEntity
  8
Layer 6
 62
   250
420
  2236191
100
AcDbMText
 10
344.3870544433594
 20
392.4274425506592
 30
0.0
 40
8.495999999999999
 41
0.0
 46
0.0
 71
     7
 72
     1
  1
\fHelvetica Neue LT Std 57 Condensed|b0|i0|c0|p34;\W1;Beam
 73
     1
 44
1.0
  0
MTEXT
  5
143
330
1F
100
AcDbEntity
  8
Layer 6
 62
   250
420
  2236191
100
AcDbMText
 10
241.8064193725586
 20
332.0403442382812
 30
0.0
 40
8.495999999999999
 41
0.0
 46
0.0
 71
     7
 72
     1
  1
\fHelvetica Neue LT Std 57 Condensed|b0|i0|c0|p34;\W1;Bracing Timber
 73
     1
 44
1.0
  0
MTEXT
  5
144
330
1F
100
AcDbEntity
  8
Layer 6
 62
   250
420
  2236191
100
AcDbMText
 10
264.6852493286133
 20
367.442741394043
 30
0.0
 40
8.495999999999999
 41
0.0
 46
0.0
 71
     7
 72
     1
  1
\fHelvetica Neue LT Std 57 Condensed|b0|i0|c0|p34;\W1;APVDW56-M Decorative Washer with 
 73
     1
 44
1.0
  0
MTEXT
  5
145
330
1F
100
AcDbEntity
  8
Layer 6
 62
   250
420
  2236191
100
AcDbMText
 10
264.6852493286133
 20
350.771842956543
 30
0.0
 40
8.495999999999999
 41
0.0
 46
0.0
 71
     7
 72
     1
  1
\fHelvetica Neue LT Std 57 Condensed|b0|i0|c0|p34;\W1;STN22 Hex-Head Washer & SDWS Screw
 73
     1
 44
1.0
  0
POLYLINE
  5
146
330
1F
100
AcDbEntity
  8
Layer 6
 62
   250
420
  2236191
370
    18
100
AcDb2dPolyline
 66
     1
 10
0.0
 20
0.0
 30
0.0
  0
VERTEX
  5
147
330
146
100
AcDbEntity
  8
Layer 6
 62
   250
420
  2236191
370
    18
100
AcDbVertex
100
AcDb2dVertex
 10
348.8387096774186
 20
406.322580645161
 30
0.0
  0
VERTEX
  5
148
330
146
100
AcDbEntity
  8
Layer 6
 62
   250
420
  2236191
370
    18
100
AcDbVertex
100
AcDb2dVertex
 10
339.9354838709678
 20
420.885289367543
 30
0.0
  0
SEQEND
  5
149
330
146
100
AcDbEntity
  8
Layer 6
 62
   250
420
  2236191
370
    18
  0
POLYLINE
  5
14A
330
1F
100
AcDbEntity
  8
Layer 6
 62
   250
420
  2236191
370
    18
100
AcDb2dPolyline
 66
     1
 10
0.0
 20
0.0
 30
0.0
  0
VERTEX
  5
14B
330
14A
100
AcDbEntity
  8
Layer 6
 62
   250
420
  2236191
370
    18
100
AcDbVertex
100
AcDb2dVertex
 10
237.1287767716331
 20
339.9046012849394
 30
0.0
  0
VERTEX
  5
14C
330
14A
100
AcDbEntity
  8
Layer 6
 62
   250
420
  2236191
370
    18
100
AcDbVertex
100
AcDb2dVertex
 10
228.2255509651823
 20
354.4673100073214
 30
0.0
  0
SEQEND
  5
14D
330
14A
100
AcDbEntity
  8
Layer 6
 62
   250
420
  2236191
370
    18
  0
POLYLINE
  5
14E
330
1F
100
AcDbEntity
  8
Layer 6
 62
   250
420
  2236191
370
    18
100
AcDb2dPolyline
 66
     1
 10
0.0
 20
0.0
 30
0.0
  0
VERTEX
  5
14F
330
14E
100
AcDbEntity
  8
Layer 6
 62
   250
420
  2236191
370
    18
100
AcDbVertex
100
AcDb2dVertex
 10
289.0735929438179
 20
386.967741935483
 30
0.0
  0
VERTEX
  5
150
330
14E
100
AcDbEntity
  8
Layer 6
 62
   250
420
  2236191
370
    18
100
AcDbVertex
100
AcDb2dVertex
 10
280.2567929201177
 20
428.2270380570371
 30
0.0
  0
SEQEND
  5
151
330
14E
100
AcDbEntity
  8
Layer 6
 62
   250
420
  2236191
370
    18
  0
ENDSEC
  0
SECTION
  2
OBJECTS
  0
DICTIONARY
  5
C
330
0
100
AcDbDictionary
281
     1
  3
ACAD_GROUP
350
D
  3
ACAD_LAYOUT
350
1A
  3
ACAD_MATERIAL
350
3B
  3
ACAD_MLEADERSTYLE
350
155
  3
ACAD_MLINESTYLE
350
17
  3
ACAD_PLOTSETTINGS
350
19
  3
ACAD_PLOTSTYLENAME
350
E
  3
ACAD_TABLESTYLE
350
154
  3
ACAD_VISUALSTYLE
350
2A
  0
SUN
  5
3F
330
29
100
AcDbSun
 90
        1
290
     0
 63
     7
421
 16777215
 40
1.0
291
     1
 91
  2455826
 92
 54000000
292
     0
 70
     2
 71
   256
280
     1
  0
DICTIONARY
  5
D
102
{ACAD_REACTORS
330
C
102
}
330
C
100
AcDbDictionary
281
     1
  0
DICTIONARY
  5
1A
102
{ACAD_REACTORS
330
C
102
}
330
C
100
AcDbDictionary
281
     1
  3
Layout1
350
1E
  3
Layout2
350
26
  3
Model
350
22
  0
DICTIONARY
  5
3B
102
{ACAD_REACTORS
330
C
102
}
330
C
100
AcDbDictionary
281
     1
  3
ByBlock
350
3D
  3
ByLayer
350
3C
  3
Global
350
3E
  0
DICTIONARY
  5
155
102
{ACAD_REACTORS
330
C
102
}
330
C
100
AcDbDictionary
281
     1
  0
DICTIONARY
  5
17
102
{ACAD_REACTORS
330
C
102
}
330
C
100
AcDbDictionary
281
     1
  3
Standard
350
18
  0
DICTIONARY
  5
19
102
{ACAD_REACTORS
330
C
102
}
330
C
100
AcDbDictionary
281
     1
  0
ACDBDICTIONARYWDFLT
  5
E
102
{ACAD_REACTORS
330
C
102
}
330
C
100
AcDbDictionary
281
     1
  3
Normal
350
F
100
AcDbDictionaryWithDefault
340
F
  0
DICTIONARY
  5
154
102
{ACAD_REACTORS
330
C
102
}
330
C
100
AcDbDictionary
281
     1
  0
DICTIONARY
  5
2A
102
{ACAD_REACTORS
330
C
102
}
330
C
100
AcDbDictionary
281
     1
  3
2dWireframe
350
2F
  3
3D Hidden
350
31
  3
3dWireframe
350
30
  3
Basic
350
32
  3
Brighten
350
36
  3
ColorChange
350
3A
  3
Conceptual
350
34
  3
Dim
350
35
  3
Facepattern
350
39
  3
Flat
350
2B
  3
FlatWithEdges
350
2C
  3
Gouraud
350
2D
  3
GouraudWithEdges
350
2E
  3
Linepattern
350
38
  3
Realistic
350
33
  3
Thicken
350
37
  0
LAYOUT
  5
1E
102
{ACAD_REACTORS
330
1A
102
}
330
1A
100
AcDbPlotSettings
  1

  2
none_device
  4

  6

 40
0.0
 41
0.0
 42
0.0
 43
0.0
 44
0.0
 45
0.0
 46
0.0
 47
0.0
 48
0.0
 49
0.0
140
0.0
141
0.0
142
1.0
143
1.0
 70
   688
 72
     0
 73
     0
 74
     5
  7

 75
    16
 76
     0
 77
     2
 78
   300
147
1.0
148
0.0
149
0.0
100
AcDbLayout
  1
Layout1
 70
     1
 71
     1
 10
0.0
 20
0.0
 11
12.0
 21
9.0
 12
0.0
 22
0.0
 32
0.0
 14
1.000000000000000E+20
 24
1.000000000000000E+20
 34
1.000000000000000E+20
 15
-1.000000000000000E+20
 25
-1.000000000000000E+20
 35
-1.000000000000000E+20
146
0.0
 13
0.0
 23
0.0
 33
0.0
 16
1.0
 26
0.0
 36
0.0
 17
0.0
 27
1.0
 37
0.0
 76
     0
330
1B
  0
LAYOUT
  5
26
102
{ACAD_REACTORS
330
1A
102
}
330
1A
100
AcDbPlotSettings
  1

  2
none_device
  4

  6

 40
0.0
 41
0.0
 42
0.0
 43
0.0
 44
0.0
 45
0.0
 46
0.0
 47
0.0
 48
0.0
 49
0.0
140
0.0
141
0.0
142
1.0
143
1.0
 70
   688
 72
     0
 73
     0
 74
     5
  7

 75
    16
 76
     0
 77
     2
 78
   300
147
1.0
148
0.0
149
0.0
100
AcDbLayout
  1
Layout2
 70
     1
 71
     2
 10
0.0
 20
0.0
 11
0.0
 21
0.0
 12
0.0
 22
0.0
 32
0.0
 14
0.0
 24
0.0
 34
0.0
 15
0.0
 25
0.0
 35
0.0
146
0.0
 13
0.0
 23
0.0
 33
0.0
 16
1.0
 26
0.0
 36
0.0
 17
0.0
 27
1.0
 37
0.0
 76
     0
330
23
  0
LAYOUT
  5
22
102
{ACAD_REACTORS
330
1A
102
}
330
1A
100
AcDbPlotSettings
  1

  2
none_device
  4

  6

 40
0.0
 41
0.0
 42
0.0
 43
0.0
 44
0.0
 45
0.0
 46
0.0
 47
0.0
 48
0.0
 49
0.0
140
0.0
141
0.0
142
1.0
143
1.0
 70
  1712
 72
     0
 73
     0
 74
     0
  7

 75
     0
 76
     0
 77
     2
 78
   300
147
1.0
148
0.0
149
0.0
100
AcDbLayout
  1
Model
 70
     1
 71
     0
 10
0.0
 20
0.0
 11
12.0
 21
9.0
 12
0.0
 22
0.0
 32
0.0
 14
1.000000000000000E+20
 24
1.000000000000000E+20
 34
1.000000000000000E+20
 15
-1.000000000000000E+20
 25
-1.000000000000000E+20
 35
-1.000000000000000E+20
146
0.0
 13
0.0
 23
0.0
 33
0.0
 16
1.0
 26
0.0
 36
0.0
 17
0.0
 27
1.0
 37
0.0
 76
     0
330
1F
331
29
  0
MATERIAL
  5
3D
102
{ACAD_REACTORS
330
3B
102
}
330
3B
100
AcDbMaterial
  1
ByBlock
 72
     1
 94
      127
  0
MATERIAL
  5
3C
102
{ACAD_REACTORS
330
3B
102
}
330
3B
100
AcDbMaterial
  1
ByLayer
 72
     1
 94
      127
  0
MATERIAL
  5
3E
102
{ACAD_REACTORS
330
3B
102
}
330
3B
100
AcDbMaterial
  1
Global
 72
     1
 94
      127
  0
MLINESTYLE
  5
18
102
{ACAD_REACTORS
330
17
102
}
330
17
100
AcDbMlineStyle
  2
Standard
 70
     0
  3

 62
   256
 51
90.0
 52
90.0
 71
     2
 49
0.5
 62
   256
  6
BYLAYER
 49
-0.5
 62
   256
  6
BYLAYER
  0
ACDBPLACEHOLDER
  5
F
102
{ACAD_REACTORS
330
E
102
}
330
E
  0
VISUALSTYLE
  5
2F
102
{ACAD_REACTORS
330
2A
102
}
330
2A
100
AcDbVisualStyle
  2
2dWireframe
 70
     4
177
     2
291
     0
 71
     0
176
     1
 72
     2
176
     1
 73
     0
176
     1
 90
        0
176
     1
 40
-0.6
176
     1
 41
-30.0
176
     1
 62
     5
 63
     7
421
 16777215
176
     1
 74
     1
176
     1
 91
        4
176
     1
 64
     7
176
     1
 65
   257
176
     1
 75
     1
176
     1
175
     1
176
     1
 42
1.0
176
     1
 92
        0
176
     1
 66
   257
176
     1
 43
1.0
176
     1
 76
     1
176
     1
 77
     6
176
     1
 78
     2
176
     1
 67
     7
176
     1
 79
     5
176
     1
170
     0
176
     1
171
     0
176
     1
290
     0
176
     1
 93
        1
176
     1
 44
0.0
176
     1
173
     0
176
     1
  0
VISUALSTYLE
  5
31
102
{ACAD_REACTORS
330
2A
102
}
330
2A
100
AcDbVisualStyle
  2
3D Hidden
 70
     6
177
     2
291
     0
 71
     1
176
     1
 72
     2
176
     1
 73
     2
176
     1
 90
        0
176
     1
 40
-0.6
176
     1
 41
-30.0
176
     1
 62
     5
 63
     7
421
 16777215
176
     1
 74
     2
176
     1
 91
        2
176
     1
 64
     7
176
     1
 65
   257
176
     1
 75
     2
176
     1
175
     1
176
     1
 42
40.0
176
     1
 92
        0
176
     1
 66
   257
176
     1
 43
1.0
176
     1
 76
     1
176
     1
 77
     6
176
     1
 78
     2
176
     1
 67
     7
176
     1
 79
     3
176
     1
170
     0
176
     1
171
     0
176
     1
290
     0
176
     1
 93
        1
176
     1
 44
0.0
176
     1
173
     0
176
     1
  0
VISUALSTYLE
  5
30
102
{ACAD_REACTORS
330
2A
102
}
330
2A
100
AcDbVisualStyle
  2
3dWireframe
 70
     5
177
     2
291
     0
 71
     0
176
     1
 72
     2
176
     1
 73
     0
176
     1
 90
        0
176
     1
 40
-0.6
176
     1
 41
-30.0
176
     1
 62
     5
 63
     7
421
 16777215
176
     1
 74
     1
176
     1
 91
        4
176
     1
 64
     7
176
     1
 65
   257
176
     1
 75
     1
176
     1
175
     1
176
     1
 42
1.0
176
     1
 92
        0
176
     1
 66
   257
176
     1
 43
1.0
176
     1
 76
     1
176
     1
 77
     6
176
     1
 78
     2
176
     1
 67
     7
176
     1
 79
     5
176
     1
170
     0
176
     1
171
     0
176
     1
290
     0
176
     1
 93
        1
176
     1
 44
0.0
176
     1
173
     0
176
     1
  0
VISUALSTYLE
  5
32
102
{ACAD_REACTORS
330
2A
102
}
330
2A
100
AcDbVisualStyle
  2
Basic
 70
     7
177
     2
291
     1
 71
     1
176
     1
 72
     0
176
     1
 73
     1
176
     1
 90
        0
176
     1
 40
-0.6
176
     1
 41
-30.0
176
     1
 62
     5
 63
     7
421
 16777215
176
     1
 74
     0
176
     1
 91
        4
176
     1
 64
     7
176
     1
 65
   257
176
     1
 75
     1
176
     1
175
     1
176
     1
 42
1.0
176
     1
 92
        8
176
     1
 66
     7
176
     1
 43
1.0
176
     1
 76
     1
176
     1
 77
     6
176
     1
 78
     2
176
     1
 67
     7
176
     1
 79
     5
176
     1
170
     0
176
     1
171
     0
176
     1
290
     0
176
     1
 93
        1
176
     1
 44
0.0
176
     1
173
     0
176
     1
  0
VISUALSTYLE
  5
36
102
{ACAD_REACTORS
330
2A
102
}
330
2A
100
AcDbVisualStyle
  2
Brighten
 70
    12
177
     2
291
     1
 71
     2
176
     1
 72
     2
176
     1
 73
     0
176
     1
 90
        0
176
     1
 40
-0.6
176
     1
 41
-30.0
176
     1
 62
     5
 63
     7
421
 16777215
176
     1
 74
     1
176
     1
 91
        4
176
     1
 64
     7
176
     1
 65
   257
176
     1
 75
     1
176
     1
175
     1
176
     1
 42
1.0
176
     1
 92
        8
176
     1
 66
     7
176
     1
 43
1.0
176
     1
 76
     1
176
     1
 77
     6
176
     1
 78
     2
176
     1
 67
     7
176
     1
 79
     5
176
     1
170
     0
176
     1
171
     0
176
     1
290
     0
176
     1
 93
        1
176
     1
 44
50.0
176
     1
173
     0
176
     1
  0
VISUALSTYLE
  5
3A
102
{ACAD_REACTORS
330
2A
102
}
330
2A
100
AcDbVisualStyle
  2
ColorChange
 70
    16
177
     2
291
     1
 71
     2
176
     1
 72
     2
176
     1
 73
     3
176
     1
 90
        0
176
     1
 40
-0.6
176
     1
 41
-30.0
176
     1
 62
     5
 63
     8
421
  8421504
176
     1
 74
     1
176
     1
 91
        4
176
     1
 64
     7
176
     1
 65
   257
176
     1
 75
     1
176
     1
175
     1
176
     1
 42
1.0
176
     1
 92
        8
176
     1
 66
     8
424
  8421504
176
     1
 43
1.0
176
     1
 76
     1
176
     1
 77
     6
176
     1
 78
     2
176
     1
 67
     7
176
     1
 79
     5
176
     1
170
     0
176
     1
171
     0
176
     1
290
     0
176
     1
 93
        1
176
     1
 44
0.0
176
     1
173
     0
176
     1
  0
VISUALSTYLE
  5
34
102
{ACAD_REACTORS
330
2A
102
}
330
2A
100
AcDbVisualStyle
  2
Conceptual
 70
     9
177
     2
291
     0
 71
     3
176
     1
 72
     2
176
     1
 73
     0
176
     1
 90
        0
176
     1
 40
-0.6
176
     1
 41
-30.0
176
     1
 62
     5
 63
     7
421
 16777215
176
     1
 74
     2
176
     1
 91
        2
176
     1
 64
     7
176
     1
 65
   257
176
     1
 75
     1
176
     1
175
     1
176
     1
 42
40.0
176
     1
 92
        8
176
     1
 66
     7
176
     1
 43
1.0
176
     1
 76
     1
176
     1
 77
     6
176
     1
 78
     2
176
     1
 67
     7
176
     1
 79
     3
176
     1
170
     0
176
     1
171
     0
176
     1
290
     0
176
     1
 93
        1
176
     1
 44
0.0
176
     1
173
     0
176
     1
  0
VISUALSTYLE
  5
35
102
{ACAD_REACTORS
330
2A
102
}
330
2A
100
AcDbVisualStyle
  2
Dim
 70
    11
177
     2
291
     1
 71
     2
176
     1
 72
     2
176
     1
 73
     0
176
     1
 90
        0
176
     1
 40
-0.6
176
     1
 41
-30.0
176
     1
 62
     5
 63
     7
421
 16777215
176
     1
 74
     1
176
     1
 91
        4
176
     1
 64
     7
176
     1
 65
   257
176
     1
 75
     1
176
     1
175
     1
176
     1
 42
1.0
176
     1
 92
        8
176
     1
 66
     7
176
     1
 43
1.0
176
     1
 76
     1
176
     1
 77
     6
176
     1
 78
     2
176
     1
 67
     7
176
     1
 79
     5
176
     1
170
     0
176
     1
171
     0
176
     1
290
     0
176
     1
 93
        1
176
     1
 44
-50.0
176
     1
173
     0
176
     1
  0
VISUALSTYLE
  5
39
102
{ACAD_REACTORS
330
2A
102
}
330
2A
100
AcDbVisualStyle
  2
Facepattern
 70
    15
177
     2
291
     1
 71
     2
176
     1
 72
     2
176
     1
 73
     0
176
     1
 90
        0
176
     1
 40
-0.6
176
     1
 41
-30.0
176
     1
 62
     5
 63
     7
421
 16777215
176
     1
 74
     1
176
     1
 91
        4
176
     1
 64
     7
176
     1
 65
   257
176
     1
 75
     1
176
     1
175
     1
176
     1
 42
1.0
176
     1
 92
        8
176
     1
 66
     7
176
     1
 43
1.0
176
     1
 76
     1
176
     1
 77
     6
176
     1
 78
     2
176
     1
 67
     7
176
     1
 79
     5
176
     1
170
     0
176
     1
171
     0
176
     1
290
     0
176
     1
 93
        1
176
     1
 44
0.0
176
     1
173
     0
176
     1
  0
VISUALSTYLE
  5
2B
102
{ACAD_REACTORS
330
2A
102
}
330
2A
100
AcDbVisualStyle
  2
Flat
 70
     0
177
     2
291
     1
 71
     2
176
     1
 72
     1
176
     1
 73
     1
176
     1
 90
        2
176
     1
 40
-0.6
176
     1
 41
30.0
176
     1
 62
     5
 63
     7
421
 16777215
176
     1
 74
     0
176
     1
 91
        4
176
     1
 64
     7
176
     1
 65
   257
176
     1
 75
     1
176
     1
175
     1
176
     1
 42
1.0
176
     1
 92
        8
176
     1
 66
     7
176
     1
 43
1.0
176
     1
 76
     1
176
     1
 77
     6
176
     1
 78
     2
176
     1
 67
     7
176
     1
 79
     5
176
     1
170
     0
176
     1
171
     0
176
     1
290
     0
176
     1
 93
       13
176
     1
 44
0.0
176
     1
173
     0
176
     1
  0
VISUALSTYLE
  5
2C
102
{ACAD_REACTORS
330
2A
102
}
330
2A
100
AcDbVisualStyle
  2
FlatWithEdges
 70
     1
177
     2
291
     1
 71
     2
176
     1
 72
     1
176
     1
 73
     1
176
     1
 90
        2
176
     1
 40
-0.6
176
     1
 41
30.0
176
     1
 62
     5
 63
     7
421
 16777215
176
     1
 74
     1
176
     1
 91
        4
176
     1
 64
     7
176
     1
 65
   257
176
     1
 75
     1
176
     1
175
     1
176
     1
 42
1.0
176
     1
 92
        0
176
     1
 66
   257
176
     1
 43
1.0
176
     1
 76
     1
176
     1
 77
     6
176
     1
 78
     2
176
     1
 67
     7
176
     1
 79
     5
176
     1
170
     0
176
     1
171
     0
176
     1
290
     0
176
     1
 93
       13
176
     1
 44
0.0
176
     1
173
     0
176
     1
  0
VISUALSTYLE
  5
2D
102
{ACAD_REACTORS
330
2A
102
}
330
2A
100
AcDbVisualStyle
  2
Gouraud
 70
     2
177
     2
291
     1
 71
     2
176
     1
 72
     2
176
     1
 73
     1
176
     1
 90
        2
176
     1
 40
-0.6
176
     1
 41
30.0
176
     1
 62
     5
 63
     7
421
 16777215
176
     1
 74
     0
176
     1
 91
        4
176
     1
 64
     7
176
     1
 65
   257
176
     1
 75
     1
176
     1
175
     1
176
     1
 42
1.0
176
     1
 92
        0
176
     1
 66
     7
176
     1
 43
1.0
176
     1
 76
     1
176
     1
 77
     6
176
     1
 78
     2
176
     1
 67
     7
176
     1
 79
     5
176
     1
170
     0
176
     1
171
     0
176
     1
290
     0
176
     1
 93
       13
176
     1
 44
0.0
176
     1
173
     0
176
     1
  0
VISUALSTYLE
  5
2E
102
{ACAD_REACTORS
330
2A
102
}
330
2A
100
AcDbVisualStyle
  2
GouraudWithEdges
 70
     3
177
     2
291
     1
 71
     2
176
     1
 72
     2
176
     1
 73
     1
176
     1
 90
        2
176
     1
 40
-0.6
176
     1
 41
30.0
176
     1
 62
     5
 63
     7
421
 16777215
176
     1
 74
     1
176
     1
 91
        4
176
     1
 64
     7
176
     1
 65
   257
176
     1
 75
     1
176
     1
175
     1
176
     1
 42
1.0
176
     1
 92
        0
176
     1
 66
   257
176
     1
 43
1.0
176
     1
 76
     1
176
     1
 77
     6
176
     1
 78
     2
176
     1
 67
     7
176
     1
 79
     5
176
     1
170
     0
176
     1
171
     0
176
     1
290
     0
176
     1
 93
       13
176
     1
 44
0.0
176
     1
173
     0
176
     1
  0
VISUALSTYLE
  5
38
102
{ACAD_REACTORS
330
2A
102
}
330
2A
100
AcDbVisualStyle
  2
Linepattern
 70
    14
177
     2
291
     1
 71
     2
176
     1
 72
     2
176
     1
 73
     0
176
     1
 90
        0
176
     1
 40
-0.6
176
     1
 41
-30.0
176
     1
 62
     5
 63
     7
421
 16777215
176
     1
 74
     1
176
     1
 91
        4
176
     1
 64
     7
176
     1
 65
   257
176
     1
 75
     7
176
     1
175
     7
176
     1
 42
1.0
176
     1
 92
        8
176
     1
 66
     7
176
     1
 43
1.0
176
     1
 76
     1
176
     1
 77
     6
176
     1
 78
     2
176
     1
 67
     7
176
     1
 79
     5
176
     1
170
     0
176
     1
171
     0
176
     1
290
     0
176
     1
 93
        1
176
     1
 44
0.0
176
     1
173
     0
176
     1
  0
VISUALSTYLE
  5
33
102
{ACAD_REACTORS
330
2A
102
}
330
2A
100
AcDbVisualStyle
  2
Realistic
 70
     8
177
     2
291
     0
 71
     2
176
     1
 72
     2
176
     1
 73
     0
176
     1
 90
        0
176
     1
 40
-0.6
176
     1
 41
-30.0
176
     1
 62
     5
 63
     7
421
 16777215
176
     1
 74
     1
176
     1
 91
        0
176
     1
 64
     7
176
     1
 65
   257
176
     1
 75
     1
176
     1
175
     1
176
     1
 42
1.0
176
     1
 92
        8
176
     1
 66
     8
424
  7895160
176
     1
 43
1.0
176
     1
 76
     1
176
     1
 77
     6
176
     1
 78
     2
176
     1
 67
     7
176
     1
 79
     5
176
     1
170
     0
176
     1
171
     0
176
     1
290
     0
176
     1
 93
       13
176
     1
 44
0.0
176
     1
173
     0
176
     1
  0
VISUALSTYLE
  5
37
102
{ACAD_REACTORS
330
2A
102
}
330
2A
100
AcDbVisualStyle
  2
Thicken
 70
    13
177
     2
291
     1
 71
     2
176
     1
 72
     2
176
     1
 73
     0
176
     1
 90
        0
176
     1
 40
-0.6
176
     1
 41
-30.0
176
     1
 62
     5
 63
     7
421
 16777215
176
     1
 74
     1
176
     1
 91
        4
176
     1
 64
     7
176
     1
 65
   257
176
     1
 75
     1
176
     1
175
     1
176
     1
 42
1.0
176
     1
 92
       12
176
     1
 66
     7
176
     1
 43
1.0
176
     1
 76
     1
176
     1
 77
     6
176
     1
 78
     2
176
     1
 67
     7
176
     1
 79
     5
176
     1
170
     0
176
     1
171
     0
176
     1
290
     0
176
     1
 93
        1
176
     1
 44
0.0
176
     1
173
     0
176
     1
  0
ENDSEC
  0
EOF
