  0
SECTION
  2
HEADER
  9
$ACADVER
  1
AC1024
  9
$ACADMAINTVER
 70
     6
  9
$DWGCODEPAGE
  3
ANSI_1252
  9
$INSBASE
 10
0.0
 20
0.0
 30
0.0
  9
$EXTMIN
 10
1.000000000000000E+20
 20
1.000000000000000E+20
 30
1.000000000000000E+20
  9
$EXTMAX
 10
-1.000000000000000E+20
 20
-1.000000000000000E+20
 30
-1.000000000000000E+20
  9
$LIMMIN
 10
0.0
 20
0.0
  9
$LIMMAX
 10
12.0
 20
9.0
  9
$ORTHOMODE
 70
     0
  9
$REGENMODE
 70
     1
  9
$FILLMODE
 70
     1
  9
$QTEXTMODE
 70
     0
  9
$MIRRTEXT
 70
     1
  9
$LTSCALE
 40
1.0
  9
$ATTMODE
 70
     1
  9
$TEXTSIZE
 40
0.2
  9
$TRACEWID
 40
0.05
  9
$TEXTSTYLE
  7
Standard
  9
$CLAYER
  8
0
  9
$CELTYPE
  6
ByLayer
  9
$CECOLOR
 62
   256
  9
$CELTSCALE
 40
1.0
  9
$DISPSILH
 70
     0
  9
$DIMSCALE
 40
1.0
  9
$DIMASZ
 40
0.18
  9
$DIMEXO
 40
0.0625
  9
$DIMDLI
 40
0.38
  9
$DIMRND
 40
0.0
  9
$DIMDLE
 40
0.0
  9
$DIMEXE
 40
0.18
  9
$DIMTP
 40
0.0
  9
$DIMTM
 40
0.0
  9
$DIMTXT
 40
0.18
  9
$DIMCEN
 40
0.09
  9
$DIMTSZ
 40
0.0
  9
$DIMTOL
 70
     0
  9
$DIMLIM
 70
     0
  9
$DIMTIH
 70
     1
  9
$DIMTOH
 70
     1
  9
$DIMSE1
 70
     0
  9
$DIMSE2
 70
     0
  9
$DIMTAD
 70
     0
  9
$DIMZIN
 70
     0
  9
$DIMBLK
  1

  9
$DIMASO
 70
     1
  9
$DIMSHO
 70
     1
  9
$DIMPOST
  1

  9
$DIMAPOST
  1

  9
$DIMALT
 70
     0
  9
$DIMALTD
 70
     2
  9
$DIMALTF
 40
25.4
  9
$DIMLFAC
 40
1.0
  9
$DIMTOFL
 70
     0
  9
$DIMTVP
 40
0.0
  9
$DIMTIX
 70
     0
  9
$DIMSOXD
 70
     0
  9
$DIMSAH
 70
     0
  9
$DIMBLK1
  1

  9
$DIMBLK2
  1

  9
$DIMSTYLE
  2
Standard
  9
$DIMCLRD
 70
     0
  9
$DIMCLRE
 70
     0
  9
$DIMCLRT
 70
     0
  9
$DIMTFAC
 40
1.0
  9
$DIMGAP
 40
0.09
  9
$DIMJUST
 70
     0
  9
$DIMSD1
 70
     0
  9
$DIMSD2
 70
     0
  9
$DIMTOLJ
 70
     1
  9
$DIMTZIN
 70
     0
  9
$DIMALTZ
 70
     0
  9
$DIMALTTZ
 70
     0
  9
$DIMUPT
 70
     0
  9
$DIMDEC
 70
     4
  9
$DIMTDEC
 70
     4
  9
$DIMALTU
 70
     2
  9
$DIMALTTD
 70
     2
  9
$DIMTXSTY
  7
Standard
  9
$DIMAUNIT
 70
     0
  9
$DIMADEC
 70
     0
  9
$DIMALTRND
 40
0.0
  9
$DIMAZIN
 70
     0
  9
$DIMDSEP
 70
    46
  9
$DIMATFIT
 70
     3
  9
$DIMFRAC
 70
     0
  9
$DIMLDRBLK
  1

  9
$DIMLUNIT
 70
     2
  9
$DIMLWD
 70
    -2
  9
$DIMLWE
 70
    -2
  9
$DIMTMOVE
 70
     0
  9
$DIMFXL
 40
1.0
  9
$DIMFXLON
 70
     0
  9
$DIMJOGANG
 40
0.7853981633974483
  9
$DIMTFILL
 70
     0
  9
$DIMTFILLCLR
 70
     0
  9
$DIMARCSYM
 70
     0
  9
$DIMLTYPE
  6

  9
$DIMLTEX1
  6

  9
$DIMLTEX2
  6

  9
$DIMTXTDIRECTION
 70
     0
  9
$LUNITS
 70
     2
  9
$LUPREC
 70
     4
  9
$SKETCHINC
 40
0.1
  9
$FILLETRAD
 40
0.5
  9
$AUNITS
 70
     0
  9
$AUPREC
 70
     0
  9
$MENU
  1
.
  9
$ELEVATION
 40
0.0
  9
$PELEVATION
 40
0.0
  9
$THICKNESS
 40
0.0
  9
$LIMCHECK
 70
     0
  9
$CHAMFERA
 40
0.5
  9
$CHAMFERB
 40
0.5
  9
$CHAMFERC
 40
1.0
  9
$CHAMFERD
 40
0.0
  9
$SKPOLY
 70
     0
  9
$TDCREATE
 40
2458788.514176586
  9
$TDUCREATE
 40
2458787.972509919
  9
$TDUPDATE
 40
2458788.514176701
  9
$TDUUPDATE
 40
2458787.972510035
  9
$TDINDWG
 40
0.0000000116
  9
$TDUSRTIMER
 40
0.0000000116
  9
$USRTIMER
 70
     1
  9
$ANGBASE
 50
0.0
  9
$ANGDIR
 70
     0
  9
$PDMODE
 70
     0
  9
$PDSIZE
 40
0.0
  9
$PLINEWID
 40
0.0
  9
$SPLFRAME
 70
     0
  9
$SPLINETYPE
 70
     6
  9
$SPLINESEGS
 70
     8
  9
$HANDSEED
  5
19E
  9
$SURFTAB1
 70
     6
  9
$SURFTAB2
 70
     6
  9
$SURFTYPE
 70
     6
  9
$SURFU
 70
     6
  9
$SURFV
 70
     6
  9
$UCSBASE
  2

  9
$UCSNAME
  2

  9
$UCSORG
 10
0.0
 20
0.0
 30
0.0
  9
$UCSXDIR
 10
1.0
 20
0.0
 30
0.0
  9
$UCSYDIR
 10
0.0
 20
1.0
 30
0.0
  9
$UCSORTHOREF
  2

  9
$UCSORTHOVIEW
 70
     0
  9
$UCSORGTOP
 10
0.0
 20
0.0
 30
0.0
  9
$UCSORGBOTTOM
 10
0.0
 20
0.0
 30
0.0
  9
$UCSORGLEFT
 10
0.0
 20
0.0
 30
0.0
  9
$UCSORGRIGHT
 10
0.0
 20
0.0
 30
0.0
  9
$UCSORGFRONT
 10
0.0
 20
0.0
 30
0.0
  9
$UCSORGBACK
 10
0.0
 20
0.0
 30
0.0
  9
$PUCSBASE
  2

  9
$PUCSNAME
  2

  9
$PUCSORG
 10
0.0
 20
0.0
 30
0.0
  9
$PUCSXDIR
 10
1.0
 20
0.0
 30
0.0
  9
$PUCSYDIR
 10
0.0
 20
1.0
 30
0.0
  9
$PUCSORTHOREF
  2

  9
$PUCSORTHOVIEW
 70
     0
  9
$PUCSORGTOP
 10
0.0
 20
0.0
 30
0.0
  9
$PUCSORGBOTTOM
 10
0.0
 20
0.0
 30
0.0
  9
$PUCSORGLEFT
 10
0.0
 20
0.0
 30
0.0
  9
$PUCSORGRIGHT
 10
0.0
 20
0.0
 30
0.0
  9
$PUCSORGFRONT
 10
0.0
 20
0.0
 30
0.0
  9
$PUCSORGBACK
 10
0.0
 20
0.0
 30
0.0
  9
$USERI1
 70
     0
  9
$USERI2
 70
     0
  9
$USERI3
 70
     0
  9
$USERI4
 70
     0
  9
$USERI5
 70
     0
  9
$USERR1
 40
0.0
  9
$USERR2
 40
0.0
  9
$USERR3
 40
0.0
  9
$USERR4
 40
0.0
  9
$USERR5
 40
0.0
  9
$WORLDVIEW
 70
     1
  9
$SHADEDGE
 70
     3
  9
$SHADEDIF
 70
    70
  9
$TILEMODE
 70
     1
  9
$MAXACTVP
 70
    64
  9
$PINSBASE
 10
0.0
 20
0.0
 30
0.0
  9
$PLIMCHECK
 70
     0
  9
$PEXTMIN
 10
1.000000000000000E+20
 20
1.000000000000000E+20
 30
1.000000000000000E+20
  9
$PEXTMAX
 10
-1.000000000000000E+20
 20
-1.000000000000000E+20
 30
-1.000000000000000E+20
  9
$PLIMMIN
 10
0.0
 20
0.0
  9
$PLIMMAX
 10
12.0
 20
9.0
  9
$UNITMODE
 70
     0
  9
$VISRETAIN
 70
     1
  9
$PLINEGEN
 70
     0
  9
$PSLTSCALE
 70
     1
  9
$TREEDEPTH
 70
  3020
  9
$CMLSTYLE
  2
Standard
  9
$CMLJUST
 70
     0
  9
$CMLSCALE
 40
1.0
  9
$PROXYGRAPHICS
 70
     1
  9
$MEASUREMENT
 70
     0
  9
$CELWEIGHT
370
    -1
  9
$ENDCAPS
280
     0
  9
$JOINSTYLE
280
     0
  9
$LWDISPLAY
290
     1
  9
$INSUNITS
 70
     1
  9
$HYPERLINKBASE
  1

  9
$STYLESHEET
  1

  9
$XEDIT
290
     1
  9
$CEPSNTYPE
380
     0
  9
$PSTYLEMODE
290
     1
  9
$FINGERPRINTGUID
  2
{18C66872-0A22-4B3A-A150-8AF9B1A812F0}
  9
$VERSIONGUID
  2
{FAEB1C32-E019-11D5-929B-00C0DF256EC4}
  9
$EXTNAMES
290
     1
  9
$PSVPSCALE
 40
0.0
  9
$OLESTARTUP
290
     0
  9
$SORTENTS
280
   127
  9
$INDEXCTL
280
     0
  9
$HIDETEXT
280
     1
  9
$XCLIPFRAME
280
     2
  9
$HALOGAP
280
     0
  9
$OBSCOLOR
 70
   257
  9
$OBSLTYPE
280
     0
  9
$INTERSECTIONDISPLAY
280
     0
  9
$INTERSECTIONCOLOR
 70
   257
  9
$DIMASSOC
280
     2
  9
$PROJECTNAME
  1

  9
$CAMERADISPLAY
290
     0
  9
$LENSLENGTH
 40
50.0
  9
$CAMERAHEIGHT
 40
0.0
  9
$STEPSPERSEC
 40
2.0
  9
$STEPSIZE
 40
6.0
  9
$3DDWFPREC
 40
2.0
  9
$PSOLWIDTH
 40
0.25
  9
$PSOLHEIGHT
 40
4.0
  9
$LOFTANG1
 40
1.570796326794897
  9
$LOFTANG2
 40
1.570796326794897
  9
$LOFTMAG1
 40
0.0
  9
$LOFTMAG2
 40
0.0
  9
$LOFTPARAM
 70
     7
  9
$LOFTNORMALS
280
     1
  9
$LATITUDE
 40
37.795
  9
$LONGITUDE
 40
-122.394
  9
$NORTHDIRECTION
 40
0.0
  9
$TIMEZONE
 70
 -8000
  9
$LIGHTGLYPHDISPLAY
280
     1
  9
$TILEMODELIGHTSYNCH
280
     1
  9
$CMATERIAL
347
3C
  9
$SOLIDHIST
280
     1
  9
$SHOWHIST
280
     1
  9
$DWFFRAME
280
     2
  9
$DGNFRAME
280
     2
  9
$REALWORLDSCALE
290
     1
  9
$INTERFERECOLOR
 62
   256
  9
$CSHADOW
280
     0
  9
$SHADOWPLANELOCATION
 40
0.0
  0
ENDSEC
  0
SECTION
  2
CLASSES
  0
CLASS
  1
ACDBDICTIONARYWDFLT
  2
AcDbDictionaryWithDefault
  3
ObjectDBX Classes
 90
        0
 91
        4
280
     0
281
     0
  0
CLASS
  1
VISUALSTYLE
  2
AcDbVisualStyle
  3
ObjectDBX Classes
 90
     4095
 91
        4
280
     0
281
     0
  0
CLASS
  1
MATERIAL
  2
AcDbMaterial
  3
ObjectDBX Classes
 90
     1153
 91
        4
280
     0
281
     0
  0
CLASS
  1
SUN
  2
AcDbSun
  3
SCENEOE
 90
     1024
 91
        4
280
     0
281
     0
  0
ENDSEC
  0
SECTION
  2
TABLES
  0
TABLE
  2
VPORT
  5
8
330
0
100
AcDbSymbolTable
 70
     1
  0
VPORT
  5
29
330
8
100
AcDbSymbolTableRecord
100
AcDbViewportTableRecord
  2
*Active
 70
     0
 10
0.0
 20
0.0
 11
1.0
 21
1.0
 12
0.0
 22
0.0
 13
0.0
 23
0.0
 14
0.5
 24
0.5
 15
0.5
 25
0.5
 16
0.0
 26
0.0
 36
1.0
 17
3.311606860786216
 27
3.458897829287555
 37
0.0
 40
11.69291338582677
 41
0.7070707070707065
 42
50.0
 43
0.0
 44
0.0
 50
0.0
 51
0.0
 71
     0
 72
   100
 73
     1
 74
     3
 75
     0
 76
     0
 77
     0
 78
     0
281
     0
 65
     1
110
0.0
120
0.0
130
0.0
111
1.0
121
0.0
131
0.0
112
0.0
122
1.0
132
0.0
 79
     0
146
0.0
 60
     3
 61
     5
292
     1
282
     1
141
0.0
142
0.0
 63
   250
361
3F
  0
ENDTAB
  0
TABLE
  2
LTYPE
  5
5
330
0
100
AcDbSymbolTable
 70
     1
  0
LTYPE
  5
14
330
5
100
AcDbSymbolTableRecord
100
AcDbLinetypeTableRecord
  2
ByBlock
 70
     0
  3

 72
    65
 73
     0
 40
0.0
  0
LTYPE
  5
15
330
5
100
AcDbSymbolTableRecord
100
AcDbLinetypeTableRecord
  2
ByLayer
 70
     0
  3

 72
    65
 73
     0
 40
0.0
  0
LTYPE
  5
16
330
5
100
AcDbSymbolTableRecord
100
AcDbLinetypeTableRecord
  2
Continuous
 70
     0
  3
Solid line
 72
    65
 73
     0
 40
0.0
  0
ENDTAB
  0
TABLE
  2
LAYER
  5
2
330
0
100
AcDbSymbolTable
 70
     3
  0
LAYER
  5
10
330
2
100
AcDbSymbolTableRecord
100
AcDbLayerTableRecord
  2
0
 70
     0
 62
     7
  6
Continuous
370
    -3
390
F
347
3E
  0
LAYER
  5
40
330
2
100
AcDbSymbolTableRecord
100
AcDbLayerTableRecord
  2
Layer 1
 70
     0
 62
     7
  6
Continuous
370
    -3
390
F
347
3E
  0
LAYER
  5
185
330
2
100
AcDbSymbolTableRecord
100
AcDbLayerTableRecord
  2
callouts
 70
     0
 62
     7
  6
Continuous
370
    -3
390
F
347
3E
  0
ENDTAB
  0
TABLE
  2
STYLE
  5
3
330
0
100
AcDbSymbolTable
 70
     1
  0
STYLE
  5
11
330
3
100
AcDbSymbolTableRecord
100
AcDbTextStyleTableRecord
  2
Standard
 70
     0
 40
0.0
 41
1.0
 50
0.0
 71
     0
 42
0.2
  3
txt
  4

  0
ENDTAB
  0
TABLE
  2
VIEW
  5
6
330
0
100
AcDbSymbolTable
 70
     0
  0
ENDTAB
  0
TABLE
  2
UCS
  5
7
330
0
100
AcDbSymbolTable
 70
     0
  0
ENDTAB
  0
TABLE
  2
APPID
  5
9
330
0
100
AcDbSymbolTable
 70
     1
  0
APPID
  5
12
330
9
100
AcDbSymbolTableRecord
100
AcDbRegAppTableRecord
  2
ACAD
 70
     0
  0
ENDTAB
  0
TABLE
  2
DIMSTYLE
  5
A
330
0
100
AcDbSymbolTable
 70
     1
100
AcDbDimStyleTable
  0
DIMSTYLE
105
27
330
A
100
AcDbSymbolTableRecord
100
AcDbDimStyleTableRecord
  2
Standard
 70
     0
178
     0
340
11
  0
ENDTAB
  0
TABLE
  2
BLOCK_RECORD
  5
1
330
0
100
AcDbSymbolTable
 70
     3
  0
BLOCK_RECORD
  5
1F
330
1
100
AcDbSymbolTableRecord
100
AcDbBlockTableRecord
  2
*Model_Space
340
22
 70
     0
280
     1
281
     0
  0
BLOCK_RECORD
  5
1B
330
1
100
AcDbSymbolTableRecord
100
AcDbBlockTableRecord
  2
*Paper_Space
340
1E
 70
     0
280
     1
281
     0
  0
BLOCK_RECORD
  5
23
330
1
100
AcDbSymbolTableRecord
100
AcDbBlockTableRecord
  2
*Paper_Space0
340
26
 70
     0
280
     1
281
     0
  0
BLOCK_RECORD
  5
41
330
1
100
AcDbSymbolTableRecord
100
AcDbBlockTableRecord
  2
block 2
340
0
102
{BLKREFS
331
42
102
}
 70
     0
280
     1
281
     0
  0
BLOCK_RECORD
  5
45
330
1
100
AcDbSymbolTableRecord
100
AcDbBlockTableRecord
  2
block 3
340
0
102
{BLKREFS
331
46
102
}
 70
     0
280
     1
281
     0
  0
ENDTAB
  0
ENDSEC
  0
SECTION
  2
BLOCKS
  0
BLOCK
  5
20
330
1F
100
AcDbEntity
  8
0
100
AcDbBlockBegin
  2
*Model_Space
 70
     0
 10
0.0
 20
0.0
 30
0.0
  3
*Model_Space
  1

  0
ENDBLK
  5
21
330
1F
100
AcDbEntity
  8
0
100
AcDbBlockEnd
  0
BLOCK
  5
1C
330
1B
100
AcDbEntity
 67
     1
  8
0
100
AcDbBlockBegin
  2
*Paper_Space
 70
     0
 10
0.0
 20
0.0
 30
0.0
  3
*Paper_Space
  1

  0
ENDBLK
  5
1D
330
1B
100
AcDbEntity
 67
     1
  8
0
100
AcDbBlockEnd
  0
BLOCK
  5
24
330
23
100
AcDbEntity
  8
0
100
AcDbBlockBegin
  2
*Paper_Space0
 70
     0
 10
0.0
 20
0.0
 30
0.0
  3
*Paper_Space0
  1

  0
ENDBLK
  5
25
330
23
100
AcDbEntity
  8
0
100
AcDbBlockEnd
  0
BLOCK
  5
43
330
41
100
AcDbEntity
  8
0
100
AcDbBlockBegin
  2
block 2
 70
     0
 10
0.0
 20
0.0
 30
0.0
  3
block 2
  1

  0
INSERT
  5
46
330
41
100
AcDbEntity
  8
Layer 1
100
AcDbBlockReference
  2
block 3
 10
0.0
 20
0.0
 30
0.0
  0
POLYLINE
  5
16F
330
41
100
AcDbEntity
  8
Layer 1
 62
   250
420
  2301728
370
    35
100
AcDb2dPolyline
 66
     1
 10
0.0
 20
0.0
 30
0.0
  0
VERTEX
  5
170
330
16F
100
AcDbEntity
  8
Layer 1
 62
   250
420
  2301728
370
    35
100
AcDbVertex
100
AcDb2dVertex
 10
1.667014201425357
 20
4.078614013331389
 30
0.0
  0
VERTEX
  5
171
330
16F
100
AcDbEntity
  8
Layer 1
 62
   250
420
  2301728
370
    35
100
AcDbVertex
100
AcDb2dVertex
 10
1.662782710864867
 20
4.308354613126767
 30
0.0
  0
VERTEX
  5
172
330
16F
100
AcDbEntity
  8
Layer 1
 62
   250
420
  2301728
370
    35
100
AcDbVertex
100
AcDb2dVertex
 10
1.754153544041944
 20
4.386982892268431
 30
0.0
  0
SEQEND
  5
173
330
16F
100
AcDbEntity
  8
Layer 1
 62
   250
420
  2301728
370
    35
  0
POLYLINE
  5
174
330
41
100
AcDbEntity
  8
Layer 1
 62
   250
420
  2301728
370
    40
100
AcDb2dPolyline
 66
     1
 10
0.0
 20
0.0
 30
0.0
  0
VERTEX
  5
175
330
174
100
AcDbEntity
  8
Layer 1
 62
   250
420
  2301728
370
    40
100
AcDbVertex
100
AcDb2dVertex
 10
1.751422184751732
 20
4.386776851625655
 30
0.0
  0
VERTEX
  5
176
330
174
100
AcDbEntity
  8
Layer 1
 62
   250
420
  2301728
370
    40
100
AcDbVertex
100
AcDb2dVertex
 10
1.574147985558107
 20
4.426658923737502
 30
0.0
  0
SEQEND
  5
177
330
174
100
AcDbEntity
  8
Layer 1
 62
   250
420
  2301728
370
    40
  0
POLYLINE
  5
178
330
41
100
AcDbEntity
  8
Layer 1
 62
   250
420
  2301728
370
    40
100
AcDb2dPolyline
 66
     1
 10
0.0
 20
0.0
 30
0.0
  0
VERTEX
  5
179
330
178
100
AcDbEntity
  8
Layer 1
 62
   250
420
  2301728
370
    40
100
AcDbVertex
100
AcDb2dVertex
 10
1.664124349333002
 20
4.241644992706041
 30
0.0
  0
VERTEX
  5
17A
330
178
100
AcDbEntity
  8
Layer 1
 62
   250
420
  2301728
370
    40
100
AcDbVertex
100
AcDb2dVertex
 10
1.56398331384753
 20
4.261821126418454
 30
0.0
  0
SEQEND
  5
17B
330
178
100
AcDbEntity
  8
Layer 1
 62
   250
420
  2301728
370
    40
  0
POLYLINE
  5
17C
330
41
100
AcDbEntity
  8
Layer 1
 62
   250
420
  2301728
370
    40
100
AcDb2dPolyline
 66
     1
 10
0.0
 20
0.0
 30
0.0
  0
VERTEX
  5
17D
330
17C
100
AcDbEntity
  8
Layer 1
 62
   250
420
  2301728
370
    40
100
AcDbVertex
100
AcDb2dVertex
 10
1.56398331384753
 20
4.261821126418454
 30
0.0
  0
VERTEX
  5
17E
330
17C
100
AcDbEntity
  8
Layer 1
 62
   250
420
  2301728
370
    40
100
AcDbVertex
100
AcDb2dVertex
 10
1.56062854953556
 20
4.420520317816504
 30
0.0
  0
SEQEND
  5
17F
330
17C
100
AcDbEntity
  8
Layer 1
 62
   250
420
  2301728
370
    40
  0
SPLINE
  5
180
330
41
100
AcDbEntity
  8
Layer 1
 62
   250
420
  2301728
370
    20
100
AcDbSpline
210
0.0
220
0.0
230
1.0
 70
     8
 71
     3
 72
    47
 73
    43
 74
     0
 42
0.0000000001
 43
0.0000000001
 12
1.0
 22
0.0
 32
0.0
 13
1.0
 23
0.0
 33
0.0
 40
0.0
 40
0.0
 40
0.0
 40
0.0
 40
1.0
 40
1.0
 40
1.0
 40
2.0
 40
2.0
 40
2.0
 40
3.0
 40
3.0
 40
3.0
 40
4.0
 40
4.0
 40
4.0
 40
5.0
 40
5.0
 40
5.0
 40
6.0
 40
6.0
 40
6.0
 40
7.0
 40
7.0
 40
7.0
 40
8.0
 40
8.0
 40
8.0
 40
9.0
 40
9.0
 40
9.0
 40
10.0
 40
10.0
 40
10.0
 40
11.0
 40
11.0
 40
11.0
 40
12.0
 40
12.0
 40
12.0
 40
13.0
 40
13.0
 40
13.0
 40
14.0
 40
14.0
 40
14.0
 40
14.0
 10
1.566614294363047
 20
4.399466841983667
 30
0.0
 10
1.570328573947588
 20
4.399466841983667
 30
0.0
 10
1.573941944915317
 20
4.400090247005411
 30
0.0
 10
1.57755029771071
 20
4.399466841983667
 30
0.0
 10
1.581887717395944
 20
4.398283429061014
 30
0.0
 10
1.585548901125384
 20
4.395752827320191
 30
0.0
 10
1.58983348987657
 20
4.395187536325895
 30
0.0
 10
1.598962940924278
 20
4.393999188255066
 30
0.0
 10
1.606961278694497
 20
4.390855399734063
 30
0.0
 10
1.615419511235372
 20
4.391526352596454
 30
0.0
 10
1.617279160113816
 20
4.391526352596454
 30
0.0
 10
1.619138808992261
 20
4.389719882489165
 30
0.0
 10
1.619756930920605
 20
4.388478007701957
 30
0.0
 10
1.623983405644329
 20
4.38476399303848
 30
0.0
 10
1.628938947257918
 20
4.386005519988581
 30
0.0
 10
1.6337888270034
 20
4.38476399303848
 30
0.0
 10
1.635025070860087
 20
4.38476399303848
 30
0.0
 10
1.635648475881845
 20
4.383580580115828
 30
0.0
 10
1.636884719738532
 20
4.382957522760332
 30
0.0
 10
1.643588965269057
 20
4.38110280930904
 30
0.0
 10
1.650816237046633
 20
4.38110280930904
 30
0.0
 10
1.657626144445266
 20
4.379866565452352
 30
0.0
 10
1.667373451776876
 20
4.376818220557854
 30
0.0
 10
1.677126042201886
 20
4.376252929563558
 30
0.0
 10
1.686931463560957
 20
4.373157036828413
 30
0.0
 10
1.690022073202688
 20
4.3719686882011
 30
0.0
 10
1.69487195294817
 20
4.371297387949982
 30
0.0
 10
1.698485588836964
 20
4.370732096955686
 30
0.0
 10
1.700392785556043
 20
4.370113975027329
 30
0.0
 10
1.700392785556043
 20
4.371297387949982
 30
0.0
 10
1.702252434434488
 20
4.370732096955686
 30
0.0
 10
1.703441130450541
 20
4.370732096955686
 30
0.0
 10
1.707667605174278
 20
4.369495853098998
 30
0.0
 10
1.708909132124366
 20
4.368925279011288
 30
0.0
 10
1.710145375981066
 20
4.368254326148897
 30
0.0
 10
1.711381619837754
 20
4.367689382435199
 30
0.0
 10
1.712005024859498
 20
4.367070913226245
 30
0.0
 10
1.715613646246147
 20
4.367070913226245
 30
0.0
 10
1.715048086660595
 20
4.368254326148897
 30
0.0
 10
1.71809114846168
 20
4.3664475082045
 30
0.0
 10
1.719897966406089
 20
4.365211264347812
 30
0.0
 10
1.722323175039605
 20
4.365211264347812
 30
0.0
 10
1.724177272063861
 20
4.364593142419456
 30
0.0
  0
SPLINE
  5
181
330
41
100
AcDbEntity
  8
Layer 1
 62
   250
420
  2301728
370
    20
100
AcDbSpline
210
0.0
220
0.0
230
1.0
 70
     8
 71
     3
 72
    35
 73
    31
 74
     0
 42
0.0000000001
 43
0.0000000001
 12
1.0
 22
0.0
 32
0.0
 13
1.0
 23
0.0
 33
0.0
 40
0.0
 40
0.0
 40
0.0
 40
0.0
 40
1.0
 40
1.0
 40
1.0
 40
2.0
 40
2.0
 40
2.0
 40
3.0
 40
3.0
 40
3.0
 40
4.0
 40
4.0
 40
4.0
 40
5.0
 40
5.0
 40
5.0
 40
6.0
 40
6.0
 40
6.0
 40
7.0
 40
7.0
 40
7.0
 40
8.0
 40
8.0
 40
8.0
 40
9.0
 40
9.0
 40
9.0
 40
10.0
 40
10.0
 40
10.0
 40
10.0
 10
1.568421112307444
 20
4.377441625579599
 30
0.0
 10
1.572700417965216
 20
4.377441625579599
 30
0.0
 10
1.574560066843686
 20
4.37377515875677
 30
0.0
 10
1.578173702732468
 20
4.373157036828413
 30
0.0
 10
1.584983610131076
 20
4.3719686882011
 30
0.0
 10
1.59106973373327
 20
4.370113975027329
 30
0.0
 10
1.597261519203534
 20
4.367689382435199
 30
0.0
 10
1.597779262357183
 20
4.367070913226245
 30
0.0
 10
1.600151371295876
 20
4.3664475082045
 30
0.0
 10
1.600822324158268
 20
4.3664475082045
 30
0.0
 10
1.609951775483561
 20
4.365829386276143
 30
0.0
 10
1.617279160113816
 20
4.361550080618372
 30
0.0
 10
1.625843054522774
 20
4.359072309811583
 30
0.0
 10
1.627079298379474
 20
4.359072309811583
 30
0.0
 10
1.628938947257918
 20
4.359690431739915
 30
0.0
 10
1.630127643273959
 20
4.359072309811583
 30
0.0
 10
1.631982275537578
 20
4.357265491867186
 30
0.0
 10
1.635025070860087
 20
4.356700547875865
 30
0.0
 10
1.636884719738532
 20
4.356700547875865
 30
0.0
 10
1.647202601157851
 20
4.355411126082142
 30
0.0
 10
1.657626144445266
 20
4.354787721060398
 30
0.0
 10
1.667944025864573
 20
4.353551477203711
 30
0.0
 10
1.675372055191537
 20
4.352986186209415
 30
0.0
 10
1.682647142568246
 20
4.350561246336661
 30
0.0
 10
1.689356671361692
 20
4.346847231673185
 30
0.0
 10
1.690022073202688
 20
4.346276657585475
 30
0.0
 10
1.690539816356338
 20
4.344422291800432
 30
0.0
 10
1.691881722081121
 20
4.343798886778687
 30
0.0
 10
1.693017587163126
 20
4.343798886778687
 30
0.0
 10
1.693635977127529
 20
4.343233595784391
 30
0.0
 10
1.694253831019814
 20
4.343233595784391
 30
0.0
  0
SPLINE
  5
182
330
41
100
AcDbEntity
  8
Layer 1
 62
   250
420
  2301728
370
    20
100
AcDbSpline
210
0.0
220
0.0
230
1.0
 70
     8
 71
     3
 72
    23
 73
    19
 74
     0
 42
0.0000000001
 43
0.0000000001
 12
1.0
 22
0.0
 32
0.0
 13
1.0
 23
0.0
 33
0.0
 40
0.0
 40
0.0
 40
0.0
 40
0.0
 40
1.0
 40
1.0
 40
1.0
 40
2.0
 40
2.0
 40
2.0
 40
3.0
 40
3.0
 40
3.0
 40
4.0
 40
4.0
 40
4.0
 40
5.0
 40
5.0
 40
5.0
 40
6.0
 40
6.0
 40
6.0
 40
6.0
 10
1.569092065169836
 20
4.343233595784391
 30
0.0
 10
1.574560066843686
 20
4.343798886778687
 30
0.0
 10
1.578844655594859
 20
4.341997351927704
 30
0.0
 10
1.584360205109331
 20
4.340702994043542
 30
0.0
 10
1.592258429749311
 20
4.338949353587774
 30
0.0
 10
1.600151371295876
 20
4.339519581120915
 30
0.0
 10
1.607579400622853
 20
4.337147472182197
 30
0.0
 10
1.612429280368322
 20
4.335853114298061
 30
0.0
 10
1.617279160113816
 20
4.335287823303765
 30
0.0
 10
1.622229418633992
 20
4.333998748513017
 30
0.0
 10
1.624606810666086
 20
4.333380626584686
 30
0.0
 10
1.627079298379474
 20
4.334670047821898
 30
0.0
 10
1.629557069186262
 20
4.333998748513017
 30
0.0
 10
1.634406948931756
 20
4.331573808640289
 30
0.0
 10
1.640493072533925
 20
4.330385112624223
 30
0.0
 10
1.644830492219158
 20
4.326723928894808
 30
0.0
 10
1.65395994465622
 20
4.327289219889104
 30
0.0
 10
1.662523572031369
 20
4.322957083297271
 30
0.0
 10
1.67165830800895
 20
4.322957083297271
 30
0.0
  0
SPLINE
  5
183
330
41
100
AcDbEntity
  8
Layer 1
 62
   250
420
  2301728
370
    20
100
AcDbSpline
210
0.0
220
0.0
230
1.0
 70
     8
 71
     3
 72
    20
 73
    16
 74
     0
 42
0.0000000001
 43
0.0000000001
 12
1.0
 22
0.0
 32
0.0
 13
1.0
 23
0.0
 33
0.0
 40
0.0
 40
0.0
 40
0.0
 40
0.0
 40
1.0
 40
1.0
 40
1.0
 40
2.0
 40
2.0
 40
2.0
 40
3.0
 40
3.0
 40
3.0
 40
4.0
 40
4.0
 40
4.0
 40
5.0
 40
5.0
 40
5.0
 40
5.0
 10
1.568421112307444
 20
4.317541912557494
 30
0.0
 10
1.569710187098179
 20
4.317541912557494
 30
0.0
 10
1.57094643095488
 20
4.31810720355179
 30
0.0
 10
1.571569835976624
 20
4.317541912557494
 30
0.0
 10
1.575796310700361
 20
4.313827897893993
 30
0.0
 10
1.58069902137989
 20
4.312639547767832
 30
0.0
 10
1.584360205109331
 20
4.308354613126767
 30
0.0
 10
1.598962940924278
 20
4.305930018974474
 30
0.0
 10
1.611863989374026
 20
4.30103224566791
 30
0.0
 10
1.62646117645113
 20
4.296694825982664
 30
0.0
 10
1.629557069186262
 20
4.296076704054333
 30
0.0
 10
1.6325525831467
 20
4.29365176418158
 30
0.0
 10
1.636213766876141
 20
4.293086473187284
 30
0.0
 10
1.644212370290802
 20
4.292468351258927
 30
0.0
 10
1.652105311837381
 20
4.291797398396536
 30
0.0
 10
1.660098632158641
 20
4.291173993374792
 30
0.0
  0
SPLINE
  5
184
330
41
100
AcDbEntity
  8
Layer 1
 62
   250
420
  2301728
370
    20
100
AcDbSpline
210
0.0
220
0.0
230
1.0
 70
     8
 71
     3
 72
    23
 73
    19
 74
     0
 42
0.0000000001
 43
0.0000000001
 12
1.0
 22
0.0
 32
0.0
 13
1.0
 23
0.0
 33
0.0
 40
0.0
 40
0.0
 40
0.0
 40
0.0
 40
1.0
 40
1.0
 40
1.0
 40
2.0
 40
2.0
 40
2.0
 40
3.0
 40
3.0
 40
3.0
 40
4.0
 40
4.0
 40
4.0
 40
5.0
 40
5.0
 40
5.0
 40
6.0
 40
6.0
 40
6.0
 40
6.0
 10
1.569710187098179
 20
4.288183762507742
 30
0.0
 10
1.576419715722106
 20
4.289372458523808
 30
0.0
 10
1.582505839324287
 20
4.28632411362931
 30
0.0
 10
1.589210084854825
 20
4.284522578778302
 30
0.0
 10
1.58983348987657
 20
4.283899518920407
 30
0.0
 10
1.59106973373327
 20
4.283233503987579
 30
0.0
 10
1.591687855661601
 20
4.282662929899869
 30
0.0
 10
1.595301491550395
 20
4.282044807971513
 30
0.0
 10
1.598962940924278
 20
4.283233503987579
 30
0.0
 10
1.602629142102665
 20
4.282044807971513
 30
0.0
 10
1.60933338763319
 20
4.279673044089906
 30
0.0
 10
1.616714135212406
 20
4.280237990027116
 30
0.0
 10
1.623418114650033
 20
4.277194928226032
 30
0.0
 10
1.631363887130647
 20
4.273533744496616
 30
0.0
 10
1.640493072533925
 20
4.272910684361173
 30
0.0
 10
1.649062250036296
 20
4.271621264684123
 30
0.0
 10
1.652776264699772
 20
4.271055973689828
 30
0.0
 10
1.656384617495165
 20
4.269814446739726
 30
0.0
 10
1.660098632158641
 20
4.269814446739726
 30
0.0
  0
ENDBLK
  5
44
330
41
100
AcDbEntity
  8
0
100
AcDbBlockEnd
  0
BLOCK
  5
47
330
45
100
AcDbEntity
  8
0
100
AcDbBlockBegin
  2
block 3
 70
     0
 10
0.0
 20
0.0
 30
0.0
  3
block 3
  1

  0
POLYLINE
  5
49
330
45
100
AcDbEntity
  8
Layer 1
370
     0
100
AcDb2dPolyline
 66
     1
 10
0.0
 20
0.0
 30
0.0
  0
VERTEX
  5
4A
330
49
100
AcDbEntity
  8
Layer 1
370
     0
100
AcDbVertex
100
AcDb2dVertex
 10
1.667737985221796
 20
4.079390968059442
 30
0.0
  0
VERTEX
  5
4B
330
49
100
AcDbEntity
  8
Layer 1
370
     0
100
AcDbVertex
100
AcDb2dVertex
 10
1.664023970558307
 20
4.239220052833288
 30
0.0
  0
VERTEX
  5
4C
330
49
100
AcDbEntity
  8
Layer 1
370
     0
100
AcDbVertex
100
AcDb2dVertex
 10
1.562900279699571
 20
4.262698119923622
 30
0.0
  0
VERTEX
  5
4D
330
49
100
AcDbEntity
  8
Layer 1
370
     0
100
AcDbVertex
100
AcDb2dVertex
 10
1.562076117128438
 20
4.417941819619803
 30
0.0
  0
VERTEX
  5
4E
330
49
100
AcDbEntity
  8
Layer 1
370
     0
100
AcDbVertex
100
AcDb2dVertex
 10
1.663194524893786
 20
4.480160810646566
 30
0.0
  0
VERTEX
  5
4F
330
49
100
AcDbEntity
  8
Layer 1
370
     0
100
AcDbVertex
100
AcDb2dVertex
 10
1.663194524893786
 20
4.620078256375791
 30
0.0
  0
VERTEX
  5
50
330
49
100
AcDbEntity
  8
Layer 1
370
     0
100
AcDbVertex
100
AcDb2dVertex
 10
2.814850773083877
 20
4.703403205554196
 30
0.0
  0
VERTEX
  5
51
330
49
100
AcDbEntity
  8
Layer 1
370
     0
100
AcDbVertex
100
AcDb2dVertex
 10
2.552756509278323
 20
5.218504812509309
 30
0.0
  0
VERTEX
  5
52
330
49
100
AcDbEntity
  8
Layer 1
370
     0
100
AcDbVertex
100
AcDb2dVertex
 10
2.746128294075977
 20
5.236303554189615
 30
0.0
  0
VERTEX
  5
53
330
49
100
AcDbEntity
  8
Layer 1
370
     0
100
AcDbVertex
100
AcDb2dVertex
 10
3.030712686505214
 20
5.142455049801911
 30
0.0
  0
VERTEX
  5
54
330
49
100
AcDbEntity
  8
Layer 1
370
     0
100
AcDbVertex
100
AcDb2dVertex
 10
3.074461982989229
 20
5.177228003738643
 30
0.0
  0
VERTEX
  5
55
330
49
100
AcDbEntity
  8
Layer 1
370
     0
100
AcDbVertex
100
AcDb2dVertex
 10
3.232130622558151
 20
5.191777642975087
 30
0.0
  0
VERTEX
  5
56
330
49
100
AcDbEntity
  8
Layer 1
370
     0
100
AcDbVertex
100
AcDb2dVertex
 10
3.315455571736581
 20
5.001760622489402
 30
0.0
  0
VERTEX
  5
57
330
49
100
AcDbEntity
  8
Layer 1
370
     0
100
AcDbVertex
100
AcDb2dVertex
 10
3.456974107349146
 20
5.011460381980365
 30
0.0
  0
VERTEX
  5
58
330
49
100
AcDbEntity
  8
Layer 1
370
     0
100
AcDbVertex
100
AcDb2dVertex
 10
3.866207492986367
 20
4.873968236194135
 30
0.0
  0
VERTEX
  5
59
330
49
100
AcDbEntity
  8
Layer 1
370
     0
100
AcDbVertex
100
AcDb2dVertex
 10
5.194202832837466
 20
2.389054327051629
 30
0.0
  0
VERTEX
  5
5A
330
49
100
AcDbEntity
  8
Layer 1
370
     0
100
AcDbVertex
100
AcDb2dVertex
 10
5.073679622996779
 20
2.319507685472596
 30
0.0
  0
VERTEX
  5
5B
330
49
100
AcDbEntity
  8
Layer 1
370
     0
100
AcDbVertex
100
AcDb2dVertex
 10
4.595723445769888
 20
2.470778498928439
 30
0.0
  0
VERTEX
  5
5C
330
49
100
AcDbEntity
  8
Layer 1
370
     0
100
AcDbVertex
100
AcDb2dVertex
 10
4.556876859965389
 20
2.415781496585851
 30
0.0
  0
VERTEX
  5
5D
330
49
100
AcDbEntity
  8
Layer 1
370
     0
100
AcDbVertex
100
AcDb2dVertex
 10
4.421756463047586
 20
2.385858055541828
 30
0.0
  0
VERTEX
  5
5E
330
49
100
AcDbEntity
  8
Layer 1
370
     0
100
AcDbVertex
100
AcDb2dVertex
 10
4.276265353776479
 20
2.618694548072325
 30
0.0
  0
VERTEX
  5
5F
330
49
100
AcDbEntity
  8
Layer 1
370
     0
100
AcDbVertex
100
AcDb2dVertex
 10
4.19618950704191
 20
2.602496583693614
 30
0.0
  0
VERTEX
  5
60
330
49
100
AcDbEntity
  8
Layer 1
370
     0
100
AcDbVertex
100
AcDb2dVertex
 10
3.879103523987156
 20
2.706039931331689
 30
0.0
  0
VERTEX
  5
61
330
49
100
AcDbEntity
  8
Layer 1
370
     0
100
AcDbVertex
100
AcDb2dVertex
 10
3.667262044646792
 20
3.109546756300006
 30
0.0
  0
VERTEX
  5
62
330
49
100
AcDbEntity
  8
Layer 1
370
     0
100
AcDbVertex
100
AcDb2dVertex
 10
3.579916661387427
 20
3.136997709630653
 30
0.0
  0
VERTEX
  5
63
330
49
100
AcDbEntity
  8
Layer 1
370
     0
100
AcDbVertex
100
AcDb2dVertex
 10
3.581517438689035
 20
3.15892254726004
 30
0.0
  0
VERTEX
  5
64
330
49
100
AcDbEntity
  8
Layer 1
370
     0
100
AcDbVertex
100
AcDb2dVertex
 10
3.631664561286154
 20
3.163719596071461
 30
0.0
  0
VERTEX
  5
65
330
49
100
AcDbEntity
  8
Layer 1
370
     0
100
AcDbVertex
100
AcDb2dVertex
 10
3.076834091927961
 20
4.218996371280229
 30
0.0
  0
VERTEX
  5
66
330
49
100
AcDbEntity
  8
Layer 1
370
     0
100
AcDbVertex
100
AcDb2dVertex
 10
1.667737985221796
 20
4.079390968059442
 30
0.0
  0
SEQEND
  5
68
330
49
100
AcDbEntity
  8
Layer 1
370
     0
  0
HATCH
  5
67
330
45
100
AcDbEntity
  8
Layer 1
 62
    43
420
 15510365
100
AcDbHatch
 10
0.0
 20
0.0
 30
0.0
210
0.0
220
0.0
230
1.0
  2
SOLID
 70
     1
 71
     0
 91
        1
 92
        1
 93
       28
 72
     1
 10
1.667737985221796
 20
4.079390968059442
 11
1.664023970558307
 21
4.239220052833288
 72
     1
 10
1.664023970558307
 20
4.239220052833288
 11
1.562900279699571
 21
4.262698119923622
 72
     1
 10
1.562900279699571
 20
4.262698119923622
 11
1.562076117128438
 21
4.417941819619803
 72
     1
 10
1.562076117128438
 20
4.417941819619803
 11
1.663194524893786
 21
4.480160810646566
 72
     1
 10
1.663194524893786
 20
4.480160810646566
 11
1.663194524893786
 21
4.620078256375791
 72
     1
 10
1.663194524893786
 20
4.620078256375791
 11
2.814850773083877
 21
4.703403205554196
 72
     1
 10
2.814850773083877
 20
4.703403205554196
 11
2.552756509278323
 21
5.218504812509309
 72
     1
 10
2.552756509278323
 20
5.218504812509309
 11
2.746128294075977
 21
5.236303554189615
 72
     1
 10
2.746128294075977
 20
5.236303554189615
 11
3.030712686505214
 21
5.142455049801911
 72
     1
 10
3.030712686505214
 20
5.142455049801911
 11
3.074461982989229
 21
5.177228003738643
 72
     1
 10
3.074461982989229
 20
5.177228003738643
 11
3.232130622558151
 21
5.191777642975087
 72
     1
 10
3.232130622558151
 20
5.191777642975087
 11
3.315455571736581
 21
5.001760622489402
 72
     1
 10
3.315455571736581
 20
5.001760622489402
 11
3.456974107349146
 21
5.011460381980365
 72
     1
 10
3.456974107349146
 20
5.011460381980365
 11
3.866207492986367
 21
4.873968236194135
 72
     1
 10
3.866207492986367
 20
4.873968236194135
 11
5.194202832837466
 21
2.389054327051629
 72
     1
 10
5.194202832837466
 20
2.389054327051629
 11
5.073679622996779
 21
2.319507685472596
 72
     1
 10
5.073679622996779
 20
2.319507685472596
 11
4.595723445769888
 21
2.470778498928439
 72
     1
 10
4.595723445769888
 20
2.470778498928439
 11
4.556876859965389
 21
2.415781496585851
 72
     1
 10
4.556876859965389
 20
2.415781496585851
 11
4.421756463047586
 21
2.385858055541828
 72
     1
 10
4.421756463047586
 20
2.385858055541828
 11
4.276265353776479
 21
2.618694548072325
 72
     1
 10
4.276265353776479
 20
2.618694548072325
 11
4.19618950704191
 21
2.602496583693614
 72
     1
 10
4.19618950704191
 20
2.602496583693614
 11
3.879103523987156
 21
2.706039931331689
 72
     1
 10
3.879103523987156
 20
2.706039931331689
 11
3.667262044646792
 21
3.109546756300006
 72
     1
 10
3.667262044646792
 20
3.109546756300006
 11
3.579916661387427
 21
3.136997709630653
 72
     1
 10
3.579916661387427
 20
3.136997709630653
 11
3.581517438689035
 21
3.15892254726004
 72
     1
 10
3.581517438689035
 20
3.15892254726004
 11
3.631664561286154
 21
3.163719596071461
 72
     1
 10
3.631664561286154
 20
3.163719596071461
 11
3.076834091927961
 21
4.218996371280229
 72
     1
 10
3.076834091927961
 20
4.218996371280229
 11
1.667737985221796
 21
4.079390968059442
 97
        0
 75
     2
 76
     1
 98
        0
  0
SPLINE
  5
69
330
45
100
AcDbEntity
  8
Layer 1
370
     0
100
AcDbSpline
210
0.0
220
0.0
230
1.0
 70
    11
 71
     3
 72
    35
 73
    31
 74
     0
 42
0.0000000001
 43
0.0000000001
 12
1.0
 22
0.0
 32
0.0
 13
1.0
 23
0.0
 33
0.0
 40
0.0
 40
0.0
 40
0.0
 40
0.0
 40
1.0
 40
1.0
 40
1.0
 40
2.0
 40
2.0
 40
2.0
 40
3.0
 40
3.0
 40
3.0
 40
4.0
 40
4.0
 40
4.0
 40
5.0
 40
5.0
 40
5.0
 40
6.0
 40
6.0
 40
6.0
 40
7.0
 40
7.0
 40
7.0
 40
8.0
 40
8.0
 40
8.0
 40
9.0
 40
9.0
 40
9.0
 40
10.0
 40
10.0
 40
10.0
 40
10.0
 10
3.443248318102077
 20
4.257024077607007
 30
0.0
 10
3.443248318102077
 20
4.257024077607007
 30
0.0
 10
3.901752145412969
 20
4.299431813922512
 30
0.0
 10
3.901752145412969
 20
4.299431813922512
 30
0.0
 10
3.929662727869843
 20
4.289784539809363
 30
0.0
 10
3.929662727869843
 20
4.282509720191127
 30
0.0
 10
3.930904254819943
 20
4.269148776970724
 30
0.0
 10
3.932140498676618
 20
4.255782550656932
 30
0.0
 10
3.936990378422113
 20
4.112716381258527
 30
0.0
 10
3.936990378422113
 20
4.112716381258527
 30
0.0
 10
3.936990378422113
 20
4.112716381258527
 30
0.0
 10
3.900563449396928
 20
4.102963790833503
 30
0.0
 10
3.900563449396928
 20
4.102963790833503
 30
0.0
 10
3.900563449396928
 20
4.102963790833503
 30
0.0
 10
3.776843968046415
 20
4.141815659731441
 30
0.0
 10
3.776843968046415
 20
4.141815659731441
 30
0.0
 10
3.776843968046415
 20
4.141815659731441
 30
0.0
 10
3.756208525348825
 20
4.176948230872464
 30
0.0
 10
3.756208525348825
 20
4.176948230872464
 30
0.0
 10
3.742900092921432
 20
4.201250460533932
 30
0.0
 10
3.718650694194
 20
4.206100340279439
 30
0.0
 10
3.718650694194
 20
4.206100340279439
 30
0.0
 10
3.718650694194
 20
4.206100340279439
 30
0.0
 10
3.63852729961881
 20
4.229108212056746
 30
0.0
 10
3.63852729961881
 20
4.229108212056746
 30
0.0
 10
3.63852729961881
 20
4.229108212056746
 30
0.0
 10
3.56573155559589
 20
4.209713976168207
 30
0.0
 10
3.56573155559589
 20
4.209713976168207
 30
0.0
 10
3.56573155559589
 20
4.209713976168207
 30
0.0
 10
3.443248318102077
 20
4.257024077607007
 30
0.0
 10
3.443248318102077
 20
4.257024077607007
 30
0.0
  0
HATCH
  5
6A
330
45
100
AcDbEntity
  8
Layer 1
 62
   254
420
 13358815
100
AcDbHatch
 10
0.0
 20
0.0
 30
0.0
210
0.0
220
0.0
230
1.0
  2
SOLID
 70
     1
 71
     0
 91
        1
 92
        1
 93
        1
 72
     4
 94
        3
 73
     0
 74
     1
 95
       35
 96
       31
 40
0.0
 40
0.0
 40
0.0
 40
0.0
 40
1.0
 40
1.0
 40
1.0
 40
2.0
 40
2.0
 40
2.0
 40
3.0
 40
3.0
 40
3.0
 40
4.0
 40
4.0
 40
4.0
 40
5.0
 40
5.0
 40
5.0
 40
6.0
 40
6.0
 40
6.0
 40
7.0
 40
7.0
 40
7.0
 40
8.0
 40
8.0
 40
8.0
 40
9.0
 40
9.0
 40
9.0
 40
10.0
 40
10.0
 40
10.0
 40
10.0
 10
3.443248318102077
 20
4.257024077607007
 10
3.443248318102077
 20
4.257024077607007
 10
3.901752145412969
 20
4.299431813922512
 10
3.901752145412969
 20
4.299431813922512
 10
3.929662727869843
 20
4.289784539809363
 10
3.929662727869843
 20
4.282509720191127
 10
3.930904254819943
 20
4.269148776970724
 10
3.932140498676618
 20
4.255782550656932
 10
3.936990378422113
 20
4.112716381258527
 10
3.936990378422113
 20
4.112716381258527
 10
3.936990378422113
 20
4.112716381258527
 10
3.900563449396928
 20
4.102963790833503
 10
3.900563449396928
 20
4.102963790833503
 10
3.900563449396928
 20
4.102963790833503
 10
3.776843968046415
 20
4.141815659731441
 10
3.776843968046415
 20
4.141815659731441
 10
3.776843968046415
 20
4.141815659731441
 10
3.756208525348825
 20
4.176948230872464
 10
3.756208525348825
 20
4.176948230872464
 10
3.742900092921432
 20
4.201250460533932
 10
3.718650694194
 20
4.206100340279439
 10
3.718650694194
 20
4.206100340279439
 10
3.718650694194
 20
4.206100340279439
 10
3.63852729961881
 20
4.229108212056746
 10
3.63852729961881
 20
4.229108212056746
 10
3.63852729961881
 20
4.229108212056746
 10
3.56573155559589
 20
4.209713976168207
 10
3.56573155559589
 20
4.209713976168207
 10
3.56573155559589
 20
4.209713976168207
 10
3.443248318102077
 20
4.257024077607007
 10
3.443248318102077
 20
4.257024077607007
 97
        0
 97
        0
 75
     2
 76
     1
 98
        0
  0
SPLINE
  5
6B
330
45
100
AcDbEntity
  8
Layer 1
370
     0
100
AcDbSpline
210
0.0
220
0.0
230
1.0
 70
    11
 71
     3
 72
    62
 73
    58
 74
     0
 42
0.0000000001
 43
0.0000000001
 12
1.0
 22
0.0
 32
0.0
 13
1.0
 23
0.0
 33
0.0
 40
0.0
 40
0.0
 40
0.0
 40
0.0
 40
1.0
 40
1.0
 40
1.0
 40
2.0
 40
2.0
 40
2.0
 40
3.0
 40
3.0
 40
3.0
 40
4.0
 40
4.0
 40
4.0
 40
5.0
 40
5.0
 40
5.0
 40
6.0
 40
6.0
 40
6.0
 40
7.0
 40
7.0
 40
7.0
 40
8.0
 40
8.0
 40
8.0
 40
9.0
 40
9.0
 40
9.0
 40
10.0
 40
10.0
 40
10.0
 40
11.0
 40
11.0
 40
11.0
 40
12.0
 40
12.0
 40
12.0
 40
13.0
 40
13.0
 40
13.0
 40
14.0
 40
14.0
 40
14.0
 40
15.0
 40
15.0
 40
15.0
 40
16.0
 40
16.0
 40
16.0
 40
17.0
 40
17.0
 40
17.0
 40
18.0
 40
18.0
 40
18.0
 40
19.0
 40
19.0
 40
19.0
 40
19.0
 10
3.581517438689035
 20
3.15892254726004
 30
0.0
 10
3.581517438689035
 20
3.15892254726004
 30
0.0
 10
3.762711693188951
 20
3.179093397879039
 30
0.0
 10
3.762711693188951
 20
3.179093397879039
 30
0.0
 10
3.762711693188951
 20
3.179093397879039
 30
0.0
 10
4.623174399100561
 20
2.907357488609958
 30
0.0
 10
4.623174399100561
 20
2.907357488609958
 30
0.0
 10
4.645875851460409
 20
2.899359195382708
 30
0.0
 10
4.660372659762843
 20
2.886410023260471
 30
0.0
 10
4.66362176220668
 20
2.862160624533039
 30
0.0
 10
4.66682331680992
 20
2.83786398659893
 30
0.0
 10
4.66362176220668
 20
2.695568840203653
 30
0.0
 10
4.66362176220668
 20
2.695568840203653
 30
0.0
 10
4.66362176220668
 20
2.695568840203653
 30
0.0
 10
4.629672603988284
 20
2.679418423665588
 30
0.0
 10
4.629672603988284
 20
2.679418423665588
 30
0.0
 10
4.629672603988284
 20
2.679418423665588
 30
0.0
 10
4.500279419259035
 20
2.723014510440887
 30
0.0
 10
4.500279419259035
 20
2.723014510440887
 30
0.0
 10
4.500279419259035
 20
2.723014510440887
 30
0.0
 10
4.45492900653552
 20
2.787711272274464
 30
0.0
 10
4.45492900653552
 20
2.787711272274464
 30
0.0
 10
4.45492900653552
 20
2.787711272274464
 30
0.0
 10
4.353033984039686
 20
2.820112792310738
 30
0.0
 10
4.353033984039686
 20
2.820112792310738
 30
0.0
 10
4.353033984039686
 20
2.820112792310738
 30
0.0
 10
4.268937703224209
 20
2.797411031765427
 30
0.0
 10
4.268937703224209
 20
2.797411031765427
 30
0.0
 10
4.268937703224209
 20
2.797411031765427
 30
0.0
 10
4.126642865462852
 20
2.844362191650791
 30
0.0
 10
4.126642865462852
 20
2.844362191650791
 30
0.0
 10
4.126642865462852
 20
2.844362191650791
 30
0.0
 10
4.099096816450936
 20
2.897710560053055
 30
0.0
 10
4.099096816450936
 20
2.897710560053055
 30
0.0
 10
4.099096816450936
 20
2.897710560053055
 30
0.0
 10
3.974547889435889
 20
2.938105092225138
 30
0.0
 10
3.974547889435889
 20
2.938105092225138
 30
0.0
 10
3.974547889435889
 20
2.938105092225138
 30
0.0
 10
3.905001247856855
 20
2.915509301733361
 30
0.0
 10
3.905001247856855
 20
2.915509301733361
 30
0.0
 10
3.905001247856855
 20
2.915509301733361
 30
0.0
 10
3.751358325462295
 20
2.970453473141914
 30
0.0
 10
3.751358325462295
 20
2.970453473141914
 30
0.0
 10
3.751358325462295
 20
2.970453473141914
 30
0.0
 10
3.751976447390651
 20
3.054396544248675
 30
0.0
 10
3.751976447390651
 20
3.054396544248675
 30
0.0
 10
3.751976447390651
 20
3.054396544248675
 30
0.0
 10
3.733147502496397
 20
3.061053241938553
 30
0.0
 10
3.733147502496397
 20
3.061053241938553
 30
0.0
 10
3.721640925061062
 20
3.064096303739638
 30
0.0
 10
3.712564570591831
 20
3.091954055262451
 30
0.0
 10
3.712564570591831
 20
3.091954055262451
 30
0.0
 10
3.712564570591831
 20
3.091954055262451
 30
0.0
 10
3.579969492321488
 20
3.137045573663247
 30
0.0
 10
3.579969492321488
 20
3.137045573663247
 30
0.0
 10
3.579969492321488
 20
3.137045573663247
 30
0.0
 10
3.581517438689035
 20
3.15892254726004
 30
0.0
 10
3.581517438689035
 20
3.15892254726004
 30
0.0
  0
HATCH
  5
6C
330
45
100
AcDbEntity
  8
Layer 1
 62
   254
420
 13358815
100
AcDbHatch
 10
0.0
 20
0.0
 30
0.0
210
0.0
220
0.0
230
1.0
  2
SOLID
 70
     1
 71
     0
 91
        1
 92
        1
 93
        1
 72
     4
 94
        3
 73
     0
 74
     1
 95
       62
 96
       58
 40
0.0
 40
0.0
 40
0.0
 40
0.0
 40
1.0
 40
1.0
 40
1.0
 40
2.0
 40
2.0
 40
2.0
 40
3.0
 40
3.0
 40
3.0
 40
4.0
 40
4.0
 40
4.0
 40
5.0
 40
5.0
 40
5.0
 40
6.0
 40
6.0
 40
6.0
 40
7.0
 40
7.0
 40
7.0
 40
8.0
 40
8.0
 40
8.0
 40
9.0
 40
9.0
 40
9.0
 40
10.0
 40
10.0
 40
10.0
 40
11.0
 40
11.0
 40
11.0
 40
12.0
 40
12.0
 40
12.0
 40
13.0
 40
13.0
 40
13.0
 40
14.0
 40
14.0
 40
14.0
 40
15.0
 40
15.0
 40
15.0
 40
16.0
 40
16.0
 40
16.0
 40
17.0
 40
17.0
 40
17.0
 40
18.0
 40
18.0
 40
18.0
 40
19.0
 40
19.0
 40
19.0
 40
19.0
 10
3.581517438689035
 20
3.15892254726004
 10
3.581517438689035
 20
3.15892254726004
 10
3.762711693188951
 20
3.179093397879039
 10
3.762711693188951
 20
3.179093397879039
 10
3.762711693188951
 20
3.179093397879039
 10
4.623174399100561
 20
2.907357488609958
 10
4.623174399100561
 20
2.907357488609958
 10
4.645875851460409
 20
2.899359195382708
 10
4.660372659762843
 20
2.886410023260471
 10
4.66362176220668
 20
2.862160624533039
 10
4.66682331680992
 20
2.83786398659893
 10
4.66362176220668
 20
2.695568840203653
 10
4.66362176220668
 20
2.695568840203653
 10
4.66362176220668
 20
2.695568840203653
 10
4.629672603988284
 20
2.679418423665588
 10
4.629672603988284
 20
2.679418423665588
 10
4.629672603988284
 20
2.679418423665588
 10
4.500279419259035
 20
2.723014510440887
 10
4.500279419259035
 20
2.723014510440887
 10
4.500279419259035
 20
2.723014510440887
 10
4.45492900653552
 20
2.787711272274464
 10
4.45492900653552
 20
2.787711272274464
 10
4.45492900653552
 20
2.787711272274464
 10
4.353033984039686
 20
2.820112792310738
 10
4.353033984039686
 20
2.820112792310738
 10
4.353033984039686
 20
2.820112792310738
 10
4.268937703224209
 20
2.797411031765427
 10
4.268937703224209
 20
2.797411031765427
 10
4.268937703224209
 20
2.797411031765427
 10
4.126642865462852
 20
2.844362191650791
 10
4.126642865462852
 20
2.844362191650791
 10
4.126642865462852
 20
2.844362191650791
 10
4.099096816450936
 20
2.897710560053055
 10
4.099096816450936
 20
2.897710560053055
 10
4.099096816450936
 20
2.897710560053055
 10
3.974547889435889
 20
2.938105092225138
 10
3.974547889435889
 20
2.938105092225138
 10
3.974547889435889
 20
2.938105092225138
 10
3.905001247856855
 20
2.915509301733361
 10
3.905001247856855
 20
2.915509301733361
 10
3.905001247856855
 20
2.915509301733361
 10
3.751358325462295
 20
2.970453473141914
 10
3.751358325462295
 20
2.970453473141914
 10
3.751358325462295
 20
2.970453473141914
 10
3.751976447390651
 20
3.054396544248675
 10
3.751976447390651
 20
3.054396544248675
 10
3.751976447390651
 20
3.054396544248675
 10
3.733147502496397
 20
3.061053241938553
 10
3.733147502496397
 20
3.061053241938553
 10
3.721640925061062
 20
3.064096303739638
 10
3.712564570591831
 20
3.091954055262451
 10
3.712564570591831
 20
3.091954055262451
 10
3.712564570591831
 20
3.091954055262451
 10
3.579969492321488
 20
3.137045573663247
 10
3.579969492321488
 20
3.137045573663247
 10
3.579969492321488
 20
3.137045573663247
 10
3.581517438689035
 20
3.15892254726004
 10
3.581517438689035
 20
3.15892254726004
 97
        0
 97
        0
 75
     2
 76
     1
 98
        0
  0
POLYLINE
  5
6D
330
45
100
AcDbEntity
  8
Layer 1
 62
   250
420
  2301728
370
    35
100
AcDb2dPolyline
 66
     1
 10
0.0
 20
0.0
 30
0.0
  0
VERTEX
  5
6E
330
6D
100
AcDbEntity
  8
Layer 1
 62
   250
420
  2301728
370
    35
100
AcDbVertex
100
AcDb2dVertex
 10
1.560887421112385
 20
4.418765982190911
 30
0.0
  0
VERTEX
  5
6F
330
6D
100
AcDbEntity
  8
Layer 1
 62
   250
420
  2301728
370
    35
100
AcDbVertex
100
AcDb2dVertex
 10
1.663506227404658
 20
4.479384195916079
 30
0.0
  0
VERTEX
  5
70
330
6D
100
AcDbEntity
  8
Layer 1
 62
   250
420
  2301728
370
    35
100
AcDbVertex
100
AcDb2dVertex
 10
1.663918308690212
 20
4.620284297018568
 30
0.0
  0
VERTEX
  5
71
330
6D
100
AcDbEntity
  8
Layer 1
 62
   250
420
  2301728
370
    35
100
AcDbVertex
100
AcDb2dVertex
 10
3.064920716300435
 20
4.724192534388193
 30
0.0
  0
SEQEND
  5
72
330
6D
100
AcDbEntity
  8
Layer 1
 62
   250
420
  2301728
370
    35
  0
POLYLINE
  5
73
330
45
100
AcDbEntity
  8
Layer 1
 62
   250
420
  2301728
370
    40
100
AcDb2dPolyline
 66
     1
 10
0.0
 20
0.0
 30
0.0
  0
VERTEX
  5
74
330
73
100
AcDbEntity
  8
Layer 1
 62
   250
420
  2301728
370
    40
100
AcDbVertex
100
AcDb2dVertex
 10
2.820318774757728
 20
4.704121706257234
 30
0.0
  0
VERTEX
  5
75
330
73
100
AcDbEntity
  8
Layer 1
 62
   250
420
  2301728
370
    40
100
AcDbVertex
100
AcDb2dVertex
 10
2.550178359696853
 20
5.221959955595947
 30
0.0
  0
SEQEND
  5
76
330
73
100
AcDbEntity
  8
Layer 1
 62
   250
420
  2301728
370
    40
  0
POLYLINE
  5
77
330
45
100
AcDbEntity
  8
Layer 1
 62
   250
420
  2301728
370
    35
100
AcDb2dPolyline
 66
     1
 10
0.0
 20
0.0
 30
0.0
  0
VERTEX
  5
78
330
77
100
AcDbEntity
  8
Layer 1
 62
   250
420
  2301728
370
    35
100
AcDbVertex
100
AcDb2dVertex
 10
2.556782226452684
 20
5.220565218937129
 30
0.0
  0
VERTEX
  5
79
330
77
100
AcDbEntity
  8
Layer 1
 62
   250
420
  2301728
370
    35
100
AcDbVertex
100
AcDb2dVertex
 10
2.747058118515194
 20
5.237233747875936
 30
0.0
  0
SEQEND
  5
7A
330
77
100
AcDbEntity
  8
Layer 1
 62
   250
420
  2301728
370
    35
  0
POLYLINE
  5
7B
330
45
100
AcDbEntity
  8
Layer 1
 62
   250
420
  2301728
370
    40
100
AcDb2dPolyline
 66
     1
 10
0.0
 20
0.0
 30
0.0
  0
VERTEX
  5
7C
330
7B
100
AcDbEntity
  8
Layer 1
 62
   250
420
  2301728
370
    40
100
AcDbVertex
100
AcDb2dVertex
 10
2.745098090862055
 20
5.23728092646949
 30
0.0
  0
VERTEX
  5
7D
330
7B
100
AcDbEntity
  8
Layer 1
 62
   250
420
  2301728
370
    40
100
AcDbVertex
100
AcDb2dVertex
 10
3.032466673515538
 20
5.142613542608084
 30
0.0
  0
SEQEND
  5
7E
330
7B
100
AcDbEntity
  8
Layer 1
 62
   250
420
  2301728
370
    40
  0
POLYLINE
  5
7F
330
45
100
AcDbEntity
  8
Layer 1
 62
   250
420
  2301728
370
    50
100
AcDb2dPolyline
 66
     1
 10
0.0
 20
0.0
 30
0.0
  0
VERTEX
  5
80
330
7F
100
AcDbEntity
  8
Layer 1
 62
   250
420
  2301728
370
    50
100
AcDbVertex
100
AcDb2dVertex
 10
2.962301910008149
 20
5.090606404275705
 30
0.0
  0
VERTEX
  5
81
330
7F
100
AcDbEntity
  8
Layer 1
 62
   250
420
  2301728
370
    50
100
AcDbVertex
100
AcDb2dVertex
 10
3.074255942346478
 20
5.177280834672678
 30
0.0
  0
VERTEX
  5
82
330
7F
100
AcDbEntity
  8
Layer 1
 62
   250
420
  2301728
370
    50
100
AcDbVertex
100
AcDb2dVertex
 10
3.236980502303633
 20
5.19466749506743
 30
0.0
  0
SEQEND
  5
83
330
7F
100
AcDbEntity
  8
Layer 1
 62
   250
420
  2301728
370
    50
  0
POLYLINE
  5
84
330
45
100
AcDbEntity
  8
Layer 1
 62
   250
420
  2301728
370
    35
100
AcDb2dPolyline
 66
     1
 10
0.0
 20
0.0
 30
0.0
  0
VERTEX
  5
85
330
84
100
AcDbEntity
  8
Layer 1
 62
   250
420
  2301728
370
    35
100
AcDbVertex
100
AcDb2dVertex
 10
3.235791806287592
 20
5.193584460919484
 30
0.0
  0
VERTEX
  5
86
330
84
100
AcDbEntity
  8
Layer 1
 62
   250
420
  2301728
370
    35
100
AcDbVertex
100
AcDb2dVertex
 10
3.317621640032497
 20
5.000989290852329
 30
0.0
  0
SEQEND
  5
87
330
84
100
AcDbEntity
  8
Layer 1
 62
   250
420
  2301728
370
    35
  0
POLYLINE
  5
88
330
45
100
AcDbEntity
  8
Layer 1
 62
   250
420
  2301728
370
    40
100
AcDb2dPolyline
 66
     1
 10
0.0
 20
0.0
 30
0.0
  0
VERTEX
  5
89
330
88
100
AcDbEntity
  8
Layer 1
 62
   250
420
  2301728
370
    40
100
AcDbVertex
100
AcDb2dVertex
 10
3.075703509939343
 20
4.220031857587527
 30
0.0
  0
VERTEX
  5
8A
330
88
100
AcDbEntity
  8
Layer 1
 62
   250
420
  2301728
370
    40
100
AcDbVertex
100
AcDb2dVertex
 10
3.634195163026978
 20
3.163566703224584
 30
0.0
  0
SEQEND
  5
8B
330
88
100
AcDbEntity
  8
Layer 1
 62
   250
420
  2301728
370
    40
  0
POLYLINE
  5
8C
330
45
100
AcDbEntity
  8
Layer 1
 62
   250
420
  2301728
370
    40
100
AcDb2dPolyline
 66
     1
 10
0.0
 20
0.0
 30
0.0
  0
VERTEX
  5
8D
330
8C
100
AcDbEntity
  8
Layer 1
 62
   250
420
  2301728
370
    40
100
AcDbVertex
100
AcDb2dVertex
 10
3.763430193891976
 20
3.179146228813099
 30
0.0
  0
VERTEX
  5
8E
330
8C
100
AcDbEntity
  8
Layer 1
 62
   250
420
  2301728
370
    40
100
AcDbVertex
100
AcDb2dVertex
 10
3.581152905244115
 20
3.156603269255381
 30
0.0
  0
VERTEX
  5
8F
330
8C
100
AcDbEntity
  8
Layer 1
 62
   250
420
  2301728
370
    40
100
AcDbVertex
100
AcDb2dVertex
 10
3.579557411035908
 20
3.136892047762558
 30
0.0
  0
SEQEND
  5
90
330
8C
100
AcDbEntity
  8
Layer 1
 62
   250
420
  2301728
370
    40
  0
POLYLINE
  5
91
330
45
100
AcDbEntity
  8
Layer 1
 62
   250
420
  2301728
370
    40
100
AcDb2dPolyline
 66
     1
 10
0.0
 20
0.0
 30
0.0
  0
VERTEX
  5
92
330
91
100
AcDbEntity
  8
Layer 1
 62
   250
420
  2301728
370
    40
100
AcDbVertex
100
AcDb2dVertex
 10
3.669222072299931
 20
3.103307422989094
 30
0.0
  0
VERTEX
  5
93
330
91
100
AcDbEntity
  8
Layer 1
 62
   250
420
  2301728
370
    40
100
AcDbVertex
100
AcDb2dVertex
 10
3.879203902761863
 20
2.705368978469298
 30
0.0
  0
VERTEX
  5
94
330
91
100
AcDbEntity
  8
Layer 1
 62
   250
420
  2301728
370
    40
100
AcDbVertex
100
AcDb2dVertex
 10
4.196707250195585
 20
2.601772799897188
 30
0.0
  0
VERTEX
  5
95
330
91
100
AcDbEntity
  8
Layer 1
 62
   250
420
  2301728
370
    40
100
AcDbVertex
100
AcDb2dVertex
 10
4.276883475704835
 20
2.617923216435252
 30
0.0
  0
SEQEND
  5
96
330
91
100
AcDbEntity
  8
Layer 1
 62
   250
420
  2301728
370
    40
  0
POLYLINE
  5
97
330
45
100
AcDbEntity
  8
Layer 1
 62
   250
420
  2301728
370
    40
100
AcDb2dPolyline
 66
     1
 10
0.0
 20
0.0
 30
0.0
  0
VERTEX
  5
98
330
97
100
AcDbEntity
  8
Layer 1
 62
   250
420
  2301728
370
    40
100
AcDbVertex
100
AcDb2dVertex
 10
4.244482263853974
 20
2.669153373180305
 30
0.0
  0
VERTEX
  5
99
330
97
100
AcDbEntity
  8
Layer 1
 62
   250
420
  2301728
370
    40
100
AcDbVertex
100
AcDb2dVertex
 10
4.422686287486814
 20
2.384722190459823
 30
0.0
  0
VERTEX
  5
9A
330
97
100
AcDbEntity
  8
Layer 1
 62
   250
420
  2301728
370
    40
100
AcDbVertex
100
AcDb2dVertex
 10
4.557959894113335
 20
2.41475129337194
 30
0.0
  0
SEQEND
  5
9B
330
97
100
AcDbEntity
  8
Layer 1
 62
   250
420
  2301728
370
    40
  0
POLYLINE
  5
9C
330
45
100
AcDbEntity
  8
Layer 1
 62
   250
420
  2301728
370
    50
100
AcDb2dPolyline
 66
     1
 10
0.0
 20
0.0
 30
0.0
  0
VERTEX
  5
9D
330
9C
100
AcDbEntity
  8
Layer 1
 62
   250
420
  2301728
370
    50
100
AcDbVertex
100
AcDb2dVertex
 10
4.555740994883409
 20
2.414645631503845
 30
0.0
  0
VERTEX
  5
9E
330
9C
100
AcDbEntity
  8
Layer 1
 62
   250
420
  2301728
370
    50
100
AcDbVertex
100
AcDb2dVertex
 10
4.593198127122478
 20
2.473309100669288
 30
0.0
  0
SEQEND
  5
9F
330
9C
100
AcDbEntity
  8
Layer 1
 62
   250
420
  2301728
370
    50
  0
POLYLINE
  5
A0
330
45
100
AcDbEntity
  8
Layer 1
 62
   250
420
  2301728
370
    40
100
AcDb2dPolyline
 66
     1
 10
0.0
 20
0.0
 30
0.0
  0
VERTEX
  5
A1
330
A0
100
AcDbEntity
  8
Layer 1
 62
   250
420
  2301728
370
    40
100
AcDbVertex
100
AcDb2dVertex
 10
4.504975750357921
 20
2.499772115533258
 30
0.0
  0
VERTEX
  5
A2
330
A0
100
AcDbEntity
  8
Layer 1
 62
   250
420
  2301728
370
    40
100
AcDbVertex
100
AcDb2dVertex
 10
5.074556616501973
 20
2.318477482258686
 30
0.0
  0
VERTEX
  5
A3
330
A0
100
AcDbEntity
  8
Layer 1
 62
   250
420
  2301728
370
    40
100
AcDbVertex
100
AcDb2dVertex
 10
5.195233036051377
 20
2.388024123837719
 30
0.0
  0
VERTEX
  5
A4
330
A0
100
AcDbEntity
  8
Layer 1
 62
   250
420
  2301728
370
    40
100
AcDbVertex
100
AcDb2dVertex
 10
3.866207492986367
 20
4.878353203830809
 30
0.0
  0
VERTEX
  5
A5
330
A0
100
AcDbEntity
  8
Layer 1
 62
   250
420
  2301728
370
    40
100
AcDbVertex
100
AcDb2dVertex
 10
3.447738947496052
 20
5.01316682115008
 30
0.0
  0
VERTEX
  5
A6
330
A0
100
AcDbEntity
  8
Layer 1
 62
   250
420
  2301728
370
    40
100
AcDbVertex
100
AcDb2dVertex
 10
3.271236079939513
 20
4.999753046995616
 30
0.0
  0
VERTEX
  5
A7
330
A0
100
AcDbEntity
  8
Layer 1
 62
   250
420
  2301728
370
    40
100
AcDbVertex
100
AcDb2dVertex
 10
3.192248550446329
 20
4.934797413585228
 30
0.0
  0
SEQEND
  5
A8
330
A0
100
AcDbEntity
  8
Layer 1
 62
   250
420
  2301728
370
    40
  0
POLYLINE
  5
A9
330
45
100
AcDbEntity
  8
Layer 1
 62
   250
420
  2301728
370
    40
100
AcDb2dPolyline
 66
     1
 10
0.0
 20
0.0
 30
0.0
  0
VERTEX
  5
AA
330
A9
100
AcDbEntity
  8
Layer 1
 62
   250
420
  2301728
370
    40
100
AcDbVertex
100
AcDb2dVertex
 10
3.683771711536401
 20
4.279207786813205
 30
0.0
  0
VERTEX
  5
AB
330
A9
100
AcDbEntity
  8
Layer 1
 62
   250
420
  2301728
370
    40
100
AcDbVertex
100
AcDb2dVertex
 10
1.666808160782567
 20
4.078407972688612
 30
0.0
  0
SEQEND
  5
AC
330
A9
100
AcDbEntity
  8
Layer 1
 62
   250
420
  2301728
370
    40
  0
SPLINE
  5
AD
330
45
100
AcDbEntity
  8
Layer 1
 62
   250
420
  2301728
370
    35
100
AcDbSpline
210
0.0
220
0.0
230
1.0
 70
     8
 71
     3
 72
    17
 73
    13
 74
     0
 42
0.0000000001
 43
0.0000000001
 12
1.0
 22
0.0
 32
0.0
 13
1.0
 23
0.0
 33
0.0
 40
0.0
 40
0.0
 40
0.0
 40
0.0
 40
1.0
 40
1.0
 40
1.0
 40
2.0
 40
2.0
 40
2.0
 40
3.0
 40
3.0
 40
3.0
 40
4.0
 40
4.0
 40
4.0
 40
4.0
 10
3.902217057632583
 20
4.300255630937423
 30
0.0
 10
3.930386511666269
 20
4.290503385843067
 30
0.0
 10
3.930386511666269
 20
4.283180673053518
 30
0.0
 10
3.931622755522956
 20
4.269661237030984
 30
0.0
 10
3.932864282473057
 20
4.256194631942486
 30
0.0
 10
3.937714162218539
 20
4.111945049621428
 30
0.0
 10
3.937714162218539
 20
4.111945049621428
 30
0.0
 10
3.937714162218539
 20
4.111945049621428
 30
0.0
 10
3.900980813775909
 20
4.102192459196431
 30
0.0
 10
3.900980813775909
 20
4.102192459196431
 30
0.0
 10
3.900980813775909
 20
4.102192459196431
 30
0.0
 10
3.776020126116805
 20
4.14125036873712
 30
0.0
 10
3.776020126116805
 20
4.14125036873712
 30
0.0
  0
SPLINE
  5
AE
330
45
100
AcDbEntity
  8
Layer 1
 62
   250
420
  2301728
370
    35
100
AcDbSpline
210
0.0
220
0.0
230
1.0
 70
     8
 71
     3
 72
    14
 73
    10
 74
     0
 42
0.0000000001
 43
0.0000000001
 12
1.0
 22
0.0
 32
0.0
 13
1.0
 23
0.0
 33
0.0
 40
0.0
 40
0.0
 40
0.0
 40
0.0
 40
1.0
 40
1.0
 40
1.0
 40
2.0
 40
2.0
 40
2.0
 40
3.0
 40
3.0
 40
3.0
 40
3.0
 10
3.777773792485643
 20
4.140886176843221
 30
0.0
 10
3.777773792485643
 20
4.140886176843221
 30
0.0
 10
3.756826327136145
 20
4.176795021163747
 30
0.0
 10
3.756826327136145
 20
4.176795021163747
 30
0.0
 10
3.743312174206987
 20
4.201509332110769
 30
0.0
 10
3.718751392163476
 20
4.206459590630932
 30
0.0
 10
3.718751392163476
 20
4.206459590630932
 30
0.0
 10
3.718751392163476
 20
4.206459590630932
 30
0.0
 10
3.641829550248316
 20
4.230608610583683
 30
0.0
 10
3.641829550248316
 20
4.230608610583683
 30
0.0
  0
POLYLINE
  5
AF
330
45
100
AcDbEntity
  8
Layer 1
 62
   250
420
  2301728
370
    40
100
AcDb2dPolyline
 66
     1
 10
0.0
 20
0.0
 30
0.0
  0
VERTEX
  5
B0
330
AF
100
AcDbEntity
  8
Layer 1
 62
   250
420
  2301728
370
    40
100
AcDbVertex
100
AcDb2dVertex
 10
3.63961065096233
 20
4.230191246204716
 30
0.0
  0
VERTEX
  5
B1
330
AF
100
AcDbEntity
  8
Layer 1
 62
   250
420
  2301728
370
    40
100
AcDbVertex
100
AcDb2dVertex
 10
3.569545949034073
 20
4.209249407226606
 30
0.0
  0
SEQEND
  5
B2
330
AF
100
AcDbEntity
  8
Layer 1
 62
   250
420
  2301728
370
    40
  0
POLYLINE
  5
B3
330
45
100
AcDbEntity
  8
Layer 1
 62
   250
420
  2301728
370
    35
100
AcDb2dPolyline
 66
     1
 10
0.0
 20
0.0
 30
0.0
  0
VERTEX
  5
B4
330
B3
100
AcDbEntity
  8
Layer 1
 62
   250
420
  2301728
370
    35
100
AcDbVertex
100
AcDb2dVertex
 10
3.565108150574158
 20
4.210432476871246
 30
0.0
  0
VERTEX
  5
B5
330
B3
100
AcDbEntity
  8
Layer 1
 62
   250
420
  2301728
370
    35
100
AcDbVertex
100
AcDb2dVertex
 10
3.442424155530956
 20
4.257848240178141
 30
0.0
  0
SEQEND
  5
B6
330
B3
100
AcDbEntity
  8
Layer 1
 62
   250
420
  2301728
370
    35
  0
SPLINE
  5
B7
330
45
100
AcDbEntity
  8
Layer 1
 62
   250
420
  2301728
370
    35
100
AcDbSpline
210
0.0
220
0.0
230
1.0
 70
     8
 71
     3
 72
    17
 73
    13
 74
     0
 42
0.0000000001
 43
0.0000000001
 12
1.0
 22
0.0
 32
0.0
 13
1.0
 23
0.0
 33
0.0
 40
0.0
 40
0.0
 40
0.0
 40
0.0
 40
1.0
 40
1.0
 40
1.0
 40
2.0
 40
2.0
 40
2.0
 40
3.0
 40
3.0
 40
3.0
 40
4.0
 40
4.0
 40
4.0
 40
4.0
 10
3.766732127269872
 20
3.17904616729129
 30
0.0
 10
3.766732127269872
 20
3.17904616729129
 30
0.0
 10
4.623898182896988
 20
2.906839745456308
 30
0.0
 10
4.623898182896988
 20
2.906839745456308
 30
0.0
 10
4.646594352163447
 20
2.898740763266965
 30
0.0
 10
4.661143991399917
 20
2.88584473226615
 30
0.0
 10
4.664345546003156
 20
2.861542502604682
 30
0.0
 10
4.667647822547021
 20
2.837192725102568
 30
0.0
 10
4.664345546003156
 20
2.694792225473166
 30
0.0
 10
4.664345546003156
 20
2.694792225473166
 30
0.0
 10
4.664345546003156
 20
2.694792225473166
 30
0.0
 10
4.630396387784761
 20
2.678594261094455
 30
0.0
 10
4.630396387784761
 20
2.678594261094455
 30
0.0
  0
POLYLINE
  5
B8
330
45
100
AcDbEntity
  8
Layer 1
 62
   250
420
  2301728
370
    40
100
AcDb2dPolyline
 66
     1
 10
0.0
 20
0.0
 30
0.0
  0
VERTEX
  5
B9
330
B8
100
AcDbEntity
  8
Layer 1
 62
   250
420
  2301728
370
    40
100
AcDbVertex
100
AcDb2dVertex
 10
4.630708090295633
 20
2.678282558583583
 30
0.0
  0
VERTEX
  5
BA
330
B8
100
AcDbEntity
  8
Layer 1
 62
   250
420
  2301728
370
    40
100
AcDbVertex
100
AcDb2dVertex
 10
4.499143215239201
 20
2.724097544588858
 30
0.0
  0
SEQEND
  5
BB
330
B8
100
AcDbEntity
  8
Layer 1
 62
   250
420
  2301728
370
    40
  0
POLYLINE
  5
BC
330
45
100
AcDbEntity
  8
Layer 1
 62
   250
420
  2301728
370
    35
100
AcDb2dPolyline
 66
     1
 10
0.0
 20
0.0
 30
0.0
  0
VERTEX
  5
BD
330
BC
100
AcDbEntity
  8
Layer 1
 62
   250
420
  2301728
370
    35
100
AcDbVertex
100
AcDb2dVertex
 10
4.497595268871615
 20
2.725492587042885
 30
0.0
  0
VERTEX
  5
BE
330
BC
100
AcDbEntity
  8
Layer 1
 62
   250
420
  2301728
370
    35
100
AcDbVertex
100
AcDb2dVertex
 10
4.455240709046393
 20
2.787970143851276
 30
0.0
  0
VERTEX
  5
BF
330
BC
100
AcDbEntity
  8
Layer 1
 62
   250
420
  2301728
370
    35
100
AcDbVertex
100
AcDb2dVertex
 10
4.35231020024326
 20
2.820889098855762
 30
0.0
  0
SEQEND
  5
C0
330
BC
100
AcDbEntity
  8
Layer 1
 62
   250
420
  2301728
370
    35
  0
POLYLINE
  5
C1
330
45
100
AcDbEntity
  8
Layer 1
 62
   250
420
  2301728
370
    40
100
AcDb2dPolyline
 66
     1
 10
0.0
 20
0.0
 30
0.0
  0
VERTEX
  5
C2
330
C1
100
AcDbEntity
  8
Layer 1
 62
   250
420
  2301728
370
    40
100
AcDbVertex
100
AcDb2dVertex
 10
4.354169849121718
 20
2.819029449977329
 30
0.0
  0
VERTEX
  5
C3
330
C1
100
AcDbEntity
  8
Layer 1
 62
   250
420
  2301728
370
    40
100
AcDbVertex
100
AcDb2dVertex
 10
4.267907500010298
 20
2.797823113050981
 30
0.0
  0
SEQEND
  5
C4
330
C1
100
AcDbEntity
  8
Layer 1
 62
   250
420
  2301728
370
    40
  0
POLYLINE
  5
C5
330
45
100
AcDbEntity
  8
Layer 1
 62
   250
420
  2301728
370
    35
100
AcDb2dPolyline
 66
     1
 10
0.0
 20
0.0
 30
0.0
  0
VERTEX
  5
C6
330
C5
100
AcDbEntity
  8
Layer 1
 62
   250
420
  2301728
370
    35
100
AcDbVertex
100
AcDb2dVertex
 10
4.269761865795317
 20
2.796639700128354
 30
0.0
  0
VERTEX
  5
C7
330
C5
100
AcDbEntity
  8
Layer 1
 62
   250
420
  2301728
370
    35
100
AcDbVertex
100
AcDb2dVertex
 10
4.126642865462852
 20
2.846269079571786
 30
0.0
  0
VERTEX
  5
C8
330
C5
100
AcDbEntity
  8
Layer 1
 62
   250
420
  2301728
370
    35
100
AcDbVertex
100
AcDb2dVertex
 10
4.098991154582866
 20
2.898069810404574
 30
0.0
  0
VERTEX
  5
C9
330
C5
100
AcDbEntity
  8
Layer 1
 62
   250
420
  2301728
370
    35
100
AcDbVertex
100
AcDb2dVertex
 10
3.973829388732851
 20
2.938982396918668
 30
0.0
  0
SEQEND
  5
CA
330
C5
100
AcDbEntity
  8
Layer 1
 62
   250
420
  2301728
370
    35
  0
POLYLINE
  5
CB
330
45
100
AcDbEntity
  8
Layer 1
 62
   250
420
  2301728
370
    35
100
AcDb2dPolyline
 66
     1
 10
0.0
 20
0.0
 30
0.0
  0
VERTEX
  5
CC
330
CB
100
AcDbEntity
  8
Layer 1
 62
   250
420
  2301728
370
    35
100
AcDbVertex
100
AcDb2dVertex
 10
3.975477713875105
 20
2.939035227854068
 30
0.0
  0
VERTEX
  5
CD
330
CB
100
AcDbEntity
  8
Layer 1
 62
   250
420
  2301728
370
    35
100
AcDbVertex
100
AcDb2dVertex
 10
3.906343153581638
 20
2.917004727800077
 30
0.0
  0
SEQEND
  5
CE
330
CB
100
AcDbEntity
  8
Layer 1
 62
   250
420
  2301728
370
    35
  0
POLYLINE
  5
CF
330
45
100
AcDbEntity
  8
Layer 1
 62
   250
420
  2301728
370
    40
100
AcDb2dPolyline
 66
     1
 10
0.0
 20
0.0
 30
0.0
  0
VERTEX
  5
D0
330
CF
100
AcDbEntity
  8
Layer 1
 62
   250
420
  2301728
370
    40
100
AcDbVertex
100
AcDb2dVertex
 10
3.906037058090192
 20
2.916592335881331
 30
0.0
  0
VERTEX
  5
D1
330
CF
100
AcDbEntity
  8
Layer 1
 62
   250
420
  2301728
370
    40
100
AcDbVertex
100
AcDb2dVertex
 10
3.752134940192781
 20
2.972260291086311
 30
0.0
  0
SEQEND
  5
D2
330
CF
100
AcDbEntity
  8
Layer 1
 62
   250
420
  2301728
370
    40
  0
POLYLINE
  5
D3
330
45
100
AcDbEntity
  8
Layer 1
 62
   250
420
  2301728
370
    35
100
AcDb2dPolyline
 66
     1
 10
0.0
 20
0.0
 30
0.0
  0
VERTEX
  5
D4
330
D3
100
AcDbEntity
  8
Layer 1
 62
   250
420
  2301728
370
    35
100
AcDbVertex
100
AcDb2dVertex
 10
3.752393811769631
 20
2.970453473141914
 30
0.0
  0
VERTEX
  5
D5
330
D3
100
AcDbEntity
  8
Layer 1
 62
   250
420
  2301728
370
    35
100
AcDbVertex
100
AcDb2dVertex
 10
3.755178001993865
 20
3.053931632029061
 30
0.0
  0
SEQEND
  5
D6
330
D3
100
AcDbEntity
  8
Layer 1
 62
   250
420
  2301728
370
    35
  0
SPLINE
  5
D7
330
45
100
AcDbEntity
  8
Layer 1
 62
   250
420
  2301728
370
    25
100
AcDbSpline
210
0.0
220
0.0
230
1.0
 70
     8
 71
     3
 72
    17
 73
    13
 74
     0
 42
0.0000000001
 43
0.0000000001
 12
1.0
 22
0.0
 32
0.0
 13
1.0
 23
0.0
 33
0.0
 40
0.0
 40
0.0
 40
0.0
 40
0.0
 40
1.0
 40
1.0
 40
1.0
 40
2.0
 40
2.0
 40
2.0
 40
3.0
 40
3.0
 40
3.0
 40
4.0
 40
4.0
 40
4.0
 40
4.0
 10
3.862387816454795
 20
3.019158311239557
 30
0.0
 10
3.862387816454795
 20
3.019158311239557
 30
0.0
 10
3.73320033343047
 20
3.060794370361741
 30
0.0
 10
3.73320033343047
 20
3.060794370361741
 30
0.0
 10
3.721640925061062
 20
3.063784601228766
 30
0.0
 10
3.712564570591831
 20
3.092006886196512
 30
0.0
 10
3.712564570591831
 20
3.092006886196512
 30
0.0
 10
3.712564570591831
 20
3.092006886196512
 30
0.0
 10
3.579245708525036
 20
3.137462621850267
 30
0.0
 10
3.579245708525036
 20
3.137462621850267
 30
0.0
 10
3.579245708525036
 20
3.137462621850267
 30
0.0
 10
3.580899316760691
 20
3.15954066918837
 30
0.0
 10
3.580899316760691
 20
3.15954066918837
 30
0.0
  0
POLYLINE
  5
D8
330
45
100
AcDbEntity
  8
Layer 1
 62
   250
420
  2301728
370
    40
100
AcDb2dPolyline
 66
     1
 10
0.0
 20
0.0
 30
0.0
  0
VERTEX
  5
D9
330
D8
100
AcDbEntity
  8
Layer 1
 62
   250
420
  2301728
370
    40
100
AcDbVertex
100
AcDb2dVertex
 10
3.901599259518169
 20
4.106783467365075
 30
0.0
  0
VERTEX
  5
DA
330
D8
100
AcDbEntity
  8
Layer 1
 62
   250
420
  2301728
370
    40
100
AcDbVertex
100
AcDb2dVertex
 10
3.897626049463939
 20
4.264452106933984
 30
0.0
  0
SEQEND
  5
DB
330
D8
100
AcDbEntity
  8
Layer 1
 62
   250
420
  2301728
370
    40
  0
SPLINE
  5
DC
330
45
100
AcDbEntity
  8
Layer 1
 62
   250
420
  2301728
370
    35
100
AcDbSpline
210
0.0
220
0.0
230
1.0
 70
     8
 71
     3
 72
    11
 73
     7
 74
     0
 42
0.0000000001
 43
0.0000000001
 12
1.0
 22
0.0
 32
0.0
 13
1.0
 23
0.0
 33
0.0
 40
0.0
 40
0.0
 40
0.0
 40
0.0
 40
1.0
 40
1.0
 40
1.0
 40
2.0
 40
2.0
 40
2.0
 40
2.0
 10
3.896543015315968
 20
4.266824215872677
 30
0.0
 10
3.896543015315968
 20
4.266824215872677
 30
0.0
 10
3.755901785790317
 20
4.253822523003793
 30
0.0
 10
3.755901785790317
 20
4.253822523003793
 30
0.0
 10
3.730310481338102
 20
4.249955298631575
 30
0.0
 10
3.700899500354315
 20
4.260326010984929
 30
0.0
 10
3.687485726199876
 20
4.277194928226032
 30
0.0
  0
POLYLINE
  5
DD
330
45
100
AcDbEntity
  8
Layer 1
 62
   250
420
  2301728
370
    40
100
AcDb2dPolyline
 66
     1
 10
0.0
 20
0.0
 30
0.0
  0
VERTEX
  5
DE
330
DD
100
AcDbEntity
  8
Layer 1
 62
   250
420
  2301728
370
    40
100
AcDbVertex
100
AcDb2dVertex
 10
3.744342377420897
 20
4.257277666090431
 30
0.0
  0
VERTEX
  5
DF
330
DD
100
AcDbEntity
  8
Layer 1
 62
   250
420
  2301728
370
    40
100
AcDbVertex
100
AcDb2dVertex
 10
3.739492497675415
 20
4.280597240378635
 30
0.0
  0
VERTEX
  5
E0
330
DD
100
AcDbEntity
  8
Layer 1
 62
   250
420
  2301728
370
    40
100
AcDbVertex
100
AcDb2dVertex
 10
3.899327529296758
 20
4.296129534988369
 30
0.0
  0
SEQEND
  5
E1
330
DD
100
AcDbEntity
  8
Layer 1
 62
   250
420
  2301728
370
    40
  0
SPLINE
  5
E2
330
45
100
AcDbEntity
  8
Layer 1
 62
   250
420
  2301728
370
    40
100
AcDbSpline
210
0.0
220
0.0
230
1.0
 70
     8
 71
     3
 72
    11
 73
     7
 74
     0
 42
0.0000000001
 43
0.0000000001
 12
1.0
 22
0.0
 32
0.0
 13
1.0
 23
0.0
 33
0.0
 40
0.0
 40
0.0
 40
0.0
 40
0.0
 40
1.0
 40
1.0
 40
1.0
 40
2.0
 40
2.0
 40
2.0
 40
2.0
 10
3.922028657900089
 20
4.294063845467134
 30
0.0
 10
3.94039797366813
 20
4.296541616273922
 30
0.0
 10
3.93307032311586
 20
4.316147175898651
 30
0.0
 10
3.930592552309046
 20
4.328324706196402
 30
0.0
 10
3.930592552309046
 20
4.328324706196402
 30
0.0
 10
3.930592552309046
 20
4.436617554805303
 30
0.0
 10
3.930592552309046
 20
4.436617554805303
 30
0.0
  0
POLYLINE
  5
E3
330
45
100
AcDbEntity
  8
Layer 1
 62
   250
420
  2301728
370
    40
100
AcDb2dPolyline
 66
     1
 10
0.0
 20
0.0
 30
0.0
  0
VERTEX
  5
E4
330
E3
100
AcDbEntity
  8
Layer 1
 62
   250
420
  2301728
370
    40
100
AcDbVertex
100
AcDb2dVertex
 10
3.863624060311483
 20
4.868600253224764
 30
0.0
  0
VERTEX
  5
E5
330
E3
100
AcDbEntity
  8
Layer 1
 62
   250
420
  2301728
370
    40
100
AcDbVertex
100
AcDb2dVertex
 10
3.708433191549387
 20
4.855344971872455
 30
0.0
  0
SEQEND
  5
E6
330
E3
100
AcDbEntity
  8
Layer 1
 62
   250
420
  2301728
370
    40
  0
POLYLINE
  5
E7
330
45
100
AcDbEntity
  8
Layer 1
 62
   250
420
  2301728
370
    40
100
AcDb2dPolyline
 66
     1
 10
0.0
 20
0.0
 30
0.0
  0
VERTEX
  5
E8
330
E7
100
AcDbEntity
  8
Layer 1
 62
   250
420
  2301728
370
    40
100
AcDbVertex
100
AcDb2dVertex
 10
3.273196107592652
 20
4.993867680942836
 30
0.0
  0
VERTEX
  5
E9
330
E7
100
AcDbEntity
  8
Layer 1
 62
   250
420
  2301728
370
    40
100
AcDbVertex
100
AcDb2dVertex
 10
3.702141027304416
 20
4.856840087305955
 30
0.0
  0
SEQEND
  5
EA
330
E7
100
AcDbEntity
  8
Layer 1
 62
   250
420
  2301728
370
    40
  0
POLYLINE
  5
EB
330
45
100
AcDbEntity
  8
Layer 1
 62
   250
420
  2301728
370
    40
100
AcDb2dPolyline
 66
     1
 10
0.0
 20
0.0
 30
0.0
  0
VERTEX
  5
EC
330
EB
100
AcDbEntity
  8
Layer 1
 62
   250
420
  2301728
370
    40
100
AcDbVertex
100
AcDb2dVertex
 10
3.718338991683127
 20
4.85363853270274
 30
0.0
  0
VERTEX
  5
ED
330
EB
100
AcDbEntity
  8
Layer 1
 62
   250
420
  2301728
370
    40
100
AcDbVertex
100
AcDb2dVertex
 10
5.069759567690552
 20
2.320125807400927
 30
0.0
  0
SEQEND
  5
EE
330
EB
100
AcDbEntity
  8
Layer 1
 62
   250
420
  2301728
370
    40
  0
POLYLINE
  5
EF
330
45
100
AcDbEntity
  8
Layer 1
 62
   250
420
  2301728
370
    40
100
AcDb2dPolyline
 66
     1
 10
0.0
 20
0.0
 30
0.0
  0
VERTEX
  5
F0
330
EF
100
AcDbEntity
  8
Layer 1
 62
   250
420
  2301728
370
    40
100
AcDbVertex
100
AcDb2dVertex
 10
3.922646779828445
 20
4.444716886221082
 30
0.0
  0
VERTEX
  5
F1
330
EF
100
AcDbEntity
  8
Layer 1
 62
   250
420
  2301728
370
    40
100
AcDbVertex
100
AcDb2dVertex
 10
3.066104129223049
 20
4.724503880612448
 30
0.0
  0
SEQEND
  5
F2
330
EF
100
AcDbEntity
  8
Layer 1
 62
   250
420
  2301728
370
    40
  0
SPLINE
  5
F3
330
45
100
AcDbEntity
  8
Layer 1
 62
   250
420
  2301728
370
    40
100
AcDbSpline
210
0.0
220
0.0
230
1.0
 70
     8
 71
     3
 72
    11
 73
     7
 74
     0
 42
0.0000000001
 43
0.0000000001
 12
1.0
 22
0.0
 32
0.0
 13
1.0
 23
0.0
 33
0.0
 40
0.0
 40
0.0
 40
0.0
 40
0.0
 40
1.0
 40
1.0
 40
1.0
 40
2.0
 40
2.0
 40
2.0
 40
2.0
 10
3.928220443370353
 20
4.324193327153958
 30
0.0
 10
3.927602321442022
 20
4.317489081623433
 30
0.0
 10
3.923935854619167
 20
4.305211172551
 30
0.0
 10
3.919756927736103
 20
4.304022476534934
 30
0.0
 10
3.919756927736103
 20
4.304022476534934
 30
0.0
 10
3.682947548965267
 20
4.279514551283834
 30
0.0
 10
3.682947548965267
 20
4.279514551283834
 30
0.0
  0
POLYLINE
  5
F4
330
45
100
AcDbEntity
  8
Layer 1
 62
   250
420
  2301728
370
    40
100
AcDb2dPolyline
 66
     1
 10
0.0
 20
0.0
 30
0.0
  0
VERTEX
  5
F5
330
F4
100
AcDbEntity
  8
Layer 1
 62
   250
420
  2301728
370
    40
100
AcDbVertex
100
AcDb2dVertex
 10
3.913670804133908
 20
4.44358067191264
 30
0.0
  0
VERTEX
  5
F6
330
F4
100
AcDbEntity
  8
Layer 1
 62
   250
420
  2301728
370
    40
100
AcDbVertex
100
AcDb2dVertex
 10
1.66381792991553
 20
4.231121414474501
 30
0.0
  0
SEQEND
  5
F7
330
F4
100
AcDbEntity
  8
Layer 1
 62
   250
420
  2301728
370
    40
  0
POLYLINE
  5
F8
330
45
100
AcDbEntity
  8
Layer 1
 62
   250
420
  2301728
370
    40
100
AcDb2dPolyline
 66
     1
 10
0.0
 20
0.0
 30
0.0
  0
VERTEX
  5
F9
330
F8
100
AcDbEntity
  8
Layer 1
 62
   250
420
  2301728
370
    40
100
AcDbVertex
100
AcDb2dVertex
 10
2.56152644433007
 20
5.221082962090779
 30
0.0
  0
VERTEX
  5
FA
330
F8
100
AcDbEntity
  8
Layer 1
 62
   250
420
  2301728
370
    40
100
AcDbVertex
100
AcDb2dVertex
 10
2.958999976630253
 20
5.09050074240761
 30
0.0
  0
SEQEND
  5
FB
330
F8
100
AcDbEntity
  8
Layer 1
 62
   250
420
  2301728
370
    40
  0
SPLINE
  5
FC
330
45
100
AcDbEntity
  8
Layer 1
 62
   250
420
  2301728
370
    20
100
AcDbSpline
210
0.0
220
0.0
230
1.0
 70
     8
 71
     3
 72
    20
 73
    16
 74
     0
 42
0.0000000001
 43
0.0000000001
 12
1.0
 22
0.0
 32
0.0
 13
1.0
 23
0.0
 33
0.0
 40
0.0
 40
0.0
 40
0.0
 40
0.0
 40
1.0
 40
1.0
 40
1.0
 40
2.0
 40
2.0
 40
2.0
 40
3.0
 40
3.0
 40
3.0
 40
4.0
 40
4.0
 40
4.0
 40
5.0
 40
5.0
 40
5.0
 40
5.0
 10
2.844568173485135
 20
5.132083970595734
 30
0.0
 10
2.852614324740456
 20
5.132083970595734
 30
0.0
 10
2.859941975292726
 20
5.134508910468488
 30
0.0
 10
2.867988126548021
 20
5.135338356133009
 30
0.0
 10
2.88016595485615
 20
5.136162518704142
 30
0.0
 10
2.89316734971467
 20
5.137763296005763
 30
0.0
 10
2.905292049078386
 20
5.134508910468488
 30
0.0
 10
2.912566868696621
 20
5.132083970595734
 30
0.0
 10
2.919789156392135
 20
5.131206977090566
 30
0.0
 10
2.927164055773713
 20
5.129659030723006
 30
0.0
 10
2.945792243118565
 20
5.125585765708011
 30
0.0
 10
2.963643815732957
 20
5.129659030723006
 30
0.0
 10
2.982266719984409
 20
5.126409928279119
 30
0.0
 10
2.98469165985715
 20
5.126409928279119
 30
0.0
 10
2.987893214460364
 20
5.125585765708011
 30
0.0
 10
2.989541539602619
 20
5.123107994901223
 30
0.0
  0
SPLINE
  5
FD
330
45
100
AcDbEntity
  8
Layer 1
 62
   250
420
  2301728
370
    20
100
AcDbSpline
210
0.0
220
0.0
230
1.0
 70
     8
 71
     3
 72
    14
 73
    10
 74
     0
 42
0.0000000001
 43
0.0000000001
 12
1.0
 22
0.0
 32
0.0
 13
1.0
 23
0.0
 33
0.0
 40
0.0
 40
0.0
 40
0.0
 40
0.0
 40
1.0
 40
1.0
 40
1.0
 40
2.0
 40
2.0
 40
2.0
 40
3.0
 40
3.0
 40
3.0
 40
3.0
 10
2.747311706998617
 20
5.167015784187419
 30
0.0
 10
2.775692484768481
 20
5.166138790682226
 30
0.0
 10
2.804015148510909
 20
5.170212055697245
 30
0.0
 10
2.83316197482447
 20
5.167015784187419
 30
0.0
 10
2.860766137863846
 20
5.162937236079011
 30
0.0
 10
2.886664159908037
 20
5.165309345017704
 30
0.0
 10
2.914162362904828
 20
5.160512296206258
 30
0.0
 10
2.931242603882121
 20
5.158087356333529
 30
0.0
 10
2.948270013925367
 20
5.159688133635123
 30
0.0
 10
2.965239309941163
 20
5.158911518904662
 30
0.0
  0
SPLINE
  5
FE
330
45
100
AcDbEntity
  8
Layer 1
 62
   250
420
  2301728
370
    20
100
AcDbSpline
210
0.0
220
0.0
230
1.0
 70
     8
 71
     3
 72
    17
 73
    13
 74
     0
 42
0.0000000001
 43
0.0000000001
 12
1.0
 22
0.0
 32
0.0
 13
1.0
 23
0.0
 33
0.0
 40
0.0
 40
0.0
 40
0.0
 40
0.0
 40
1.0
 40
1.0
 40
1.0
 40
2.0
 40
2.0
 40
2.0
 40
3.0
 40
3.0
 40
3.0
 40
4.0
 40
4.0
 40
4.0
 40
4.0
 10
2.664610162841945
 20
5.1905413991184
 30
0.0
 10
2.66873655146018
 20
5.193790501562262
 30
0.0
 10
2.673586138536482
 20
5.196992056165501
 30
0.0
 10
2.678436018281963
 20
5.19626827236905
 30
0.0
 10
2.706811512958426
 20
5.19626827236905
 30
0.0
 10
2.735192290728302
 20
5.200293989543398
 30
0.0
 10
2.763462418598831
 20
5.19626827236905
 30
0.0
 10
2.775692484768481
 20
5.193790501562262
 30
0.0
 10
2.786987738467663
 20
5.194614664133395
 30
0.0
 10
2.798341106194294
 20
5.193790501562262
 30
0.0
 10
2.814539070573005
 20
5.19214217642002
 30
0.0
 10
2.83156648061625
 20
5.19214217642002
 30
0.0
 10
2.847764444994962
 20
5.194614664133395
 30
0.0
  0
SPLINE
  5
FF
330
45
100
AcDbEntity
  8
Layer 1
 62
   250
420
  2301728
370
    20
100
AcDbSpline
210
0.0
220
0.0
230
1.0
 70
     8
 71
     3
 72
    17
 73
    13
 74
     0
 42
0.0000000001
 43
0.0000000001
 12
1.0
 22
0.0
 32
0.0
 13
1.0
 23
0.0
 33
0.0
 40
0.0
 40
0.0
 40
0.0
 40
0.0
 40
1.0
 40
1.0
 40
1.0
 40
2.0
 40
2.0
 40
2.0
 40
3.0
 40
3.0
 40
3.0
 40
4.0
 40
4.0
 40
4.0
 40
4.0
 10
2.695463428325209
 20
5.232795949303964
 30
0.0
 10
2.697941199131997
 20
5.231141971933261
 30
0.0
 10
2.69871253076907
 20
5.227840038555339
 30
0.0
 10
2.70031330807069
 20
5.225415098682611
 30
0.0
 10
2.703615241448599
 20
5.222990158809858
 30
0.0
 10
2.70764095862296
 20
5.224643767045513
 30
0.0
 10
2.71166139270392
 20
5.223819604474405
 30
0.0
 10
2.718164880685056
 20
5.221394664601651
 30
0.0
 10
2.724663085572804
 20
5.218140279064376
 30
0.0
 10
2.731890357350393
 20
5.217263654301885
 30
0.0
 10
2.745716212790398
 20
5.216544784856169
 30
0.0
 10
2.760265852026855
 20
5.217263654301885
 30
0.0
 10
2.774091707466873
 20
5.217263654301885
 30
0.0
  0
SPLINE
  5
100
330
45
100
AcDbEntity
  8
Layer 1
 62
   250
420
  2301728
370
    20
100
AcDbSpline
210
0.0
220
0.0
230
1.0
 70
     8
 71
     3
 72
    38
 73
    34
 74
     0
 42
0.0000000001
 43
0.0000000001
 12
1.0
 22
0.0
 32
0.0
 13
1.0
 23
0.0
 33
0.0
 40
0.0
 40
0.0
 40
0.0
 40
0.0
 40
1.0
 40
1.0
 40
1.0
 40
2.0
 40
2.0
 40
2.0
 40
3.0
 40
3.0
 40
3.0
 40
4.0
 40
4.0
 40
4.0
 40
5.0
 40
5.0
 40
5.0
 40
6.0
 40
6.0
 40
6.0
 40
7.0
 40
7.0
 40
7.0
 40
8.0
 40
8.0
 40
8.0
 40
9.0
 40
9.0
 40
9.0
 40
10.0
 40
10.0
 40
10.0
 40
11.0
 40
11.0
 40
11.0
 40
11.0
 10
3.177440039633047
 20
5.184914904642432
 30
0.0
 10
3.180694425170322
 20
5.181565423423863
 30
0.0
 10
3.179917810439835
 20
5.176715543678382
 30
0.0
 10
3.182342750312563
 20
5.173513989075142
 30
0.0
 10
3.182342750312563
 20
5.173513989075142
 30
0.0
 10
3.184767690185317
 20
5.173513989075142
 30
0.0
 10
3.184767690185317
 20
5.173513989075142
 30
0.0
 10
3.190442038350498
 20
5.167015784187419
 30
0.0
 10
3.196121057911935
 20
5.162060242573816
 30
0.0
 10
3.20179510022855
 20
5.155609952711832
 30
0.0
 10
3.202566431865648
 20
5.154014091318509
 30
0.0
 10
3.202566431865648
 20
5.151536320511746
 30
0.0
 10
3.203443425370816
 20
5.149164578595345
 30
0.0
 10
3.204991371738376
 20
5.14420866995945
 30
0.0
 10
3.208293305116285
 20
5.141012398449624
 30
0.0
 10
3.210670697148405
 20
5.136933850341241
 30
0.0
 10
3.212319022290659
 20
5.134508910468488
 30
0.0
 10
3.216344739465019
 20
5.136162518704142
 30
0.0
 10
3.218817227178394
 20
5.134508910468488
 30
0.0
 10
3.235020474650519
 20
5.117486783518643
 30
0.0
 10
3.243172287773922
 20
5.097157440097488
 30
0.0
 10
3.25442030109726
 20
5.076880927610369
 30
0.0
 10
3.256897764439234
 20
5.073578994232447
 30
0.0
 10
3.259269873377927
 20
5.071154054359718
 30
0.0
 10
3.261742361091339
 20
5.067128337185346
 30
0.0
 10
3.263395969326982
 20
5.064703397312617
 30
0.0
 10
3.266592240836808
 20
5.063879234741484
 30
0.0
 10
3.269017180709536
 20
5.062230909599243
 30
0.0
 10
3.276292308345116
 20
5.055727421618081
 30
0.0
 10
3.280317717502119
 20
5.046857107791639
 30
0.0
 10
3.287645368054414
 20
5.039476626305334
 30
0.0
 10
3.292495247799909
 20
5.033855414922755
 30
0.0
 10
3.292495247799909
 20
5.025703601799351
 30
0.0
 10
3.297345127545377
 20
5.019147646622009
 30
0.0
  0
SPLINE
  5
101
330
45
100
AcDbEntity
  8
Layer 1
 62
   250
420
  2301728
370
    20
100
AcDbSpline
210
0.0
220
0.0
230
1.0
 70
     8
 71
     3
 72
    38
 73
    34
 74
     0
 42
0.0000000001
 43
0.0000000001
 12
1.0
 22
0.0
 32
0.0
 13
1.0
 23
0.0
 33
0.0
 40
0.0
 40
0.0
 40
0.0
 40
0.0
 40
1.0
 40
1.0
 40
1.0
 40
2.0
 40
2.0
 40
2.0
 40
3.0
 40
3.0
 40
3.0
 40
4.0
 40
4.0
 40
4.0
 40
5.0
 40
5.0
 40
5.0
 40
6.0
 40
6.0
 40
6.0
 40
7.0
 40
7.0
 40
7.0
 40
8.0
 40
8.0
 40
8.0
 40
9.0
 40
9.0
 40
9.0
 40
10.0
 40
10.0
 40
10.0
 40
11.0
 40
11.0
 40
11.0
 40
11.0
 10
3.119970549577058
 20
5.179188031391757
 30
0.0
 10
3.12482042932254
 20
5.180017844857957
 30
0.0
 10
3.128122362700462
 20
5.178363868820623
 30
0.0
 10
3.130494471639155
 20
5.174290603805629
 30
0.0
 10
3.132089965847361
 20
5.170988670427707
 30
0.0
 10
3.139364785465596
 20
5.162060242573816
 30
0.0
 10
3.141018393701251
 20
5.158911518904662
 30
0.0
 10
3.143443333574004
 20
5.151536320511746
 30
0.0
 10
3.144214969891853
 20
5.151536320511746
 30
0.0
 10
3.149170206824654
 20
5.145862278195131
 30
0.0
 10
3.153196228906697
 20
5.141012398449624
 30
0.0
 10
3.154020086570136
 20
5.132913416260281
 30
0.0
 10
3.159593750112069
 20
5.129659030723006
 30
0.0
 10
3.169393888377739
 20
5.123932157472356
 30
0.0
 10
3.176668707995948
 20
5.114232397981368
 30
0.0
 10
3.182342750312563
 20
5.105309253220891
 30
0.0
 10
3.192042509803526
 20
5.09065923520974
 30
0.0
 10
3.200194322926929
 20
5.079305867483122
 30
0.0
 10
3.211547690653573
 20
5.066304174614237
 30
0.0
 10
3.213042806087098
 20
5.063879234741484
 30
0.0
 10
3.213919799592266
 20
5.060577301363562
 30
0.0
 10
3.215568124734533
 20
5.058205192424869
 30
0.0
 10
3.219541010974846
 20
5.052531150108254
 30
0.0
 10
3.226921492461151
 20
5.050106574755419
 30
0.0
 10
3.23017090175727
 20
5.044379336984851
 30
0.0
 10
3.230941926542111
 20
5.041954397112122
 30
0.0
 10
3.231771372206645
 20
5.039476626305334
 30
0.0
 10
3.233319318574218
 20
5.037104517366641
 30
0.0
 10
3.241518679538242
 20
5.027299096007558
 30
0.0
 10
3.246368559283724
 20
5.016775173945462
 30
0.0
 10
3.252047884693752
 20
5.005374258378197
 30
0.0
 10
3.25442030109726
 20
5.00217798686837
 30
0.0
 10
3.256068318774712
 20
4.999753046995616
 30
0.0
 10
3.2585460895815
 20
4.996498661458341
 30
0.0
  0
SPLINE
  5
102
330
45
100
AcDbEntity
  8
Layer 1
 62
   250
420
  2301728
370
    20
100
AcDbSpline
210
0.0
220
0.0
230
1.0
 70
     8
 71
     3
 72
    26
 73
    22
 74
     0
 42
0.0000000001
 43
0.0000000001
 12
1.0
 22
0.0
 32
0.0
 13
1.0
 23
0.0
 33
0.0
 40
0.0
 40
0.0
 40
0.0
 40
0.0
 40
1.0
 40
1.0
 40
1.0
 40
2.0
 40
2.0
 40
2.0
 40
3.0
 40
3.0
 40
3.0
 40
4.0
 40
4.0
 40
4.0
 40
5.0
 40
5.0
 40
5.0
 40
6.0
 40
6.0
 40
6.0
 40
7.0
 40
7.0
 40
7.0
 40
7.0
 10
3.125644591893661
 20
5.099582379970242
 30
0.0
 10
3.128841167695908
 20
5.099582379970242
 30
0.0
 10
3.132089965847361
 20
5.10040654254135
 30
0.0
 10
3.133690743148981
 20
5.098811048333143
 30
0.0
 10
3.145091658716246
 20
5.088234295337012
 30
0.0
 10
3.153196228906697
 20
5.077657542340855
 30
0.0
 10
3.161242075254336
 20
5.064703397312617
 30
0.0
 10
3.165320623362719
 20
5.059029354996002
 30
0.0
 10
3.168570031102654
 20
5.053302481745352
 30
0.0
 10
3.171818828250467
 20
5.047575608494677
 30
0.0
 10
3.172590159887565
 20
5.046027662127117
 30
0.0
 10
3.175844545424853
 20
5.044379336984851
 30
0.0
 10
3.176668707995948
 20
5.041954397112122
 30
0.0
 10
3.179093647868715
 20
5.034679941624088
 30
0.0
 10
3.184767690185317
 20
5.028952704243238
 30
0.0
 10
3.189617569930811
 20
5.022449216262076
 30
0.0
 10
3.192819430442657
 20
5.018428782181116
 30
0.0
 10
3.196945220483068
 20
5.014297403138673
 30
0.0
 10
3.200194322926929
 20
5.010276969057738
 30
0.0
 10
3.209946913351953
 20
4.9948503363161
 30
0.0
 10
3.223667106923876
 20
4.985097745891077
 30
0.0
 10
3.23017090175727
 20
4.968899781512365
 30
0.0
  0
POLYLINE
  5
103
330
45
100
AcDbEntity
  8
Layer 1
 62
   250
420
  2301728
370
    40
100
AcDb2dPolyline
 66
     1
 10
0.0
 20
0.0
 30
0.0
  0
VERTEX
  5
104
330
103
100
AcDbEntity
  8
Layer 1
 62
   250
420
  2301728
370
    40
100
AcDbVertex
100
AcDb2dVertex
 10
3.090459189818577
 20
5.172536616795292
 30
0.0
  0
VERTEX
  5
105
330
103
100
AcDbEntity
  8
Layer 1
 62
   250
420
  2301728
370
    40
100
AcDbVertex
100
AcDb2dVertex
 10
3.193437246462369
 20
4.93639290779346
 30
0.0
  0
SEQEND
  5
106
330
103
100
AcDbEntity
  8
Layer 1
 62
   250
420
  2301728
370
    40
  0
SPLINE
  5
107
330
45
100
AcDbEntity
  8
Layer 1
 62
   250
420
  2301728
370
    20
100
AcDbSpline
210
0.0
220
0.0
230
1.0
 70
     8
 71
     3
 72
    20
 73
    16
 74
     0
 42
0.0000000001
 43
0.0000000001
 12
1.0
 22
0.0
 32
0.0
 13
1.0
 23
0.0
 33
0.0
 40
0.0
 40
0.0
 40
0.0
 40
0.0
 40
1.0
 40
1.0
 40
1.0
 40
2.0
 40
2.0
 40
2.0
 40
3.0
 40
3.0
 40
3.0
 40
4.0
 40
4.0
 40
4.0
 40
5.0
 40
5.0
 40
5.0
 40
5.0
 10
3.345632601264027
 20
4.97235492459903
 30
0.0
 10
3.344914100561014
 20
4.973179087170138
 30
0.0
 10
3.346409215994514
 20
4.974779864471757
 30
0.0
 10
3.346409215994514
 20
4.974779864471757
 30
0.0
 10
3.353684035612749
 20
4.976428189614024
 30
0.0
 10
3.362559632532591
 20
4.971578309868542
 30
0.0
 10
3.368286505783253
 20
4.978028966915645
 30
0.0
 10
3.392583452351308
 20
4.980453906788372
 30
0.0
 10
3.416885682012801
 20
4.97968293789212
 30
0.0
 10
3.441906412377307
 20
4.976428189614024
 30
0.0
 10
3.445155514821168
 20
4.976428189614024
 30
0.0
 10
3.448409900358443
 20
4.974003249741271
 30
0.0
 10
3.451659002802305
 20
4.973179087170138
 30
0.0
 10
3.487256486162967
 20
4.967505044853548
 30
0.0
 10
3.521258475315398
 20
4.969982815660337
 30
0.0
 10
3.556132174879609
 20
4.969982815660337
 30
0.0
  0
SPLINE
  5
108
330
45
100
AcDbEntity
  8
Layer 1
 62
   250
420
  2301728
370
    20
100
AcDbSpline
210
0.0
220
0.0
230
1.0
 70
     8
 71
     3
 72
    23
 73
    19
 74
     0
 42
0.0000000001
 43
0.0000000001
 12
1.0
 22
0.0
 32
0.0
 13
1.0
 23
0.0
 33
0.0
 40
0.0
 40
0.0
 40
0.0
 40
0.0
 40
1.0
 40
1.0
 40
1.0
 40
2.0
 40
2.0
 40
2.0
 40
3.0
 40
3.0
 40
3.0
 40
4.0
 40
4.0
 40
4.0
 40
5.0
 40
5.0
 40
5.0
 40
6.0
 40
6.0
 40
6.0
 40
6.0
 10
3.474307624228105
 20
4.934332501365639
 30
0.0
 10
3.480034497478793
 20
4.934332501365639
 30
0.0
 10
3.485655708861347
 20
4.935980826507881
 30
0.0
 10
3.490505588606829
 20
4.935980826507881
 30
0.0
 10
3.514754987334261
 20
4.936757441238367
 30
0.0
 10
3.539104764836376
 20
4.93918238111112
 30
0.0
 10
3.56418360922833
 20
4.933608717569187
 30
0.0
 10
3.57553169386156
 20
4.931078477341316
 30
0.0
 10
3.58687977849479
 20
4.934332501365639
 30
0.0
 10
3.599004477858494
 20
4.931907561492886
 30
0.0
 10
3.600605255160101
 20
4.931907561492886
 30
0.0
 10
3.603083025966889
 20
4.928653175955611
 30
0.0
 10
3.605507965839643
 20
4.928653175955611
 30
0.0
 10
3.620828936713186
 20
4.926233519176271
 30
0.0
 10
3.636255569454811
 20
4.925404073511749
 30
0.0
 10
3.651581823421755
 20
4.927881844318537
 30
0.0
 10
3.663754388431521
 20
4.930306784191266
 30
0.0
 10
3.675878769989809
 20
4.927881844318537
 30
0.0
 10
3.687232137716453
 20
4.931078477341316
 30
0.0
  0
SPLINE
  5
109
330
45
100
AcDbEntity
  8
Layer 1
 62
   250
420
  2301728
370
    20
100
AcDbSpline
210
0.0
220
0.0
230
1.0
 70
     8
 71
     3
 72
    26
 73
    22
 74
     0
 42
0.0000000001
 43
0.0000000001
 12
1.0
 22
0.0
 32
0.0
 13
1.0
 23
0.0
 33
0.0
 40
0.0
 40
0.0
 40
0.0
 40
0.0
 40
1.0
 40
1.0
 40
1.0
 40
2.0
 40
2.0
 40
2.0
 40
3.0
 40
3.0
 40
3.0
 40
4.0
 40
4.0
 40
4.0
 40
5.0
 40
5.0
 40
5.0
 40
6.0
 40
6.0
 40
6.0
 40
7.0
 40
7.0
 40
7.0
 40
7.0
 10
3.616808502632226
 20
4.890630752722219
 30
0.0
 10
3.638627678393492
 20
4.889859421085147
 30
0.0
 10
3.659733636545158
 20
4.89150810674073
 30
0.0
 10
3.681505582719675
 20
4.889029975420599
 30
0.0
 10
3.693677511670141
 20
4.888205812849466
 30
0.0
 10
3.704201433732237
 20
4.884185378768532
 30
0.0
 10
3.716326133095953
 20
4.884185378768532
 30
0.0
 10
3.717979741331608
 20
4.884185378768532
 30
0.0
 10
3.719580518633216
 20
4.882637432400947
 30
0.0
 10
3.721228843775495
 20
4.881807986736425
 30
0.0
 10
3.728503663393705
 20
4.880106830660123
 30
0.0
 10
3.734954320440806
 20
4.880106830660123
 30
0.0
 10
3.742329518833723
 20
4.878558884292564
 30
0.0
 10
3.749604658426165
 20
4.876910559150297
 30
0.0
 10
3.756826327136145
 20
4.878558884292564
 30
0.0
 10
3.764877761484867
 20
4.876910559150297
 30
0.0
 10
3.769003857433884
 20
4.876134304544823
 30
0.0
 10
3.77302957460827
 20
4.874485619277544
 30
0.0
 10
3.776225846118084
 20
4.872832011041888
 30
0.0
 10
3.781075725863565
 20
4.870459902103195
 30
0.0
 10
3.786802599114228
 20
4.869636099492835
 30
0.0
 10
3.791599647925661
 20
4.86880629386754
 30
0.0
  0
SPLINE
  5
10A
330
45
100
AcDbEntity
  8
Layer 1
 62
   250
420
  2301728
370
    20
100
AcDbSpline
210
0.0
220
0.0
230
1.0
 70
     8
 71
     3
 72
    17
 73
    13
 74
     0
 42
0.0000000001
 43
0.0000000001
 12
1.0
 22
0.0
 32
0.0
 13
1.0
 23
0.0
 33
0.0
 40
0.0
 40
0.0
 40
0.0
 40
0.0
 40
1.0
 40
1.0
 40
1.0
 40
2.0
 40
2.0
 40
2.0
 40
3.0
 40
3.0
 40
3.0
 40
4.0
 40
4.0
 40
4.0
 40
4.0
 10
4.457042243897376
 20
2.402314891497352
 30
0.0
 10
4.46834278068996
 20
2.402314891497352
 30
0.0
 10
4.469943557991579
 20
2.416811699799761
 30
0.0
 10
4.478095371115008
 20
2.423315187780898
 30
0.0
 10
4.482945250860464
 20
2.426511459290724
 30
0.0
 10
4.488001171248722
 20
2.433891940777054
 30
0.0
 10
4.491197442758574
 20
2.43708851079633
 30
0.0
 10
4.502551149480445
 20
2.451637851523325
 30
0.0
 10
4.510031670746179
 20
2.462526307030354
 30
0.0
 10
4.524010735894939
 20
2.472844188449673
 30
0.0
 10
4.528601744063608
 20
2.476352162470372
 30
0.0
 10
4.53144404831533
 20
2.481561292567373
 30
0.0
 10
4.534693150759166
 20
2.486411172312854
 30
0.0
  0
SPLINE
  5
10B
330
45
100
AcDbEntity
  8
Layer 1
 62
   250
420
  2301728
370
    20
100
AcDbSpline
210
0.0
220
0.0
230
1.0
 70
     8
 71
     3
 72
    26
 73
    22
 74
     0
 42
0.0000000001
 43
0.0000000001
 12
1.0
 22
0.0
 32
0.0
 13
1.0
 23
0.0
 33
0.0
 40
0.0
 40
0.0
 40
0.0
 40
0.0
 40
1.0
 40
1.0
 40
1.0
 40
2.0
 40
2.0
 40
2.0
 40
3.0
 40
3.0
 40
3.0
 40
4.0
 40
4.0
 40
4.0
 40
5.0
 40
5.0
 40
5.0
 40
6.0
 40
6.0
 40
6.0
 40
7.0
 40
7.0
 40
7.0
 40
7.0
 10
4.50946109665852
 20
2.41160256970276
 30
0.0
 10
4.513021901613229
 20
2.415834327519911
 30
0.0
 10
4.515552503354077
 20
2.42192045112208
 30
0.0
 10
4.520402383099584
 20
2.424910681989129
 30
0.0
 10
4.525817553839361
 20
2.429195270740315
 30
0.0
 10
4.53247425152924
 20
2.434663272414127
 30
0.0
 10
4.534281069473612
 20
2.442508666120072
 30
0.0
 10
4.534899191401968
 20
2.444363031905116
 30
0.0
 10
4.537942253203052
 20
2.446169849849512
 30
0.0
 10
4.539130949219119
 20
2.447358545865553
 30
0.0
 10
4.543980828964575
 20
2.451637851523325
 30
0.0
 10
4.550119783500829
 20
2.45592244027451
 30
0.0
 10
4.549496378479085
 20
2.463762550887041
 30
0.0
 10
4.549496378479085
 20
2.464998794743729
 30
0.0
 10
4.550737905429186
 20
2.465622199765499
 30
0.0
 10
4.551356027357492
 20
2.466805612688126
 30
0.0
 10
4.552544723373558
 20
2.469230552560879
 30
0.0
 10
4.556100245234928
 20
2.469230552560879
 30
0.0
 10
4.556771198097319
 20
2.471090201439311
 30
0.0
 10
4.55744249134159
 20
2.473462310378004
 30
0.0
 10
4.558630846975726
 20
2.475887250250758
 30
0.0
 10
4.558630846975726
 20
2.478312190123511
 30
0.0
  0
SPLINE
  5
10C
330
45
100
AcDbEntity
  8
Layer 1
 62
   250
420
  2301728
370
    40
100
AcDbSpline
210
0.0
220
0.0
230
1.0
 70
     8
 71
     3
 72
     8
 73
     4
 74
     0
 42
0.0000000001
 43
0.0000000001
 12
1.0
 22
0.0
 32
0.0
 13
1.0
 23
0.0
 33
0.0
 40
0.0
 40
0.0
 40
0.0
 40
0.0
 40
1.0
 40
1.0
 40
1.0
 40
1.0
 10
4.42515877520024
 20
2.390501894644507
 30
0.0
 10
4.42515877520024
 20
2.390501894644507
 30
0.0
 10
4.508172021867773
 20
2.503491413290147
 30
0.0
 10
4.508172021867773
 20
2.501013942607743
 30
0.0
  0
POLYLINE
  5
10D
330
45
100
AcDbEntity
  8
Layer 1
 62
   250
420
  2301728
370
    40
100
AcDb2dPolyline
 66
     1
 10
0.0
 20
0.0
 30
0.0
  0
VERTEX
  5
10E
330
10D
100
AcDbEntity
  8
Layer 1
 62
   250
420
  2301728
370
    40
100
AcDbVertex
100
AcDb2dVertex
 10
4.194229810595163
 20
2.607964585367452
 30
0.0
  0
VERTEX
  5
10F
330
10D
100
AcDbEntity
  8
Layer 1
 62
   250
420
  2301728
370
    40
100
AcDbVertex
100
AcDb2dVertex
 10
4.243140358129191
 20
2.673950421991751
 30
0.0
  0
SEQEND
  5
110
330
10D
100
AcDbEntity
  8
Layer 1
 62
   250
420
  2301728
370
    40
  0
SPLINE
  5
111
330
45
100
AcDbEntity
  8
Layer 1
 62
   250
420
  2301728
370
    30
100
AcDbSpline
210
0.0
220
0.0
230
1.0
 70
     8
 71
     3
 72
    17
 73
    13
 74
     0
 42
0.0000000001
 43
0.0000000001
 12
1.0
 22
0.0
 32
0.0
 13
1.0
 23
0.0
 33
0.0
 40
0.0
 40
0.0
 40
0.0
 40
0.0
 40
1.0
 40
1.0
 40
1.0
 40
2.0
 40
2.0
 40
2.0
 40
3.0
 40
3.0
 40
3.0
 40
4.0
 40
4.0
 40
4.0
 40
4.0
 10
3.599627882880251
 20
3.155155701662503
 30
0.0
 10
3.599627882880251
 20
3.155155701662503
 30
0.0
 10
3.706372785121566
 20
3.119558534052026
 30
0.0
 10
3.706372785121566
 20
3.119558534052026
 30
0.0
 10
3.706372785121566
 20
3.119558534052026
 30
0.0
 10
3.717308788469217
 20
3.093760873206848
 30
0.0
 10
3.717308788469217
 20
3.093760873206848
 30
0.0
 10
3.722776790143055
 20
3.085762269792187
 30
0.0
 10
3.728197243976246
 20
3.083960734941204
 30
0.0
 10
3.74098761310894
 20
3.082101400866653
 30
0.0
 10
3.74098761310894
 20
3.082101400866653
 30
0.0
 10
3.87275852880815
 20
3.038504999287448
 30
0.0
 10
3.87275852880815
 20
3.038504999287448
 30
0.0
  0
SPLINE
  5
112
330
45
100
AcDbEntity
  8
Layer 1
 62
   250
420
  2301728
370
    35
100
AcDbSpline
210
0.0
220
0.0
230
1.0
 70
     8
 71
     3
 72
    11
 73
     7
 74
     0
 42
0.0000000001
 43
0.0000000001
 12
1.0
 22
0.0
 32
0.0
 13
1.0
 23
0.0
 33
0.0
 40
0.0
 40
0.0
 40
0.0
 40
0.0
 40
1.0
 40
1.0
 40
1.0
 40
2.0
 40
2.0
 40
2.0
 40
2.0
 10
4.634110402448237
 20
2.685975047377699
 30
0.0
 10
4.634110402448237
 20
2.685975047377699
 30
0.0
 10
4.634728524376593
 20
2.855609588711256
 30
0.0
 10
4.634728524376593
 20
2.855609588711256
 30
0.0
 10
4.634728524376593
 20
2.869023362865694
 30
0.0
 10
4.630502049652831
 20
2.873926073545236
 30
0.0
 10
4.61574636977361
 20
2.870259606722382
 30
0.0
  0
POLYLINE
  5
113
330
45
100
AcDbEntity
  8
Layer 1
 62
   250
420
  2301728
370
    35
100
AcDb2dPolyline
 66
     1
 10
0.0
 20
0.0
 30
0.0
  0
VERTEX
  5
114
330
113
100
AcDbEntity
  8
Layer 1
 62
   250
420
  2301728
370
    35
100
AcDbVertex
100
AcDb2dVertex
 10
4.610225537165712
 20
2.8701592279477
 30
0.0
  0
VERTEX
  5
115
330
113
100
AcDbEntity
  8
Layer 1
 62
   250
420
  2301728
370
    35
100
AcDbVertex
100
AcDb2dVertex
 10
4.469219774195153
 20
2.854320513920508
 30
0.0
  0
SEQEND
  5
116
330
113
100
AcDbEntity
  8
Layer 1
 62
   250
420
  2301728
370
    35
  0
POLYLINE
  5
117
330
45
100
AcDbEntity
  8
Layer 1
 62
   250
420
  2301728
370
    30
100
AcDb2dPolyline
 66
     1
 10
0.0
 20
0.0
 30
0.0
  0
VERTEX
  5
118
330
117
100
AcDbEntity
  8
Layer 1
 62
   250
420
  2301728
370
    30
100
AcDbVertex
100
AcDb2dVertex
 10
4.465817462042549
 20
2.87892916299946
 30
0.0
  0
VERTEX
  5
119
330
117
100
AcDbEntity
  8
Layer 1
 62
   250
420
  2301728
370
    30
100
AcDbVertex
100
AcDb2dVertex
 10
4.630396387784761
 20
2.903125730792832
 30
0.0
  0
SEQEND
  5
11A
330
117
100
AcDbEntity
  8
Layer 1
 62
   250
420
  2301728
370
    30
  0
POLYLINE
  5
11B
330
45
100
AcDbEntity
  8
Layer 1
 62
   250
420
  2301728
370
    30
100
AcDb2dPolyline
 66
     1
 10
0.0
 20
0.0
 30
0.0
  0
VERTEX
  5
11C
330
11B
100
AcDbEntity
  8
Layer 1
 62
   250
420
  2301728
370
    30
100
AcDbVertex
100
AcDb2dVertex
 10
4.467053705899212
 20
2.850500837388937
 30
0.0
  0
VERTEX
  5
11D
330
11B
100
AcDbEntity
  8
Layer 1
 62
   250
420
  2301728
370
    30
100
AcDbVertex
100
AcDb2dVertex
 10
4.46834278068996
 20
2.876504223126706
 30
0.0
  0
SEQEND
  5
11E
330
11B
100
AcDbEntity
  8
Layer 1
 62
   250
420
  2301728
370
    30
  0
POLYLINE
  5
11F
330
45
100
AcDbEntity
  8
Layer 1
 62
   250
420
  2301728
370
    30
100
AcDb2dPolyline
 66
     1
 10
0.0
 20
0.0
 30
0.0
  0
VERTEX
  5
120
330
11F
100
AcDbEntity
  8
Layer 1
 62
   250
420
  2301728
370
    30
100
AcDbVertex
100
AcDb2dVertex
 10
4.460967582297043
 20
2.874597026407628
 30
0.0
  0
VERTEX
  5
121
330
11F
100
AcDbEntity
  8
Layer 1
 62
   250
420
  2301728
370
    30
100
AcDbVertex
100
AcDb2dVertex
 10
4.31655950717388
 20
2.923502932851963
 30
0.0
  0
SEQEND
  5
122
330
11F
100
AcDbEntity
  8
Layer 1
 62
   250
420
  2301728
370
    30
  0
POLYLINE
  5
123
330
45
100
AcDbEntity
  8
Layer 1
 62
   250
420
  2301728
370
    20
100
AcDb2dPolyline
 66
     1
 10
0.0
 20
0.0
 30
0.0
  0
VERTEX
  5
124
330
123
100
AcDbEntity
  8
Layer 1
 62
   250
420
  2301728
370
    20
100
AcDbVertex
100
AcDb2dVertex
 10
4.464575935092449
 20
2.848952891021377
 30
0.0
  0
VERTEX
  5
125
330
123
100
AcDbEntity
  8
Layer 1
 62
   250
420
  2301728
370
    20
100
AcDbVertex
100
AcDb2dVertex
 10
4.305465011024049
 20
2.901165703139693
 30
0.0
  0
SEQEND
  5
126
330
123
100
AcDbEntity
  8
Layer 1
 62
   250
420
  2301728
370
    20
  0
SPLINE
  5
127
330
45
100
AcDbEntity
  8
Layer 1
 62
   250
420
  2301728
370
    20
100
AcDbSpline
210
0.0
220
0.0
230
1.0
 70
     8
 71
     3
 72
     8
 73
     4
 74
     0
 42
0.0000000001
 43
0.0000000001
 12
1.0
 22
0.0
 32
0.0
 13
1.0
 23
0.0
 33
0.0
 40
0.0
 40
0.0
 40
0.0
 40
0.0
 40
1.0
 40
1.0
 40
1.0
 40
1.0
 10
4.314182115141749
 20
2.92273129041756
 30
0.0
 10
4.314182115141749
 20
2.92273129041756
 30
0.0
 10
4.266459932417395
 20
2.918446701666375
 30
0.0
 10
4.256089220064041
 20
2.912878321217856
 30
0.0
  0
POLYLINE
  5
128
330
45
100
AcDbEntity
  8
Layer 1
 62
   250
420
  2301728
370
    35
100
AcDb2dPolyline
 66
     1
 10
0.0
 20
0.0
 30
0.0
  0
VERTEX
  5
129
330
128
100
AcDbEntity
  8
Layer 1
 62
   250
420
  2301728
370
    35
100
AcDbVertex
100
AcDb2dVertex
 10
4.093111400275372
 20
2.967257201632088
 30
0.0
  0
VERTEX
  5
12A
330
128
100
AcDbEntity
  8
Layer 1
 62
   250
420
  2301728
370
    35
100
AcDbVertex
100
AcDb2dVertex
 10
4.26388178283595
 20
2.909988469125488
 30
0.0
  0
SEQEND
  5
12B
330
128
100
AcDbEntity
  8
Layer 1
 62
   250
420
  2301728
370
    35
  0
POLYLINE
  5
12C
330
45
100
AcDbEntity
  8
Layer 1
 62
   250
420
  2301728
370
    35
100
AcDb2dPolyline
 66
     1
 10
0.0
 20
0.0
 30
0.0
  0
VERTEX
  5
12D
330
12C
100
AcDbEntity
  8
Layer 1
 62
   250
420
  2301728
370
    35
100
AcDbVertex
100
AcDb2dVertex
 10
4.299273225553811
 20
2.916233085529812
 30
0.0
  0
VERTEX
  5
12E
330
12C
100
AcDbEntity
  8
Layer 1
 62
   250
420
  2301728
370
    35
100
AcDbVertex
100
AcDb2dVertex
 10
4.304228767167388
 20
2.901318912848435
 30
0.0
  0
SEQEND
  5
12F
330
12C
100
AcDbEntity
  8
Layer 1
 62
   250
420
  2301728
370
    35
  0
POLYLINE
  5
130
330
45
100
AcDbEntity
  8
Layer 1
 62
   250
420
  2301728
370
    30
100
AcDb2dPolyline
 66
     1
 10
0.0
 20
0.0
 30
0.0
  0
VERTEX
  5
131
330
130
100
AcDbEntity
  8
Layer 1
 62
   250
420
  2301728
370
    30
100
AcDbVertex
100
AcDb2dVertex
 10
4.302216242514532
 20
2.901060041271598
 30
0.0
  0
VERTEX
  5
132
330
130
100
AcDbEntity
  8
Layer 1
 62
   250
420
  2301728
370
    30
100
AcDbVertex
100
AcDb2dVertex
 10
4.23215152384748
 20
2.88986516634711
 30
0.0
  0
SEQEND
  5
133
330
130
100
AcDbEntity
  8
Layer 1
 62
   250
420
  2301728
370
    30
  0
POLYLINE
  5
134
330
45
100
AcDbEntity
  8
Layer 1
 62
   250
420
  2301728
370
    35
100
AcDb2dPolyline
 66
     1
 10
0.0
 20
0.0
 30
0.0
  0
VERTEX
  5
135
330
134
100
AcDbEntity
  8
Layer 1
 62
   250
420
  2301728
370
    35
100
AcDbVertex
100
AcDb2dVertex
 10
4.259343605601316
 20
2.909111475620319
 30
0.0
  0
VERTEX
  5
136
330
134
100
AcDbEntity
  8
Layer 1
 62
   250
420
  2301728
370
    35
100
AcDbVertex
100
AcDb2dVertex
 10
4.261816093314691
 20
2.895798080240562
 30
0.0
  0
SEQEND
  5
137
330
134
100
AcDbEntity
  8
Layer 1
 62
   250
420
  2301728
370
    35
  0
POLYLINE
  5
138
330
45
100
AcDbEntity
  8
Layer 1
 62
   250
420
  2301728
370
    20
100
AcDb2dPolyline
 66
     1
 10
0.0
 20
0.0
 30
0.0
  0
VERTEX
  5
139
330
138
100
AcDbEntity
  8
Layer 1
 62
   250
420
  2301728
370
    20
100
AcDbVertex
100
AcDb2dVertex
 10
4.242004493047211
 20
2.893838052587423
 30
0.0
  0
VERTEX
  5
13A
330
138
100
AcDbEntity
  8
Layer 1
 62
   250
420
  2301728
370
    20
100
AcDbVertex
100
AcDb2dVertex
 10
4.101416094455595
 20
2.939088058789442
 30
0.0
  0
SEQEND
  5
13B
330
138
100
AcDbEntity
  8
Layer 1
 62
   250
420
  2301728
370
    20
  0
POLYLINE
  5
13C
330
45
100
AcDbEntity
  8
Layer 1
 62
   250
420
  2301728
370
    25
100
AcDb2dPolyline
 66
     1
 10
0.0
 20
0.0
 30
0.0
  0
VERTEX
  5
13D
330
13C
100
AcDbEntity
  8
Layer 1
 62
   250
420
  2301728
370
    25
100
AcDbVertex
100
AcDb2dVertex
 10
3.906602025158438
 20
3.030765267449599
 30
0.0
  0
VERTEX
  5
13E
330
13C
100
AcDbEntity
  8
Layer 1
 62
   250
420
  2301728
370
    25
100
AcDbVertex
100
AcDb2dVertex
 10
4.072781728202295
 20
2.976127515458529
 30
0.0
  0
SEQEND
  5
13F
330
13C
100
AcDbEntity
  8
Layer 1
 62
   250
420
  2301728
370
    25
  0
POLYLINE
  5
140
330
45
100
AcDbEntity
  8
Layer 1
 62
   250
420
  2301728
370
    40
100
AcDb2dPolyline
 66
     1
 10
0.0
 20
0.0
 30
0.0
  0
VERTEX
  5
141
330
140
100
AcDbEntity
  8
Layer 1
 62
   250
420
  2301728
370
    40
100
AcDbVertex
100
AcDb2dVertex
 10
4.08268752833606
 20
2.994808533737442
 30
0.0
  0
VERTEX
  5
142
330
140
100
AcDbEntity
  8
Layer 1
 62
   250
420
  2301728
370
    40
100
AcDbVertex
100
AcDb2dVertex
 10
4.100021357796777
 20
2.953220022455879
 30
0.0
  0
SEQEND
  5
143
330
140
100
AcDbEntity
  8
Layer 1
 62
   250
420
  2301728
370
    40
  0
POLYLINE
  5
144
330
45
100
AcDbEntity
  8
Layer 1
 62
   250
420
  2301728
370
    30
100
AcDb2dPolyline
 66
     1
 10
0.0
 20
0.0
 30
0.0
  0
VERTEX
  5
145
330
144
100
AcDbEntity
  8
Layer 1
 62
   250
420
  2301728
370
    30
100
AcDbVertex
100
AcDb2dVertex
 10
4.09955677439186
 20
2.950129724284175
 30
0.0
  0
VERTEX
  5
146
330
144
100
AcDbEntity
  8
Layer 1
 62
   250
420
  2301728
370
    30
100
AcDbVertex
100
AcDb2dVertex
 10
4.101981385449865
 20
2.939653038592698
 30
0.0
  0
SEQEND
  5
147
330
144
100
AcDbEntity
  8
Layer 1
 62
   250
420
  2301728
370
    30
  0
POLYLINE
  5
148
330
45
100
AcDbEntity
  8
Layer 1
 62
   250
420
  2301728
370
    30
100
AcDb2dPolyline
 66
     1
 10
0.0
 20
0.0
 30
0.0
  0
VERTEX
  5
149
330
148
100
AcDbEntity
  8
Layer 1
 62
   250
420
  2301728
370
    30
100
AcDbVertex
100
AcDb2dVertex
 10
3.922958482339317
 20
3.048822880706767
 30
0.0
  0
VERTEX
  5
14A
330
148
100
AcDbEntity
  8
Layer 1
 62
   250
420
  2301728
370
    30
100
AcDbVertex
100
AcDb2dVertex
 10
4.080003716886444
 20
2.99867575810966
 30
0.0
  0
SEQEND
  5
14B
330
148
100
AcDbEntity
  8
Layer 1
 62
   250
420
  2301728
370
    30
  0
POLYLINE
  5
14C
330
45
100
AcDbEntity
  8
Layer 1
 62
   250
420
  2301728
370
    20
100
AcDb2dPolyline
 66
     1
 10
0.0
 20
0.0
 30
0.0
  0
VERTEX
  5
14D
330
14C
100
AcDbEntity
  8
Layer 1
 62
   250
420
  2301728
370
    20
100
AcDbVertex
100
AcDb2dVertex
 10
4.077013486019445
 20
2.97736904240863
 30
0.0
  0
VERTEX
  5
14E
330
14C
100
AcDbEntity
  8
Layer 1
 62
   250
420
  2301728
370
    20
100
AcDbVertex
100
AcDb2dVertex
 10
4.083046778687579
 20
2.97736904240863
 30
0.0
  0
SEQEND
  5
14F
330
14C
100
AcDbEntity
  8
Layer 1
 62
   250
420
  2301728
370
    20
  0
POLYLINE
  5
150
330
45
100
AcDbEntity
  8
Layer 1
 62
   250
420
  2301728
370
    20
100
AcDb2dPolyline
 66
     1
 10
0.0
 20
0.0
 30
0.0
  0
VERTEX
  5
151
330
150
100
AcDbEntity
  8
Layer 1
 62
   250
420
  2301728
370
    20
100
AcDbVertex
100
AcDb2dVertex
 10
3.874565346752547
 20
3.042065804242182
 30
0.0
  0
VERTEX
  5
152
330
150
100
AcDbEntity
  8
Layer 1
 62
   250
420
  2301728
370
    20
100
AcDbVertex
100
AcDb2dVertex
 10
3.919709379895456
 20
3.052489347529596
 30
0.0
  0
SEQEND
  5
153
330
150
100
AcDbEntity
  8
Layer 1
 62
   250
420
  2301728
370
    20
  0
POLYLINE
  5
154
330
45
100
AcDbEntity
  8
Layer 1
 62
   250
420
  2301728
370
    20
100
AcDb2dPolyline
 66
     1
 10
0.0
 20
0.0
 30
0.0
  0
VERTEX
  5
155
330
154
100
AcDbEntity
  8
Layer 1
 62
   250
420
  2301728
370
    20
100
AcDbVertex
100
AcDb2dVertex
 10
3.874565346752547
 20
3.039588033435393
 30
0.0
  0
VERTEX
  5
156
330
154
100
AcDbEntity
  8
Layer 1
 62
   250
420
  2301728
370
    20
100
AcDbVertex
100
AcDb2dVertex
 10
3.872705697874115
 20
3.024161400693755
 30
0.0
  0
VERTEX
  5
157
330
154
100
AcDbEntity
  8
Layer 1
 62
   250
420
  2301728
370
    20
100
AcDbVertex
100
AcDb2dVertex
 10
3.903247260846506
 20
3.030923760251729
 30
0.0
  0
SEQEND
  5
158
330
154
100
AcDbEntity
  8
Layer 1
 62
   250
420
  2301728
370
    20
  0
SPLINE
  5
159
330
45
100
AcDbEntity
  8
Layer 1
 62
   250
420
  2301728
370
    20
100
AcDbSpline
210
0.0
220
0.0
230
1.0
 70
     8
 71
     3
 72
     8
 73
     4
 74
     0
 42
0.0000000001
 43
0.0000000001
 12
1.0
 22
0.0
 32
0.0
 13
1.0
 23
0.0
 33
0.0
 40
0.0
 40
0.0
 40
0.0
 40
0.0
 40
1.0
 40
1.0
 40
1.0
 40
1.0
 10
3.90443595686256
 20
3.047586636850054
 30
0.0
 10
3.906860896735288
 20
3.042631095236477
 30
0.0
 10
3.908715262520332
 20
3.035203065909526
 30
0.0
 10
3.908715262520332
 20
3.033449078899164
 30
0.0
  0
SPLINE
  5
15A
330
45
100
AcDbEntity
  8
Layer 1
 62
   250
420
  2301728
370
    20
100
AcDbSpline
210
0.0
220
0.0
230
1.0
 70
     8
 71
     3
 72
     8
 73
     4
 74
     0
 42
0.0000000001
 43
0.0000000001
 12
1.0
 22
0.0
 32
0.0
 13
1.0
 23
0.0
 33
0.0
 40
0.0
 40
0.0
 40
0.0
 40
0.0
 40
1.0
 40
1.0
 40
1.0
 40
1.0
 10
3.91852068387939
 20
3.047586636850054
 30
0.0
 10
3.911092654552463
 20
3.043249217164834
 30
0.0
 10
3.908097464570055
 20
3.039588033435393
 30
0.0
 10
3.908097464570055
 20
3.039588033435393
 30
0.0
  0
POLYLINE
  5
15B
330
45
100
AcDbEntity
  8
Layer 1
 62
   250
420
  2301728
370
    25
100
AcDb2dPolyline
 66
     1
 10
0.0
 20
0.0
 30
0.0
  0
VERTEX
  5
15C
330
15B
100
AcDbEntity
  8
Layer 1
 62
   250
420
  2301728
370
    25
100
AcDbVertex
100
AcDb2dVertex
 10
3.871517001858074
 20
3.023490447831364
 30
0.0
  0
VERTEX
  5
15D
330
15B
100
AcDbEntity
  8
Layer 1
 62
   250
420
  2301728
370
    25
100
AcDbVertex
100
AcDb2dVertex
 10
3.864707094459454
 20
3.017922067382844
 30
0.0
  0
SEQEND
  5
15E
330
15B
100
AcDbEntity
  8
Layer 1
 62
   250
420
  2301728
370
    25
  0
SPLINE
  5
15F
330
45
100
AcDbEntity
  8
Layer 1
370
     0
100
AcDbSpline
210
0.0
220
0.0
230
1.0
 70
    11
 71
     3
 72
    44
 73
    40
 74
     0
 42
0.0000000001
 43
0.0000000001
 12
1.0
 22
0.0
 32
0.0
 13
1.0
 23
0.0
 33
0.0
 40
0.0
 40
0.0
 40
0.0
 40
0.0
 40
1.0
 40
1.0
 40
1.0
 40
2.0
 40
2.0
 40
2.0
 40
3.0
 40
3.0
 40
3.0
 40
4.0
 40
4.0
 40
4.0
 40
5.0
 40
5.0
 40
5.0
 40
6.0
 40
6.0
 40
6.0
 40
7.0
 40
7.0
 40
7.0
 40
8.0
 40
8.0
 40
8.0
 40
9.0
 40
9.0
 40
9.0
 40
10.0
 40
10.0
 40
10.0
 40
11.0
 40
11.0
 40
11.0
 40
12.0
 40
12.0
 40
12.0
 40
13.0
 40
13.0
 40
13.0
 40
13.0
 10
3.829262820807533
 20
3.105938403504625
 30
0.0
 10
3.831222848460672
 20
3.105938403504625
 30
0.0
 10
3.832823625762267
 20
3.104696876554524
 30
0.0
 10
3.834112700553014
 20
3.104543666845782
 30
0.0
 10
3.840716567308858
 20
3.103666673340614
 30
0.0
 10
3.847478926866832
 20
3.106403631142004
 30
0.0
 10
3.854029962688615
 20
3.104543666845782
 30
0.0
 10
3.858261720505741
 20
3.103307422989094
 30
0.0
 10
3.860322126933561
 20
3.099899827743077
 30
0.0
 10
3.863058769317174
 20
3.097009975650735
 30
0.0
 10
3.863830100954298
 20
3.095979772436825
 30
0.0
 10
3.865378047321845
 20
3.095102778931656
 30
0.0
 10
3.866413856554232
 20
3.094172954492428
 30
0.0
 10
3.865689749832717
 20
3.092524629350161
 30
0.0
 10
3.866101831118284
 20
3.090770642339824
 30
0.0
 10
3.865018796970313
 20
3.089428736615041
 30
0.0
 10
3.865018796970313
 20
3.089428736615041
 30
0.0
 10
3.863624060311483
 20
3.089428736615041
 30
0.0
 10
3.863624060311483
 20
3.089428736615041
 30
0.0
 10
3.862852728674422
 20
3.089117034104144
 30
0.0
 10
3.86125195137279
 20
3.08710417551697
 30
0.0
 10
3.860221748158879
 20
3.086639263297355
 30
0.0
 10
3.857538259410186
 20
3.085508681308764
 30
0.0
 10
3.855884328473646
 20
3.08612680323712
 30
0.0
 10
3.852688056963832
 20
3.085249809731926
 30
0.0
 10
3.850828730616727
 20
3.084837728446372
 30
0.0
 10
3.847114393421899
 20
3.082872417699845
 30
0.0
 10
3.845053986994079
 20
3.082513167348325
 30
0.0
 10
3.840098445380502
 20
3.081741835711227
 30
0.0
 10
3.834942146217549
 20
3.082254295771488
 30
0.0
 10
3.830710388400411
 20
3.082513167348325
 30
0.0
 10
3.825807677720869
 20
3.082872417699845
 30
0.0
 10
3.820286845112996
 20
3.08153579506845
 30
0.0
 10
3.81554262723561
 20
3.082513167348325
 30
0.0
 10
3.811928991346816
 20
3.083289782078812
 30
0.0
 10
3.80558399616781
 20
3.089581946323758
 30
0.0
 10
3.805224745816291
 20
3.093502001630036
 30
0.0
 10
3.804500962019865
 20
3.101965832570032
 30
0.0
 10
3.820492885755773
 20
3.106091613213342
 30
0.0
 10
3.829262820807533
 20
3.105938403504625
 30
0.0
  0
HATCH
  5
160
330
45
100
AcDbEntity
  8
Layer 1
 62
   250
420
  2301728
100
AcDbHatch
 10
0.0
 20
0.0
 30
0.0
210
0.0
220
0.0
230
1.0
  2
SOLID
 70
     1
 71
     0
 91
        1
 92
        1
 93
        2
 72
     4
 94
        3
 73
     0
 74
     0
 95
       44
 96
       40
 40
0.0
 40
0.0
 40
0.0
 40
0.0
 40
0.0138888888888889
 40
0.0138888888888889
 40
0.0138888888888889
 40
0.0277777777777778
 40
0.0277777777777778
 40
0.0277777777777778
 40
0.0416666666666667
 40
0.0416666666666667
 40
0.0416666666666667
 40
0.0555555555555556
 40
0.0555555555555556
 40
0.0555555555555556
 40
0.0694444444444444
 40
0.0694444444444444
 40
0.0694444444444444
 40
0.0833333333333333
 40
0.0833333333333333
 40
0.0833333333333333
 40
0.0972222222222222
 40
0.0972222222222222
 40
0.0972222222222222
 40
0.1111111111111111
 40
0.1111111111111111
 40
0.1111111111111111
 40
0.125
 40
0.125
 40
0.125
 40
0.1388888888888889
 40
0.1388888888888889
 40
0.1388888888888889
 40
0.1527777777777778
 40
0.1527777777777778
 40
0.1527777777777778
 40
0.1666666666666667
 40
0.1666666666666667
 40
0.1666666666666667
 40
0.1805555555555556
 40
0.1805555555555556
 40
0.1805555555555556
 40
0.1805555555555556
 10
3.829262820807533
 20
3.105938403504625
 10
3.831222848460672
 20
3.105938403504625
 10
3.832823625762267
 20
3.104696876554524
 10
3.834112700553014
 20
3.104543666845782
 10
3.840716567308858
 20
3.103666673340614
 10
3.847478926866832
 20
3.106403631142004
 10
3.854029962688615
 20
3.104543666845782
 10
3.858261720505741
 20
3.103307422989094
 10
3.860322126933561
 20
3.099899827743077
 10
3.863058769317174
 20
3.097009975650735
 10
3.863830100954298
 20
3.095979772436825
 10
3.865378047321845
 20
3.095102778931656
 10
3.866413856554232
 20
3.094172954492428
 10
3.865689749832717
 20
3.092524629350161
 10
3.866101831118284
 20
3.090770642339824
 10
3.865018796970313
 20
3.089428736615041
 10
3.865018796970313
 20
3.089428736615041
 10
3.863624060311483
 20
3.089428736615041
 10
3.863624060311483
 20
3.089428736615041
 10
3.862852728674422
 20
3.089117034104144
 10
3.86125195137279
 20
3.08710417551697
 10
3.860221748158879
 20
3.086639263297355
 10
3.857538259410186
 20
3.085508681308764
 10
3.855884328473646
 20
3.08612680323712
 10
3.852688056963832
 20
3.085249809731926
 10
3.850828730616727
 20
3.084837728446372
 10
3.847114393421899
 20
3.082872417699845
 10
3.845053986994079
 20
3.082513167348325
 10
3.840098445380502
 20
3.081741835711227
 10
3.834942146217549
 20
3.082254295771488
 10
3.830710388400411
 20
3.082513167348325
 10
3.825807677720869
 20
3.082872417699845
 10
3.820286845112996
 20
3.08153579506845
 10
3.81554262723561
 20
3.082513167348325
 10
3.811928991346816
 20
3.083289782078812
 10
3.80558399616781
 20
3.089581946323758
 10
3.805224745816291
 20
3.093502001630036
 10
3.804500962019865
 20
3.101965832570032
 10
3.820492885755773
 20
3.106091613213342
 10
3.829262820807533
 20
3.105938403504625
 97
        0
 72
     1
 10
3.829262820807533
 20
3.105938403504625
 11
3.829262820807533
 21
3.105938403504625
 97
        0
 75
     2
 76
     1
 98
        0
  0
SPLINE
  5
161
330
45
100
AcDbEntity
  8
Layer 1
370
     0
100
AcDbSpline
210
0.0
220
0.0
230
1.0
 70
    11
 71
     3
 72
    32
 73
    28
 74
     0
 42
0.0000000001
 43
0.0000000001
 12
1.0
 22
0.0
 32
0.0
 13
1.0
 23
0.0
 33
0.0
 40
0.0
 40
0.0
 40
0.0
 40
0.0
 40
1.0
 40
1.0
 40
1.0
 40
2.0
 40
2.0
 40
2.0
 40
3.0
 40
3.0
 40
3.0
 40
4.0
 40
4.0
 40
4.0
 40
5.0
 40
5.0
 40
5.0
 40
6.0
 40
6.0
 40
6.0
 40
7.0
 40
7.0
 40
7.0
 40
8.0
 40
8.0
 40
8.0
 40
9.0
 40
9.0
 40
9.0
 40
9.0
 10
4.206148138109711
 20
2.982166091220051
 30
0.0
 10
4.21394070088162
 20
2.982990566091328
 30
0.0
 10
4.228025427898451
 20
2.980930159611413
 30
0.0
 10
4.23364663928103
 20
2.97875849597406
 30
0.0
 10
4.237984058966251
 20
2.977004508963697
 30
0.0
 10
4.241285992344173
 20
2.975044481310559
 30
0.0
 10
4.242522236200835
 20
2.970400642207854
 30
0.0
 10
4.243246019997311
 20
2.968340235780059
 30
0.0
 10
4.244276223211222
 20
2.962507700661288
 30
0.0
 10
4.243298850931347
 20
2.960806544584986
 30
0.0
 10
4.242004493047211
 20
2.958587645355035
 30
0.0
 10
4.215076565963601
 20
2.955856286064823
 30
0.0
 10
4.208884780493311
 20
2.956680760271461
 30
0.0
 10
4.205065103961766
 20
2.957245739630253
 30
0.0
 10
4.200421264859061
 20
2.959823889211723
 30
0.0
 10
4.197277824283295
 20
2.960806544584986
 30
0.0
 10
4.195058925053319
 20
2.961530328381438
 30
0.0
 10
4.193817398103217
 20
2.960653334876244
 30
0.0
 10
4.191756991675397
 20
2.961530328381438
 30
0.0
 10
4.190103383439742
 20
2.962148450309769
 30
0.0
 10
4.189279220868634
 20
2.964108477962908
 30
0.0
 10
4.188249017654723
 20
2.965656424330468
 30
0.0
 10
4.184323679255057
 20
2.971848209800757
 30
0.0
 10
4.188814308648994
 20
2.974891271601841
 30
0.0
 10
4.193717019328536
 20
2.978039995271021
 30
0.0
 10
4.195571385113555
 20
2.979175860353027
 30
0.0
 10
4.203723198236982
 20
2.981854388709179
 30
0.0
 10
4.206148138109711
 20
2.982166091220051
 30
0.0
  0
HATCH
  5
162
330
45
100
AcDbEntity
  8
Layer 1
 62
   250
420
  2301728
100
AcDbHatch
 10
0.0
 20
0.0
 30
0.0
210
0.0
220
0.0
230
1.0
  2
SOLID
 70
     1
 71
     0
 91
        1
 92
        1
 93
        2
 72
     4
 94
        3
 73
     0
 74
     0
 95
       32
 96
       28
 40
0.0
 40
0.0
 40
0.0
 40
0.0
 40
0.0138888888888889
 40
0.0138888888888889
 40
0.0138888888888889
 40
0.0277777777777778
 40
0.0277777777777778
 40
0.0277777777777778
 40
0.0416666666666667
 40
0.0416666666666667
 40
0.0416666666666667
 40
0.0555555555555556
 40
0.0555555555555556
 40
0.0555555555555556
 40
0.0694444444444444
 40
0.0694444444444444
 40
0.0694444444444444
 40
0.0833333333333333
 40
0.0833333333333333
 40
0.0833333333333333
 40
0.0972222222222222
 40
0.0972222222222222
 40
0.0972222222222222
 40
0.1111111111111111
 40
0.1111111111111111
 40
0.1111111111111111
 40
0.125
 40
0.125
 40
0.125
 40
0.125
 10
4.206148138109711
 20
2.982166091220051
 10
4.21394070088162
 20
2.982990566091328
 10
4.228025427898451
 20
2.980930159611413
 10
4.23364663928103
 20
2.97875849597406
 10
4.237984058966251
 20
2.977004508963697
 10
4.241285992344173
 20
2.975044481310559
 10
4.242522236200835
 20
2.970400642207854
 10
4.243246019997311
 20
2.968340235780059
 10
4.244276223211222
 20
2.962507700661288
 10
4.243298850931347
 20
2.960806544584986
 10
4.242004493047211
 20
2.958587645355035
 10
4.215076565963601
 20
2.955856286064823
 10
4.208884780493311
 20
2.956680760271461
 10
4.205065103961766
 20
2.957245739630253
 10
4.200421264859061
 20
2.959823889211723
 10
4.197277824283295
 20
2.960806544584986
 10
4.195058925053319
 20
2.961530328381438
 10
4.193817398103217
 20
2.960653334876244
 10
4.191756991675397
 20
2.961530328381438
 10
4.190103383439742
 20
2.962148450309769
 10
4.189279220868634
 20
2.964108477962908
 10
4.188249017654723
 20
2.965656424330468
 10
4.184323679255057
 20
2.971848209800757
 10
4.188814308648994
 20
2.974891271601841
 10
4.193717019328536
 20
2.978039995271021
 10
4.195571385113555
 20
2.979175860353027
 10
4.203723198236982
 20
2.981854388709179
 10
4.206148138109711
 20
2.982166091220051
 97
        0
 72
     1
 10
4.206148138109711
 20
2.982166091220051
 11
4.206148138109711
 21
2.982166091220051
 97
        0
 75
     2
 76
     1
 98
        0
  0
SPLINE
  5
163
330
45
100
AcDbEntity
  8
Layer 1
370
     0
100
AcDbSpline
210
0.0
220
0.0
230
1.0
 70
    11
 71
     3
 72
    77
 73
    73
 74
     0
 42
0.0000000001
 43
0.0000000001
 12
1.0
 22
0.0
 32
0.0
 13
1.0
 23
0.0
 33
0.0
 40
0.0
 40
0.0
 40
0.0
 40
0.0
 40
1.0
 40
1.0
 40
1.0
 40
2.0
 40
2.0
 40
2.0
 40
3.0
 40
3.0
 40
3.0
 40
4.0
 40
4.0
 40
4.0
 40
5.0
 40
5.0
 40
5.0
 40
6.0
 40
6.0
 40
6.0
 40
7.0
 40
7.0
 40
7.0
 40
8.0
 40
8.0
 40
8.0
 40
9.0
 40
9.0
 40
9.0
 40
10.0
 40
10.0
 40
10.0
 40
11.0
 40
11.0
 40
11.0
 40
12.0
 40
12.0
 40
12.0
 40
13.0
 40
13.0
 40
13.0
 40
14.0
 40
14.0
 40
14.0
 40
15.0
 40
15.0
 40
15.0
 40
16.0
 40
16.0
 40
16.0
 40
17.0
 40
17.0
 40
17.0
 40
18.0
 40
18.0
 40
18.0
 40
19.0
 40
19.0
 40
19.0
 40
20.0
 40
20.0
 40
20.0
 40
21.0
 40
21.0
 40
21.0
 40
22.0
 40
22.0
 40
22.0
 40
23.0
 40
23.0
 40
23.0
 40
24.0
 40
24.0
 40
24.0
 40
24.0
 10
3.834836484349466
 20
4.224723244530878
 30
0.0
 10
3.840716567308858
 20
4.224982116107715
 30
0.0
 10
3.857897187060833
 20
4.221062060801438
 30
0.0
 10
3.860221748158879
 20
4.217860849693781
 30
0.0
 10
3.860528167576363
 20
4.217400877072022
 30
0.0
 10
3.860116086290772
 20
4.216265011990016
 30
0.0
 10
3.860221748158879
 20
4.215800443213968
 30
0.0
 10
3.860322126933561
 20
4.215388018484822
 30
0.0
 10
3.862234606746053
 20
4.213528712992507
 30
0.0
 10
3.862282154586687
 20
4.213015909546129
 30
0.0
 10
3.863418019668706
 20
4.208419618284071
 30
0.0
 10
3.861976057982209
 20
4.204911644263372
 30
0.0
 10
3.862282154586687
 20
4.201350839308639
 30
0.0
 10
3.862387816454795
 20
4.200167426385987
 30
0.0
 10
3.864089295397447
 20
4.196865493008064
 30
0.0
 10
3.864347844107935
 20
4.195883180575189
 30
0.0
 10
3.864913135102231
 20
4.192945437701812
 30
0.0
 10
3.864089295397447
 20
4.190826917246542
 30
0.0
 10
3.865071627904361
 20
4.188248767665047
 30
0.0
 10
3.865277668547163
 20
4.187731024511398
 30
0.0
 10
3.866978824623478
 20
4.186135530303192
 30
0.0
 10
3.867132034332182
 20
4.185512125281447
 30
0.0
 10
3.867855818128633
 20
4.181750562777324
 30
0.0
 10
3.867132034332182
 20
4.17710672367462
 30
0.0
 10
3.867132034332182
 20
4.173133837434307
 30
0.0
 10
3.867237696200277
 20
4.175505946373
 30
0.0
 10
3.868632755840256
 20
4.167560173892373
 30
0.0
 10
3.867132034332182
 20
4.164205409580417
 30
0.0
 10
3.866772783980663
 20
4.163534456718025
 30
0.0
 10
3.855112996836561
 20
4.155641515171434
 30
0.0
 10
3.854029962688615
 20
4.155282264819915
 30
0.0
 10
3.849438954519971
 20
4.153787149386416
 30
0.0
 10
3.846237399916731
 20
4.155123772017784
 30
0.0
 10
3.842317344610453
 20
4.154611311957524
 30
0.0
 10
3.839168620941273
 20
4.154199572559315
 30
0.0
 10
3.836331599782978
 20
4.151256547645567
 30
0.0
 10
3.833394521940906
 20
4.150485216008494
 30
0.0
 10
3.82998660460396
 20
4.149555391569265
 30
0.0
 10
3.813682978357178
 20
4.14841952648726
 30
0.0
 10
3.810074625561772
 20
4.149037648415616
 30
0.0
 10
3.8045537929539
 20
4.150173513497622
 30
0.0
 10
3.799751461049065
 20
4.158584540195989
 30
0.0
 10
3.798362007483636
 20
4.163534456718025
 30
0.0
 10
3.797379352110372
 20
4.16657751851911
 30
0.0
 10
3.798050626170821
 20
4.168384336463506
 30
0.0
 10
3.796967270824792
 20
4.171068147913072
 30
0.0
 10
3.796195939187719
 20
4.172822134923434
 30
0.0
 10
3.79423591153458
 20
4.174887824444643
 30
0.0
 10
3.793564958672189
 20
4.176588980520945
 30
0.0
 10
3.791858519502473
 20
4.18061504024998
 30
0.0
 10
3.79170530979377
 20
4.184017009847922
 30
0.0
 10
3.790051701558089
 20
4.188248767665047
 30
0.0
 10
3.788609417058612
 20
4.19222165390536
 30
0.0
 10
3.784790061390102
 20
4.198413439375624
 30
0.0
 10
3.785925605609047
 20
4.204811608654634
 30
0.0
 10
3.786237308119919
 20
4.206872015134548
 30
0.0
 10
3.789175029026751
 20
4.208784151729004
 30
0.0
 10
3.790051701558089
 20
4.210279267162528
 30
0.0
 10
3.790469065937069
 20
4.21095022002492
 30
0.0
 10
3.790157363426172
 20
4.212550997326515
 30
0.0
 10
3.790675106579847
 20
4.213015909546129
 30
0.0
 10
3.793771320404946
 20
4.215800443213968
 30
0.0
 10
3.796555189539238
 20
4.214870275331173
 30
0.0
 10
3.801817150570274
 20
4.215800443213968
 30
0.0
 10
3.804395300151769
 20
4.216265011990016
 30
0.0
 10
3.808627057968895
 20
4.218843161571487
 30
0.0
 10
3.811364021886889
 20
4.219202411923005
 30
0.0
 10
3.814924505307254
 20
4.219772986010715
 30
0.0
 10
3.818015114948985
 20
4.219049202214263
 30
0.0
 10
3.821010628909448
 20
4.219926195719432
 30
0.0
 10
3.825189555792538
 20
4.221162439576144
 30
0.0
 10
3.829009554304283
 20
4.224464716616441
 30
0.0
 10
3.834836484349466
 20
4.224723244530878
 30
0.0
  0
SPLINE
  5
164
330
45
100
AcDbEntity
  8
Layer 1
370
     0
100
AcDbSpline
210
0.0
220
0.0
230
1.0
 70
    11
 71
     3
 72
    29
 73
    25
 74
     0
 42
0.0000000001
 43
0.0000000001
 12
1.0
 22
0.0
 32
0.0
 13
1.0
 23
0.0
 33
0.0
 40
0.0
 40
0.0
 40
0.0
 40
0.0
 40
1.0
 40
1.0
 40
1.0
 40
2.0
 40
2.0
 40
2.0
 40
3.0
 40
3.0
 40
3.0
 40
4.0
 40
4.0
 40
4.0
 40
5.0
 40
5.0
 40
5.0
 40
6.0
 40
6.0
 40
6.0
 40
7.0
 40
7.0
 40
7.0
 40
8.0
 40
8.0
 40
8.0
 40
8.0
 10
3.828544320104495
 20
4.206153171213474
 30
0.0
 10
3.820286845112996
 20
4.205529766191729
 30
0.0
 10
3.812858815786045
 20
4.203157657253036
 30
0.0
 10
3.805842867744647
 20
4.201350839308639
 30
0.0
 10
3.804965874239453
 20
4.195164336931763
 30
0.0
 10
3.805842867744647
 20
4.185718165924223
 30
0.0
 10
3.808008936040563
 20
4.180044123607609
 30
0.0
 10
3.808627057968895
 20
4.178343310028595
 30
0.0
 10
3.810692747490129
 20
4.176277278010073
 30
0.0
 10
3.811364021886889
 20
4.174523290999736
 30
0.0
 10
3.81254711327516
 20
4.171480229198652
 30
0.0
 10
3.812135031989593
 20
4.167713383601115
 30
0.0
 10
3.814818843439184
 20
4.166271099101626
 30
0.0
 10
3.816107918229906
 20
4.165600146239234
 30
0.0
 10
3.817708695531526
 20
4.165547315305199
 30
0.0
 10
3.819668723184666
 20
4.165600146239234
 30
0.0
 10
3.822505744342973
 20
4.165753355947976
 30
0.0
 10
3.841646391748049
 20
4.17401117332732
 30
0.0
 10
3.842317344610453
 20
4.175194243862127
 30
0.0
 10
3.845101534834725
 20
4.180562209314581
 30
0.0
 10
3.840151276314575
 20
4.19954930445763
 30
0.0
 10
3.839633533160888
 20
4.204811608654634
 30
0.0
 10
3.836590471359803
 20
4.20568825899386
 30
0.0
 10
3.8331881592072
 20
4.206565252499027
 30
0.0
 10
3.828544320104495
 20
4.206153171213474
 30
0.0
  0
HATCH
  5
165
330
45
100
AcDbEntity
  8
Layer 1
 62
   250
420
  2301728
100
AcDbHatch
 10
0.0
 20
0.0
 30
0.0
210
0.0
220
0.0
230
1.0
  2
SOLID
 70
     1
 71
     0
 91
        2
 92
        1
 93
        2
 72
     4
 94
        3
 73
     0
 74
     0
 95
       77
 96
       73
 40
0.0
 40
0.0
 40
0.0
 40
0.0
 40
0.0138888888888889
 40
0.0138888888888889
 40
0.0138888888888889
 40
0.0277777777777778
 40
0.0277777777777778
 40
0.0277777777777778
 40
0.0416666666666667
 40
0.0416666666666667
 40
0.0416666666666667
 40
0.0555555555555556
 40
0.0555555555555556
 40
0.0555555555555556
 40
0.0694444444444444
 40
0.0694444444444444
 40
0.0694444444444444
 40
0.0833333333333333
 40
0.0833333333333333
 40
0.0833333333333333
 40
0.0972222222222222
 40
0.0972222222222222
 40
0.0972222222222222
 40
0.1111111111111111
 40
0.1111111111111111
 40
0.1111111111111111
 40
0.125
 40
0.125
 40
0.125
 40
0.1388888888888889
 40
0.1388888888888889
 40
0.1388888888888889
 40
0.1527777777777778
 40
0.1527777777777778
 40
0.1527777777777778
 40
0.1666666666666667
 40
0.1666666666666667
 40
0.1666666666666667
 40
0.1805555555555556
 40
0.1805555555555556
 40
0.1805555555555556
 40
0.1944444444444444
 40
0.1944444444444444
 40
0.1944444444444444
 40
0.2083333333333333
 40
0.2083333333333333
 40
0.2083333333333333
 40
0.2222222222222222
 40
0.2222222222222222
 40
0.2222222222222222
 40
0.2361111111111111
 40
0.2361111111111111
 40
0.2361111111111111
 40
0.25
 40
0.25
 40
0.25
 40
0.2638888888888889
 40
0.2638888888888889
 40
0.2638888888888889
 40
0.2777777777777778
 40
0.2777777777777778
 40
0.2777777777777778
 40
0.2916666666666666
 40
0.2916666666666666
 40
0.2916666666666666
 40
0.3055555555555555
 40
0.3055555555555555
 40
0.3055555555555555
 40
0.3194444444444444
 40
0.3194444444444444
 40
0.3194444444444444
 40
0.3333333333333333
 40
0.3333333333333333
 40
0.3333333333333333
 40
0.3333333333333333
 10
3.834836484349466
 20
4.224723244530878
 10
3.840716567308858
 20
4.224982116107715
 10
3.857897187060833
 20
4.221062060801438
 10
3.860221748158879
 20
4.217860849693781
 10
3.860528167576363
 20
4.217400877072022
 10
3.860116086290772
 20
4.216265011990016
 10
3.860221748158879
 20
4.215800443213968
 10
3.860322126933561
 20
4.215388018484822
 10
3.862234606746053
 20
4.213528712992507
 10
3.862282154586687
 20
4.213015909546129
 10
3.863418019668706
 20
4.208419618284071
 10
3.861976057982209
 20
4.204911644263372
 10
3.862282154586687
 20
4.201350839308639
 10
3.862387816454795
 20
4.200167426385987
 10
3.864089295397447
 20
4.196865493008064
 10
3.864347844107935
 20
4.195883180575189
 10
3.864913135102231
 20
4.192945437701812
 10
3.864089295397447
 20
4.190826917246542
 10
3.865071627904361
 20
4.188248767665047
 10
3.865277668547163
 20
4.187731024511398
 10
3.866978824623478
 20
4.186135530303192
 10
3.867132034332182
 20
4.185512125281447
 10
3.867855818128633
 20
4.181750562777324
 10
3.867132034332182
 20
4.17710672367462
 10
3.867132034332182
 20
4.173133837434307
 10
3.867237696200277
 20
4.175505946373
 10
3.868632755840256
 20
4.167560173892373
 10
3.867132034332182
 20
4.164205409580417
 10
3.866772783980663
 20
4.163534456718025
 10
3.855112996836561
 20
4.155641515171434
 10
3.854029962688615
 20
4.155282264819915
 10
3.849438954519971
 20
4.153787149386416
 10
3.846237399916731
 20
4.155123772017784
 10
3.842317344610453
 20
4.154611311957524
 10
3.839168620941273
 20
4.154199572559315
 10
3.836331599782978
 20
4.151256547645567
 10
3.833394521940906
 20
4.150485216008494
 10
3.82998660460396
 20
4.149555391569265
 10
3.813682978357178
 20
4.14841952648726
 10
3.810074625561772
 20
4.149037648415616
 10
3.8045537929539
 20
4.150173513497622
 10
3.799751461049065
 20
4.158584540195989
 10
3.798362007483636
 20
4.163534456718025
 10
3.797379352110372
 20
4.16657751851911
 10
3.798050626170821
 20
4.168384336463506
 10
3.796967270824792
 20
4.171068147913072
 10
3.796195939187719
 20
4.172822134923434
 10
3.79423591153458
 20
4.174887824444643
 10
3.793564958672189
 20
4.176588980520945
 10
3.791858519502473
 20
4.18061504024998
 10
3.79170530979377
 20
4.184017009847922
 10
3.790051701558089
 20
4.188248767665047
 10
3.788609417058612
 20
4.19222165390536
 10
3.784790061390102
 20
4.198413439375624
 10
3.785925605609047
 20
4.204811608654634
 10
3.786237308119919
 20
4.206872015134548
 10
3.789175029026751
 20
4.208784151729004
 10
3.790051701558089
 20
4.210279267162528
 10
3.790469065937069
 20
4.21095022002492
 10
3.790157363426172
 20
4.212550997326515
 10
3.790675106579847
 20
4.213015909546129
 10
3.793771320404946
 20
4.215800443213968
 10
3.796555189539238
 20
4.214870275331173
 10
3.801817150570274
 20
4.215800443213968
 10
3.804395300151769
 20
4.216265011990016
 10
3.808627057968895
 20
4.218843161571487
 10
3.811364021886889
 20
4.219202411923005
 10
3.814924505307254
 20
4.219772986010715
 10
3.818015114948985
 20
4.219049202214263
 10
3.821010628909448
 20
4.219926195719432
 10
3.825189555792538
 20
4.221162439576144
 10
3.829009554304283
 20
4.224464716616441
 10
3.834836484349466
 20
4.224723244530878
 97
        0
 72
     1
 10
3.834836484349466
 20
4.224723244530878
 11
3.834836484349466
 21
4.224723244530878
 97
        0
 92
        1
 93
        2
 72
     4
 94
        3
 73
     0
 74
     0
 95
       29
 96
       25
 40
0.0
 40
0.0
 40
0.0
 40
0.0
 40
0.0138888888888889
 40
0.0138888888888889
 40
0.0138888888888889
 40
0.0277777777777778
 40
0.0277777777777778
 40
0.0277777777777778
 40
0.0416666666666667
 40
0.0416666666666667
 40
0.0416666666666667
 40
0.0555555555555556
 40
0.0555555555555556
 40
0.0555555555555556
 40
0.0694444444444444
 40
0.0694444444444444
 40
0.0694444444444444
 40
0.0833333333333333
 40
0.0833333333333333
 40
0.0833333333333333
 40
0.0972222222222222
 40
0.0972222222222222
 40
0.0972222222222222
 40
0.1111111111111111
 40
0.1111111111111111
 40
0.1111111111111111
 40
0.1111111111111111
 10
3.828544320104495
 20
4.206153171213474
 10
3.820286845112996
 20
4.205529766191729
 10
3.812858815786045
 20
4.203157657253036
 10
3.805842867744647
 20
4.201350839308639
 10
3.804965874239453
 20
4.195164336931763
 10
3.805842867744647
 20
4.185718165924223
 10
3.808008936040563
 20
4.180044123607609
 10
3.808627057968895
 20
4.178343310028595
 10
3.810692747490129
 20
4.176277278010073
 10
3.811364021886889
 20
4.174523290999736
 10
3.81254711327516
 20
4.171480229198652
 10
3.812135031989593
 20
4.167713383601115
 10
3.814818843439184
 20
4.166271099101626
 10
3.816107918229906
 20
4.165600146239234
 10
3.817708695531526
 20
4.165547315305199
 10
3.819668723184666
 20
4.165600146239234
 10
3.822505744342973
 20
4.165753355947976
 10
3.841646391748049
 20
4.17401117332732
 10
3.842317344610453
 20
4.175194243862127
 10
3.845101534834725
 20
4.180562209314581
 10
3.840151276314575
 20
4.19954930445763
 10
3.839633533160888
 20
4.204811608654634
 10
3.836590471359803
 20
4.20568825899386
 10
3.8331881592072
 20
4.206565252499027
 10
3.828544320104495
 20
4.206153171213474
 97
        0
 72
     1
 10
3.828544320104495
 20
4.206153171213474
 11
3.828544320104495
 21
4.206153171213474
 97
        0
 75
     2
 76
     1
 98
        0
  0
SPLINE
  5
166
330
45
100
AcDbEntity
  8
Layer 1
370
     0
100
AcDbSpline
210
0.0
220
0.0
230
1.0
 70
    11
 71
     3
 72
   101
 73
    97
 74
     0
 42
0.0000000001
 43
0.0000000001
 12
1.0
 22
0.0
 32
0.0
 13
1.0
 23
0.0
 33
0.0
 40
0.0
 40
0.0
 40
0.0
 40
0.0
 40
1.0
 40
1.0
 40
1.0
 40
2.0
 40
2.0
 40
2.0
 40
3.0
 40
3.0
 40
3.0
 40
4.0
 40
4.0
 40
4.0
 40
5.0
 40
5.0
 40
5.0
 40
6.0
 40
6.0
 40
6.0
 40
7.0
 40
7.0
 40
7.0
 40
8.0
 40
8.0
 40
8.0
 40
9.0
 40
9.0
 40
9.0
 40
10.0
 40
10.0
 40
10.0
 40
11.0
 40
11.0
 40
11.0
 40
12.0
 40
12.0
 40
12.0
 40
13.0
 40
13.0
 40
13.0
 40
14.0
 40
14.0
 40
14.0
 40
15.0
 40
15.0
 40
15.0
 40
16.0
 40
16.0
 40
16.0
 40
17.0
 40
17.0
 40
17.0
 40
18.0
 40
18.0
 40
18.0
 40
19.0
 40
19.0
 40
19.0
 40
20.0
 40
20.0
 40
20.0
 40
21.0
 40
21.0
 40
21.0
 40
22.0
 40
22.0
 40
22.0
 40
23.0
 40
23.0
 40
23.0
 40
24.0
 40
24.0
 40
24.0
 40
25.0
 40
25.0
 40
25.0
 40
26.0
 40
26.0
 40
26.0
 40
27.0
 40
27.0
 40
27.0
 40
28.0
 40
28.0
 40
28.0
 40
29.0
 40
29.0
 40
29.0
 40
30.0
 40
30.0
 40
30.0
 40
31.0
 40
31.0
 40
31.0
 40
32.0
 40
32.0
 40
32.0
 40
32.0
 10
3.812805984851984
 20
3.037886877359091
 30
0.0
 10
3.817190952377877
 20
3.037939708293127
 30
0.0
 10
3.816261127938648
 20
3.035356275618268
 30
0.0
 10
3.818997770322274
 20
3.034431734272453
 30
0.0
 10
3.820751757332611
 20
3.033861160184743
 30
0.0
 10
3.821475541129075
 20
3.035255896843561
 30
0.0
 10
3.822452913408913
 20
3.035102687134844
 30
0.0
 10
3.822452913408913
 20
3.035102687134844
 30
0.0
 10
3.830810767175093
 20
3.032778126036773
 30
0.0
 10
3.832052294125194
 20
3.032313213817158
 30
0.0
 10
3.83287645669634
 20
3.032006794399699
 30
0.0
 10
3.834424403063887
 20
3.029993935812525
 30
0.0
 10
3.835454928420758
 20
3.029581854526946
 30
0.0
 10
3.836696133227898
 20
3.029217634549948
 30
0.0
 10
3.838244079595458
 20
3.02988827394443
 30
0.0
 10
3.839580702226852
 20
3.029581854526946
 30
0.0
 10
3.840204107248597
 20
3.029476192658851
 30
0.0
 10
3.842264513676418
 20
3.027722205648514
 30
0.0
 10
3.843041128406905
 20
3.027516165005737
 30
0.0
 10
3.845518899213693
 20
3.026792381209285
 30
0.0
 10
3.846702312136345
 20
3.027568995939772
 30
0.0
 10
3.849180082943134
 20
3.026845212143346
 30
0.0
 10
3.850622367442598
 20
3.026485961791827
 30
0.0
 10
3.853206122708886
 20
3.024420272270592
 30
0.0
 10
3.854753746485067
 20
3.024061021919073
 30
0.0
 10
3.85547224718808
 20
3.023955360050978
 30
0.0
 10
3.856713774138181
 20
3.024420272270592
 30
0.0
 10
3.857538259410186
 20
3.024061021919073
 30
0.0
 10
3.85815605863767
 20
3.023854981276296
 30
0.0
 10
3.859704327760773
 20
3.022201373040641
 30
0.0
 10
3.860221748158879
 20
3.022048163331899
 30
0.0
 10
3.860940248861918
 20
3.021789291755062
 30
0.0
 10
3.862282154586687
 20
3.022407413683418
 30
0.0
 10
3.863005938383152
 20
3.022048163331899
 30
0.0
 10
3.864036464462035
 20
3.021377210469508
 30
0.0
 10
3.864347844107935
 20
3.019723602233853
 30
0.0
 10
3.865071627904361
 20
3.018593020245235
 30
0.0
 10
3.865172006679068
 20
3.01838169650907
 30
0.0
 10
3.868373561282283
 20
3.013378607054847
 30
0.0
 10
3.86847426303407
 20
3.013072187637363
 30
0.0
 10
3.868679980699767
 20
3.012142363198159
 30
0.0
 10
3.867596946551796
 20
3.011112159984249
 30
0.0
 10
3.867755439353964
 20
3.011059329050188
 30
0.0
 10
3.869509426364289
 20
3.01012950461096
 30
0.0
 10
3.867908649062668
 20
2.992795675150243
 30
0.0
 10
3.867755439353964
 20
2.989028829552732
 30
0.0
 10
3.867702608419891
 20
2.987169180674275
 30
0.0
 10
3.868785642567862
 20
2.986239356235072
 30
0.0
 10
3.86847426303407
 20
2.984902733603677
 30
0.0
 10
3.868373561282283
 20
2.984332159515967
 30
0.0
 10
3.863418019668706
 20
2.977627913985442
 30
0.0
 10
3.863005938383152
 20
2.97731621147457
 30
0.0
 10
3.859497964362453
 20
2.975150143178654
 30
0.0
 10
3.854854125259749
 20
2.976956961123051
 30
0.0
 10
3.849951414580207
 20
2.975974305749787
 30
0.0
 10
3.849333292651876
 20
2.975873926975105
 30
0.0
 10
3.847220055289995
 20
2.974119939964743
 30
0.0
 10
3.846496593915453
 20
2.973908616228578
 30
0.0
 10
3.842164457214203
 20
2.972825582080607
 30
0.0
 10
3.83287645669634
 20
2.971330466647082
 30
0.0
 10
3.829262820807533
 20
2.971124426004306
 30
0.0
 10
3.826372968715191
 20
2.970971216295564
 30
0.0
 10
3.825036346083796
 20
2.972207460152276
 30
0.0
 10
3.821681581771827
 20
2.971848209800757
 30
0.0
 10
3.820286845112996
 20
2.971742547932662
 30
0.0
 10
3.818532858102672
 20
2.970300263433172
 30
0.0
 10
3.816160749163966
 20
2.970453473141914
 30
0.0
 10
3.816160749163966
 20
2.970453473141914
 30
0.0
 10
3.814147890576767
 20
2.971848209800757
 30
0.0
 10
3.814147890576767
 20
2.971848209800757
 30
0.0
 10
3.810122173402419
 20
2.97261954143783
 30
0.0
 10
3.808061766974598
 20
2.97261954143783
 30
0.0
 10
3.803830009157473
 20
2.97319011552554
 30
0.0
 10
3.803571137580636
 20
2.973908616228578
 30
0.0
 10
3.803676799448731
 20
2.975097312244618
 30
0.0
 10
3.803159056295082
 20
2.97525052195336
 30
0.0
 10
3.801093366773848
 20
2.975821096041045
 30
0.0
 10
3.800375187327606
 20
2.974119939964743
 30
0.0
 10
3.799032960346027
 20
2.974579569090969
 30
0.0
 10
3.798203514681493
 20
2.974838440667781
 30
0.0
 10
3.797326521176299
 20
2.977469421183312
 30
0.0
 10
3.796349148896461
 20
2.978092826205057
 30
0.0
 10
3.796349148896461
 20
2.978092826205057
 30
0.0
 10
3.79562536510001
 20
2.978092826205057
 30
0.0
 10
3.79562536510001
 20
2.978092826205057
 30
0.0
 10
3.794283459375227
 20
2.981754009934497
 30
0.0
 10
3.796761230182015
 20
2.990370735277515
 30
0.0
 10
3.796967270824792
 20
2.993154925501762
 30
0.0
 10
3.797585392753149
 20
3.001665988976684
 30
0.0
 10
3.793253256161317
 20
3.022048163331899
 30
0.0
 10
3.797691054621244
 20
3.028910901664555
 30
0.0
 10
3.798927298477931
 20
3.030870929317694
 30
0.0
 10
3.803623968514671
 20
3.033089828547645
 30
0.0
 10
3.805895698678682
 20
3.034431734272453
 30
0.0
 10
3.807697233529666
 20
3.035562316261045
 30
0.0
 10
3.809916132759642
 20
3.037781215490996
 30
0.0
 10
3.812805984851984
 20
3.037886877359091
 30
0.0
  0
SPLINE
  5
167
330
45
100
AcDbEntity
  8
Layer 1
370
     0
100
AcDbSpline
210
0.0
220
0.0
230
1.0
 70
    11
 71
     3
 72
    38
 73
    34
 74
     0
 42
0.0000000001
 43
0.0000000001
 12
1.0
 22
0.0
 32
0.0
 13
1.0
 23
0.0
 33
0.0
 40
0.0
 40
0.0
 40
0.0
 40
0.0
 40
1.0
 40
1.0
 40
1.0
 40
2.0
 40
2.0
 40
2.0
 40
3.0
 40
3.0
 40
3.0
 40
4.0
 40
4.0
 40
4.0
 40
5.0
 40
5.0
 40
5.0
 40
6.0
 40
6.0
 40
6.0
 40
7.0
 40
7.0
 40
7.0
 40
8.0
 40
8.0
 40
8.0
 40
9.0
 40
9.0
 40
9.0
 40
10.0
 40
10.0
 40
10.0
 40
11.0
 40
11.0
 40
11.0
 40
11.0
 10
3.827202414379713
 20
3.022719429498086
 30
0.0
 10
3.821575919903744
 20
3.022307034908736
 30
0.0
 10
3.811828612572135
 20
3.02111833889267
 30
0.0
 10
3.810021794627737
 20
3.017198283586418
 30
0.0
 10
3.808267807617375
 20
3.01327822828014
 30
0.0
 10
3.810898788132906
 20
3.010853288407411
 30
0.0
 10
3.811411248193167
 20
3.008269855732528
 30
0.0
 10
3.812082201055558
 20
3.004714333871182
 30
0.0
 10
3.811981822280851
 20
2.998570096241565
 30
0.0
 10
3.812135031989593
 20
2.995939115726034
 30
0.0
 10
3.812240693857689
 20
2.993260587369857
 30
0.0
 10
3.810999166907588
 20
2.990212242475384
 30
0.0
 10
3.811411248193167
 20
2.988357876690341
 30
0.0
 10
3.811411248193167
 20
2.988357876690341
 30
0.0
 10
3.812959194560726
 20
2.987534026534073
 30
0.0
 10
3.812135031989593
 20
2.986963140031498
 30
0.0
 10
3.814665633730442
 20
2.985209465377314
 30
0.0
 10
3.816831702026358
 20
2.983661206653576
 30
0.0
 10
3.821681581771827
 20
2.984178949807251
 30
0.0
 10
3.827202414379713
 20
2.984797071735582
 30
0.0
 10
3.838809370589779
 20
2.988769957975895
 30
0.0
 10
3.843712081269296
 20
2.991089235980553
 30
0.0
 10
3.843712081269296
 20
2.997951974313208
 30
0.0
 10
3.844847946351301
 20
3.008269855732528
 30
0.0
 10
3.843041128406905
 20
3.013791001418642
 30
0.0
 10
3.842935466538809
 20
3.014255600560015
 30
0.0
 10
3.840410147891374
 20
3.016062731640027
 30
0.0
 10
3.840204107248597
 20
3.016527330724026
 30
0.0
 10
3.839792025963043
 20
3.017663195806032
 30
0.0
 10
3.840410147891374
 20
3.019982473810665
 30
0.0
 10
3.839580702226852
 20
3.020653426673056
 30
0.0
 10
3.837314255156254
 20
3.022719429498086
 30
0.0
 10
3.83164021283964
 20
3.023025535611749
 30
0.0
 10
3.827202414379713
 20
3.022719429498086
 30
0.0
  0
HATCH
  5
168
330
45
100
AcDbEntity
  8
Layer 1
 62
   250
420
  2301728
100
AcDbHatch
 10
0.0
 20
0.0
 30
0.0
210
0.0
220
0.0
230
1.0
  2
SOLID
 70
     1
 71
     0
 91
        2
 92
        1
 93
        2
 72
     4
 94
        3
 73
     0
 74
     0
 95
      101
 96
       97
 40
0.0
 40
0.0
 40
0.0
 40
0.0
 40
0.0138888888888889
 40
0.0138888888888889
 40
0.0138888888888889
 40
0.0277777777777778
 40
0.0277777777777778
 40
0.0277777777777778
 40
0.0416666666666667
 40
0.0416666666666667
 40
0.0416666666666667
 40
0.0555555555555556
 40
0.0555555555555556
 40
0.0555555555555556
 40
0.0694444444444444
 40
0.0694444444444444
 40
0.0694444444444444
 40
0.0833333333333333
 40
0.0833333333333333
 40
0.0833333333333333
 40
0.0972222222222222
 40
0.0972222222222222
 40
0.0972222222222222
 40
0.1111111111111111
 40
0.1111111111111111
 40
0.1111111111111111
 40
0.125
 40
0.125
 40
0.125
 40
0.1388888888888889
 40
0.1388888888888889
 40
0.1388888888888889
 40
0.1527777777777778
 40
0.1527777777777778
 40
0.1527777777777778
 40
0.1666666666666667
 40
0.1666666666666667
 40
0.1666666666666667
 40
0.1805555555555556
 40
0.1805555555555556
 40
0.1805555555555556
 40
0.1944444444444444
 40
0.1944444444444444
 40
0.1944444444444444
 40
0.2083333333333333
 40
0.2083333333333333
 40
0.2083333333333333
 40
0.2222222222222222
 40
0.2222222222222222
 40
0.2222222222222222
 40
0.2361111111111111
 40
0.2361111111111111
 40
0.2361111111111111
 40
0.25
 40
0.25
 40
0.25
 40
0.2638888888888889
 40
0.2638888888888889
 40
0.2638888888888889
 40
0.2777777777777778
 40
0.2777777777777778
 40
0.2777777777777778
 40
0.2916666666666666
 40
0.2916666666666666
 40
0.2916666666666666
 40
0.3055555555555555
 40
0.3055555555555555
 40
0.3055555555555555
 40
0.3194444444444444
 40
0.3194444444444444
 40
0.3194444444444444
 40
0.3333333333333333
 40
0.3333333333333333
 40
0.3333333333333333
 40
0.3472222222222222
 40
0.3472222222222222
 40
0.3472222222222222
 40
0.3611111111111111
 40
0.3611111111111111
 40
0.3611111111111111
 40
0.375
 40
0.375
 40
0.375
 40
0.3888888888888888
 40
0.3888888888888888
 40
0.3888888888888888
 40
0.4027777777777777
 40
0.4027777777777777
 40
0.4027777777777777
 40
0.4166666666666666
 40
0.4166666666666666
 40
0.4166666666666666
 40
0.4305555555555555
 40
0.4305555555555555
 40
0.4305555555555555
 40
0.4444444444444444
 40
0.4444444444444444
 40
0.4444444444444444
 40
0.4444444444444444
 10
3.812805984851984
 20
3.037886877359091
 10
3.817190952377877
 20
3.037939708293127
 10
3.816261127938648
 20
3.035356275618268
 10
3.818997770322274
 20
3.034431734272453
 10
3.820751757332611
 20
3.033861160184743
 10
3.821475541129075
 20
3.035255896843561
 10
3.822452913408913
 20
3.035102687134844
 10
3.822452913408913
 20
3.035102687134844
 10
3.830810767175093
 20
3.032778126036773
 10
3.832052294125194
 20
3.032313213817158
 10
3.83287645669634
 20
3.032006794399699
 10
3.834424403063887
 20
3.029993935812525
 10
3.835454928420758
 20
3.029581854526946
 10
3.836696133227898
 20
3.029217634549948
 10
3.838244079595458
 20
3.02988827394443
 10
3.839580702226852
 20
3.029581854526946
 10
3.840204107248597
 20
3.029476192658851
 10
3.842264513676418
 20
3.027722205648514
 10
3.843041128406905
 20
3.027516165005737
 10
3.845518899213693
 20
3.026792381209285
 10
3.846702312136345
 20
3.027568995939772
 10
3.849180082943134
 20
3.026845212143346
 10
3.850622367442598
 20
3.026485961791827
 10
3.853206122708886
 20
3.024420272270592
 10
3.854753746485067
 20
3.024061021919073
 10
3.85547224718808
 20
3.023955360050978
 10
3.856713774138181
 20
3.024420272270592
 10
3.857538259410186
 20
3.024061021919073
 10
3.85815605863767
 20
3.023854981276296
 10
3.859704327760773
 20
3.022201373040641
 10
3.860221748158879
 20
3.022048163331899
 10
3.860940248861918
 20
3.021789291755062
 10
3.862282154586687
 20
3.022407413683418
 10
3.863005938383152
 20
3.022048163331899
 10
3.864036464462035
 20
3.021377210469508
 10
3.864347844107935
 20
3.019723602233853
 10
3.865071627904361
 20
3.018593020245235
 10
3.865172006679068
 20
3.01838169650907
 10
3.868373561282283
 20
3.013378607054847
 10
3.86847426303407
 20
3.013072187637363
 10
3.868679980699767
 20
3.012142363198159
 10
3.867596946551796
 20
3.011112159984249
 10
3.867755439353964
 20
3.011059329050188
 10
3.869509426364289
 20
3.01012950461096
 10
3.867908649062668
 20
2.992795675150243
 10
3.867755439353964
 20
2.989028829552732
 10
3.867702608419891
 20
2.987169180674275
 10
3.868785642567862
 20
2.986239356235072
 10
3.86847426303407
 20
2.984902733603677
 10
3.868373561282283
 20
2.984332159515967
 10
3.863418019668706
 20
2.977627913985442
 10
3.863005938383152
 20
2.97731621147457
 10
3.859497964362453
 20
2.975150143178654
 10
3.854854125259749
 20
2.976956961123051
 10
3.849951414580207
 20
2.975974305749787
 10
3.849333292651876
 20
2.975873926975105
 10
3.847220055289995
 20
2.974119939964743
 10
3.846496593915453
 20
2.973908616228578
 10
3.842164457214203
 20
2.972825582080607
 10
3.83287645669634
 20
2.971330466647082
 10
3.829262820807533
 20
2.971124426004306
 10
3.826372968715191
 20
2.970971216295564
 10
3.825036346083796
 20
2.972207460152276
 10
3.821681581771827
 20
2.971848209800757
 10
3.820286845112996
 20
2.971742547932662
 10
3.818532858102672
 20
2.970300263433172
 10
3.816160749163966
 20
2.970453473141914
 10
3.816160749163966
 20
2.970453473141914
 10
3.814147890576767
 20
2.971848209800757
 10
3.814147890576767
 20
2.971848209800757
 10
3.810122173402419
 20
2.97261954143783
 10
3.808061766974598
 20
2.97261954143783
 10
3.803830009157473
 20
2.97319011552554
 10
3.803571137580636
 20
2.973908616228578
 10
3.803676799448731
 20
2.975097312244618
 10
3.803159056295082
 20
2.97525052195336
 10
3.801093366773848
 20
2.975821096041045
 10
3.800375187327606
 20
2.974119939964743
 10
3.799032960346027
 20
2.974579569090969
 10
3.798203514681493
 20
2.974838440667781
 10
3.797326521176299
 20
2.977469421183312
 10
3.796349148896461
 20
2.978092826205057
 10
3.796349148896461
 20
2.978092826205057
 10
3.79562536510001
 20
2.978092826205057
 10
3.79562536510001
 20
2.978092826205057
 10
3.794283459375227
 20
2.981754009934497
 10
3.796761230182015
 20
2.990370735277515
 10
3.796967270824792
 20
2.993154925501762
 10
3.797585392753149
 20
3.001665988976684
 10
3.793253256161317
 20
3.022048163331899
 10
3.797691054621244
 20
3.028910901664555
 10
3.798927298477931
 20
3.030870929317694
 10
3.803623968514671
 20
3.033089828547645
 10
3.805895698678682
 20
3.034431734272453
 10
3.807697233529666
 20
3.035562316261045
 10
3.809916132759642
 20
3.037781215490996
 10
3.812805984851984
 20
3.037886877359091
 97
        0
 72
     1
 10
3.812805984851984
 20
3.037886877359091
 11
3.812805984851984
 21
3.037886877359091
 97
        0
 92
        1
 93
        2
 72
     4
 94
        3
 73
     0
 74
     0
 95
       38
 96
       34
 40
0.0
 40
0.0
 40
0.0
 40
0.0
 40
0.0138888888888889
 40
0.0138888888888889
 40
0.0138888888888889
 40
0.0277777777777778
 40
0.0277777777777778
 40
0.0277777777777778
 40
0.0416666666666667
 40
0.0416666666666667
 40
0.0416666666666667
 40
0.0555555555555556
 40
0.0555555555555556
 40
0.0555555555555556
 40
0.0694444444444444
 40
0.0694444444444444
 40
0.0694444444444444
 40
0.0833333333333333
 40
0.0833333333333333
 40
0.0833333333333333
 40
0.0972222222222222
 40
0.0972222222222222
 40
0.0972222222222222
 40
0.1111111111111111
 40
0.1111111111111111
 40
0.1111111111111111
 40
0.125
 40
0.125
 40
0.125
 40
0.1388888888888889
 40
0.1388888888888889
 40
0.1388888888888889
 40
0.1527777777777778
 40
0.1527777777777778
 40
0.1527777777777778
 40
0.1527777777777778
 10
3.827202414379713
 20
3.022719429498086
 10
3.821575919903744
 20
3.022307034908736
 10
3.811828612572135
 20
3.02111833889267
 10
3.810021794627737
 20
3.017198283586418
 10
3.808267807617375
 20
3.01327822828014
 10
3.810898788132906
 20
3.010853288407411
 10
3.811411248193167
 20
3.008269855732528
 10
3.812082201055558
 20
3.004714333871182
 10
3.811981822280851
 20
2.998570096241565
 10
3.812135031989593
 20
2.995939115726034
 10
3.812240693857689
 20
2.993260587369857
 10
3.810999166907588
 20
2.990212242475384
 10
3.811411248193167
 20
2.988357876690341
 10
3.811411248193167
 20
2.988357876690341
 10
3.812959194560726
 20
2.987534026534073
 10
3.812135031989593
 20
2.986963140031498
 10
3.814665633730442
 20
2.985209465377314
 10
3.816831702026358
 20
2.983661206653576
 10
3.821681581771827
 20
2.984178949807251
 10
3.827202414379713
 20
2.984797071735582
 10
3.838809370589779
 20
2.988769957975895
 10
3.843712081269296
 20
2.991089235980553
 10
3.843712081269296
 20
2.997951974313208
 10
3.844847946351301
 20
3.008269855732528
 10
3.843041128406905
 20
3.013791001418642
 10
3.842935466538809
 20
3.014255600560015
 10
3.840410147891374
 20
3.016062731640027
 10
3.840204107248597
 20
3.016527330724026
 10
3.839792025963043
 20
3.017663195806032
 10
3.840410147891374
 20
3.019982473810665
 10
3.839580702226852
 20
3.020653426673056
 10
3.837314255156254
 20
3.022719429498086
 10
3.83164021283964
 20
3.023025535611749
 10
3.827202414379713
 20
3.022719429498086
 97
        0
 72
     1
 10
3.827202414379713
 20
3.022719429498086
 11
3.827202414379713
 21
3.022719429498086
 97
        0
 75
     2
 76
     1
 98
        0
  0
SPLINE
  5
169
330
45
100
AcDbEntity
  8
Layer 1
370
     0
100
AcDbSpline
210
0.0
220
0.0
230
1.0
 70
    11
 71
     3
 72
    74
 73
    70
 74
     0
 42
0.0000000001
 43
0.0000000001
 12
1.0
 22
0.0
 32
0.0
 13
1.0
 23
0.0
 33
0.0
 40
0.0
 40
0.0
 40
0.0
 40
0.0
 40
1.0
 40
1.0
 40
1.0
 40
2.0
 40
2.0
 40
2.0
 40
3.0
 40
3.0
 40
3.0
 40
4.0
 40
4.0
 40
4.0
 40
5.0
 40
5.0
 40
5.0
 40
6.0
 40
6.0
 40
6.0
 40
7.0
 40
7.0
 40
7.0
 40
8.0
 40
8.0
 40
8.0
 40
9.0
 40
9.0
 40
9.0
 40
10.0
 40
10.0
 40
10.0
 40
11.0
 40
11.0
 40
11.0
 40
12.0
 40
12.0
 40
12.0
 40
13.0
 40
13.0
 40
13.0
 40
14.0
 40
14.0
 40
14.0
 40
15.0
 40
15.0
 40
15.0
 40
16.0
 40
16.0
 40
16.0
 40
17.0
 40
17.0
 40
17.0
 40
18.0
 40
18.0
 40
18.0
 40
19.0
 40
19.0
 40
19.0
 40
20.0
 40
20.0
 40
20.0
 40
21.0
 40
21.0
 40
21.0
 40
22.0
 40
22.0
 40
22.0
 40
23.0
 40
23.0
 40
23.0
 40
23.0
 10
4.173181635264578
 20
2.912672591098802
 30
0.0
 10
4.178184724718802
 20
2.913549274080247
 30
0.0
 10
4.188555437072156
 20
2.912672591098802
 30
0.0
 10
4.192475492378435
 20
2.91133037485027
 30
0.0
 10
4.194646843767765
 20
2.910553760119784
 30
0.0
 10
4.196812912063655
 20
2.907922779604279
 30
0.0
 10
4.19928539977703
 20
2.90720427890124
 30
0.0
 10
4.202074873094716
 20
2.906374833236694
 30
0.0
 10
4.204034900747855
 20
2.907304657675922
 30
0.0
 10
4.206819090972102
 20
2.906533326038849
 30
0.0
 10
4.206819090972102
 20
2.906533326038849
 30
0.0
 10
4.208266658565005
 20
2.905138589380006
 30
0.0
 10
4.208266658565005
 20
2.905138589380006
 30
0.0
 10
4.211050848789252
 20
2.904002724298
 30
0.0
 10
4.213475788661981
 20
2.904108386166096
 30
0.0
 10
4.216418803455326
 20
2.903025352018151
 30
0.0
 10
4.217807925253813
 20
2.902560439798536
 30
0.0
 10
4.220391357928697
 20
2.900806452788174
 30
0.0
 10
4.221986852136928
 20
2.900288709634525
 30
0.0
 10
4.224776325454564
 20
2.899512094904038
 30
0.0
 10
4.226118231179346
 20
2.900029838057688
 30
0.0
 10
4.228178637607167
 20
2.898946803909742
 30
0.0
 10
4.228643549826807
 20
2.898687932332905
 30
0.0
 10
4.24257506713492
 20
2.885997941974892
 30
0.0
 10
4.24257506713492
 20
2.885892280106797
 30
0.0
 10
4.24417584443649
 20
2.880788811877892
 30
0.0
 10
4.24257506713492
 20
2.870465647365184
 30
0.0
 10
4.241904114272529
 20
2.865203686334123
 30
0.0
 10
4.241698073629727
 20
2.863761401834659
 30
0.0
 10
4.242316195558083
 20
2.861902062197411
 30
0.0
 10
4.241904114272529
 20
2.860406637522677
 30
0.0
 10
4.241698073629727
 20
2.859888894369027
 30
0.0
 10
4.239426343465715
 20
2.858293400160821
 30
0.0
 10
4.239220302822913
 20
2.85767558736691
 30
0.0
 10
4.238496519026486
 20
2.85602166999681
 30
0.0
 10
4.239426343465715
 20
2.854214852052412
 30
0.0
 10
4.238496519026486
 20
2.85287294632763
 30
0.0
 10
4.237878397098131
 20
2.851948404981815
 30
0.0
 10
4.235300247516685
 20
2.852154445624592
 30
0.0
 10
4.234370423077457
 20
2.8514834927622
 30
0.0
 10
4.2337523011491
 20
2.85107172044425
 30
0.0
 10
4.232928138577992
 20
2.849005721955412
 30
0.0
 10
4.232304733556248
 20
2.84874715928749
 30
0.0
 10
4.22539444738292
 20
2.845962660154328
 30
0.0
 10
4.215795066666638
 20
2.850194417971453
 30
0.0
 10
4.20754320631128
 20
2.84874715928749
 30
0.0
 10
4.205377137960618
 20
2.848387600027056
 30
0.0
 10
4.201351089298289
 20
2.846221531731165
 30
0.0
 10
4.198667609167185
 20
2.845962660154328
 30
0.0
 10
4.191133586653652
 20
2.845291707291936
 30
0.0
 10
4.179267758866748
 20
2.848387600027056
 30
0.0
 10
4.17385258812697
 20
2.850088756103358
 30
0.0
 10
4.174111459703807
 20
2.856333372507682
 30
0.0
 10
4.171015566968688
 20
2.861077590385068
 30
0.0
 10
4.170397445040331
 20
2.867269375855358
 30
0.0
 10
4.169985363754778
 20
2.871295093029706
 30
0.0
 10
4.171739350765114
 20
2.875421188978761
 30
0.0
 10
4.171739350765114
 20
2.877587257274677
 30
0.0
 10
4.171892560473831
 20
2.881200893163471
 30
0.0
 10
4.169414789667067
 20
2.885638691623373
 30
0.0
 10
4.168949877447428
 20
2.888628922490423
 30
0.0
 10
4.168643458029995
 20
2.890900652654434
 30
0.0
 10
4.169520451535138
 20
2.893272761593127
 30
0.0
 10
4.168949877447428
 20
2.895544491757139
 30
0.0
 10
4.168331755519122
 20
2.898381512915446
 30
0.0
 10
4.164823781498399
 20
2.900959662496916
 30
0.0
 10
4.166371727865983
 20
2.906533326038849
 30
0.0
 10
4.166889471019608
 20
2.9087522252688
 30
0.0
 10
4.170603485683134
 20
2.912260199289499
 30
0.0
 10
4.173181635264578
 20
2.912672591098802
 30
0.0
  0
SPLINE
  5
16A
330
45
100
AcDbEntity
  8
Layer 1
370
     0
100
AcDbSpline
210
0.0
220
0.0
230
1.0
 70
    11
 71
     3
 72
    41
 73
    37
 74
     0
 42
0.0000000001
 43
0.0000000001
 12
1.0
 22
0.0
 32
0.0
 13
1.0
 23
0.0
 33
0.0
 40
0.0
 40
0.0
 40
0.0
 40
0.0
 40
1.0
 40
1.0
 40
1.0
 40
2.0
 40
2.0
 40
2.0
 40
3.0
 40
3.0
 40
3.0
 40
4.0
 40
4.0
 40
4.0
 40
5.0
 40
5.0
 40
5.0
 40
6.0
 40
6.0
 40
6.0
 40
7.0
 40
7.0
 40
7.0
 40
8.0
 40
8.0
 40
8.0
 40
9.0
 40
9.0
 40
9.0
 40
10.0
 40
10.0
 40
10.0
 40
11.0
 40
11.0
 40
11.0
 40
12.0
 40
12.0
 40
12.0
 40
12.0
 10
4.196554371751922
 20
2.899617756772134
 30
0.0
 10
4.196554371751922
 20
2.899617756772134
 30
0.0
 10
4.194435520031574
 20
2.89822302011329
 30
0.0
 10
4.194435520031574
 20
2.89822302011329
 30
0.0
 10
4.18953809244542
 20
2.897245957967496
 30
0.0
 10
4.186595409419017
 20
2.897298788902895
 30
0.0
 10
4.182828563821507
 20
2.896210161526116
 30
0.0
 10
4.181851191541631
 20
2.888058348402713
 30
0.0
 10
4.182981773530274
 20
2.866033131998645
 30
0.0
 10
4.188867139583029
 20
2.863190827746949
 30
0.0
 10
4.191239248521722
 20
2.862107793598978
 30
0.0
 10
4.198154817788438
 20
2.861642881379389
 30
0.0
 10
4.200627305501863
 20
2.86180137418152
 30
0.0
 10
4.201969211226646
 20
2.861902062197411
 30
0.0
 10
4.205683225890121
 20
2.863708570900599
 30
0.0
 10
4.206819090972102
 20
2.863861780609341
 30
0.0
 10
4.208367037339687
 20
2.864173792418796
 30
0.0
 10
4.210121024350024
 20
2.863502530257822
 30
0.0
 10
4.211668970717609
 20
2.863861780609341
 30
0.0
 10
4.214352782167174
 20
2.864585564405767
 30
0.0
 10
4.218378499341522
 20
2.868917700997599
 30
0.0
 10
4.217136972391422
 20
2.873461161325622
 30
0.0
 10
4.217136972391422
 20
2.873461161325622
 30
0.0
 10
4.215795066666638
 20
2.874850614891051
 30
0.0
 10
4.215795066666638
 20
2.874850614891051
 30
0.0
 10
4.215382985381085
 20
2.877692919142747
 30
0.0
 10
4.216518850463065
 20
2.881095231295376
 30
0.0
 10
4.215795066666638
 20
2.883831873678976
 30
0.0
 10
4.215795066666638
 20
2.883831873678976
 30
0.0
 10
4.214458444035245
 20
2.885221327244406
 30
0.0
 10
4.214458444035245
 20
2.885221327244406
 30
0.0
 10
4.213787491172853
 20
2.888628922490423
 30
0.0
 10
4.214458444035245
 20
2.893996545389554
 30
0.0
 10
4.213010876442391
 20
2.896210161526116
 30
0.0
 10
4.211822512077106
 20
2.897964148536478
 30
0.0
 10
4.200785798303968
 20
2.900235878700464
 30
0.0
 10
4.196554371751922
 20
2.899617756772134
 30
0.0
  0
HATCH
  5
16B
330
45
100
AcDbEntity
  8
Layer 1
 62
   250
420
  2301728
100
AcDbHatch
 10
0.0
 20
0.0
 30
0.0
210
0.0
220
0.0
230
1.0
  2
SOLID
 70
     1
 71
     0
 91
        2
 92
        1
 93
        2
 72
     4
 94
        3
 73
     0
 74
     0
 95
       74
 96
       70
 40
0.0
 40
0.0
 40
0.0
 40
0.0
 40
0.0138888888888889
 40
0.0138888888888889
 40
0.0138888888888889
 40
0.0277777777777778
 40
0.0277777777777778
 40
0.0277777777777778
 40
0.0416666666666667
 40
0.0416666666666667
 40
0.0416666666666667
 40
0.0555555555555556
 40
0.0555555555555556
 40
0.0555555555555556
 40
0.0694444444444444
 40
0.0694444444444444
 40
0.0694444444444444
 40
0.0833333333333333
 40
0.0833333333333333
 40
0.0833333333333333
 40
0.0972222222222222
 40
0.0972222222222222
 40
0.0972222222222222
 40
0.1111111111111111
 40
0.1111111111111111
 40
0.1111111111111111
 40
0.125
 40
0.125
 40
0.125
 40
0.1388888888888889
 40
0.1388888888888889
 40
0.1388888888888889
 40
0.1527777777777778
 40
0.1527777777777778
 40
0.1527777777777778
 40
0.1666666666666667
 40
0.1666666666666667
 40
0.1666666666666667
 40
0.1805555555555556
 40
0.1805555555555556
 40
0.1805555555555556
 40
0.1944444444444444
 40
0.1944444444444444
 40
0.1944444444444444
 40
0.2083333333333333
 40
0.2083333333333333
 40
0.2083333333333333
 40
0.2222222222222222
 40
0.2222222222222222
 40
0.2222222222222222
 40
0.2361111111111111
 40
0.2361111111111111
 40
0.2361111111111111
 40
0.25
 40
0.25
 40
0.25
 40
0.2638888888888889
 40
0.2638888888888889
 40
0.2638888888888889
 40
0.2777777777777778
 40
0.2777777777777778
 40
0.2777777777777778
 40
0.2916666666666666
 40
0.2916666666666666
 40
0.2916666666666666
 40
0.3055555555555555
 40
0.3055555555555555
 40
0.3055555555555555
 40
0.3194444444444444
 40
0.3194444444444444
 40
0.3194444444444444
 40
0.3194444444444444
 10
4.173181635264578
 20
2.912672591098802
 10
4.178184724718802
 20
2.913549274080247
 10
4.188555437072156
 20
2.912672591098802
 10
4.192475492378435
 20
2.91133037485027
 10
4.194646843767765
 20
2.910553760119784
 10
4.196812912063655
 20
2.907922779604279
 10
4.19928539977703
 20
2.90720427890124
 10
4.202074873094716
 20
2.906374833236694
 10
4.204034900747855
 20
2.907304657675922
 10
4.206819090972102
 20
2.906533326038849
 10
4.206819090972102
 20
2.906533326038849
 10
4.208266658565005
 20
2.905138589380006
 10
4.208266658565005
 20
2.905138589380006
 10
4.211050848789252
 20
2.904002724298
 10
4.213475788661981
 20
2.904108386166096
 10
4.216418803455326
 20
2.903025352018151
 10
4.217807925253813
 20
2.902560439798536
 10
4.220391357928697
 20
2.900806452788174
 10
4.221986852136928
 20
2.900288709634525
 10
4.224776325454564
 20
2.899512094904038
 10
4.226118231179346
 20
2.900029838057688
 10
4.228178637607167
 20
2.898946803909742
 10
4.228643549826807
 20
2.898687932332905
 10
4.24257506713492
 20
2.885997941974892
 10
4.24257506713492
 20
2.885892280106797
 10
4.24417584443649
 20
2.880788811877892
 10
4.24257506713492
 20
2.870465647365184
 10
4.241904114272529
 20
2.865203686334123
 10
4.241698073629727
 20
2.863761401834659
 10
4.242316195558083
 20
2.861902062197411
 10
4.241904114272529
 20
2.860406637522677
 10
4.241698073629727
 20
2.859888894369027
 10
4.239426343465715
 20
2.858293400160821
 10
4.239220302822913
 20
2.85767558736691
 10
4.238496519026486
 20
2.85602166999681
 10
4.239426343465715
 20
2.854214852052412
 10
4.238496519026486
 20
2.85287294632763
 10
4.237878397098131
 20
2.851948404981815
 10
4.235300247516685
 20
2.852154445624592
 10
4.234370423077457
 20
2.8514834927622
 10
4.2337523011491
 20
2.85107172044425
 10
4.232928138577992
 20
2.849005721955412
 10
4.232304733556248
 20
2.84874715928749
 10
4.22539444738292
 20
2.845962660154328
 10
4.215795066666638
 20
2.850194417971453
 10
4.20754320631128
 20
2.84874715928749
 10
4.205377137960618
 20
2.848387600027056
 10
4.201351089298289
 20
2.846221531731165
 10
4.198667609167185
 20
2.845962660154328
 10
4.191133586653652
 20
2.845291707291936
 10
4.179267758866748
 20
2.848387600027056
 10
4.17385258812697
 20
2.850088756103358
 10
4.174111459703807
 20
2.856333372507682
 10
4.171015566968688
 20
2.861077590385068
 10
4.170397445040331
 20
2.867269375855358
 10
4.169985363754778
 20
2.871295093029706
 10
4.171739350765114
 20
2.875421188978761
 10
4.171739350765114
 20
2.877587257274677
 10
4.171892560473831
 20
2.881200893163471
 10
4.169414789667067
 20
2.885638691623373
 10
4.168949877447428
 20
2.888628922490423
 10
4.168643458029995
 20
2.890900652654434
 10
4.169520451535138
 20
2.893272761593127
 10
4.168949877447428
 20
2.895544491757139
 10
4.168331755519122
 20
2.898381512915446
 10
4.164823781498399
 20
2.900959662496916
 10
4.166371727865983
 20
2.906533326038849
 10
4.166889471019608
 20
2.9087522252688
 10
4.170603485683134
 20
2.912260199289499
 10
4.173181635264578
 20
2.912672591098802
 97
        0
 72
     1
 10
4.173181635264578
 20
2.912672591098802
 11
4.173181635264578
 21
2.912672591098802
 97
        0
 92
        1
 93
        2
 72
     4
 94
        3
 73
     0
 74
     0
 95
       41
 96
       37
 40
0.0
 40
0.0
 40
0.0
 40
0.0
 40
0.0138888888888889
 40
0.0138888888888889
 40
0.0138888888888889
 40
0.0277777777777778
 40
0.0277777777777778
 40
0.0277777777777778
 40
0.0416666666666667
 40
0.0416666666666667
 40
0.0416666666666667
 40
0.0555555555555556
 40
0.0555555555555556
 40
0.0555555555555556
 40
0.0694444444444444
 40
0.0694444444444444
 40
0.0694444444444444
 40
0.0833333333333333
 40
0.0833333333333333
 40
0.0833333333333333
 40
0.0972222222222222
 40
0.0972222222222222
 40
0.0972222222222222
 40
0.1111111111111111
 40
0.1111111111111111
 40
0.1111111111111111
 40
0.125
 40
0.125
 40
0.125
 40
0.1388888888888889
 40
0.1388888888888889
 40
0.1388888888888889
 40
0.1527777777777778
 40
0.1527777777777778
 40
0.1527777777777778
 40
0.1666666666666667
 40
0.1666666666666667
 40
0.1666666666666667
 40
0.1666666666666667
 10
4.196554371751922
 20
2.899617756772134
 10
4.196554371751922
 20
2.899617756772134
 10
4.194435520031574
 20
2.89822302011329
 10
4.194435520031574
 20
2.89822302011329
 10
4.18953809244542
 20
2.897245957967496
 10
4.186595409419017
 20
2.897298788902895
 10
4.182828563821507
 20
2.896210161526116
 10
4.181851191541631
 20
2.888058348402713
 10
4.182981773530274
 20
2.866033131998645
 10
4.188867139583029
 20
2.863190827746949
 10
4.191239248521722
 20
2.862107793598978
 10
4.198154817788438
 20
2.861642881379389
 10
4.200627305501863
 20
2.86180137418152
 10
4.201969211226646
 20
2.861902062197411
 10
4.205683225890121
 20
2.863708570900599
 10
4.206819090972102
 20
2.863861780609341
 10
4.208367037339687
 20
2.864173792418796
 10
4.210121024350024
 20
2.863502530257822
 10
4.211668970717609
 20
2.863861780609341
 10
4.214352782167174
 20
2.864585564405767
 10
4.218378499341522
 20
2.868917700997599
 10
4.217136972391422
 20
2.873461161325622
 10
4.217136972391422
 20
2.873461161325622
 10
4.215795066666638
 20
2.874850614891051
 10
4.215795066666638
 20
2.874850614891051
 10
4.215382985381085
 20
2.877692919142747
 10
4.216518850463065
 20
2.881095231295376
 10
4.215795066666638
 20
2.883831873678976
 10
4.215795066666638
 20
2.883831873678976
 10
4.214458444035245
 20
2.885221327244406
 10
4.214458444035245
 20
2.885221327244406
 10
4.213787491172853
 20
2.888628922490423
 10
4.214458444035245
 20
2.893996545389554
 10
4.213010876442391
 20
2.896210161526116
 10
4.211822512077106
 20
2.897964148536478
 10
4.200785798303968
 20
2.900235878700464
 10
4.196554371751922
 20
2.899617756772134
 97
        0
 72
     1
 10
4.196554371751922
 20
2.899617756772134
 11
4.196554371751922
 21
2.899617756772134
 97
        0
 75
     2
 76
     1
 98
        0
  0
SPLINE
  5
16C
330
45
100
AcDbEntity
  8
Layer 1
370
     0
100
AcDbSpline
210
0.0
220
0.0
230
1.0
 70
    11
 71
     3
 72
    83
 73
    79
 74
     0
 42
0.0000000001
 43
0.0000000001
 12
1.0
 22
0.0
 32
0.0
 13
1.0
 23
0.0
 33
0.0
 40
0.0
 40
0.0
 40
0.0
 40
0.0
 40
1.0
 40
1.0
 40
1.0
 40
2.0
 40
2.0
 40
2.0
 40
3.0
 40
3.0
 40
3.0
 40
4.0
 40
4.0
 40
4.0
 40
5.0
 40
5.0
 40
5.0
 40
6.0
 40
6.0
 40
6.0
 40
7.0
 40
7.0
 40
7.0
 40
8.0
 40
8.0
 40
8.0
 40
9.0
 40
9.0
 40
9.0
 40
10.0
 40
10.0
 40
10.0
 40
11.0
 40
11.0
 40
11.0
 40
12.0
 40
12.0
 40
12.0
 40
13.0
 40
13.0
 40
13.0
 40
14.0
 40
14.0
 40
14.0
 40
15.0
 40
15.0
 40
15.0
 40
16.0
 40
16.0
 40
16.0
 40
17.0
 40
17.0
 40
17.0
 40
18.0
 40
18.0
 40
18.0
 40
19.0
 40
19.0
 40
19.0
 40
20.0
 40
20.0
 40
20.0
 40
21.0
 40
21.0
 40
21.0
 40
22.0
 40
22.0
 40
22.0
 40
23.0
 40
23.0
 40
23.0
 40
24.0
 40
24.0
 40
24.0
 40
25.0
 40
25.0
 40
25.0
 40
26.0
 40
26.0
 40
26.0
 40
26.0
 10
4.574157858492072
 20
2.813661827078199
 30
0.0
 10
4.578389616309222
 20
2.814026360523106
 30
0.0
 10
4.587365592003708
 20
2.807422493767262
 30
0.0
 10
4.588554288019774
 20
2.804738990114831
 30
0.0
 10
4.590461825954915
 20
2.800248360607459
 30
0.0
 10
4.587576915739898
 20
2.796021885776857
 30
0.0
 10
4.587782956382701
 20
2.791636918140284
 30
0.0
 10
4.588089375800185
 20
2.78843505607089
 30
0.0
 10
4.59077318724975
 20
2.784102919479058
 30
0.0
 10
4.591290930403375
 20
2.781366277095458
 30
0.0
 10
4.591803390463661
 20
2.77847642500309
 30
0.0
 10
4.590878849117821
 20
2.775280153493263
 30
0.0
 10
4.591290930403375
 20
2.772443132334956
 30
0.0
 10
4.591290930403375
 20
2.772443132334956
 30
0.0
 10
4.592680725240926
 20
2.769606418086217
 30
0.0
 10
4.592680725240926
 20
2.769606418086217
 30
0.0
 10
4.593663039342068
 20
2.763514704481091
 30
0.0
 10
4.590926396958467
 20
2.750977923831796
 30
0.0
 10
4.588554288019774
 20
2.747623159519839
 30
0.0
 10
4.587159551360956
 20
2.745821624668856
 30
0.0
 10
4.579372271682486
 20
2.74148420498361
 30
0.0
 10
4.576841669941637
 20
2.740765704280572
 30
0.0
 10
4.571785749553379
 20
2.739423798555789
 30
0.0
 10
4.565699625951209
 20
2.740559663637795
 30
0.0
 10
4.55961350234899
 20
2.740094751418181
 30
0.0
 10
4.555482123306572
 20
2.739783048907308
 30
0.0
 10
4.548312965556407
 20
2.737976230962911
 30
0.0
 10
4.54382233616247
 20
2.738647489952806
 30
0.0
 10
4.54382233616247
 20
2.738647489952806
 30
0.0
 10
4.541138524712904
 20
2.740094751418181
 30
0.0
 10
4.541138524712904
 20
2.740094751418181
 30
0.0
 10
4.53670600934639
 20
2.740712873346537
 30
0.0
 10
4.533351584807709
 20
2.738235102539748
 30
0.0
 10
4.52937835879407
 20
2.739423798555789
 30
0.0
 10
4.528860955300287
 20
2.739629839198566
 30
0.0
 10
4.523392613966583
 20
2.745045009938369
 30
0.0
 10
4.523186573323831
 20
2.745615584026079
 30
0.0
 10
4.52215637010992
 20
2.748917517403975
 30
0.0
 10
4.524169228697095
 20
2.753196823061772
 30
0.0
 10
4.523186573323831
 20
2.756651966148411
 30
0.0
 10
4.52262128232951
 20
2.758459090720812
 30
0.0
 10
4.520196681897787
 20
2.758199912515995
 30
0.0
 10
4.520449930940231
 20
2.762125250915662
 30
0.0
 10
4.52066125467637
 20
2.764444528920295
 30
0.0
 10
4.522827322972312
 20
2.765786434645078
 30
0.0
 10
4.52251562046144
 20
2.769606418086217
 30
0.0
 10
4.52251562046144
 20
2.769606418086217
 30
0.0
 10
4.521326924445374
 20
2.770277064039065
 30
0.0
 10
4.521120883802622
 20
2.770324611879687
 30
0.0
 10
4.521120883802622
 20
2.773832892916819
 30
0.0
 10
4.521744288824366
 20
2.777911134008794
 30
0.0
 10
4.521120883802622
 20
2.781366277095458
 30
0.0
 10
4.52091484315982
 20
2.78322592597389
 30
0.0
 10
4.518854436731999
 20
2.785444825203866
 30
0.0
 10
4.518389524512409
 20
2.78683427876927
 30
0.0
 10
4.517306490364414
 20
2.790759617168962
 30
0.0
 10
4.518236314803643
 20
2.793078895173595
 30
0.0
 10
4.519060477374802
 20
2.79715216018859
 30
0.0
 10
4.518954815506681
 20
2.796433659485551
 30
0.0
 10
4.518389524512409
 20
2.79818795412757
 30
0.0
 10
4.518389524512409
 20
2.798599727781468
 30
0.0
 10
4.518130652935572
 20
2.801331087071705
 30
0.0
 10
4.519366896792235
 20
2.804844651985604
 30
0.0
 10
4.520449930940231
 20
2.806751540904871
 30
0.0
 10
4.520449930940231
 20
2.806751540904871
 30
0.0
 10
4.52251562046144
 20
2.808864778266752
 30
0.0
 10
4.52251562046144
 20
2.808864778266752
 30
0.0
 10
4.527518709915663
 20
2.810518386502407
 30
0.0
 10
4.530308183233299
 20
2.806852227530119
 30
0.0
 10
4.53562331502917
 20
2.807475324701322
 30
0.0
 10
4.53562331502917
 20
2.807475324701322
 30
0.0
 10
4.537683721508984
 20
2.808864778266752
 30
0.0
 10
4.537683721508984
 20
2.808864778266752
 30
0.0
 10
4.546352937903268
 20
2.810618765277089
 30
0.0
 10
4.554657960735413
 20
2.809023271068882
 30
0.0
 10
4.563792429232105
 20
2.810206683991535
 30
0.0
 10
4.566935869807872
 20
2.810671596211149
 30
0.0
 10
4.571114796690987
 20
2.813456094452779
 30
0.0
 10
4.574157858492072
 20
2.813661827078199
 30
0.0
  0
SPLINE
  5
16D
330
45
100
AcDbEntity
  8
Layer 1
370
     0
100
AcDbSpline
210
0.0
220
0.0
230
1.0
 70
    11
 71
     3
 72
    38
 73
    34
 74
     0
 42
0.0000000001
 43
0.0000000001
 12
1.0
 22
0.0
 32
0.0
 13
1.0
 23
0.0
 33
0.0
 40
0.0
 40
0.0
 40
0.0
 40
0.0
 40
1.0
 40
1.0
 40
1.0
 40
2.0
 40
2.0
 40
2.0
 40
3.0
 40
3.0
 40
3.0
 40
4.0
 40
4.0
 40
4.0
 40
5.0
 40
5.0
 40
5.0
 40
6.0
 40
6.0
 40
6.0
 40
7.0
 40
7.0
 40
7.0
 40
8.0
 40
8.0
 40
8.0
 40
9.0
 40
9.0
 40
9.0
 40
10.0
 40
10.0
 40
10.0
 40
11.0
 40
11.0
 40
11.0
 40
11.0
 10
4.550737905429186
 20
2.79715216018859
 30
0.0
 10
4.545681985040877
 20
2.796898571705166
 30
0.0
 10
4.533039542523511
 20
2.794832882183957
 30
0.0
 10
4.531491596155976
 20
2.791636918140284
 30
0.0
 10
4.52937835879407
 20
2.787711272274464
 30
0.0
 10
4.532886332814794
 20
2.783844047902246
 30
0.0
 10
4.53350445474315
 20
2.780595252645551
 30
0.0
 10
4.534328617314259
 20
2.776569228284011
 30
0.0
 10
4.533039542523511
 20
2.773578997416962
 30
0.0
 10
4.534228238539577
 20
2.769606418086217
 30
0.0
 10
4.534534657957061
 20
2.768676286737445
 30
0.0
 10
4.53670600934639
 20
2.766922299727083
 30
0.0
 10
4.537012428763824
 20
2.766198515930657
 30
0.0
 10
4.537477340983464
 20
2.764703400497132
 30
0.0
 10
4.53660034747827
 20
2.762949720228259
 30
0.0
 10
4.537012428763824
 20
2.761454298053271
 30
0.0
 10
4.538459996356727
 20
2.755568932000465
 30
0.0
 10
4.549496378479085
 20
2.754385519077813
 30
0.0
 10
4.555482123306572
 20
2.755209681648946
 30
0.0
 10
4.560849746205703
 20
2.755981013286019
 30
0.0
 10
4.566629450390388
 20
2.75882331753774
 30
0.0
 10
4.571320837333738
 20
2.760677990006798
 30
0.0
 10
4.571785749553379
 20
2.765268691491428
 30
0.0
 10
4.572303492707002
 20
2.770530652522489
 30
0.0
 10
4.571320837333738
 20
2.775845444487585
 30
0.0
 10
4.571220458559057
 20
2.776416018575269
 30
0.0
 10
4.569307978746565
 20
2.779094546931447
 30
0.0
 10
4.569307978746565
 20
2.779923992595968
 30
0.0
 10
4.569054390263166
 20
2.78327875690795
 30
0.0
 10
4.571785749553379
 20
2.786628238126494
 30
0.0
 10
4.570703056122309
 20
2.790965657811739
 30
0.0
 10
4.569207599971883
 20
2.796327997617482
 30
0.0
 10
4.5579070631793
 20
2.797516693633523
 30
0.0
 10
4.550737905429186
 20
2.79715216018859
 30
0.0
  0
HATCH
  5
16E
330
45
100
AcDbEntity
  8
Layer 1
 62
   250
420
  2301728
100
AcDbHatch
 10
0.0
 20
0.0
 30
0.0
210
0.0
220
0.0
230
1.0
  2
SOLID
 70
     1
 71
     0
 91
        2
 92
        1
 93
        2
 72
     4
 94
        3
 73
     0
 74
     0
 95
       83
 96
       79
 40
0.0
 40
0.0
 40
0.0
 40
0.0
 40
0.0138888888888889
 40
0.0138888888888889
 40
0.0138888888888889
 40
0.0277777777777778
 40
0.0277777777777778
 40
0.0277777777777778
 40
0.0416666666666667
 40
0.0416666666666667
 40
0.0416666666666667
 40
0.0555555555555556
 40
0.0555555555555556
 40
0.0555555555555556
 40
0.0694444444444444
 40
0.0694444444444444
 40
0.0694444444444444
 40
0.0833333333333333
 40
0.0833333333333333
 40
0.0833333333333333
 40
0.0972222222222222
 40
0.0972222222222222
 40
0.0972222222222222
 40
0.1111111111111111
 40
0.1111111111111111
 40
0.1111111111111111
 40
0.125
 40
0.125
 40
0.125
 40
0.1388888888888889
 40
0.1388888888888889
 40
0.1388888888888889
 40
0.1527777777777778
 40
0.1527777777777778
 40
0.1527777777777778
 40
0.1666666666666667
 40
0.1666666666666667
 40
0.1666666666666667
 40
0.1805555555555556
 40
0.1805555555555556
 40
0.1805555555555556
 40
0.1944444444444444
 40
0.1944444444444444
 40
0.1944444444444444
 40
0.2083333333333333
 40
0.2083333333333333
 40
0.2083333333333333
 40
0.2222222222222222
 40
0.2222222222222222
 40
0.2222222222222222
 40
0.2361111111111111
 40
0.2361111111111111
 40
0.2361111111111111
 40
0.25
 40
0.25
 40
0.25
 40
0.2638888888888889
 40
0.2638888888888889
 40
0.2638888888888889
 40
0.2777777777777778
 40
0.2777777777777778
 40
0.2777777777777778
 40
0.2916666666666666
 40
0.2916666666666666
 40
0.2916666666666666
 40
0.3055555555555555
 40
0.3055555555555555
 40
0.3055555555555555
 40
0.3194444444444444
 40
0.3194444444444444
 40
0.3194444444444444
 40
0.3333333333333333
 40
0.3333333333333333
 40
0.3333333333333333
 40
0.3472222222222222
 40
0.3472222222222222
 40
0.3472222222222222
 40
0.3611111111111111
 40
0.3611111111111111
 40
0.3611111111111111
 40
0.3611111111111111
 10
4.574157858492072
 20
2.813661827078199
 10
4.578389616309222
 20
2.814026360523106
 10
4.587365592003708
 20
2.807422493767262
 10
4.588554288019774
 20
2.804738990114831
 10
4.590461825954915
 20
2.800248360607459
 10
4.587576915739898
 20
2.796021885776857
 10
4.587782956382701
 20
2.791636918140284
 10
4.588089375800185
 20
2.78843505607089
 10
4.59077318724975
 20
2.784102919479058
 10
4.591290930403375
 20
2.781366277095458
 10
4.591803390463661
 20
2.77847642500309
 10
4.590878849117821
 20
2.775280153493263
 10
4.591290930403375
 20
2.772443132334956
 10
4.591290930403375
 20
2.772443132334956
 10
4.592680725240926
 20
2.769606418086217
 10
4.592680725240926
 20
2.769606418086217
 10
4.593663039342068
 20
2.763514704481091
 10
4.590926396958467
 20
2.750977923831796
 10
4.588554288019774
 20
2.747623159519839
 10
4.587159551360956
 20
2.745821624668856
 10
4.579372271682486
 20
2.74148420498361
 10
4.576841669941637
 20
2.740765704280572
 10
4.571785749553379
 20
2.739423798555789
 10
4.565699625951209
 20
2.740559663637795
 10
4.55961350234899
 20
2.740094751418181
 10
4.555482123306572
 20
2.739783048907308
 10
4.548312965556407
 20
2.737976230962911
 10
4.54382233616247
 20
2.738647489952806
 10
4.54382233616247
 20
2.738647489952806
 10
4.541138524712904
 20
2.740094751418181
 10
4.541138524712904
 20
2.740094751418181
 10
4.53670600934639
 20
2.740712873346537
 10
4.533351584807709
 20
2.738235102539748
 10
4.52937835879407
 20
2.739423798555789
 10
4.528860955300287
 20
2.739629839198566
 10
4.523392613966583
 20
2.745045009938369
 10
4.523186573323831
 20
2.745615584026079
 10
4.52215637010992
 20
2.748917517403975
 10
4.524169228697095
 20
2.753196823061772
 10
4.523186573323831
 20
2.756651966148411
 10
4.52262128232951
 20
2.758459090720812
 10
4.520196681897787
 20
2.758199912515995
 10
4.520449930940231
 20
2.762125250915662
 10
4.52066125467637
 20
2.764444528920295
 10
4.522827322972312
 20
2.765786434645078
 10
4.52251562046144
 20
2.769606418086217
 10
4.52251562046144
 20
2.769606418086217
 10
4.521326924445374
 20
2.770277064039065
 10
4.521120883802622
 20
2.770324611879687
 10
4.521120883802622
 20
2.773832892916819
 10
4.521744288824366
 20
2.777911134008794
 10
4.521120883802622
 20
2.781366277095458
 10
4.52091484315982
 20
2.78322592597389
 10
4.518854436731999
 20
2.785444825203866
 10
4.518389524512409
 20
2.78683427876927
 10
4.517306490364414
 20
2.790759617168962
 10
4.518236314803643
 20
2.793078895173595
 10
4.519060477374802
 20
2.79715216018859
 10
4.518954815506681
 20
2.796433659485551
 10
4.518389524512409
 20
2.79818795412757
 10
4.518389524512409
 20
2.798599727781468
 10
4.518130652935572
 20
2.801331087071705
 10
4.519366896792235
 20
2.804844651985604
 10
4.520449930940231
 20
2.806751540904871
 10
4.520449930940231
 20
2.806751540904871
 10
4.52251562046144
 20
2.808864778266752
 10
4.52251562046144
 20
2.808864778266752
 10
4.527518709915663
 20
2.810518386502407
 10
4.530308183233299
 20
2.806852227530119
 10
4.53562331502917
 20
2.807475324701322
 10
4.53562331502917
 20
2.807475324701322
 10
4.537683721508984
 20
2.808864778266752
 10
4.537683721508984
 20
2.808864778266752
 10
4.546352937903268
 20
2.810618765277089
 10
4.554657960735413
 20
2.809023271068882
 10
4.563792429232105
 20
2.810206683991535
 10
4.566935869807872
 20
2.810671596211149
 10
4.571114796690987
 20
2.813456094452779
 10
4.574157858492072
 20
2.813661827078199
 97
        0
 72
     1
 10
4.574157858492072
 20
2.813661827078199
 11
4.574157858492072
 21
2.813661827078199
 97
        0
 92
        1
 93
        2
 72
     4
 94
        3
 73
     0
 74
     0
 95
       38
 96
       34
 40
0.0
 40
0.0
 40
0.0
 40
0.0
 40
0.0138888888888889
 40
0.0138888888888889
 40
0.0138888888888889
 40
0.0277777777777778
 40
0.0277777777777778
 40
0.0277777777777778
 40
0.0416666666666667
 40
0.0416666666666667
 40
0.0416666666666667
 40
0.0555555555555556
 40
0.0555555555555556
 40
0.0555555555555556
 40
0.0694444444444444
 40
0.0694444444444444
 40
0.0694444444444444
 40
0.0833333333333333
 40
0.0833333333333333
 40
0.0833333333333333
 40
0.0972222222222222
 40
0.0972222222222222
 40
0.0972222222222222
 40
0.1111111111111111
 40
0.1111111111111111
 40
0.1111111111111111
 40
0.125
 40
0.125
 40
0.125
 40
0.1388888888888889
 40
0.1388888888888889
 40
0.1388888888888889
 40
0.1527777777777778
 40
0.1527777777777778
 40
0.1527777777777778
 40
0.1527777777777778
 10
4.550737905429186
 20
2.79715216018859
 10
4.545681985040877
 20
2.796898571705166
 10
4.533039542523511
 20
2.794832882183957
 10
4.531491596155976
 20
2.791636918140284
 10
4.52937835879407
 20
2.787711272274464
 10
4.532886332814794
 20
2.783844047902246
 10
4.53350445474315
 20
2.780595252645551
 10
4.534328617314259
 20
2.776569228284011
 10
4.533039542523511
 20
2.773578997416962
 10
4.534228238539577
 20
2.769606418086217
 10
4.534534657957061
 20
2.768676286737445
 10
4.53670600934639
 20
2.766922299727083
 10
4.537012428763824
 20
2.766198515930657
 10
4.537477340983464
 20
2.764703400497132
 10
4.53660034747827
 20
2.762949720228259
 10
4.537012428763824
 20
2.761454298053271
 10
4.538459996356727
 20
2.755568932000465
 10
4.549496378479085
 20
2.754385519077813
 10
4.555482123306572
 20
2.755209681648946
 10
4.560849746205703
 20
2.755981013286019
 10
4.566629450390388
 20
2.75882331753774
 10
4.571320837333738
 20
2.760677990006798
 10
4.571785749553379
 20
2.765268691491428
 10
4.572303492707002
 20
2.770530652522489
 10
4.571320837333738
 20
2.775845444487585
 10
4.571220458559057
 20
2.776416018575269
 10
4.569307978746565
 20
2.779094546931447
 10
4.569307978746565
 20
2.779923992595968
 10
4.569054390263166
 20
2.78327875690795
 10
4.571785749553379
 20
2.786628238126494
 10
4.570703056122309
 20
2.790965657811739
 10
4.569207599971883
 20
2.796327997617482
 10
4.5579070631793
 20
2.797516693633523
 10
4.550737905429186
 20
2.79715216018859
 97
        0
 72
     1
 10
4.550737905429186
 20
2.79715216018859
 11
4.550737905429186
 21
2.79715216018859
 97
        0
 75
     2
 76
     1
 98
        0
  0
ENDBLK
  5
48
330
45
100
AcDbEntity
  8
0
100
AcDbBlockEnd
  0
ENDSEC
  0
SECTION
  2
ENTITIES
  0
INSERT
  5
42
330
1F
100
AcDbEntity
  8
Layer 1
100
AcDbBlockReference
  2
block 2
 10
0.0
 20
0.0
 30
0.0
  0
MTEXT
  5
186
330
1F
100
AcDbEntity
  8
callouts
 62
   250
420
  2236191
100
AcDbMText
 10
2.608738382657369
 20
1.524403042263455
 30
0.0
 40
0.118
 41
0.0
 46
0.0
 71
     7
 72
     1
  1
\fHelvetica Neue LT Std 55 Roman|b0|i0|c0|p34;\W1;SIMPSON Strong-Tie\H0.068794;®\H0.118; ^C
 73
     1
 44
1.0
  0
MTEXT
  5
187
330
1F
100
AcDbEntity
  8
callouts
 62
   250
420
  2236191
100
AcDbMText
 10
1.820286234219869
 20
1.324411180284288
 30
0.0
 40
0.118
 41
0.0
 46
0.0
 71
     7
 72
     1
  1
\fHelvetica Neue LT Std 55 Roman|b0|i0|c0|p34;\W1;TA9 Staircase Tread-to-Stringer Connection
 73
     1
 44
1.0
  0
MTEXT
  5
188
330
1F
100
AcDbEntity
  8
callouts
 62
   250
420
  2236191
100
AcDbMText
 10
2.787141376071506
 20
2.318481233384874
 30
0.0
 40
0.118
 41
0.0
 46
0.0
 71
     7
 72
     1
  1
\fHelvetica Neue LT Std 57 Condensed|b0|i0|c0|p34;\W1;TA9Z / TA9SS
 73
     1
 44
1.0
  0
MTEXT
  5
189
330
1F
100
AcDbEntity
  8
callouts
 62
   250
420
  2236191
100
AcDbMText
 10
4.460961023966471
 20
4.062730365329318
 30
0.0
 40
0.118
 41
0.0
 46
0.0
 71
     7
 72
     1
  1
\fHelvetica Neue LT Std 57 Condensed|b0|i0|c0|p34;\W1;TA9Z / TA9SS
 73
     1
 44
1.0
  0
MTEXT
  5
18A
330
1F
100
AcDbEntity
  8
callouts
 62
   250
420
  2236191
100
AcDbMText
 10
2.276743014653523
 20
3.586879518296983
 30
0.0
 40
0.118
 41
0.0
 46
0.0
 71
     7
 72
     1
  1
\fHelvetica Neue LT Std 57 Condensed|b0|i0|c0|p34;\W1;Tread
 73
     1
 44
1.0
  0
MTEXT
  5
18B
330
1F
100
AcDbEntity
  8
callouts
 62
   250
420
  2236191
100
AcDbMText
 10
2.349733405643039
 20
3.324467976888021
 30
0.0
 40
0.118
 41
0.0
 46
0.0
 71
     7
 72
     1
  1
\fHelvetica Neue LT Std 57 Condensed|b0|i0|c0|p34;\W1;Stringer
 73
     1
 44
1.0
  0
POLYLINE
  5
18C
330
1F
100
AcDbEntity
  8
callouts
 62
   250
420
  2236191
370
    18
100
AcDb2dPolyline
 66
     1
 10
0.0
 20
0.0
 30
0.0
  0
VERTEX
  5
18D
330
18C
100
AcDbEntity
  8
callouts
 62
   250
420
  2236191
370
    18
100
AcDbVertex
100
AcDb2dVertex
 10
3.192248550446329
 20
2.526937781820076
 30
0.0
  0
VERTEX
  5
18E
330
18C
100
AcDbEntity
  8
callouts
 62
   250
420
  2236191
370
    18
100
AcDbVertex
100
AcDb2dVertex
 10
3.751976447390651
 20
3.054396544248675
 30
0.0
  0
SEQEND
  5
18F
330
18C
100
AcDbEntity
  8
callouts
 62
   250
420
  2236191
370
    18
  0
POLYLINE
  5
190
330
1F
100
AcDbEntity
  8
callouts
 62
   250
420
  2236191
370
    18
100
AcDb2dPolyline
 66
     1
 10
0.0
 20
0.0
 30
0.0
  0
VERTEX
  5
191
330
190
100
AcDbEntity
  8
callouts
 62
   250
420
  2236191
370
    18
100
AcDbVertex
100
AcDb2dVertex
 10
2.88878238218879
 20
3.403368794326222
 30
0.0
  0
VERTEX
  5
192
330
190
100
AcDbEntity
  8
callouts
 62
   250
420
  2236191
370
    18
100
AcDbVertex
100
AcDb2dVertex
 10
3.421812166612641
 20
3.586882170051821
 30
0.0
  0
SEQEND
  5
193
330
190
100
AcDbEntity
  8
callouts
 62
   250
420
  2236191
370
    18
  0
POLYLINE
  5
194
330
1F
100
AcDbEntity
  8
callouts
 62
   250
420
  2236191
370
    18
100
AcDb2dPolyline
 66
     1
 10
0.0
 20
0.0
 30
0.0
  0
VERTEX
  5
195
330
194
100
AcDbEntity
  8
callouts
 62
   250
420
  2236191
370
    18
100
AcDbVertex
100
AcDb2dVertex
 10
4.42515877520024
 20
4.128607926219754
 30
0.0
  0
VERTEX
  5
196
330
194
100
AcDbEntity
  8
callouts
 62
   250
420
  2236191
370
    18
100
AcDbVertex
100
AcDb2dVertex
 10
3.936990378422113
 20
4.178807879750922
 30
0.0
  0
SEQEND
  5
197
330
194
100
AcDbEntity
  8
callouts
 62
   250
420
  2236191
370
    18
  0
POLYLINE
  5
198
330
1F
100
AcDbEntity
  8
callouts
 62
   250
420
  2236191
370
    18
100
AcDb2dPolyline
 66
     1
 10
0.0
 20
0.0
 30
0.0
  0
VERTEX
  5
199
330
198
100
AcDbEntity
  8
callouts
 62
   250
420
  2236191
370
    18
100
AcDbVertex
100
AcDb2dVertex
 10
2.494227758994712
 20
3.736702127659555
 30
0.0
  0
VERTEX
  5
19A
330
198
100
AcDbEntity
  8
callouts
 62
   250
420
  2236191
370
    18
100
AcDbVertex
100
AcDb2dVertex
 10
2.774091707466873
 20
4.193280914132982
 30
0.0
  0
SEQEND
  5
19B
330
198
100
AcDbEntity
  8
callouts
 62
   250
420
  2236191
370
    18
  0
ENDSEC
  0
SECTION
  2
OBJECTS
  0
DICTIONARY
  5
C
330
0
100
AcDbDictionary
281
     1
  3
ACAD_GROUP
350
D
  3
ACAD_LAYOUT
350
1A
  3
ACAD_MATERIAL
350
3B
  3
ACAD_MLEADERSTYLE
350
19D
  3
ACAD_MLINESTYLE
350
17
  3
ACAD_PLOTSETTINGS
350
19
  3
ACAD_PLOTSTYLENAME
350
E
  3
ACAD_TABLESTYLE
350
19C
  3
ACAD_VISUALSTYLE
350
2A
  0
SUN
  5
3F
330
29
100
AcDbSun
 90
        1
290
     0
 63
     7
421
 16777215
 40
1.0
291
     1
 91
  2455826
 92
 54000000
292
     0
 70
     2
 71
   256
280
     1
  0
DICTIONARY
  5
D
102
{ACAD_REACTORS
330
C
102
}
330
C
100
AcDbDictionary
281
     1
  0
DICTIONARY
  5
1A
102
{ACAD_REACTORS
330
C
102
}
330
C
100
AcDbDictionary
281
     1
  3
Layout1
350
1E
  3
Layout2
350
26
  3
Model
350
22
  0
DICTIONARY
  5
3B
102
{ACAD_REACTORS
330
C
102
}
330
C
100
AcDbDictionary
281
     1
  3
ByBlock
350
3D
  3
ByLayer
350
3C
  3
Global
350
3E
  0
DICTIONARY
  5
19D
102
{ACAD_REACTORS
330
C
102
}
330
C
100
AcDbDictionary
281
     1
  0
DICTIONARY
  5
17
102
{ACAD_REACTORS
330
C
102
}
330
C
100
AcDbDictionary
281
     1
  3
Standard
350
18
  0
DICTIONARY
  5
19
102
{ACAD_REACTORS
330
C
102
}
330
C
100
AcDbDictionary
281
     1
  0
ACDBDICTIONARYWDFLT
  5
E
102
{ACAD_REACTORS
330
C
102
}
330
C
100
AcDbDictionary
281
     1
  3
Normal
350
F
100
AcDbDictionaryWithDefault
340
F
  0
DICTIONARY
  5
19C
102
{ACAD_REACTORS
330
C
102
}
330
C
100
AcDbDictionary
281
     1
  0
DICTIONARY
  5
2A
102
{ACAD_REACTORS
330
C
102
}
330
C
100
AcDbDictionary
281
     1
  3
2dWireframe
350
2F
  3
3D Hidden
350
31
  3
3dWireframe
350
30
  3
Basic
350
32
  3
Brighten
350
36
  3
ColorChange
350
3A
  3
Conceptual
350
34
  3
Dim
350
35
  3
Facepattern
350
39
  3
Flat
350
2B
  3
FlatWithEdges
350
2C
  3
Gouraud
350
2D
  3
GouraudWithEdges
350
2E
  3
Linepattern
350
38
  3
Realistic
350
33
  3
Thicken
350
37
  0
LAYOUT
  5
1E
102
{ACAD_REACTORS
330
1A
102
}
330
1A
100
AcDbPlotSettings
  1

  2
none_device
  4

  6

 40
0.0
 41
0.0
 42
0.0
 43
0.0
 44
0.0
 45
0.0
 46
0.0
 47
0.0
 48
0.0
 49
0.0
140
0.0
141
0.0
142
1.0
143
1.0
 70
   688
 72
     0
 73
     0
 74
     5
  7

 75
    16
 76
     0
 77
     2
 78
   300
147
1.0
148
0.0
149
0.0
100
AcDbLayout
  1
Layout1
 70
     1
 71
     1
 10
0.0
 20
0.0
 11
12.0
 21
9.0
 12
0.0
 22
0.0
 32
0.0
 14
1.000000000000000E+20
 24
1.000000000000000E+20
 34
1.000000000000000E+20
 15
-1.000000000000000E+20
 25
-1.000000000000000E+20
 35
-1.000000000000000E+20
146
0.0
 13
0.0
 23
0.0
 33
0.0
 16
1.0
 26
0.0
 36
0.0
 17
0.0
 27
1.0
 37
0.0
 76
     0
330
1B
  0
LAYOUT
  5
26
102
{ACAD_REACTORS
330
1A
102
}
330
1A
100
AcDbPlotSettings
  1

  2
none_device
  4

  6

 40
0.0
 41
0.0
 42
0.0
 43
0.0
 44
0.0
 45
0.0
 46
0.0
 47
0.0
 48
0.0
 49
0.0
140
0.0
141
0.0
142
1.0
143
1.0
 70
   688
 72
     0
 73
     0
 74
     5
  7

 75
    16
 76
     0
 77
     2
 78
   300
147
1.0
148
0.0
149
0.0
100
AcDbLayout
  1
Layout2
 70
     1
 71
     2
 10
0.0
 20
0.0
 11
0.0
 21
0.0
 12
0.0
 22
0.0
 32
0.0
 14
0.0
 24
0.0
 34
0.0
 15
0.0
 25
0.0
 35
0.0
146
0.0
 13
0.0
 23
0.0
 33
0.0
 16
1.0
 26
0.0
 36
0.0
 17
0.0
 27
1.0
 37
0.0
 76
     0
330
23
  0
LAYOUT
  5
22
102
{ACAD_REACTORS
330
1A
102
}
330
1A
100
AcDbPlotSettings
  1

  2
none_device
  4

  6

 40
0.0
 41
0.0
 42
0.0
 43
0.0
 44
0.0
 45
0.0
 46
0.0
 47
0.0
 48
0.0
 49
0.0
140
0.0
141
0.0
142
1.0
143
1.0
 70
  1712
 72
     0
 73
     0
 74
     0
  7

 75
     0
 76
     0
 77
     2
 78
   300
147
1.0
148
0.0
149
0.0
100
AcDbLayout
  1
Model
 70
     1
 71
     0
 10
0.0
 20
0.0
 11
12.0
 21
9.0
 12
0.0
 22
0.0
 32
0.0
 14
1.000000000000000E+20
 24
1.000000000000000E+20
 34
1.000000000000000E+20
 15
-1.000000000000000E+20
 25
-1.000000000000000E+20
 35
-1.000000000000000E+20
146
0.0
 13
0.0
 23
0.0
 33
0.0
 16
1.0
 26
0.0
 36
0.0
 17
0.0
 27
1.0
 37
0.0
 76
     0
330
1F
331
29
  0
MATERIAL
  5
3D
102
{ACAD_REACTORS
330
3B
102
}
330
3B
100
AcDbMaterial
  1
ByBlock
 72
     1
 94
      127
  0
MATERIAL
  5
3C
102
{ACAD_REACTORS
330
3B
102
}
330
3B
100
AcDbMaterial
  1
ByLayer
 72
     1
 94
      127
  0
MATERIAL
  5
3E
102
{ACAD_REACTORS
330
3B
102
}
330
3B
100
AcDbMaterial
  1
Global
 72
     1
 94
      127
  0
MLINESTYLE
  5
18
102
{ACAD_REACTORS
330
17
102
}
330
17
100
AcDbMlineStyle
  2
Standard
 70
     0
  3

 62
   256
 51
90.0
 52
90.0
 71
     2
 49
0.5
 62
   256
  6
BYLAYER
 49
-0.5
 62
   256
  6
BYLAYER
  0
ACDBPLACEHOLDER
  5
F
102
{ACAD_REACTORS
330
E
102
}
330
E
  0
VISUALSTYLE
  5
2F
102
{ACAD_REACTORS
330
2A
102
}
330
2A
100
AcDbVisualStyle
  2
2dWireframe
 70
     4
177
     2
291
     0
 71
     0
176
     1
 72
     2
176
     1
 73
     0
176
     1
 90
        0
176
     1
 40
-0.6
176
     1
 41
-30.0
176
     1
 62
     5
 63
     7
421
 16777215
176
     1
 74
     1
176
     1
 91
        4
176
     1
 64
     7
176
     1
 65
   257
176
     1
 75
     1
176
     1
175
     1
176
     1
 42
1.0
176
     1
 92
        0
176
     1
 66
   257
176
     1
 43
1.0
176
     1
 76
     1
176
     1
 77
     6
176
     1
 78
     2
176
     1
 67
     7
176
     1
 79
     5
176
     1
170
     0
176
     1
171
     0
176
     1
290
     0
176
     1
 93
        1
176
     1
 44
0.0
176
     1
173
     0
176
     1
  0
VISUALSTYLE
  5
31
102
{ACAD_REACTORS
330
2A
102
}
330
2A
100
AcDbVisualStyle
  2
3D Hidden
 70
     6
177
     2
291
     0
 71
     1
176
     1
 72
     2
176
     1
 73
     2
176
     1
 90
        0
176
     1
 40
-0.6
176
     1
 41
-30.0
176
     1
 62
     5
 63
     7
421
 16777215
176
     1
 74
     2
176
     1
 91
        2
176
     1
 64
     7
176
     1
 65
   257
176
     1
 75
     2
176
     1
175
     1
176
     1
 42
40.0
176
     1
 92
        0
176
     1
 66
   257
176
     1
 43
1.0
176
     1
 76
     1
176
     1
 77
     6
176
     1
 78
     2
176
     1
 67
     7
176
     1
 79
     3
176
     1
170
     0
176
     1
171
     0
176
     1
290
     0
176
     1
 93
        1
176
     1
 44
0.0
176
     1
173
     0
176
     1
  0
VISUALSTYLE
  5
30
102
{ACAD_REACTORS
330
2A
102
}
330
2A
100
AcDbVisualStyle
  2
3dWireframe
 70
     5
177
     2
291
     0
 71
     0
176
     1
 72
     2
176
     1
 73
     0
176
     1
 90
        0
176
     1
 40
-0.6
176
     1
 41
-30.0
176
     1
 62
     5
 63
     7
421
 16777215
176
     1
 74
     1
176
     1
 91
        4
176
     1
 64
     7
176
     1
 65
   257
176
     1
 75
     1
176
     1
175
     1
176
     1
 42
1.0
176
     1
 92
        0
176
     1
 66
   257
176
     1
 43
1.0
176
     1
 76
     1
176
     1
 77
     6
176
     1
 78
     2
176
     1
 67
     7
176
     1
 79
     5
176
     1
170
     0
176
     1
171
     0
176
     1
290
     0
176
     1
 93
        1
176
     1
 44
0.0
176
     1
173
     0
176
     1
  0
VISUALSTYLE
  5
32
102
{ACAD_REACTORS
330
2A
102
}
330
2A
100
AcDbVisualStyle
  2
Basic
 70
     7
177
     2
291
     1
 71
     1
176
     1
 72
     0
176
     1
 73
     1
176
     1
 90
        0
176
     1
 40
-0.6
176
     1
 41
-30.0
176
     1
 62
     5
 63
     7
421
 16777215
176
     1
 74
     0
176
     1
 91
        4
176
     1
 64
     7
176
     1
 65
   257
176
     1
 75
     1
176
     1
175
     1
176
     1
 42
1.0
176
     1
 92
        8
176
     1
 66
     7
176
     1
 43
1.0
176
     1
 76
     1
176
     1
 77
     6
176
     1
 78
     2
176
     1
 67
     7
176
     1
 79
     5
176
     1
170
     0
176
     1
171
     0
176
     1
290
     0
176
     1
 93
        1
176
     1
 44
0.0
176
     1
173
     0
176
     1
  0
VISUALSTYLE
  5
36
102
{ACAD_REACTORS
330
2A
102
}
330
2A
100
AcDbVisualStyle
  2
Brighten
 70
    12
177
     2
291
     1
 71
     2
176
     1
 72
     2
176
     1
 73
     0
176
     1
 90
        0
176
     1
 40
-0.6
176
     1
 41
-30.0
176
     1
 62
     5
 63
     7
421
 16777215
176
     1
 74
     1
176
     1
 91
        4
176
     1
 64
     7
176
     1
 65
   257
176
     1
 75
     1
176
     1
175
     1
176
     1
 42
1.0
176
     1
 92
        8
176
     1
 66
     7
176
     1
 43
1.0
176
     1
 76
     1
176
     1
 77
     6
176
     1
 78
     2
176
     1
 67
     7
176
     1
 79
     5
176
     1
170
     0
176
     1
171
     0
176
     1
290
     0
176
     1
 93
        1
176
     1
 44
50.0
176
     1
173
     0
176
     1
  0
VISUALSTYLE
  5
3A
102
{ACAD_REACTORS
330
2A
102
}
330
2A
100
AcDbVisualStyle
  2
ColorChange
 70
    16
177
     2
291
     1
 71
     2
176
     1
 72
     2
176
     1
 73
     3
176
     1
 90
        0
176
     1
 40
-0.6
176
     1
 41
-30.0
176
     1
 62
     5
 63
     8
421
  8421504
176
     1
 74
     1
176
     1
 91
        4
176
     1
 64
     7
176
     1
 65
   257
176
     1
 75
     1
176
     1
175
     1
176
     1
 42
1.0
176
     1
 92
        8
176
     1
 66
     8
424
  8421504
176
     1
 43
1.0
176
     1
 76
     1
176
     1
 77
     6
176
     1
 78
     2
176
     1
 67
     7
176
     1
 79
     5
176
     1
170
     0
176
     1
171
     0
176
     1
290
     0
176
     1
 93
        1
176
     1
 44
0.0
176
     1
173
     0
176
     1
  0
VISUALSTYLE
  5
34
102
{ACAD_REACTORS
330
2A
102
}
330
2A
100
AcDbVisualStyle
  2
Conceptual
 70
     9
177
     2
291
     0
 71
     3
176
     1
 72
     2
176
     1
 73
     0
176
     1
 90
        0
176
     1
 40
-0.6
176
     1
 41
-30.0
176
     1
 62
     5
 63
     7
421
 16777215
176
     1
 74
     2
176
     1
 91
        2
176
     1
 64
     7
176
     1
 65
   257
176
     1
 75
     1
176
     1
175
     1
176
     1
 42
40.0
176
     1
 92
        8
176
     1
 66
     7
176
     1
 43
1.0
176
     1
 76
     1
176
     1
 77
     6
176
     1
 78
     2
176
     1
 67
     7
176
     1
 79
     3
176
     1
170
     0
176
     1
171
     0
176
     1
290
     0
176
     1
 93
        1
176
     1
 44
0.0
176
     1
173
     0
176
     1
  0
VISUALSTYLE
  5
35
102
{ACAD_REACTORS
330
2A
102
}
330
2A
100
AcDbVisualStyle
  2
Dim
 70
    11
177
     2
291
     1
 71
     2
176
     1
 72
     2
176
     1
 73
     0
176
     1
 90
        0
176
     1
 40
-0.6
176
     1
 41
-30.0
176
     1
 62
     5
 63
     7
421
 16777215
176
     1
 74
     1
176
     1
 91
        4
176
     1
 64
     7
176
     1
 65
   257
176
     1
 75
     1
176
     1
175
     1
176
     1
 42
1.0
176
     1
 92
        8
176
     1
 66
     7
176
     1
 43
1.0
176
     1
 76
     1
176
     1
 77
     6
176
     1
 78
     2
176
     1
 67
     7
176
     1
 79
     5
176
     1
170
     0
176
     1
171
     0
176
     1
290
     0
176
     1
 93
        1
176
     1
 44
-50.0
176
     1
173
     0
176
     1
  0
VISUALSTYLE
  5
39
102
{ACAD_REACTORS
330
2A
102
}
330
2A
100
AcDbVisualStyle
  2
Facepattern
 70
    15
177
     2
291
     1
 71
     2
176
     1
 72
     2
176
     1
 73
     0
176
     1
 90
        0
176
     1
 40
-0.6
176
     1
 41
-30.0
176
     1
 62
     5
 63
     7
421
 16777215
176
     1
 74
     1
176
     1
 91
        4
176
     1
 64
     7
176
     1
 65
   257
176
     1
 75
     1
176
     1
175
     1
176
     1
 42
1.0
176
     1
 92
        8
176
     1
 66
     7
176
     1
 43
1.0
176
     1
 76
     1
176
     1
 77
     6
176
     1
 78
     2
176
     1
 67
     7
176
     1
 79
     5
176
     1
170
     0
176
     1
171
     0
176
     1
290
     0
176
     1
 93
        1
176
     1
 44
0.0
176
     1
173
     0
176
     1
  0
VISUALSTYLE
  5
2B
102
{ACAD_REACTORS
330
2A
102
}
330
2A
100
AcDbVisualStyle
  2
Flat
 70
     0
177
     2
291
     1
 71
     2
176
     1
 72
     1
176
     1
 73
     1
176
     1
 90
        2
176
     1
 40
-0.6
176
     1
 41
30.0
176
     1
 62
     5
 63
     7
421
 16777215
176
     1
 74
     0
176
     1
 91
        4
176
     1
 64
     7
176
     1
 65
   257
176
     1
 75
     1
176
     1
175
     1
176
     1
 42
1.0
176
     1
 92
        8
176
     1
 66
     7
176
     1
 43
1.0
176
     1
 76
     1
176
     1
 77
     6
176
     1
 78
     2
176
     1
 67
     7
176
     1
 79
     5
176
     1
170
     0
176
     1
171
     0
176
     1
290
     0
176
     1
 93
       13
176
     1
 44
0.0
176
     1
173
     0
176
     1
  0
VISUALSTYLE
  5
2C
102
{ACAD_REACTORS
330
2A
102
}
330
2A
100
AcDbVisualStyle
  2
FlatWithEdges
 70
     1
177
     2
291
     1
 71
     2
176
     1
 72
     1
176
     1
 73
     1
176
     1
 90
        2
176
     1
 40
-0.6
176
     1
 41
30.0
176
     1
 62
     5
 63
     7
421
 16777215
176
     1
 74
     1
176
     1
 91
        4
176
     1
 64
     7
176
     1
 65
   257
176
     1
 75
     1
176
     1
175
     1
176
     1
 42
1.0
176
     1
 92
        0
176
     1
 66
   257
176
     1
 43
1.0
176
     1
 76
     1
176
     1
 77
     6
176
     1
 78
     2
176
     1
 67
     7
176
     1
 79
     5
176
     1
170
     0
176
     1
171
     0
176
     1
290
     0
176
     1
 93
       13
176
     1
 44
0.0
176
     1
173
     0
176
     1
  0
VISUALSTYLE
  5
2D
102
{ACAD_REACTORS
330
2A
102
}
330
2A
100
AcDbVisualStyle
  2
Gouraud
 70
     2
177
     2
291
     1
 71
     2
176
     1
 72
     2
176
     1
 73
     1
176
     1
 90
        2
176
     1
 40
-0.6
176
     1
 41
30.0
176
     1
 62
     5
 63
     7
421
 16777215
176
     1
 74
     0
176
     1
 91
        4
176
     1
 64
     7
176
     1
 65
   257
176
     1
 75
     1
176
     1
175
     1
176
     1
 42
1.0
176
     1
 92
        0
176
     1
 66
     7
176
     1
 43
1.0
176
     1
 76
     1
176
     1
 77
     6
176
     1
 78
     2
176
     1
 67
     7
176
     1
 79
     5
176
     1
170
     0
176
     1
171
     0
176
     1
290
     0
176
     1
 93
       13
176
     1
 44
0.0
176
     1
173
     0
176
     1
  0
VISUALSTYLE
  5
2E
102
{ACAD_REACTORS
330
2A
102
}
330
2A
100
AcDbVisualStyle
  2
GouraudWithEdges
 70
     3
177
     2
291
     1
 71
     2
176
     1
 72
     2
176
     1
 73
     1
176
     1
 90
        2
176
     1
 40
-0.6
176
     1
 41
30.0
176
     1
 62
     5
 63
     7
421
 16777215
176
     1
 74
     1
176
     1
 91
        4
176
     1
 64
     7
176
     1
 65
   257
176
     1
 75
     1
176
     1
175
     1
176
     1
 42
1.0
176
     1
 92
        0
176
     1
 66
   257
176
     1
 43
1.0
176
     1
 76
     1
176
     1
 77
     6
176
     1
 78
     2
176
     1
 67
     7
176
     1
 79
     5
176
     1
170
     0
176
     1
171
     0
176
     1
290
     0
176
     1
 93
       13
176
     1
 44
0.0
176
     1
173
     0
176
     1
  0
VISUALSTYLE
  5
38
102
{ACAD_REACTORS
330
2A
102
}
330
2A
100
AcDbVisualStyle
  2
Linepattern
 70
    14
177
     2
291
     1
 71
     2
176
     1
 72
     2
176
     1
 73
     0
176
     1
 90
        0
176
     1
 40
-0.6
176
     1
 41
-30.0
176
     1
 62
     5
 63
     7
421
 16777215
176
     1
 74
     1
176
     1
 91
        4
176
     1
 64
     7
176
     1
 65
   257
176
     1
 75
     7
176
     1
175
     7
176
     1
 42
1.0
176
     1
 92
        8
176
     1
 66
     7
176
     1
 43
1.0
176
     1
 76
     1
176
     1
 77
     6
176
     1
 78
     2
176
     1
 67
     7
176
     1
 79
     5
176
     1
170
     0
176
     1
171
     0
176
     1
290
     0
176
     1
 93
        1
176
     1
 44
0.0
176
     1
173
     0
176
     1
  0
VISUALSTYLE
  5
33
102
{ACAD_REACTORS
330
2A
102
}
330
2A
100
AcDbVisualStyle
  2
Realistic
 70
     8
177
     2
291
     0
 71
     2
176
     1
 72
     2
176
     1
 73
     0
176
     1
 90
        0
176
     1
 40
-0.6
176
     1
 41
-30.0
176
     1
 62
     5
 63
     7
421
 16777215
176
     1
 74
     1
176
     1
 91
        0
176
     1
 64
     7
176
     1
 65
   257
176
     1
 75
     1
176
     1
175
     1
176
     1
 42
1.0
176
     1
 92
        8
176
     1
 66
     8
424
  7895160
176
     1
 43
1.0
176
     1
 76
     1
176
     1
 77
     6
176
     1
 78
     2
176
     1
 67
     7
176
     1
 79
     5
176
     1
170
     0
176
     1
171
     0
176
     1
290
     0
176
     1
 93
       13
176
     1
 44
0.0
176
     1
173
     0
176
     1
  0
VISUALSTYLE
  5
37
102
{ACAD_REACTORS
330
2A
102
}
330
2A
100
AcDbVisualStyle
  2
Thicken
 70
    13
177
     2
291
     1
 71
     2
176
     1
 72
     2
176
     1
 73
     0
176
     1
 90
        0
176
     1
 40
-0.6
176
     1
 41
-30.0
176
     1
 62
     5
 63
     7
421
 16777215
176
     1
 74
     1
176
     1
 91
        4
176
     1
 64
     7
176
     1
 65
   257
176
     1
 75
     1
176
     1
175
     1
176
     1
 42
1.0
176
     1
 92
       12
176
     1
 66
     7
176
     1
 43
1.0
176
     1
 76
     1
176
     1
 77
     6
176
     1
 78
     2
176
     1
 67
     7
176
     1
 79
     5
176
     1
170
     0
176
     1
171
     0
176
     1
290
     0
176
     1
 93
        1
176
     1
 44
0.0
176
     1
173
     0
176
     1
  0
ENDSEC
  0
EOF
