  0
SECTION
  2
HEADER
  9
$ACADVER
  1
AC1024
  9
$ACADMAINTVER
 70
     6
  9
$DWGCODEPAGE
  3
ANSI_1252
  9
$INSBASE
 10
0.0
 20
0.0
 30
0.0
  9
$EXTMIN
 10
1.000000000000000E+20
 20
1.000000000000000E+20
 30
1.000000000000000E+20
  9
$EXTMAX
 10
-1.000000000000000E+20
 20
-1.000000000000000E+20
 30
-1.000000000000000E+20
  9
$LIMMIN
 10
0.0
 20
0.0
  9
$LIMMAX
 10
12.0
 20
9.0
  9
$ORTHOMODE
 70
     0
  9
$REGENMODE
 70
     1
  9
$FILLMODE
 70
     1
  9
$QTEXTMODE
 70
     0
  9
$MIRRTEXT
 70
     1
  9
$LTSCALE
 40
1.0
  9
$ATTMODE
 70
     1
  9
$TEXTSIZE
 40
0.2
  9
$TRACEWID
 40
0.05
  9
$TEXTSTYLE
  7
Standard
  9
$CLAYER
  8
0
  9
$CELTYPE
  6
ByLayer
  9
$CECOLOR
 62
   256
  9
$CELTSCALE
 40
1.0
  9
$DISPSILH
 70
     0
  9
$DIMSCALE
 40
1.0
  9
$DIMASZ
 40
0.18
  9
$DIMEXO
 40
0.0625
  9
$DIMDLI
 40
0.38
  9
$DIMRND
 40
0.0
  9
$DIMDLE
 40
0.0
  9
$DIMEXE
 40
0.18
  9
$DIMTP
 40
0.0
  9
$DIMTM
 40
0.0
  9
$DIMTXT
 40
0.18
  9
$DIMCEN
 40
0.09
  9
$DIMTSZ
 40
0.0
  9
$DIMTOL
 70
     0
  9
$DIMLIM
 70
     0
  9
$DIMTIH
 70
     1
  9
$DIMTOH
 70
     1
  9
$DIMSE1
 70
     0
  9
$DIMSE2
 70
     0
  9
$DIMTAD
 70
     0
  9
$DIMZIN
 70
     0
  9
$DIMBLK
  1

  9
$DIMASO
 70
     1
  9
$DIMSHO
 70
     1
  9
$DIMPOST
  1

  9
$DIMAPOST
  1

  9
$DIMALT
 70
     0
  9
$DIMALTD
 70
     2
  9
$DIMALTF
 40
25.4
  9
$DIMLFAC
 40
1.0
  9
$DIMTOFL
 70
     0
  9
$DIMTVP
 40
0.0
  9
$DIMTIX
 70
     0
  9
$DIMSOXD
 70
     0
  9
$DIMSAH
 70
     0
  9
$DIMBLK1
  1

  9
$DIMBLK2
  1

  9
$DIMSTYLE
  2
Standard
  9
$DIMCLRD
 70
     0
  9
$DIMCLRE
 70
     0
  9
$DIMCLRT
 70
     0
  9
$DIMTFAC
 40
1.0
  9
$DIMGAP
 40
0.09
  9
$DIMJUST
 70
     0
  9
$DIMSD1
 70
     0
  9
$DIMSD2
 70
     0
  9
$DIMTOLJ
 70
     1
  9
$DIMTZIN
 70
     0
  9
$DIMALTZ
 70
     0
  9
$DIMALTTZ
 70
     0
  9
$DIMUPT
 70
     0
  9
$DIMDEC
 70
     4
  9
$DIMTDEC
 70
     4
  9
$DIMALTU
 70
     2
  9
$DIMALTTD
 70
     2
  9
$DIMTXSTY
  7
Standard
  9
$DIMAUNIT
 70
     0
  9
$DIMADEC
 70
     0
  9
$DIMALTRND
 40
0.0
  9
$DIMAZIN
 70
     0
  9
$DIMDSEP
 70
    46
  9
$DIMATFIT
 70
     3
  9
$DIMFRAC
 70
     0
  9
$DIMLDRBLK
  1

  9
$DIMLUNIT
 70
     2
  9
$DIMLWD
 70
    -2
  9
$DIMLWE
 70
    -2
  9
$DIMTMOVE
 70
     0
  9
$DIMFXL
 40
1.0
  9
$DIMFXLON
 70
     0
  9
$DIMJOGANG
 40
0.7853981633974483
  9
$DIMTFILL
 70
     0
  9
$DIMTFILLCLR
 70
     0
  9
$DIMARCSYM
 70
     0
  9
$DIMLTYPE
  6

  9
$DIMLTEX1
  6

  9
$DIMLTEX2
  6

  9
$DIMTXTDIRECTION
 70
     0
  9
$LUNITS
 70
     2
  9
$LUPREC
 70
     4
  9
$SKETCHINC
 40
0.1
  9
$FILLETRAD
 40
0.5
  9
$AUNITS
 70
     0
  9
$AUPREC
 70
     0
  9
$MENU
  1
.
  9
$ELEVATION
 40
0.0
  9
$PELEVATION
 40
0.0
  9
$THICKNESS
 40
0.0
  9
$LIMCHECK
 70
     0
  9
$CHAMFERA
 40
0.5
  9
$CHAMFERB
 40
0.5
  9
$CHAMFERC
 40
1.0
  9
$CHAMFERD
 40
0.0
  9
$SKPOLY
 70
     0
  9
$TDCREATE
 40
2458746.518379155
  9
$TDUCREATE
 40
2458746.018379155
  9
$TDUPDATE
 40
2458746.518379329
  9
$TDUUPDATE
 40
2458746.018379329
  9
$TDINDWG
 40
0.0000000116
  9
$TDUSRTIMER
 40
0.0000000116
  9
$USRTIMER
 70
     1
  9
$ANGBASE
 50
0.0
  9
$ANGDIR
 70
     0
  9
$PDMODE
 70
     0
  9
$PDSIZE
 40
0.0
  9
$PLINEWID
 40
0.0
  9
$SPLFRAME
 70
     0
  9
$SPLINETYPE
 70
     6
  9
$SPLINESEGS
 70
     8
  9
$HANDSEED
  5
33C
  9
$SURFTAB1
 70
     6
  9
$SURFTAB2
 70
     6
  9
$SURFTYPE
 70
     6
  9
$SURFU
 70
     6
  9
$SURFV
 70
     6
  9
$UCSBASE
  2

  9
$UCSNAME
  2

  9
$UCSORG
 10
0.0
 20
0.0
 30
0.0
  9
$UCSXDIR
 10
1.0
 20
0.0
 30
0.0
  9
$UCSYDIR
 10
0.0
 20
1.0
 30
0.0
  9
$UCSORTHOREF
  2

  9
$UCSORTHOVIEW
 70
     0
  9
$UCSORGTOP
 10
0.0
 20
0.0
 30
0.0
  9
$UCSORGBOTTOM
 10
0.0
 20
0.0
 30
0.0
  9
$UCSORGLEFT
 10
0.0
 20
0.0
 30
0.0
  9
$UCSORGRIGHT
 10
0.0
 20
0.0
 30
0.0
  9
$UCSORGFRONT
 10
0.0
 20
0.0
 30
0.0
  9
$UCSORGBACK
 10
0.0
 20
0.0
 30
0.0
  9
$PUCSBASE
  2

  9
$PUCSNAME
  2

  9
$PUCSORG
 10
0.0
 20
0.0
 30
0.0
  9
$PUCSXDIR
 10
1.0
 20
0.0
 30
0.0
  9
$PUCSYDIR
 10
0.0
 20
1.0
 30
0.0
  9
$PUCSORTHOREF
  2

  9
$PUCSORTHOVIEW
 70
     0
  9
$PUCSORGTOP
 10
0.0
 20
0.0
 30
0.0
  9
$PUCSORGBOTTOM
 10
0.0
 20
0.0
 30
0.0
  9
$PUCSORGLEFT
 10
0.0
 20
0.0
 30
0.0
  9
$PUCSORGRIGHT
 10
0.0
 20
0.0
 30
0.0
  9
$PUCSORGFRONT
 10
0.0
 20
0.0
 30
0.0
  9
$PUCSORGBACK
 10
0.0
 20
0.0
 30
0.0
  9
$USERI1
 70
     0
  9
$USERI2
 70
     0
  9
$USERI3
 70
     0
  9
$USERI4
 70
     0
  9
$USERI5
 70
     0
  9
$USERR1
 40
0.0
  9
$USERR2
 40
0.0
  9
$USERR3
 40
0.0
  9
$USERR4
 40
0.0
  9
$USERR5
 40
0.0
  9
$WORLDVIEW
 70
     1
  9
$SHADEDGE
 70
     3
  9
$SHADEDIF
 70
    70
  9
$TILEMODE
 70
     1
  9
$MAXACTVP
 70
    64
  9
$PINSBASE
 10
0.0
 20
0.0
 30
0.0
  9
$PLIMCHECK
 70
     0
  9
$PEXTMIN
 10
1.000000000000000E+20
 20
1.000000000000000E+20
 30
1.000000000000000E+20
  9
$PEXTMAX
 10
-1.000000000000000E+20
 20
-1.000000000000000E+20
 30
-1.000000000000000E+20
  9
$PLIMMIN
 10
0.0
 20
0.0
  9
$PLIMMAX
 10
12.0
 20
9.0
  9
$UNITMODE
 70
     0
  9
$VISRETAIN
 70
     1
  9
$PLINEGEN
 70
     0
  9
$PSLTSCALE
 70
     1
  9
$TREEDEPTH
 70
  3020
  9
$CMLSTYLE
  2
Standard
  9
$CMLJUST
 70
     0
  9
$CMLSCALE
 40
1.0
  9
$PROXYGRAPHICS
 70
     1
  9
$MEASUREMENT
 70
     0
  9
$CELWEIGHT
370
    -1
  9
$ENDCAPS
280
     0
  9
$JOINSTYLE
280
     0
  9
$LWDISPLAY
290
     1
  9
$INSUNITS
 70
     1
  9
$HYPERLINKBASE
  1

  9
$STYLESHEET
  1

  9
$XEDIT
290
     1
  9
$CEPSNTYPE
380
     0
  9
$PSTYLEMODE
290
     1
  9
$FINGERPRINTGUID
  2
{56B8C0D9-FD51-4F03-B09B-1B97F780A66F}
  9
$VERSIONGUID
  2
{FAEB1C32-E019-11D5-929B-00C0DF256EC4}
  9
$EXTNAMES
290
     1
  9
$PSVPSCALE
 40
0.0
  9
$OLESTARTUP
290
     0
  9
$SORTENTS
280
   127
  9
$INDEXCTL
280
     0
  9
$HIDETEXT
280
     1
  9
$XCLIPFRAME
280
     2
  9
$HALOGAP
280
     0
  9
$OBSCOLOR
 70
   257
  9
$OBSLTYPE
280
     0
  9
$INTERSECTIONDISPLAY
280
     0
  9
$INTERSECTIONCOLOR
 70
   257
  9
$DIMASSOC
280
     2
  9
$PROJECTNAME
  1

  9
$CAMERADISPLAY
290
     0
  9
$LENSLENGTH
 40
50.0
  9
$CAMERAHEIGHT
 40
0.0
  9
$STEPSPERSEC
 40
2.0
  9
$STEPSIZE
 40
6.0
  9
$3DDWFPREC
 40
2.0
  9
$PSOLWIDTH
 40
0.25
  9
$PSOLHEIGHT
 40
4.0
  9
$LOFTANG1
 40
1.570796326794897
  9
$LOFTANG2
 40
1.570796326794897
  9
$LOFTMAG1
 40
0.0
  9
$LOFTMAG2
 40
0.0
  9
$LOFTPARAM
 70
     7
  9
$LOFTNORMALS
280
     1
  9
$LATITUDE
 40
37.795
  9
$LONGITUDE
 40
-122.394
  9
$NORTHDIRECTION
 40
0.0
  9
$TIMEZONE
 70
 -8000
  9
$LIGHTGLYPHDISPLAY
280
     1
  9
$TILEMODELIGHTSYNCH
280
     1
  9
$CMATERIAL
347
3C
  9
$SOLIDHIST
280
     1
  9
$SHOWHIST
280
     1
  9
$DWFFRAME
280
     2
  9
$DGNFRAME
280
     2
  9
$REALWORLDSCALE
290
     1
  9
$INTERFERECOLOR
 62
   256
  9
$CSHADOW
280
     0
  9
$SHADOWPLANELOCATION
 40
0.0
  0
ENDSEC
  0
SECTION
  2
CLASSES
  0
CLASS
  1
ACDBDICTIONARYWDFLT
  2
AcDbDictionaryWithDefault
  3
ObjectDBX Classes
 90
        0
 91
        4
280
     0
281
     0
  0
CLASS
  1
VISUALSTYLE
  2
AcDbVisualStyle
  3
ObjectDBX Classes
 90
     4095
 91
        4
280
     0
281
     0
  0
CLASS
  1
MATERIAL
  2
AcDbMaterial
  3
ObjectDBX Classes
 90
     1153
 91
        4
280
     0
281
     0
  0
CLASS
  1
SUN
  2
AcDbSun
  3
SCENEOE
 90
     1024
 91
        4
280
     0
281
     0
  0
ENDSEC
  0
SECTION
  2
TABLES
  0
TABLE
  2
VPORT
  5
8
330
0
100
AcDbSymbolTable
 70
     1
  0
VPORT
  5
29
330
8
100
AcDbSymbolTableRecord
100
AcDbViewportTableRecord
  2
*Active
 70
     0
 10
0.0
 20
0.0
 11
1.0
 21
1.0
 12
0.0
 22
0.0
 13
0.0
 23
0.0
 14
0.5
 24
0.5
 15
0.5
 25
0.5
 16
0.0
 26
0.0
 36
1.0
 17
4.256577670247578
 27
5.54079499891663
 37
0.0
 40
11.69291338582677
 41
0.7070707070707065
 42
50.0
 43
0.0
 44
0.0
 50
0.0
 51
0.0
 71
     0
 72
   100
 73
     1
 74
     3
 75
     0
 76
     0
 77
     0
 78
     0
281
     0
 65
     1
110
0.0
120
0.0
130
0.0
111
1.0
121
0.0
131
0.0
112
0.0
122
1.0
132
0.0
 79
     0
146
0.0
 60
     3
 61
     5
292
     1
282
     1
141
0.0
142
0.0
 63
   250
361
3F
  0
ENDTAB
  0
TABLE
  2
LTYPE
  5
5
330
0
100
AcDbSymbolTable
 70
     1
  0
LTYPE
  5
14
330
5
100
AcDbSymbolTableRecord
100
AcDbLinetypeTableRecord
  2
ByBlock
 70
     0
  3

 72
    65
 73
     0
 40
0.0
  0
LTYPE
  5
15
330
5
100
AcDbSymbolTableRecord
100
AcDbLinetypeTableRecord
  2
ByLayer
 70
     0
  3

 72
    65
 73
     0
 40
0.0
  0
LTYPE
  5
16
330
5
100
AcDbSymbolTableRecord
100
AcDbLinetypeTableRecord
  2
Continuous
 70
     0
  3
Solid line
 72
    65
 73
     0
 40
0.0
  0
ENDTAB
  0
TABLE
  2
LAYER
  5
2
330
0
100
AcDbSymbolTable
 70
     3
  0
LAYER
  5
10
330
2
100
AcDbSymbolTableRecord
100
AcDbLayerTableRecord
  2
0
 70
     0
 62
     7
  6
Continuous
370
    -3
390
F
347
3E
  0
LAYER
  5
40
330
2
100
AcDbSymbolTableRecord
100
AcDbLayerTableRecord
  2
Layer 1
 70
     0
 62
     7
  6
Continuous
370
    -3
390
F
347
3E
  0
LAYER
  5
331
330
2
100
AcDbSymbolTableRecord
100
AcDbLayerTableRecord
  2
callouts
 70
     0
 62
     7
  6
Continuous
370
    -3
390
F
347
3E
  0
ENDTAB
  0
TABLE
  2
STYLE
  5
3
330
0
100
AcDbSymbolTable
 70
     1
  0
STYLE
  5
11
330
3
100
AcDbSymbolTableRecord
100
AcDbTextStyleTableRecord
  2
Standard
 70
     0
 40
0.0
 41
1.0
 50
0.0
 71
     0
 42
0.2
  3
txt
  4

  0
ENDTAB
  0
TABLE
  2
VIEW
  5
6
330
0
100
AcDbSymbolTable
 70
     0
  0
ENDTAB
  0
TABLE
  2
UCS
  5
7
330
0
100
AcDbSymbolTable
 70
     0
  0
ENDTAB
  0
TABLE
  2
APPID
  5
9
330
0
100
AcDbSymbolTable
 70
     1
  0
APPID
  5
12
330
9
100
AcDbSymbolTableRecord
100
AcDbRegAppTableRecord
  2
ACAD
 70
     0
  0
ENDTAB
  0
TABLE
  2
DIMSTYLE
  5
A
330
0
100
AcDbSymbolTable
 70
     1
100
AcDbDimStyleTable
  0
DIMSTYLE
105
27
330
A
100
AcDbSymbolTableRecord
100
AcDbDimStyleTableRecord
  2
Standard
 70
     0
178
     0
340
11
  0
ENDTAB
  0
TABLE
  2
BLOCK_RECORD
  5
1
330
0
100
AcDbSymbolTable
 70
     7
  0
BLOCK_RECORD
  5
1F
330
1
100
AcDbSymbolTableRecord
100
AcDbBlockTableRecord
  2
*Model_Space
340
22
 70
     0
280
     1
281
     0
  0
BLOCK_RECORD
  5
1B
330
1
100
AcDbSymbolTableRecord
100
AcDbBlockTableRecord
  2
*Paper_Space
340
1E
 70
     0
280
     1
281
     0
  0
BLOCK_RECORD
  5
23
330
1
100
AcDbSymbolTableRecord
100
AcDbBlockTableRecord
  2
*Paper_Space0
340
26
 70
     0
280
     1
281
     0
  0
BLOCK_RECORD
  5
41
330
1
100
AcDbSymbolTableRecord
100
AcDbBlockTableRecord
  2
block 2
340
0
102
{BLKREFS
331
42
102
}
 70
     0
280
     1
281
     0
  0
BLOCK_RECORD
  5
79
330
1
100
AcDbSymbolTableRecord
100
AcDbBlockTableRecord
  2
block 3
340
0
102
{BLKREFS
331
7A
102
}
 70
     0
280
     1
281
     0
  0
BLOCK_RECORD
  5
8C
330
1
100
AcDbSymbolTableRecord
100
AcDbBlockTableRecord
  2
block 4
340
0
102
{BLKREFS
331
8D
102
}
 70
     0
280
     1
281
     0
  0
BLOCK_RECORD
  5
90
330
1
100
AcDbSymbolTableRecord
100
AcDbBlockTableRecord
  2
block 5
340
0
102
{BLKREFS
331
91
102
}
 70
     0
280
     1
281
     0
  0
BLOCK_RECORD
  5
CE
330
1
100
AcDbSymbolTableRecord
100
AcDbBlockTableRecord
  2
block 6
340
0
102
{BLKREFS
331
CF
102
}
 70
     0
280
     1
281
     0
  0
BLOCK_RECORD
  5
DD
330
1
100
AcDbSymbolTableRecord
100
AcDbBlockTableRecord
  2
block 7
340
0
102
{BLKREFS
331
DE
102
}
 70
     0
280
     1
281
     0
  0
ENDTAB
  0
ENDSEC
  0
SECTION
  2
BLOCKS
  0
BLOCK
  5
20
330
1F
100
AcDbEntity
  8
0
100
AcDbBlockBegin
  2
*Model_Space
 70
     0
 10
0.0
 20
0.0
 30
0.0
  3
*Model_Space
  1

  0
ENDBLK
  5
21
330
1F
100
AcDbEntity
  8
0
100
AcDbBlockEnd
  0
BLOCK
  5
1C
330
1B
100
AcDbEntity
 67
     1
  8
0
100
AcDbBlockBegin
  2
*Paper_Space
 70
     0
 10
0.0
 20
0.0
 30
0.0
  3
*Paper_Space
  1

  0
ENDBLK
  5
1D
330
1B
100
AcDbEntity
 67
     1
  8
0
100
AcDbBlockEnd
  0
BLOCK
  5
24
330
23
100
AcDbEntity
  8
0
100
AcDbBlockBegin
  2
*Paper_Space0
 70
     0
 10
0.0
 20
0.0
 30
0.0
  3
*Paper_Space0
  1

  0
ENDBLK
  5
25
330
23
100
AcDbEntity
  8
0
100
AcDbBlockEnd
  0
BLOCK
  5
43
330
41
100
AcDbEntity
  8
0
100
AcDbBlockBegin
  2
block 2
 70
     0
 10
0.0
 20
0.0
 30
0.0
  3
block 2
  1

  0
POLYLINE
  5
45
330
41
100
AcDbEntity
  8
Layer 1
 62
     7
420
 16777215
370
    18
100
AcDb2dPolyline
 66
     1
 10
0.0
 20
0.0
 30
0.0
  0
VERTEX
  5
46
330
45
100
AcDbEntity
  8
Layer 1
 62
     7
420
 16777215
370
    18
100
AcDbVertex
100
AcDb2dVertex
 10
2.739230486356771
 20
6.051066513803865
 30
0.0
  0
VERTEX
  5
47
330
45
100
AcDbEntity
  8
Layer 1
 62
     7
420
 16777215
370
    18
100
AcDbVertex
100
AcDb2dVertex
 10
2.740526319657369
 20
4.571723495619659
 30
0.0
  0
VERTEX
  5
48
330
45
100
AcDbEntity
  8
Layer 1
 62
     7
420
 16777215
370
    18
100
AcDbVertex
100
AcDb2dVertex
 10
3.147094364942152
 20
4.571723495619659
 30
0.0
  0
VERTEX
  5
49
330
45
100
AcDbEntity
  8
Layer 1
 62
     7
420
 16777215
370
    18
100
AcDbVertex
100
AcDb2dVertex
 10
3.148084642694913
 20
5.94169151656691
 30
0.0
  0
VERTEX
  5
4A
330
45
100
AcDbEntity
  8
Layer 1
 62
     7
420
 16777215
370
    18
100
AcDbVertex
100
AcDb2dVertex
 10
2.739230486356771
 20
6.051066513803865
 30
0.0
  0
SEQEND
  5
4C
330
45
100
AcDbEntity
  8
Layer 1
 62
     7
420
 16777215
370
    18
  0
HATCH
  5
4B
330
41
100
AcDbEntity
  8
Layer 1
 62
    43
420
 15510365
100
AcDbHatch
 10
0.0
 20
0.0
 30
0.0
210
0.0
220
0.0
230
1.0
  2
SOLID
 70
     1
 71
     0
 91
        1
 92
        1
 93
        4
 72
     1
 10
2.739230486356771
 20
6.051066513803865
 11
2.740526319657369
 21
4.571723495619659
 72
     1
 10
2.740526319657369
 20
4.571723495619659
 11
3.147094364942152
 21
4.571723495619659
 72
     1
 10
3.147094364942152
 20
4.571723495619659
 11
3.148084642694913
 21
5.94169151656691
 72
     1
 10
3.148084642694913
 20
5.94169151656691
 11
2.739230486356771
 21
6.051066513803865
 97
        0
 75
     2
 76
     1
 98
        0
  0
POLYLINE
  5
4D
330
41
100
AcDbEntity
  8
Layer 1
 62
     7
420
 16777215
370
    18
100
AcDb2dPolyline
 66
     1
 10
0.0
 20
0.0
 30
0.0
  0
VERTEX
  5
4E
330
4D
100
AcDbEntity
  8
Layer 1
 62
     7
420
 16777215
370
    18
100
AcDbVertex
100
AcDb2dVertex
 10
3.879862401986429
 20
4.571885995615554
 30
0.0
  0
VERTEX
  5
4F
330
4D
100
AcDbEntity
  8
Layer 1
 62
     7
420
 16777215
370
    18
100
AcDbVertex
100
AcDb2dVertex
 10
3.880961013069787
 20
5.313626254655396
 30
0.0
  0
VERTEX
  5
50
330
4D
100
AcDbEntity
  8
Layer 1
 62
     7
420
 16777215
370
    18
100
AcDbVertex
100
AcDb2dVertex
 10
4.338894334834751
 20
5.069973483032805
 30
0.0
  0
VERTEX
  5
51
330
4D
100
AcDbEntity
  8
Layer 1
 62
     7
420
 16777215
370
    18
100
AcDbVertex
100
AcDb2dVertex
 10
4.335598501584678
 20
4.571885995615554
 30
0.0
  0
VERTEX
  5
52
330
4D
100
AcDbEntity
  8
Layer 1
 62
     7
420
 16777215
370
    18
100
AcDbVertex
100
AcDb2dVertex
 10
3.879862401986429
 20
4.571885995615554
 30
0.0
  0
SEQEND
  5
54
330
4D
100
AcDbEntity
  8
Layer 1
 62
     7
420
 16777215
370
    18
  0
HATCH
  5
53
330
41
100
AcDbEntity
  8
Layer 1
 62
    43
420
 15510365
100
AcDbHatch
 10
0.0
 20
0.0
 30
0.0
210
0.0
220
0.0
230
1.0
  2
SOLID
 70
     1
 71
     0
 91
        1
 92
        1
 93
        4
 72
     1
 10
3.879862401986429
 20
4.571885995615554
 11
3.880961013069787
 21
5.313626254655396
 72
     1
 10
3.880961013069787
 20
5.313626254655396
 11
4.338894334834751
 21
5.069973483032805
 72
     1
 10
4.338894334834751
 20
5.069973483032805
 11
4.335598501584678
 21
4.571885995615554
 72
     1
 10
4.335598501584678
 20
4.571885995615554
 11
3.879862401986429
 21
4.571885995615554
 97
        0
 75
     2
 76
     1
 98
        0
  0
POLYLINE
  5
55
330
41
100
AcDbEntity
  8
Layer 1
 62
     7
420
 16777215
370
    18
100
AcDb2dPolyline
 66
     1
 10
0.0
 20
0.0
 30
0.0
  0
VERTEX
  5
56
330
55
100
AcDbEntity
  8
Layer 1
 62
     7
420
 16777215
370
    18
100
AcDbVertex
100
AcDb2dVertex
 10
3.262667973133627
 20
4.571885995615554
 30
0.0
  0
VERTEX
  5
57
330
55
100
AcDbEntity
  8
Layer 1
 62
     7
420
 16777215
370
    18
100
AcDbVertex
100
AcDb2dVertex
 10
3.261799917600001
 20
5.571892914797697
 30
0.0
  0
VERTEX
  5
58
330
55
100
AcDbEntity
  8
Layer 1
 62
     7
420
 16777215
370
    18
100
AcDbVertex
100
AcDb2dVertex
 10
3.671074907260845
 20
5.544115137721658
 30
0.0
  0
VERTEX
  5
59
330
55
100
AcDbEntity
  8
Layer 1
 62
     7
420
 16777215
370
    18
100
AcDbVertex
100
AcDb2dVertex
 10
3.669609629520083
 20
5.413424863245382
 30
0.0
  0
VERTEX
  5
5A
330
55
100
AcDbEntity
  8
Layer 1
 62
     7
420
 16777215
370
    18
100
AcDbVertex
100
AcDb2dVertex
 10
3.668056851781532
 20
4.571885995615554
 30
0.0
  0
VERTEX
  5
5B
330
55
100
AcDbEntity
  8
Layer 1
 62
     7
420
 16777215
370
    18
100
AcDbVertex
100
AcDb2dVertex
 10
3.262667973133627
 20
4.571885995615554
 30
0.0
  0
SEQEND
  5
5D
330
55
100
AcDbEntity
  8
Layer 1
 62
     7
420
 16777215
370
    18
  0
HATCH
  5
5C
330
41
100
AcDbEntity
  8
Layer 1
 62
    43
420
 15510365
100
AcDbHatch
 10
0.0
 20
0.0
 30
0.0
210
0.0
220
0.0
230
1.0
  2
SOLID
 70
     1
 71
     0
 91
        1
 92
        1
 93
        5
 72
     1
 10
3.262667973133627
 20
4.571885995615554
 11
3.261799917600001
 21
5.571892914797697
 72
     1
 10
3.261799917600001
 20
5.571892914797697
 11
3.671074907260845
 21
5.544115137721658
 72
     1
 10
3.671074907260845
 20
5.544115137721658
 11
3.669609629520083
 21
5.413424863245382
 72
     1
 10
3.669609629520083
 20
5.413424863245382
 11
3.668056851781532
 21
4.571885995615554
 72
     1
 10
3.668056851781532
 20
4.571885995615554
 11
3.262667973133627
 21
4.571885995615554
 97
        0
 75
     2
 76
     1
 98
        0
  0
POLYLINE
  5
5E
330
41
100
AcDbEntity
  8
Layer 1
 62
     7
420
 16777215
370
    18
100
AcDb2dPolyline
 66
     1
 10
0.0
 20
0.0
 30
0.0
  0
VERTEX
  5
5F
330
5E
100
AcDbEntity
  8
Layer 1
 62
     7
420
 16777215
370
    18
100
AcDbVertex
100
AcDb2dVertex
 10
4.585476273050012
 20
4.935681819758631
 30
0.0
  0
VERTEX
  5
60
330
5E
100
AcDbEntity
  8
Layer 1
 62
     7
420
 16777215
370
    18
100
AcDbVertex
100
AcDb2dVertex
 10
4.582994328668266
 20
4.571885995615554
 30
0.0
  0
VERTEX
  5
61
330
5E
100
AcDbEntity
  8
Layer 1
 62
     7
420
 16777215
370
    18
100
AcDbVertex
100
AcDb2dVertex
 10
5.137695703544219
 20
4.571885995615554
 30
0.0
  0
VERTEX
  5
62
330
5E
100
AcDbEntity
  8
Layer 1
 62
     7
420
 16777215
370
    18
100
AcDbVertex
100
AcDb2dVertex
 10
5.138074870201308
 20
4.703776270061502
 30
0.0
  0
VERTEX
  5
63
330
5E
100
AcDbEntity
  8
Layer 1
 62
     7
420
 16777215
370
    18
100
AcDbVertex
100
AcDb2dVertex
 10
4.585476273050012
 20
4.935681819758631
 30
0.0
  0
SEQEND
  5
65
330
5E
100
AcDbEntity
  8
Layer 1
 62
     7
420
 16777215
370
    18
  0
HATCH
  5
64
330
41
100
AcDbEntity
  8
Layer 1
 62
    43
420
 15510365
100
AcDbHatch
 10
0.0
 20
0.0
 30
0.0
210
0.0
220
0.0
230
1.0
  2
SOLID
 70
     1
 71
     0
 91
        1
 92
        1
 93
        4
 72
     1
 10
4.585476273050012
 20
4.935681819758631
 11
4.582994328668266
 21
4.571885995615554
 72
     1
 10
4.582994328668266
 20
4.571885995615554
 11
5.137695703544219
 21
4.571885995615554
 72
     1
 10
5.137695703544219
 20
4.571885995615554
 11
5.138074870201308
 21
4.703776270061502
 72
     1
 10
5.138074870201308
 20
4.703776270061502
 11
4.585476273050012
 21
4.935681819758631
 97
        0
 75
     2
 76
     1
 98
        0
  0
ENDBLK
  5
44
330
41
100
AcDbEntity
  8
0
100
AcDbBlockEnd
  0
BLOCK
  5
7B
330
79
100
AcDbEntity
  8
0
100
AcDbBlockBegin
  2
block 3
 70
     0
 10
0.0
 20
0.0
 30
0.0
  3
block 3
  1

  0
POLYLINE
  5
7D
330
79
100
AcDbEntity
  8
Layer 1
 62
     7
420
 16777215
370
    18
100
AcDb2dPolyline
 66
     1
 10
0.0
 20
0.0
 30
0.0
  0
VERTEX
  5
7E
330
7D
100
AcDbEntity
  8
Layer 1
 62
     7
420
 16777215
370
    18
100
AcDbVertex
100
AcDb2dVertex
 10
2.645473544280839
 20
5.404358191193952
 30
0.0
  0
VERTEX
  5
7F
330
7D
100
AcDbEntity
  8
Layer 1
 62
     7
420
 16777215
370
    18
100
AcDbVertex
100
AcDb2dVertex
 10
3.99791795455965
 20
5.502448472107567
 30
0.0
  0
VERTEX
  5
80
330
7D
100
AcDbEntity
  8
Layer 1
 62
     7
420
 16777215
370
    18
100
AcDbVertex
100
AcDb2dVertex
 10
4.027926287134922
 20
5.680922078710055
 30
0.0
  0
VERTEX
  5
81
330
7D
100
AcDbEntity
  8
Layer 1
 62
     7
420
 16777215
370
    18
100
AcDbVertex
100
AcDb2dVertex
 10
3.344787415503561
 20
5.78389429833098
 30
0.0
  0
VERTEX
  5
82
330
7D
100
AcDbEntity
  8
Layer 1
 62
     7
420
 16777215
370
    18
100
AcDbVertex
100
AcDb2dVertex
 10
2.646776322025693
 20
5.746812348156911
 30
0.0
  0
VERTEX
  5
83
330
7D
100
AcDbEntity
  8
Layer 1
 62
     7
420
 16777215
370
    18
100
AcDbVertex
100
AcDb2dVertex
 10
2.645473544280839
 20
5.404358191193952
 30
0.0
  0
SEQEND
  5
85
330
7D
100
AcDbEntity
  8
Layer 1
 62
     7
420
 16777215
370
    18
  0
HATCH
  5
84
330
79
100
AcDbEntity
  8
Layer 1
 62
    43
420
 15510365
100
AcDbHatch
 10
0.0
 20
0.0
 30
0.0
210
0.0
220
0.0
230
1.0
  2
SOLID
 70
     1
 71
     0
 91
        1
 92
        1
 93
        5
 72
     1
 10
2.645473544280839
 20
5.404358191193952
 11
3.99791795455965
 21
5.502448472107567
 72
     1
 10
3.99791795455965
 20
5.502448472107567
 11
4.027926287134922
 21
5.680922078710055
 72
     1
 10
4.027926287134922
 20
5.680922078710055
 11
3.344787415503561
 21
5.78389429833098
 72
     1
 10
3.344787415503561
 20
5.78389429833098
 11
2.646776322025693
 21
5.746812348156911
 72
     1
 10
2.646776322025693
 20
5.746812348156911
 11
2.645473544280839
 21
5.404358191193952
 97
        0
 75
     2
 76
     1
 98
        0
  0
ENDBLK
  5
7C
330
79
100
AcDbEntity
  8
0
100
AcDbBlockEnd
  0
BLOCK
  5
8E
330
8C
100
AcDbEntity
  8
0
100
AcDbBlockBegin
  2
block 4
 70
     0
 10
0.0
 20
0.0
 30
0.0
  3
block 4
  1

  0
INSERT
  5
91
330
8C
100
AcDbEntity
  8
Layer 1
100
AcDbBlockReference
  2
block 5
 10
0.0
 20
0.0
 30
0.0
  0
ENDBLK
  5
8F
330
8C
100
AcDbEntity
  8
0
100
AcDbBlockEnd
  0
BLOCK
  5
92
330
90
100
AcDbEntity
  8
0
100
AcDbBlockBegin
  2
block 5
 70
     0
 10
0.0
 20
0.0
 30
0.0
  3
block 5
  1

  0
POLYLINE
  5
94
330
90
100
AcDbEntity
  8
Layer 1
370
     0
100
AcDb2dPolyline
 66
     1
 10
0.0
 20
0.0
 30
0.0
  0
VERTEX
  5
95
330
94
100
AcDbEntity
  8
Layer 1
370
     0
100
AcDbVertex
100
AcDb2dVertex
 10
2.646565210919915
 20
6.511630391057931
 30
0.0
  0
VERTEX
  5
96
330
94
100
AcDbEntity
  8
Layer 1
370
     0
100
AcDbVertex
100
AcDb2dVertex
 10
5.232747090031908
 20
5.720865133607427
 30
0.0
  0
VERTEX
  5
97
330
94
100
AcDbEntity
  8
Layer 1
370
     0
100
AcDbVertex
100
AcDb2dVertex
 10
5.306355420102287
 20
5.651204023905241
 30
0.0
  0
VERTEX
  5
98
330
94
100
AcDbEntity
  8
Layer 1
370
     0
100
AcDbVertex
100
AcDb2dVertex
 10
5.306355420102287
 20
5.288560978212545
 30
0.0
  0
VERTEX
  5
99
330
94
100
AcDbEntity
  8
Layer 1
370
     0
100
AcDbVertex
100
AcDb2dVertex
 10
2.648077710881706
 20
6.038045680799465
 30
0.0
  0
VERTEX
  5
9A
330
94
100
AcDbEntity
  8
Layer 1
370
     0
100
AcDbVertex
100
AcDb2dVertex
 10
2.646565210919915
 20
6.511630391057931
 30
0.0
  0
SEQEND
  5
9C
330
94
100
AcDbEntity
  8
Layer 1
370
     0
  0
HATCH
  5
9B
330
90
100
AcDbEntity
  8
Layer 1
 62
    43
420
 15510365
100
AcDbHatch
 10
0.0
 20
0.0
 30
0.0
210
0.0
220
0.0
230
1.0
  2
SOLID
 70
     1
 71
     0
 91
        1
 92
        1
 93
        5
 72
     1
 10
2.646565210919915
 20
6.511630391057931
 11
5.232747090031908
 21
5.720865133607427
 72
     1
 10
5.232747090031908
 20
5.720865133607427
 11
5.306355420102287
 21
5.651204023905241
 72
     1
 10
5.306355420102287
 20
5.651204023905241
 11
5.306355420102287
 21
5.288560978212545
 72
     1
 10
5.306355420102287
 20
5.288560978212545
 11
2.648077710881706
 21
6.038045680799465
 72
     1
 10
2.648077710881706
 20
6.038045680799465
 11
2.646565210919915
 21
6.511630391057931
 97
        0
 75
     2
 76
     1
 98
        0
  0
POLYLINE
  5
9D
330
90
100
AcDbEntity
  8
Layer 1
 62
     7
420
 16777215
370
    18
100
AcDb2dPolyline
 66
     1
 10
0.0
 20
0.0
 30
0.0
  0
VERTEX
  5
9E
330
9D
100
AcDbEntity
  8
Layer 1
 62
     7
420
 16777215
370
    18
100
AcDbVertex
100
AcDb2dVertex
 10
2.646565210919915
 20
6.511630391057931
 30
0.0
  0
VERTEX
  5
9F
330
9D
100
AcDbEntity
  8
Layer 1
 62
     7
420
 16777215
370
    18
100
AcDbVertex
100
AcDb2dVertex
 10
2.648077710881706
 20
6.038045680799465
 30
0.0
  0
VERTEX
  5
A0
330
9D
100
AcDbEntity
  8
Layer 1
 62
     7
420
 16777215
370
    18
100
AcDbVertex
100
AcDb2dVertex
 10
5.306355420102287
 20
5.288560978212545
 30
0.0
  0
VERTEX
  5
A1
330
9D
100
AcDbEntity
  8
Layer 1
 62
     7
420
 16777215
370
    18
100
AcDbVertex
100
AcDb2dVertex
 10
5.306355420102287
 20
5.651204023905241
 30
0.0
  0
VERTEX
  5
A2
330
9D
100
AcDbEntity
  8
Layer 1
 62
     7
420
 16777215
370
    18
100
AcDbVertex
100
AcDb2dVertex
 10
5.232747090031908
 20
5.720865133607427
 30
0.0
  0
VERTEX
  5
A3
330
9D
100
AcDbEntity
  8
Layer 1
 62
     7
420
 16777215
370
    18
100
AcDbVertex
100
AcDb2dVertex
 10
2.646565210919915
 20
6.511630391057931
 30
0.0
  0
SEQEND
  5
A5
330
9D
100
AcDbEntity
  8
Layer 1
 62
     7
420
 16777215
370
    18
  0
HATCH
  5
A4
330
90
100
AcDbEntity
  8
Layer 1
 62
    43
420
 15510365
100
AcDbHatch
 10
0.0
 20
0.0
 30
0.0
210
0.0
220
0.0
230
1.0
  2
SOLID
 70
     1
 71
     0
 91
        1
 92
        1
 93
        5
 72
     1
 10
2.646565210919915
 20
6.511630391057931
 11
2.648077710881706
 21
6.038045680799465
 72
     1
 10
2.648077710881706
 20
6.038045680799465
 11
5.306355420102287
 21
5.288560978212545
 72
     1
 10
5.306355420102287
 20
5.288560978212545
 11
5.306355420102287
 21
5.651204023905241
 72
     1
 10
5.306355420102287
 20
5.651204023905241
 11
5.232747090031908
 21
5.720865133607427
 72
     1
 10
5.232747090031908
 20
5.720865133607427
 11
2.646565210919915
 21
6.511630391057931
 97
        0
 75
     2
 76
     1
 98
        0
  0
POLYLINE
  5
A6
330
90
100
AcDbEntity
  8
Layer 1
 62
     7
420
 16777215
370
     9
100
AcDb2dPolyline
 66
     1
 10
0.0
 20
0.0
 30
0.0
  0
VERTEX
  5
A7
330
A6
100
AcDbEntity
  8
Layer 1
 62
     7
420
 16777215
370
     9
100
AcDbVertex
100
AcDb2dVertex
 10
5.297552642546886
 20
5.654134579386764
 30
0.0
  0
VERTEX
  5
A8
330
A6
100
AcDbEntity
  8
Layer 1
 62
     7
420
 16777215
370
     9
100
AcDbVertex
100
AcDb2dVertex
 10
2.648058266437753
 20
6.461506780511323
 30
0.0
  0
SEQEND
  5
A9
330
A6
100
AcDbEntity
  8
Layer 1
 62
     7
420
 16777215
370
     9
  0
ENDBLK
  5
93
330
90
100
AcDbEntity
  8
0
100
AcDbBlockEnd
  0
BLOCK
  5
D0
330
CE
100
AcDbEntity
  8
0
100
AcDbBlockBegin
  2
block 6
 70
     0
 10
0.0
 20
0.0
 30
0.0
  3
block 6
  1

  0
POLYLINE
  5
D2
330
CE
100
AcDbEntity
  8
Layer 1
 62
     7
420
 16777215
370
    18
100
AcDb2dPolyline
 66
     1
 10
0.0
 20
0.0
 30
0.0
  0
VERTEX
  5
D3
330
D2
100
AcDbEntity
  8
Layer 1
 62
     7
420
 16777215
370
    18
100
AcDbVertex
100
AcDb2dVertex
 10
3.306112487489258
 20
5.544653753130811
 30
0.0
  0
VERTEX
  5
D4
330
D2
100
AcDbEntity
  8
Layer 1
 62
     7
420
 16777215
370
    18
100
AcDbVertex
100
AcDb2dVertex
 10
3.308184875234284
 20
5.928442700407307
 30
0.0
  0
VERTEX
  5
D5
330
D2
100
AcDbEntity
  8
Layer 1
 62
     7
420
 16777215
370
    18
100
AcDbVertex
100
AcDb2dVertex
 10
4.073053574588167
 20
5.965652542231888
 30
0.0
  0
VERTEX
  5
D6
330
D2
100
AcDbEntity
  8
Layer 1
 62
     7
420
 16777215
370
    18
100
AcDbVertex
100
AcDb2dVertex
 10
4.088054719964108
 20
5.954182666293932
 30
0.0
  0
VERTEX
  5
D7
330
D2
100
AcDbEntity
  8
Layer 1
 62
     7
420
 16777215
370
    18
100
AcDbVertex
100
AcDb2dVertex
 10
4.08771262562027
 20
5.656381991355602
 30
0.0
  0
VERTEX
  5
D8
330
D2
100
AcDbEntity
  8
Layer 1
 62
     7
420
 16777215
370
    18
100
AcDbVertex
100
AcDb2dVertex
 10
4.018247058546219
 20
5.584492721943156
 30
0.0
  0
VERTEX
  5
D9
330
D2
100
AcDbEntity
  8
Layer 1
 62
     7
420
 16777215
370
    18
100
AcDbVertex
100
AcDb2dVertex
 10
3.315032181307767
 20
5.540063871773327
 30
0.0
  0
VERTEX
  5
DA
330
D2
100
AcDbEntity
  8
Layer 1
 62
     7
420
 16777215
370
    18
100
AcDbVertex
100
AcDb2dVertex
 10
3.306112487489258
 20
5.544653753130811
 30
0.0
  0
SEQEND
  5
DC
330
D2
100
AcDbEntity
  8
Layer 1
 62
     7
420
 16777215
370
    18
  0
HATCH
  5
DB
330
CE
100
AcDbEntity
  8
Layer 1
 62
   254
420
 13358815
100
AcDbHatch
 10
0.0
 20
0.0
 30
0.0
210
0.0
220
0.0
230
1.0
  2
SOLID
 70
     1
 71
     0
 91
        1
 92
        1
 93
        7
 72
     1
 10
3.306112487489258
 20
5.544653753130811
 11
3.308184875234284
 21
5.928442700407307
 72
     1
 10
3.308184875234284
 20
5.928442700407307
 11
4.073053574588167
 21
5.965652542231888
 72
     1
 10
4.073053574588167
 20
5.965652542231888
 11
4.088054719964108
 21
5.954182666293932
 72
     1
 10
4.088054719964108
 20
5.954182666293932
 11
4.08771262562027
 21
5.656381991355602
 72
     1
 10
4.08771262562027
 20
5.656381991355602
 11
4.018247058546219
 21
5.584492721943156
 72
     1
 10
4.018247058546219
 20
5.584492721943156
 11
3.315032181307767
 21
5.540063871773327
 72
     1
 10
3.315032181307767
 20
5.540063871773327
 11
3.306112487489258
 21
5.544653753130811
 97
        0
 75
     2
 76
     1
 98
        0
  0
INSERT
  5
DE
330
CE
100
AcDbEntity
  8
Layer 1
100
AcDbBlockReference
  2
block 7
 10
0.0
 20
0.0
 30
0.0
  0
POLYLINE
  5
27E
330
CE
100
AcDbEntity
  8
Layer 1
 62
     7
420
 16777215
370
     9
100
AcDb2dPolyline
 66
     1
 10
0.0
 20
0.0
 30
0.0
  0
VERTEX
  5
27F
330
27E
100
AcDbEntity
  8
Layer 1
 62
     7
420
 16777215
370
     9
100
AcDbVertex
100
AcDb2dVertex
 10
3.31510506498172
 20
5.54006137396454
 30
0.0
  0
VERTEX
  5
280
330
27E
100
AcDbEntity
  8
Layer 1
 62
     7
420
 16777215
370
     9
100
AcDbVertex
100
AcDb2dVertex
 10
3.318044508175969
 20
5.918595630693744
 30
0.0
  0
VERTEX
  5
281
330
27E
100
AcDbEntity
  8
Layer 1
 62
     7
420
 16777215
370
     9
100
AcDbVertex
100
AcDb2dVertex
 10
4.086740846099032
 20
5.953440408720843
 30
0.0
  0
SEQEND
  5
282
330
27E
100
AcDbEntity
  8
Layer 1
 62
     7
420
 16777215
370
     9
  0
ENDBLK
  5
D1
330
CE
100
AcDbEntity
  8
0
100
AcDbBlockEnd
  0
BLOCK
  5
DF
330
DD
100
AcDbEntity
  8
0
100
AcDbBlockBegin
  2
block 7
 70
     0
 10
0.0
 20
0.0
 30
0.0
  3
block 7
  1

  0
POLYLINE
  5
E1
330
DD
100
AcDbEntity
  8
Layer 1
 62
     7
420
 16777215
370
     5
100
AcDb2dPolyline
 66
     1
 10
0.0
 20
0.0
 30
0.0
  0
VERTEX
  5
E2
330
E1
100
AcDbEntity
  8
Layer 1
 62
     7
420
 16777215
370
     5
100
AcDbVertex
100
AcDb2dVertex
 10
3.535349417284667
 20
5.853774668126536
 30
0.0
  0
VERTEX
  5
E3
330
E1
100
AcDbEntity
  8
Layer 1
 62
     7
420
 16777215
370
     5
100
AcDbVertex
100
AcDb2dVertex
 10
3.490058800887469
 20
5.852308711661522
 30
0.0
  0
VERTEX
  5
E4
330
E1
100
AcDbEntity
  8
Layer 1
 62
     7
420
 16777215
370
     5
100
AcDbVertex
100
AcDb2dVertex
 10
3.487341119774985
 20
5.840222081427909
 30
0.0
  0
VERTEX
  5
E5
330
E1
100
AcDbEntity
  8
Layer 1
 62
     7
420
 16777215
370
     5
100
AcDbVertex
100
AcDb2dVertex
 10
3.531972143526799
 20
5.841734952896963
 30
0.0
  0
VERTEX
  5
E6
330
E1
100
AcDbEntity
  8
Layer 1
 62
     7
420
 16777215
370
     5
100
AcDbVertex
100
AcDb2dVertex
 10
3.527421928611072
 20
5.846893458323026
 30
0.0
  0
SEQEND
  5
E7
330
E1
100
AcDbEntity
  8
Layer 1
 62
     7
420
 16777215
370
     5
  0
POLYLINE
  5
E8
330
DD
100
AcDbEntity
  8
Layer 1
 62
     7
420
 16777215
370
     5
100
AcDb2dPolyline
 66
     1
 10
0.0
 20
0.0
 30
0.0
  0
VERTEX
  5
E9
330
E8
100
AcDbEntity
  8
Layer 1
 62
     7
420
 16777215
370
     5
100
AcDbVertex
100
AcDb2dVertex
 10
3.486483686861018
 20
5.89902208421755
 30
0.0
  0
VERTEX
  5
EA
330
E8
100
AcDbEntity
  8
Layer 1
 62
     7
420
 16777215
370
     5
100
AcDbVertex
100
AcDb2dVertex
 10
3.44118968456544
 20
5.897540029533098
 30
0.0
  0
VERTEX
  5
EB
330
E8
100
AcDbEntity
  8
Layer 1
 62
     7
420
 16777215
370
     5
100
AcDbVertex
100
AcDb2dVertex
 10
3.438469999831455
 20
5.885460856938506
 30
0.0
  0
VERTEX
  5
EC
330
E8
100
AcDbEntity
  8
Layer 1
 62
     7
420
 16777215
370
     5
100
AcDbVertex
100
AcDb2dVertex
 10
3.483113501791144
 20
5.886974169340495
 30
0.0
  0
VERTEX
  5
ED
330
E8
100
AcDbEntity
  8
Layer 1
 62
     7
420
 16777215
370
     5
100
AcDbVertex
100
AcDb2dVertex
 10
3.478551503205065
 20
5.892124566734297
 30
0.0
  0
SEQEND
  5
EE
330
E8
100
AcDbEntity
  8
Layer 1
 62
     7
420
 16777215
370
     5
  0
POLYLINE
  5
EF
330
DD
100
AcDbEntity
  8
Layer 1
 62
     7
420
 16777215
370
     5
100
AcDb2dPolyline
 66
     1
 10
0.0
 20
0.0
 30
0.0
  0
VERTEX
  5
F0
330
EF
100
AcDbEntity
  8
Layer 1
 62
     7
420
 16777215
370
     5
100
AcDbVertex
100
AcDb2dVertex
 10
3.383413905417178
 20
5.895154444061214
 30
0.0
  0
VERTEX
  5
F1
330
EF
100
AcDbEntity
  8
Layer 1
 62
     7
420
 16777215
370
     5
100
AcDbVertex
100
AcDb2dVertex
 10
3.338119827326712
 20
5.893672377249181
 30
0.0
  0
VERTEX
  5
F2
330
EF
100
AcDbEntity
  8
Layer 1
 62
     7
420
 16777215
370
     5
100
AcDbVertex
100
AcDb2dVertex
 10
3.335401450761436
 20
5.881593413968416
 30
0.0
  0
VERTEX
  5
F3
330
EF
100
AcDbEntity
  8
Layer 1
 62
     7
420
 16777215
370
     5
100
AcDbVertex
100
AcDb2dVertex
 10
3.380043565877486
 20
5.883108060113967
 30
0.0
  0
VERTEX
  5
F4
330
EF
100
AcDbEntity
  8
Layer 1
 62
     7
420
 16777215
370
     5
100
AcDbVertex
100
AcDb2dVertex
 10
3.375489116004019
 20
5.888258109695585
 30
0.0
  0
SEQEND
  5
F5
330
EF
100
AcDbEntity
  8
Layer 1
 62
     7
420
 16777215
370
     5
  0
POLYLINE
  5
F6
330
DD
100
AcDbEntity
  8
Layer 1
 62
     7
420
 16777215
370
     5
100
AcDb2dPolyline
 66
     1
 10
0.0
 20
0.0
 30
0.0
  0
VERTEX
  5
F7
330
F6
100
AcDbEntity
  8
Layer 1
 62
     7
420
 16777215
370
     5
100
AcDbVertex
100
AcDb2dVertex
 10
3.43359210286533
 20
5.849024966232364
 30
0.0
  0
VERTEX
  5
F8
330
F6
100
AcDbEntity
  8
Layer 1
 62
     7
420
 16777215
370
     5
100
AcDbVertex
100
AcDb2dVertex
 10
3.388298024774826
 20
5.847542899420343
 30
0.0
  0
VERTEX
  5
F9
330
F6
100
AcDbEntity
  8
Layer 1
 62
     7
420
 16777215
370
     5
100
AcDbVertex
100
AcDb2dVertex
 10
3.385579416911368
 20
5.83545456525591
 30
0.0
  0
VERTEX
  5
FA
330
F6
100
AcDbEntity
  8
Layer 1
 62
     7
420
 16777215
370
     5
100
AcDbVertex
100
AcDb2dVertex
 10
3.430221917795418
 20
5.836977051355322
 30
0.0
  0
VERTEX
  5
FB
330
F6
100
AcDbEntity
  8
Layer 1
 62
     7
420
 16777215
370
     5
100
AcDbVertex
100
AcDb2dVertex
 10
3.425665463199026
 20
5.842134558399746
 30
0.0
  0
SEQEND
  5
FC
330
F6
100
AcDbEntity
  8
Layer 1
 62
     7
420
 16777215
370
     5
  0
POLYLINE
  5
FD
330
DD
100
AcDbEntity
  8
Layer 1
 62
     7
420
 16777215
370
     5
100
AcDb2dPolyline
 66
     1
 10
0.0
 20
0.0
 30
0.0
  0
VERTEX
  5
FE
330
FD
100
AcDbEntity
  8
Layer 1
 62
     7
420
 16777215
370
     5
100
AcDbVertex
100
AcDb2dVertex
 10
3.58945229595089
 20
5.720928315483055
 30
0.0
  0
VERTEX
  5
FF
330
FD
100
AcDbEntity
  8
Layer 1
 62
     7
420
 16777215
370
     5
100
AcDbVertex
100
AcDb2dVertex
 10
3.544157445511246
 20
5.719453903320085
 30
0.0
  0
VERTEX
  5
100
330
FD
100
AcDbEntity
  8
Layer 1
 62
     7
420
 16777215
370
     5
100
AcDbVertex
100
AcDb2dVertex
 10
3.541431829172982
 20
5.707372225991876
 30
0.0
  0
VERTEX
  5
101
330
FD
100
AcDbEntity
  8
Layer 1
 62
     7
420
 16777215
370
     5
100
AcDbVertex
100
AcDb2dVertex
 10
3.586069014793831
 20
5.708886083392334
 30
0.0
  0
VERTEX
  5
102
330
FD
100
AcDbEntity
  8
Layer 1
 62
     7
420
 16777215
370
     5
100
AcDbVertex
100
AcDb2dVertex
 10
3.581519494415577
 20
5.714036921719058
 30
0.0
  0
SEQEND
  5
103
330
FD
100
AcDbEntity
  8
Layer 1
 62
     7
420
 16777215
370
     5
  0
POLYLINE
  5
104
330
DD
100
AcDbEntity
  8
Layer 1
 62
     7
420
 16777215
370
     5
100
AcDb2dPolyline
 66
     1
 10
0.0
 20
0.0
 30
0.0
  0
VERTEX
  5
105
330
104
100
AcDbEntity
  8
Layer 1
 62
     7
420
 16777215
370
     5
100
AcDbVertex
100
AcDb2dVertex
 10
3.53593617915793
 20
5.591012798086593
 30
0.0
  0
VERTEX
  5
106
330
104
100
AcDbEntity
  8
Layer 1
 62
     7
420
 16777215
370
     5
100
AcDbVertex
100
AcDb2dVertex
 10
3.490640884497743
 20
5.589530377456009
 30
0.0
  0
VERTEX
  5
107
330
104
100
AcDbEntity
  8
Layer 1
 62
     7
420
 16777215
370
     5
100
AcDbVertex
100
AcDb2dVertex
 10
3.487923280281608
 20
5.577443759526179
 30
0.0
  0
VERTEX
  5
108
330
104
100
AcDbEntity
  8
Layer 1
 62
     7
420
 16777215
370
     5
100
AcDbVertex
100
AcDb2dVertex
 10
3.532560620372262
 20
5.578956085996828
 30
0.0
  0
VERTEX
  5
109
330
104
100
AcDbEntity
  8
Layer 1
 62
     7
420
 16777215
370
     5
100
AcDbVertex
100
AcDb2dVertex
 10
3.528009555295739
 20
5.584122233621681
 30
0.0
  0
SEQEND
  5
10A
330
104
100
AcDbEntity
  8
Layer 1
 62
     7
420
 16777215
370
     5
  0
POLYLINE
  5
10B
330
DD
100
AcDbEntity
  8
Layer 1
 62
     7
420
 16777215
370
     5
100
AcDb2dPolyline
 66
     1
 10
0.0
 20
0.0
 30
0.0
  0
VERTEX
  5
10C
330
10B
100
AcDbEntity
  8
Layer 1
 62
     7
420
 16777215
370
     5
100
AcDbVertex
100
AcDb2dVertex
 10
3.480451833268262
 20
5.630095572694649
 30
0.0
  0
VERTEX
  5
10D
330
10B
100
AcDbEntity
  8
Layer 1
 62
     7
420
 16777215
370
     5
100
AcDbVertex
100
AcDb2dVertex
 10
3.435162463243437
 20
5.628629655283159
 30
0.0
  0
VERTEX
  5
10E
330
10B
100
AcDbEntity
  8
Layer 1
 62
     7
420
 16777215
370
     5
100
AcDbVertex
100
AcDb2dVertex
 10
3.432444938526588
 20
5.616541494427881
 30
0.0
  0
VERTEX
  5
10F
330
10B
100
AcDbEntity
  8
Layer 1
 62
     7
420
 16777215
370
     5
100
AcDbVertex
100
AcDb2dVertex
 10
3.47708089177364
 20
5.61805515464203
 30
0.0
  0
VERTEX
  5
110
330
10B
100
AcDbEntity
  8
Layer 1
 62
     7
420
 16777215
370
     5
100
AcDbVertex
100
AcDb2dVertex
 10
3.472530599046258
 20
5.623213647617831
 30
0.0
  0
SEQEND
  5
111
330
10B
100
AcDbEntity
  8
Layer 1
 62
     7
420
 16777215
370
     5
  0
POLYLINE
  5
112
330
DD
100
AcDbEntity
  8
Layer 1
 62
     7
420
 16777215
370
     5
100
AcDb2dPolyline
 66
     1
 10
0.0
 20
0.0
 30
0.0
  0
VERTEX
  5
113
330
112
100
AcDbEntity
  8
Layer 1
 62
     7
420
 16777215
370
     5
100
AcDbVertex
100
AcDb2dVertex
 10
3.43087397341152
 20
5.583993369436775
 30
0.0
  0
VERTEX
  5
114
330
112
100
AcDbEntity
  8
Layer 1
 62
     7
420
 16777215
370
     5
100
AcDbVertex
100
AcDb2dVertex
 10
3.385579953100066
 20
5.582511471423686
 30
0.0
  0
VERTEX
  5
115
330
112
100
AcDbEntity
  8
Layer 1
 62
     7
420
 16777215
370
     5
100
AcDbVertex
100
AcDb2dVertex
 10
3.382865903896067
 20
5.570439263572616
 30
0.0
  0
VERTEX
  5
116
330
112
100
AcDbEntity
  8
Layer 1
 62
     7
420
 16777215
370
     5
100
AcDbVertex
100
AcDb2dVertex
 10
3.427503788341646
 20
5.571945454559707
 30
0.0
  0
VERTEX
  5
117
330
112
100
AcDbEntity
  8
Layer 1
 62
     7
420
 16777215
370
     5
100
AcDbVertex
100
AcDb2dVertex
 10
3.422953479799705
 20
5.577104104271434
 30
0.0
  0
SEQEND
  5
118
330
112
100
AcDbEntity
  8
Layer 1
 62
     7
420
 16777215
370
     5
  0
POLYLINE
  5
119
330
DD
100
AcDbEntity
  8
Layer 1
 62
     7
420
 16777215
370
     5
100
AcDb2dPolyline
 66
     1
 10
0.0
 20
0.0
 30
0.0
  0
VERTEX
  5
11A
330
119
100
AcDbEntity
  8
Layer 1
 62
     7
420
 16777215
370
     5
100
AcDbVertex
100
AcDb2dVertex
 10
3.378034783075413
 20
5.624561887676678
 30
0.0
  0
VERTEX
  5
11B
330
119
100
AcDbEntity
  8
Layer 1
 62
     7
420
 16777215
370
     5
100
AcDbVertex
100
AcDb2dVertex
 10
3.332739932635806
 20
5.623087475513708
 30
0.0
  0
VERTEX
  5
11C
330
119
100
AcDbEntity
  8
Layer 1
 62
     7
420
 16777215
370
     5
100
AcDbVertex
100
AcDb2dVertex
 10
3.330020323696734
 20
5.611008315046686
 30
0.0
  0
VERTEX
  5
11D
330
119
100
AcDbEntity
  8
Layer 1
 62
     7
420
 16777215
370
     5
100
AcDbVertex
100
AcDb2dVertex
 10
3.374657509317558
 20
5.61252217244713
 30
0.0
  0
VERTEX
  5
11E
330
119
100
AcDbEntity
  8
Layer 1
 62
     7
420
 16777215
370
     5
100
AcDbVertex
100
AcDb2dVertex
 10
3.370101827070294
 20
5.61767202484249
 30
0.0
  0
SEQEND
  5
11F
330
119
100
AcDbEntity
  8
Layer 1
 62
     7
420
 16777215
370
     5
  0
POLYLINE
  5
120
330
DD
100
AcDbEntity
  8
Layer 1
 62
     7
420
 16777215
370
     5
100
AcDb2dPolyline
 66
     1
 10
0.0
 20
0.0
 30
0.0
  0
VERTEX
  5
121
330
120
100
AcDbEntity
  8
Layer 1
 62
     7
420
 16777215
370
     5
100
AcDbVertex
100
AcDb2dVertex
 10
3.430899832732823
 20
5.671297237735732
 30
0.0
  0
VERTEX
  5
122
330
120
100
AcDbEntity
  8
Layer 1
 62
     7
420
 16777215
370
     5
100
AcDbVertex
100
AcDb2dVertex
 10
3.385604982293216
 20
5.669822825572762
 30
0.0
  0
VERTEX
  5
123
330
120
100
AcDbEntity
  8
Layer 1
 62
     7
420
 16777215
370
     5
100
AcDbVertex
100
AcDb2dVertex
 10
3.382880598328749
 20
5.657741345430837
 30
0.0
  0
VERTEX
  5
124
330
120
100
AcDbEntity
  8
Layer 1
 62
     7
420
 16777215
370
     5
100
AcDbVertex
100
AcDb2dVertex
 10
3.427523485793927
 20
5.659248336927337
 30
0.0
  0
VERTEX
  5
125
330
120
100
AcDbEntity
  8
Layer 1
 62
     7
420
 16777215
370
     5
100
AcDbVertex
100
AcDb2dVertex
 10
3.422974345727804
 20
5.664408569980751
 30
0.0
  0
SEQEND
  5
126
330
120
100
AcDbEntity
  8
Layer 1
 62
     7
420
 16777215
370
     5
  0
POLYLINE
  5
127
330
DD
100
AcDbEntity
  8
Layer 1
 62
     7
420
 16777215
370
     5
100
AcDb2dPolyline
 66
     1
 10
0.0
 20
0.0
 30
0.0
  0
VERTEX
  5
128
330
127
100
AcDbEntity
  8
Layer 1
 62
     7
420
 16777215
370
     5
100
AcDbVertex
100
AcDb2dVertex
 10
3.380677421516894
 20
5.71090304089839
 30
0.0
  0
VERTEX
  5
129
330
127
100
AcDbEntity
  8
Layer 1
 62
     7
420
 16777215
370
     5
100
AcDbVertex
100
AcDb2dVertex
 10
3.335381724905801
 20
5.70943627157251
 30
0.0
  0
VERTEX
  5
12A
330
127
100
AcDbEntity
  8
Layer 1
 62
     7
420
 16777215
370
     5
100
AcDbVertex
100
AcDb2dVertex
 10
3.332658113290487
 20
5.697347136781533
 30
0.0
  0
VERTEX
  5
12B
330
127
100
AcDbEntity
  8
Layer 1
 62
     7
420
 16777215
370
     5
100
AcDbVertex
100
AcDb2dVertex
 10
3.377294838886655
 20
5.698853142346644
 30
0.0
  0
VERTEX
  5
12C
330
127
100
AcDbEntity
  8
Layer 1
 62
     7
420
 16777215
370
     5
100
AcDbVertex
100
AcDb2dVertex
 10
3.372745006183954
 20
5.704019487157754
 30
0.0
  0
SEQEND
  5
12D
330
127
100
AcDbEntity
  8
Layer 1
 62
     7
420
 16777215
370
     5
  0
POLYLINE
  5
12E
330
DD
100
AcDbEntity
  8
Layer 1
 62
     7
420
 16777215
370
     5
100
AcDb2dPolyline
 66
     1
 10
0.0
 20
0.0
 30
0.0
  0
VERTEX
  5
12F
330
12E
100
AcDbEntity
  8
Layer 1
 62
     7
420
 16777215
370
     5
100
AcDbVertex
100
AcDb2dVertex
 10
3.382055186605107
 20
5.803846202450864
 30
0.0
  0
VERTEX
  5
130
330
12E
100
AcDbEntity
  8
Layer 1
 62
     7
420
 16777215
370
     5
100
AcDbVertex
100
AcDb2dVertex
 10
3.336754946645631
 20
5.80236314970744
 30
0.0
  0
VERTEX
  5
131
330
12E
100
AcDbEntity
  8
Layer 1
 62
     7
420
 16777215
370
     5
100
AcDbVertex
100
AcDb2dVertex
 10
3.334036570080356
 20
5.7902841864267
 30
0.0
  0
VERTEX
  5
132
330
12E
100
AcDbEntity
  8
Layer 1
 62
     7
420
 16777215
370
     5
100
AcDbVertex
100
AcDb2dVertex
 10
3.378677912847239
 20
5.79180648722129
 30
0.0
  0
VERTEX
  5
133
330
12E
100
AcDbEntity
  8
Layer 1
 62
     7
420
 16777215
370
     5
100
AcDbVertex
100
AcDb2dVertex
 10
3.374122230600013
 20
5.796956339616687
 30
0.0
  0
SEQEND
  5
134
330
12E
100
AcDbEntity
  8
Layer 1
 62
     7
420
 16777215
370
     5
  0
POLYLINE
  5
135
330
DD
100
AcDbEntity
  8
Layer 1
 62
     7
420
 16777215
370
     5
100
AcDb2dPolyline
 66
     1
 10
0.0
 20
0.0
 30
0.0
  0
VERTEX
  5
136
330
135
100
AcDbEntity
  8
Layer 1
 62
     7
420
 16777215
370
     5
100
AcDbVertex
100
AcDb2dVertex
 10
3.430917594391051
 20
5.757787763261616
 30
0.0
  0
VERTEX
  5
137
330
135
100
AcDbEntity
  8
Layer 1
 62
     7
420
 16777215
370
     5
100
AcDbVertex
100
AcDb2dVertex
 10
3.385622126072108
 20
5.756319474817915
 30
0.0
  0
VERTEX
  5
138
330
135
100
AcDbEntity
  8
Layer 1
 62
     7
420
 16777215
370
     5
100
AcDbVertex
100
AcDb2dVertex
 10
3.382897127613155
 20
5.744231673770438
 30
0.0
  0
VERTEX
  5
139
330
135
100
AcDbEntity
  8
Layer 1
 62
     7
420
 16777215
370
     5
100
AcDbVertex
100
AcDb2dVertex
 10
3.427541306291219
 20
5.745739035375638
 30
0.0
  0
VERTEX
  5
13A
330
135
100
AcDbEntity
  8
Layer 1
 62
     7
420
 16777215
370
     5
100
AcDbVertex
100
AcDb2dVertex
 10
3.422984792855737
 20
5.750896369497632
 30
0.0
  0
SEQEND
  5
13B
330
135
100
AcDbEntity
  8
Layer 1
 62
     7
420
 16777215
370
     5
  0
POLYLINE
  5
13C
330
DD
100
AcDbEntity
  8
Layer 1
 62
     7
420
 16777215
370
     5
100
AcDb2dPolyline
 66
     1
 10
0.0
 20
0.0
 30
0.0
  0
VERTEX
  5
13D
330
13C
100
AcDbEntity
  8
Layer 1
 62
     7
420
 16777215
370
     5
100
AcDbVertex
100
AcDb2dVertex
 10
3.482443065331848
 20
5.71647545651884
 30
0.0
  0
VERTEX
  5
13E
330
13C
100
AcDbEntity
  8
Layer 1
 62
     7
420
 16777215
370
     5
100
AcDbVertex
100
AcDb2dVertex
 10
3.437148214892254
 20
5.715001044355859
 30
0.0
  0
VERTEX
  5
13F
330
13C
100
AcDbEntity
  8
Layer 1
 62
     7
420
 16777215
370
     5
100
AcDbVertex
100
AcDb2dVertex
 10
3.434423676457957
 20
5.702921095143728
 30
0.0
  0
VERTEX
  5
140
330
13C
100
AcDbEntity
  8
Layer 1
 62
     7
420
 16777215
370
     5
100
AcDbVertex
100
AcDb2dVertex
 10
3.479066563923134
 20
5.704428086640215
 30
0.0
  0
VERTEX
  5
141
330
13C
100
AcDbEntity
  8
Layer 1
 62
     7
420
 16777215
370
     5
100
AcDbVertex
100
AcDb2dVertex
 10
3.474510109326742
 20
5.709585593684626
 30
0.0
  0
SEQEND
  5
142
330
13C
100
AcDbEntity
  8
Layer 1
 62
     7
420
 16777215
370
     5
  0
POLYLINE
  5
143
330
DD
100
AcDbEntity
  8
Layer 1
 62
     7
420
 16777215
370
     5
100
AcDb2dPolyline
 66
     1
 10
0.0
 20
0.0
 30
0.0
  0
VERTEX
  5
144
330
143
100
AcDbEntity
  8
Layer 1
 62
     7
420
 16777215
370
     5
100
AcDbVertex
100
AcDb2dVertex
 10
3.535304389464538
 20
5.67835595499077
 30
0.0
  0
VERTEX
  5
145
330
143
100
AcDbEntity
  8
Layer 1
 62
     7
420
 16777215
370
     5
100
AcDbVertex
100
AcDb2dVertex
 10
3.490004149505037
 20
5.676872902247383
 30
0.0
  0
VERTEX
  5
146
330
143
100
AcDbEntity
  8
Layer 1
 62
     7
420
 16777215
370
     5
100
AcDbVertex
100
AcDb2dVertex
 10
3.487290856904817
 20
5.664793196781893
 30
0.0
  0
VERTEX
  5
147
330
143
100
AcDbEntity
  8
Layer 1
 62
     7
420
 16777215
370
     5
100
AcDbVertex
100
AcDb2dVertex
 10
3.531928042525654
 20
5.666307054182337
 30
0.0
  0
VERTEX
  5
148
330
143
100
AcDbEntity
  8
Layer 1
 62
     7
420
 16777215
370
     5
100
AcDbVertex
100
AcDb2dVertex
 10
3.527372205808585
 20
5.671458437507504
 30
0.0
  0
SEQEND
  5
149
330
143
100
AcDbEntity
  8
Layer 1
 62
     7
420
 16777215
370
     5
  0
POLYLINE
  5
14A
330
DD
100
AcDbEntity
  8
Layer 1
 62
     7
420
 16777215
370
     5
100
AcDb2dPolyline
 66
     1
 10
0.0
 20
0.0
 30
0.0
  0
VERTEX
  5
14B
330
14A
100
AcDbEntity
  8
Layer 1
 62
     7
420
 16777215
370
     5
100
AcDbVertex
100
AcDb2dVertex
 10
3.591418876736232
 20
5.636776079045275
 30
0.0
  0
VERTEX
  5
14C
330
14A
100
AcDbEntity
  8
Layer 1
 62
     7
420
 16777215
370
     5
100
AcDbVertex
100
AcDb2dVertex
 10
3.5461240262966
 20
5.635301666882317
 30
0.0
  0
VERTEX
  5
14D
330
14A
100
AcDbEntity
  8
Layer 1
 62
     7
420
 16777215
370
     5
100
AcDbVertex
100
AcDb2dVertex
 10
3.543405344176512
 20
5.623213320836397
 30
0.0
  0
VERTEX
  5
14E
330
14A
100
AcDbEntity
  8
Layer 1
 62
     7
420
 16777215
370
     5
100
AcDbVertex
100
AcDb2dVertex
 10
3.58804175744822
 20
5.624734832885919
 30
0.0
  0
VERTEX
  5
14F
330
14A
100
AcDbEntity
  8
Layer 1
 62
     7
420
 16777215
370
     5
100
AcDbVertex
100
AcDb2dVertex
 10
3.58349231573119
 20
5.629885683798849
 30
0.0
  0
SEQEND
  5
150
330
14A
100
AcDbEntity
  8
Layer 1
 62
     7
420
 16777215
370
     5
  0
POLYLINE
  5
151
330
DD
100
AcDbEntity
  8
Layer 1
 62
     7
420
 16777215
370
     5
100
AcDb2dPolyline
 66
     1
 10
0.0
 20
0.0
 30
0.0
  0
VERTEX
  5
152
330
151
100
AcDbEntity
  8
Layer 1
 62
     7
420
 16777215
370
     5
100
AcDbVertex
100
AcDb2dVertex
 10
3.63771186051555
 20
5.597392485126812
 30
0.0
  0
VERTEX
  5
153
330
151
100
AcDbEntity
  8
Layer 1
 62
     7
420
 16777215
370
     5
100
AcDbVertex
100
AcDb2dVertex
 10
3.592416470994534
 20
5.595924209291184
 30
0.0
  0
VERTEX
  5
154
330
151
100
AcDbEntity
  8
Layer 1
 62
     7
420
 16777215
370
     5
100
AcDbVertex
100
AcDb2dVertex
 10
3.589697555606689
 20
5.583837381567011
 30
0.0
  0
VERTEX
  5
155
330
151
100
AcDbEntity
  8
Layer 1
 62
     7
420
 16777215
370
     5
100
AcDbVertex
100
AcDb2dVertex
 10
3.634328563608101
 20
5.585350409136203
 30
0.0
  0
VERTEX
  5
156
330
151
100
AcDbEntity
  8
Layer 1
 62
     7
420
 16777215
370
     5
100
AcDbVertex
100
AcDb2dVertex
 10
3.629778286631121
 20
5.590508746011879
 30
0.0
  0
SEQEND
  5
157
330
151
100
AcDbEntity
  8
Layer 1
 62
     7
420
 16777215
370
     5
  0
POLYLINE
  5
158
330
DD
100
AcDbEntity
  8
Layer 1
 62
     7
420
 16777215
370
     5
100
AcDb2dPolyline
 66
     1
 10
0.0
 20
0.0
 30
0.0
  0
VERTEX
  5
159
330
158
100
AcDbEntity
  8
Layer 1
 62
     7
420
 16777215
370
     5
100
AcDbVertex
100
AcDb2dVertex
 10
3.484460681336524
 20
5.807744450077999
 30
0.0
  0
VERTEX
  5
15A
330
158
100
AcDbEntity
  8
Layer 1
 62
     7
420
 16777215
370
     5
100
AcDbVertex
100
AcDb2dVertex
 10
3.439165906412515
 20
5.80627004999792
 30
0.0
  0
VERTEX
  5
15B
330
158
100
AcDbEntity
  8
Layer 1
 62
     7
420
 16777215
370
     5
100
AcDbVertex
100
AcDb2dVertex
 10
3.436452442891007
 20
5.79419203752578
 30
0.0
  0
VERTEX
  5
15C
330
158
100
AcDbEntity
  8
Layer 1
 62
     7
420
 16777215
370
     5
100
AcDbVertex
100
AcDb2dVertex
 10
3.481083562048474
 20
5.795703203918618
 30
0.0
  0
VERTEX
  5
15D
330
158
100
AcDbEntity
  8
Layer 1
 62
     7
420
 16777215
370
     5
100
AcDbVertex
100
AcDb2dVertex
 10
3.476533887200389
 20
5.800855573175176
 30
0.0
  0
SEQEND
  5
15E
330
158
100
AcDbEntity
  8
Layer 1
 62
     7
420
 16777215
370
     5
  0
POLYLINE
  5
15F
330
DD
100
AcDbEntity
  8
Layer 1
 62
     7
420
 16777215
370
     5
100
AcDb2dPolyline
 66
     1
 10
0.0
 20
0.0
 30
0.0
  0
VERTEX
  5
160
330
15F
100
AcDbEntity
  8
Layer 1
 62
     7
420
 16777215
370
     5
100
AcDbVertex
100
AcDb2dVertex
 10
3.536606171396632
 20
5.761503502440645
 30
0.0
  0
VERTEX
  5
161
330
15F
100
AcDbEntity
  8
Layer 1
 62
     7
420
 16777215
370
     5
100
AcDbVertex
100
AcDb2dVertex
 10
3.491311320957
 20
5.760029090277688
 30
0.0
  0
VERTEX
  5
162
330
15F
100
AcDbEntity
  8
Layer 1
 62
     7
420
 16777215
370
     5
100
AcDbVertex
100
AcDb2dVertex
 10
3.48859256096518
 20
5.747942287417724
 30
0.0
  0
VERTEX
  5
163
330
15F
100
AcDbEntity
  8
Layer 1
 62
     7
420
 16777215
370
     5
100
AcDbVertex
100
AcDb2dVertex
 10
3.533229669987918
 20
5.749456132562058
 30
0.0
  0
VERTEX
  5
164
330
15F
100
AcDbEntity
  8
Layer 1
 62
     7
420
 16777215
370
     5
100
AcDbVertex
100
AcDb2dVertex
 10
3.52867937726051
 20
5.754614625537847
 30
0.0
  0
SEQEND
  5
165
330
15F
100
AcDbEntity
  8
Layer 1
 62
     7
420
 16777215
370
     5
  0
POLYLINE
  5
166
330
DD
100
AcDbEntity
  8
Layer 1
 62
     7
420
 16777215
370
     5
100
AcDb2dPolyline
 66
     1
 10
0.0
 20
0.0
 30
0.0
  0
VERTEX
  5
167
330
166
100
AcDbEntity
  8
Layer 1
 62
     7
420
 16777215
370
     5
100
AcDbVertex
100
AcDb2dVertex
 10
3.639038017593141
 20
5.683810788895458
 30
0.0
  0
VERTEX
  5
168
330
166
100
AcDbEntity
  8
Layer 1
 62
     7
420
 16777215
370
     5
100
AcDbVertex
100
AcDb2dVertex
 10
3.593743167153535
 20
5.682336376732463
 30
0.0
  0
VERTEX
  5
169
330
166
100
AcDbEntity
  8
Layer 1
 62
     7
420
 16777215
370
     5
100
AcDbVertex
100
AcDb2dVertex
 10
3.591019555538221
 20
5.670247241941461
 30
0.0
  0
VERTEX
  5
16A
330
166
100
AcDbEntity
  8
Layer 1
 62
     7
420
 16777215
370
     5
100
AcDbVertex
100
AcDb2dVertex
 10
3.635661654687649
 20
5.671762046330084
 30
0.0
  0
VERTEX
  5
16B
330
166
100
AcDbEntity
  8
Layer 1
 62
     7
420
 16777215
370
     5
100
AcDbVertex
100
AcDb2dVertex
 10
3.631104443708725
 20
5.676927049780488
 30
0.0
  0
SEQEND
  5
16C
330
166
100
AcDbEntity
  8
Layer 1
 62
     7
420
 16777215
370
     5
  0
POLYLINE
  5
16D
330
DD
100
AcDbEntity
  8
Layer 1
 62
     7
420
 16777215
370
     5
100
AcDb2dPolyline
 66
     1
 10
0.0
 20
0.0
 30
0.0
  0
VERTEX
  5
16E
330
16D
100
AcDbEntity
  8
Layer 1
 62
     7
420
 16777215
370
     5
100
AcDbVertex
100
AcDb2dVertex
 10
3.691229027617232
 20
5.64409372492254
 30
0.0
  0
VERTEX
  5
16F
330
16D
100
AcDbEntity
  8
Layer 1
 62
     7
420
 16777215
370
     5
100
AcDbVertex
100
AcDb2dVertex
 10
3.645934949526728
 20
5.642611658110531
 30
0.0
  0
VERTEX
  5
170
330
16D
100
AcDbEntity
  8
Layer 1
 62
     7
420
 16777215
370
     5
100
AcDbVertex
100
AcDb2dVertex
 10
3.643215324727496
 20
5.630532654831515
 30
0.0
  0
VERTEX
  5
171
330
16D
100
AcDbEntity
  8
Layer 1
 62
     7
420
 16777215
370
     5
100
AcDbVertex
100
AcDb2dVertex
 10
3.687852526208518
 20
5.63204635504394
 30
0.0
  0
VERTEX
  5
172
330
16D
100
AcDbEntity
  8
Layer 1
 62
     7
420
 16777215
370
     5
100
AcDbVertex
100
AcDb2dVertex
 10
3.683296071612113
 20
5.63720386208835
 30
0.0
  0
SEQEND
  5
173
330
16D
100
AcDbEntity
  8
Layer 1
 62
     7
420
 16777215
370
     5
  0
POLYLINE
  5
174
330
DD
100
AcDbEntity
  8
Layer 1
 62
     7
420
 16777215
370
     5
100
AcDb2dPolyline
 66
     1
 10
0.0
 20
0.0
 30
0.0
  0
VERTEX
  5
175
330
174
100
AcDbEntity
  8
Layer 1
 62
     7
420
 16777215
370
     5
100
AcDbVertex
100
AcDb2dVertex
 10
3.73752201139655
 20
5.604710131004114
 30
0.0
  0
VERTEX
  5
176
330
174
100
AcDbEntity
  8
Layer 1
 62
     7
420
 16777215
370
     5
100
AcDbVertex
100
AcDb2dVertex
 10
3.692220999087908
 20
5.603234732909755
 30
0.0
  0
VERTEX
  5
177
330
174
100
AcDbEntity
  8
Layer 1
 62
     7
420
 16777215
370
     5
100
AcDbVertex
100
AcDb2dVertex
 10
3.689502162497964
 20
5.591147917793667
 30
0.0
  0
VERTEX
  5
178
330
174
100
AcDbEntity
  8
Layer 1
 62
     7
420
 16777215
370
     5
100
AcDbVertex
100
AcDb2dVertex
 10
3.734144892108487
 20
5.592668884844733
 30
0.0
  0
VERTEX
  5
179
330
174
100
AcDbEntity
  8
Layer 1
 62
     7
420
 16777215
370
     5
100
AcDbVertex
100
AcDb2dVertex
 10
3.729594444911287
 20
5.59782890875033
 30
0.0
  0
SEQEND
  5
17A
330
174
100
AcDbEntity
  8
Layer 1
 62
     7
420
 16777215
370
     5
  0
POLYLINE
  5
17B
330
DD
100
AcDbEntity
  8
Layer 1
 62
     7
420
 16777215
370
     5
100
AcDb2dPolyline
 66
     1
 10
0.0
 20
0.0
 30
0.0
  0
VERTEX
  5
17C
330
17B
100
AcDbEntity
  8
Layer 1
 62
     7
420
 16777215
370
     5
100
AcDbVertex
100
AcDb2dVertex
 10
3.593439679753942
 20
5.812906060610051
 30
0.0
  0
VERTEX
  5
17D
330
17B
100
AcDbEntity
  8
Layer 1
 62
     7
420
 16777215
370
     5
100
AcDbVertex
100
AcDb2dVertex
 10
3.548150911815684
 20
5.811432621679185
 30
0.0
  0
VERTEX
  5
17E
330
17B
100
AcDbEntity
  8
Layer 1
 62
     7
420
 16777215
370
     5
100
AcDbVertex
100
AcDb2dVertex
 10
3.545427918079668
 20
5.799337363168951
 30
0.0
  0
VERTEX
  5
17F
330
17B
100
AcDbEntity
  8
Layer 1
 62
     7
420
 16777215
370
     5
100
AcDbVertex
100
AcDb2dVertex
 10
3.590069260846601
 20
5.800859663963554
 30
0.0
  0
VERTEX
  5
180
330
17B
100
AcDbEntity
  8
Layer 1
 62
     7
420
 16777215
370
     5
100
AcDbVertex
100
AcDb2dVertex
 10
3.585514022300458
 20
5.806017529974484
 30
0.0
  0
SEQEND
  5
181
330
17B
100
AcDbEntity
  8
Layer 1
 62
     7
420
 16777215
370
     5
  0
POLYLINE
  5
182
330
DD
100
AcDbEntity
  8
Layer 1
 62
     7
420
 16777215
370
     5
100
AcDb2dPolyline
 66
     1
 10
0.0
 20
0.0
 30
0.0
  0
VERTEX
  5
183
330
182
100
AcDbEntity
  8
Layer 1
 62
     7
420
 16777215
370
     5
100
AcDbVertex
100
AcDb2dVertex
 10
3.642955886943759
 20
5.766001733175345
 30
0.0
  0
VERTEX
  5
184
330
182
100
AcDbEntity
  8
Layer 1
 62
     7
420
 16777215
370
     5
100
AcDbVertex
100
AcDb2dVertex
 10
3.597661808853268
 20
5.764519666363311
 30
0.0
  0
VERTEX
  5
185
330
182
100
AcDbEntity
  8
Layer 1
 62
     7
420
 16777215
370
     5
100
AcDbVertex
100
AcDb2dVertex
 10
3.594942972263336
 20
5.752432851247224
 30
0.0
  0
VERTEX
  5
186
330
182
100
AcDbEntity
  8
Layer 1
 62
     7
420
 16777215
370
     5
100
AcDbVertex
100
AcDb2dVertex
 10
3.639579385535032
 20
5.753954363296745
 30
0.0
  0
VERTEX
  5
187
330
182
100
AcDbEntity
  8
Layer 1
 62
     7
420
 16777215
370
     5
100
AcDbVertex
100
AcDb2dVertex
 10
3.635022930938627
 20
5.759111870341144
 30
0.0
  0
SEQEND
  5
188
330
182
100
AcDbEntity
  8
Layer 1
 62
     7
420
 16777215
370
     5
  0
POLYLINE
  5
189
330
DD
100
AcDbEntity
  8
Layer 1
 62
     7
420
 16777215
370
     5
100
AcDb2dPolyline
 66
     1
 10
0.0
 20
0.0
 30
0.0
  0
VERTEX
  5
18A
330
189
100
AcDbEntity
  8
Layer 1
 62
     7
420
 16777215
370
     5
100
AcDbVertex
100
AcDb2dVertex
 10
3.688594374072206
 20
5.72747013852236
 30
0.0
  0
VERTEX
  5
18B
330
189
100
AcDbEntity
  8
Layer 1
 62
     7
420
 16777215
370
     5
100
AcDbVertex
100
AcDb2dVertex
 10
3.643300295981728
 20
5.725988071710339
 30
0.0
  0
VERTEX
  5
18C
330
189
100
AcDbEntity
  8
Layer 1
 62
     7
420
 16777215
370
     5
100
AcDbVertex
100
AcDb2dVertex
 10
3.64057991469349
 20
5.713916565892355
 30
0.0
  0
VERTEX
  5
18D
330
189
100
AcDbEntity
  8
Layer 1
 62
     7
420
 16777215
370
     5
100
AcDbVertex
100
AcDb2dVertex
 10
3.685223343588278
 20
5.715431422249392
 30
0.0
  0
VERTEX
  5
18E
330
189
100
AcDbEntity
  8
Layer 1
 62
     7
420
 16777215
370
     5
100
AcDbVertex
100
AcDb2dVertex
 10
3.680667579936097
 20
5.720581261619549
 30
0.0
  0
SEQEND
  5
18F
330
189
100
AcDbEntity
  8
Layer 1
 62
     7
420
 16777215
370
     5
  0
POLYLINE
  5
190
330
DD
100
AcDbEntity
  8
Layer 1
 62
     7
420
 16777215
370
     5
100
AcDb2dPolyline
 66
     1
 10
0.0
 20
0.0
 30
0.0
  0
VERTEX
  5
191
330
190
100
AcDbEntity
  8
Layer 1
 62
     7
420
 16777215
370
     5
100
AcDbVertex
100
AcDb2dVertex
 10
3.735560067778907
 20
5.6905043157258
 30
0.0
  0
VERTEX
  5
192
330
190
100
AcDbEntity
  8
Layer 1
 62
     7
420
 16777215
370
     5
100
AcDbVertex
100
AcDb2dVertex
 10
3.690259827819419
 20
5.689021262982402
 30
0.0
  0
VERTEX
  5
193
330
190
100
AcDbEntity
  8
Layer 1
 62
     7
420
 16777215
370
     5
100
AcDbVertex
100
AcDb2dVertex
 10
3.687547767592946
 20
5.676941754703194
 30
0.0
  0
VERTEX
  5
194
330
190
100
AcDbEntity
  8
Layer 1
 62
     7
420
 16777215
370
     5
100
AcDbVertex
100
AcDb2dVertex
 10
3.732183720839998
 20
5.678455414917367
 30
0.0
  0
VERTEX
  5
195
330
190
100
AcDbEntity
  8
Layer 1
 62
     7
420
 16777215
370
     5
100
AcDbVertex
100
AcDb2dVertex
 10
3.727634660486438
 20
5.683614105079439
 30
0.0
  0
SEQEND
  5
196
330
190
100
AcDbEntity
  8
Layer 1
 62
     7
420
 16777215
370
     5
  0
POLYLINE
  5
197
330
DD
100
AcDbEntity
  8
Layer 1
 62
     7
420
 16777215
370
     5
100
AcDb2dPolyline
 66
     1
 10
0.0
 20
0.0
 30
0.0
  0
VERTEX
  5
198
330
197
100
AcDbEntity
  8
Layer 1
 62
     7
420
 16777215
370
     5
100
AcDbVertex
100
AcDb2dVertex
 10
3.779224774874529
 20
5.650448169130325
 30
0.0
  0
VERTEX
  5
199
330
197
100
AcDbEntity
  8
Layer 1
 62
     7
420
 16777215
370
     5
100
AcDbVertex
100
AcDb2dVertex
 10
3.733922990216759
 20
5.648980425685068
 30
0.0
  0
VERTEX
  5
19A
330
197
100
AcDbEntity
  8
Layer 1
 62
     7
420
 16777215
370
     5
100
AcDbVertex
100
AcDb2dVertex
 10
3.731204235977871
 20
5.636893623745575
 30
0.0
  0
VERTEX
  5
19B
330
197
100
AcDbEntity
  8
Layer 1
 62
     7
420
 16777215
370
     5
100
AcDbVertex
100
AcDb2dVertex
 10
3.775841339247664
 20
5.638407467969424
 30
0.0
  0
VERTEX
  5
19C
330
197
100
AcDbEntity
  8
Layer 1
 62
     7
420
 16777215
370
     5
100
AcDbVertex
100
AcDb2dVertex
 10
3.77129180302797
 20
5.643558463298556
 30
0.0
  0
SEQEND
  5
19D
330
197
100
AcDbEntity
  8
Layer 1
 62
     7
420
 16777215
370
     5
  0
POLYLINE
  5
19E
330
DD
100
AcDbEntity
  8
Layer 1
 62
     7
420
 16777215
370
     5
100
AcDb2dPolyline
 66
     1
 10
0.0
 20
0.0
 30
0.0
  0
VERTEX
  5
19F
330
19E
100
AcDbEntity
  8
Layer 1
 62
     7
420
 16777215
370
     5
100
AcDbVertex
100
AcDb2dVertex
 10
3.825510052086567
 20
5.611078898578626
 30
0.0
  0
VERTEX
  5
1A0
330
19E
100
AcDbEntity
  8
Layer 1
 62
     7
420
 16777215
370
     5
100
AcDbVertex
100
AcDb2dVertex
 10
3.780215201646923
 20
5.609604486415656
 30
0.0
  0
VERTEX
  5
1A1
330
19E
100
AcDbEntity
  8
Layer 1
 62
     7
420
 16777215
370
     5
100
AcDbVertex
100
AcDb2dVertex
 10
3.777495592707838
 20
5.59752532594862
 30
0.0
  0
VERTEX
  5
1A2
330
19E
100
AcDbEntity
  8
Layer 1
 62
     7
420
 16777215
370
     5
100
AcDbVertex
100
AcDb2dVertex
 10
3.822133550677841
 20
5.599031528700013
 30
0.0
  0
VERTEX
  5
1A3
330
19E
100
AcDbEntity
  8
Layer 1
 62
     7
420
 16777215
370
     5
100
AcDbVertex
100
AcDb2dVertex
 10
3.817577096081436
 20
5.604189035744449
 30
0.0
  0
SEQEND
  5
1A4
330
19E
100
AcDbEntity
  8
Layer 1
 62
     7
420
 16777215
370
     5
  0
POLYLINE
  5
1A5
330
DD
100
AcDbEntity
  8
Layer 1
 62
     7
420
 16777215
370
     5
100
AcDb2dPolyline
 66
     1
 10
0.0
 20
0.0
 30
0.0
  0
VERTEX
  5
1A6
330
1A5
100
AcDbEntity
  8
Layer 1
 62
     7
420
 16777215
370
     5
100
AcDbVertex
100
AcDb2dVertex
 10
3.595447485972739
 20
5.901728009363688
 30
0.0
  0
VERTEX
  5
1A7
330
1A5
100
AcDbEntity
  8
Layer 1
 62
     7
420
 16777215
370
     5
100
AcDbVertex
100
AcDb2dVertex
 10
3.550146394023752
 20
5.900252598526499
 30
0.0
  0
VERTEX
  5
1A8
330
1A5
100
AcDbEntity
  8
Layer 1
 62
     7
420
 16777215
370
     5
100
AcDbVertex
100
AcDb2dVertex
 10
3.547434951676589
 20
5.888166966528034
 30
0.0
  0
VERTEX
  5
1A9
330
1A5
100
AcDbEntity
  8
Layer 1
 62
     7
420
 16777215
370
     5
100
AcDbVertex
100
AcDb2dVertex
 10
3.592070904923641
 20
5.88968062674222
 30
0.0
  0
VERTEX
  5
1AA
330
1A5
100
AcDbEntity
  8
Layer 1
 62
     7
420
 16777215
370
     5
100
AcDbVertex
100
AcDb2dVertex
 10
3.587513757403965
 20
5.894845801144255
 30
0.0
  0
SEQEND
  5
1AB
330
1A5
100
AcDbEntity
  8
Layer 1
 62
     7
420
 16777215
370
     5
  0
POLYLINE
  5
1AC
330
DD
100
AcDbEntity
  8
Layer 1
 62
     7
420
 16777215
370
     5
100
AcDb2dPolyline
 66
     1
 10
0.0
 20
0.0
 30
0.0
  0
VERTEX
  5
1AD
330
1AC
100
AcDbEntity
  8
Layer 1
 62
     7
420
 16777215
370
     5
100
AcDbVertex
100
AcDb2dVertex
 10
3.643651071395513
 20
5.855707274553045
 30
0.0
  0
VERTEX
  5
1AE
330
1AC
100
AcDbEntity
  8
Layer 1
 62
     7
420
 16777215
370
     5
100
AcDbVertex
100
AcDb2dVertex
 10
3.598356220955894
 20
5.854232862390025
 30
0.0
  0
VERTEX
  5
1AF
330
1AC
100
AcDbEntity
  8
Layer 1
 62
     7
420
 16777215
370
     5
100
AcDbVertex
100
AcDb2dVertex
 10
3.595637844390618
 20
5.842153899109272
 30
0.0
  0
VERTEX
  5
1B0
330
1AC
100
AcDbEntity
  8
Layer 1
 62
     7
420
 16777215
370
     5
100
AcDbVertex
100
AcDb2dVertex
 10
3.640280113976486
 20
5.843667014325016
 30
0.0
  0
VERTEX
  5
1B1
330
1AC
100
AcDbEntity
  8
Layer 1
 62
     7
420
 16777215
370
     5
100
AcDbVertex
100
AcDb2dVertex
 10
3.635724737284085
 20
5.848826249485518
 30
0.0
  0
SEQEND
  5
1B2
330
1AC
100
AcDbEntity
  8
Layer 1
 62
     7
420
 16777215
370
     5
  0
POLYLINE
  5
1B3
330
DD
100
AcDbEntity
  8
Layer 1
 62
     7
420
 16777215
370
     5
100
AcDb2dPolyline
 66
     1
 10
0.0
 20
0.0
 30
0.0
  0
VERTEX
  5
1B4
330
1B3
100
AcDbEntity
  8
Layer 1
 62
     7
420
 16777215
370
     5
100
AcDbVertex
100
AcDb2dVertex
 10
3.691266486727714
 20
5.817887132816041
 30
0.0
  0
VERTEX
  5
1B5
330
1B3
100
AcDbEntity
  8
Layer 1
 62
     7
420
 16777215
370
     5
100
AcDbVertex
100
AcDb2dVertex
 10
3.645971636288095
 20
5.816412720653059
 30
0.0
  0
VERTEX
  5
1B6
330
1B3
100
AcDbEntity
  8
Layer 1
 62
     7
420
 16777215
370
     5
100
AcDbVertex
100
AcDb2dVertex
 10
3.64325202734901
 20
5.804333560186036
 30
0.0
  0
VERTEX
  5
1B7
330
1B3
100
AcDbEntity
  8
Layer 1
 62
     7
420
 16777215
370
     5
100
AcDbVertex
100
AcDb2dVertex
 10
3.68789614718801
 20
5.805840748868806
 30
0.0
  0
VERTEX
  5
1B8
330
1B3
100
AcDbEntity
  8
Layer 1
 62
     7
420
 16777215
370
     5
100
AcDbVertex
100
AcDb2dVertex
 10
3.68333967629485
 20
5.810998417428183
 30
0.0
  0
SEQEND
  5
1B9
330
1B3
100
AcDbEntity
  8
Layer 1
 62
     7
420
 16777215
370
     5
  0
POLYLINE
  5
1BA
330
DD
100
AcDbEntity
  8
Layer 1
 62
     7
420
 16777215
370
     5
100
AcDb2dPolyline
 66
     1
 10
0.0
 20
0.0
 30
0.0
  0
VERTEX
  5
1BB
330
1BA
100
AcDbEntity
  8
Layer 1
 62
     7
420
 16777215
370
     5
100
AcDbVertex
100
AcDb2dVertex
 10
3.736840175939063
 20
5.771210698299152
 30
0.0
  0
VERTEX
  5
1BC
330
1BA
100
AcDbEntity
  8
Layer 1
 62
     7
420
 16777215
370
     5
100
AcDbVertex
100
AcDb2dVertex
 10
3.691552259717595
 20
5.769729617418496
 30
0.0
  0
VERTEX
  5
1BD
330
1BA
100
AcDbEntity
  8
Layer 1
 62
     7
420
 16777215
370
     5
100
AcDbVertex
100
AcDb2dVertex
 10
3.68883280524834
 20
5.757648926021665
 30
0.0
  0
VERTEX
  5
1BE
330
1BA
100
AcDbEntity
  8
Layer 1
 62
     7
420
 16777215
370
     5
100
AcDbVertex
100
AcDb2dVertex
 10
3.733463829000167
 20
5.759161797490732
 30
0.0
  0
VERTEX
  5
1BF
330
1BA
100
AcDbEntity
  8
Layer 1
 62
     7
420
 16777215
370
     5
100
AcDbVertex
100
AcDb2dVertex
 10
3.728913536272785
 20
5.764320290466521
 30
0.0
  0
SEQEND
  5
1C0
330
1BA
100
AcDbEntity
  8
Layer 1
 62
     7
420
 16777215
370
     5
  0
POLYLINE
  5
1C1
330
DD
100
AcDbEntity
  8
Layer 1
 62
     7
420
 16777215
370
     5
100
AcDb2dPolyline
 66
     1
 10
0.0
 20
0.0
 30
0.0
  0
VERTEX
  5
1C2
330
1C1
100
AcDbEntity
  8
Layer 1
 62
     7
420
 16777215
370
     5
100
AcDbVertex
100
AcDb2dVertex
 10
3.782483592562711
 20
5.732679892391275
 30
0.0
  0
VERTEX
  5
1C3
330
1C1
100
AcDbEntity
  8
Layer 1
 62
     7
420
 16777215
370
     5
100
AcDbVertex
100
AcDb2dVertex
 10
3.737182580254095
 20
5.731204494296927
 30
0.0
  0
VERTEX
  5
1C4
330
1C1
100
AcDbEntity
  8
Layer 1
 62
     7
420
 16777215
370
     5
100
AcDbVertex
100
AcDb2dVertex
 10
3.734470520027647
 20
5.719124986017745
 30
0.0
  0
VERTEX
  5
1C5
330
1C1
100
AcDbEntity
  8
Layer 1
 62
     7
420
 16777215
370
     5
100
AcDbVertex
100
AcDb2dVertex
 10
3.779107313344222
 20
5.720631163870987
 30
0.0
  0
VERTEX
  5
1C6
330
1C1
100
AcDbEntity
  8
Layer 1
 62
     7
420
 16777215
370
     5
100
AcDbVertex
100
AcDb2dVertex
 10
3.774558185270267
 20
5.7257896817449
 30
0.0
  0
SEQEND
  5
1C7
330
1C1
100
AcDbEntity
  8
Layer 1
 62
     7
420
 16777215
370
     5
  0
POLYLINE
  5
1C8
330
DD
100
AcDbEntity
  8
Layer 1
 62
     7
420
 16777215
370
     5
100
AcDb2dPolyline
 66
     1
 10
0.0
 20
0.0
 30
0.0
  0
VERTEX
  5
1C9
330
1C8
100
AcDbEntity
  8
Layer 1
 62
     7
420
 16777215
370
     5
100
AcDbVertex
100
AcDb2dVertex
 10
3.829450673113052
 20
5.695712735851164
 30
0.0
  0
VERTEX
  5
1CA
330
1C8
100
AcDbEntity
  8
Layer 1
 62
     7
420
 16777215
370
     5
100
AcDbVertex
100
AcDb2dVertex
 10
3.784156579059198
 20
5.694230827250092
 30
0.0
  0
VERTEX
  5
1CB
330
1C8
100
AcDbEntity
  8
Layer 1
 62
     7
420
 16777215
370
     5
100
AcDbVertex
100
AcDb2dVertex
 10
3.781430824214478
 20
5.68215052264073
 30
0.0
  0
VERTEX
  5
1CC
330
1C8
100
AcDbEntity
  8
Layer 1
 62
     7
420
 16777215
370
     5
100
AcDbVertex
100
AcDb2dVertex
 10
3.826074171704312
 20
5.683665365972552
 30
0.0
  0
VERTEX
  5
1CD
330
1C8
100
AcDbEntity
  8
Layer 1
 62
     7
420
 16777215
370
     5
100
AcDbVertex
100
AcDb2dVertex
 10
3.821517717107907
 20
5.688822873016975
 30
0.0
  0
SEQEND
  5
1CE
330
1C8
100
AcDbEntity
  8
Layer 1
 62
     7
420
 16777215
370
     5
  0
POLYLINE
  5
1CF
330
DD
100
AcDbEntity
  8
Layer 1
 62
     7
420
 16777215
370
     5
100
AcDb2dPolyline
 66
     1
 10
0.0
 20
0.0
 30
0.0
  0
VERTEX
  5
1D0
330
1CF
100
AcDbEntity
  8
Layer 1
 62
     7
420
 16777215
370
     5
100
AcDbVertex
100
AcDb2dVertex
 10
3.873108361615752
 20
5.655664959550172
 30
0.0
  0
VERTEX
  5
1D1
330
1CF
100
AcDbEntity
  8
Layer 1
 62
     7
420
 16777215
370
     5
100
AcDbVertex
100
AcDb2dVertex
 10
3.827812293503472
 20
5.654190193121811
 30
0.0
  0
VERTEX
  5
1D2
330
1CF
100
AcDbEntity
  8
Layer 1
 62
     7
420
 16777215
370
     5
100
AcDbVertex
100
AcDb2dVertex
 10
3.825088581275761
 20
5.642101201515124
 30
0.0
  0
VERTEX
  5
1D3
330
1CF
100
AcDbEntity
  8
Layer 1
 62
     7
420
 16777215
370
     5
100
AcDbVertex
100
AcDb2dVertex
 10
3.869731944581796
 20
5.643615888094776
 30
0.0
  0
VERTEX
  5
1D4
330
1CF
100
AcDbEntity
  8
Layer 1
 62
     7
420
 16777215
370
     5
100
AcDbVertex
100
AcDb2dVertex
 10
3.865180879505285
 20
5.648782035719629
 30
0.0
  0
SEQEND
  5
1D5
330
1CF
100
AcDbEntity
  8
Layer 1
 62
     7
420
 16777215
370
     5
  0
POLYLINE
  5
1D6
330
DD
100
AcDbEntity
  8
Layer 1
 62
     7
420
 16777215
370
     5
100
AcDb2dPolyline
 66
     1
 10
0.0
 20
0.0
 30
0.0
  0
VERTEX
  5
1D7
330
1D6
100
AcDbEntity
  8
Layer 1
 62
     7
420
 16777215
370
     5
100
AcDbVertex
100
AcDb2dVertex
 10
3.919394495551678
 20
5.616286332772612
 30
0.0
  0
VERTEX
  5
1D8
330
1D6
100
AcDbEntity
  8
Layer 1
 62
     7
420
 16777215
370
     5
100
AcDbVertex
100
AcDb2dVertex
 10
3.874100503309377
 20
5.61480427969674
 30
0.0
  0
VERTEX
  5
1D9
330
1D6
100
AcDbEntity
  8
Layer 1
 62
     7
420
 16777215
370
     5
100
AcDbVertex
100
AcDb2dVertex
 10
3.871386283792402
 20
5.602733759794496
 30
0.0
  0
VERTEX
  5
1DA
330
1D6
100
AcDbEntity
  8
Layer 1
 62
     7
420
 16777215
370
     5
100
AcDbVertex
100
AcDb2dVertex
 10
3.916022923638188
 20
5.604239751639094
 30
0.0
  0
VERTEX
  5
1DB
330
1D6
100
AcDbEntity
  8
Layer 1
 62
     7
420
 16777215
370
     5
100
AcDbVertex
100
AcDb2dVertex
 10
3.911467701415581
 20
5.609397455869801
 30
0.0
  0
SEQEND
  5
1DC
330
1D6
100
AcDbEntity
  8
Layer 1
 62
     7
420
 16777215
370
     5
  0
POLYLINE
  5
1DD
330
DD
100
AcDbEntity
  8
Layer 1
 62
     7
420
 16777215
370
     5
100
AcDb2dPolyline
 66
     1
 10
0.0
 20
0.0
 30
0.0
  0
VERTEX
  5
1DE
330
1DD
100
AcDbEntity
  8
Layer 1
 62
     7
420
 16777215
370
     5
100
AcDbVertex
100
AcDb2dVertex
 10
3.691308317976588
 20
5.907639031895504
 30
0.0
  0
VERTEX
  5
1DF
330
1DD
100
AcDbEntity
  8
Layer 1
 62
     7
420
 16777215
370
     5
100
AcDbVertex
100
AcDb2dVertex
 10
3.646013467536957
 20
5.906164619732559
 30
0.0
  0
VERTEX
  5
1E0
330
1DD
100
AcDbEntity
  8
Layer 1
 62
     7
420
 16777215
370
     5
100
AcDbVertex
100
AcDb2dVertex
 10
3.643295090971706
 20
5.894085656451794
 30
0.0
  0
VERTEX
  5
1E1
330
1DD
100
AcDbEntity
  8
Layer 1
 62
     7
420
 16777215
370
     5
100
AcDbVertex
100
AcDb2dVertex
 10
3.687931816567887
 20
5.895591662016904
 30
0.0
  0
VERTEX
  5
1E2
330
1DD
100
AcDbEntity
  8
Layer 1
 62
     7
420
 16777215
370
     5
100
AcDbVertex
100
AcDb2dVertex
 10
3.683381983865148
 20
5.900758006828028
 30
0.0
  0
SEQEND
  5
1E3
330
1DD
100
AcDbEntity
  8
Layer 1
 62
     7
420
 16777215
370
     5
  0
POLYLINE
  5
1E4
330
DD
100
AcDbEntity
  8
Layer 1
 62
     7
420
 16777215
370
     5
100
AcDb2dPolyline
 66
     1
 10
0.0
 20
0.0
 30
0.0
  0
VERTEX
  5
1E5
330
1E4
100
AcDbEntity
  8
Layer 1
 62
     7
420
 16777215
370
     5
100
AcDbVertex
100
AcDb2dVertex
 10
3.739513215413543
 20
5.861618507013973
 30
0.0
  0
VERTEX
  5
1E6
330
1E4
100
AcDbEntity
  8
Layer 1
 62
     7
420
 16777215
370
     5
100
AcDbVertex
100
AcDb2dVertex
 10
3.69421759262477
 20
5.860151749500056
 30
0.0
  0
VERTEX
  5
1E7
330
1E4
100
AcDbEntity
  8
Layer 1
 62
     7
420
 16777215
370
     5
100
AcDbVertex
100
AcDb2dVertex
 10
3.691498756034838
 20
5.848064934383968
 30
0.0
  0
VERTEX
  5
1E8
330
1E4
100
AcDbEntity
  8
Layer 1
 62
     7
420
 16777215
370
     5
100
AcDbVertex
100
AcDb2dVertex
 10
3.736142170159698
 20
5.849579953261455
 30
0.0
  0
VERTEX
  5
1E9
330
1E4
100
AcDbEntity
  8
Layer 1
 62
     7
420
 16777215
370
     5
100
AcDbVertex
100
AcDb2dVertex
 10
3.731586421277446
 20
5.854729630111162
 30
0.0
  0
SEQEND
  5
1EA
330
1E4
100
AcDbEntity
  8
Layer 1
 62
     7
420
 16777215
370
     5
  0
POLYLINE
  5
1EB
330
DD
100
AcDbEntity
  8
Layer 1
 62
     7
420
 16777215
370
     5
100
AcDb2dPolyline
 66
     1
 10
0.0
 20
0.0
 30
0.0
  0
VERTEX
  5
1EC
330
1EB
100
AcDbEntity
  8
Layer 1
 62
     7
420
 16777215
370
     5
100
AcDbVertex
100
AcDb2dVertex
 10
3.787127398371947
 20
5.823798168090762
 30
0.0
  0
VERTEX
  5
1ED
330
1EB
100
AcDbEntity
  8
Layer 1
 62
     7
420
 16777215
370
     5
100
AcDbVertex
100
AcDb2dVertex
 10
3.741833149509956
 20
5.822317793772198
 30
0.0
  0
VERTEX
  5
1EE
330
1EB
100
AcDbEntity
  8
Layer 1
 62
     7
420
 16777215
370
     5
100
AcDbVertex
100
AcDb2dVertex
 10
3.739114171367065
 20
5.81024479264704
 30
0.0
  0
VERTEX
  5
1EF
330
1EB
100
AcDbEntity
  8
Layer 1
 62
     7
420
 16777215
370
     5
100
AcDbVertex
100
AcDb2dVertex
 10
3.783750208710115
 20
5.811758466316986
 30
0.0
  0
VERTEX
  5
1F0
330
1EB
100
AcDbEntity
  8
Layer 1
 62
     7
420
 16777215
370
     5
100
AcDbVertex
100
AcDb2dVertex
 10
3.779200587962729
 20
5.816909452468495
 30
0.0
  0
SEQEND
  5
1F1
330
1EB
100
AcDbEntity
  8
Layer 1
 62
     7
420
 16777215
370
     5
  0
POLYLINE
  5
1F2
330
DD
100
AcDbEntity
  8
Layer 1
 62
     7
420
 16777215
370
     5
100
AcDb2dPolyline
 66
     1
 10
0.0
 20
0.0
 30
0.0
  0
VERTEX
  5
1F3
330
1F2
100
AcDbEntity
  8
Layer 1
 62
     7
420
 16777215
370
     5
100
AcDbVertex
100
AcDb2dVertex
 10
3.832707249452293
 20
5.777122719505238
 30
0.0
  0
VERTEX
  5
1F4
330
1F2
100
AcDbEntity
  8
Layer 1
 62
     7
420
 16777215
370
     5
100
AcDbVertex
100
AcDb2dVertex
 10
3.78741317136184
 20
5.775640652693192
 30
0.0
  0
VERTEX
  5
1F5
330
1F2
100
AcDbEntity
  8
Layer 1
 62
     7
420
 16777215
370
     5
100
AcDbVertex
100
AcDb2dVertex
 10
3.784693646421323
 20
5.763561505666378
 30
0.0
  0
VERTEX
  5
1F6
330
1F2
100
AcDbEntity
  8
Layer 1
 62
     7
420
 16777215
370
     5
100
AcDbVertex
100
AcDb2dVertex
 10
3.829330748043579
 20
5.765075349626613
 30
0.0
  0
VERTEX
  5
1F7
330
1F2
100
AcDbEntity
  8
Layer 1
 62
     7
420
 16777215
370
     5
100
AcDbVertex
100
AcDb2dVertex
 10
3.824775065796315
 20
5.770225202021972
 30
0.0
  0
SEQEND
  5
1F8
330
1F2
100
AcDbEntity
  8
Layer 1
 62
     7
420
 16777215
370
     5
  0
POLYLINE
  5
1F9
330
DD
100
AcDbEntity
  8
Layer 1
 62
     7
420
 16777215
370
     5
100
AcDb2dPolyline
 66
     1
 10
0.0
 20
0.0
 30
0.0
  0
VERTEX
  5
1FA
330
1F9
100
AcDbEntity
  8
Layer 1
 62
     7
420
 16777215
370
     5
100
AcDbVertex
100
AcDb2dVertex
 10
3.878339574711718
 20
5.738590138920864
 30
0.0
  0
VERTEX
  5
1FB
330
1F9
100
AcDbEntity
  8
Layer 1
 62
     7
420
 16777215
370
     5
100
AcDbVertex
100
AcDb2dVertex
 10
3.833050886141121
 20
5.737116712689258
 30
0.0
  0
VERTEX
  5
1FC
330
1F9
100
AcDbEntity
  8
Layer 1
 62
     7
420
 16777215
370
     5
100
AcDbVertex
100
AcDb2dVertex
 10
3.830331362238591
 20
5.725037565828516
 30
0.0
  0
VERTEX
  5
1FD
330
1F9
100
AcDbEntity
  8
Layer 1
 62
     7
420
 16777215
370
     5
100
AcDbVertex
100
AcDb2dVertex
 10
3.874969235172039
 20
5.726543754973616
 30
0.0
  0
VERTEX
  5
1FE
330
1F9
100
AcDbEntity
  8
Layer 1
 62
     7
420
 16777215
370
     5
100
AcDbVertex
100
AcDb2dVertex
 10
3.870418942444644
 20
5.731702247949404
 30
0.0
  0
SEQEND
  5
1FF
330
1F9
100
AcDbEntity
  8
Layer 1
 62
     7
420
 16777215
370
     5
  0
POLYLINE
  5
200
330
DD
100
AcDbEntity
  8
Layer 1
 62
     7
420
 16777215
370
     5
100
AcDb2dPolyline
 66
     1
 10
0.0
 20
0.0
 30
0.0
  0
VERTEX
  5
201
330
200
100
AcDbEntity
  8
Layer 1
 62
     7
420
 16777215
370
     5
100
AcDbVertex
100
AcDb2dVertex
 10
3.925311672096364
 20
5.701623785100562
 30
0.0
  0
VERTEX
  5
202
330
200
100
AcDbEntity
  8
Layer 1
 62
     7
420
 16777215
370
     5
100
AcDbVertex
100
AcDb2dVertex
 10
3.880011190327953
 20
5.700142249312282
 30
0.0
  0
VERTEX
  5
203
330
200
100
AcDbEntity
  8
Layer 1
 62
     7
420
 16777215
370
     5
100
AcDbVertex
100
AcDb2dVertex
 10
3.877292968232508
 20
5.688061755101696
 30
0.0
  0
VERTEX
  5
204
330
200
100
AcDbEntity
  8
Layer 1
 62
     7
420
 16777215
370
     5
100
AcDbVertex
100
AcDb2dVertex
 10
3.92193508334857
 20
5.689576401247248
 30
0.0
  0
VERTEX
  5
205
330
200
100
AcDbEntity
  8
Layer 1
 62
     7
420
 16777215
370
     5
100
AcDbVertex
100
AcDb2dVertex
 10
3.917379861125962
 20
5.694734105477929
 30
0.0
  0
SEQEND
  5
206
330
200
100
AcDbEntity
  8
Layer 1
 62
     7
420
 16777215
370
     5
  0
POLYLINE
  5
207
330
DD
100
AcDbEntity
  8
Layer 1
 62
     7
420
 16777215
370
     5
100
AcDb2dPolyline
 66
     1
 10
0.0
 20
0.0
 30
0.0
  0
VERTEX
  5
208
330
207
100
AcDbEntity
  8
Layer 1
 62
     7
420
 16777215
370
     5
100
AcDbVertex
100
AcDb2dVertex
 10
3.968969187357604
 20
5.661575980841891
 30
0.0
  0
VERTEX
  5
209
330
207
100
AcDbEntity
  8
Layer 1
 62
     7
420
 16777215
370
     5
100
AcDbVertex
100
AcDb2dVertex
 10
3.923679742245175
 20
5.660110052595365
 30
0.0
  0
VERTEX
  5
20A
330
207
100
AcDbEntity
  8
Layer 1
 62
     7
420
 16777215
370
     5
100
AcDbVertex
100
AcDb2dVertex
 10
3.920955516135387
 20
5.648014596898835
 30
0.0
  0
VERTEX
  5
20B
330
207
100
AcDbEntity
  8
Layer 1
 62
     7
420
 16777215
370
     5
100
AcDbVertex
100
AcDb2dVertex
 10
3.965592701756211
 20
5.649528454299293
 30
0.0
  0
VERTEX
  5
20C
330
207
100
AcDbEntity
  8
Layer 1
 62
     7
420
 16777215
370
     5
100
AcDbVertex
100
AcDb2dVertex
 10
3.96103547481064
 20
5.654693615992768
 30
0.0
  0
SEQEND
  5
20D
330
207
100
AcDbEntity
  8
Layer 1
 62
     7
420
 16777215
370
     5
  0
POLYLINE
  5
20E
330
DD
100
AcDbEntity
  8
Layer 1
 62
     7
420
 16777215
370
     5
100
AcDb2dPolyline
 66
     1
 10
0.0
 20
0.0
 30
0.0
  0
VERTEX
  5
20F
330
20E
100
AcDbEntity
  8
Layer 1
 62
     7
420
 16777215
370
     5
100
AcDbVertex
100
AcDb2dVertex
 10
4.015255252726105
 20
5.622198898977154
 30
0.0
  0
VERTEX
  5
210
330
20E
100
AcDbEntity
  8
Layer 1
 62
     7
420
 16777215
370
     5
100
AcDbVertex
100
AcDb2dVertex
 10
3.969967336504598
 20
5.620717818096472
 30
0.0
  0
VERTEX
  5
211
330
20E
100
AcDbEntity
  8
Layer 1
 62
     7
420
 16777215
370
     5
100
AcDbVertex
100
AcDb2dVertex
 10
3.967247109686203
 20
5.608644781348681
 30
0.0
  0
VERTEX
  5
212
330
20E
100
AcDbEntity
  8
Layer 1
 62
     7
420
 16777215
370
     5
100
AcDbVertex
100
AcDb2dVertex
 10
4.011878905787183
 20
5.610149998168708
 30
0.0
  0
VERTEX
  5
213
330
20E
100
AcDbEntity
  8
Layer 1
 62
     7
420
 16777215
370
     5
100
AcDbVertex
100
AcDb2dVertex
 10
4.007328547751563
 20
5.615310036340626
 30
0.0
  0
SEQEND
  5
214
330
20E
100
AcDbEntity
  8
Layer 1
 62
     7
420
 16777215
370
     5
  0
POLYLINE
  5
215
330
DD
100
AcDbEntity
  8
Layer 1
 62
     7
420
 16777215
370
     5
100
AcDb2dPolyline
 66
     1
 10
0.0
 20
0.0
 30
0.0
  0
VERTEX
  5
216
330
215
100
AcDbEntity
  8
Layer 1
 62
     7
420
 16777215
370
     5
100
AcDbVertex
100
AcDb2dVertex
 10
4.01592150363596
 20
5.707834908376362
 30
0.0
  0
VERTEX
  5
217
330
215
100
AcDbEntity
  8
Layer 1
 62
     7
420
 16777215
370
     5
100
AcDbVertex
100
AcDb2dVertex
 10
3.970631582691567
 20
5.706361284958499
 30
0.0
  0
VERTEX
  5
218
330
215
100
AcDbEntity
  8
Layer 1
 62
     7
420
 16777215
370
     5
100
AcDbVertex
100
AcDb2dVertex
 10
3.967913978475419
 20
5.694274667028682
 30
0.0
  0
VERTEX
  5
219
330
215
100
AcDbEntity
  8
Layer 1
 62
     7
420
 16777215
370
     5
100
AcDbVertex
100
AcDb2dVertex
 10
4.012545075844754
 20
5.695787710158293
 30
0.0
  0
VERTEX
  5
21A
330
215
100
AcDbEntity
  8
Layer 1
 62
     7
420
 16777215
370
     5
100
AcDbVertex
100
AcDb2dVertex
 10
4.007994709499877
 20
5.700946031473563
 30
0.0
  0
SEQEND
  5
21B
330
215
100
AcDbEntity
  8
Layer 1
 62
     7
420
 16777215
370
     5
  0
POLYLINE
  5
21C
330
DD
100
AcDbEntity
  8
Layer 1
 62
     7
420
 16777215
370
     5
100
AcDb2dPolyline
 66
     1
 10
0.0
 20
0.0
 30
0.0
  0
VERTEX
  5
21D
330
21C
100
AcDbEntity
  8
Layer 1
 62
     7
420
 16777215
370
     5
100
AcDbVertex
100
AcDb2dVertex
 10
3.970928955470627
 20
5.744693309155448
 30
0.0
  0
VERTEX
  5
21E
330
21C
100
AcDbEntity
  8
Layer 1
 62
     7
420
 16777215
370
     5
100
AcDbVertex
100
AcDb2dVertex
 10
3.925634105030983
 20
5.743218896992478
 30
0.0
  0
VERTEX
  5
21F
330
21C
100
AcDbEntity
  8
Layer 1
 62
     7
420
 16777215
370
     5
100
AcDbVertex
100
AcDb2dVertex
 10
3.922914650561729
 20
5.731138205595622
 30
0.0
  0
VERTEX
  5
220
330
21C
100
AcDbEntity
  8
Layer 1
 62
     7
420
 16777215
370
     5
100
AcDbVertex
100
AcDb2dVertex
 10
3.967546430676584
 20
5.732643580852115
 30
0.0
  0
VERTEX
  5
221
330
21C
100
AcDbEntity
  8
Layer 1
 62
     7
420
 16777215
370
     5
100
AcDbVertex
100
AcDb2dVertex
 10
3.962996153935339
 20
5.737801915391464
 30
0.0
  0
SEQEND
  5
222
330
21C
100
AcDbEntity
  8
Layer 1
 62
     7
420
 16777215
370
     5
  0
POLYLINE
  5
223
330
DD
100
AcDbEntity
  8
Layer 1
 62
     7
420
 16777215
370
     5
100
AcDb2dPolyline
 66
     1
 10
0.0
 20
0.0
 30
0.0
  0
VERTEX
  5
224
330
223
100
AcDbEntity
  8
Layer 1
 62
     7
420
 16777215
370
     5
100
AcDbVertex
100
AcDb2dVertex
 10
3.924632497968547
 20
5.783254966280765
 30
0.0
  0
VERTEX
  5
225
330
223
100
AcDbEntity
  8
Layer 1
 62
     7
420
 16777215
370
     5
100
AcDbVertex
100
AcDb2dVertex
 10
3.879337647528928
 20
5.781780554117796
 30
0.0
  0
VERTEX
  5
226
330
223
100
AcDbEntity
  8
Layer 1
 62
     7
420
 16777215
370
     5
100
AcDbVertex
100
AcDb2dVertex
 10
3.876620043312793
 20
5.769693936187991
 30
0.0
  0
VERTEX
  5
227
330
223
100
AcDbEntity
  8
Layer 1
 62
     7
420
 16777215
370
     5
100
AcDbVertex
100
AcDb2dVertex
 10
3.921255996559845
 20
5.771207596402152
 30
0.0
  0
VERTEX
  5
228
330
223
100
AcDbEntity
  8
Layer 1
 62
     7
420
 16777215
370
     5
100
AcDbVertex
100
AcDb2dVertex
 10
3.916699985871876
 20
5.776373115007762
 30
0.0
  0
SEQEND
  5
229
330
223
100
AcDbEntity
  8
Layer 1
 62
     7
420
 16777215
370
     5
  0
POLYLINE
  5
22A
330
DD
100
AcDbEntity
  8
Layer 1
 62
     7
420
 16777215
370
     5
100
AcDb2dPolyline
 66
     1
 10
0.0
 20
0.0
 30
0.0
  0
VERTEX
  5
22B
330
22A
100
AcDbEntity
  8
Layer 1
 62
     7
420
 16777215
370
     5
100
AcDbVertex
100
AcDb2dVertex
 10
3.879030200767147
 20
5.827496904638817
 30
0.0
  0
VERTEX
  5
22C
330
22A
100
AcDbEntity
  8
Layer 1
 62
     7
420
 16777215
370
     5
100
AcDbVertex
100
AcDb2dVertex
 10
3.833742369920287
 20
5.826015837418557
 30
0.0
  0
VERTEX
  5
22D
330
22A
100
AcDbEntity
  8
Layer 1
 62
     7
420
 16777215
370
     5
100
AcDbVertex
100
AcDb2dVertex
 10
3.831023447955721
 20
5.813929008642061
 30
0.0
  0
VERTEX
  5
22E
330
22A
100
AcDbEntity
  8
Layer 1
 62
     7
420
 16777215
370
     5
100
AcDbVertex
100
AcDb2dVertex
 10
3.875660633576571
 20
5.815442866042531
 30
0.0
  0
VERTEX
  5
22F
330
22A
100
AcDbEntity
  8
Layer 1
 62
     7
420
 16777215
370
     5
100
AcDbVertex
100
AcDb2dVertex
 10
3.871109568500047
 20
5.820609013667396
 30
0.0
  0
SEQEND
  5
230
330
22A
100
AcDbEntity
  8
Layer 1
 62
     7
420
 16777215
370
     5
  0
POLYLINE
  5
231
330
DD
100
AcDbEntity
  8
Layer 1
 62
     7
420
 16777215
370
     5
100
AcDb2dPolyline
 66
     1
 10
0.0
 20
0.0
 30
0.0
  0
VERTEX
  5
232
330
231
100
AcDbEntity
  8
Layer 1
 62
     7
420
 16777215
370
     5
100
AcDbVertex
100
AcDb2dVertex
 10
3.832095201929633
 20
5.86772049413091
 30
0.0
  0
VERTEX
  5
233
330
231
100
AcDbEntity
  8
Layer 1
 62
     7
420
 16777215
370
     5
100
AcDbVertex
100
AcDb2dVertex
 10
3.786800351489988
 20
5.866246081967953
 30
0.0
  0
VERTEX
  5
234
330
231
100
AcDbEntity
  8
Layer 1
 62
     7
420
 16777215
370
     5
100
AcDbVertex
100
AcDb2dVertex
 10
3.784082129394543
 20
5.854165587757393
 30
0.0
  0
VERTEX
  5
235
330
231
100
AcDbEntity
  8
Layer 1
 62
     7
420
 16777215
370
     5
100
AcDbVertex
100
AcDb2dVertex
 10
3.828718854990736
 20
5.85567159332249
 30
0.0
  0
VERTEX
  5
236
330
231
100
AcDbEntity
  8
Layer 1
 62
     7
420
 16777215
370
     5
100
AcDbVertex
100
AcDb2dVertex
 10
3.82416902228801
 20
5.860837938133614
 30
0.0
  0
SEQEND
  5
237
330
231
100
AcDbEntity
  8
Layer 1
 62
     7
420
 16777215
370
     5
  0
POLYLINE
  5
238
330
DD
100
AcDbEntity
  8
Layer 1
 62
     7
420
 16777215
370
     5
100
AcDb2dPolyline
 66
     1
 10
0.0
 20
0.0
 30
0.0
  0
VERTEX
  5
239
330
238
100
AcDbEntity
  8
Layer 1
 62
     7
420
 16777215
370
     5
100
AcDbVertex
100
AcDb2dVertex
 10
3.789128270099872
 20
5.912626785518468
 30
0.0
  0
VERTEX
  5
23A
330
238
100
AcDbEntity
  8
Layer 1
 62
     7
420
 16777215
370
     5
100
AcDbVertex
100
AcDb2dVertex
 10
3.743834192009369
 20
5.911144718706447
 30
0.0
  0
VERTEX
  5
23B
330
238
100
AcDbEntity
  8
Layer 1
 62
     7
420
 16777215
370
     5
100
AcDbVertex
100
AcDb2dVertex
 10
3.741120744939305
 20
5.899066544170775
 30
0.0
  0
VERTEX
  5
23C
330
238
100
AcDbEntity
  8
Layer 1
 62
     7
420
 16777215
370
     5
100
AcDbVertex
100
AcDb2dVertex
 10
3.785758014928938
 20
5.90058041507066
 30
0.0
  0
VERTEX
  5
23D
330
238
100
AcDbEntity
  8
Layer 1
 62
     7
420
 16777215
370
     5
100
AcDbVertex
100
AcDb2dVertex
 10
3.781207637832747
 20
5.905738894547022
 30
0.0
  0
SEQEND
  5
23E
330
238
100
AcDbEntity
  8
Layer 1
 62
     7
420
 16777215
370
     5
  0
POLYLINE
  5
23F
330
DD
100
AcDbEntity
  8
Layer 1
 62
     7
420
 16777215
370
     5
100
AcDb2dPolyline
 66
     1
 10
0.0
 20
0.0
 30
0.0
  0
VERTEX
  5
240
330
23F
100
AcDbEntity
  8
Layer 1
 62
     7
420
 16777215
370
     5
100
AcDbVertex
100
AcDb2dVertex
 10
3.927286088668097
 20
5.872043511788105
 30
0.0
  0
VERTEX
  5
241
330
23F
100
AcDbEntity
  8
Layer 1
 62
     7
420
 16777215
370
     5
100
AcDbVertex
100
AcDb2dVertex
 10
3.881991254580422
 20
5.870568937562944
 30
0.0
  0
VERTEX
  5
242
330
23F
100
AcDbEntity
  8
Layer 1
 62
     7
420
 16777215
370
     5
100
AcDbVertex
100
AcDb2dVertex
 10
3.879271645641349
 20
5.858489777095908
 30
0.0
  0
VERTEX
  5
243
330
23F
100
AcDbEntity
  8
Layer 1
 62
     7
420
 16777215
370
     5
100
AcDbVertex
100
AcDb2dVertex
 10
3.923915765480349
 20
5.859996965778691
 30
0.0
  0
VERTEX
  5
244
330
23F
100
AcDbEntity
  8
Layer 1
 62
     7
420
 16777215
370
     5
100
AcDbVertex
100
AcDb2dVertex
 10
3.919365472752967
 20
5.865155458754467
 30
0.0
  0
SEQEND
  5
245
330
23F
100
AcDbEntity
  8
Layer 1
 62
     7
420
 16777215
370
     5
  0
POLYLINE
  5
246
330
DD
100
AcDbEntity
  8
Layer 1
 62
     7
420
 16777215
370
     5
100
AcDb2dPolyline
 66
     1
 10
0.0
 20
0.0
 30
0.0
  0
VERTEX
  5
247
330
246
100
AcDbEntity
  8
Layer 1
 62
     7
420
 16777215
370
     5
100
AcDbVertex
100
AcDb2dVertex
 10
3.970303946333615
 20
5.833669582583209
 30
0.0
  0
VERTEX
  5
248
330
246
100
AcDbEntity
  8
Layer 1
 62
     7
420
 16777215
370
     5
100
AcDbVertex
100
AcDb2dVertex
 10
3.925014025389209
 20
5.832195959165333
 30
0.0
  0
VERTEX
  5
249
330
246
100
AcDbEntity
  8
Layer 1
 62
     7
420
 16777215
370
     5
100
AcDbVertex
100
AcDb2dVertex
 10
3.922296421173087
 20
5.82010934123553
 30
0.0
  0
VERTEX
  5
24A
330
246
100
AcDbEntity
  8
Layer 1
 62
     7
420
 16777215
370
     5
100
AcDbVertex
100
AcDb2dVertex
 10
3.966932374420114
 20
5.821623001449717
 30
0.0
  0
VERTEX
  5
24B
330
246
100
AcDbEntity
  8
Layer 1
 62
     7
420
 16777215
370
     5
100
AcDbVertex
100
AcDb2dVertex
 10
3.962370990328496
 20
5.826779719749021
 30
0.0
  0
SEQEND
  5
24C
330
246
100
AcDbEntity
  8
Layer 1
 62
     7
420
 16777215
370
     5
  0
POLYLINE
  5
24D
330
DD
100
AcDbEntity
  8
Layer 1
 62
     7
420
 16777215
370
     5
100
AcDb2dPolyline
 66
     1
 10
0.0
 20
0.0
 30
0.0
  0
VERTEX
  5
24E
330
24D
100
AcDbEntity
  8
Layer 1
 62
     7
420
 16777215
370
     5
100
AcDbVertex
100
AcDb2dVertex
 10
4.018516770858152
 20
5.788464091026008
 30
0.0
  0
VERTEX
  5
24F
330
24D
100
AcDbEntity
  8
Layer 1
 62
     7
420
 16777215
370
     5
100
AcDbVertex
100
AcDb2dVertex
 10
3.973228098393267
 20
5.786990505172967
 30
0.0
  0
VERTEX
  5
250
330
24D
100
AcDbEntity
  8
Layer 1
 62
     7
420
 16777215
370
     5
100
AcDbVertex
100
AcDb2dVertex
 10
3.970503099934326
 20
5.774902704125528
 30
0.0
  0
VERTEX
  5
251
330
24D
100
AcDbEntity
  8
Layer 1
 62
     7
420
 16777215
370
     5
100
AcDbVertex
100
AcDb2dVertex
 10
4.015146601893977
 20
5.776416016527516
 30
0.0
  0
VERTEX
  5
252
330
24D
100
AcDbEntity
  8
Layer 1
 62
     7
420
 16777215
370
     5
100
AcDbVertex
100
AcDb2dVertex
 10
4.010583830958745
 20
5.781574068570383
 30
0.0
  0
SEQEND
  5
253
330
24D
100
AcDbEntity
  8
Layer 1
 62
     7
420
 16777215
370
     5
  0
POLYLINE
  5
254
330
DD
100
AcDbEntity
  8
Layer 1
 62
     7
420
 16777215
370
     5
100
AcDb2dPolyline
 66
     1
 10
0.0
 20
0.0
 30
0.0
  0
VERTEX
  5
255
330
254
100
AcDbEntity
  8
Layer 1
 62
     7
420
 16777215
370
     5
100
AcDbVertex
100
AcDb2dVertex
 10
3.878412743727608
 20
5.91646038562966
 30
0.0
  0
VERTEX
  5
256
330
254
100
AcDbEntity
  8
Layer 1
 62
     7
420
 16777215
370
     5
100
AcDbVertex
100
AcDb2dVertex
 10
3.833116644416716
 20
5.914985939784793
 30
0.0
  0
VERTEX
  5
257
330
254
100
AcDbEntity
  8
Layer 1
 62
     7
420
 16777215
370
     5
100
AcDbVertex
100
AcDb2dVertex
 10
3.830404531702445
 20
5.902907812609
 30
0.0
  0
VERTEX
  5
258
330
254
100
AcDbEntity
  8
Layer 1
 62
     7
420
 16777215
370
     5
100
AcDbVertex
100
AcDb2dVertex
 10
3.875040399464953
 20
5.904421459145206
 30
0.0
  0
VERTEX
  5
259
330
254
100
AcDbEntity
  8
Layer 1
 62
     7
420
 16777215
370
     5
100
AcDbVertex
100
AcDb2dVertex
 10
3.870485949591512
 20
5.90957150872685
 30
0.0
  0
SEQEND
  5
25A
330
254
100
AcDbEntity
  8
Layer 1
 62
     7
420
 16777215
370
     5
  0
POLYLINE
  5
25B
330
DD
100
AcDbEntity
  8
Layer 1
 62
     7
420
 16777215
370
     5
100
AcDb2dPolyline
 66
     1
 10
0.0
 20
0.0
 30
0.0
  0
VERTEX
  5
25C
330
25B
100
AcDbEntity
  8
Layer 1
 62
     7
420
 16777215
370
     5
100
AcDbVertex
100
AcDb2dVertex
 10
3.972286144760397
 20
5.919220577788249
 30
0.0
  0
VERTEX
  5
25D
330
25B
100
AcDbEntity
  8
Layer 1
 62
     7
420
 16777215
370
     5
100
AcDbVertex
100
AcDb2dVertex
 10
3.926990521971624
 20
5.917753820274343
 30
0.0
  0
VERTEX
  5
25E
330
25B
100
AcDbEntity
  8
Layer 1
 62
     7
420
 16777215
370
     5
100
AcDbVertex
100
AcDb2dVertex
 10
3.924266755886505
 20
5.905666216413161
 30
0.0
  0
VERTEX
  5
25F
330
25B
100
AcDbEntity
  8
Layer 1
 62
     7
420
 16777215
370
     5
100
AcDbVertex
100
AcDb2dVertex
 10
3.968902709133532
 20
5.907179876627335
 30
0.0
  0
VERTEX
  5
260
330
25B
100
AcDbEntity
  8
Layer 1
 62
     7
420
 16777215
370
     5
100
AcDbVertex
100
AcDb2dVertex
 10
3.964352399967955
 20
5.912338532519621
 30
0.0
  0
SEQEND
  5
261
330
25B
100
AcDbEntity
  8
Layer 1
 62
     7
420
 16777215
370
     5
  0
POLYLINE
  5
262
330
DD
100
AcDbEntity
  8
Layer 1
 62
     7
420
 16777215
370
     5
100
AcDb2dPolyline
 66
     1
 10
0.0
 20
0.0
 30
0.0
  0
VERTEX
  5
263
330
262
100
AcDbEntity
  8
Layer 1
 62
     7
420
 16777215
370
     5
100
AcDbVertex
100
AcDb2dVertex
 10
4.019853506452187
 20
5.875695972318832
 30
0.0
  0
VERTEX
  5
264
330
262
100
AcDbEntity
  8
Layer 1
 62
     7
420
 16777215
370
     5
100
AcDbVertex
100
AcDb2dVertex
 10
3.97455865601258
 20
5.874221560155875
 30
0.0
  0
VERTEX
  5
265
330
262
100
AcDbEntity
  8
Layer 1
 62
     7
420
 16777215
370
     5
100
AcDbVertex
100
AcDb2dVertex
 10
3.971839819422623
 20
5.862134745039788
 30
0.0
  0
VERTEX
  5
266
330
262
100
AcDbEntity
  8
Layer 1
 62
     7
420
 16777215
370
     5
100
AcDbVertex
100
AcDb2dVertex
 10
4.01647698874836
 20
5.863648763938916
 30
0.0
  0
VERTEX
  5
267
330
262
100
AcDbEntity
  8
Layer 1
 62
     7
420
 16777215
370
     5
100
AcDbVertex
100
AcDb2dVertex
 10
4.01192671231609
 20
5.868807095416021
 30
0.0
  0
SEQEND
  5
268
330
262
100
AcDbEntity
  8
Layer 1
 62
     7
420
 16777215
370
     5
  0
POLYLINE
  5
269
330
DD
100
AcDbEntity
  8
Layer 1
 62
     7
420
 16777215
370
     5
100
AcDb2dPolyline
 66
     1
 10
0.0
 20
0.0
 30
0.0
  0
VERTEX
  5
26A
330
269
100
AcDbEntity
  8
Layer 1
 62
     7
420
 16777215
370
     5
100
AcDbVertex
100
AcDb2dVertex
 10
4.066776291006022
 20
5.748976522326706
 30
0.0
  0
VERTEX
  5
26B
330
269
100
AcDbEntity
  8
Layer 1
 62
     7
420
 16777215
370
     5
100
AcDbVertex
100
AcDb2dVertex
 10
4.021482212915556
 20
5.747494455514698
 30
0.0
  0
VERTEX
  5
26C
330
269
100
AcDbEntity
  8
Layer 1
 62
     7
420
 16777215
370
     5
100
AcDbVertex
100
AcDb2dVertex
 10
4.018763064001139
 20
5.735423146882996
 30
0.0
  0
VERTEX
  5
26D
330
269
100
AcDbEntity
  8
Layer 1
 62
     7
420
 16777215
370
     5
100
AcDbVertex
100
AcDb2dVertex
 10
4.063399789597307
 20
5.736929152448107
 30
0.0
  0
VERTEX
  5
26E
330
269
100
AcDbEntity
  8
Layer 1
 62
     7
420
 16777215
370
     5
100
AcDbVertex
100
AcDb2dVertex
 10
4.058844551401535
 20
5.742087014986851
 30
0.0
  0
SEQEND
  5
26F
330
269
100
AcDbEntity
  8
Layer 1
 62
     7
420
 16777215
370
     5
  0
POLYLINE
  5
270
330
DD
100
AcDbEntity
  8
Layer 1
 62
     7
420
 16777215
370
     5
100
AcDb2dPolyline
 66
     1
 10
0.0
 20
0.0
 30
0.0
  0
VERTEX
  5
271
330
270
100
AcDbEntity
  8
Layer 1
 62
     7
420
 16777215
370
     5
100
AcDbVertex
100
AcDb2dVertex
 10
4.065489988857684
 20
5.837171835128629
 30
0.0
  0
VERTEX
  5
272
330
270
100
AcDbEntity
  8
Layer 1
 62
     7
420
 16777215
370
     5
100
AcDbVertex
100
AcDb2dVertex
 10
4.020195910767218
 20
5.83568976831662
 30
0.0
  0
VERTEX
  5
273
330
270
100
AcDbEntity
  8
Layer 1
 62
     7
420
 16777215
370
     5
100
AcDbVertex
100
AcDb2dVertex
 10
4.017483679876642
 20
5.823611951466571
 30
0.0
  0
VERTEX
  5
274
330
270
100
AcDbEntity
  8
Layer 1
 62
     7
420
 16777215
370
     5
100
AcDbVertex
100
AcDb2dVertex
 10
4.062113487448957
 20
5.825124465250028
 30
0.0
  0
VERTEX
  5
275
330
270
100
AcDbEntity
  8
Layer 1
 62
     7
420
 16777215
370
     5
100
AcDbVertex
100
AcDb2dVertex
 10
4.057564427095384
 20
5.830283155412088
 30
0.0
  0
SEQEND
  5
276
330
270
100
AcDbEntity
  8
Layer 1
 62
     7
420
 16777215
370
     5
  0
POLYLINE
  5
277
330
DD
100
AcDbEntity
  8
Layer 1
 62
     7
420
 16777215
370
     5
100
AcDb2dPolyline
 66
     1
 10
0.0
 20
0.0
 30
0.0
  0
VERTEX
  5
278
330
277
100
AcDbEntity
  8
Layer 1
 62
     7
420
 16777215
370
     5
100
AcDbVertex
100
AcDb2dVertex
 10
4.065517080552796
 20
5.924475900613894
 30
0.0
  0
VERTEX
  5
279
330
277
100
AcDbEntity
  8
Layer 1
 62
     7
420
 16777215
370
     5
100
AcDbVertex
100
AcDb2dVertex
 10
4.020216686123502
 20
5.922994378800316
 30
0.0
  0
VERTEX
  5
27A
330
277
100
AcDbEntity
  8
Layer 1
 62
     7
420
 16777215
370
     5
100
AcDbVertex
100
AcDb2dVertex
 10
4.017497691678892
 20
5.910921539238782
 30
0.0
  0
VERTEX
  5
27B
330
277
100
AcDbEntity
  8
Layer 1
 62
     7
420
 16777215
370
     5
100
AcDbVertex
100
AcDb2dVertex
 10
4.062140654014507
 20
5.912428707868647
 30
0.0
  0
VERTEX
  5
27C
330
277
100
AcDbEntity
  8
Layer 1
 62
     7
420
 16777215
370
     5
100
AcDbVertex
100
AcDb2dVertex
 10
4.057585356921487
 20
5.917586234965963
 30
0.0
  0
SEQEND
  5
27D
330
277
100
AcDbEntity
  8
Layer 1
 62
     7
420
 16777215
370
     5
  0
ENDBLK
  5
E0
330
DD
100
AcDbEntity
  8
0
100
AcDbBlockEnd
  0
ENDSEC
  0
SECTION
  2
ENTITIES
  0
INSERT
  5
42
330
1F
100
AcDbEntity
  8
Layer 1
100
AcDbBlockReference
  2
block 2
 10
0.0
 20
0.0
 30
0.0
  0
POLYLINE
  5
66
330
1F
100
AcDbEntity
  8
Layer 1
 62
     7
420
 16777215
370
     9
100
AcDb2dPolyline
 66
     1
 10
0.0
 20
0.0
 30
0.0
  0
VERTEX
  5
67
330
66
100
AcDbEntity
  8
Layer 1
 62
     7
420
 16777215
370
     9
100
AcDbVertex
100
AcDb2dVertex
 10
2.832994372876985
 20
5.993774848584508
 30
0.0
  0
VERTEX
  5
68
330
66
100
AcDbEntity
  8
Layer 1
 62
     7
420
 16777215
370
     9
100
AcDbVertex
100
AcDb2dVertex
 10
2.828592984099297
 20
4.572401273380314
 30
0.0
  0
SEQEND
  5
69
330
66
100
AcDbEntity
  8
Layer 1
 62
     7
420
 16777215
370
     9
  0
POLYLINE
  5
6A
330
1F
100
AcDbEntity
  8
Layer 1
 62
     7
420
 16777215
370
    18
100
AcDb2dPolyline
 66
     1
 10
0.0
 20
0.0
 30
0.0
  0
VERTEX
  5
6B
330
6A
100
AcDbEntity
  8
Layer 1
 62
     7
420
 16777215
370
    18
100
AcDbVertex
100
AcDb2dVertex
 10
5.041205428203991
 20
4.677354048506762
 30
0.0
  0
VERTEX
  5
6C
330
6A
100
AcDbEntity
  8
Layer 1
 62
     7
420
 16777215
370
    18
100
AcDbVertex
100
AcDb2dVertex
 10
5.218804034828584
 20
4.709635992135696
 30
0.0
  0
VERTEX
  5
6D
330
6A
100
AcDbEntity
  8
Layer 1
 62
     7
420
 16777215
370
    18
100
AcDbVertex
100
AcDb2dVertex
 10
5.259901256012603
 20
4.738254046968298
 30
0.0
  0
VERTEX
  5
6E
330
6A
100
AcDbEntity
  8
Layer 1
 62
     7
420
 16777215
370
    18
100
AcDbVertex
100
AcDb2dVertex
 10
5.315673476825901
 20
4.695691548043517
 30
0.0
  0
VERTEX
  5
6F
330
6A
100
AcDbEntity
  8
Layer 1
 62
     7
420
 16777215
370
    18
100
AcDbVertex
100
AcDb2dVertex
 10
5.34943319819528
 20
4.732394324894105
 30
0.0
  0
VERTEX
  5
70
330
6A
100
AcDbEntity
  8
Layer 1
 62
     7
420
 16777215
370
    18
100
AcDbVertex
100
AcDb2dVertex
 10
5.436767918211242
 20
4.747802657838191
 30
0.0
  0
VERTEX
  5
71
330
6A
100
AcDbEntity
  8
Layer 1
 62
     7
420
 16777215
370
    18
100
AcDbVertex
100
AcDb2dVertex
 10
5.436034584896434
 20
4.888698487612197
 30
0.0
  0
VERTEX
  5
72
330
6A
100
AcDbEntity
  8
Layer 1
 62
     7
420
 16777215
370
    18
100
AcDbVertex
100
AcDb2dVertex
 10
5.336954031843864
 20
4.937147097499392
 30
0.0
  0
VERTEX
  5
73
330
6A
100
AcDbEntity
  8
Layer 1
 62
     7
420
 16777215
370
    18
100
AcDbVertex
100
AcDb2dVertex
 10
5.336954031843864
 20
5.072902777777775
 30
0.0
  0
VERTEX
  5
74
330
6A
100
AcDbEntity
  8
Layer 1
 62
     7
420
 16777215
370
    18
100
AcDbVertex
100
AcDb2dVertex
 10
4.284586002873362
 20
5.573405414759488
 30
0.0
  0
VERTEX
  5
75
330
6A
100
AcDbEntity
  8
Layer 1
 62
     7
420
 16777215
370
    18
100
AcDbVertex
100
AcDb2dVertex
 10
3.393751303155518
 20
5.561476248394178
 30
0.0
  0
VERTEX
  5
76
330
6A
100
AcDbEntity
  8
Layer 1
 62
     7
420
 16777215
370
    18
100
AcDbVertex
100
AcDb2dVertex
 10
5.041205428203991
 20
4.677354048506762
 30
0.0
  0
SEQEND
  5
78
330
6A
100
AcDbEntity
  8
Layer 1
 62
     7
420
 16777215
370
    18
  0
HATCH
  5
77
330
1F
100
AcDbEntity
  8
Layer 1
 62
    43
420
 15510365
100
AcDbHatch
 10
0.0
 20
0.0
 30
0.0
210
0.0
220
0.0
230
1.0
  2
SOLID
 70
     1
 71
     0
 91
        1
 92
        1
 93
       11
 72
     1
 10
5.041205428203991
 20
4.677354048506762
 11
5.218804034828584
 21
4.709635992135696
 72
     1
 10
5.218804034828584
 20
4.709635992135696
 11
5.259901256012603
 21
4.738254046968298
 72
     1
 10
5.259901256012603
 20
4.738254046968298
 11
5.315673476825901
 21
4.695691548043517
 72
     1
 10
5.315673476825901
 20
4.695691548043517
 11
5.34943319819528
 21
4.732394324894105
 72
     1
 10
5.34943319819528
 20
4.732394324894105
 11
5.436767918211242
 21
4.747802657838191
 72
     1
 10
5.436767918211242
 20
4.747802657838191
 11
5.436034584896434
 21
4.888698487612197
 72
     1
 10
5.436034584896434
 20
4.888698487612197
 11
5.336954031843864
 21
4.937147097499392
 72
     1
 10
5.336954031843864
 20
4.937147097499392
 11
5.336954031843864
 21
5.072902777777775
 72
     1
 10
5.336954031843864
 20
5.072902777777775
 11
4.284586002873362
 21
5.573405414759488
 72
     1
 10
4.284586002873362
 20
5.573405414759488
 11
3.393751303155518
 21
5.561476248394178
 72
     1
 10
3.393751303155518
 20
5.561476248394178
 11
5.041205428203991
 21
4.677354048506762
 97
        0
 75
     2
 76
     1
 98
        0
  0
INSERT
  5
7A
330
1F
100
AcDbEntity
  8
Layer 1
100
AcDbBlockReference
  2
block 3
 10
0.0
 20
0.0
 30
0.0
  0
POLYLINE
  5
86
330
1F
100
AcDbEntity
  8
Layer 1
370
     0
100
AcDb2dPolyline
 66
     1
 10
0.0
 20
0.0
 30
0.0
  0
VERTEX
  5
87
330
86
100
AcDbEntity
  8
Layer 1
370
     0
100
AcDbVertex
100
AcDb2dVertex
 10
2.646592988696991
 20
6.510565113307065
 30
0.0
  0
VERTEX
  5
88
330
86
100
AcDbEntity
  8
Layer 1
370
     0
100
AcDbVertex
100
AcDb2dVertex
 10
2.646592988696991
 20
4.57166932895436
 30
0.0
  0
VERTEX
  5
89
330
86
100
AcDbEntity
  8
Layer 1
370
     0
100
AcDbVertex
100
AcDb2dVertex
 10
5.138806814627261
 20
4.57166932895436
 30
0.0
  0
VERTEX
  5
8A
330
86
100
AcDbEntity
  8
Layer 1
370
     0
100
AcDbVertex
100
AcDb2dVertex
 10
5.138806814627261
 20
4.694227659191609
 30
0.0
  0
SEQEND
  5
8B
330
86
100
AcDbEntity
  8
Layer 1
370
     0
  0
INSERT
  5
8D
330
1F
100
AcDbEntity
  8
Layer 1
100
AcDbBlockReference
  2
block 4
 10
0.0
 20
0.0
 30
0.0
  0
POLYLINE
  5
AA
330
1F
100
AcDbEntity
  8
Layer 1
 62
     7
420
 16777215
370
     9
100
AcDb2dPolyline
 66
     1
 10
0.0
 20
0.0
 30
0.0
  0
VERTEX
  5
AB
330
AA
100
AcDbEntity
  8
Layer 1
 62
     7
420
 16777215
370
     9
100
AcDbVertex
100
AcDb2dVertex
 10
3.986633232622504
 20
4.571885995615554
 30
0.0
  0
VERTEX
  5
AC
330
AA
100
AcDbEntity
  8
Layer 1
 62
     7
420
 16777215
370
     9
100
AcDbVertex
100
AcDb2dVertex
 10
3.986640177066773
 20
5.240234589842758
 30
0.0
  0
SEQEND
  5
AD
330
AA
100
AcDbEntity
  8
Layer 1
 62
     7
420
 16777215
370
     9
  0
POLYLINE
  5
AE
330
1F
100
AcDbEntity
  8
Layer 1
 62
     7
420
 16777215
370
     9
100
AcDb2dPolyline
 66
     1
 10
0.0
 20
0.0
 30
0.0
  0
VERTEX
  5
AF
330
AE
100
AcDbEntity
  8
Layer 1
 62
     7
420
 16777215
370
     9
100
AcDbVertex
100
AcDb2dVertex
 10
3.353813804164436
 20
4.574490162216433
 30
0.0
  0
VERTEX
  5
B0
330
AE
100
AcDbEntity
  8
Layer 1
 62
     7
420
 16777215
370
     9
100
AcDbVertex
100
AcDb2dVertex
 10
3.354044359714155
 20
5.434740137677787
 30
0.0
  0
SEQEND
  5
B1
330
AE
100
AcDbEntity
  8
Layer 1
 62
     7
420
 16777215
370
     9
  0
POLYLINE
  5
B2
330
1F
100
AcDbEntity
  8
Layer 1
370
     0
100
AcDb2dPolyline
 66
     1
 10
0.0
 20
0.0
 30
0.0
  0
VERTEX
  5
B3
330
B2
100
AcDbEntity
  8
Layer 1
370
     0
100
AcDbVertex
100
AcDb2dVertex
 10
2.832994372876985
 20
5.858154018677245
 30
0.0
  0
VERTEX
  5
B4
330
B2
100
AcDbEntity
  8
Layer 1
370
     0
100
AcDbVertex
100
AcDb2dVertex
 10
2.832994372876985
 20
5.842006796862935
 30
0.0
  0
SEQEND
  5
B5
330
B2
100
AcDbEntity
  8
Layer 1
370
     0
  0
SPLINE
  5
B6
330
1F
100
AcDbEntity
  8
Layer 1
 62
     7
420
 16777215
370
     9
100
AcDbSpline
210
0.0
220
0.0
230
1.0
 70
     8
 71
     3
 72
    14
 73
    10
 74
     0
 42
0.0000000001
 43
0.0000000001
 12
1.0
 22
0.0
 32
0.0
 13
1.0
 23
0.0
 33
0.0
 40
0.0
 40
0.0
 40
0.0
 40
0.0
 40
1.0
 40
1.0
 40
1.0
 40
2.0
 40
2.0
 40
2.0
 40
3.0
 40
3.0
 40
3.0
 40
3.0
 10
4.510619330496612
 20
5.800177631252962
 30
0.0
 10
4.507690163903943
 20
5.791367909253292
 30
0.0
 10
4.504747108422735
 20
5.778156798475922
 30
0.0
 10
4.498155441922588
 20
5.773755409698222
 30
0.0
 10
4.495958333333343
 20
5.765685965457629
 30
0.0
 10
4.450438776461346
 20
5.523505416020068
 30
0.0
 10
4.448974887609438
 20
5.514695694020398
 30
0.0
 10
4.447509609868676
 20
5.505892916464997
 30
0.0
 10
4.44824155429463
 20
5.495619305613419
 30
0.0
 10
4.44824155429463
 20
5.495619305613419
 30
0.0
  0
POLYLINE
  5
B7
330
1F
100
AcDbEntity
  8
Layer 1
370
     0
100
AcDb2dPolyline
 66
     1
 10
0.0
 20
0.0
 30
0.0
  0
VERTEX
  5
B8
330
B7
100
AcDbEntity
  8
Layer 1
370
     0
100
AcDbVertex
100
AcDb2dVertex
 10
4.269911003244084
 20
5.794304020290231
 30
0.0
  0
VERTEX
  5
B9
330
B7
100
AcDbEntity
  8
Layer 1
370
     0
100
AcDbVertex
100
AcDb2dVertex
 10
4.277980447484676
 20
5.7876998537904
 30
0.0
  0
SEQEND
  5
BA
330
B7
100
AcDbEntity
  8
Layer 1
370
     0
  0
POLYLINE
  5
BB
330
1F
100
AcDbEntity
  8
Layer 1
370
     0
100
AcDb2dPolyline
 66
     1
 10
0.0
 20
0.0
 30
0.0
  0
VERTEX
  5
BC
330
BB
100
AcDbEntity
  8
Layer 1
370
     0
100
AcDbVertex
100
AcDb2dVertex
 10
5.084513888888877
 20
4.57166932895436
 30
0.0
  0
VERTEX
  5
BD
330
BB
100
AcDbEntity
  8
Layer 1
370
     0
100
AcDbVertex
100
AcDb2dVertex
 10
5.085245704869218
 20
4.686156826062162
 30
0.0
  0
SEQEND
  5
BE
330
BB
100
AcDbEntity
  8
Layer 1
370
     0
  0
POLYLINE
  5
BF
330
1F
100
AcDbEntity
  8
Layer 1
 62
     7
420
 16777215
370
     9
100
AcDb2dPolyline
 66
     1
 10
0.0
 20
0.0
 30
0.0
  0
VERTEX
  5
C0
330
BF
100
AcDbEntity
  8
Layer 1
 62
     7
420
 16777215
370
     9
100
AcDbVertex
100
AcDb2dVertex
 10
4.70950000000001
 20
4.572401273380314
 30
0.0
  0
VERTEX
  5
C1
330
BF
100
AcDbEntity
  8
Layer 1
 62
     7
420
 16777215
370
     9
100
AcDbVertex
100
AcDb2dVertex
 10
4.710965158768785
 20
4.852742932964954
 30
0.0
  0
SEQEND
  5
C2
330
BF
100
AcDbEntity
  8
Layer 1
 62
     7
420
 16777215
370
     9
  0
POLYLINE
  5
C3
330
1F
100
AcDbEntity
  8
Layer 1
370
     0
100
AcDb2dPolyline
 66
     1
 10
0.0
 20
0.0
 30
0.0
  0
VERTEX
  5
C4
330
C3
100
AcDbEntity
  8
Layer 1
370
     0
100
AcDbVertex
100
AcDb2dVertex
 10
2.646592988696991
 20
6.510565113307065
 30
0.0
  0
VERTEX
  5
C5
330
C3
100
AcDbEntity
  8
Layer 1
370
     0
100
AcDbVertex
100
AcDb2dVertex
 10
2.646592988696991
 20
4.57166932895436
 30
0.0
  0
VERTEX
  5
C6
330
C3
100
AcDbEntity
  8
Layer 1
370
     0
100
AcDbVertex
100
AcDb2dVertex
 10
5.138806814627261
 20
4.57166932895436
 30
0.0
  0
VERTEX
  5
C7
330
C3
100
AcDbEntity
  8
Layer 1
370
     0
100
AcDbVertex
100
AcDb2dVertex
 10
5.138806814627261
 20
4.694227659191609
 30
0.0
  0
SEQEND
  5
C8
330
C3
100
AcDbEntity
  8
Layer 1
370
     0
  0
POLYLINE
  5
C9
330
1F
100
AcDbEntity
  8
Layer 1
 62
     7
420
 16777215
370
    25
100
AcDb2dPolyline
 66
     1
 10
0.0
 20
0.0
 30
0.0
  0
VERTEX
  5
CA
330
C9
100
AcDbEntity
  8
Layer 1
 62
     7
420
 16777215
370
    25
100
AcDbVertex
100
AcDb2dVertex
 10
2.646565210919915
 20
6.511630391057931
 30
0.0
  0
VERTEX
  5
CB
330
C9
100
AcDbEntity
  8
Layer 1
 62
     7
420
 16777215
370
    25
100
AcDbVertex
100
AcDb2dVertex
 10
2.646565210919915
 20
4.571695717842582
 30
0.0
  0
VERTEX
  5
CC
330
C9
100
AcDbEntity
  8
Layer 1
 62
     7
420
 16777215
370
    25
100
AcDbVertex
100
AcDb2dVertex
 10
5.137912370205413
 20
4.571695717842582
 30
0.0
  0
SEQEND
  5
CD
330
C9
100
AcDbEntity
  8
Layer 1
 62
     7
420
 16777215
370
    25
  0
INSERT
  5
CF
330
1F
100
AcDbEntity
  8
Layer 1
100
AcDbBlockReference
  2
block 6
 10
0.0
 20
0.0
 30
0.0
  0
POLYLINE
  5
283
330
1F
100
AcDbEntity
  8
Layer 1
 62
     7
420
 16777215
370
     9
100
AcDb2dPolyline
 66
     1
 10
0.0
 20
0.0
 30
0.0
  0
VERTEX
  5
284
330
283
100
AcDbEntity
  8
Layer 1
 62
     7
420
 16777215
370
     9
100
AcDbVertex
100
AcDb2dVertex
 10
2.648058266437753
 20
5.683660960512498
 30
0.0
  0
VERTEX
  5
285
330
283
100
AcDbEntity
  8
Layer 1
 62
     7
420
 16777215
370
     9
100
AcDbVertex
100
AcDb2dVertex
 10
3.306784654546176
 20
5.71798271754695
 30
0.0
  0
SEQEND
  5
286
330
283
100
AcDbEntity
  8
Layer 1
 62
     7
420
 16777215
370
     9
  0
SPLINE
  5
287
330
1F
100
AcDbEntity
  8
Layer 1
 62
     7
420
 16777215
370
     9
100
AcDbSpline
210
0.0
220
0.0
230
1.0
 70
     8
 71
     3
 72
    17
 73
    13
 74
     0
 42
0.0000000001
 43
0.0000000001
 12
1.0
 22
0.0
 32
0.0
 13
1.0
 23
0.0
 33
0.0
 40
0.0
 40
0.0
 40
0.0
 40
0.0
 40
1.0
 40
1.0
 40
1.0
 40
2.0
 40
2.0
 40
2.0
 40
3.0
 40
3.0
 40
3.0
 40
4.0
 40
4.0
 40
4.0
 40
4.0
 10
5.241875000000012
 20
4.727647102791807
 30
0.0
 10
5.24875264518313
 20
4.739881824704955
 30
0.0
 10
5.255642922786844
 20
4.754408213226876
 30
0.0
 10
5.258694444444447
 20
4.763590157439365
 30
0.0
 10
5.261745700410453
 20
4.77275960165217
 30
0.0
 10
5.255642922786844
 20
4.774277777777772
 30
0.0
 10
5.261745700410453
 20
4.764349879642396
 30
0.0
 10
5.2678623669226
 20
4.754408213226876
 30
0.0
 10
5.273992922323284
 20
4.739122102501924
 30
0.0
 10
5.283148477647551
 20
4.73223182489821
 30
0.0
 10
5.292331810748894
 20
4.725369325071571
 30
0.0
 10
5.303033199367443
 20
4.706244325554709
 30
0.0
 10
5.306858199270815
 20
4.703192936742905
 30
0.0
  0
SPLINE
  5
288
330
1F
100
AcDbEntity
  8
Layer 1
 62
     7
420
 16777215
370
     9
100
AcDbSpline
210
0.0
220
0.0
230
1.0
 70
     8
 71
     3
 72
    11
 73
     7
 74
     0
 42
0.0000000001
 43
0.0000000001
 12
1.0
 22
0.0
 32
0.0
 13
1.0
 23
0.0
 33
0.0
 40
0.0
 40
0.0
 40
0.0
 40
0.0
 40
1.0
 40
1.0
 40
1.0
 40
2.0
 40
2.0
 40
2.0
 40
2.0
 10
5.292927644067175
 20
4.929795708796215
 30
0.0
 10
5.305406810418591
 20
4.936415153073439
 30
0.0
 10
5.306870699270499
 20
4.937879041925346
 30
0.0
 10
5.314955421288484
 20
4.945949875054794
 30
0.0
 10
5.32301097664054
 20
4.95402070818424
 30
0.0
 10
5.331081809769986
 20
4.961358207998879
 30
0.0
 10
5.335504031880494
 20
4.962104041313371
 30
0.0
  0
SPLINE
  5
289
330
1F
100
AcDbEntity
  8
Layer 1
 62
     7
420
 16777215
370
     9
100
AcDbSpline
210
0.0
220
0.0
230
1.0
 70
     8
 71
     3
 72
    14
 73
    10
 74
     0
 42
0.0000000001
 43
0.0000000001
 12
1.0
 22
0.0
 32
0.0
 13
1.0
 23
0.0
 33
0.0
 40
0.0
 40
0.0
 40
0.0
 40
0.0
 40
1.0
 40
1.0
 40
1.0
 40
2.0
 40
2.0
 40
2.0
 40
3.0
 40
3.0
 40
3.0
 40
3.0
 10
5.22908459012443
 20
4.918795709074098
 30
0.0
 10
5.240084589846547
 20
4.9275984866295
 30
0.0
 10
5.252563756197964
 20
4.93347222222221
 30
0.0
 10
5.261366533753365
 20
4.939344319666108
 30
0.0
 10
5.27018181130845
 20
4.945217930628839
 30
0.0
 10
5.287787366419252
 20
4.961358207998879
 30
0.0
 10
5.295124999999997
 20
4.965033207906041
 30
0.0
 10
5.30246236604853
 20
4.968695707813518
 30
0.0
 10
5.330349865344033
 20
4.987047096238812
 30
0.0
 10
5.336236111111121
 20
4.986313762924005
 30
0.0
  0
SPLINE
  5
28A
330
1F
100
AcDbEntity
  8
Layer 1
 62
     7
420
 16777215
370
     9
100
AcDbSpline
210
0.0
220
0.0
230
1.0
 70
     8
 71
     3
 72
    17
 73
    13
 74
     0
 42
0.0000000001
 43
0.0000000001
 12
1.0
 22
0.0
 32
0.0
 13
1.0
 23
0.0
 33
0.0
 40
0.0
 40
0.0
 40
0.0
 40
0.0
 40
1.0
 40
1.0
 40
1.0
 40
2.0
 40
2.0
 40
2.0
 40
3.0
 40
3.0
 40
3.0
 40
4.0
 40
4.0
 40
4.0
 40
4.0
 10
5.099188760072543
 20
4.907783209352298
 30
0.0
 10
5.099920704498496
 20
4.918795709074098
 30
0.0
 10
5.108723482053898
 20
4.934935986444139
 30
0.0
 10
5.108723482053898
 20
4.934935986444139
 30
0.0
 10
5.108723482053898
 20
4.934935986444139
 30
0.0
 10
5.115329037442582
 20
4.94373876399954
 30
0.0
 10
5.119005426238598
 20
4.948160986110048
 30
0.0
 10
5.124145703886521
 20
4.942274875147632
 30
0.0
 10
5.130005425960714
 20
4.938612375240155
 30
0.0
 10
5.133680555555555
 20
4.932006819851469
 30
0.0
 10
5.137355425775038
 20
4.925401264462784
 30
0.0
 10
5.140285981256562
 20
4.914387375852129
 30
0.0
 10
5.14469444444444
 20
4.911458333333333
 30
0.0
  0
SPLINE
  5
28B
330
1F
100
AcDbEntity
  8
Layer 1
 62
     7
420
 16777215
370
     9
100
AcDbSpline
210
0.0
220
0.0
230
1.0
 70
     8
 71
     3
 72
    20
 73
    16
 74
     0
 42
0.0000000001
 43
0.0000000001
 12
1.0
 22
0.0
 32
0.0
 13
1.0
 23
0.0
 33
0.0
 40
0.0
 40
0.0
 40
0.0
 40
0.0
 40
1.0
 40
1.0
 40
1.0
 40
2.0
 40
2.0
 40
2.0
 40
3.0
 40
3.0
 40
3.0
 40
4.0
 40
4.0
 40
4.0
 40
5.0
 40
5.0
 40
5.0
 40
5.0
 10
5.335504031880494
 20
5.007595706830822
 30
0.0
 10
5.323756809955031
 20
5.005398484664107
 30
0.0
 10
5.324490143269839
 20
5.001722222222219
 30
0.0
 10
5.315673476825901
 20
4.998060984849467
 30
0.0
 10
5.306870699270499
 20
4.994384596053451
 30
0.0
 10
5.296604032863191
 20
4.982638888888888
 30
0.0
 10
5.284858199826582
 20
4.978963763109681
 30
0.0
 10
5.273125000000012
 20
4.975301263202204
 30
0.0
 10
5.265773478086481
 20
4.962822096850787
 30
0.0
 10
5.254774867253218
 20
4.959160985832164
 30
0.0
 10
5.243760978642563
 20
4.955484597036148
 30
0.0
 10
5.224677645791315
 20
4.94080959740687
 30
0.0
 10
5.217338757087822
 20
4.94080959740687
 30
0.0
 10
5.212931812754706
 20
4.93347222222221
 30
0.0
 10
5.207058201791975
 20
4.920260986814861
 30
0.0
 10
5.207058201791975
 20
4.911458333333333
 30
0.0
  0
SPLINE
  5
28C
330
1F
100
AcDbEntity
  8
Layer 1
 62
     7
420
 16777215
370
     9
100
AcDbSpline
210
0.0
220
0.0
230
1.0
 70
     8
 71
     3
 72
    50
 73
    46
 74
     0
 42
0.0000000001
 43
0.0000000001
 12
1.0
 22
0.0
 32
0.0
 13
1.0
 23
0.0
 33
0.0
 40
0.0
 40
0.0
 40
0.0
 40
0.0
 40
1.0
 40
1.0
 40
1.0
 40
2.0
 40
2.0
 40
2.0
 40
3.0
 40
3.0
 40
3.0
 40
4.0
 40
4.0
 40
4.0
 40
5.0
 40
5.0
 40
5.0
 40
6.0
 40
6.0
 40
6.0
 40
7.0
 40
7.0
 40
7.0
 40
8.0
 40
8.0
 40
8.0
 40
9.0
 40
9.0
 40
9.0
 40
10.0
 40
10.0
 40
10.0
 40
11.0
 40
11.0
 40
11.0
 40
12.0
 40
12.0
 40
12.0
 40
13.0
 40
13.0
 40
13.0
 40
14.0
 40
14.0
 40
14.0
 40
15.0
 40
15.0
 40
15.0
 40
15.0
 10
5.033134595074544
 20
4.884304043278765
 30
0.0
 10
5.041205428203991
 20
4.893120709722703
 30
0.0
 10
5.059556816629285
 20
4.903387376130013
 30
0.0
 10
5.059556816629285
 20
4.903387376130013
 30
0.0
 10
5.059556816629285
 20
4.903387376130013
 30
0.0
 10
5.080837371647249
 20
4.918063764648145
 30
0.0
 10
5.080837371647249
 20
4.918063764648145
 30
0.0
 10
5.080837371647249
 20
4.918063764648145
 30
0.0
 10
5.08671098260998
 20
4.928330431055453
 30
0.0
 10
5.092583333333323
 20
4.936415153073439
 30
0.0
 10
5.098456815646588
 20
4.944484597314031
 30
0.0
 10
5.105062371035274
 20
4.962822096850787
 30
0.0
 10
5.109456815368705
 20
4.967963763387565
 30
0.0
 10
5.113863759701821
 20
4.973104041035488
 30
0.0
 10
5.11827209292379
 20
4.978963763109681
 30
0.0
 10
5.11827209292379
 20
4.978963763109681
 30
0.0
 10
5.11827209292379
 20
4.978963763109681
 30
0.0
 10
5.126342926053237
 20
4.97237070772068
 30
0.0
 10
5.131469314812622
 20
4.965033207906041
 30
0.0
 10
5.136609592460545
 20
4.957681819202864
 30
0.0
 10
5.152017925404632
 20
4.934935986444139
 30
0.0
 10
5.15496098088584
 20
4.932006819851469
 30
0.0
 10
5.157904036367047
 20
4.929077653258799
 30
0.0
 10
5.179904035811281
 20
4.896035987426836
 30
0.0
 10
5.179904035811281
 20
4.896035987426836
 30
0.0
 10
5.179904035811281
 20
4.896035987426836
 30
0.0
 10
5.18724153562592
 20
4.905584598296728
 30
0.0
 10
5.189452646681174
 20
4.909247098204205
 30
0.0
 10
5.19164986884789
 20
4.912923487000222
 30
0.0
 10
5.203395701884498
 20
4.945949875054794
 30
0.0
 10
5.206338757365706
 20
4.949624999999994
 30
0.0
 10
5.209269312847229
 20
4.953287374869433
 30
0.0
 10
5.216606812661868
 20
4.966498485646803
 30
0.0
 10
5.216606812661868
 20
4.966498485646803
 30
0.0
 10
5.216606812661868
 20
4.966498485646803
 30
0.0
 10
5.243027777777772
 20
4.981173485276082
 30
0.0
 10
5.243027777777772
 20
4.981173485276082
 30
0.0
 10
5.243027777777772
 20
4.981173485276082
 30
0.0
 10
5.270915144623258
 20
4.999524873701375
 30
0.0
 10
5.270915144623258
 20
4.999524873701375
 30
0.0
 10
5.270915144623258
 20
4.999524873701375
 30
0.0
 10
5.3083498658998
 20
5.023004039774908
 30
0.0
 10
5.3083498658998
 20
5.023004039774908
 30
0.0
 10
5.3083498658998
 20
5.023004039774908
 30
0.0
 10
5.334024865251195
 20
5.036947094978232
 30
0.0
 10
5.336954031843864
 20
5.037679039404186
 30
0.0
  0
SPLINE
  5
28D
330
1F
100
AcDbEntity
  8
Layer 1
 62
     7
420
 16777215
370
     9
100
AcDbSpline
210
0.0
220
0.0
230
1.0
 70
     8
 71
     3
 72
    11
 73
     7
 74
     0
 42
0.0000000001
 43
0.0000000001
 12
1.0
 22
0.0
 32
0.0
 13
1.0
 23
0.0
 33
0.0
 40
0.0
 40
0.0
 40
0.0
 40
0.0
 40
1.0
 40
1.0
 40
1.0
 40
2.0
 40
2.0
 40
2.0
 40
2.0
 10
5.165960980607957
 20
5.036213761663425
 30
0.0
 10
5.171847222222216
 20
5.030341539589547
 30
0.0
 10
5.180649869125773
 20
5.023749999999987
 30
0.0
 10
5.182847222222234
 20
5.019341539867431
 30
0.0
 10
5.187988757829266
 20
5.025933206367577
 30
0.0
 10
5.190185979995982
 20
5.03108737290404
 30
0.0
 10
5.194592924329097
 20
5.034750000000005
 30
0.0
  0
SPLINE
  5
28E
330
1F
100
AcDbEntity
  8
Layer 1
 62
     7
420
 16777215
370
     9
100
AcDbSpline
210
0.0
220
0.0
230
1.0
 70
     8
 71
     3
 72
    20
 73
    16
 74
     0
 42
0.0000000001
 43
0.0000000001
 12
1.0
 22
0.0
 32
0.0
 13
1.0
 23
0.0
 33
0.0
 40
0.0
 40
0.0
 40
0.0
 40
0.0
 40
1.0
 40
1.0
 40
1.0
 40
2.0
 40
2.0
 40
2.0
 40
3.0
 40
3.0
 40
3.0
 40
4.0
 40
4.0
 40
4.0
 40
5.0
 40
5.0
 40
5.0
 40
5.0
 10
5.127074870479191
 20
5.057494316681388
 30
0.0
 10
5.135145703608638
 20
5.046495705848125
 30
0.0
 10
5.143229036737769
 20
5.034016539496709
 30
0.0
 10
5.149820703237916
 20
5.026665150793532
 30
0.0
 10
5.156426258626602
 20
5.019341539867431
 30
0.0
 10
5.18138320244058
 20
4.991455429460782
 30
0.0
 10
5.18138320244058
 20
4.991455429460782
 30
0.0
 10
5.18138320244058
 20
4.991455429460782
 30
0.0
 10
5.19164986884789
 20
4.993652777777773
 30
0.0
 10
5.193115146588651
 20
5.001722222222219
 30
0.0
 10
5.194592924329097
 20
5.009806817886076
 30
0.0
 10
5.205592924051214
 20
5.025933206367577
 30
0.0
 10
5.207058201791975
 20
5.03108737290404
 30
0.0
 10
5.208535979532422
 20
5.036213761663425
 30
0.0
 10
5.214409590495152
 20
5.052354039033465
 30
0.0
 10
5.214409590495152
 20
5.052354039033465
 30
0.0
  0
SPLINE
  5
28F
330
1F
100
AcDbEntity
  8
Layer 1
 62
     7
420
 16777215
370
     9
100
AcDbSpline
210
0.0
220
0.0
230
1.0
 70
     8
 71
     3
 72
    56
 73
    52
 74
     0
 42
0.0000000001
 43
0.0000000001
 12
1.0
 22
0.0
 32
0.0
 13
1.0
 23
0.0
 33
0.0
 40
0.0
 40
0.0
 40
0.0
 40
0.0
 40
1.0
 40
1.0
 40
1.0
 40
2.0
 40
2.0
 40
2.0
 40
3.0
 40
3.0
 40
3.0
 40
4.0
 40
4.0
 40
4.0
 40
5.0
 40
5.0
 40
5.0
 40
6.0
 40
6.0
 40
6.0
 40
7.0
 40
7.0
 40
7.0
 40
8.0
 40
8.0
 40
8.0
 40
9.0
 40
9.0
 40
9.0
 40
10.0
 40
10.0
 40
10.0
 40
11.0
 40
11.0
 40
11.0
 40
12.0
 40
12.0
 40
12.0
 40
13.0
 40
13.0
 40
13.0
 40
14.0
 40
14.0
 40
14.0
 40
15.0
 40
15.0
 40
15.0
 40
16.0
 40
16.0
 40
16.0
 40
17.0
 40
17.0
 40
17.0
 40
17.0
 10
4.986165151816648
 20
4.876234599038171
 30
0.0
 10
4.988376262871902
 20
4.88357209885281
 30
0.0
 10
5.009656817889865
 20
4.894585987463466
 30
0.0
 10
5.013333333333321
 20
4.899712376222851
 30
0.0
 10
5.016994317704504
 20
4.904852653870774
 30
0.0
 10
5.048556816907168
 20
4.922472222222217
 30
0.0
 10
5.054429038981046
 20
4.926866542203546
 30
0.0
 10
5.060288761055239
 20
4.931274875425515
 30
0.0
 10
5.079372093906486
 20
4.941541666666656
 30
0.0
 10
5.081569444444439
 20
4.944484597314031
 30
0.0
 10
5.083780427128456
 20
4.947415152795555
 30
0.0
 10
5.092583333333323
 20
4.961358207998879
 30
0.0
 10
5.094780426850573
 20
4.965766541220849
 30
0.0
 10
5.096977649017289
 20
4.970173485553965
 30
0.0
 10
5.107991537627943
 20
4.986313762924005
 30
0.0
 10
5.110920704220613
 20
4.995862373793898
 30
0.0
 10
5.113863759701821
 20
5.005398484664107
 30
0.0
 10
5.11827209292379
 20
5.009806817886076
 30
0.0
 10
5.11827209292379
 20
5.009806817886076
 30
0.0
 10
5.11827209292379
 20
5.009806817886076
 30
0.0
 10
5.126342926053237
 20
5.005398484664107
 30
0.0
 10
5.131469314812622
 20
4.998060984849467
 30
0.0
 10
5.136609592460545
 20
4.99070959614629
 30
0.0
 10
5.151299869867216
 20
4.970173485553965
 30
0.0
 10
5.156426258626602
 20
4.966498485646803
 30
0.0
 10
5.161566536274525
 20
4.962822096850787
 30
0.0
 10
5.182115146866535
 20
4.930527777777772
 30
0.0
 10
5.182115146866535
 20
4.930527777777772
 30
0.0
 10
5.182115146866535
 20
4.930527777777772
 30
0.0
 10
5.190917924421935
 20
4.942274875147632
 30
0.0
 10
5.193115146588651
 20
4.945217930628839
 30
0.0
 10
5.195326257643905
 20
4.948160986110048
 30
0.0
 10
5.204861111111111
 20
4.973835985461442
 30
0.0
 10
5.207804035106467
 20
4.978244318683411
 30
0.0
 10
5.21073459058799
 20
4.982638888888888
 30
0.0
 10
5.217338757087822
 20
4.99291931831269
 30
0.0
 10
5.217338757087822
 20
4.99291931831269
 30
0.0
 10
5.217338757087822
 20
4.99291931831269
 30
0.0
 10
5.22908459012443
 20
4.997313762646121
 30
0.0
 10
5.22908459012443
 20
4.997313762646121
 30
0.0
 10
5.22908459012443
 20
4.997313762646121
 30
0.0
 10
5.248155422975994
 20
5.008327651256776
 30
0.0
 10
5.253295700623918
 20
5.012004040052791
 30
0.0
 10
5.258435978271842
 20
5.015665151071415
 30
0.0
 10
5.272379033475166
 20
5.023749999999987
 30
0.0
 10
5.279716533289805
 20
5.032552650644801
 30
0.0
 10
5.287055555555551
 20
5.041354039311348
 30
0.0
 10
5.309067921437215
 20
5.053099872347957
 30
0.0
 10
5.312744310233231
 20
5.055297094514672
 30
0.0
 10
5.316406810140708
 20
5.057494316681388
 30
0.0
 10
5.335504031880494
 20
5.069241538606851
 30
0.0
 10
5.335504031880494
 20
5.069241538606851
 30
0.0
  0
SPLINE
  5
290
330
1F
100
AcDbEntity
  8
Layer 1
 62
     7
420
 16777215
370
     9
100
AcDbSpline
210
0.0
220
0.0
230
1.0
 70
     8
 71
     3
 72
    53
 73
    49
 74
     0
 42
0.0000000001
 43
0.0000000001
 12
1.0
 22
0.0
 32
0.0
 13
1.0
 23
0.0
 33
0.0
 40
0.0
 40
0.0
 40
0.0
 40
0.0
 40
1.0
 40
1.0
 40
1.0
 40
2.0
 40
2.0
 40
2.0
 40
3.0
 40
3.0
 40
3.0
 40
4.0
 40
4.0
 40
4.0
 40
5.0
 40
5.0
 40
5.0
 40
6.0
 40
6.0
 40
6.0
 40
7.0
 40
7.0
 40
7.0
 40
8.0
 40
8.0
 40
8.0
 40
9.0
 40
9.0
 40
9.0
 40
10.0
 40
10.0
 40
10.0
 40
11.0
 40
11.0
 40
11.0
 40
12.0
 40
12.0
 40
12.0
 40
13.0
 40
13.0
 40
13.0
 40
14.0
 40
14.0
 40
14.0
 40
15.0
 40
15.0
 40
15.0
 40
16.0
 40
16.0
 40
16.0
 40
16.0
 10
4.952922097100882
 20
4.884358209944063
 30
0.0
 10
4.958048485860268
 20
4.888034598740078
 30
0.0
 10
4.972222222222222
 20
4.900444444444449
 30
0.0
 10
4.983236111111106
 20
4.905584598296728
 30
0.0
 10
4.994236111111099
 20
4.910726264833506
 30
0.0
 10
5.005994317982387
 20
4.915852653592891
 30
0.0
 10
5.015516539964058
 20
4.925401264462784
 30
0.0
 10
5.025065150833951
 20
4.934935986444139
 30
0.0
 10
5.027994317426621
 20
4.941541666666656
 30
0.0
 10
5.034613761703844
 20
4.945217930628839
 30
0.0
 10
5.041205428203991
 20
4.948879041647463
 30
0.0
 10
5.074965149573371
 20
4.968695707813518
 30
0.0
 10
5.075710982887863
 20
4.971625000000004
 30
0.0
 10
5.076429038425279
 20
4.974567929887396
 30
0.0
 10
5.088920704776379
 20
4.984116540757289
 30
0.0
 10
5.091117926943095
 20
4.987047096238812
 30
0.0
 10
5.093316537998665
 20
4.989976262831482
 30
0.0
 10
5.100654037813304
 20
5.003919318034806
 30
0.0
 10
5.100654037813304
 20
5.003919318034806
 30
0.0
 10
5.100654037813304
 20
5.003919318034806
 30
0.0
 10
5.114597222222224
 20
5.03108737290404
 30
0.0
 10
5.11827209292379
 20
5.037679039404186
 30
0.0
 10
5.124145703886521
 20
5.032552650644801
 30
0.0
 10
5.131469314812622
 20
5.021538762034147
 30
0.0
 10
5.137355425775038
 20
5.016398484386223
 30
0.0
 10
5.143229036737769
 20
5.011256817849445
 30
0.0
 10
5.157904036367047
 20
4.99070959614629
 30
0.0
 10
5.162298480700479
 20
4.984835985183559
 30
0.0
 10
5.16669444444445
 20
4.978963763109681
 30
0.0
 10
5.18138320244058
 20
4.965766541220849
 30
0.0
 10
5.184326257921788
 20
4.962104041313371
 30
0.0
 10
5.190917924421935
 20
4.968695707813518
 30
0.0
 10
5.196058202069858
 20
4.978244318683411
 30
0.0
 10
5.199734590865874
 20
4.987047096238812
 30
0.0
 10
5.203395701884498
 20
4.995862373793898
 30
0.0
 10
5.212198479439899
 20
5.014201262219507
 30
0.0
 10
5.216606812661868
 20
5.020059595404846
 30
0.0
 10
5.223212368050554
 20
5.021538762034147
 30
0.0
 10
5.235677645513432
 20
5.027410984108024
 30
0.0
 10
5.235677645513432
 20
5.027410984108024
 30
0.0
 10
5.235677645513432
 20
5.027410984108024
 30
0.0
 10
5.247423478550041
 20
5.03548181723747
 30
0.0
 10
5.254774867253218
 20
5.039876261570902
 30
0.0
 10
5.262098478179319
 20
5.044284594792871
 30
0.0
 10
5.268717922456542
 20
5.046495705848125
 30
0.0
 10
5.272379033475166
 20
5.050156816866749
 30
0.0
 10
5.276041666666666
 20
5.053819444444444
 30
0.0
 10
5.287787366419252
 20
5.050156816866749
 30
0.0
 10
5.28632208867849
 20
5.064099872070074
 30
0.0
  0
SPLINE
  5
291
330
1F
100
AcDbEntity
  8
Layer 1
 62
     7
420
 16777215
370
     9
100
AcDbSpline
210
0.0
220
0.0
230
1.0
 70
     8
 71
     3
 72
    26
 73
    22
 74
     0
 42
0.0000000001
 43
0.0000000001
 12
1.0
 22
0.0
 32
0.0
 13
1.0
 23
0.0
 33
0.0
 40
0.0
 40
0.0
 40
0.0
 40
0.0
 40
1.0
 40
1.0
 40
1.0
 40
2.0
 40
2.0
 40
2.0
 40
3.0
 40
3.0
 40
3.0
 40
4.0
 40
4.0
 40
4.0
 40
5.0
 40
5.0
 40
5.0
 40
6.0
 40
6.0
 40
6.0
 40
7.0
 40
7.0
 40
7.0
 40
7.0
 10
4.952922097100882
 20
4.918769320185876
 30
0.0
 10
4.963920707934145
 20
4.92683876442647
 30
0.0
 10
4.988376262871902
 20
4.941541666666656
 30
0.0
 10
4.994981818260587
 20
4.946681819480747
 30
0.0
 10
5.001587373649272
 20
4.951823486017525
 30
0.0
 10
5.016994317704504
 20
4.960625000000012
 30
0.0
 10
5.024333333333339
 20
4.970173485553965
 30
0.0
 10
5.031670706222636
 20
4.979709596424173
 30
0.0
 10
5.03681098387056
 20
4.982638888888888
 30
0.0
 10
5.045613761425961
 20
4.986313762924005
 30
0.0
 10
5.054429038981046
 20
4.989976262831482
 30
0.0
 10
5.076429038425279
 20
5.007595706830822
 30
0.0
 10
5.079372093906486
 20
5.008327651256776
 30
0.0
 10
5.082316538276548
 20
5.00905959568273
 30
0.0
 10
5.087442927035934
 20
5.010524873423492
 30
0.0
 10
5.089654038091187
 20
5.016398484386223
 30
0.0
 10
5.091851260257903
 20
5.0222707064601
 30
0.0
 10
5.100654037813304
 20
5.039144317144948
 30
0.0
 10
5.100654037813304
 20
5.039144317144948
 30
0.0
 10
5.100654037813304
 20
5.039144317144948
 30
0.0
 10
5.106526259887182
 20
5.047227650274079
 30
0.0
 10
5.106526259887182
 20
5.047227650274079
 30
0.0
  0
POLYLINE
  5
292
330
1F
100
AcDbEntity
  8
Layer 1
 62
     7
420
 16777215
370
     9
100
AcDb2dPolyline
 66
     1
 10
0.0
 20
0.0
 30
0.0
  0
VERTEX
  5
293
330
292
100
AcDbEntity
  8
Layer 1
 62
     7
420
 16777215
370
     9
100
AcDbVertex
100
AcDb2dVertex
 10
5.217338757087822
 20
5.054551261200181
 30
0.0
  0
VERTEX
  5
294
330
292
100
AcDbEntity
  8
Layer 1
 62
     7
420
 16777215
370
     9
100
AcDbVertex
100
AcDb2dVertex
 10
5.21807209040263
 20
4.918795709074098
 30
0.0
  0
SEQEND
  5
295
330
292
100
AcDbEntity
  8
Layer 1
 62
     7
420
 16777215
370
     9
  0
POLYLINE
  5
296
330
1F
100
AcDbEntity
  8
Layer 1
 62
     7
420
 16777215
370
     9
100
AcDb2dPolyline
 66
     1
 10
0.0
 20
0.0
 30
0.0
  0
VERTEX
  5
297
330
296
100
AcDbEntity
  8
Layer 1
 62
     7
420
 16777215
370
     9
100
AcDbVertex
100
AcDb2dVertex
 10
5.182847222222234
 20
5.026665150793532
 30
0.0
  0
VERTEX
  5
298
330
296
100
AcDbEntity
  8
Layer 1
 62
     7
420
 16777215
370
     9
100
AcDbVertex
100
AcDb2dVertex
 10
5.185044313459204
 20
4.893120709722703
 30
0.0
  0
SEQEND
  5
299
330
296
100
AcDbEntity
  8
Layer 1
 62
     7
420
 16777215
370
     9
  0
POLYLINE
  5
29A
330
1F
100
AcDbEntity
  8
Layer 1
 62
     7
420
 16777215
370
     9
100
AcDb2dPolyline
 66
     1
 10
0.0
 20
0.0
 30
0.0
  0
VERTEX
  5
29B
330
29A
100
AcDbEntity
  8
Layer 1
 62
     7
420
 16777215
370
     9
100
AcDbVertex
100
AcDb2dVertex
 10
5.119005426238598
 20
5.057494316681388
 30
0.0
  0
VERTEX
  5
29C
330
29A
100
AcDbEntity
  8
Layer 1
 62
     7
420
 16777215
370
     9
100
AcDbVertex
100
AcDb2dVertex
 10
5.119005426238598
 20
4.92466932003683
 30
0.0
  0
SEQEND
  5
29D
330
29A
100
AcDbEntity
  8
Layer 1
 62
     7
420
 16777215
370
     9
  0
POLYLINE
  5
29E
330
1F
100
AcDbEntity
  8
Layer 1
 62
     7
420
 16777215
370
     9
100
AcDb2dPolyline
 66
     1
 10
0.0
 20
0.0
 30
0.0
  0
VERTEX
  5
29F
330
29E
100
AcDbEntity
  8
Layer 1
 62
     7
420
 16777215
370
     9
100
AcDbVertex
100
AcDb2dVertex
 10
5.081569444444439
 20
5.033284595070755
 30
0.0
  0
VERTEX
  5
2A0
330
29E
100
AcDbEntity
  8
Layer 1
 62
     7
420
 16777215
370
     9
100
AcDbVertex
100
AcDb2dVertex
 10
5.081569444444439
 20
4.893120709722703
 30
0.0
  0
SEQEND
  5
2A1
330
29E
100
AcDbEntity
  8
Layer 1
 62
     7
420
 16777215
370
     9
  0
SPLINE
  5
2A2
330
1F
100
AcDbEntity
  8
Layer 1
 62
     7
420
 16777215
370
     9
100
AcDbSpline
210
0.0
220
0.0
230
1.0
 70
     8
 71
     3
 72
    17
 73
    13
 74
     0
 42
0.0000000001
 43
0.0000000001
 12
1.0
 22
0.0
 32
0.0
 13
1.0
 23
0.0
 33
0.0
 40
0.0
 40
0.0
 40
0.0
 40
0.0
 40
1.0
 40
1.0
 40
1.0
 40
2.0
 40
2.0
 40
2.0
 40
3.0
 40
3.0
 40
3.0
 40
4.0
 40
4.0
 40
4.0
 40
4.0
 10
5.173312369311134
 20
4.843940155409554
 30
0.0
 10
5.184326257921788
 20
4.840263888888885
 30
0.0
 10
5.188720702255219
 20
4.840263888888885
 30
0.0
 10
5.198269313125112
 20
4.835869322280106
 30
0.0
 10
5.207804035106467
 20
4.831460989058137
 30
0.0
 10
5.212931812754706
 20
4.832206822372629
 30
0.0
 10
5.218804034828584
 20
4.830729044632183
 30
0.0
 10
5.223212368050554
 20
4.838066544446822
 30
0.0
 10
5.226141534643223
 20
4.844672099835507
 30
0.0
 10
5.227620701272523
 20
4.848348488631523
 30
0.0
 10
5.22908459012443
 20
4.852009599650146
 30
0.0
 10
5.232015145605954
 20
4.85714987729807
 30
0.0
 10
5.234944444444434
 20
4.859347222222216
 30
0.0
  0
SPLINE
  5
2A3
330
1F
100
AcDbEntity
  8
Layer 1
 62
     7
420
 16777215
370
     9
100
AcDbSpline
210
0.0
220
0.0
230
1.0
 70
     8
 71
     3
 72
    23
 73
    19
 74
     0
 42
0.0000000001
 43
0.0000000001
 12
1.0
 22
0.0
 32
0.0
 13
1.0
 23
0.0
 33
0.0
 40
0.0
 40
0.0
 40
0.0
 40
0.0
 40
1.0
 40
1.0
 40
1.0
 40
2.0
 40
2.0
 40
2.0
 40
3.0
 40
3.0
 40
3.0
 40
4.0
 40
4.0
 40
4.0
 40
5.0
 40
5.0
 40
5.0
 40
6.0
 40
6.0
 40
6.0
 40
6.0
 10
5.252563756197964
 20
4.868149877020187
 30
0.0
 10
5.247423478550041
 20
4.85714987729807
 30
0.0
 10
5.245226256383325
 20
4.85127777777777
 30
0.0
 10
5.241563756475847
 20
4.841742933242838
 30
0.0
 10
5.237887367679832
 20
4.832206822372629
 30
0.0
 10
5.225409590217269
 20
4.802842934225534
 30
0.0
 10
5.2210012569953
 20
4.798448489892103
 30
0.0
 10
5.212931812754706
 20
4.801377656484773
 30
0.0
 10
5.21073459058799
 20
4.799166666666679
 30
0.0
 10
5.200466535291828
 20
4.802111111111117
 30
0.0
 10
5.190185979995982
 20
4.80504015639225
 30
0.0
 10
5.176974869218611
 20
4.80944848961422
 30
0.0
 10
5.168904036089164
 20
4.810180555555562
 30
0.0
 10
5.160834591848571
 20
4.810912378466128
 30
0.0
 10
5.13441237029383
 20
4.820460989336021
 30
0.0
 10
5.125609592738429
 20
4.820460989336021
 30
0.0
 10
5.116808204071882
 20
4.820460989336021
 30
0.0
 10
5.094780426850573
 20
4.824137378132036
 30
0.0
 10
5.088174871461888
 20
4.828531822465467
 30
0.0
  0
SPLINE
  5
2A4
330
1F
100
AcDbEntity
  8
Layer 1
 62
     7
420
 16777215
370
     9
100
AcDbSpline
210
0.0
220
0.0
230
1.0
 70
     8
 71
     3
 72
    20
 73
    16
 74
     0
 42
0.0000000001
 43
0.0000000001
 12
1.0
 22
0.0
 32
0.0
 13
1.0
 23
0.0
 33
0.0
 40
0.0
 40
0.0
 40
0.0
 40
0.0
 40
1.0
 40
1.0
 40
1.0
 40
2.0
 40
2.0
 40
2.0
 40
3.0
 40
3.0
 40
3.0
 40
4.0
 40
4.0
 40
4.0
 40
5.0
 40
5.0
 40
5.0
 40
5.0
 10
5.329616532029225
 20
4.855685988446163
 30
0.0
 10
5.325955421010601
 20
4.85127777777777
 30
0.0
 10
5.324490143269839
 20
4.842474877668792
 30
0.0
 10
5.32301097664054
 20
4.836602655594914
 30
0.0
 10
5.321547087788631
 20
4.830729044632183
 30
0.0
 10
5.317152777777765
 20
4.822658211502736
 30
0.0
 10
5.315673476825901
 20
4.817517933854813
 30
0.0
 10
5.309067921437215
 20
4.816054045002905
 30
0.0
 10
5.309813754751707
 20
4.816054045002905
 30
0.0
 10
5.303927643789292
 20
4.821926267076782
 30
0.0
 10
5.298067921715099
 20
4.827799878039514
 30
0.0
 10
5.292195699641221
 20
4.835869322280106
 30
0.0
 10
5.287055555555551
 20
4.842474877668792
 30
0.0
 10
5.281915144345374
 20
4.849080433057477
 30
0.0
 10
5.268541666666654
 20
4.866170710403518
 30
0.0
 10
5.266344311405393
 20
4.869831821422141
 30
0.0
  0
SPLINE
  5
2A5
330
1F
100
AcDbEntity
  8
Layer 1
 62
     7
420
 16777215
370
     9
100
AcDbSpline
210
0.0
220
0.0
230
1.0
 70
     8
 71
     3
 72
    47
 73
    43
 74
     0
 42
0.0000000001
 43
0.0000000001
 12
1.0
 22
0.0
 32
0.0
 13
1.0
 23
0.0
 33
0.0
 40
0.0
 40
0.0
 40
0.0
 40
0.0
 40
1.0
 40
1.0
 40
1.0
 40
2.0
 40
2.0
 40
2.0
 40
3.0
 40
3.0
 40
3.0
 40
4.0
 40
4.0
 40
4.0
 40
5.0
 40
5.0
 40
5.0
 40
6.0
 40
6.0
 40
6.0
 40
7.0
 40
7.0
 40
7.0
 40
8.0
 40
8.0
 40
8.0
 40
9.0
 40
9.0
 40
9.0
 40
10.0
 40
10.0
 40
10.0
 40
11.0
 40
11.0
 40
11.0
 40
12.0
 40
12.0
 40
12.0
 40
13.0
 40
13.0
 40
13.0
 40
14.0
 40
14.0
 40
14.0
 40
14.0
 10
5.041937372629945
 20
4.80944848961422
 30
0.0
 10
5.055894316721807
 20
4.807237378558966
 30
0.0
 10
5.072767927406655
 20
4.80504015639225
 30
0.0
 10
5.084513888888877
 20
4.799913767632865
 30
0.0
 10
5.096245704591334
 20
4.794772101096087
 30
0.0
 10
5.140285981256562
 20
4.784505434688779
 30
0.0
 10
5.152763888888885
 20
4.782294323633525
 30
0.0
 10
5.16524292507054
 20
4.780097222222214
 30
0.0
 10
5.214409590495152
 20
4.766140157374947
 30
0.0
 10
5.21807209040263
 20
4.76542210183753
 30
0.0
 10
5.2210012569953
 20
4.772013888888877
 30
0.0
 10
5.224677645791315
 20
4.774223490504078
 30
0.0
 10
5.228338756809939
 20
4.784505434688779
 30
0.0
 10
5.232015145605954
 20
4.794772101096087
 30
0.0
 10
5.238620700994639
 20
4.80504015639225
 30
0.0
 10
5.240084589846547
 20
4.80944848961422
 30
0.0
 10
5.241563756475847
 20
4.813856822836189
 30
0.0
 10
5.248155422975994
 20
4.835869322280106
 30
0.0
 10
5.250366534031248
 20
4.83879987776163
 30
0.0
 10
5.252563756197964
 20
4.841742933242838
 30
0.0
 10
5.254774867253218
 20
4.849812377483431
 30
0.0
 10
5.259901256012603
 20
4.853488766279447
 30
0.0
 10
5.264309589234572
 20
4.849812377483431
 30
0.0
 10
5.27018181130845
 20
4.840997099928345
 30
0.0
 10
5.273125000000012
 20
4.837334600020868
 30
0.0
 10
5.276041666666666
 20
4.833658211224853
 30
0.0
 10
5.289998477474506
 20
4.808715156299412
 30
0.0
 10
5.293660977381983
 20
4.804308211966296
 30
0.0
 10
5.297335977289145
 20
4.799913767632865
 30
0.0
 10
5.314955421288484
 20
4.773491546078124
 30
0.0
 10
5.314955421288484
 20
4.773491546078124
 30
0.0
 10
5.314955421288484
 20
4.773491546078124
 30
0.0
 10
5.318616532307108
 20
4.774223490504078
 30
0.0
 10
5.32008181004787
 20
4.780829045892763
 30
0.0
 10
5.321547087788631
 20
4.787434601281448
 30
0.0
 10
5.326687365436555
 20
4.806505434133012
 30
0.0
 10
5.327419309862509
 20
4.810912378466128
 30
0.0
 10
5.328152777777783
 20
4.815320711688097
 30
0.0
 10
5.339898476213926
 20
4.85714987729807
 30
0.0
 10
5.339898476213926
 20
4.85714987729807
 30
0.0
 10
5.339898476213926
 20
4.85714987729807
 30
0.0
 10
5.341362365065834
 20
4.866698488167963
 30
0.0
 10
5.343559587232549
 20
4.869629043649486
 30
0.0
  0
POLYLINE
  5
2A6
330
1F
100
AcDbEntity
  8
Layer 1
 62
     7
420
 16777215
370
     9
100
AcDb2dPolyline
 66
     1
 10
0.0
 20
0.0
 30
0.0
  0
VERTEX
  5
2A7
330
2A6
100
AcDbEntity
  8
Layer 1
 62
     7
420
 16777215
370
     9
100
AcDbVertex
100
AcDb2dVertex
 10
5.043402777777778
 20
4.821194444444447
 30
0.0
  0
VERTEX
  5
2A8
330
2A6
100
AcDbEntity
  8
Layer 1
 62
     7
420
 16777215
370
     9
100
AcDbVertex
100
AcDb2dVertex
 10
5.218804034828584
 20
4.85127777777777
 30
0.0
  0
VERTEX
  5
2A9
330
2A6
100
AcDbEntity
  8
Layer 1
 62
     7
420
 16777215
370
     9
100
AcDbVertex
100
AcDb2dVertex
 10
5.261366533753365
 20
4.874037376871456
 30
0.0
  0
VERTEX
  5
2AA
330
2A6
100
AcDbEntity
  8
Layer 1
 62
     7
420
 16777215
370
     9
100
AcDbVertex
100
AcDb2dVertex
 10
5.314955421288484
 20
4.843206822094746
 30
0.0
  0
VERTEX
  5
2AB
330
2A6
100
AcDbEntity
  8
Layer 1
 62
     7
420
 16777215
370
     9
100
AcDbVertex
100
AcDb2dVertex
 10
5.348699864880473
 20
4.873291666666672
 30
0.0
  0
VERTEX
  5
2AC
330
2A6
100
AcDbEntity
  8
Layer 1
 62
     7
420
 16777215
370
     9
100
AcDbVertex
100
AcDb2dVertex
 10
5.434570696044526
 20
4.887966543186242
 30
0.0
  0
SEQEND
  5
2AD
330
2A6
100
AcDbEntity
  8
Layer 1
 62
     7
420
 16777215
370
     9
  0
POLYLINE
  5
2AE
330
1F
100
AcDbEntity
  8
Layer 1
 62
     7
420
 16777215
370
     9
100
AcDb2dPolyline
 66
     1
 10
0.0
 20
0.0
 30
0.0
  0
VERTEX
  5
2AF
330
2AE
100
AcDbEntity
  8
Layer 1
 62
     7
420
 16777215
370
     9
100
AcDbVertex
100
AcDb2dVertex
 10
4.95534987481733
 20
5.014201262219507
 30
0.0
  0
VERTEX
  5
2B0
330
2AE
100
AcDbEntity
  8
Layer 1
 62
     7
420
 16777215
370
     9
100
AcDbVertex
100
AcDb2dVertex
 10
4.101861111111108
 20
5.442042918077984
 30
0.0
  0
SEQEND
  5
2B1
330
2AE
100
AcDbEntity
  8
Layer 1
 62
     7
420
 16777215
370
     9
  0
POLYLINE
  5
2B2
330
1F
100
AcDbEntity
  8
Layer 1
 62
     7
420
 16777215
370
     9
100
AcDb2dPolyline
 66
     1
 10
0.0
 20
0.0
 30
0.0
  0
VERTEX
  5
2B3
330
2B2
100
AcDbEntity
  8
Layer 1
 62
     7
420
 16777215
370
     9
100
AcDbVertex
100
AcDb2dVertex
 10
5.348699864880473
 20
4.873291666666672
 30
0.0
  0
VERTEX
  5
2B4
330
2B2
100
AcDbEntity
  8
Layer 1
 62
     7
420
 16777215
370
     9
100
AcDbVertex
100
AcDb2dVertex
 10
5.350179031509772
 20
4.733859602634866
 30
0.0
  0
SEQEND
  5
2B5
330
2B2
100
AcDbEntity
  8
Layer 1
 62
     7
420
 16777215
370
     9
  0
SPLINE
  5
2B6
330
1F
100
AcDbEntity
  8
Layer 1
 62
     7
420
 16777215
370
     9
100
AcDbSpline
210
0.0
220
0.0
230
1.0
 70
     8
 71
     3
 72
    11
 73
     7
 74
     0
 42
0.0000000001
 43
0.0000000001
 12
1.0
 22
0.0
 32
0.0
 13
1.0
 23
0.0
 33
0.0
 40
0.0
 40
0.0
 40
0.0
 40
0.0
 40
1.0
 40
1.0
 40
1.0
 40
2.0
 40
2.0
 40
2.0
 40
2.0
 10
5.041937372629945
 20
4.705973492228218
 30
0.0
 10
5.0529512612406
 20
4.706705436654172
 30
0.0
 10
5.074231816258563
 20
4.702297103432202
 30
0.0
 10
5.081569444444439
 20
4.700099881265487
 30
0.0
 10
5.088920704776379
 20
4.697902777777775
 30
0.0
 10
5.106526259887182
 20
4.692030437024894
 30
0.0
 10
5.111666666666679
 20
4.692030437024894
 30
0.0
  0
SPLINE
  5
2B7
330
1F
100
AcDbEntity
  8
Layer 1
 62
     7
420
 16777215
370
     9
100
AcDbSpline
210
0.0
220
0.0
230
1.0
 70
     8
 71
     3
 72
    14
 73
    10
 74
     0
 42
0.0000000001
 43
0.0000000001
 12
1.0
 22
0.0
 32
0.0
 13
1.0
 23
0.0
 33
0.0
 40
0.0
 40
0.0
 40
0.0
 40
0.0
 40
1.0
 40
1.0
 40
1.0
 40
2.0
 40
2.0
 40
2.0
 40
3.0
 40
3.0
 40
3.0
 40
3.0
 10
5.041205428203991
 20
4.739000000000007
 30
0.0
 10
5.055894316721807
 20
4.740465158023552
 30
0.0
 10
5.080837371647249
 20
4.735324880375629
 30
0.0
 10
5.092583333333323
 20
4.731662380468151
 30
0.0
 10
5.104315148831928
 20
4.727986111111123
 30
0.0
 10
5.137355425775038
 20
4.716986111111106
 30
0.0
 10
5.147623481071201
 20
4.714788769783303
 30
0.0
 10
5.157904036367047
 20
4.712579047616903
 30
0.0
 10
5.176974869218611
 20
4.703776270061502
 30
0.0
 10
5.184326257921788
 20
4.704494325598918
 30
0.0
  0
SPLINE
  5
2B8
330
1F
100
AcDbEntity
  8
Layer 1
 62
     7
420
 16777215
370
     9
100
AcDbSpline
210
0.0
220
0.0
230
1.0
 70
     8
 71
     3
 72
    20
 73
    16
 74
     0
 42
0.0000000001
 43
0.0000000001
 12
1.0
 22
0.0
 32
0.0
 13
1.0
 23
0.0
 33
0.0
 40
0.0
 40
0.0
 40
0.0
 40
0.0
 40
1.0
 40
1.0
 40
1.0
 40
2.0
 40
2.0
 40
2.0
 40
3.0
 40
3.0
 40
3.0
 40
4.0
 40
4.0
 40
4.0
 40
5.0
 40
5.0
 40
5.0
 40
5.0
 10
5.319349865621916
 20
4.700833333333321
 30
0.0
 10
5.324490143269839
 20
4.710381825450187
 30
0.0
 10
5.326687365436555
 20
4.725042936190928
 30
0.0
 10
5.330349865344033
 20
4.737534602542028
 30
0.0
 10
5.334024865251195
 20
4.75
 30
0.0
 10
5.342095698380641
 20
4.778617934837509
 30
0.0
 10
5.348699864880473
 20
4.780829045892763
 30
0.0
 10
5.35530555555556
 20
4.777885990411556
 30
0.0
 10
5.361910975657843
 20
4.77128043502287
 30
0.0
 10
5.373656808694451
 20
4.76908333333333
 30
0.0
 10
5.385388888888883
 20
4.766885990689439
 30
0.0
 10
5.396402777777767
 20
4.763942935208231
 30
0.0
 10
5.40595125232307
 20
4.761013888888884
 30
0.0
 10
5.415486111111123
 20
4.758070713134353
 30
0.0
 10
5.428697085081795
 20
4.752197102171622
 30
0.0
 10
5.434570696044526
 20
4.748534602264145
 30
0.0
  0
SPLINE
  5
2B9
330
1F
100
AcDbEntity
  8
Layer 1
 62
     7
420
 16777215
370
     9
100
AcDbSpline
210
0.0
220
0.0
230
1.0
 70
     8
 71
     3
 72
    11
 73
     7
 74
     0
 42
0.0000000001
 43
0.0000000001
 12
1.0
 22
0.0
 32
0.0
 13
1.0
 23
0.0
 33
0.0
 40
0.0
 40
0.0
 40
0.0
 40
0.0
 40
1.0
 40
1.0
 40
1.0
 40
2.0
 40
2.0
 40
2.0
 40
2.0
 10
5.373656808694451
 20
4.738254046968298
 30
0.0
 10
5.364841531139366
 20
4.740465158023552
 30
0.0
 10
5.352376253676488
 20
4.74192904687546
 30
0.0
 10
5.34943319819528
 20
4.744126269042176
 30
0.0
 10
5.345770698287803
 20
4.74192904687546
 30
0.0
 10
5.340630420639879
 20
4.733859602634866
 30
0.0
 10
5.341362365065834
 20
4.726522102820227
 30
0.0
  0
POLYLINE
  5
2BA
330
1F
100
AcDbEntity
  8
Layer 1
 62
     7
420
 16777215
370
     9
100
AcDb2dPolyline
 66
     1
 10
0.0
 20
0.0
 30
0.0
  0
VERTEX
  5
2BB
330
2BA
100
AcDbEntity
  8
Layer 1
 62
     7
420
 16777215
370
     9
100
AcDbVertex
100
AcDb2dVertex
 10
3.763120784869506
 20
5.483985697881305
 30
0.0
  0
VERTEX
  5
2BC
330
2BA
100
AcDbEntity
  8
Layer 1
 62
     7
420
 16777215
370
     9
100
AcDbVertex
100
AcDb2dVertex
 10
5.042683205944437
 20
4.821194444444447
 30
0.0
  0
VERTEX
  5
2BD
330
2BA
100
AcDbEntity
  8
Layer 1
 62
     7
420
 16777215
370
     9
100
AcDbVertex
100
AcDb2dVertex
 10
5.041205428203991
 20
4.678819444444444
 30
0.0
  0
SEQEND
  5
2BE
330
2BA
100
AcDbEntity
  8
Layer 1
 62
     7
420
 16777215
370
     9
  0
POLYLINE
  5
2BF
330
1F
100
AcDbEntity
  8
Layer 1
 62
     7
420
 16777215
370
     9
100
AcDb2dPolyline
 66
     1
 10
0.0
 20
0.0
 30
0.0
  0
VERTEX
  5
2C0
330
2BF
100
AcDbEntity
  8
Layer 1
 62
     7
420
 16777215
370
     9
100
AcDbVertex
100
AcDb2dVertex
 10
5.335504031880494
 20
5.072902777777775
 30
0.0
  0
VERTEX
  5
2C1
330
2BF
100
AcDbEntity
  8
Layer 1
 62
     7
420
 16777215
370
     9
100
AcDbVertex
100
AcDb2dVertex
 10
5.216606812661868
 20
5.054551261200181
 30
0.0
  0
VERTEX
  5
2C2
330
2BF
100
AcDbEntity
  8
Layer 1
 62
     7
420
 16777215
370
     9
100
AcDbVertex
100
AcDb2dVertex
 10
5.184326257921788
 20
5.026665150793532
 30
0.0
  0
VERTEX
  5
2C3
330
2BF
100
AcDbEntity
  8
Layer 1
 62
     7
420
 16777215
370
     9
100
AcDbVertex
100
AcDb2dVertex
 10
5.123412370571714
 20
5.06043876105145
 30
0.0
  0
VERTEX
  5
2C4
330
2BF
100
AcDbEntity
  8
Layer 1
 62
     7
420
 16777215
370
     9
100
AcDbVertex
100
AcDb2dVertex
 10
5.080837371647249
 20
5.033284595070755
 30
0.0
  0
VERTEX
  5
2C5
330
2BF
100
AcDbEntity
  8
Layer 1
 62
     7
420
 16777215
370
     9
100
AcDbVertex
100
AcDb2dVertex
 10
4.952922097100882
 20
5.014323484438642
 30
0.0
  0
VERTEX
  5
2C6
330
2BF
100
AcDbEntity
  8
Layer 1
 62
     7
420
 16777215
370
     9
100
AcDbVertex
100
AcDb2dVertex
 10
4.952148486009315
 20
4.868313765904936
 30
0.0
  0
VERTEX
  5
2C7
330
2BF
100
AcDbEntity
  8
Layer 1
 62
     7
420
 16777215
370
     9
100
AcDbVertex
100
AcDb2dVertex
 10
5.082316538276548
 20
4.89090959866745
 30
0.0
  0
VERTEX
  5
2C8
330
2BF
100
AcDbEntity
  8
Layer 1
 62
     7
420
 16777215
370
     9
100
AcDbVertex
100
AcDb2dVertex
 10
5.119737370664552
 20
4.923923486722338
 30
0.0
  0
VERTEX
  5
2C9
330
2BF
100
AcDbEntity
  8
Layer 1
 62
     7
420
 16777215
370
     9
100
AcDbVertex
100
AcDb2dVertex
 10
5.185791666666672
 20
4.89090959866745
 30
0.0
  0
VERTEX
  5
2CA
330
2BF
100
AcDbEntity
  8
Layer 1
 62
     7
420
 16777215
370
     9
100
AcDbVertex
100
AcDb2dVertex
 10
5.217338757087822
 20
4.916584598018845
 30
0.0
  0
VERTEX
  5
2CB
330
2BF
100
AcDbEntity
  8
Layer 1
 62
     7
420
 16777215
370
     9
100
AcDbVertex
100
AcDb2dVertex
 10
5.336954031843864
 20
4.936415153073439
 30
0.0
  0
SEQEND
  5
2CC
330
2BF
100
AcDbEntity
  8
Layer 1
 62
     7
420
 16777215
370
     9
  0
SPLINE
  5
2CD
330
1F
100
AcDbEntity
  8
Layer 1
 62
     7
420
 16777215
370
     9
100
AcDbSpline
210
0.0
220
0.0
230
1.0
 70
     8
 71
     3
 72
    47
 73
    43
 74
     0
 42
0.0000000001
 43
0.0000000001
 12
1.0
 22
0.0
 32
0.0
 13
1.0
 23
0.0
 33
0.0
 40
0.0
 40
0.0
 40
0.0
 40
0.0
 40
1.0
 40
1.0
 40
1.0
 40
2.0
 40
2.0
 40
2.0
 40
3.0
 40
3.0
 40
3.0
 40
4.0
 40
4.0
 40
4.0
 40
5.0
 40
5.0
 40
5.0
 40
6.0
 40
6.0
 40
6.0
 40
7.0
 40
7.0
 40
7.0
 40
8.0
 40
8.0
 40
8.0
 40
9.0
 40
9.0
 40
9.0
 40
10.0
 40
10.0
 40
10.0
 40
11.0
 40
11.0
 40
11.0
 40
12.0
 40
12.0
 40
12.0
 40
13.0
 40
13.0
 40
13.0
 40
14.0
 40
14.0
 40
14.0
 40
14.0
 10
5.436034584896434
 20
4.791097222222232
 30
0.0
 10
5.422824863007918
 20
4.791097222222232
 30
0.0
 10
5.408881807804593
 20
4.794026267781596
 30
0.0
 10
5.400065141360654
 20
4.801377656484773
 30
0.0
 10
5.391276252693792
 20
4.808715156299412
 30
0.0
 10
5.358248475750366
 20
4.821926267076782
 30
0.0
 10
5.350179031509772
 20
4.828531822465467
 30
0.0
 10
5.345770698287803
 20
4.822658211502736
 30
0.0
 10
5.343559587232549
 20
4.823391544817544
 30
0.0
 10
5.340630420639879
 20
4.80944848961422
 30
0.0
 10
5.33770125404721
 20
4.795505434410895
 30
0.0
 10
5.329616532029225
 20
4.774956823818886
 30
0.0
 10
5.32888458760327
 20
4.768351268430201
 30
0.0
 10
5.328152777777783
 20
4.761745713041515
 30
0.0
 10
5.324490143269839
 20
4.740465158023552
 30
0.0
 10
5.317884587881154
 20
4.739731824708744
 30
0.0
 10
5.314208333333327
 20
4.742676269078806
 30
0.0
 10
5.309813754751707
 20
4.744126269042176
 30
0.0
 10
5.304673477103784
 20
4.752942935486114
 30
0.0
 10
5.29953319945586
 20
4.761745713041515
 30
0.0
 10
5.289998477474506
 20
4.780097222222214
 30
0.0
 10
5.285590144252536
 20
4.785969323540686
 30
0.0
 10
5.281195699919104
 20
4.79182904561488
 30
0.0
 10
5.266520700289826
 20
4.817517933854813
 30
0.0
 10
5.260633200438557
 20
4.823391544817544
 30
0.0
 10
5.255506811679171
 20
4.817517933854813
 30
0.0
 10
5.25402777777779
 20
4.811659600669473
 30
0.0
 10
5.251098478457203
 20
4.803574878651489
 30
0.0
 10
5.248155422975994
 20
4.795505434410895
 30
0.0
 10
5.238620700994639
 20
4.779365157040855
 30
0.0
 10
5.237155423253878
 20
4.77568876824484
 30
0.0
 10
5.235677645513432
 20
4.772013888888877
 30
0.0
 10
5.226141534643223
 20
4.745605435671475
 30
0.0
 10
5.220283201457883
 20
4.733127658208913
 30
0.0
 10
5.208535979532422
 20
4.734591547060821
 30
0.0
 10
5.203395701884498
 20
4.733859602634866
 30
0.0
 10
5.196058202069858
 20
4.736788769227537
 30
0.0
 10
5.188720702255219
 20
4.739731824708744
 30
0.0
 10
5.112385981961375
 20
4.754408213226876
 30
0.0
 10
5.102865148868558
 20
4.758816546448846
 30
0.0
 10
5.093316537998665
 20
4.763210990782277
 30
0.0
 10
5.055894316721807
 20
4.774956823818886
 30
0.0
 10
5.044148483685199
 20
4.774223490504078
 30
0.0
  0
POLYLINE
  5
2CE
330
1F
100
AcDbEntity
  8
Layer 1
 62
     7
420
 16777215
370
     9
100
AcDb2dPolyline
 66
     1
 10
0.0
 20
0.0
 30
0.0
  0
VERTEX
  5
2CF
330
2CE
100
AcDbEntity
  8
Layer 1
 62
     7
420
 16777215
370
     9
100
AcDbVertex
100
AcDb2dVertex
 10
5.218804034828584
 20
4.849812377483431
 30
0.0
  0
VERTEX
  5
2D0
330
2CE
100
AcDbEntity
  8
Layer 1
 62
     7
420
 16777215
370
     9
100
AcDbVertex
100
AcDb2dVertex
 10
5.219535979254538
 20
4.711099880987604
 30
0.0
  0
SEQEND
  5
2D1
330
2CE
100
AcDbEntity
  8
Layer 1
 62
     7
420
 16777215
370
     9
  0
POLYLINE
  5
2D2
330
1F
100
AcDbEntity
  8
Layer 1
 62
     7
420
 16777215
370
     9
100
AcDb2dPolyline
 66
     1
 10
0.0
 20
0.0
 30
0.0
  0
VERTEX
  5
2D3
330
2D2
100
AcDbEntity
  8
Layer 1
 62
     7
420
 16777215
370
     9
100
AcDbVertex
100
AcDb2dVertex
 10
5.260633200438557
 20
4.872558210242156
 30
0.0
  0
VERTEX
  5
2D4
330
2D2
100
AcDbEntity
  8
Layer 1
 62
     7
420
 16777215
370
     9
100
AcDbVertex
100
AcDb2dVertex
 10
5.259901256012603
 20
4.738254046968298
 30
0.0
  0
SEQEND
  5
2D5
330
2D2
100
AcDbEntity
  8
Layer 1
 62
     7
420
 16777215
370
     9
  0
POLYLINE
  5
2D6
330
1F
100
AcDbEntity
  8
Layer 1
 62
     7
420
 16777215
370
     9
100
AcDb2dPolyline
 66
     1
 10
0.0
 20
0.0
 30
0.0
  0
VERTEX
  5
2D7
330
2D6
100
AcDbEntity
  8
Layer 1
 62
     7
420
 16777215
370
     9
100
AcDbVertex
100
AcDb2dVertex
 10
5.314955421288484
 20
4.843206822094746
 30
0.0
  0
VERTEX
  5
2D8
330
2D6
100
AcDbEntity
  8
Layer 1
 62
     7
420
 16777215
370
     9
100
AcDbVertex
100
AcDb2dVertex
 10
5.314955421288484
 20
4.697156825784279
 30
0.0
  0
SEQEND
  5
2D9
330
2D6
100
AcDbEntity
  8
Layer 1
 62
     7
420
 16777215
370
     9
  0
SPLINE
  5
2DA
330
1F
100
AcDbEntity
  8
Layer 1
 62
     7
420
 16777215
370
     9
100
AcDbSpline
210
0.0
220
0.0
230
1.0
 70
     8
 71
     3
 72
    20
 73
    16
 74
     0
 42
0.0000000001
 43
0.0000000001
 12
1.0
 22
0.0
 32
0.0
 13
1.0
 23
0.0
 33
0.0
 40
0.0
 40
0.0
 40
0.0
 40
0.0
 40
1.0
 40
1.0
 40
1.0
 40
2.0
 40
2.0
 40
2.0
 40
3.0
 40
3.0
 40
3.0
 40
4.0
 40
4.0
 40
4.0
 40
5.0
 40
5.0
 40
5.0
 40
5.0
 10
5.221245701433569
 20
4.720770714076631
 30
0.0
 10
5.224297090245373
 20
4.72995265828912
 30
0.0
 10
5.240342923173355
 20
4.75745960203868
 30
0.0
 10
5.247233200777069
 20
4.7674012684542
 30
0.0
 10
5.254109589492246
 20
4.777344323758572
 30
0.0
 10
5.259466533801363
 20
4.791111111111099
 30
0.0
 10
5.259466533801363
 20
4.791111111111099
 30
0.0
 10
5.259466533801363
 20
4.791111111111099
 30
0.0
 10
5.26710264471957
 20
4.79262904559467
 30
0.0
 10
5.27322070012057
 20
4.781167934773091
 30
0.0
 10
5.279337366632717
 20
4.769706823951512
 30
0.0
 10
5.294623477357669
 20
4.748291666666672
 30
0.0
 10
5.298448477261041
 20
4.739122102501924
 30
0.0
 10
5.302273477164413
 20
4.72995265828912
 30
0.0
 10
5.313734587985992
 20
4.713120714269886
 30
0.0
 10
5.313734587985992
 20
4.713120714269886
 30
0.0
  0
SPLINE
  5
2DB
330
1F
100
AcDbEntity
  8
Layer 1
 62
     7
420
 16777215
370
     9
100
AcDbSpline
210
0.0
220
0.0
230
1.0
 70
     8
 71
     3
 72
    14
 73
    10
 74
     0
 42
0.0000000001
 43
0.0000000001
 12
1.0
 22
0.0
 32
0.0
 13
1.0
 23
0.0
 33
0.0
 40
0.0
 40
0.0
 40
0.0
 40
0.0
 40
1.0
 40
1.0
 40
1.0
 40
2.0
 40
2.0
 40
2.0
 40
3.0
 40
3.0
 40
3.0
 40
3.0
 10
4.956813763669238
 20
4.958427652517356
 30
0.0
 10
4.966348485650593
 20
4.960625000000012
 30
0.0
 10
4.986165151816648
 20
4.97237070772068
 30
0.0
 10
4.990573485038618
 20
4.976765152054112
 30
0.0
 10
4.994981818260587
 20
4.981173485276082
 30
0.0
 10
5.020670706500519
 20
5.000258207016183
 30
0.0
 10
5.026530428574713
 20
5.003919318034806
 30
0.0
 10
5.032402777777785
 20
5.007595706830822
 30
0.0
 10
5.063231816536446
 20
5.027410984108024
 30
0.0
 10
5.066894316443924
 20
5.029608206274739
 30
0.0
  0
SPLINE
  5
2DC
330
1F
100
AcDbEntity
  8
Layer 1
 62
     7
420
 16777215
370
     9
100
AcDbSpline
210
0.0
220
0.0
230
1.0
 70
     8
 71
     3
 72
    11
 73
     7
 74
     0
 42
0.0000000001
 43
0.0000000001
 12
1.0
 22
0.0
 32
0.0
 13
1.0
 23
0.0
 33
0.0
 40
0.0
 40
0.0
 40
0.0
 40
0.0
 40
1.0
 40
1.0
 40
1.0
 40
2.0
 40
2.0
 40
2.0
 40
2.0
 10
4.95534987481733
 20
4.988512373979574
 30
0.0
 10
4.964898485687223
 20
4.992187373886736
 30
0.0
 10
4.970756818872561
 20
4.998060984849467
 30
0.0
 10
4.978095707576054
 20
5.003201262497391
 30
0.0
 10
4.985445707390378
 20
5.008327651256776
 30
0.0
 10
4.995713762686541
 20
5.016398484386223
 30
0.0
 10
5.000108207019972
 20
5.018608206552623
 30
0.0
  0
SPLINE
  5
2DD
330
1F
100
AcDbEntity
  8
Layer 1
 62
     7
420
 16777215
370
     9
100
AcDbSpline
210
0.0
220
0.0
230
1.0
 70
     8
 71
     3
 72
    11
 73
     7
 74
     0
 42
0.0000000001
 43
0.0000000001
 12
1.0
 22
0.0
 32
0.0
 13
1.0
 23
0.0
 33
0.0
 40
0.0
 40
0.0
 40
0.0
 40
0.0
 40
1.0
 40
1.0
 40
1.0
 40
2.0
 40
2.0
 40
2.0
 40
2.0
 10
5.383938752879152
 20
4.879909598945333
 30
0.0
 10
5.391276252693792
 20
4.872558210242156
 30
0.0
 10
5.4015429191011
 20
4.868895710334678
 30
0.0
 10
5.411079029971309
 20
4.865952654853471
 30
0.0
 10
5.420627640841202
 20
4.863009599372263
 30
0.0
 10
5.432373473877811
 20
4.859347222222216
 30
0.0
 10
5.435288751581942
 20
4.858615155038832
 30
0.0
  0
SPLINE
  5
2DE
330
1F
100
AcDbEntity
  8
Layer 1
 62
     7
420
 16777215
370
     9
100
AcDbSpline
210
0.0
220
0.0
230
1.0
 70
     8
 71
     3
 72
    14
 73
    10
 74
     0
 42
0.0000000001
 43
0.0000000001
 12
1.0
 22
0.0
 32
0.0
 13
1.0
 23
0.0
 33
0.0
 40
0.0
 40
0.0
 40
0.0
 40
0.0
 40
1.0
 40
1.0
 40
1.0
 40
2.0
 40
2.0
 40
2.0
 40
3.0
 40
3.0
 40
3.0
 40
3.0
 10
5.435288751581942
 20
4.829263888888893
 30
0.0
 10
5.427965140655841
 20
4.830729044632183
 30
0.0
 10
5.422824863007918
 20
4.832206822372629
 30
0.0
 10
5.409613752230547
 20
4.837334600020868
 30
0.0
 10
5.396402777777767
 20
4.842474877668792
 30
0.0
 10
5.389797086064491
 20
4.845404044261461
 30
0.0
 10
5.375854030861167
 20
4.85127777777777
 30
0.0
 10
5.361910975657843
 20
4.85714987729807
 30
0.0
 10
5.35384153141725
 20
4.856417932872116
 30
0.0
 10
5.350179031509772
 20
4.861545710520355
 30
0.0
  0
SPLINE
  5
2DF
330
1F
100
AcDbEntity
  8
Layer 1
370
     0
100
AcDbSpline
210
0.0
220
0.0
230
1.0
 70
    11
 71
     3
 72
    92
 73
    88
 74
     0
 42
0.0000000001
 43
0.0000000001
 12
1.0
 22
0.0
 32
0.0
 13
1.0
 23
0.0
 33
0.0
 40
0.0
 40
0.0
 40
0.0
 40
0.0
 40
1.0
 40
1.0
 40
1.0
 40
2.0
 40
2.0
 40
2.0
 40
3.0
 40
3.0
 40
3.0
 40
4.0
 40
4.0
 40
4.0
 40
5.0
 40
5.0
 40
5.0
 40
6.0
 40
6.0
 40
6.0
 40
7.0
 40
7.0
 40
7.0
 40
8.0
 40
8.0
 40
8.0
 40
9.0
 40
9.0
 40
9.0
 40
10.0
 40
10.0
 40
10.0
 40
11.0
 40
11.0
 40
11.0
 40
12.0
 40
12.0
 40
12.0
 40
13.0
 40
13.0
 40
13.0
 40
14.0
 40
14.0
 40
14.0
 40
15.0
 40
15.0
 40
15.0
 40
16.0
 40
16.0
 40
16.0
 40
17.0
 40
17.0
 40
17.0
 40
18.0
 40
18.0
 40
18.0
 40
19.0
 40
19.0
 40
19.0
 40
20.0
 40
20.0
 40
20.0
 40
21.0
 40
21.0
 40
21.0
 40
22.0
 40
22.0
 40
22.0
 40
23.0
 40
23.0
 40
23.0
 40
24.0
 40
24.0
 40
24.0
 40
25.0
 40
25.0
 40
25.0
 40
26.0
 40
26.0
 40
26.0
 40
27.0
 40
27.0
 40
27.0
 40
28.0
 40
28.0
 40
28.0
 40
29.0
 40
29.0
 40
29.0
 40
29.0
 10
3.95654990004914
 20
5.497090138909597
 30
0.0
 10
3.95654990004914
 20
5.494154027872658
 30
0.0
 10
3.95654990004914
 20
5.385538752838733
 30
0.0
 10
3.95654990004914
 20
5.385538752838733
 30
0.0
 10
3.95654990004914
 20
5.385538752838733
 30
0.0
 10
4.087917952286059
 20
5.318020698988827
 30
0.0
 10
4.087917952286059
 20
5.318020698988827
 30
0.0
 10
4.087917952286059
 20
5.318020698988827
 30
0.0
 10
4.101861111111108
 20
5.32168181000745
 30
0.0
 10
4.101861111111108
 20
5.32168181000745
 30
0.0
 10
4.101861111111108
 20
5.32168181000745
 30
0.0
 10
4.102592951915337
 20
5.471394306225394
 30
0.0
 10
4.102592951915337
 20
5.471394306225394
 30
0.0
 10
4.102592951915337
 20
5.471394306225394
 30
0.0
 10
4.087179063415836
 20
5.511766527427741
 30
0.0
 10
4.087179063415836
 20
5.511766527427741
 30
0.0
 10
4.087179063415836
 20
5.511766527427741
 30
0.0
 10
4.330823501705305
 20
5.539652777777771
 30
0.0
 10
4.330823501705305
 20
5.539652777777771
 30
0.0
 10
4.330823501705305
 20
5.539652777777771
 30
0.0
 10
4.331556835020112
 20
5.549926248685956
 30
0.0
 10
4.344034612482675
 20
5.550659582000763
 30
0.0
 10
4.356512389945237
 20
5.551391526426717
 30
0.0
 10
4.360908223167522
 20
5.543320693297283
 30
0.0
 10
4.361654056482014
 20
5.537448471223393
 30
0.0
 10
4.370456834037415
 20
5.533779026871646
 30
0.0
 10
4.461452665072001
 20
5.489013888888899
 30
0.0
 10
4.461452665072001
 20
5.489013888888899
 30
0.0
 10
4.461452665072001
 20
5.489013888888899
 30
0.0
 10
4.459241554016747
 20
5.503688749854013
 30
0.0
 10
4.460720720646046
 20
5.511026249668652
 30
0.0
 10
4.462184609497954
 20
5.518372082816414
 30
0.0
 10
4.507690163903943
 20
5.759812354494898
 30
0.0
 10
4.509155441644705
 20
5.764213743272598
 30
0.0
 10
4.510619330496612
 20
5.768615132050311
 30
0.0
 10
4.521633219107267
 20
5.773755409698222
 30
0.0
 10
4.510619330496612
 20
5.794304020290231
 30
0.0
 10
4.510619330496612
 20
5.795037353605039
 30
0.0
 10
4.511366552699958
 20
5.81045124210454
 30
0.0
 10
4.511366552699958
 20
5.81045124210454
 30
0.0
 10
4.511366552699958
 20
5.81045124210454
 30
0.0
 10
4.50254988625602
 20
5.817056797493225
 30
0.0
 10
4.50254988625602
 20
5.817056797493225
 30
0.0
 10
4.50254988625602
 20
5.817056797493225
 30
0.0
 10
4.283122114021454
 20
5.796508186901216
 30
0.0
 10
4.272108225410799
 20
5.795776242475262
 30
0.0
 10
4.261108225688682
 20
5.795037353605039
 30
0.0
 10
4.265516558910652
 20
5.782565131697892
 30
0.0
 10
4.250834614837105
 20
5.781833333333338
 30
0.0
 10
4.242716559486628
 20
5.781412353949236
 30
0.0
 10
4.245699892744597
 20
5.792840131438323
 30
0.0
 10
4.230286004245095
 20
5.791367909253292
 30
0.0
 10
4.21487072685674
 20
5.789902777777772
 30
0.0
 10
4.019666666666668
 20
5.773755409698222
 30
0.0
 10
4.019666666666668
 20
5.773755409698222
 30
0.0
 10
4.019666666666668
 20
5.773755409698222
 30
0.0
 10
3.991048510288755
 20
5.744405410439665
 30
0.0
 10
3.991048510288755
 20
5.744405410439665
 30
0.0
 10
3.991048510288755
 20
5.744405410439665
 30
0.0
 10
3.988844343677758
 20
5.689358189608052
 30
0.0
 10
3.988844343677758
 20
5.689358189608052
 30
0.0
 10
3.988844343677758
 20
5.689358189608052
 30
0.0
 10
3.993977676881412
 20
5.681287356478606
 30
0.0
 10
3.993245732455458
 20
5.676154023274964
 30
0.0
 10
3.992512399140651
 20
5.67101388888889
 30
0.0
 10
3.987372121492727
 20
5.662942912497581
 30
0.0
 10
3.987372121492727
 20
5.662942912497581
 30
0.0
 10
3.987372121492727
 20
5.662942912497581
 30
0.0
 10
3.988844343677758
 20
5.614508191498922
 30
0.0
 10
3.988844343677758
 20
5.614508191498922
 30
0.0
 10
3.988844343677758
 20
5.614508191498922
 30
0.0
 10
3.994709621307366
 20
5.608635969425046
 30
0.0
 10
3.994709621307366
 20
5.60203041403636
 30
0.0
 10
3.994709621307366
 20
5.595424858647675
 30
0.0
 10
3.988844343677758
 20
5.58881944444445
 30
0.0
 10
3.988844343677758
 20
5.58881944444445
 30
0.0
 10
3.988844343677758
 20
5.58881944444445
 30
0.0
 10
3.988105454807535
 20
5.508829027501936
 30
0.0
 10
3.988105454807535
 20
5.503688749854013
 30
0.0
 10
3.988105454807535
 20
5.498555555555551
 30
0.0
 10
3.986640177066773
 20
5.491942916817404
 30
0.0
 10
3.980034621678088
 20
5.495619305613419
 30
0.0
 10
3.973429066289403
 20
5.499287361076325
 30
0.0
 10
3.969027777777784
 20
5.500752638817074
 30
0.0
 10
3.96535962204881
 20
5.502224861002105
 30
0.0
 10
3.961690177697063
 20
5.503688749854013
 30
0.0
 10
3.95654990004914
 20
5.50002069439112
 30
0.0
 10
3.95654990004914
 20
5.497090138909597
 30
0.0
  0
HATCH
  5
2E0
330
1F
100
AcDbEntity
  8
Layer 1
 62
   254
420
 13358815
100
AcDbHatch
 10
0.0
 20
0.0
 30
0.0
210
0.0
220
0.0
230
1.0
  2
SOLID
 70
     1
 71
     0
 91
        1
 92
        1
 93
        1
 72
     4
 94
        3
 73
     0
 74
     1
 95
       92
 96
       88
 40
0.0
 40
0.0
 40
0.0
 40
0.0
 40
1.0
 40
1.0
 40
1.0
 40
2.0
 40
2.0
 40
2.0
 40
3.0
 40
3.0
 40
3.0
 40
4.0
 40
4.0
 40
4.0
 40
5.0
 40
5.0
 40
5.0
 40
6.0
 40
6.0
 40
6.0
 40
7.0
 40
7.0
 40
7.0
 40
8.0
 40
8.0
 40
8.0
 40
9.0
 40
9.0
 40
9.0
 40
10.0
 40
10.0
 40
10.0
 40
11.0
 40
11.0
 40
11.0
 40
12.0
 40
12.0
 40
12.0
 40
13.0
 40
13.0
 40
13.0
 40
14.0
 40
14.0
 40
14.0
 40
15.0
 40
15.0
 40
15.0
 40
16.0
 40
16.0
 40
16.0
 40
17.0
 40
17.0
 40
17.0
 40
18.0
 40
18.0
 40
18.0
 40
19.0
 40
19.0
 40
19.0
 40
20.0
 40
20.0
 40
20.0
 40
21.0
 40
21.0
 40
21.0
 40
22.0
 40
22.0
 40
22.0
 40
23.0
 40
23.0
 40
23.0
 40
24.0
 40
24.0
 40
24.0
 40
25.0
 40
25.0
 40
25.0
 40
26.0
 40
26.0
 40
26.0
 40
27.0
 40
27.0
 40
27.0
 40
28.0
 40
28.0
 40
28.0
 40
29.0
 40
29.0
 40
29.0
 40
29.0
 10
3.95654990004914
 20
5.497090138909597
 10
3.95654990004914
 20
5.494154027872658
 10
3.95654990004914
 20
5.385538752838733
 10
3.95654990004914
 20
5.385538752838733
 10
3.95654990004914
 20
5.385538752838733
 10
4.087917952286059
 20
5.318020698988827
 10
4.087917952286059
 20
5.318020698988827
 10
4.087917952286059
 20
5.318020698988827
 10
4.101861111111108
 20
5.32168181000745
 10
4.101861111111108
 20
5.32168181000745
 10
4.101861111111108
 20
5.32168181000745
 10
4.102592951915337
 20
5.471394306225394
 10
4.102592951915337
 20
5.471394306225394
 10
4.102592951915337
 20
5.471394306225394
 10
4.087179063415836
 20
5.511766527427741
 10
4.087179063415836
 20
5.511766527427741
 10
4.087179063415836
 20
5.511766527427741
 10
4.330823501705305
 20
5.539652777777771
 10
4.330823501705305
 20
5.539652777777771
 10
4.330823501705305
 20
5.539652777777771
 10
4.331556835020112
 20
5.549926248685956
 10
4.344034612482675
 20
5.550659582000763
 10
4.356512389945237
 20
5.551391526426717
 10
4.360908223167522
 20
5.543320693297283
 10
4.361654056482014
 20
5.537448471223393
 10
4.370456834037415
 20
5.533779026871646
 10
4.461452665072001
 20
5.489013888888899
 10
4.461452665072001
 20
5.489013888888899
 10
4.461452665072001
 20
5.489013888888899
 10
4.459241554016747
 20
5.503688749854013
 10
4.460720720646046
 20
5.511026249668652
 10
4.462184609497954
 20
5.518372082816414
 10
4.507690163903943
 20
5.759812354494898
 10
4.509155441644705
 20
5.764213743272598
 10
4.510619330496612
 20
5.768615132050311
 10
4.521633219107267
 20
5.773755409698222
 10
4.510619330496612
 20
5.794304020290231
 10
4.510619330496612
 20
5.795037353605039
 10
4.511366552699958
 20
5.81045124210454
 10
4.511366552699958
 20
5.81045124210454
 10
4.511366552699958
 20
5.81045124210454
 10
4.50254988625602
 20
5.817056797493225
 10
4.50254988625602
 20
5.817056797493225
 10
4.50254988625602
 20
5.817056797493225
 10
4.283122114021454
 20
5.796508186901216
 10
4.272108225410799
 20
5.795776242475262
 10
4.261108225688682
 20
5.795037353605039
 10
4.265516558910652
 20
5.782565131697892
 10
4.250834614837105
 20
5.781833333333338
 10
4.242716559486628
 20
5.781412353949236
 10
4.245699892744597
 20
5.792840131438323
 10
4.230286004245095
 20
5.791367909253292
 10
4.21487072685674
 20
5.789902777777772
 10
4.019666666666668
 20
5.773755409698222
 10
4.019666666666668
 20
5.773755409698222
 10
4.019666666666668
 20
5.773755409698222
 10
3.991048510288755
 20
5.744405410439665
 10
3.991048510288755
 20
5.744405410439665
 10
3.991048510288755
 20
5.744405410439665
 10
3.988844343677758
 20
5.689358189608052
 10
3.988844343677758
 20
5.689358189608052
 10
3.988844343677758
 20
5.689358189608052
 10
3.993977676881412
 20
5.681287356478606
 10
3.993245732455458
 20
5.676154023274964
 10
3.992512399140651
 20
5.67101388888889
 10
3.987372121492727
 20
5.662942912497581
 10
3.987372121492727
 20
5.662942912497581
 10
3.987372121492727
 20
5.662942912497581
 10
3.988844343677758
 20
5.614508191498922
 10
3.988844343677758
 20
5.614508191498922
 10
3.988844343677758
 20
5.614508191498922
 10
3.994709621307366
 20
5.608635969425046
 10
3.994709621307366
 20
5.60203041403636
 10
3.994709621307366
 20
5.595424858647675
 10
3.988844343677758
 20
5.58881944444445
 10
3.988844343677758
 20
5.58881944444445
 10
3.988844343677758
 20
5.58881944444445
 10
3.988105454807535
 20
5.508829027501936
 10
3.988105454807535
 20
5.503688749854013
 10
3.988105454807535
 20
5.498555555555551
 10
3.986640177066773
 20
5.491942916817404
 10
3.980034621678088
 20
5.495619305613419
 10
3.973429066289403
 20
5.499287361076325
 10
3.969027777777784
 20
5.500752638817074
 10
3.96535962204881
 20
5.502224861002105
 10
3.961690177697063
 20
5.503688749854013
 10
3.95654990004914
 20
5.50002069439112
 10
3.95654990004914
 20
5.497090138909597
 97
        0
 97
        0
 75
     2
 76
     1
 98
        0
  0
SPLINE
  5
2E1
330
1F
100
AcDbEntity
  8
Layer 1
 62
     7
420
 16777215
370
    18
100
AcDbSpline
210
0.0
220
0.0
230
1.0
 70
    11
 71
     3
 72
    92
 73
    88
 74
     0
 42
0.0000000001
 43
0.0000000001
 12
1.0
 22
0.0
 32
0.0
 13
1.0
 23
0.0
 33
0.0
 40
0.0
 40
0.0
 40
0.0
 40
0.0
 40
1.0
 40
1.0
 40
1.0
 40
2.0
 40
2.0
 40
2.0
 40
3.0
 40
3.0
 40
3.0
 40
4.0
 40
4.0
 40
4.0
 40
5.0
 40
5.0
 40
5.0
 40
6.0
 40
6.0
 40
6.0
 40
7.0
 40
7.0
 40
7.0
 40
8.0
 40
8.0
 40
8.0
 40
9.0
 40
9.0
 40
9.0
 40
10.0
 40
10.0
 40
10.0
 40
11.0
 40
11.0
 40
11.0
 40
12.0
 40
12.0
 40
12.0
 40
13.0
 40
13.0
 40
13.0
 40
14.0
 40
14.0
 40
14.0
 40
15.0
 40
15.0
 40
15.0
 40
16.0
 40
16.0
 40
16.0
 40
17.0
 40
17.0
 40
17.0
 40
18.0
 40
18.0
 40
18.0
 40
19.0
 40
19.0
 40
19.0
 40
20.0
 40
20.0
 40
20.0
 40
21.0
 40
21.0
 40
21.0
 40
22.0
 40
22.0
 40
22.0
 40
23.0
 40
23.0
 40
23.0
 40
24.0
 40
24.0
 40
24.0
 40
25.0
 40
25.0
 40
25.0
 40
26.0
 40
26.0
 40
26.0
 40
27.0
 40
27.0
 40
27.0
 40
28.0
 40
28.0
 40
28.0
 40
29.0
 40
29.0
 40
29.0
 40
29.0
 10
4.272108225410799
 20
5.795776242475262
 30
0.0
 10
4.261108225688682
 20
5.795037353605039
 30
0.0
 10
4.265516558910652
 20
5.782565131697892
 30
0.0
 10
4.250834614837105
 20
5.781833333333338
 30
0.0
 10
4.242716559486628
 20
5.781412353949236
 30
0.0
 10
4.245699892744597
 20
5.792840131438323
 30
0.0
 10
4.230286004245095
 20
5.791367909253292
 30
0.0
 10
4.21487072685674
 20
5.789902777777772
 30
0.0
 10
4.019666666666668
 20
5.773755409698222
 30
0.0
 10
4.019666666666668
 20
5.773755409698222
 30
0.0
 10
4.019666666666668
 20
5.773755409698222
 30
0.0
 10
3.991048510288755
 20
5.744405410439665
 30
0.0
 10
3.991048510288755
 20
5.744405410439665
 30
0.0
 10
3.991048510288755
 20
5.744405410439665
 30
0.0
 10
3.988844343677758
 20
5.689358189608052
 30
0.0
 10
3.988844343677758
 20
5.689358189608052
 30
0.0
 10
3.988844343677758
 20
5.689358189608052
 30
0.0
 10
3.993977676881412
 20
5.681287356478606
 30
0.0
 10
3.993245732455458
 20
5.676154023274964
 30
0.0
 10
3.992512399140651
 20
5.67101388888889
 30
0.0
 10
3.987372121492727
 20
5.662942912497581
 30
0.0
 10
3.987372121492727
 20
5.662942912497581
 30
0.0
 10
3.987372121492727
 20
5.662942912497581
 30
0.0
 10
3.988844343677758
 20
5.614508191498922
 30
0.0
 10
3.988844343677758
 20
5.614508191498922
 30
0.0
 10
3.988844343677758
 20
5.614508191498922
 30
0.0
 10
3.994709621307366
 20
5.608635969425046
 30
0.0
 10
3.994709621307366
 20
5.60203041403636
 30
0.0
 10
3.994709621307366
 20
5.595424858647675
 30
0.0
 10
3.988844343677758
 20
5.58881944444445
 30
0.0
 10
3.988844343677758
 20
5.58881944444445
 30
0.0
 10
3.988844343677758
 20
5.58881944444445
 30
0.0
 10
3.988105454807535
 20
5.508829027501936
 30
0.0
 10
3.988105454807535
 20
5.503688749854013
 30
0.0
 10
3.988105454807535
 20
5.498555555555551
 30
0.0
 10
3.986640177066773
 20
5.491942916817404
 30
0.0
 10
3.980034621678088
 20
5.495619305613419
 30
0.0
 10
3.973429066289403
 20
5.499287361076325
 30
0.0
 10
3.969027777777784
 20
5.500752638817074
 30
0.0
 10
3.96535962204881
 20
5.502224861002105
 30
0.0
 10
3.961690177697063
 20
5.503688749854013
 30
0.0
 10
3.95654990004914
 20
5.50002069439112
 30
0.0
 10
3.95654990004914
 20
5.497090138909597
 30
0.0
 10
3.95654990004914
 20
5.494154027872658
 30
0.0
 10
3.95654990004914
 20
5.385538752838733
 30
0.0
 10
3.95654990004914
 20
5.385538752838733
 30
0.0
 10
3.95654990004914
 20
5.385538752838733
 30
0.0
 10
4.087917952286059
 20
5.318020698988827
 30
0.0
 10
4.087917952286059
 20
5.318020698988827
 30
0.0
 10
4.087917952286059
 20
5.318020698988827
 30
0.0
 10
4.101861111111108
 20
5.32168181000745
 30
0.0
 10
4.101861111111108
 20
5.32168181000745
 30
0.0
 10
4.101861111111108
 20
5.32168181000745
 30
0.0
 10
4.102592951915337
 20
5.471394306225394
 30
0.0
 10
4.102592951915337
 20
5.471394306225394
 30
0.0
 10
4.102592951915337
 20
5.471394306225394
 30
0.0
 10
4.087179063415836
 20
5.511766527427741
 30
0.0
 10
4.087179063415836
 20
5.511766527427741
 30
0.0
 10
4.087179063415836
 20
5.511766527427741
 30
0.0
 10
4.330823501705305
 20
5.539652777777771
 30
0.0
 10
4.330823501705305
 20
5.539652777777771
 30
0.0
 10
4.330823501705305
 20
5.539652777777771
 30
0.0
 10
4.331556835020112
 20
5.549926248685956
 30
0.0
 10
4.344034612482675
 20
5.550659582000763
 30
0.0
 10
4.356512389945237
 20
5.551391526426717
 30
0.0
 10
4.360908223167522
 20
5.543320693297283
 30
0.0
 10
4.361654056482014
 20
5.537448471223393
 30
0.0
 10
4.370456834037415
 20
5.533779026871646
 30
0.0
 10
4.461452665072001
 20
5.489013888888899
 30
0.0
 10
4.461452665072001
 20
5.489013888888899
 30
0.0
 10
4.461452665072001
 20
5.489013888888899
 30
0.0
 10
4.459241554016747
 20
5.503688749854013
 30
0.0
 10
4.460720720646046
 20
5.511026249668652
 30
0.0
 10
4.462184609497954
 20
5.518372082816414
 30
0.0
 10
4.507690163903943
 20
5.759812354494898
 30
0.0
 10
4.509155441644705
 20
5.764213743272598
 30
0.0
 10
4.510619330496612
 20
5.768615132050311
 30
0.0
 10
4.521633219107267
 20
5.773755409698222
 30
0.0
 10
4.510619330496612
 20
5.794304020290231
 30
0.0
 10
4.510619330496612
 20
5.795037353605039
 30
0.0
 10
4.511366552699958
 20
5.81045124210454
 30
0.0
 10
4.511366552699958
 20
5.81045124210454
 30
0.0
 10
4.511366552699958
 20
5.81045124210454
 30
0.0
 10
4.50254988625602
 20
5.817056797493225
 30
0.0
 10
4.50254988625602
 20
5.817056797493225
 30
0.0
 10
4.50254988625602
 20
5.817056797493225
 30
0.0
 10
4.277587391939051
 20
5.796135964688397
 30
0.0
 10
4.272108225410799
 20
5.795776242475262
 30
0.0
  0
SPLINE
  5
2E2
330
1F
100
AcDbEntity
  8
Layer 1
 62
     7
420
 16777215
370
     9
100
AcDbSpline
210
0.0
220
0.0
230
1.0
 70
     8
 71
     3
 72
     8
 73
     4
 74
     0
 42
0.0000000001
 43
0.0000000001
 12
1.0
 22
0.0
 32
0.0
 13
1.0
 23
0.0
 33
0.0
 40
0.0
 40
0.0
 40
0.0
 40
0.0
 40
1.0
 40
1.0
 40
1.0
 40
1.0
 10
3.988844343677758
 20
5.665880412423373
 30
0.0
 10
4.012329065306706
 20
5.657070690423703
 30
0.0
 10
4.01306100973266
 20
5.67909013431189
 30
0.0
 10
3.991048510288755
 20
5.685695689700575
 30
0.0
  0
POLYLINE
  5
2E3
330
1F
100
AcDbEntity
  8
Layer 1
 62
     7
420
 16777215
370
     9
100
AcDb2dPolyline
 66
     1
 10
0.0
 20
0.0
 30
0.0
  0
VERTEX
  5
2E4
330
2E3
100
AcDbEntity
  8
Layer 1
 62
     7
420
 16777215
370
     9
100
AcDbVertex
100
AcDb2dVertex
 10
4.024799898325
 20
5.594692914221721
 30
0.0
  0
VERTEX
  5
2E5
330
2E3
100
AcDbEntity
  8
Layer 1
 62
     7
420
 16777215
370
     9
100
AcDbVertex
100
AcDb2dVertex
 10
4.010856843121675
 20
5.60203041403636
 30
0.0
  0
SEQEND
  5
2E6
330
2E3
100
AcDbEntity
  8
Layer 1
 62
     7
420
 16777215
370
     9
  0
SPLINE
  5
2E7
330
1F
100
AcDbEntity
  8
Layer 1
 62
     7
420
 16777215
370
     9
100
AcDbSpline
210
0.0
220
0.0
230
1.0
 70
     8
 71
     3
 72
    11
 73
     7
 74
     0
 42
0.0000000001
 43
0.0000000001
 12
1.0
 22
0.0
 32
0.0
 13
1.0
 23
0.0
 33
0.0
 40
0.0
 40
0.0
 40
0.0
 40
0.0
 40
1.0
 40
1.0
 40
1.0
 40
2.0
 40
2.0
 40
2.0
 40
2.0
 10
3.990308232529666
 20
5.590291666666669
 30
0.0
 10
3.990308232529666
 20
5.590291666666669
 30
0.0
 10
4.007669343202198
 20
5.582608192304797
 30
0.0
 10
4.012329065306706
 20
5.580009581259319
 30
0.0
 10
4.025533231639807
 20
5.57267208144468
 30
0.0
 10
4.027737398250792
 20
5.582947081185112
 30
0.0
 10
4.025533231639807
 20
5.589552636573798
 30
0.0
  0
SPLINE
  5
2E8
330
1F
100
AcDbEntity
  8
Layer 1
 62
     7
420
 16777215
370
     9
100
AcDbSpline
210
0.0
220
0.0
230
1.0
 70
    11
 71
     3
 72
    17
 73
    13
 74
     0
 42
0.0000000001
 43
0.0000000001
 12
1.0
 22
0.0
 32
0.0
 13
1.0
 23
0.0
 33
0.0
 40
0.0
 40
0.0
 40
0.0
 40
0.0
 40
1.0
 40
1.0
 40
1.0
 40
2.0
 40
2.0
 40
2.0
 40
3.0
 40
3.0
 40
3.0
 40
4.0
 40
4.0
 40
4.0
 40
4.0
 10
4.2075332270421
 20
5.732659577403056
 30
0.0
 10
4.223680555555549
 20
5.734130410699233
 30
0.0
 10
4.220744337819471
 20
5.75394013242102
 30
0.0
 10
4.204597222222219
 20
5.752474854680258
 30
0.0
 10
4.192877671856776
 20
5.751417910262514
 30
0.0
 10
4.077642952545627
 20
5.741467910513872
 30
0.0
 10
4.068101286120004
 20
5.741467910513872
 30
0.0
 10
4.05855961969438
 20
5.741467910513872
 30
0.0
 10
4.055623508657441
 20
5.720920688810716
 30
0.0
 10
4.071037397156942
 20
5.721652777777775
 30
0.0
 10
4.086445730101028
 20
5.722384577662624
 30
0.0
 10
4.200927671653416
 20
5.732062355195922
 30
0.0
 10
4.2075332270421
 20
5.732659577403056
 30
0.0
  0
SPLINE
  5
2E9
330
1F
100
AcDbEntity
  8
Layer 1
 62
     7
420
 16777215
370
     9
100
AcDbSpline
210
0.0
220
0.0
230
1.0
 70
    11
 71
     3
 72
    23
 73
    19
 74
     0
 42
0.0000000001
 43
0.0000000001
 12
1.0
 22
0.0
 32
0.0
 13
1.0
 23
0.0
 33
0.0
 40
0.0
 40
0.0
 40
0.0
 40
0.0
 40
1.0
 40
1.0
 40
1.0
 40
2.0
 40
2.0
 40
2.0
 40
3.0
 40
3.0
 40
3.0
 40
4.0
 40
4.0
 40
4.0
 40
5.0
 40
5.0
 40
5.0
 40
6.0
 40
6.0
 40
6.0
 40
6.0
 10
4.204597222222219
 20
5.752474854680258
 30
0.0
 10
4.192877671856776
 20
5.751417910262514
 30
0.0
 10
4.077642952545627
 20
5.741467910513872
 30
0.0
 10
4.068101286120004
 20
5.741467910513872
 30
0.0
 10
4.064670730651111
 20
5.741467910513872
 30
0.0
 10
4.062113786271261
 20
5.738790132803741
 30
0.0
 10
4.060933230745528
 20
5.735419299555574
 30
0.0
 10
4.06224156404581
 20
5.732041666666671
 30
0.0
 10
4.065402777777775
 20
5.729458333333329
 30
0.0
 10
4.071037397156942
 20
5.729722222222222
 30
0.0
 10
4.086445730101028
 20
5.730455410792072
 30
0.0
 10
4.200927671653416
 20
5.740133188325368
 30
0.0
 10
4.2075332270421
 20
5.740736111111105
 30
0.0
 10
4.212633226913264
 20
5.741197077187381
 30
0.0
 10
4.215820726832741
 20
5.743490132685009
 30
0.0
 10
4.2172985045732
 20
5.746365132612381
 30
0.0
 10
4.215494337952097
 20
5.750142910294723
 30
0.0
 10
4.211161004728234
 20
5.753072076887393
 30
0.0
 10
4.204597222222219
 20
5.752474854680258
 30
0.0
  0
HATCH
  5
2EA
330
1F
100
AcDbEntity
  8
Layer 1
 62
    43
420
 15509591
100
AcDbHatch
 10
0.0
 20
0.0
 30
0.0
210
0.0
220
0.0
230
1.0
  2
SOLID
 70
     1
 71
     0
 91
        1
 92
        1
 93
        1
 72
     4
 94
        3
 73
     0
 74
     1
 95
       23
 96
       19
 40
0.0
 40
0.0
 40
0.0
 40
0.0
 40
1.0
 40
1.0
 40
1.0
 40
2.0
 40
2.0
 40
2.0
 40
3.0
 40
3.0
 40
3.0
 40
4.0
 40
4.0
 40
4.0
 40
5.0
 40
5.0
 40
5.0
 40
6.0
 40
6.0
 40
6.0
 40
6.0
 10
4.204597222222219
 20
5.752474854680258
 10
4.192877671856776
 20
5.751417910262514
 10
4.077642952545627
 20
5.741467910513872
 10
4.068101286120004
 20
5.741467910513872
 10
4.064670730651111
 20
5.741467910513872
 10
4.062113786271261
 20
5.738790132803741
 10
4.060933230745528
 20
5.735419299555574
 10
4.06224156404581
 20
5.732041666666671
 10
4.065402777777775
 20
5.729458333333329
 10
4.071037397156942
 20
5.729722222222222
 10
4.086445730101028
 20
5.730455410792072
 10
4.200927671653416
 20
5.740133188325368
 10
4.2075332270421
 20
5.740736111111105
 10
4.212633226913264
 20
5.741197077187381
 10
4.215820726832741
 20
5.743490132685009
 10
4.2172985045732
 20
5.746365132612381
 10
4.215494337952097
 20
5.750142910294723
 10
4.211161004728234
 20
5.753072076887393
 10
4.204597222222219
 20
5.752474854680258
 97
        0
 97
        0
 75
     2
 76
     1
 98
        0
  0
SPLINE
  5
2EB
330
1F
100
AcDbEntity
  8
Layer 1
 62
     7
420
 16777215
370
     9
100
AcDbSpline
210
0.0
220
0.0
230
1.0
 70
    11
 71
     3
 72
    17
 73
    13
 74
     0
 42
0.0000000001
 43
0.0000000001
 12
1.0
 22
0.0
 32
0.0
 13
1.0
 23
0.0
 33
0.0
 40
0.0
 40
0.0
 40
0.0
 40
0.0
 40
1.0
 40
1.0
 40
1.0
 40
2.0
 40
2.0
 40
2.0
 40
3.0
 40
3.0
 40
3.0
 40
4.0
 40
4.0
 40
4.0
 40
4.0
 10
4.077731841432284
 20
5.71829568887703
 30
0.0
 10
4.085347222222228
 20
5.71829568887703
 30
0.0
 10
4.091524896639385
 20
5.726548466446325
 30
0.0
 10
4.091524896639385
 20
5.736727632855844
 30
0.0
 10
4.091524896639385
 20
5.746906799265363
 30
0.0
 10
4.085347222222228
 20
5.755167910167781
 30
0.0
 10
4.077731841432284
 20
5.755167910167781
 30
0.0
 10
4.070109619402603
 20
5.755167910167781
 30
0.0
 10
4.063937397336304
 20
5.746906799265363
 30
0.0
 10
4.063937397336304
 20
5.736727632855844
 30
0.0
 10
4.063937397336304
 20
5.726548466446325
 30
0.0
 10
4.070109619402603
 20
5.71829568887703
 30
0.0
 10
4.077731841432284
 20
5.71829568887703
 30
0.0
  0
HATCH
  5
2EC
330
1F
100
AcDbEntity
  8
Layer 1
 62
     7
420
 16777215
100
AcDbHatch
 10
0.0
 20
0.0
 30
0.0
210
0.0
220
0.0
230
1.0
  2
SOLID
 70
     1
 71
     0
 91
        1
 92
        1
 93
        1
 72
     4
 94
        3
 73
     0
 74
     1
 95
       17
 96
       13
 40
0.0
 40
0.0
 40
0.0
 40
0.0
 40
1.0
 40
1.0
 40
1.0
 40
2.0
 40
2.0
 40
2.0
 40
3.0
 40
3.0
 40
3.0
 40
4.0
 40
4.0
 40
4.0
 40
4.0
 10
4.077731841432284
 20
5.71829568887703
 10
4.085347222222228
 20
5.71829568887703
 10
4.091524896639385
 20
5.726548466446325
 10
4.091524896639385
 20
5.736727632855844
 10
4.091524896639385
 20
5.746906799265363
 10
4.085347222222228
 20
5.755167910167781
 10
4.077731841432284
 20
5.755167910167781
 10
4.070109619402603
 20
5.755167910167781
 10
4.063937397336304
 20
5.746906799265363
 10
4.063937397336304
 20
5.736727632855844
 10
4.063937397336304
 20
5.726548466446325
 10
4.070109619402603
 20
5.71829568887703
 10
4.077731841432284
 20
5.71829568887703
 97
        0
 97
        0
 75
     2
 76
     1
 98
        0
  0
SPLINE
  5
2ED
330
1F
100
AcDbEntity
  8
Layer 1
 62
     7
420
 16777215
370
     9
100
AcDbSpline
210
0.0
220
0.0
230
1.0
 70
    11
 71
     3
 72
    17
 73
    13
 74
     0
 42
0.0000000001
 43
0.0000000001
 12
1.0
 22
0.0
 32
0.0
 13
1.0
 23
0.0
 33
0.0
 40
0.0
 40
0.0
 40
0.0
 40
0.0
 40
1.0
 40
1.0
 40
1.0
 40
2.0
 40
2.0
 40
2.0
 40
3.0
 40
3.0
 40
3.0
 40
4.0
 40
4.0
 40
4.0
 40
4.0
 10
4.084384619041986
 20
5.717156800016912
 30
0.0
 10
4.091999999999997
 20
5.717156800016912
 30
0.0
 10
4.098177674249099
 20
5.725409577586206
 30
0.0
 10
4.098177674249099
 20
5.735588743995726
 30
0.0
 10
4.098177674249099
 20
5.745767910405245
 30
0.0
 10
4.091999999999997
 20
5.754027777777777
 30
0.0
 10
4.084384619041986
 20
5.754027777777777
 30
0.0
 10
4.076767952567732
 20
5.754027777777777
 30
0.0
 10
4.070590174946018
 20
5.745767910405245
 30
0.0
 10
4.070590174946018
 20
5.735588743995726
 30
0.0
 10
4.070590174946018
 20
5.725409577586206
 30
0.0
 10
4.076767952567732
 20
5.717156800016912
 30
0.0
 10
4.084384619041986
 20
5.717156800016912
 30
0.0
  0
HATCH
  5
2EE
330
1F
100
AcDbEntity
  8
Layer 1
 62
   254
420
 13358815
100
AcDbHatch
 10
0.0
 20
0.0
 30
0.0
210
0.0
220
0.0
230
1.0
  2
SOLID
 70
     1
 71
     0
 91
        1
 92
        1
 93
        1
 72
     4
 94
        3
 73
     0
 74
     1
 95
       17
 96
       13
 40
0.0
 40
0.0
 40
0.0
 40
0.0
 40
1.0
 40
1.0
 40
1.0
 40
2.0
 40
2.0
 40
2.0
 40
3.0
 40
3.0
 40
3.0
 40
4.0
 40
4.0
 40
4.0
 40
4.0
 10
4.084384619041986
 20
5.717156800016912
 10
4.091999999999997
 20
5.717156800016912
 10
4.098177674249099
 20
5.725409577586206
 10
4.098177674249099
 20
5.735588743995726
 10
4.098177674249099
 20
5.745767910405245
 10
4.091999999999997
 20
5.754027777777777
 10
4.084384619041986
 20
5.754027777777777
 10
4.076767952567732
 20
5.754027777777777
 10
4.070590174946018
 20
5.745767910405245
 10
4.070590174946018
 20
5.735588743995726
 10
4.070590174946018
 20
5.725409577586206
 10
4.076767952567732
 20
5.717156800016912
 10
4.084384619041986
 20
5.717156800016912
 97
        0
 97
        0
 75
     2
 76
     1
 98
        0
  0
SPLINE
  5
2EF
330
1F
100
AcDbEntity
  8
Layer 1
 62
     7
420
 16777215
370
     9
100
AcDbSpline
210
0.0
220
0.0
230
1.0
 70
    11
 71
     3
 72
    17
 73
    13
 74
     0
 42
0.0000000001
 43
0.0000000001
 12
1.0
 22
0.0
 32
0.0
 13
1.0
 23
0.0
 33
0.0
 40
0.0
 40
0.0
 40
0.0
 40
0.0
 40
1.0
 40
1.0
 40
1.0
 40
2.0
 40
2.0
 40
2.0
 40
3.0
 40
3.0
 40
3.0
 40
4.0
 40
4.0
 40
4.0
 40
4.0
 10
4.458305555555549
 20
5.755187354611735
 30
0.0
 10
4.474459609187861
 20
5.756652777777782
 30
0.0
 10
4.471516553706654
 20
5.776469298518552
 30
0.0
 10
4.455376276336614
 20
5.77500402077779
 30
0.0
 10
4.443658221077081
 20
5.773945687471192
 30
0.0
 10
4.344549890247436
 20
5.764119298830539
 30
0.0
 10
4.33501516826608
 20
5.764119298830539
 30
0.0
 10
4.325466557396187
 20
5.764119298830539
 30
0.0
 10
4.322537390803518
 20
5.743570688238529
 30
0.0
 10
4.337944444444449
 20
5.744302632664484
 30
0.0
 10
4.353352667802836
 20
5.74504291042356
 30
0.0
 10
4.451713776429137
 20
5.754591521293453
 30
0.0
 10
4.458305555555549
 20
5.755187354611735
 30
0.0
  0
SPLINE
  5
2F0
330
1F
100
AcDbEntity
  8
Layer 1
 62
     7
420
 16777215
370
     9
100
AcDbSpline
210
0.0
220
0.0
230
1.0
 70
    11
 71
     3
 72
    23
 73
    19
 74
     0
 42
0.0000000001
 43
0.0000000001
 12
1.0
 22
0.0
 32
0.0
 13
1.0
 23
0.0
 33
0.0
 40
0.0
 40
0.0
 40
0.0
 40
0.0
 40
1.0
 40
1.0
 40
1.0
 40
2.0
 40
2.0
 40
2.0
 40
3.0
 40
3.0
 40
3.0
 40
4.0
 40
4.0
 40
4.0
 40
5.0
 40
5.0
 40
5.0
 40
6.0
 40
6.0
 40
6.0
 40
6.0
 10
4.455376276336614
 20
5.77500402077779
 30
0.0
 10
4.443658221077081
 20
5.773945687471192
 30
0.0
 10
4.344549890247436
 20
5.764119298830539
 30
0.0
 10
4.33501516826608
 20
5.764119298830539
 30
0.0
 10
4.331569444444439
 20
5.764119298830539
 30
0.0
 10
4.329020723973068
 20
5.761447076675823
 30
0.0
 10
4.327854057335874
 20
5.758070687872242
 30
0.0
 10
4.329141557303349
 20
5.75469985462405
 30
0.0
 10
4.332316557223142
 20
5.752109576911708
 30
0.0
 10
4.337944444444449
 20
5.752380410238199
 30
0.0
 10
4.353352667802836
 20
5.753112354664154
 30
0.0
 10
4.451713776429137
 20
5.762660965534047
 30
0.0
 10
4.458305555555549
 20
5.763258187741181
 30
0.0
 10
4.463405442800447
 20
5.763726243284913
 30
0.0
 10
4.466592942719924
 20
5.7660179098937
 30
0.0
 10
4.468084609348907
 20
5.768894298709912
 30
0.0
 10
4.466281831616672
 20
5.772663743059133
 30
0.0
 10
4.461941553948539
 20
5.775594298540656
 30
0.0
 10
4.455376276336614
 20
5.77500402077779
 30
0.0
  0
HATCH
  5
2F1
330
1F
100
AcDbEntity
  8
Layer 1
 62
    43
420
 15509591
100
AcDbHatch
 10
0.0
 20
0.0
 30
0.0
210
0.0
220
0.0
230
1.0
  2
SOLID
 70
     1
 71
     0
 91
        1
 92
        1
 93
        1
 72
     4
 94
        3
 73
     0
 74
     1
 95
       23
 96
       19
 40
0.0
 40
0.0
 40
0.0
 40
0.0
 40
1.0
 40
1.0
 40
1.0
 40
2.0
 40
2.0
 40
2.0
 40
3.0
 40
3.0
 40
3.0
 40
4.0
 40
4.0
 40
4.0
 40
5.0
 40
5.0
 40
5.0
 40
6.0
 40
6.0
 40
6.0
 40
6.0
 10
4.455376276336614
 20
5.77500402077779
 10
4.443658221077081
 20
5.773945687471192
 10
4.344549890247436
 20
5.764119298830539
 10
4.33501516826608
 20
5.764119298830539
 10
4.331569444444439
 20
5.764119298830539
 10
4.329020723973068
 20
5.761447076675823
 10
4.327854057335874
 20
5.758070687872242
 10
4.329141557303349
 20
5.75469985462405
 10
4.332316557223142
 20
5.752109576911708
 10
4.337944444444449
 20
5.752380410238199
 10
4.353352667802836
 20
5.753112354664154
 10
4.451713776429137
 20
5.762660965534047
 10
4.458305555555549
 20
5.763258187741181
 10
4.463405442800447
 20
5.763726243284913
 10
4.466592942719924
 20
5.7660179098937
 10
4.468084609348907
 20
5.768894298709912
 10
4.466281831616672
 20
5.772663743059133
 10
4.461941553948539
 20
5.775594298540656
 10
4.455376276336614
 20
5.77500402077779
 97
        0
 97
        0
 75
     2
 76
     1
 98
        0
  0
SPLINE
  5
2F2
330
1F
100
AcDbEntity
  8
Layer 1
 62
     7
420
 16777215
370
     9
100
AcDbSpline
210
0.0
220
0.0
230
1.0
 70
    11
 71
     3
 72
    17
 73
    13
 74
     0
 42
0.0000000001
 43
0.0000000001
 12
1.0
 22
0.0
 32
0.0
 13
1.0
 23
0.0
 33
0.0
 40
0.0
 40
0.0
 40
0.0
 40
0.0
 40
1.0
 40
1.0
 40
1.0
 40
2.0
 40
2.0
 40
2.0
 40
3.0
 40
3.0
 40
3.0
 40
4.0
 40
4.0
 40
4.0
 40
4.0
 10
4.344645723578347
 20
5.740945688304842
 30
0.0
 10
4.352254056719478
 20
5.740945688304842
 30
0.0
 10
4.358424889896924
 20
5.749199854762992
 30
0.0
 10
4.358424889896924
 20
5.75938596561678
 30
0.0
 10
4.358424889896924
 20
5.769565132026299
 30
0.0
 10
4.352254056719478
 20
5.777817909595594
 30
0.0
 10
4.344645723578347
 20
5.777817909595594
 30
0.0
 10
4.337008223771287
 20
5.777817909595594
 30
0.0
 10
4.330837390593842
 20
5.769565132026299
 30
0.0
 10
4.330837390593842
 20
5.75938596561678
 30
0.0
 10
4.330837390593842
 20
5.749199854762992
 30
0.0
 10
4.337008223771287
 20
5.740945688304842
 30
0.0
 10
4.344645723578347
 20
5.740945688304842
 30
0.0
  0
HATCH
  5
2F3
330
1F
100
AcDbEntity
  8
Layer 1
 62
     7
420
 16777215
100
AcDbHatch
 10
0.0
 20
0.0
 30
0.0
210
0.0
220
0.0
230
1.0
  2
SOLID
 70
     1
 71
     0
 91
        1
 92
        1
 93
        1
 72
     4
 94
        3
 73
     0
 74
     1
 95
       17
 96
       13
 40
0.0
 40
0.0
 40
0.0
 40
0.0
 40
1.0
 40
1.0
 40
1.0
 40
2.0
 40
2.0
 40
2.0
 40
3.0
 40
3.0
 40
3.0
 40
4.0
 40
4.0
 40
4.0
 40
4.0
 10
4.344645723578347
 20
5.740945688304842
 10
4.352254056719478
 20
5.740945688304842
 10
4.358424889896924
 20
5.749199854762992
 10
4.358424889896924
 20
5.75938596561678
 10
4.358424889896924
 20
5.769565132026299
 10
4.352254056719478
 20
5.777817909595594
 10
4.344645723578347
 20
5.777817909595594
 10
4.337008223771287
 20
5.777817909595594
 10
4.330837390593842
 20
5.769565132026299
 10
4.330837390593842
 20
5.75938596561678
 10
4.330837390593842
 20
5.749199854762992
 10
4.337008223771287
 20
5.740945688304842
 10
4.344645723578347
 20
5.740945688304842
 97
        0
 97
        0
 75
     2
 76
     1
 98
        0
  0
SPLINE
  5
2F4
330
1F
100
AcDbEntity
  8
Layer 1
 62
     7
420
 16777215
370
     9
100
AcDbSpline
210
0.0
220
0.0
230
1.0
 70
    11
 71
     3
 72
    17
 73
    13
 74
     0
 42
0.0000000001
 43
0.0000000001
 12
1.0
 22
0.0
 32
0.0
 13
1.0
 23
0.0
 33
0.0
 40
0.0
 40
0.0
 40
0.0
 40
0.0
 40
1.0
 40
1.0
 40
1.0
 40
2.0
 40
2.0
 40
2.0
 40
3.0
 40
3.0
 40
3.0
 40
4.0
 40
4.0
 40
4.0
 40
4.0
 10
4.351291666666662
 20
5.739806799444724
 30
0.0
 10
4.358899889884924
 20
5.739806799444724
 30
0.0
 10
4.365084611950907
 20
5.748060965902874
 30
0.0
 10
4.365084611950907
 20
5.758247076756661
 30
0.0
 10
4.365084611950907
 20
5.768426243166181
 30
0.0
 10
4.358899889884924
 20
5.776679020735476
 30
0.0
 10
4.351291666666662
 20
5.776679020735476
 30
0.0
 10
4.34366794582527
 20
5.776679020735476
 30
0.0
 10
4.337497112647826
 20
5.768426243166181
 30
0.0
 10
4.337497112647826
 20
5.758247076756661
 30
0.0
 10
4.337497112647826
 20
5.748060965902874
 30
0.0
 10
4.34366794582527
 20
5.739806799444724
 30
0.0
 10
4.351291666666662
 20
5.739806799444724
 30
0.0
  0
HATCH
  5
2F5
330
1F
100
AcDbEntity
  8
Layer 1
 62
   254
420
 13358815
100
AcDbHatch
 10
0.0
 20
0.0
 30
0.0
210
0.0
220
0.0
230
1.0
  2
SOLID
 70
     1
 71
     0
 91
        1
 92
        1
 93
        1
 72
     4
 94
        3
 73
     0
 74
     1
 95
       17
 96
       13
 40
0.0
 40
0.0
 40
0.0
 40
0.0
 40
1.0
 40
1.0
 40
1.0
 40
2.0
 40
2.0
 40
2.0
 40
3.0
 40
3.0
 40
3.0
 40
4.0
 40
4.0
 40
4.0
 40
4.0
 10
4.351291666666662
 20
5.739806799444724
 10
4.358899889884924
 20
5.739806799444724
 10
4.365084611950907
 20
5.748060965902874
 10
4.365084611950907
 20
5.758247076756661
 10
4.365084611950907
 20
5.768426243166181
 10
4.358899889884924
 20
5.776679020735476
 10
4.351291666666662
 20
5.776679020735476
 10
4.34366794582527
 20
5.776679020735476
 10
4.337497112647826
 20
5.768426243166181
 10
4.337497112647826
 20
5.758247076756661
 10
4.337497112647826
 20
5.748060965902874
 10
4.34366794582527
 20
5.739806799444724
 10
4.351291666666662
 20
5.739806799444724
 97
        0
 97
        0
 75
     2
 76
     1
 98
        0
  0
SPLINE
  5
2F6
330
1F
100
AcDbEntity
  8
Layer 1
 62
     7
420
 16777215
370
     9
100
AcDbSpline
210
0.0
220
0.0
230
1.0
 70
    11
 71
     3
 72
    17
 73
    13
 74
     0
 42
0.0000000001
 43
0.0000000001
 12
1.0
 22
0.0
 32
0.0
 13
1.0
 23
0.0
 33
0.0
 40
0.0
 40
0.0
 40
0.0
 40
0.0
 40
1.0
 40
1.0
 40
1.0
 40
2.0
 40
2.0
 40
2.0
 40
3.0
 40
3.0
 40
3.0
 40
4.0
 40
4.0
 40
4.0
 40
4.0
 10
4.409397110831479
 20
5.674899856639968
 30
0.0
 10
4.425537388201519
 20
5.676363745491876
 30
0.0
 10
4.422594332720311
 20
5.696180555555555
 30
0.0
 10
4.406452666461417
 20
5.694715133917169
 30
0.0
 10
4.394734611201885
 20
5.693658189499425
 30
0.0
 10
4.295627669261092
 20
5.6838373564142
 30
0.0
 10
4.286079058391199
 20
5.6838373564142
 30
0.0
 10
4.276542947520991
 20
5.6838373564142
 30
0.0
 10
4.273599892039783
 20
5.663281801377908
 30
0.0
 10
4.289022113872408
 20
5.664015134692717
 30
0.0
 10
4.304429057927639
 20
5.664754023562939
 30
0.0
 10
4.402777777777778
 20
5.674302634432832
 30
0.0
 10
4.409397110831479
 20
5.674899856639968
 30
0.0
  0
SPLINE
  5
2F7
330
1F
100
AcDbEntity
  8
Layer 1
 62
     7
420
 16777215
370
     9
100
AcDbSpline
210
0.0
220
0.0
230
1.0
 70
    11
 71
     3
 72
    23
 73
    19
 74
     0
 42
0.0000000001
 43
0.0000000001
 12
1.0
 22
0.0
 32
0.0
 13
1.0
 23
0.0
 33
0.0
 40
0.0
 40
0.0
 40
0.0
 40
0.0
 40
1.0
 40
1.0
 40
1.0
 40
2.0
 40
2.0
 40
2.0
 40
3.0
 40
3.0
 40
3.0
 40
4.0
 40
4.0
 40
4.0
 40
5.0
 40
5.0
 40
5.0
 40
6.0
 40
6.0
 40
6.0
 40
6.0
 10
4.406452666461417
 20
5.694715133917169
 30
0.0
 10
4.394734611201885
 20
5.693658189499425
 30
0.0
 10
4.295627669261092
 20
5.6838373564142
 30
0.0
 10
4.286079058391199
 20
5.6838373564142
 30
0.0
 10
4.282647114033454
 20
5.6838373564142
 30
0.0
 10
4.280097222222214
 20
5.681159578704055
 30
0.0
 10
4.278916666666671
 20
5.677788745455877
 30
0.0
 10
4.280219336317006
 20
5.674410967763429
 30
0.0
 10
4.283379058459407
 20
5.671820690051087
 30
0.0
 10
4.289022113872408
 20
5.672091523377579
 30
0.0
 10
4.304429057927639
 20
5.672824856692387
 30
0.0
 10
4.402777777777778
 20
5.68237346756228
 30
0.0
 10
4.409397110831479
 20
5.68296930088056
 30
0.0
 10
4.414497110702643
 20
5.683437356424292
 30
0.0
 10
4.417683221733265
 20
5.68573041192192
 30
0.0
 10
4.419148499474027
 20
5.688605411849291
 30
0.0
 10
4.417344332852937
 20
5.692376245087366
 30
0.0
 10
4.413017944073342
 20
5.695312356124305
 30
0.0
 10
4.406452666461417
 20
5.694715133917169
 30
0.0
  0
HATCH
  5
2F8
330
1F
100
AcDbEntity
  8
Layer 1
 62
    43
420
 15509591
100
AcDbHatch
 10
0.0
 20
0.0
 30
0.0
210
0.0
220
0.0
230
1.0
  2
SOLID
 70
     1
 71
     0
 91
        1
 92
        1
 93
        1
 72
     4
 94
        3
 73
     0
 74
     1
 95
       23
 96
       19
 40
0.0
 40
0.0
 40
0.0
 40
0.0
 40
1.0
 40
1.0
 40
1.0
 40
2.0
 40
2.0
 40
2.0
 40
3.0
 40
3.0
 40
3.0
 40
4.0
 40
4.0
 40
4.0
 40
5.0
 40
5.0
 40
5.0
 40
6.0
 40
6.0
 40
6.0
 40
6.0
 10
4.406452666461417
 20
5.694715133917169
 10
4.394734611201885
 20
5.693658189499425
 10
4.295627669261092
 20
5.6838373564142
 10
4.286079058391199
 20
5.6838373564142
 10
4.282647114033454
 20
5.6838373564142
 10
4.280097222222214
 20
5.681159578704055
 10
4.278916666666671
 20
5.677788745455877
 10
4.280219336317006
 20
5.674410967763429
 10
4.283379058459407
 20
5.671820690051087
 10
4.289022113872408
 20
5.672091523377579
 10
4.304429057927639
 20
5.672824856692387
 10
4.402777777777778
 20
5.68237346756228
 10
4.409397110831479
 20
5.68296930088056
 10
4.414497110702643
 20
5.683437356424292
 10
4.417683221733265
 20
5.68573041192192
 10
4.419148499474027
 20
5.688605411849291
 10
4.417344332852937
 20
5.692376245087366
 10
4.413017944073342
 20
5.695312356124305
 10
4.406452666461417
 20
5.694715133917169
 97
        0
 97
        0
 75
     2
 76
     1
 98
        0
  0
SPLINE
  5
2F9
330
1F
100
AcDbEntity
  8
Layer 1
 62
     7
420
 16777215
370
     9
100
AcDbSpline
210
0.0
220
0.0
230
1.0
 70
    11
 71
     3
 72
    17
 73
    13
 74
     0
 42
0.0000000001
 43
0.0000000001
 12
1.0
 22
0.0
 32
0.0
 13
1.0
 23
0.0
 33
0.0
 40
0.0
 40
0.0
 40
0.0
 40
0.0
 40
1.0
 40
1.0
 40
1.0
 40
2.0
 40
2.0
 40
2.0
 40
3.0
 40
3.0
 40
3.0
 40
4.0
 40
4.0
 40
4.0
 40
4.0
 10
4.295708333333323
 20
5.660658190333075
 30
0.0
 10
4.303330446844281
 20
5.660658190333075
 30
0.0
 10
4.30950266891058
 20
5.66891791234664
 30
0.0
 10
4.30950266891058
 20
5.679097222222228
 30
0.0
 10
4.30950266891058
 20
5.689283189609947
 30
0.0
 10
4.303330446844281
 20
5.697537356068096
 30
0.0
 10
4.295708333333323
 20
5.697537356068096
 30
0.0
 10
4.288099891673482
 20
5.697537356068096
 30
0.0
 10
4.281915169607499
 20
5.689283189609947
 30
0.0
 10
4.281915169607499
 20
5.679097222222228
 30
0.0
 10
4.281915169607499
 20
5.66891791234664
 30
0.0
 10
4.288099891673482
 20
5.660658190333075
 30
0.0
 10
4.295708333333323
 20
5.660658190333075
 30
0.0
  0
HATCH
  5
2FA
330
1F
100
AcDbEntity
  8
Layer 1
 62
     7
420
 16777215
100
AcDbHatch
 10
0.0
 20
0.0
 30
0.0
210
0.0
220
0.0
230
1.0
  2
SOLID
 70
     1
 71
     0
 91
        1
 92
        1
 93
        1
 72
     4
 94
        3
 73
     0
 74
     1
 95
       17
 96
       13
 40
0.0
 40
0.0
 40
0.0
 40
0.0
 40
1.0
 40
1.0
 40
1.0
 40
2.0
 40
2.0
 40
2.0
 40
3.0
 40
3.0
 40
3.0
 40
4.0
 40
4.0
 40
4.0
 40
4.0
 10
4.295708333333323
 20
5.660658190333075
 10
4.303330446844281
 20
5.660658190333075
 10
4.30950266891058
 20
5.66891791234664
 10
4.30950266891058
 20
5.679097222222228
 10
4.30950266891058
 20
5.689283189609947
 10
4.303330446844281
 20
5.697537356068096
 10
4.295708333333323
 20
5.697537356068096
 10
4.288099891673482
 20
5.697537356068096
 10
4.281915169607499
 20
5.689283189609947
 10
4.281915169607499
 20
5.679097222222228
 10
4.281915169607499
 20
5.66891791234664
 10
4.288099891673482
 20
5.660658190333075
 10
4.295708333333323
 20
5.660658190333075
 97
        0
 97
        0
 75
     2
 76
     1
 98
        0
  0
SPLINE
  5
2FB
330
1F
100
AcDbEntity
  8
Layer 1
 62
     7
420
 16777215
370
     9
100
AcDbSpline
210
0.0
220
0.0
230
1.0
 70
    11
 71
     3
 72
    17
 73
    13
 74
     0
 42
0.0000000001
 43
0.0000000001
 12
1.0
 22
0.0
 32
0.0
 13
1.0
 23
0.0
 33
0.0
 40
0.0
 40
0.0
 40
0.0
 40
0.0
 40
1.0
 40
1.0
 40
1.0
 40
2.0
 40
2.0
 40
2.0
 40
3.0
 40
3.0
 40
3.0
 40
4.0
 40
4.0
 40
4.0
 40
4.0
 10
4.302367946868596
 20
5.659519301472957
 30
0.0
 10
4.309977668898581
 20
5.659519301472957
 30
0.0
 10
4.316162390964564
 20
5.667772079042252
 30
0.0
 10
4.316162390964564
 20
5.677958333333335
 30
0.0
 10
4.316162390964564
 20
5.68813735630556
 30
0.0
 10
4.309977668898581
 20
5.696390133874855
 30
0.0
 10
4.302367946868596
 20
5.696390133874855
 30
0.0
 10
4.294745724838927
 20
5.696390133874855
 30
0.0
 10
4.288573502772629
 20
5.68813735630556
 30
0.0
 10
4.288573502772629
 20
5.677958333333335
 30
0.0
 10
4.288573502772629
 20
5.667772079042252
 30
0.0
 10
4.294745724838927
 20
5.659519301472957
 30
0.0
 10
4.302367946868596
 20
5.659519301472957
 30
0.0
  0
HATCH
  5
2FC
330
1F
100
AcDbEntity
  8
Layer 1
 62
   254
420
 13358815
100
AcDbHatch
 10
0.0
 20
0.0
 30
0.0
210
0.0
220
0.0
230
1.0
  2
SOLID
 70
     1
 71
     0
 91
        1
 92
        1
 93
        1
 72
     4
 94
        3
 73
     0
 74
     1
 95
       17
 96
       13
 40
0.0
 40
0.0
 40
0.0
 40
0.0
 40
1.0
 40
1.0
 40
1.0
 40
2.0
 40
2.0
 40
2.0
 40
3.0
 40
3.0
 40
3.0
 40
4.0
 40
4.0
 40
4.0
 40
4.0
 10
4.302367946868596
 20
5.659519301472957
 10
4.309977668898581
 20
5.659519301472957
 10
4.316162390964564
 20
5.667772079042252
 10
4.316162390964564
 20
5.677958333333335
 10
4.316162390964564
 20
5.68813735630556
 10
4.309977668898581
 20
5.696390133874855
 10
4.302367946868596
 20
5.696390133874855
 10
4.294745724838927
 20
5.696390133874855
 10
4.288573502772629
 20
5.68813735630556
 10
4.288573502772629
 20
5.677958333333335
 10
4.288573502772629
 20
5.667772079042252
 10
4.294745724838927
 20
5.659519301472957
 10
4.302367946868596
 20
5.659519301472957
 97
        0
 97
        0
 75
     2
 76
     1
 98
        0
  0
SPLINE
  5
2FD
330
1F
100
AcDbEntity
  8
Layer 1
 62
     7
420
 16777215
370
     9
100
AcDbSpline
210
0.0
220
0.0
230
1.0
 70
    11
 71
     3
 72
    17
 73
    13
 74
     0
 42
0.0000000001
 43
0.0000000001
 12
1.0
 22
0.0
 32
0.0
 13
1.0
 23
0.0
 33
0.0
 40
0.0
 40
0.0
 40
0.0
 40
0.0
 40
1.0
 40
1.0
 40
1.0
 40
2.0
 40
2.0
 40
2.0
 40
3.0
 40
3.0
 40
3.0
 40
4.0
 40
4.0
 40
4.0
 40
4.0
 10
4.171644339059841
 20
5.65273041275557
 30
0.0
 10
4.187791666666663
 20
5.654195690496332
 30
0.0
 10
4.184855449837212
 20
5.674010967773534
 30
0.0
 10
4.168708333333332
 20
5.672545690032772
 30
0.0
 10
4.156995728318785
 20
5.671488745615028
 30
0.0
 10
4.057881841933724
 20
5.661660968085521
 30
0.0
 10
4.0483401755081
 20
5.661660968085521
 30
0.0
 10
4.038798509082477
 20
5.661660968085521
 30
0.0
 10
4.035861111111116
 20
5.641113746382366
 30
0.0
 10
4.051276286545039
 20
5.641852635252588
 30
0.0
 10
4.066684619489125
 20
5.642584579678542
 30
0.0
 10
4.165038783671156
 20
5.652133190548435
 30
0.0
 10
4.171644339059841
 20
5.65273041275557
 30
0.0
  0
SPLINE
  5
2FE
330
1F
100
AcDbEntity
  8
Layer 1
 62
     7
420
 16777215
370
     9
100
AcDbSpline
210
0.0
220
0.0
230
1.0
 70
    11
 71
     3
 72
    23
 73
    19
 74
     0
 42
0.0000000001
 43
0.0000000001
 12
1.0
 22
0.0
 32
0.0
 13
1.0
 23
0.0
 33
0.0
 40
0.0
 40
0.0
 40
0.0
 40
0.0
 40
1.0
 40
1.0
 40
1.0
 40
2.0
 40
2.0
 40
2.0
 40
3.0
 40
3.0
 40
3.0
 40
4.0
 40
4.0
 40
4.0
 40
5.0
 40
5.0
 40
5.0
 40
6.0
 40
6.0
 40
6.0
 40
6.0
 10
4.168708333333332
 20
5.672545690032772
 30
0.0
 10
4.156995728318785
 20
5.671488745615028
 30
0.0
 10
4.057881841933724
 20
5.661660968085521
 30
0.0
 10
4.0483401755081
 20
5.661660968085521
 30
0.0
 10
4.044901286706085
 20
5.661660968085521
 30
0.0
 10
4.042351286770503
 20
5.658990134819659
 30
0.0
 10
4.04117767568904
 20
5.65561930157148
 30
0.0
 10
4.042480453433907
 20
5.652241523879032
 30
0.0
 10
4.045640175576308
 20
5.64965124616669
 30
0.0
 10
4.051276286545039
 20
5.649922079493181
 30
0.0
 10
4.066684619489125
 20
5.650655412807989
 30
0.0
 10
4.165038783671156
 20
5.660204023677882
 30
0.0
 10
4.171644339059841
 20
5.660799856996164
 30
0.0
 10
4.176744338931004
 20
5.661267912539895
 30
0.0
 10
4.179931838850481
 20
5.663560968037523
 30
0.0
 10
4.181409616590928
 20
5.666435967964895
 30
0.0
 10
4.179605449969838
 20
5.670206801202968
 30
0.0
 10
4.175272116745974
 20
5.673142912239907
 30
0.0
 10
4.168708333333332
 20
5.672545690032772
 30
0.0
  0
HATCH
  5
2FF
330
1F
100
AcDbEntity
  8
Layer 1
 62
    43
420
 15509591
100
AcDbHatch
 10
0.0
 20
0.0
 30
0.0
210
0.0
220
0.0
230
1.0
  2
SOLID
 70
     1
 71
     0
 91
        1
 92
        1
 93
        1
 72
     4
 94
        3
 73
     0
 74
     1
 95
       23
 96
       19
 40
0.0
 40
0.0
 40
0.0
 40
0.0
 40
1.0
 40
1.0
 40
1.0
 40
2.0
 40
2.0
 40
2.0
 40
3.0
 40
3.0
 40
3.0
 40
4.0
 40
4.0
 40
4.0
 40
5.0
 40
5.0
 40
5.0
 40
6.0
 40
6.0
 40
6.0
 40
6.0
 10
4.168708333333332
 20
5.672545690032772
 10
4.156995728318785
 20
5.671488745615028
 10
4.057881841933724
 20
5.661660968085521
 10
4.0483401755081
 20
5.661660968085521
 10
4.044901286706085
 20
5.661660968085521
 10
4.042351286770503
 20
5.658990134819659
 10
4.04117767568904
 20
5.65561930157148
 10
4.042480453433907
 20
5.652241523879032
 10
4.045640175576308
 20
5.64965124616669
 10
4.051276286545039
 20
5.649922079493181
 10
4.066684619489125
 20
5.650655412807989
 10
4.165038783671156
 20
5.660204023677882
 10
4.171644339059841
 20
5.660799856996164
 10
4.176744338931004
 20
5.661267912539895
 10
4.179931838850481
 20
5.663560968037523
 10
4.181409616590928
 20
5.666435967964895
 10
4.179605449969838
 20
5.670206801202968
 10
4.175272116745974
 20
5.673142912239907
 10
4.168708333333332
 20
5.672545690032772
 97
        0
 97
        0
 75
     2
 76
     1
 98
        0
  0
SPLINE
  5
300
330
1F
100
AcDbEntity
  8
Layer 1
 62
     7
420
 16777215
370
     9
100
AcDbSpline
210
0.0
220
0.0
230
1.0
 70
    11
 71
     3
 72
    17
 73
    13
 74
     0
 42
0.0000000001
 43
0.0000000001
 12
1.0
 22
0.0
 32
0.0
 13
1.0
 23
0.0
 33
0.0
 40
0.0
 40
0.0
 40
0.0
 40
0.0
 40
1.0
 40
1.0
 40
1.0
 40
2.0
 40
2.0
 40
2.0
 40
3.0
 40
3.0
 40
3.0
 40
4.0
 40
4.0
 40
4.0
 40
4.0
 10
4.057969341931513
 20
5.638488746448679
 30
0.0
 10
4.065586008405767
 20
5.638488746448679
 30
0.0
 10
4.071756841583212
 20
5.646741524017973
 30
0.0
 10
4.071756841583212
 20
5.656927634871762
 30
0.0
 10
4.071756841583212
 20
5.667106801281281
 30
0.0
 10
4.065586008405767
 20
5.675361111111114
 30
0.0
 10
4.057969341931513
 20
5.675361111111114
 30
0.0
 10
4.050347222222222
 20
5.675361111111114
 30
0.0
 10
4.044169342280131
 20
5.667106801281281
 30
0.0
 10
4.044169342280131
 20
5.656927634871762
 30
0.0
 10
4.044169342280131
 20
5.646741524017973
 30
0.0
 10
4.050347222222222
 20
5.638488746448679
 30
0.0
 10
4.057969341931513
 20
5.638488746448679
 30
0.0
  0
HATCH
  5
301
330
1F
100
AcDbEntity
  8
Layer 1
 62
     7
420
 16777215
100
AcDbHatch
 10
0.0
 20
0.0
 30
0.0
210
0.0
220
0.0
230
1.0
  2
SOLID
 70
     1
 71
     0
 91
        1
 92
        1
 93
        1
 72
     4
 94
        3
 73
     0
 74
     1
 95
       17
 96
       13
 40
0.0
 40
0.0
 40
0.0
 40
0.0
 40
1.0
 40
1.0
 40
1.0
 40
2.0
 40
2.0
 40
2.0
 40
3.0
 40
3.0
 40
3.0
 40
4.0
 40
4.0
 40
4.0
 40
4.0
 10
4.057969341931513
 20
5.638488746448679
 10
4.065586008405767
 20
5.638488746448679
 10
4.071756841583212
 20
5.646741524017973
 10
4.071756841583212
 20
5.656927634871762
 10
4.071756841583212
 20
5.667106801281281
 10
4.065586008405767
 20
5.675361111111114
 10
4.057969341931513
 20
5.675361111111114
 10
4.050347222222222
 20
5.675361111111114
 10
4.044169342280131
 20
5.667106801281281
 10
4.044169342280131
 20
5.656927634871762
 10
4.044169342280131
 20
5.646741524017973
 10
4.050347222222222
 20
5.638488746448679
 10
4.057969341931513
 20
5.638488746448679
 97
        0
 97
        0
 75
     2
 76
     1
 98
        0
  0
SPLINE
  5
302
330
1F
100
AcDbEntity
  8
Layer 1
 62
     7
420
 16777215
370
     9
100
AcDbSpline
210
0.0
220
0.0
230
1.0
 70
    11
 71
     3
 72
    17
 73
    13
 74
     0
 42
0.0000000001
 43
0.0000000001
 12
1.0
 22
0.0
 32
0.0
 13
1.0
 23
0.0
 33
0.0
 40
0.0
 40
0.0
 40
0.0
 40
0.0
 40
1.0
 40
1.0
 40
1.0
 40
2.0
 40
2.0
 40
2.0
 40
3.0
 40
3.0
 40
3.0
 40
4.0
 40
4.0
 40
4.0
 40
4.0
 10
4.064622119541228
 20
5.637349857588561
 30
0.0
 10
4.072238786015482
 20
5.637349857588561
 30
0.0
 10
4.078416666666663
 20
5.645602635157855
 30
0.0
 10
4.078416666666663
 20
5.655788746011644
 30
0.0
 10
4.078416666666663
 20
5.665967912421163
 30
0.0
 10
4.072238786015482
 20
5.674220689990458
 30
0.0
 10
4.064622119541228
 20
5.674220689990458
 30
0.0
 10
4.057006841955828
 20
5.674220689990458
 30
0.0
 10
4.050829064334114
 20
5.665967912421163
 30
0.0
 10
4.050829064334114
 20
5.655788746011644
 30
0.0
 10
4.050829064334114
 20
5.645602635157855
 30
0.0
 10
4.057006841955828
 20
5.637349857588561
 30
0.0
 10
4.064622119541228
 20
5.637349857588561
 30
0.0
  0
HATCH
  5
303
330
1F
100
AcDbEntity
  8
Layer 1
 62
   254
420
 13358815
100
AcDbHatch
 10
0.0
 20
0.0
 30
0.0
210
0.0
220
0.0
230
1.0
  2
SOLID
 70
     1
 71
     0
 91
        1
 92
        1
 93
        1
 72
     4
 94
        3
 73
     0
 74
     1
 95
       17
 96
       13
 40
0.0
 40
0.0
 40
0.0
 40
0.0
 40
1.0
 40
1.0
 40
1.0
 40
2.0
 40
2.0
 40
2.0
 40
3.0
 40
3.0
 40
3.0
 40
4.0
 40
4.0
 40
4.0
 40
4.0
 10
4.064622119541228
 20
5.637349857588561
 10
4.072238786015482
 20
5.637349857588561
 10
4.078416666666663
 20
5.645602635157855
 10
4.078416666666663
 20
5.655788746011644
 10
4.078416666666663
 20
5.665967912421163
 10
4.072238786015482
 20
5.674220689990458
 10
4.064622119541228
 20
5.674220689990458
 10
4.057006841955828
 20
5.674220689990458
 10
4.050829064334114
 20
5.665967912421163
 10
4.050829064334114
 20
5.655788746011644
 10
4.050829064334114
 20
5.645602635157855
 10
4.057006841955828
 20
5.637349857588561
 10
4.064622119541228
 20
5.637349857588561
 97
        0
 97
        0
 75
     2
 76
     1
 98
        0
  0
SPLINE
  5
304
330
1F
100
AcDbEntity
  8
Layer 1
 62
     7
420
 16777215
370
    13
100
AcDbSpline
210
0.0
220
0.0
230
1.0
 70
     8
 71
     3
 72
    23
 73
    19
 74
     0
 42
0.0000000001
 43
0.0000000001
 12
1.0
 22
0.0
 32
0.0
 13
1.0
 23
0.0
 33
0.0
 40
0.0
 40
0.0
 40
0.0
 40
0.0
 40
1.0
 40
1.0
 40
1.0
 40
2.0
 40
2.0
 40
2.0
 40
3.0
 40
3.0
 40
3.0
 40
4.0
 40
4.0
 40
4.0
 40
5.0
 40
5.0
 40
5.0
 40
6.0
 40
6.0
 40
6.0
 40
6.0
 10
4.509155441644705
 20
5.808247075493555
 30
0.0
 10
4.509155441644705
 20
5.808247075493555
 30
0.0
 10
4.277262391947261
 20
5.785142909410549
 30
0.0
 10
4.277262391947261
 20
5.785502631623684
 30
0.0
 10
4.275051280892007
 20
5.773023465272268
 30
0.0
 10
4.269179058818129
 20
5.77448874301303
 30
0.0
 10
4.258897114633429
 20
5.773023465272268
 30
0.0
 10
4.24863044822612
 20
5.771552631976091
 30
0.0
 10
4.245699892744597
 20
5.782565131697892
 30
0.0
 10
4.239094337355911
 20
5.782565131697892
 30
0.0
 10
4.23249017085608
 20
5.782565131697892
 30
0.0
 10
4.025533231639807
 20
5.762016521105882
 30
0.0
 10
4.025533231639807
 20
5.762016521105882
 30
0.0
 10
4.025533231639807
 20
5.762016521105882
 30
0.0
 10
4.004258232177259
 20
5.741467910513872
 30
0.0
 10
4.004258232177259
 20
5.741467910513872
 30
0.0
 10
4.004258232177259
 20
5.741467910513872
 30
0.0
 10
4.087179063415836
 20
5.511766527427741
 30
0.0
 10
4.087179063415836
 20
5.511766527427741
 30
0.0
  0
SPLINE
  5
305
330
1F
100
AcDbEntity
  8
Layer 1
 62
     7
420
 16777215
370
     9
100
AcDbSpline
210
0.0
220
0.0
230
1.0
 70
     8
 71
     3
 72
     8
 73
     4
 74
     0
 42
0.0000000001
 43
0.0000000001
 12
1.0
 22
0.0
 32
0.0
 13
1.0
 23
0.0
 33
0.0
 40
0.0
 40
0.0
 40
0.0
 40
0.0
 40
1.0
 40
1.0
 40
1.0
 40
1.0
 10
4.372680555555563
 20
5.646680555555551
 30
0.0
 10
4.372680555555563
 20
5.646680555555551
 30
0.0
 10
4.319945724202322
 20
5.641154024159126
 30
0.0
 10
4.287542947243107
 20
5.637736111111116
 30
0.0
  0
POLYLINE
  5
306
330
1F
100
AcDbEntity
  8
Layer 1
 62
     7
420
 16777215
370
     9
100
AcDb2dPolyline
 66
     1
 10
0.0
 20
0.0
 30
0.0
  0
VERTEX
  5
307
330
306
100
AcDbEntity
  8
Layer 1
 62
     7
420
 16777215
370
     9
100
AcDbVertex
100
AcDb2dVertex
 10
4.415947110666012
 20
5.651204023905241
 30
0.0
  0
VERTEX
  5
308
330
306
100
AcDbEntity
  8
Layer 1
 62
     7
420
 16777215
370
     9
100
AcDbVertex
100
AcDb2dVertex
 10
4.392563777923391
 20
5.648742912856303
 30
0.0
  0
SEQEND
  5
309
330
306
100
AcDbEntity
  8
Layer 1
 62
     7
420
 16777215
370
     9
  0
SPLINE
  5
30A
330
1F
100
AcDbEntity
  8
Layer 1
 62
     7
420
 16777215
370
     9
100
AcDbSpline
210
0.0
220
0.0
230
1.0
 70
     8
 71
     3
 72
     8
 73
     4
 74
     0
 42
0.0000000001
 43
0.0000000001
 12
1.0
 22
0.0
 32
0.0
 13
1.0
 23
0.0
 33
0.0
 40
0.0
 40
0.0
 40
0.0
 40
0.0
 40
1.0
 40
1.0
 40
1.0
 40
1.0
 10
4.246520726057193
 20
5.633449857687083
 30
0.0
 10
4.210238782529308
 20
5.629645691116517
 30
0.0
 10
4.173298505684721
 20
5.625766524547847
 30
0.0
 10
4.141486111111109
 20
5.622416666666671
 30
0.0
  0
SPLINE
  5
30B
330
1F
100
AcDbEntity
  8
Layer 1
 62
     7
420
 16777215
370
     9
100
AcDbSpline
210
0.0
220
0.0
230
1.0
 70
     8
 71
     3
 72
     8
 73
     4
 74
     0
 42
0.0000000001
 43
0.0000000001
 12
1.0
 22
0.0
 32
0.0
 13
1.0
 23
0.0
 33
0.0
 40
0.0
 40
0.0
 40
0.0
 40
0.0
 40
1.0
 40
1.0
 40
1.0
 40
1.0
 10
4.10192906304322
 20
5.618265135848459
 30
0.0
 10
4.071674897140838
 20
5.615105413706058
 30
0.0
 10
4.051954064305694
 20
5.613037358202746
 30
0.0
 10
4.051954064305694
 20
5.613037358202746
 30
0.0
  0
SPLINE
  5
30C
330
1F
100
AcDbEntity
  8
Layer 1
 62
     7
420
 16777215
370
     9
100
AcDbSpline
210
0.0
220
0.0
230
1.0
 70
     8
 71
     3
 72
    14
 73
    10
 74
     0
 42
0.0000000001
 43
0.0000000001
 12
1.0
 22
0.0
 32
0.0
 13
1.0
 23
0.0
 33
0.0
 40
0.0
 40
0.0
 40
0.0
 40
0.0
 40
1.0
 40
1.0
 40
1.0
 40
2.0
 40
2.0
 40
2.0
 40
3.0
 40
3.0
 40
3.0
 40
3.0
 10
4.424017943795459
 20
5.632120691053993
 30
0.0
 10
4.430637388072682
 20
5.630648468868963
 30
0.0
 10
4.444580443276006
 20
5.618909580276623
 30
0.0
 10
4.451185998664692
 20
5.628451246702247
 30
0.0
 10
4.457777777777765
 20
5.637992913127871
 30
0.0
 10
4.450438776461346
 20
5.64019152418344
 30
0.0
 10
4.440904054479991
 20
5.646063746257318
 30
0.0
 10
4.431369332498636
 20
5.651937357220049
 30
0.0
 10
4.421088777202789
 20
5.651937357220049
 30
0.0
 10
4.421088777202789
 20
5.651937357220049
 30
0.0
  0
POLYLINE
  5
30D
330
1F
100
AcDbEntity
  8
Layer 1
 62
     7
420
 16777215
370
     9
100
AcDb2dPolyline
 66
     1
 10
0.0
 20
0.0
 30
0.0
  0
VERTEX
  5
30E
330
30D
100
AcDbEntity
  8
Layer 1
 62
     7
420
 16777215
370
     9
100
AcDbVertex
100
AcDb2dVertex
 10
4.057088786398203
 20
5.598361111111116
 30
0.0
  0
VERTEX
  5
30F
330
30D
100
AcDbEntity
  8
Layer 1
 62
     7
420
 16777215
370
     9
100
AcDbVertex
100
AcDb2dVertex
 10
4.410074888592135
 20
5.635056802090932
 30
0.0
  0
SEQEND
  5
310
330
30D
100
AcDbEntity
  8
Layer 1
 62
     7
420
 16777215
370
     9
  0
SPLINE
  5
311
330
1F
100
AcDbEntity
  8
Layer 1
 62
     7
420
 16777215
370
     9
100
AcDbSpline
210
0.0
220
0.0
230
1.0
 70
     8
 71
     3
 72
     8
 73
     4
 74
     0
 42
0.0000000001
 43
0.0000000001
 12
1.0
 22
0.0
 32
0.0
 13
1.0
 23
0.0
 33
0.0
 40
0.0
 40
0.0
 40
0.0
 40
0.0
 40
1.0
 40
1.0
 40
1.0
 40
1.0
 10
4.405422110931896
 20
5.727755410860279
 30
0.0
 10
4.405422110931896
 20
5.727755410860279
 30
0.0
 10
4.352592945599806
 20
5.723367910971117
 30
0.0
 10
4.320122113086756
 20
5.720648466595372
 30
0.0
  0
SPLINE
  5
312
330
1F
100
AcDbEntity
  8
Layer 1
 62
     7
420
 16777215
370
     9
100
AcDbSpline
210
0.0
220
0.0
230
1.0
 70
     8
 71
     3
 72
     8
 73
     4
 74
     0
 42
0.0000000001
 43
0.0000000001
 12
1.0
 22
0.0
 32
0.0
 13
1.0
 23
0.0
 33
0.0
 40
0.0
 40
0.0
 40
0.0
 40
0.0
 40
1.0
 40
1.0
 40
1.0
 40
1.0
 10
4.279012391903052
 20
5.71725124445897
 30
0.0
 10
4.24266239282133
 20
5.714226244535388
 30
0.0
 10
4.205641560423222
 20
5.711147077946507
 30
0.0
 10
4.173766561228452
 20
5.70848874468033
 30
0.0
  0
SPLINE
  5
313
330
1F
100
AcDbEntity
  8
Layer 1
 62
     7
420
 16777215
370
     9
100
AcDbSpline
210
0.0
220
0.0
230
1.0
 70
     8
 71
     3
 72
     8
 73
     4
 74
     0
 42
0.0000000001
 43
0.0000000001
 12
1.0
 22
0.0
 32
0.0
 13
1.0
 23
0.0
 33
0.0
 40
0.0
 40
0.0
 40
0.0
 40
0.0
 40
1.0
 40
1.0
 40
1.0
 40
1.0
 10
4.134127673340926
 20
5.705192911430256
 30
0.0
 10
4.10381378521783
 20
5.702684578160288
 30
0.0
 10
4.02310545392336
 20
5.6957123561142
 30
0.0
 10
4.02310545392336
 20
5.6957123561142
 30
0.0
  0
SPLINE
  5
314
330
1F
100
AcDbEntity
  8
Layer 1
 62
     7
420
 16777215
370
     9
100
AcDbSpline
210
0.0
220
0.0
230
1.0
 70
     8
 71
     3
 72
    17
 73
    13
 74
     0
 42
0.0000000001
 43
0.0000000001
 12
1.0
 22
0.0
 32
0.0
 13
1.0
 23
0.0
 33
0.0
 40
0.0
 40
0.0
 40
0.0
 40
0.0
 40
1.0
 40
1.0
 40
1.0
 40
2.0
 40
2.0
 40
2.0
 40
3.0
 40
3.0
 40
3.0
 40
4.0
 40
4.0
 40
4.0
 40
4.0
 10
4.458740165140524
 20
5.711323466830941
 30
0.0
 10
4.465305555555561
 20
5.709709577982822
 30
0.0
 10
4.472140164802012
 20
5.699815133788332
 30
0.0
 10
4.478963775740744
 20
5.709208333333335
 30
0.0
 10
4.485758220013546
 20
5.718606799980281
 30
0.0
 10
4.48532488669116
 20
5.718824855530329
 30
0.0
 10
4.475910998040086
 20
5.724894299821446
 30
0.0
 10
4.466512387166404
 20
5.730970688556832
 30
0.0
 10
4.463663776127254
 20
5.730617910787966
 30
0.0
 10
4.463663776127254
 20
5.730617910787966
 30
0.0
 10
4.463663776127254
 20
5.730617910787966
 30
0.0
 10
4.455254054117479
 20
5.73290957739674
 30
0.0
 10
4.448377665402303
 20
5.732144299638295
 30
0.0
  0
POLYLINE
  5
315
330
1F
100
AcDbEntity
  8
Layer 1
 62
     7
420
 16777215
370
     9
100
AcDb2dPolyline
 66
     1
 10
0.0
 20
0.0
 30
0.0
  0
VERTEX
  5
316
330
315
100
AcDbEntity
  8
Layer 1
 62
     7
420
 16777215
370
     9
100
AcDbVertex
100
AcDb2dVertex
 10
4.027926287134922
 20
5.680922078710055
 30
0.0
  0
VERTEX
  5
317
330
315
100
AcDbEntity
  8
Layer 1
 62
     7
420
 16777215
370
     9
100
AcDbVertex
100
AcDb2dVertex
 10
4.442572109993408
 20
5.715324855618746
 30
0.0
  0
SEQEND
  5
318
330
315
100
AcDbEntity
  8
Layer 1
 62
     7
420
 16777215
370
     9
  0
SPLINE
  5
319
330
1F
100
AcDbEntity
  8
Layer 1
 62
     7
420
 16777215
370
     9
100
AcDbSpline
210
0.0
220
0.0
230
1.0
 70
    11
 71
     3
 72
    17
 73
    13
 74
     0
 42
0.0000000001
 43
0.0000000001
 12
1.0
 22
0.0
 32
0.0
 13
1.0
 23
0.0
 33
0.0
 40
0.0
 40
0.0
 40
0.0
 40
0.0
 40
1.0
 40
1.0
 40
1.0
 40
2.0
 40
2.0
 40
2.0
 40
3.0
 40
3.0
 40
3.0
 40
4.0
 40
4.0
 40
4.0
 40
4.0
 10
3.988938788119817
 20
5.409519307788488
 30
0.0
 10
3.993422121339891
 20
5.409519307788488
 30
0.0
 10
3.997049899026024
 20
5.417737363136439
 30
0.0
 10
3.997049899026024
 20
5.427883196213466
 30
0.0
 10
3.997049899026024
 20
5.438042918179033
 30
0.0
 10
3.993422121339891
 20
5.446262362415837
 30
0.0
 10
3.988938788119817
 20
5.446262362415837
 30
0.0
 10
3.984462399344011
 20
5.446262362415837
 30
0.0
 10
3.980834621657878
 20
5.438042918179033
 30
0.0
 10
3.980834621657878
 20
5.427883196213466
 30
0.0
 10
3.980834621657878
 20
5.417737363136439
 30
0.0
 10
3.984462399344011
 20
5.409519307788488
 30
0.0
 10
3.988938788119817
 20
5.409519307788488
 30
0.0
  0
HATCH
  5
31A
330
1F
100
AcDbEntity
  8
Layer 1
 62
     7
420
 16777215
100
AcDbHatch
 10
0.0
 20
0.0
 30
0.0
210
0.0
220
0.0
230
1.0
  2
SOLID
 70
     1
 71
     0
 91
        1
 92
        1
 93
        1
 72
     4
 94
        3
 73
     0
 74
     1
 95
       17
 96
       13
 40
0.0
 40
0.0
 40
0.0
 40
0.0
 40
1.0
 40
1.0
 40
1.0
 40
2.0
 40
2.0
 40
2.0
 40
3.0
 40
3.0
 40
3.0
 40
4.0
 40
4.0
 40
4.0
 40
4.0
 10
3.988938788119817
 20
5.409519307788488
 10
3.993422121339891
 20
5.409519307788488
 10
3.997049899026024
 20
5.417737363136439
 10
3.997049899026024
 20
5.427883196213466
 10
3.997049899026024
 20
5.438042918179033
 10
3.993422121339891
 20
5.446262362415837
 10
3.988938788119817
 20
5.446262362415837
 10
3.984462399344011
 20
5.446262362415837
 10
3.980834621657878
 20
5.438042918179033
 10
3.980834621657878
 20
5.427883196213466
 10
3.980834621657878
 20
5.417737363136439
 10
3.984462399344011
 20
5.409519307788488
 10
3.988938788119817
 20
5.409519307788488
 97
        0
 97
        0
 75
     2
 76
     1
 98
        0
  0
SPLINE
  5
31B
330
1F
100
AcDbEntity
  8
Layer 1
 62
     7
420
 16777215
370
     9
100
AcDbSpline
210
0.0
220
0.0
230
1.0
 70
    11
 71
     3
 72
    17
 73
    13
 74
     0
 42
0.0000000001
 43
0.0000000001
 12
1.0
 22
0.0
 32
0.0
 13
1.0
 23
0.0
 33
0.0
 40
0.0
 40
0.0
 40
0.0
 40
0.0
 40
1.0
 40
1.0
 40
1.0
 40
2.0
 40
2.0
 40
2.0
 40
3.0
 40
3.0
 40
3.0
 40
4.0
 40
4.0
 40
4.0
 40
4.0
 10
3.984842954889952
 20
5.409722222222222
 30
0.0
 10
3.989324899221186
 20
5.409722222222222
 30
0.0
 10
3.99295406579616
 20
5.417969307575023
 30
0.0
 10
3.99295406579616
 20
5.428113751763198
 30
0.0
 10
3.99295406579616
 20
5.438259584840226
 30
0.0
 10
3.989324899221186
 20
5.446492917965568
 30
0.0
 10
3.984842954889952
 20
5.446492917965568
 30
0.0
 10
3.980366566114147
 20
5.446492917965568
 30
0.0
 10
3.976738788428015
 20
5.438259584840226
 30
0.0
 10
3.976738788428015
 20
5.428113751763198
 30
0.0
 10
3.976738788428015
 20
5.417969307575023
 30
0.0
 10
3.980366566114147
 20
5.409722222222222
 30
0.0
 10
3.984842954889952
 20
5.409722222222222
 30
0.0
  0
HATCH
  5
31C
330
1F
100
AcDbEntity
  8
Layer 1
 62
   254
420
 13358815
100
AcDbHatch
 10
0.0
 20
0.0
 30
0.0
210
0.0
220
0.0
230
1.0
  2
SOLID
 70
     1
 71
     0
 91
        1
 92
        1
 93
        1
 72
     4
 94
        3
 73
     0
 74
     1
 95
       17
 96
       13
 40
0.0
 40
0.0
 40
0.0
 40
0.0
 40
1.0
 40
1.0
 40
1.0
 40
2.0
 40
2.0
 40
2.0
 40
3.0
 40
3.0
 40
3.0
 40
4.0
 40
4.0
 40
4.0
 40
4.0
 10
3.984842954889952
 20
5.409722222222222
 10
3.989324899221186
 20
5.409722222222222
 10
3.99295406579616
 20
5.417969307575023
 10
3.99295406579616
 20
5.428113751763198
 10
3.99295406579616
 20
5.438259584840226
 10
3.989324899221186
 20
5.446492917965568
 10
3.984842954889952
 20
5.446492917965568
 10
3.980366566114147
 20
5.446492917965568
 10
3.976738788428015
 20
5.438259584840226
 10
3.976738788428015
 20
5.428113751763198
 10
3.976738788428015
 20
5.417969307575023
 10
3.980366566114147
 20
5.409722222222222
 10
3.984842954889952
 20
5.409722222222222
 97
        0
 97
        0
 75
     2
 76
     1
 98
        0
  0
SPLINE
  5
31D
330
1F
100
AcDbEntity
  8
Layer 1
 62
     7
420
 16777215
370
     9
100
AcDbSpline
210
0.0
220
0.0
230
1.0
 70
    11
 71
     3
 72
    17
 73
    13
 74
     0
 42
0.0000000001
 43
0.0000000001
 12
1.0
 22
0.0
 32
0.0
 13
1.0
 23
0.0
 33
0.0
 40
0.0
 40
0.0
 40
0.0
 40
0.0
 40
1.0
 40
1.0
 40
1.0
 40
2.0
 40
2.0
 40
2.0
 40
3.0
 40
3.0
 40
3.0
 40
4.0
 40
4.0
 40
4.0
 40
4.0
 10
4.06920684164763
 20
5.365180555555551
 30
0.0
 10
4.073690174867705
 20
5.365180555555551
 30
0.0
 10
4.077317952553837
 20
5.373399864256498
 30
0.0
 10
4.077317952553837
 20
5.383544308444672
 30
0.0
 10
4.077317952553837
 20
5.393704030410238
 30
0.0
 10
4.073690174867705
 20
5.401937363535581
 30
0.0
 10
4.06920684164763
 20
5.401937363535581
 30
0.0
 10
4.064730452871824
 20
5.401937363535581
 30
0.0
 10
4.061102675185692
 20
5.393704030410238
 30
0.0
 10
4.061102675185692
 20
5.383544308444672
 30
0.0
 10
4.061102675185692
 20
5.373399864256498
 30
0.0
 10
4.064730452871824
 20
5.365180555555551
 30
0.0
 10
4.06920684164763
 20
5.365180555555551
 30
0.0
  0
HATCH
  5
31E
330
1F
100
AcDbEntity
  8
Layer 1
 62
     7
420
 16777215
100
AcDbHatch
 10
0.0
 20
0.0
 30
0.0
210
0.0
220
0.0
230
1.0
  2
SOLID
 70
     1
 71
     0
 91
        1
 92
        1
 93
        1
 72
     4
 94
        3
 73
     0
 74
     1
 95
       17
 96
       13
 40
0.0
 40
0.0
 40
0.0
 40
0.0
 40
1.0
 40
1.0
 40
1.0
 40
2.0
 40
2.0
 40
2.0
 40
3.0
 40
3.0
 40
3.0
 40
4.0
 40
4.0
 40
4.0
 40
4.0
 10
4.06920684164763
 20
5.365180555555551
 10
4.073690174867705
 20
5.365180555555551
 10
4.077317952553837
 20
5.373399864256498
 10
4.077317952553837
 20
5.383544308444672
 10
4.077317952553837
 20
5.393704030410238
 10
4.073690174867705
 20
5.401937363535581
 10
4.06920684164763
 20
5.401937363535581
 10
4.064730452871824
 20
5.401937363535581
 10
4.061102675185692
 20
5.393704030410238
 10
4.061102675185692
 20
5.383544308444672
 10
4.061102675185692
 20
5.373399864256498
 10
4.064730452871824
 20
5.365180555555551
 10
4.06920684164763
 20
5.365180555555551
 97
        0
 97
        0
 75
     2
 76
     1
 98
        0
  0
SPLINE
  5
31F
330
1F
100
AcDbEntity
  8
Layer 1
 62
     7
420
 16777215
370
     9
100
AcDbSpline
210
0.0
220
0.0
230
1.0
 70
    11
 71
     3
 72
    17
 73
    13
 74
     0
 42
0.0000000001
 43
0.0000000001
 12
1.0
 22
0.0
 32
0.0
 13
1.0
 23
0.0
 33
0.0
 40
0.0
 40
0.0
 40
0.0
 40
0.0
 40
1.0
 40
1.0
 40
1.0
 40
2.0
 40
2.0
 40
2.0
 40
3.0
 40
3.0
 40
3.0
 40
4.0
 40
4.0
 40
4.0
 40
4.0
 10
4.065111111111112
 20
5.365397086680887
 30
0.0
 10
4.069592952748987
 20
5.365397086680887
 30
0.0
 10
4.073222222222221
 20
5.373616530917691
 30
0.0
 10
4.073222222222221
 20
5.38376236399472
 30
0.0
 10
4.073222222222221
 20
5.393920697071431
 30
0.0
 10
4.069592952748987
 20
5.402154030196773
 30
0.0
 10
4.065111111111112
 20
5.402154030196773
 30
0.0
 10
4.060634619641961
 20
5.402154030196773
 30
0.0
 10
4.057006841955828
 20
5.393920697071431
 30
0.0
 10
4.057006841955828
 20
5.38376236399472
 30
0.0
 10
4.057006841955828
 20
5.373616530917691
 30
0.0
 10
4.060634619641961
 20
5.365397086680887
 30
0.0
 10
4.065111111111112
 20
5.365397086680887
 30
0.0
  0
HATCH
  5
320
330
1F
100
AcDbEntity
  8
Layer 1
 62
   254
420
 13358815
100
AcDbHatch
 10
0.0
 20
0.0
 30
0.0
210
0.0
220
0.0
230
1.0
  2
SOLID
 70
     1
 71
     0
 91
        1
 92
        1
 93
        1
 72
     4
 94
        3
 73
     0
 74
     1
 95
       17
 96
       13
 40
0.0
 40
0.0
 40
0.0
 40
0.0
 40
1.0
 40
1.0
 40
1.0
 40
2.0
 40
2.0
 40
2.0
 40
3.0
 40
3.0
 40
3.0
 40
4.0
 40
4.0
 40
4.0
 40
4.0
 10
4.065111111111112
 20
5.365397086680887
 10
4.069592952748987
 20
5.365397086680887
 10
4.073222222222221
 20
5.373616530917691
 10
4.073222222222221
 20
5.38376236399472
 10
4.073222222222221
 20
5.393920697071431
 10
4.069592952748987
 20
5.402154030196773
 10
4.065111111111112
 20
5.402154030196773
 10
4.060634619641961
 20
5.402154030196773
 10
4.057006841955828
 20
5.393920697071431
 10
4.057006841955828
 20
5.38376236399472
 10
4.057006841955828
 20
5.373616530917691
 10
4.060634619641961
 20
5.365397086680887
 10
4.065111111111112
 20
5.365397086680887
 97
        0
 97
        0
 75
     2
 76
     1
 98
        0
  0
SPLINE
  5
321
330
1F
100
AcDbEntity
  8
Layer 1
 62
     7
420
 16777215
370
     9
100
AcDbSpline
210
0.0
220
0.0
230
1.0
 70
     8
 71
     3
 72
     8
 73
     4
 74
     0
 42
0.0000000001
 43
0.0000000001
 12
1.0
 22
0.0
 32
0.0
 13
1.0
 23
0.0
 33
0.0
 40
0.0
 40
0.0
 40
0.0
 40
0.0
 40
1.0
 40
1.0
 40
1.0
 40
1.0
 10
4.425102665990279
 20
5.659804023687987
 30
0.0
 10
4.434867943521365
 20
5.675170689966459
 30
0.0
 10
4.444660998829527
 20
5.690558189577738
 30
0.0
 10
4.453395720831091
 20
5.704310967008092
 30
0.0
  0
SPLINE
  5
322
330
1F
100
AcDbEntity
  8
Layer 1
 62
     7
420
 16777215
370
     9
100
AcDbSpline
210
0.0
220
0.0
230
1.0
 70
     8
 71
     3
 72
     8
 73
     4
 74
     0
 42
0.0000000001
 43
0.0000000001
 12
1.0
 22
0.0
 32
0.0
 13
1.0
 23
0.0
 33
0.0
 40
0.0
 40
0.0
 40
0.0
 40
0.0
 40
1.0
 40
1.0
 40
1.0
 40
1.0
 10
4.36606100081513
 20
5.566806803815072
 30
0.0
 10
4.36606100081513
 20
5.566806803815072
 30
0.0
 10
4.381754055974246
 20
5.591524858746197
 30
0.0
 10
4.401760999913273
 20
5.622992913506803
 30
0.0
  0
SPLINE
  5
323
330
1F
100
AcDbEntity
  8
Layer 1
 62
     7
420
 16777215
370
     9
100
AcDbSpline
210
0.0
220
0.0
230
1.0
 70
     8
 71
     3
 72
     8
 73
     4
 74
     0
 42
0.0000000001
 43
0.0000000001
 12
1.0
 22
0.0
 32
0.0
 13
1.0
 23
0.0
 33
0.0
 40
0.0
 40
0.0
 40
0.0
 40
0.0
 40
1.0
 40
1.0
 40
1.0
 40
1.0
 10
4.478515164640966
 20
5.743829021565337
 30
0.0
 10
4.482584608982607
 20
5.750230410292513
 30
0.0
 10
4.484930555555567
 20
5.75394013242102
 30
0.0
 10
4.484930555555567
 20
5.75394013242102
 30
0.0
  0
POLYLINE
  5
324
330
1F
100
AcDbEntity
  8
Layer 1
 62
     7
420
 16777215
370
     9
100
AcDb2dPolyline
 66
     1
 10
0.0
 20
0.0
 30
0.0
  0
VERTEX
  5
325
330
324
100
AcDbEntity
  8
Layer 1
 62
     7
420
 16777215
370
     9
100
AcDbVertex
100
AcDb2dVertex
 10
4.370456834037415
 20
5.552863748611748
 30
0.0
  0
VERTEX
  5
326
330
324
100
AcDbEntity
  8
Layer 1
 62
     7
420
 16777215
370
     9
100
AcDbVertex
100
AcDb2dVertex
 10
4.437974887887322
 20
5.519835971668322
 30
0.0
  0
SEQEND
  5
327
330
324
100
AcDbEntity
  8
Layer 1
 62
     7
420
 16777215
370
     9
  0
POLYLINE
  5
328
330
1F
100
AcDbEntity
  8
Layer 1
 62
     7
420
 16777215
370
    13
100
AcDb2dPolyline
 66
     1
 10
0.0
 20
0.0
 30
0.0
  0
VERTEX
  5
329
330
328
100
AcDbEntity
  8
Layer 1
 62
     7
420
 16777215
370
    13
100
AcDbVertex
100
AcDb2dVertex
 10
3.991048510288755
 20
5.744405410439665
 30
0.0
  0
VERTEX
  5
32A
330
328
100
AcDbEntity
  8
Layer 1
 62
     7
420
 16777215
370
    13
100
AcDbVertex
100
AcDb2dVertex
 10
4.089938785568342
 20
5.469415139608726
 30
0.0
  0
VERTEX
  5
32B
330
328
100
AcDbEntity
  8
Layer 1
 62
     7
420
 16777215
370
    13
100
AcDbVertex
100
AcDb2dVertex
 10
4.087986111111111
 20
5.32294444444445
 30
0.0
  0
SEQEND
  5
32C
330
328
100
AcDbEntity
  8
Layer 1
 62
     7
420
 16777215
370
    13
  0
POLYLINE
  5
32D
330
1F
100
AcDbEntity
  8
Layer 1
 62
     7
420
 16777215
370
    13
100
AcDb2dPolyline
 66
     1
 10
0.0
 20
0.0
 30
0.0
  0
VERTEX
  5
32E
330
32D
100
AcDbEntity
  8
Layer 1
 62
     7
420
 16777215
370
    13
100
AcDbVertex
100
AcDb2dVertex
 10
4.503038775132558
 20
5.806341519986138
 30
0.0
  0
VERTEX
  5
32F
330
32D
100
AcDbEntity
  8
Layer 1
 62
     7
420
 16777215
370
    13
100
AcDbVertex
100
AcDb2dVertex
 10
4.448337387625543
 20
5.499694444444445
 30
0.0
  0
SEQEND
  5
330
330
32D
100
AcDbEntity
  8
Layer 1
 62
     7
420
 16777215
370
    13
  0
MTEXT
  5
332
330
1F
100
AcDbEntity
  8
callouts
 62
   250
420
  2301728
100
AcDbMText
 10
4.194003952874078
 20
6.316429641511704
 30
0.0
 40
0.118
 41
0.0
 46
0.0
 71
     7
 72
     1
  1
\fHelvetica LT Std Condensed|b0|i0|c0|p34;\W1;Rafter / Truss
 73
     1
 44
1.0
  0
MTEXT
  5
333
330
1F
100
AcDbEntity
  8
callouts
 62
   250
420
  2301728
100
AcDbMText
 10
5.499445385403103
 20
5.283092127905952
 30
0.0
 40
0.118
 41
0.0
 46
0.0
 71
     7
 72
     1
  1
\fHelvetica LT Std Condensed|b0|i0|c0|p34;\W1;Top Plate
 73
     1
 44
1.0
  0
MTEXT
  5
334
330
1F
100
AcDbEntity
  8
callouts
 62
   250
420
  2301728
100
AcDbMText
 10
3.159662087758382
 20
4.067168553670247
 30
0.0
 40
0.118
 41
0.0
 46
0.0
 71
     7
 72
     1
  1
\fHelvetica Neue LT Std 55 Roman|b0|i0|c0|p34;\W1;SIMPSON Strong-Tie\H0.068794;®\H0.118; ^C
 73
     1
 44
1.0
  0
MTEXT
  5
335
330
1F
100
AcDbEntity
  8
callouts
 62
   250
420
  2301728
100
AcDbMText
 10
3.368280251820882
 20
3.867163128323025
 30
0.0
 40
0.118
 41
0.0
 46
0.0
 71
     7
 72
     1
  1
\fHelvetica Neue LT Std 55 Roman|b0|i0|c0|p34;\W1;TC24 Installation 
 73
     1
 44
1.0
  0
SPLINE
  5
336
330
1F
100
AcDbEntity
  8
callouts
 62
   250
420
  2301728
370
    30
100
AcDbSpline
210
0.0
220
0.0
230
1.0
 70
     8
 71
     3
 72
     8
 73
     4
 74
     0
 42
0.0000000001
 43
0.0000000001
 12
1.0
 22
0.0
 32
0.0
 13
1.0
 23
0.0
 33
0.0
 40
0.0
 40
0.0
 40
0.0
 40
0.0
 40
1.0
 40
1.0
 40
1.0
 40
1.0
 10
3.731846099484225
 20
6.174585607316758
 30
0.0
 10
3.731846099484225
 20
6.174585607316758
 30
0.0
 10
3.946611345430508
 20
6.267531839301606
 30
0.0
 10
4.117017591125684
 20
6.360478071286429
 30
0.0
  0
MTEXT
  5
337
330
1F
100
AcDbEntity
  8
callouts
 62
   250
420
  2301728
100
AcDbMText
 10
4.940579096476236
 20
5.973373701175054
 30
0.0
 40
0.118
 41
0.0
 46
0.0
 71
     7
 72
     1
  1
\fHelvetica LT Std Condensed|b0|i0|c0|p34;\W1;TC24
 73
     1
 44
1.0
  0
SPLINE
  5
338
330
1F
100
AcDbEntity
  8
callouts
 62
   250
420
  2301728
370
    30
100
AcDbSpline
210
0.0
220
0.0
230
1.0
 70
     8
 71
     3
 72
     8
 73
     4
 74
     0
 42
0.0000000001
 43
0.0000000001
 12
1.0
 22
0.0
 32
0.0
 13
1.0
 23
0.0
 33
0.0
 40
0.0
 40
0.0
 40
0.0
 40
0.0
 40
1.0
 40
1.0
 40
1.0
 40
1.0
 10
4.528605492964212
 20
5.831529668629059
 30
0.0
 10
4.528605492964212
 20
5.831529668629059
 30
0.0
 10
4.721191238784942
 20
5.9375
 30
0.0
 10
4.913776984605672
 20
6.017422132598729
 30
0.0
  0
SPLINE
  5
339
330
1F
100
AcDbEntity
  8
callouts
 62
   250
420
  2301728
370
    30
100
AcDbSpline
210
0.0
220
0.0
230
1.0
 70
     8
 71
     3
 72
     8
 73
     4
 74
     0
 42
0.0000000001
 43
0.0000000001
 12
1.0
 22
0.0
 32
0.0
 13
1.0
 23
0.0
 33
0.0
 40
0.0
 40
0.0
 40
0.0
 40
0.0
 40
1.0
 40
1.0
 40
1.0
 40
1.0
 10
5.329616532029225
 20
5.105065947913064
 30
0.0
 10
5.329616532029225
 20
5.105065947913064
 30
0.0
 10
5.556319320578445
 20
5.163108678470381
 30
0.0
 10
5.73921422732557
 20
5.228122090148745
 30
0.0
  0
ENDSEC
  0
SECTION
  2
OBJECTS
  0
DICTIONARY
  5
C
330
0
100
AcDbDictionary
281
     1
  3
ACAD_GROUP
350
D
  3
ACAD_LAYOUT
350
1A
  3
ACAD_MATERIAL
350
3B
  3
ACAD_MLEADERSTYLE
350
33B
  3
ACAD_MLINESTYLE
350
17
  3
ACAD_PLOTSETTINGS
350
19
  3
ACAD_PLOTSTYLENAME
350
E
  3
ACAD_TABLESTYLE
350
33A
  3
ACAD_VISUALSTYLE
350
2A
  0
SUN
  5
3F
330
29
100
AcDbSun
 90
        1
290
     0
 63
     7
421
 16777215
 40
1.0
291
     1
 91
  2455826
 92
 54000000
292
     0
 70
     2
 71
   256
280
     1
  0
DICTIONARY
  5
D
102
{ACAD_REACTORS
330
C
102
}
330
C
100
AcDbDictionary
281
     1
  0
DICTIONARY
  5
1A
102
{ACAD_REACTORS
330
C
102
}
330
C
100
AcDbDictionary
281
     1
  3
Layout1
350
1E
  3
Layout2
350
26
  3
Model
350
22
  0
DICTIONARY
  5
3B
102
{ACAD_REACTORS
330
C
102
}
330
C
100
AcDbDictionary
281
     1
  3
ByBlock
350
3D
  3
ByLayer
350
3C
  3
Global
350
3E
  0
DICTIONARY
  5
33B
102
{ACAD_REACTORS
330
C
102
}
330
C
100
AcDbDictionary
281
     1
  0
DICTIONARY
  5
17
102
{ACAD_REACTORS
330
C
102
}
330
C
100
AcDbDictionary
281
     1
  3
Standard
350
18
  0
DICTIONARY
  5
19
102
{ACAD_REACTORS
330
C
102
}
330
C
100
AcDbDictionary
281
     1
  0
ACDBDICTIONARYWDFLT
  5
E
102
{ACAD_REACTORS
330
C
102
}
330
C
100
AcDbDictionary
281
     1
  3
Normal
350
F
100
AcDbDictionaryWithDefault
340
F
  0
DICTIONARY
  5
33A
102
{ACAD_REACTORS
330
C
102
}
330
C
100
AcDbDictionary
281
     1
  0
DICTIONARY
  5
2A
102
{ACAD_REACTORS
330
C
102
}
330
C
100
AcDbDictionary
281
     1
  3
2dWireframe
350
2F
  3
3D Hidden
350
31
  3
3dWireframe
350
30
  3
Basic
350
32
  3
Brighten
350
36
  3
ColorChange
350
3A
  3
Conceptual
350
34
  3
Dim
350
35
  3
Facepattern
350
39
  3
Flat
350
2B
  3
FlatWithEdges
350
2C
  3
Gouraud
350
2D
  3
GouraudWithEdges
350
2E
  3
Linepattern
350
38
  3
Realistic
350
33
  3
Thicken
350
37
  0
LAYOUT
  5
1E
102
{ACAD_REACTORS
330
1A
102
}
330
1A
100
AcDbPlotSettings
  1

  2
none_device
  4

  6

 40
0.0
 41
0.0
 42
0.0
 43
0.0
 44
0.0
 45
0.0
 46
0.0
 47
0.0
 48
0.0
 49
0.0
140
0.0
141
0.0
142
1.0
143
1.0
 70
   688
 72
     0
 73
     0
 74
     5
  7

 75
    16
 76
     0
 77
     2
 78
   300
147
1.0
148
0.0
149
0.0
100
AcDbLayout
  1
Layout1
 70
     1
 71
     1
 10
0.0
 20
0.0
 11
12.0
 21
9.0
 12
0.0
 22
0.0
 32
0.0
 14
1.000000000000000E+20
 24
1.000000000000000E+20
 34
1.000000000000000E+20
 15
-1.000000000000000E+20
 25
-1.000000000000000E+20
 35
-1.000000000000000E+20
146
0.0
 13
0.0
 23
0.0
 33
0.0
 16
1.0
 26
0.0
 36
0.0
 17
0.0
 27
1.0
 37
0.0
 76
     0
330
1B
  0
LAYOUT
  5
26
102
{ACAD_REACTORS
330
1A
102
}
330
1A
100
AcDbPlotSettings
  1

  2
none_device
  4

  6

 40
0.0
 41
0.0
 42
0.0
 43
0.0
 44
0.0
 45
0.0
 46
0.0
 47
0.0
 48
0.0
 49
0.0
140
0.0
141
0.0
142
1.0
143
1.0
 70
   688
 72
     0
 73
     0
 74
     5
  7

 75
    16
 76
     0
 77
     2
 78
   300
147
1.0
148
0.0
149
0.0
100
AcDbLayout
  1
Layout2
 70
     1
 71
     2
 10
0.0
 20
0.0
 11
0.0
 21
0.0
 12
0.0
 22
0.0
 32
0.0
 14
0.0
 24
0.0
 34
0.0
 15
0.0
 25
0.0
 35
0.0
146
0.0
 13
0.0
 23
0.0
 33
0.0
 16
1.0
 26
0.0
 36
0.0
 17
0.0
 27
1.0
 37
0.0
 76
     0
330
23
  0
LAYOUT
  5
22
102
{ACAD_REACTORS
330
1A
102
}
330
1A
100
AcDbPlotSettings
  1

  2
none_device
  4

  6

 40
0.0
 41
0.0
 42
0.0
 43
0.0
 44
0.0
 45
0.0
 46
0.0
 47
0.0
 48
0.0
 49
0.0
140
0.0
141
0.0
142
1.0
143
1.0
 70
  1712
 72
     0
 73
     0
 74
     0
  7

 75
     0
 76
     0
 77
     2
 78
   300
147
1.0
148
0.0
149
0.0
100
AcDbLayout
  1
Model
 70
     1
 71
     0
 10
0.0
 20
0.0
 11
12.0
 21
9.0
 12
0.0
 22
0.0
 32
0.0
 14
1.000000000000000E+20
 24
1.000000000000000E+20
 34
1.000000000000000E+20
 15
-1.000000000000000E+20
 25
-1.000000000000000E+20
 35
-1.000000000000000E+20
146
0.0
 13
0.0
 23
0.0
 33
0.0
 16
1.0
 26
0.0
 36
0.0
 17
0.0
 27
1.0
 37
0.0
 76
     0
330
1F
331
29
  0
MATERIAL
  5
3D
102
{ACAD_REACTORS
330
3B
102
}
330
3B
100
AcDbMaterial
  1
ByBlock
 72
     1
 94
      127
  0
MATERIAL
  5
3C
102
{ACAD_REACTORS
330
3B
102
}
330
3B
100
AcDbMaterial
  1
ByLayer
 72
     1
 94
      127
  0
MATERIAL
  5
3E
102
{ACAD_REACTORS
330
3B
102
}
330
3B
100
AcDbMaterial
  1
Global
 72
     1
 94
      127
  0
MLINESTYLE
  5
18
102
{ACAD_REACTORS
330
17
102
}
330
17
100
AcDbMlineStyle
  2
Standard
 70
     0
  3

 62
   256
 51
90.0
 52
90.0
 71
     2
 49
0.5
 62
   256
  6
BYLAYER
 49
-0.5
 62
   256
  6
BYLAYER
  0
ACDBPLACEHOLDER
  5
F
102
{ACAD_REACTORS
330
E
102
}
330
E
  0
VISUALSTYLE
  5
2F
102
{ACAD_REACTORS
330
2A
102
}
330
2A
100
AcDbVisualStyle
  2
2dWireframe
 70
     4
177
     2
291
     0
 71
     0
176
     1
 72
     2
176
     1
 73
     0
176
     1
 90
        0
176
     1
 40
-0.6
176
     1
 41
-30.0
176
     1
 62
     5
 63
     7
421
 16777215
176
     1
 74
     1
176
     1
 91
        4
176
     1
 64
     7
176
     1
 65
   257
176
     1
 75
     1
176
     1
175
     1
176
     1
 42
1.0
176
     1
 92
        0
176
     1
 66
   257
176
     1
 43
1.0
176
     1
 76
     1
176
     1
 77
     6
176
     1
 78
     2
176
     1
 67
     7
176
     1
 79
     5
176
     1
170
     0
176
     1
171
     0
176
     1
290
     0
176
     1
 93
        1
176
     1
 44
0.0
176
     1
173
     0
176
     1
  0
VISUALSTYLE
  5
31
102
{ACAD_REACTORS
330
2A
102
}
330
2A
100
AcDbVisualStyle
  2
3D Hidden
 70
     6
177
     2
291
     0
 71
     1
176
     1
 72
     2
176
     1
 73
     2
176
     1
 90
        0
176
     1
 40
-0.6
176
     1
 41
-30.0
176
     1
 62
     5
 63
     7
421
 16777215
176
     1
 74
     2
176
     1
 91
        2
176
     1
 64
     7
176
     1
 65
   257
176
     1
 75
     2
176
     1
175
     1
176
     1
 42
40.0
176
     1
 92
        0
176
     1
 66
   257
176
     1
 43
1.0
176
     1
 76
     1
176
     1
 77
     6
176
     1
 78
     2
176
     1
 67
     7
176
     1
 79
     3
176
     1
170
     0
176
     1
171
     0
176
     1
290
     0
176
     1
 93
        1
176
     1
 44
0.0
176
     1
173
     0
176
     1
  0
VISUALSTYLE
  5
30
102
{ACAD_REACTORS
330
2A
102
}
330
2A
100
AcDbVisualStyle
  2
3dWireframe
 70
     5
177
     2
291
     0
 71
     0
176
     1
 72
     2
176
     1
 73
     0
176
     1
 90
        0
176
     1
 40
-0.6
176
     1
 41
-30.0
176
     1
 62
     5
 63
     7
421
 16777215
176
     1
 74
     1
176
     1
 91
        4
176
     1
 64
     7
176
     1
 65
   257
176
     1
 75
     1
176
     1
175
     1
176
     1
 42
1.0
176
     1
 92
        0
176
     1
 66
   257
176
     1
 43
1.0
176
     1
 76
     1
176
     1
 77
     6
176
     1
 78
     2
176
     1
 67
     7
176
     1
 79
     5
176
     1
170
     0
176
     1
171
     0
176
     1
290
     0
176
     1
 93
        1
176
     1
 44
0.0
176
     1
173
     0
176
     1
  0
VISUALSTYLE
  5
32
102
{ACAD_REACTORS
330
2A
102
}
330
2A
100
AcDbVisualStyle
  2
Basic
 70
     7
177
     2
291
     1
 71
     1
176
     1
 72
     0
176
     1
 73
     1
176
     1
 90
        0
176
     1
 40
-0.6
176
     1
 41
-30.0
176
     1
 62
     5
 63
     7
421
 16777215
176
     1
 74
     0
176
     1
 91
        4
176
     1
 64
     7
176
     1
 65
   257
176
     1
 75
     1
176
     1
175
     1
176
     1
 42
1.0
176
     1
 92
        8
176
     1
 66
     7
176
     1
 43
1.0
176
     1
 76
     1
176
     1
 77
     6
176
     1
 78
     2
176
     1
 67
     7
176
     1
 79
     5
176
     1
170
     0
176
     1
171
     0
176
     1
290
     0
176
     1
 93
        1
176
     1
 44
0.0
176
     1
173
     0
176
     1
  0
VISUALSTYLE
  5
36
102
{ACAD_REACTORS
330
2A
102
}
330
2A
100
AcDbVisualStyle
  2
Brighten
 70
    12
177
     2
291
     1
 71
     2
176
     1
 72
     2
176
     1
 73
     0
176
     1
 90
        0
176
     1
 40
-0.6
176
     1
 41
-30.0
176
     1
 62
     5
 63
     7
421
 16777215
176
     1
 74
     1
176
     1
 91
        4
176
     1
 64
     7
176
     1
 65
   257
176
     1
 75
     1
176
     1
175
     1
176
     1
 42
1.0
176
     1
 92
        8
176
     1
 66
     7
176
     1
 43
1.0
176
     1
 76
     1
176
     1
 77
     6
176
     1
 78
     2
176
     1
 67
     7
176
     1
 79
     5
176
     1
170
     0
176
     1
171
     0
176
     1
290
     0
176
     1
 93
        1
176
     1
 44
50.0
176
     1
173
     0
176
     1
  0
VISUALSTYLE
  5
3A
102
{ACAD_REACTORS
330
2A
102
}
330
2A
100
AcDbVisualStyle
  2
ColorChange
 70
    16
177
     2
291
     1
 71
     2
176
     1
 72
     2
176
     1
 73
     3
176
     1
 90
        0
176
     1
 40
-0.6
176
     1
 41
-30.0
176
     1
 62
     5
 63
     8
421
  8421504
176
     1
 74
     1
176
     1
 91
        4
176
     1
 64
     7
176
     1
 65
   257
176
     1
 75
     1
176
     1
175
     1
176
     1
 42
1.0
176
     1
 92
        8
176
     1
 66
     8
424
  8421504
176
     1
 43
1.0
176
     1
 76
     1
176
     1
 77
     6
176
     1
 78
     2
176
     1
 67
     7
176
     1
 79
     5
176
     1
170
     0
176
     1
171
     0
176
     1
290
     0
176
     1
 93
        1
176
     1
 44
0.0
176
     1
173
     0
176
     1
  0
VISUALSTYLE
  5
34
102
{ACAD_REACTORS
330
2A
102
}
330
2A
100
AcDbVisualStyle
  2
Conceptual
 70
     9
177
     2
291
     0
 71
     3
176
     1
 72
     2
176
     1
 73
     0
176
     1
 90
        0
176
     1
 40
-0.6
176
     1
 41
-30.0
176
     1
 62
     5
 63
     7
421
 16777215
176
     1
 74
     2
176
     1
 91
        2
176
     1
 64
     7
176
     1
 65
   257
176
     1
 75
     1
176
     1
175
     1
176
     1
 42
40.0
176
     1
 92
        8
176
     1
 66
     7
176
     1
 43
1.0
176
     1
 76
     1
176
     1
 77
     6
176
     1
 78
     2
176
     1
 67
     7
176
     1
 79
     3
176
     1
170
     0
176
     1
171
     0
176
     1
290
     0
176
     1
 93
        1
176
     1
 44
0.0
176
     1
173
     0
176
     1
  0
VISUALSTYLE
  5
35
102
{ACAD_REACTORS
330
2A
102
}
330
2A
100
AcDbVisualStyle
  2
Dim
 70
    11
177
     2
291
     1
 71
     2
176
     1
 72
     2
176
     1
 73
     0
176
     1
 90
        0
176
     1
 40
-0.6
176
     1
 41
-30.0
176
     1
 62
     5
 63
     7
421
 16777215
176
     1
 74
     1
176
     1
 91
        4
176
     1
 64
     7
176
     1
 65
   257
176
     1
 75
     1
176
     1
175
     1
176
     1
 42
1.0
176
     1
 92
        8
176
     1
 66
     7
176
     1
 43
1.0
176
     1
 76
     1
176
     1
 77
     6
176
     1
 78
     2
176
     1
 67
     7
176
     1
 79
     5
176
     1
170
     0
176
     1
171
     0
176
     1
290
     0
176
     1
 93
        1
176
     1
 44
-50.0
176
     1
173
     0
176
     1
  0
VISUALSTYLE
  5
39
102
{ACAD_REACTORS
330
2A
102
}
330
2A
100
AcDbVisualStyle
  2
Facepattern
 70
    15
177
     2
291
     1
 71
     2
176
     1
 72
     2
176
     1
 73
     0
176
     1
 90
        0
176
     1
 40
-0.6
176
     1
 41
-30.0
176
     1
 62
     5
 63
     7
421
 16777215
176
     1
 74
     1
176
     1
 91
        4
176
     1
 64
     7
176
     1
 65
   257
176
     1
 75
     1
176
     1
175
     1
176
     1
 42
1.0
176
     1
 92
        8
176
     1
 66
     7
176
     1
 43
1.0
176
     1
 76
     1
176
     1
 77
     6
176
     1
 78
     2
176
     1
 67
     7
176
     1
 79
     5
176
     1
170
     0
176
     1
171
     0
176
     1
290
     0
176
     1
 93
        1
176
     1
 44
0.0
176
     1
173
     0
176
     1
  0
VISUALSTYLE
  5
2B
102
{ACAD_REACTORS
330
2A
102
}
330
2A
100
AcDbVisualStyle
  2
Flat
 70
     0
177
     2
291
     1
 71
     2
176
     1
 72
     1
176
     1
 73
     1
176
     1
 90
        2
176
     1
 40
-0.6
176
     1
 41
30.0
176
     1
 62
     5
 63
     7
421
 16777215
176
     1
 74
     0
176
     1
 91
        4
176
     1
 64
     7
176
     1
 65
   257
176
     1
 75
     1
176
     1
175
     1
176
     1
 42
1.0
176
     1
 92
        8
176
     1
 66
     7
176
     1
 43
1.0
176
     1
 76
     1
176
     1
 77
     6
176
     1
 78
     2
176
     1
 67
     7
176
     1
 79
     5
176
     1
170
     0
176
     1
171
     0
176
     1
290
     0
176
     1
 93
       13
176
     1
 44
0.0
176
     1
173
     0
176
     1
  0
VISUALSTYLE
  5
2C
102
{ACAD_REACTORS
330
2A
102
}
330
2A
100
AcDbVisualStyle
  2
FlatWithEdges
 70
     1
177
     2
291
     1
 71
     2
176
     1
 72
     1
176
     1
 73
     1
176
     1
 90
        2
176
     1
 40
-0.6
176
     1
 41
30.0
176
     1
 62
     5
 63
     7
421
 16777215
176
     1
 74
     1
176
     1
 91
        4
176
     1
 64
     7
176
     1
 65
   257
176
     1
 75
     1
176
     1
175
     1
176
     1
 42
1.0
176
     1
 92
        0
176
     1
 66
   257
176
     1
 43
1.0
176
     1
 76
     1
176
     1
 77
     6
176
     1
 78
     2
176
     1
 67
     7
176
     1
 79
     5
176
     1
170
     0
176
     1
171
     0
176
     1
290
     0
176
     1
 93
       13
176
     1
 44
0.0
176
     1
173
     0
176
     1
  0
VISUALSTYLE
  5
2D
102
{ACAD_REACTORS
330
2A
102
}
330
2A
100
AcDbVisualStyle
  2
Gouraud
 70
     2
177
     2
291
     1
 71
     2
176
     1
 72
     2
176
     1
 73
     1
176
     1
 90
        2
176
     1
 40
-0.6
176
     1
 41
30.0
176
     1
 62
     5
 63
     7
421
 16777215
176
     1
 74
     0
176
     1
 91
        4
176
     1
 64
     7
176
     1
 65
   257
176
     1
 75
     1
176
     1
175
     1
176
     1
 42
1.0
176
     1
 92
        0
176
     1
 66
     7
176
     1
 43
1.0
176
     1
 76
     1
176
     1
 77
     6
176
     1
 78
     2
176
     1
 67
     7
176
     1
 79
     5
176
     1
170
     0
176
     1
171
     0
176
     1
290
     0
176
     1
 93
       13
176
     1
 44
0.0
176
     1
173
     0
176
     1
  0
VISUALSTYLE
  5
2E
102
{ACAD_REACTORS
330
2A
102
}
330
2A
100
AcDbVisualStyle
  2
GouraudWithEdges
 70
     3
177
     2
291
     1
 71
     2
176
     1
 72
     2
176
     1
 73
     1
176
     1
 90
        2
176
     1
 40
-0.6
176
     1
 41
30.0
176
     1
 62
     5
 63
     7
421
 16777215
176
     1
 74
     1
176
     1
 91
        4
176
     1
 64
     7
176
     1
 65
   257
176
     1
 75
     1
176
     1
175
     1
176
     1
 42
1.0
176
     1
 92
        0
176
     1
 66
   257
176
     1
 43
1.0
176
     1
 76
     1
176
     1
 77
     6
176
     1
 78
     2
176
     1
 67
     7
176
     1
 79
     5
176
     1
170
     0
176
     1
171
     0
176
     1
290
     0
176
     1
 93
       13
176
     1
 44
0.0
176
     1
173
     0
176
     1
  0
VISUALSTYLE
  5
38
102
{ACAD_REACTORS
330
2A
102
}
330
2A
100
AcDbVisualStyle
  2
Linepattern
 70
    14
177
     2
291
     1
 71
     2
176
     1
 72
     2
176
     1
 73
     0
176
     1
 90
        0
176
     1
 40
-0.6
176
     1
 41
-30.0
176
     1
 62
     5
 63
     7
421
 16777215
176
     1
 74
     1
176
     1
 91
        4
176
     1
 64
     7
176
     1
 65
   257
176
     1
 75
     7
176
     1
175
     7
176
     1
 42
1.0
176
     1
 92
        8
176
     1
 66
     7
176
     1
 43
1.0
176
     1
 76
     1
176
     1
 77
     6
176
     1
 78
     2
176
     1
 67
     7
176
     1
 79
     5
176
     1
170
     0
176
     1
171
     0
176
     1
290
     0
176
     1
 93
        1
176
     1
 44
0.0
176
     1
173
     0
176
     1
  0
VISUALSTYLE
  5
33
102
{ACAD_REACTORS
330
2A
102
}
330
2A
100
AcDbVisualStyle
  2
Realistic
 70
     8
177
     2
291
     0
 71
     2
176
     1
 72
     2
176
     1
 73
     0
176
     1
 90
        0
176
     1
 40
-0.6
176
     1
 41
-30.0
176
     1
 62
     5
 63
     7
421
 16777215
176
     1
 74
     1
176
     1
 91
        0
176
     1
 64
     7
176
     1
 65
   257
176
     1
 75
     1
176
     1
175
     1
176
     1
 42
1.0
176
     1
 92
        8
176
     1
 66
     8
424
  7895160
176
     1
 43
1.0
176
     1
 76
     1
176
     1
 77
     6
176
     1
 78
     2
176
     1
 67
     7
176
     1
 79
     5
176
     1
170
     0
176
     1
171
     0
176
     1
290
     0
176
     1
 93
       13
176
     1
 44
0.0
176
     1
173
     0
176
     1
  0
VISUALSTYLE
  5
37
102
{ACAD_REACTORS
330
2A
102
}
330
2A
100
AcDbVisualStyle
  2
Thicken
 70
    13
177
     2
291
     1
 71
     2
176
     1
 72
     2
176
     1
 73
     0
176
     1
 90
        0
176
     1
 40
-0.6
176
     1
 41
-30.0
176
     1
 62
     5
 63
     7
421
 16777215
176
     1
 74
     1
176
     1
 91
        4
176
     1
 64
     7
176
     1
 65
   257
176
     1
 75
     1
176
     1
175
     1
176
     1
 42
1.0
176
     1
 92
       12
176
     1
 66
     7
176
     1
 43
1.0
176
     1
 76
     1
176
     1
 77
     6
176
     1
 78
     2
176
     1
 67
     7
176
     1
 79
     5
176
     1
170
     0
176
     1
171
     0
176
     1
290
     0
176
     1
 93
        1
176
     1
 44
0.0
176
     1
173
     0
176
     1
  0
ENDSEC
  0
EOF
