  0
SECTION
  2
HEADER
  9
$ACADVER
  1
AC1024
  9
$ACADMAINTVER
 70
     6
  9
$DWGCODEPAGE
  3
ANSI_1252
  9
$INSBASE
 10
0.0
 20
0.0
 30
0.0
  9
$EXTMIN
 10
1.000000000000000E+20
 20
1.000000000000000E+20
 30
1.000000000000000E+20
  9
$EXTMAX
 10
-1.000000000000000E+20
 20
-1.000000000000000E+20
 30
-1.000000000000000E+20
  9
$LIMMIN
 10
0.0
 20
0.0
  9
$LIMMAX
 10
12.0
 20
9.0
  9
$ORTHOMODE
 70
     0
  9
$REGENMODE
 70
     1
  9
$FILLMODE
 70
     1
  9
$QTEXTMODE
 70
     0
  9
$MIRRTEXT
 70
     1
  9
$LTSCALE
 40
1.0
  9
$ATTMODE
 70
     1
  9
$TEXTSIZE
 40
0.2
  9
$TRACEWID
 40
0.05
  9
$TEXTSTYLE
  7
Standard
  9
$CLAYER
  8
0
  9
$CELTYPE
  6
ByLayer
  9
$CECOLOR
 62
   256
  9
$CELTSCALE
 40
1.0
  9
$DISPSILH
 70
     0
  9
$DIMSCALE
 40
1.0
  9
$DIMASZ
 40
0.18
  9
$DIMEXO
 40
0.0625
  9
$DIMDLI
 40
0.38
  9
$DIMRND
 40
0.0
  9
$DIMDLE
 40
0.0
  9
$DIMEXE
 40
0.18
  9
$DIMTP
 40
0.0
  9
$DIMTM
 40
0.0
  9
$DIMTXT
 40
0.18
  9
$DIMCEN
 40
0.09
  9
$DIMTSZ
 40
0.0
  9
$DIMTOL
 70
     0
  9
$DIMLIM
 70
     0
  9
$DIMTIH
 70
     1
  9
$DIMTOH
 70
     1
  9
$DIMSE1
 70
     0
  9
$DIMSE2
 70
     0
  9
$DIMTAD
 70
     0
  9
$DIMZIN
 70
     0
  9
$DIMBLK
  1

  9
$DIMASO
 70
     1
  9
$DIMSHO
 70
     1
  9
$DIMPOST
  1

  9
$DIMAPOST
  1

  9
$DIMALT
 70
     0
  9
$DIMALTD
 70
     2
  9
$DIMALTF
 40
25.4
  9
$DIMLFAC
 40
1.0
  9
$DIMTOFL
 70
     0
  9
$DIMTVP
 40
0.0
  9
$DIMTIX
 70
     0
  9
$DIMSOXD
 70
     0
  9
$DIMSAH
 70
     0
  9
$DIMBLK1
  1

  9
$DIMBLK2
  1

  9
$DIMSTYLE
  2
Standard
  9
$DIMCLRD
 70
     0
  9
$DIMCLRE
 70
     0
  9
$DIMCLRT
 70
     0
  9
$DIMTFAC
 40
1.0
  9
$DIMGAP
 40
0.09
  9
$DIMJUST
 70
     0
  9
$DIMSD1
 70
     0
  9
$DIMSD2
 70
     0
  9
$DIMTOLJ
 70
     1
  9
$DIMTZIN
 70
     0
  9
$DIMALTZ
 70
     0
  9
$DIMALTTZ
 70
     0
  9
$DIMUPT
 70
     0
  9
$DIMDEC
 70
     4
  9
$DIMTDEC
 70
     4
  9
$DIMALTU
 70
     2
  9
$DIMALTTD
 70
     2
  9
$DIMTXSTY
  7
Standard
  9
$DIMAUNIT
 70
     0
  9
$DIMADEC
 70
     0
  9
$DIMALTRND
 40
0.0
  9
$DIMAZIN
 70
     0
  9
$DIMDSEP
 70
    46
  9
$DIMATFIT
 70
     3
  9
$DIMFRAC
 70
     0
  9
$DIMLDRBLK
  1

  9
$DIMLUNIT
 70
     2
  9
$DIMLWD
 70
    -2
  9
$DIMLWE
 70
    -2
  9
$DIMTMOVE
 70
     0
  9
$DIMFXL
 40
1.0
  9
$DIMFXLON
 70
     0
  9
$DIMJOGANG
 40
0.7853981633974483
  9
$DIMTFILL
 70
     0
  9
$DIMTFILLCLR
 70
     0
  9
$DIMARCSYM
 70
     0
  9
$DIMLTYPE
  6

  9
$DIMLTEX1
  6

  9
$DIMLTEX2
  6

  9
$DIMTXTDIRECTION
 70
     0
  9
$LUNITS
 70
     2
  9
$LUPREC
 70
     4
  9
$SKETCHINC
 40
0.1
  9
$FILLETRAD
 40
0.5
  9
$AUNITS
 70
     0
  9
$AUPREC
 70
     0
  9
$MENU
  1
.
  9
$ELEVATION
 40
0.0
  9
$PELEVATION
 40
0.0
  9
$THICKNESS
 40
0.0
  9
$LIMCHECK
 70
     0
  9
$CHAMFERA
 40
0.5
  9
$CHAMFERB
 40
0.5
  9
$CHAMFERC
 40
1.0
  9
$CHAMFERD
 40
0.0
  9
$SKPOLY
 70
     0
  9
$TDCREATE
 40
2458787.995126018
  9
$TDUCREATE
 40
2458787.453459352
  9
$TDUPDATE
 40
2458787.995126169
  9
$TDUUPDATE
 40
2458787.453459502
  9
$TDINDWG
 40
0.0000000116
  9
$TDUSRTIMER
 40
0.0000000116
  9
$USRTIMER
 70
     1
  9
$ANGBASE
 50
0.0
  9
$ANGDIR
 70
     0
  9
$PDMODE
 70
     0
  9
$PDSIZE
 40
0.0
  9
$PLINEWID
 40
0.0
  9
$SPLFRAME
 70
     0
  9
$SPLINETYPE
 70
     6
  9
$SPLINESEGS
 70
     8
  9
$HANDSEED
  5
260
  9
$SURFTAB1
 70
     6
  9
$SURFTAB2
 70
     6
  9
$SURFTYPE
 70
     6
  9
$SURFU
 70
     6
  9
$SURFV
 70
     6
  9
$UCSBASE
  2

  9
$UCSNAME
  2

  9
$UCSORG
 10
0.0
 20
0.0
 30
0.0
  9
$UCSXDIR
 10
1.0
 20
0.0
 30
0.0
  9
$UCSYDIR
 10
0.0
 20
1.0
 30
0.0
  9
$UCSORTHOREF
  2

  9
$UCSORTHOVIEW
 70
     0
  9
$UCSORGTOP
 10
0.0
 20
0.0
 30
0.0
  9
$UCSORGBOTTOM
 10
0.0
 20
0.0
 30
0.0
  9
$UCSORGLEFT
 10
0.0
 20
0.0
 30
0.0
  9
$UCSORGRIGHT
 10
0.0
 20
0.0
 30
0.0
  9
$UCSORGFRONT
 10
0.0
 20
0.0
 30
0.0
  9
$UCSORGBACK
 10
0.0
 20
0.0
 30
0.0
  9
$PUCSBASE
  2

  9
$PUCSNAME
  2

  9
$PUCSORG
 10
0.0
 20
0.0
 30
0.0
  9
$PUCSXDIR
 10
1.0
 20
0.0
 30
0.0
  9
$PUCSYDIR
 10
0.0
 20
1.0
 30
0.0
  9
$PUCSORTHOREF
  2

  9
$PUCSORTHOVIEW
 70
     0
  9
$PUCSORGTOP
 10
0.0
 20
0.0
 30
0.0
  9
$PUCSORGBOTTOM
 10
0.0
 20
0.0
 30
0.0
  9
$PUCSORGLEFT
 10
0.0
 20
0.0
 30
0.0
  9
$PUCSORGRIGHT
 10
0.0
 20
0.0
 30
0.0
  9
$PUCSORGFRONT
 10
0.0
 20
0.0
 30
0.0
  9
$PUCSORGBACK
 10
0.0
 20
0.0
 30
0.0
  9
$USERI1
 70
     0
  9
$USERI2
 70
     0
  9
$USERI3
 70
     0
  9
$USERI4
 70
     0
  9
$USERI5
 70
     0
  9
$USERR1
 40
0.0
  9
$USERR2
 40
0.0
  9
$USERR3
 40
0.0
  9
$USERR4
 40
0.0
  9
$USERR5
 40
0.0
  9
$WORLDVIEW
 70
     1
  9
$SHADEDGE
 70
     3
  9
$SHADEDIF
 70
    70
  9
$TILEMODE
 70
     1
  9
$MAXACTVP
 70
    64
  9
$PINSBASE
 10
0.0
 20
0.0
 30
0.0
  9
$PLIMCHECK
 70
     0
  9
$PEXTMIN
 10
1.000000000000000E+20
 20
1.000000000000000E+20
 30
1.000000000000000E+20
  9
$PEXTMAX
 10
-1.000000000000000E+20
 20
-1.000000000000000E+20
 30
-1.000000000000000E+20
  9
$PLIMMIN
 10
0.0
 20
0.0
  9
$PLIMMAX
 10
12.0
 20
9.0
  9
$UNITMODE
 70
     0
  9
$VISRETAIN
 70
     1
  9
$PLINEGEN
 70
     0
  9
$PSLTSCALE
 70
     1
  9
$TREEDEPTH
 70
  3020
  9
$CMLSTYLE
  2
Standard
  9
$CMLJUST
 70
     0
  9
$CMLSCALE
 40
1.0
  9
$PROXYGRAPHICS
 70
     1
  9
$MEASUREMENT
 70
     0
  9
$CELWEIGHT
370
    -1
  9
$ENDCAPS
280
     0
  9
$JOINSTYLE
280
     0
  9
$LWDISPLAY
290
     1
  9
$INSUNITS
 70
     4
  9
$HYPERLINKBASE
  1

  9
$STYLESHEET
  1

  9
$XEDIT
290
     1
  9
$CEPSNTYPE
380
     0
  9
$PSTYLEMODE
290
     1
  9
$FINGERPRINTGUID
  2
{9B00A76B-8B21-4FA6-9E09-F7492FAE533C}
  9
$VERSIONGUID
  2
{FAEB1C32-E019-11D5-929B-00C0DF256EC4}
  9
$EXTNAMES
290
     1
  9
$PSVPSCALE
 40
0.0
  9
$OLESTARTUP
290
     0
  9
$SORTENTS
280
   127
  9
$INDEXCTL
280
     0
  9
$HIDETEXT
280
     1
  9
$XCLIPFRAME
280
     2
  9
$HALOGAP
280
     0
  9
$OBSCOLOR
 70
   257
  9
$OBSLTYPE
280
     0
  9
$INTERSECTIONDISPLAY
280
     0
  9
$INTERSECTIONCOLOR
 70
   257
  9
$DIMASSOC
280
     2
  9
$PROJECTNAME
  1

  9
$CAMERADISPLAY
290
     0
  9
$LENSLENGTH
 40
50.0
  9
$CAMERAHEIGHT
 40
0.0
  9
$STEPSPERSEC
 40
2.0
  9
$STEPSIZE
 40
6.0
  9
$3DDWFPREC
 40
2.0
  9
$PSOLWIDTH
 40
0.25
  9
$PSOLHEIGHT
 40
4.0
  9
$LOFTANG1
 40
1.570796326794897
  9
$LOFTANG2
 40
1.570796326794897
  9
$LOFTMAG1
 40
0.0
  9
$LOFTMAG2
 40
0.0
  9
$LOFTPARAM
 70
     7
  9
$LOFTNORMALS
280
     1
  9
$LATITUDE
 40
37.795
  9
$LONGITUDE
 40
-122.394
  9
$NORTHDIRECTION
 40
0.0
  9
$TIMEZONE
 70
 -8000
  9
$LIGHTGLYPHDISPLAY
280
     1
  9
$TILEMODELIGHTSYNCH
280
     1
  9
$CMATERIAL
347
3C
  9
$SOLIDHIST
280
     1
  9
$SHOWHIST
280
     1
  9
$DWFFRAME
280
     2
  9
$DGNFRAME
280
     2
  9
$REALWORLDSCALE
290
     1
  9
$INTERFERECOLOR
 62
   256
  9
$CSHADOW
280
     0
  9
$SHADOWPLANELOCATION
 40
0.0
  0
ENDSEC
  0
SECTION
  2
CLASSES
  0
CLASS
  1
ACDBDICTIONARYWDFLT
  2
AcDbDictionaryWithDefault
  3
ObjectDBX Classes
 90
        0
 91
        4
280
     0
281
     0
  0
CLASS
  1
VISUALSTYLE
  2
AcDbVisualStyle
  3
ObjectDBX Classes
 90
     4095
 91
        4
280
     0
281
     0
  0
CLASS
  1
MATERIAL
  2
AcDbMaterial
  3
ObjectDBX Classes
 90
     1153
 91
        4
280
     0
281
     0
  0
CLASS
  1
SUN
  2
AcDbSun
  3
SCENEOE
 90
     1024
 91
        4
280
     0
281
     0
  0
ENDSEC
  0
SECTION
  2
TABLES
  0
TABLE
  2
VPORT
  5
8
330
0
100
AcDbSymbolTable
 70
     1
  0
VPORT
  5
29
330
8
100
AcDbSymbolTableRecord
100
AcDbViewportTableRecord
  2
*Active
 70
     0
 10
0.0
 20
0.0
 11
1.0
 21
1.0
 12
0.0
 22
0.0
 13
0.0
 23
0.0
 14
0.5
 24
0.5
 15
0.5
 25
0.5
 16
0.0
 26
0.0
 36
1.0
 17
107.9305234006943
 27
139.8269470483767
 37
0.0
 40
296.9999356699927
 41
0.7070764539482214
 42
50.0
 43
0.0
 44
0.0
 50
0.0
 51
0.0
 71
     0
 72
   100
 73
     1
 74
     3
 75
     0
 76
     0
 77
     0
 78
     0
281
     0
 65
     1
110
0.0
120
0.0
130
0.0
111
1.0
121
0.0
131
0.0
112
0.0
122
1.0
132
0.0
 79
     0
146
0.0
 60
     3
 61
     5
292
     1
282
     1
141
0.0
142
0.0
 63
   250
361
3F
  0
ENDTAB
  0
TABLE
  2
LTYPE
  5
5
330
0
100
AcDbSymbolTable
 70
     1
  0
LTYPE
  5
14
330
5
100
AcDbSymbolTableRecord
100
AcDbLinetypeTableRecord
  2
ByBlock
 70
     0
  3

 72
    65
 73
     0
 40
0.0
  0
LTYPE
  5
15
330
5
100
AcDbSymbolTableRecord
100
AcDbLinetypeTableRecord
  2
ByLayer
 70
     0
  3

 72
    65
 73
     0
 40
0.0
  0
LTYPE
  5
16
330
5
100
AcDbSymbolTableRecord
100
AcDbLinetypeTableRecord
  2
Continuous
 70
     0
  3
Solid line
 72
    65
 73
     0
 40
0.0
  0
ENDTAB
  0
TABLE
  2
LAYER
  5
2
330
0
100
AcDbSymbolTable
 70
     3
  0
LAYER
  5
10
330
2
100
AcDbSymbolTableRecord
100
AcDbLayerTableRecord
  2
0
 70
     0
 62
     7
  6
Continuous
370
    -3
390
F
347
3E
  0
LAYER
  5
40
330
2
100
AcDbSymbolTableRecord
100
AcDbLayerTableRecord
  2
Layer 1
 70
     0
 62
     7
  6
Continuous
370
    -3
390
F
347
3E
  0
LAYER
  5
24B
330
2
100
AcDbSymbolTableRecord
100
AcDbLayerTableRecord
  2
callout
 70
     0
 62
     7
  6
Continuous
370
    -3
390
F
347
3E
  0
ENDTAB
  0
TABLE
  2
STYLE
  5
3
330
0
100
AcDbSymbolTable
 70
     1
  0
STYLE
  5
11
330
3
100
AcDbSymbolTableRecord
100
AcDbTextStyleTableRecord
  2
Standard
 70
     0
 40
0.0
 41
1.0
 50
0.0
 71
     0
 42
0.2
  3
txt
  4

  0
ENDTAB
  0
TABLE
  2
VIEW
  5
6
330
0
100
AcDbSymbolTable
 70
     0
  0
ENDTAB
  0
TABLE
  2
UCS
  5
7
330
0
100
AcDbSymbolTable
 70
     0
  0
ENDTAB
  0
TABLE
  2
APPID
  5
9
330
0
100
AcDbSymbolTable
 70
     1
  0
APPID
  5
12
330
9
100
AcDbSymbolTableRecord
100
AcDbRegAppTableRecord
  2
ACAD
 70
     0
  0
ENDTAB
  0
TABLE
  2
DIMSTYLE
  5
A
330
0
100
AcDbSymbolTable
 70
     1
100
AcDbDimStyleTable
  0
DIMSTYLE
105
27
330
A
100
AcDbSymbolTableRecord
100
AcDbDimStyleTableRecord
  2
Standard
 70
     0
178
     0
340
11
  0
ENDTAB
  0
TABLE
  2
BLOCK_RECORD
  5
1
330
0
100
AcDbSymbolTable
 70
     3
  0
BLOCK_RECORD
  5
1F
330
1
100
AcDbSymbolTableRecord
100
AcDbBlockTableRecord
  2
*Model_Space
340
22
 70
     0
280
     1
281
     0
  0
BLOCK_RECORD
  5
1B
330
1
100
AcDbSymbolTableRecord
100
AcDbBlockTableRecord
  2
*Paper_Space
340
1E
 70
     0
280
     1
281
     0
  0
BLOCK_RECORD
  5
23
330
1
100
AcDbSymbolTableRecord
100
AcDbBlockTableRecord
  2
*Paper_Space0
340
26
 70
     0
280
     1
281
     0
  0
BLOCK_RECORD
  5
41
330
1
100
AcDbSymbolTableRecord
100
AcDbBlockTableRecord
  2
block 2
340
0
102
{BLKREFS
331
42
102
}
 70
     0
280
     1
281
     0
  0
BLOCK_RECORD
  5
68
330
1
100
AcDbSymbolTableRecord
100
AcDbBlockTableRecord
  2
block 3
340
0
102
{BLKREFS
331
69
102
}
 70
     0
280
     1
281
     0
  0
ENDTAB
  0
ENDSEC
  0
SECTION
  2
BLOCKS
  0
BLOCK
  5
20
330
1F
100
AcDbEntity
  8
0
100
AcDbBlockBegin
  2
*Model_Space
 70
     0
 10
0.0
 20
0.0
 30
0.0
  3
*Model_Space
  1

  0
ENDBLK
  5
21
330
1F
100
AcDbEntity
  8
0
100
AcDbBlockEnd
  0
BLOCK
  5
1C
330
1B
100
AcDbEntity
 67
     1
  8
0
100
AcDbBlockBegin
  2
*Paper_Space
 70
     0
 10
0.0
 20
0.0
 30
0.0
  3
*Paper_Space
  1

  0
ENDBLK
  5
1D
330
1B
100
AcDbEntity
 67
     1
  8
0
100
AcDbBlockEnd
  0
BLOCK
  5
24
330
23
100
AcDbEntity
  8
0
100
AcDbBlockBegin
  2
*Paper_Space0
 70
     0
 10
0.0
 20
0.0
 30
0.0
  3
*Paper_Space0
  1

  0
ENDBLK
  5
25
330
23
100
AcDbEntity
  8
0
100
AcDbBlockEnd
  0
BLOCK
  5
43
330
41
100
AcDbEntity
  8
0
100
AcDbBlockBegin
  2
block 2
 70
     0
 10
0.0
 20
0.0
 30
0.0
  3
block 2
  1

  0
POLYLINE
  5
45
330
41
100
AcDbEntity
  8
Layer 1
 62
   250
420
  2301728
370
    20
100
AcDb2dPolyline
 66
     1
 10
0.0
 20
0.0
 30
0.0
  0
VERTEX
  5
46
330
45
100
AcDbEntity
  8
Layer 1
 62
   250
420
  2301728
370
    20
100
AcDbVertex
100
AcDb2dVertex
 10
113.6304702039768
 20
133.641035613023
 30
0.0
  0
VERTEX
  5
47
330
45
100
AcDbEntity
  8
Layer 1
 62
   250
420
  2301728
370
    20
100
AcDbVertex
100
AcDb2dVertex
 10
113.6304702039768
 20
119.1365533889482
 30
0.0
  0
VERTEX
  5
48
330
45
100
AcDbEntity
  8
Layer 1
 62
   250
420
  2301728
370
    20
100
AcDbVertex
100
AcDb2dVertex
 10
118.216772631882
 20
117.5433008825157
 30
0.0
  0
VERTEX
  5
49
330
45
100
AcDbEntity
  8
Layer 1
 62
   250
420
  2301728
370
    20
100
AcDbVertex
100
AcDb2dVertex
 10
121.2539262902512
 20
120.0584857703341
 30
0.0
  0
VERTEX
  5
4A
330
45
100
AcDbEntity
  8
Layer 1
 62
   250
420
  2301728
370
    20
100
AcDbVertex
100
AcDb2dVertex
 10
123.1934199872615
 20
118.8741929992167
 30
0.0
  0
VERTEX
  5
4B
330
45
100
AcDbEntity
  8
Layer 1
 62
   250
420
  2301728
370
    20
100
AcDbVertex
100
AcDb2dVertex
 10
123.9956478869078
 20
123.2321327919166
 30
0.0
  0
VERTEX
  5
4C
330
45
100
AcDbEntity
  8
Layer 1
 62
   250
420
  2301728
370
    20
100
AcDbVertex
100
AcDb2dVertex
 10
124.726278853136
 20
122.9342175345593
 30
0.0
  0
VERTEX
  5
4D
330
45
100
AcDbEntity
  8
Layer 1
 62
   250
420
  2301728
370
    20
100
AcDbVertex
100
AcDb2dVertex
 10
127.6151693945395
 20
125.3269201065193
 30
0.0
  0
VERTEX
  5
4E
330
45
100
AcDbEntity
  8
Layer 1
 62
   250
420
  2301728
370
    20
100
AcDbVertex
100
AcDb2dVertex
 10
127.6151693945395
 20
129.7738583787163
 30
0.0
  0
SEQEND
  5
50
330
45
100
AcDbEntity
  8
Layer 1
 62
   250
420
  2301728
370
    20
  0
HATCH
  5
4F
330
41
100
AcDbEntity
  8
Layer 1
 62
    43
420
 15510365
100
AcDbHatch
 10
0.0
 20
0.0
 30
0.0
210
0.0
220
0.0
230
1.0
  2
SOLID
 70
     1
 71
     0
 91
        1
 92
        1
 93
        9
 72
     1
 10
113.6304702039768
 20
133.641035613023
 11
113.6304702039768
 21
119.1365533889482
 72
     1
 10
113.6304702039768
 20
119.1365533889482
 11
118.216772631882
 21
117.5433008825157
 72
     1
 10
118.216772631882
 20
117.5433008825157
 11
121.2539262902512
 21
120.0584857703341
 72
     1
 10
121.2539262902512
 20
120.0584857703341
 11
123.1934199872615
 21
118.8741929992167
 72
     1
 10
123.1934199872615
 20
118.8741929992167
 11
123.9956478869078
 21
123.2321327919165
 72
     1
 10
123.9956478869078
 20
123.2321327919166
 11
124.726278853136
 21
122.9342175345593
 72
     1
 10
124.726278853136
 20
122.9342175345593
 11
127.6151693945395
 21
125.3269201065193
 72
     1
 10
127.6151693945395
 20
125.3269201065193
 11
127.6151693945395
 21
129.7738583787163
 72
     1
 10
127.6151693945395
 20
129.7738583787163
 11
113.6304702039768
 21
133.641035613023
 97
        0
 75
     2
 76
     1
 98
        0
  0
POLYLINE
  5
51
330
41
100
AcDbEntity
  8
Layer 1
 62
   250
420
  2301728
370
    20
100
AcDb2dPolyline
 66
     1
 10
0.0
 20
0.0
 30
0.0
  0
VERTEX
  5
52
330
51
100
AcDbEntity
  8
Layer 1
 62
   250
420
  2301728
370
    20
100
AcDbVertex
100
AcDb2dVertex
 10
121.0241258647061
 20
119.8823523748281
 30
0.0
  0
VERTEX
  5
53
330
51
100
AcDbEntity
  8
Layer 1
 62
   250
420
  2301728
370
    20
100
AcDbVertex
100
AcDb2dVertex
 10
122.2749385419047
 20
120.9093977041386
 30
0.0
  0
SEQEND
  5
54
330
51
100
AcDbEntity
  8
Layer 1
 62
   250
420
  2301728
370
    20
  0
POLYLINE
  5
55
330
41
100
AcDbEntity
  8
Layer 1
 62
   250
420
  2301728
370
    20
100
AcDb2dPolyline
 66
     1
 10
0.0
 20
0.0
 30
0.0
  0
VERTEX
  5
56
330
55
100
AcDbEntity
  8
Layer 1
 62
   250
420
  2301728
370
    20
100
AcDbVertex
100
AcDb2dVertex
 10
123.9446574734039
 20
122.9091610317248
 30
0.0
  0
VERTEX
  5
57
330
55
100
AcDbEntity
  8
Layer 1
 62
   250
420
  2301728
370
    20
100
AcDbVertex
100
AcDb2dVertex
 10
124.1299863696107
 20
123.8778342045362
 30
0.0
  0
SEQEND
  5
58
330
55
100
AcDbEntity
  8
Layer 1
 62
   250
420
  2301728
370
    20
  0
POLYLINE
  5
59
330
41
100
AcDbEntity
  8
Layer 1
 62
   250
420
  2301728
370
    15
100
AcDb2dPolyline
 66
     1
 10
0.0
 20
0.0
 30
0.0
  0
VERTEX
  5
5A
330
59
100
AcDbEntity
  8
Layer 1
 62
   250
420
  2301728
370
    15
100
AcDbVertex
100
AcDb2dVertex
 10
113.5525447427918
 20
133.620940668931
 30
0.0
  0
VERTEX
  5
25D
330
59
100
AcDbEntity
  8
0
100
AcDbVertex
100
AcDb2dVertex
 10
113.5525447427918
 20
133.620940668931
 30
0.0
  0
SEQEND
  5
5B
330
59
100
AcDbEntity
  8
Layer 1
 62
   250
420
  2301728
370
    15
  0
POLYLINE
  5
5C
330
41
100
AcDbEntity
  8
Layer 1
 62
   250
420
  2301728
370
    15
100
AcDb2dPolyline
 66
     1
 10
0.0
 20
0.0
 30
0.0
  0
VERTEX
  5
5D
330
5C
100
AcDbEntity
  8
Layer 1
 62
   250
420
  2301728
370
    15
100
AcDbVertex
100
AcDb2dVertex
 10
118.1945385447425
 20
117.505943655126
 30
0.0
  0
VERTEX
  5
5E
330
5C
100
AcDbEntity
  8
Layer 1
 62
   250
420
  2301728
370
    15
100
AcDbVertex
100
AcDb2dVertex
 10
118.1945385447425
 20
132.2973565977505
 30
0.0
  0
SEQEND
  5
5F
330
5C
100
AcDbEntity
  8
Layer 1
 62
   250
420
  2301728
370
    15
  0
POLYLINE
  5
60
330
41
100
AcDbEntity
  8
Layer 1
 62
   250
420
  2301728
370
    15
100
AcDb2dPolyline
 66
     1
 10
0.0
 20
0.0
 30
0.0
  0
VERTEX
  5
61
330
60
100
AcDbEntity
  8
Layer 1
 62
   250
420
  2301728
370
    15
100
AcDbVertex
100
AcDb2dVertex
 10
122.2235796649747
 20
120.9670919833816
 30
0.0
  0
VERTEX
  5
62
330
60
100
AcDbEntity
  8
Layer 1
 62
   250
420
  2301728
370
    15
100
AcDbVertex
100
AcDb2dVertex
 10
123.1934199872615
 20
118.9311594067703
 30
0.0
  0
SEQEND
  5
63
330
60
100
AcDbEntity
  8
Layer 1
 62
   250
420
  2301728
370
    15
  0
POLYLINE
  5
64
330
41
100
AcDbEntity
  8
Layer 1
 62
   250
420
  2301728
370
    15
100
AcDb2dPolyline
 66
     1
 10
0.0
 20
0.0
 30
0.0
  0
VERTEX
  5
65
330
64
100
AcDbEntity
  8
Layer 1
 62
   250
420
  2301728
370
    15
100
AcDbVertex
100
AcDb2dVertex
 10
124.0867738177872
 20
123.903834903164
 30
0.0
  0
VERTEX
  5
66
330
64
100
AcDbEntity
  8
Layer 1
 62
   250
420
  2301728
370
    15
100
AcDbVertex
100
AcDb2dVertex
 10
124.6736609986886
 20
122.9361059750884
 30
0.0
  0
SEQEND
  5
67
330
64
100
AcDbEntity
  8
Layer 1
 62
   250
420
  2301728
370
    15
  0
ENDBLK
  5
44
330
41
100
AcDbEntity
  8
0
100
AcDbBlockEnd
  0
BLOCK
  5
6A
330
68
100
AcDbEntity
  8
0
100
AcDbBlockBegin
  2
block 3
 70
     0
 10
0.0
 20
0.0
 30
0.0
  3
block 3
  1

  0
SPLINE
  5
6C
330
68
100
AcDbEntity
  8
Layer 1
370
     0
100
AcDbSpline
210
0.0
220
0.0
230
1.0
 70
    11
 71
     3
 72
   221
 73
   217
 74
     0
 42
0.0000000001
 43
0.0000000001
 12
1.0
 22
0.0
 32
0.0
 13
1.0
 23
0.0
 33
0.0
 40
0.0
 40
0.0
 40
0.0
 40
0.0
 40
1.0
 40
1.0
 40
1.0
 40
2.0
 40
2.0
 40
2.0
 40
3.0
 40
3.0
 40
3.0
 40
4.0
 40
4.0
 40
4.0
 40
5.0
 40
5.0
 40
5.0
 40
6.0
 40
6.0
 40
6.0
 40
7.0
 40
7.0
 40
7.0
 40
8.0
 40
8.0
 40
8.0
 40
9.0
 40
9.0
 40
9.0
 40
10.0
 40
10.0
 40
10.0
 40
11.0
 40
11.0
 40
11.0
 40
12.0
 40
12.0
 40
12.0
 40
13.0
 40
13.0
 40
13.0
 40
14.0
 40
14.0
 40
14.0
 40
15.0
 40
15.0
 40
15.0
 40
16.0
 40
16.0
 40
16.0
 40
17.0
 40
17.0
 40
17.0
 40
18.0
 40
18.0
 40
18.0
 40
19.0
 40
19.0
 40
19.0
 40
20.0
 40
20.0
 40
20.0
 40
21.0
 40
21.0
 40
21.0
 40
22.0
 40
22.0
 40
22.0
 40
23.0
 40
23.0
 40
23.0
 40
24.0
 40
24.0
 40
24.0
 40
25.0
 40
25.0
 40
25.0
 40
26.0
 40
26.0
 40
26.0
 40
27.0
 40
27.0
 40
27.0
 40
28.0
 40
28.0
 40
28.0
 40
29.0
 40
29.0
 40
29.0
 40
30.0
 40
30.0
 40
30.0
 40
31.0
 40
31.0
 40
31.0
 40
32.0
 40
32.0
 40
32.0
 40
33.0
 40
33.0
 40
33.0
 40
34.0
 40
34.0
 40
34.0
 40
35.0
 40
35.0
 40
35.0
 40
36.0
 40
36.0
 40
36.0
 40
37.0
 40
37.0
 40
37.0
 40
38.0
 40
38.0
 40
38.0
 40
39.0
 40
39.0
 40
39.0
 40
40.0
 40
40.0
 40
40.0
 40
41.0
 40
41.0
 40
41.0
 40
42.0
 40
42.0
 40
42.0
 40
43.0
 40
43.0
 40
43.0
 40
44.0
 40
44.0
 40
44.0
 40
45.0
 40
45.0
 40
45.0
 40
46.0
 40
46.0
 40
46.0
 40
47.0
 40
47.0
 40
47.0
 40
48.0
 40
48.0
 40
48.0
 40
49.0
 40
49.0
 40
49.0
 40
50.0
 40
50.0
 40
50.0
 40
51.0
 40
51.0
 40
51.0
 40
52.0
 40
52.0
 40
52.0
 40
53.0
 40
53.0
 40
53.0
 40
54.0
 40
54.0
 40
54.0
 40
55.0
 40
55.0
 40
55.0
 40
56.0
 40
56.0
 40
56.0
 40
57.0
 40
57.0
 40
57.0
 40
58.0
 40
58.0
 40
58.0
 40
59.0
 40
59.0
 40
59.0
 40
60.0
 40
60.0
 40
60.0
 40
61.0
 40
61.0
 40
61.0
 40
62.0
 40
62.0
 40
62.0
 40
63.0
 40
63.0
 40
63.0
 40
64.0
 40
64.0
 40
64.0
 40
65.0
 40
65.0
 40
65.0
 40
66.0
 40
66.0
 40
66.0
 40
67.0
 40
67.0
 40
67.0
 40
68.0
 40
68.0
 40
68.0
 40
69.0
 40
69.0
 40
69.0
 40
70.0
 40
70.0
 40
70.0
 40
71.0
 40
71.0
 40
71.0
 40
72.0
 40
72.0
 40
72.0
 40
72.0
 10
75.06051298996064
 20
145.9002063022376
 30
0.0
 10
75.06051298996064
 20
145.9002063022376
 30
0.0
 10
73.99087259945382
 20
145.8590267310331
 30
0.0
 10
73.99087259945382
 20
145.8590267310331
 30
0.0
 10
73.99087259945382
 20
145.8590267310331
 30
0.0
 10
73.33282222883139
 20
145.3654889530664
 30
0.0
 10
73.33282222883139
 20
145.3654889530664
 30
0.0
 10
73.33282222883139
 20
145.3654889530664
 30
0.0
 10
72.42769645123981
 20
145.5300015457219
 30
0.0
 10
72.42769645123981
 20
145.5300015457219
 30
0.0
 10
72.42769645123981
 20
145.5300015457219
 30
0.0
 10
70.69979797768731
 20
145.1186172180009
 30
0.0
 10
70.69979797768731
 20
145.1186172180009
 30
0.0
 10
70.69979797768731
 20
145.1186172180009
 30
0.0
 10
70.32959322117122
 20
142.9793364369872
 30
0.0
 10
70.32959322117122
 20
142.9793364369872
 30
0.0
 10
70.32959322117122
 20
142.9793364369872
 30
0.0
 10
71.8517975106039
 20
141.4161582685137
 30
0.0
 10
71.8517975106039
 20
141.4161582685137
 30
0.0
 10
71.8517975106039
 20
141.4161582685137
 30
0.0
 10
71.52256663312895
 20
140.4698508994575
 30
0.0
 10
71.52256663312895
 20
140.4698508994575
 30
0.0
 10
71.52256663312895
 20
140.4698508994575
 30
0.0
 10
71.8517975106039
 20
140.3465178780069
 30
0.0
 10
71.72825879698927
 20
139.3592366299095
 30
0.0
 10
71.72825879698927
 20
139.3592366299095
 30
0.0
 10
74.07323380369264
 20
137.5491867263708
 30
0.0
 10
73.16810394401219
 20
136.4383667646591
 30
0.0
 10
73.16810394401219
 20
136.4383667646591
 30
0.0
 10
73.08595049376618
 20
135.9446232945287
 30
0.0
 10
73.33282222883139
 20
135.6567776804224
 30
0.0
 10
73.33282222883139
 20
135.6567776804224
 30
0.0
 10
73.74420655655236
 20
134.8751885961856
 30
0.0
 10
74.03205217065837
 20
134.7516498825713
 30
0.0
 10
74.03205217065837
 20
134.7516498825713
 30
0.0
 10
74.56697521199399
 20
134.4226246972597
 30
0.0
 10
74.07323380369264
 20
133.5174968994087
 30
0.0
 10
74.07323380369264
 20
133.5174968994087
 30
0.0
 10
73.08595049376618
 20
131.6662674246648
 30
0.0
 10
73.08595049376618
 20
131.6662674246648
 30
0.0
 10
73.08595049376618
 20
131.6662674246648
 30
0.0
 10
73.66184946557935
 20
130.8434987692235
 30
0.0
 10
73.66184946557935
 20
130.8434987692235
 30
0.0
 10
73.66184946557935
 20
130.8434987692235
 30
0.0
 10
73.4149756790774
 20
130.2676018488468
 30
0.0
 10
73.4149756790774
 20
130.2676018488468
 30
0.0
 10
73.4149756790774
 20
130.2676018488468
 30
0.0
 10
73.94989872041269
 20
129.3624740509957
 30
0.0
 10
73.62066784293772
 20
128.9922692944796
 30
0.0
 10
73.62066784293772
 20
128.9922692944796
 30
0.0
 10
74.27892597274945
 20
128.2516952277168
 30
0.0
 10
73.90871914920781
 20
127.6757571689072
 30
0.0
 10
73.90871914920781
 20
127.6757571689072
 30
0.0
 10
76.0889738092626
 20
125.9068868365737
 30
0.0
 10
75.2250255826161
 20
124.3025290968951
 30
0.0
 10
75.2250255826161
 20
124.3025290968951
 30
0.0
 10
76.00682035901659
 20
123.8087856267646
 30
0.0
 10
76.00682035901659
 20
123.8087856267646
 30
0.0
 10
76.00682035901659
 20
123.8087856267646
 30
0.0
 10
76.0889738092626
 20
122.9448374001181
 30
0.0
 10
76.0889738092626
 20
122.9448374001181
 30
0.0
 10
76.0889738092626
 20
122.9448374001181
 30
0.0
 10
76.58271727939301
 20
122.8626839498724
 30
0.0
 10
76.58271727939301
 20
122.8626839498724
 30
0.0
 10
76.58271727939301
 20
122.8626839498724
 30
0.0
 10
77.89902371280162
 20
120.4765314337936
 30
0.0
 10
77.89902371280162
 20
120.4765314337936
 30
0.0
 10
77.89902371280162
 20
120.4765314337936
 30
0.0
 10
79.13338238812797
 20
119.8183165094399
 30
0.0
 10
79.13338238812797
 20
118.6253019590497
 30
0.0
 10
79.13338238812797
 20
118.6253019590497
 30
0.0
 10
80.36753537129024
 20
118.0905846098781
 30
0.0
 10
80.03830670633485
 20
116.8976111979208
 30
0.0
 10
80.03830670633485
 20
116.8976111979208
 30
0.0
 10
82.42445700989414
 20
115.9101653960921
 30
0.0
 10
82.42445700989414
 20
115.9101653960921
 30
0.0
 10
82.42445700989414
 20
115.9101653960921
 30
0.0
 10
82.91799707312786
 20
115.4577660508975
 30
0.0
 10
82.91799707312786
 20
114.6349973954562
 30
0.0
 10
82.91799707312786
 20
114.6349973954562
 30
0.0
 10
84.23450691343284
 20
114.8817045767902
 30
0.0
 10
84.35784225652422
 20
113.359664841089
 30
0.0
 10
84.35784225652422
 20
113.359664841089
 30
0.0
 10
85.18061093275048
 20
112.8247829381862
 30
0.0
 10
85.2629677327351
 20
112.1255118579265
 30
0.0
 10
85.2629677327351
 20
112.1255118579265
 30
0.0
 10
88.14265802678096
 20
112.002014282745
 30
0.0
 10
88.63619580474762
 20
111.0558714674193
 30
0.0
 10
88.63619580474762
 20
111.0558714674193
 30
0.0
 10
89.41799058114779
 20
111.0970510386245
 30
0.0
 10
90.77547658576096
 20
109.3280161525591
 30
0.0
 10
90.77547658576096
 20
109.3280161525591
 30
0.0
 10
92.29768087519396
 20
109.2868365813545
 30
0.0
 10
92.29768087519396
 20
109.2868365813545
 30
0.0
 10
92.29768087519396
 20
109.2868365813545
 30
0.0
 10
95.09501202682974
 20
107.6001196992667
 30
0.0
 10
95.09501202682974
 20
107.6001196992667
 30
0.0
 10
95.09501202682974
 20
107.6001196992667
 30
0.0
 10
98.05706146328501
 20
107.8058118631267
 30
0.0
 10
98.05706146328501
 20
107.8058118631267
 30
0.0
 10
98.05706146328501
 20
107.8058118631267
 30
0.0
 10
99.08552228258696
 20
106.9420281902115
 30
0.0
 10
99.08552228258696
 20
106.9420281902115
 30
0.0
 10
99.08552228258696
 20
106.9420281902115
 30
0.0
 10
99.94947050923346
 20
106.9830432076854
 30
0.0
 10
99.94947050923346
 20
106.9830432076854
 30
0.0
 10
99.94947050923346
 20
106.9830432076854
 30
0.0
 10
101.0600847787814
 20
105.7488902245228
 30
0.0
 10
101.1836234923958
 20
105.7078752070489
 30
0.0
 10
101.3069565138473
 20
105.6666956358443
 30
0.0
 10
101.7183408415673
 20
105.5431980606622
 30
0.0
 10
101.7183408415673
 20
105.5431980606622
 30
0.0
 10
101.7183408415673
 20
105.5431980606622
 30
0.0
 10
103.4874168660652
 20
104.3090450775002
 30
0.0
 10
103.4874168660652
 20
104.3090450775002
 30
0.0
 10
103.4874168660652
 20
104.3090450775002
 30
0.0
 10
104.8860824418832
 20
104.59709638377
 30
0.0
 10
104.8860824418832
 20
104.59709638377
 30
0.0
 10
104.8860824418832
 20
104.59709638377
 30
0.0
 10
105.8733636899803
 20
104.6794143877469
 30
0.0
 10
105.8733636899803
 20
104.6794143877469
 30
0.0
 10
105.8733636899803
 20
104.6794143877469
 30
0.0
 10
106.2023888752915
 20
104.1445324848441
 30
0.0
 10
106.2023888752915
 20
104.1445324848441
 30
0.0
 10
106.2023888752915
 20
104.1445324848441
 30
0.0
 10
106.9430040804871
 20
103.8566457323056
 30
0.0
 10
107.9302853285845
 20
104.9261215690809
 30
0.0
 10
107.9302853285845
 20
104.9261215690809
 30
0.0
 10
108.4650026777557
 20
104.8851065516076
 30
0.0
 10
109.0411052902959
 20
105.3786854680068
 30
0.0
 10
109.0411052902959
 20
105.3786854680068
 30
0.0
 10
110.5631038875648
 20
106.9420281902115
 30
0.0
 10
111.3037190927604
 20
107.0654023500952
 30
0.0
 10
111.3037190927604
 20
107.0654023500952
 30
0.0
 10
111.9207955843417
 20
107.2299149427506
 30
0.0
 10
112.2498207696526
 20
106.81853061503
 30
0.0
 10
112.2498207696526
 20
106.81853061503
 30
0.0
 10
112.7847438109883
 20
107.5179251105876
 30
0.0
 10
113.9777172229463
 20
107.2710945139552
 30
0.0
 10
113.9777172229463
 20
107.2710945139552
 30
0.0
 10
114.7181267359778
 20
107.3122329467276
 30
0.0
 10
115.1295110636985
 20
108.3818733372341
 30
0.0
 10
115.1295110636985
 20
108.3818733372341
 30
0.0
 10
117.392124866163
 20
108.7932576649554
 30
0.0
 10
118.0915605001541
 20
109.8628980554619
 30
0.0
 10
118.0915605001541
 20
109.8628980554619
 30
0.0
 10
118.6262778493256
 20
110.2742823831826
 30
0.0
 10
119.4902260759721
 20
110.233102811978
 30
0.0
 10
119.4902260759721
 20
110.233102811978
 30
0.0
 10
120.1073025675534
 20
109.6983854628065
 30
0.0
 10
121.3826351219206
 20
111.0146918962147
 30
0.0
 10
121.3826351219206
 20
111.0146918962147
 30
0.0
 10
123.60406935318
 20
111.5496149375503
 30
0.0
 10
124.7148893148916
 20
112.9071009421632
 30
0.0
 10
124.7148893148916
 20
112.9071009421632
 30
0.0
 10
125.5376579703336
 20
112.9071009421632
 30
0.0
 10
125.5376579703336
 20
112.9071009421632
 30
0.0
 10
125.5376579703336
 20
112.9071009421632
 30
0.0
 10
126.3192470545704
 20
113.2773056986793
 30
0.0
 10
126.7718109534956
 20
113.3184852698839
 30
0.0
 10
126.7718109534956
 20
113.3184852698839
 30
0.0
 10
128.458527835584
 20
115.0873967406508
 30
0.0
 10
128.458527835584
 20
115.0873967406508
 30
0.0
 10
128.458527835584
 20
115.0873967406508
 30
0.0
 10
129.5279625339271
 20
115.7456116650038
 30
0.0
 10
129.8571934114021
 20
116.5272418876734
 30
0.0
 10
129.8571934114021
 20
116.5272418876734
 30
0.0
 10
131.2970385584246
 20
117.2266363832317
 30
0.0
 10
131.2970385584246
 20
117.2266363832317
 30
0.0
 10
131.2970385584246
 20
117.2266363832317
 30
0.0
 10
131.6260637437362
 20
118.543148508804
 30
0.0
 10
133.2306271755783
 20
118.9955478539986
 30
0.0
 10
133.2306271755783
 20
118.9955478539986
 30
0.0
 10
134.1767288524705
 20
119.3247375930408
 30
0.0
 10
133.9298571174053
 20
120.0651471060723
 30
0.0
 10
133.9298571174053
 20
120.0651471060723
 30
0.0
 10
134.0943697100607
 20
120.4353930010212
 30
0.0
 10
134.6292927513963
 20
120.1475062484821
 30
0.0
 10
134.6292927513963
 20
120.1475062484821
 30
0.0
 10
136.2336504910744
 20
122.4923146396251
 30
0.0
 10
138.496264293539
 20
123.2740682775931
 30
0.0
 10
138.496264293539
 20
123.2740682775931
 30
0.0
 10
139.0309816427105
 20
124.7139134246164
 30
0.0
 10
139.0309816427105
 20
124.7139134246164
 30
0.0
 10
139.0309816427105
 20
124.7139134246164
 30
0.0
 10
140.5531859321429
 20
125.2898103449924
 30
0.0
 10
140.5531859321429
 20
125.2898103449924
 30
0.0
 10
140.5531859321429
 20
125.2898103449924
 30
0.0
 10
140.9233906886589
 20
125.7011946727131
 30
0.0
 10
140.9233906886589
 20
125.7011946727131
 30
0.0
 10
140.9233906886589
 20
125.7011946727131
 30
0.0
 10
142.2399028142313
 20
125.6600151015085
 30
0.0
 10
142.4867745492965
 20
127.1822193909409
 30
0.0
 10
142.4867745492965
 20
127.1822193909409
 30
0.0
 10
143.3095432047378
 20
127.758116311317
 30
0.0
 10
143.3095432047378
 20
127.758116311317
 30
0.0
 10
143.3095432047378
 20
127.758116311317
 30
0.0
 10
144.5025166166959
 20
129.5681662148563
 30
0.0
 10
144.5025166166959
 20
129.5681662148563
 30
0.0
 10
144.5025166166959
 20
129.5681662148563
 30
0.0
 10
144.7905679229656
 20
130.0207301137816
 30
0.0
 10
144.7905679229656
 20
130.0207301137816
 30
0.0
 10
144.7905679229656
 20
130.0207301137816
 30
0.0
 10
144.2556448816306
 20
130.6789861765681
 30
0.0
 10
144.2556448816306
 20
130.6789861765681
 30
0.0
 10
144.2556448816306
 20
130.6789861765681
 30
0.0
 10
145.0372339658674
 20
131.2137035257396
 30
0.0
 10
145.0372339658674
 20
131.2137035257396
 30
0.0
 10
145.0372339658674
 20
131.2137035257396
 30
0.0
 10
145.5721570072023
 20
131.5841139744191
 30
0.0
 10
144.8727213732113
 20
132.0364721811809
 30
0.0
 10
144.8727213732113
 20
132.0364721811809
 30
0.0
 10
142.8981588770172
 20
132.4890360801068
 30
0.0
 10
142.8981588770172
 20
132.4890360801068
 30
0.0
 10
142.8981588770172
 20
132.4890360801068
 30
0.0
 10
75.06051298996064
 20
145.9002063022376
 30
0.0
 10
75.06051298996064
 20
145.9002063022376
 30
0.0
  0
HATCH
  5
6D
330
68
100
AcDbEntity
  8
Layer 1
 62
    21
420
 16227434
100
AcDbHatch
 10
0.0
 20
0.0
 30
0.0
210
0.0
220
0.0
230
1.0
  2
SOLID
 70
     1
 71
     0
 91
        1
 92
        1
 93
        1
 72
     4
 94
        3
 73
     0
 74
     1
 95
      221
 96
      217
 40
0.0
 40
0.0
 40
0.0
 40
0.0
 40
1.0
 40
1.0
 40
1.0
 40
2.0
 40
2.0
 40
2.0
 40
3.0
 40
3.0
 40
3.0
 40
4.0
 40
4.0
 40
4.0
 40
5.0
 40
5.0
 40
5.0
 40
6.0
 40
6.0
 40
6.0
 40
7.0
 40
7.0
 40
7.0
 40
8.0
 40
8.0
 40
8.0
 40
9.0
 40
9.0
 40
9.0
 40
10.0
 40
10.0
 40
10.0
 40
11.0
 40
11.0
 40
11.0
 40
12.0
 40
12.0
 40
12.0
 40
13.0
 40
13.0
 40
13.0
 40
14.0
 40
14.0
 40
14.0
 40
15.0
 40
15.0
 40
15.0
 40
16.0
 40
16.0
 40
16.0
 40
17.0
 40
17.0
 40
17.0
 40
18.0
 40
18.0
 40
18.0
 40
19.0
 40
19.0
 40
19.0
 40
20.0
 40
20.0
 40
20.0
 40
21.0
 40
21.0
 40
21.0
 40
22.0
 40
22.0
 40
22.0
 40
23.0
 40
23.0
 40
23.0
 40
24.0
 40
24.0
 40
24.0
 40
25.0
 40
25.0
 40
25.0
 40
26.0
 40
26.0
 40
26.0
 40
27.0
 40
27.0
 40
27.0
 40
28.0
 40
28.0
 40
28.0
 40
29.0
 40
29.0
 40
29.0
 40
30.0
 40
30.0
 40
30.0
 40
31.0
 40
31.0
 40
31.0
 40
32.0
 40
32.0
 40
32.0
 40
33.0
 40
33.0
 40
33.0
 40
34.0
 40
34.0
 40
34.0
 40
35.0
 40
35.0
 40
35.0
 40
36.0
 40
36.0
 40
36.0
 40
37.0
 40
37.0
 40
37.0
 40
38.0
 40
38.0
 40
38.0
 40
39.0
 40
39.0
 40
39.0
 40
40.0
 40
40.0
 40
40.0
 40
41.0
 40
41.0
 40
41.0
 40
42.0
 40
42.0
 40
42.0
 40
43.0
 40
43.0
 40
43.0
 40
44.0
 40
44.0
 40
44.0
 40
45.0
 40
45.0
 40
45.0
 40
46.0
 40
46.0
 40
46.0
 40
47.0
 40
47.0
 40
47.0
 40
48.0
 40
48.0
 40
48.0
 40
49.0
 40
49.0
 40
49.0
 40
50.0
 40
50.0
 40
50.0
 40
51.0
 40
51.0
 40
51.0
 40
52.0
 40
52.0
 40
52.0
 40
53.0
 40
53.0
 40
53.0
 40
54.0
 40
54.0
 40
54.0
 40
55.0
 40
55.0
 40
55.0
 40
56.0
 40
56.0
 40
56.0
 40
57.0
 40
57.0
 40
57.0
 40
58.0
 40
58.0
 40
58.0
 40
59.0
 40
59.0
 40
59.0
 40
60.0
 40
60.0
 40
60.0
 40
61.0
 40
61.0
 40
61.0
 40
62.0
 40
62.0
 40
62.0
 40
63.0
 40
63.0
 40
63.0
 40
64.0
 40
64.0
 40
64.0
 40
65.0
 40
65.0
 40
65.0
 40
66.0
 40
66.0
 40
66.0
 40
67.0
 40
67.0
 40
67.0
 40
68.0
 40
68.0
 40
68.0
 40
69.0
 40
69.0
 40
69.0
 40
70.0
 40
70.0
 40
70.0
 40
71.0
 40
71.0
 40
71.0
 40
72.0
 40
72.0
 40
72.0
 40
72.0
 10
75.06051298996064
 20
145.9002063022376
 10
75.06051298996064
 20
145.9002063022376
 10
73.99087259945382
 20
145.8590267310331
 10
73.99087259945382
 20
145.8590267310331
 10
73.99087259945382
 20
145.8590267310331
 10
73.33282222883139
 20
145.3654889530664
 10
73.33282222883139
 20
145.3654889530664
 10
73.33282222883139
 20
145.3654889530664
 10
72.42769645123981
 20
145.5300015457219
 10
72.42769645123981
 20
145.5300015457219
 10
72.42769645123981
 20
145.5300015457219
 10
70.69979797768731
 20
145.1186172180009
 10
70.69979797768731
 20
145.1186172180009
 10
70.69979797768731
 20
145.1186172180009
 10
70.32959322117122
 20
142.9793364369872
 10
70.32959322117122
 20
142.9793364369872
 10
70.32959322117122
 20
142.9793364369872
 10
71.8517975106039
 20
141.4161582685137
 10
71.8517975106039
 20
141.4161582685137
 10
71.8517975106039
 20
141.4161582685137
 10
71.52256663312895
 20
140.4698508994575
 10
71.52256663312895
 20
140.4698508994575
 10
71.52256663312895
 20
140.4698508994575
 10
71.8517975106039
 20
140.3465178780069
 10
71.72825879698927
 20
139.3592366299095
 10
71.72825879698927
 20
139.3592366299095
 10
74.07323380369264
 20
137.5491867263708
 10
73.16810394401219
 20
136.4383667646591
 10
73.16810394401219
 20
136.4383667646591
 10
73.08595049376618
 20
135.9446232945287
 10
73.33282222883139
 20
135.6567776804224
 10
73.33282222883139
 20
135.6567776804224
 10
73.74420655655236
 20
134.8751885961856
 10
74.03205217065837
 20
134.7516498825713
 10
74.03205217065837
 20
134.7516498825713
 10
74.56697521199399
 20
134.4226246972597
 10
74.07323380369264
 20
133.5174968994087
 10
74.07323380369264
 20
133.5174968994087
 10
73.08595049376618
 20
131.6662674246648
 10
73.08595049376618
 20
131.6662674246648
 10
73.08595049376618
 20
131.6662674246648
 10
73.66184946557935
 20
130.8434987692235
 10
73.66184946557935
 20
130.8434987692235
 10
73.66184946557935
 20
130.8434987692235
 10
73.4149756790774
 20
130.2676018488468
 10
73.4149756790774
 20
130.2676018488468
 10
73.4149756790774
 20
130.2676018488468
 10
73.94989872041269
 20
129.3624740509957
 10
73.62066784293772
 20
128.9922692944796
 10
73.62066784293772
 20
128.9922692944796
 10
74.27892597274945
 20
128.2516952277168
 10
73.90871914920781
 20
127.6757571689072
 10
73.90871914920781
 20
127.6757571689072
 10
76.0889738092626
 20
125.9068868365737
 10
75.2250255826161
 20
124.3025290968951
 10
75.2250255826161
 20
124.3025290968951
 10
76.00682035901659
 20
123.8087856267646
 10
76.00682035901659
 20
123.8087856267646
 10
76.00682035901659
 20
123.8087856267646
 10
76.0889738092626
 20
122.9448374001181
 10
76.0889738092626
 20
122.9448374001181
 10
76.0889738092626
 20
122.9448374001181
 10
76.58271727939301
 20
122.8626839498724
 10
76.58271727939301
 20
122.8626839498724
 10
76.58271727939301
 20
122.8626839498724
 10
77.89902371280162
 20
120.4765314337936
 10
77.89902371280162
 20
120.4765314337936
 10
77.89902371280162
 20
120.4765314337936
 10
79.13338238812797
 20
119.8183165094399
 10
79.13338238812797
 20
118.6253019590497
 10
79.13338238812797
 20
118.6253019590497
 10
80.36753537129024
 20
118.0905846098781
 10
80.03830670633485
 20
116.8976111979208
 10
80.03830670633485
 20
116.8976111979208
 10
82.42445700989414
 20
115.9101653960921
 10
82.42445700989414
 20
115.9101653960921
 10
82.42445700989414
 20
115.9101653960921
 10
82.91799707312786
 20
115.4577660508975
 10
82.91799707312786
 20
114.6349973954562
 10
82.91799707312786
 20
114.6349973954562
 10
84.23450691343284
 20
114.8817045767902
 10
84.35784225652422
 20
113.359664841089
 10
84.35784225652422
 20
113.359664841089
 10
85.18061093275048
 20
112.8247829381862
 10
85.2629677327351
 20
112.1255118579265
 10
85.2629677327351
 20
112.1255118579265
 10
88.14265802678096
 20
112.002014282745
 10
88.63619580474762
 20
111.0558714674193
 10
88.63619580474762
 20
111.0558714674193
 10
89.41799058114779
 20
111.0970510386245
 10
90.77547658576096
 20
109.3280161525591
 10
90.77547658576096
 20
109.3280161525591
 10
92.29768087519396
 20
109.2868365813545
 10
92.29768087519396
 20
109.2868365813545
 10
92.29768087519396
 20
109.2868365813545
 10
95.09501202682974
 20
107.6001196992667
 10
95.09501202682974
 20
107.6001196992667
 10
95.09501202682974
 20
107.6001196992667
 10
98.05706146328501
 20
107.8058118631267
 10
98.05706146328501
 20
107.8058118631267
 10
98.05706146328501
 20
107.8058118631267
 10
99.08552228258696
 20
106.9420281902115
 10
99.08552228258696
 20
106.9420281902115
 10
99.08552228258696
 20
106.9420281902115
 10
99.94947050923346
 20
106.9830432076854
 10
99.94947050923346
 20
106.9830432076854
 10
99.94947050923346
 20
106.9830432076854
 10
101.0600847787814
 20
105.7488902245228
 10
101.1836234923958
 20
105.7078752070489
 10
101.3069565138473
 20
105.6666956358443
 10
101.7183408415673
 20
105.5431980606622
 10
101.7183408415673
 20
105.5431980606622
 10
101.7183408415673
 20
105.5431980606622
 10
103.4874168660652
 20
104.3090450775002
 10
103.4874168660652
 20
104.3090450775002
 10
103.4874168660652
 20
104.3090450775002
 10
104.8860824418832
 20
104.59709638377
 10
104.8860824418832
 20
104.59709638377
 10
104.8860824418832
 20
104.59709638377
 10
105.8733636899803
 20
104.6794143877469
 10
105.8733636899803
 20
104.6794143877469
 10
105.8733636899803
 20
104.6794143877469
 10
106.2023888752915
 20
104.1445324848441
 10
106.2023888752915
 20
104.1445324848441
 10
106.2023888752915
 20
104.1445324848441
 10
106.9430040804871
 20
103.8566457323056
 10
107.9302853285845
 20
104.9261215690809
 10
107.9302853285845
 20
104.9261215690809
 10
108.4650026777557
 20
104.8851065516076
 10
109.0411052902959
 20
105.3786854680068
 10
109.0411052902959
 20
105.3786854680068
 10
110.5631038875648
 20
106.9420281902115
 10
111.3037190927604
 20
107.0654023500952
 10
111.3037190927604
 20
107.0654023500952
 10
111.9207955843417
 20
107.2299149427506
 10
112.2498207696526
 20
106.81853061503
 10
112.2498207696526
 20
106.81853061503
 10
112.7847438109883
 20
107.5179251105876
 10
113.9777172229463
 20
107.2710945139552
 10
113.9777172229463
 20
107.2710945139552
 10
114.7181267359778
 20
107.3122329467276
 10
115.1295110636985
 20
108.3818733372341
 10
115.1295110636985
 20
108.3818733372341
 10
117.392124866163
 20
108.7932576649554
 10
118.0915605001541
 20
109.8628980554619
 10
118.0915605001541
 20
109.8628980554619
 10
118.6262778493256
 20
110.2742823831826
 10
119.4902260759721
 20
110.233102811978
 10
119.4902260759721
 20
110.233102811978
 10
120.1073025675534
 20
109.6983854628065
 10
121.3826351219206
 20
111.0146918962147
 10
121.3826351219206
 20
111.0146918962147
 10
123.60406935318
 20
111.5496149375503
 10
124.7148893148916
 20
112.9071009421632
 10
124.7148893148916
 20
112.9071009421632
 10
125.5376579703336
 20
112.9071009421632
 10
125.5376579703336
 20
112.9071009421632
 10
125.5376579703336
 20
112.9071009421632
 10
126.3192470545704
 20
113.2773056986793
 10
126.7718109534956
 20
113.3184852698839
 10
126.7718109534956
 20
113.3184852698839
 10
128.458527835584
 20
115.0873967406508
 10
128.458527835584
 20
115.0873967406508
 10
128.458527835584
 20
115.0873967406508
 10
129.5279625339271
 20
115.7456116650038
 10
129.8571934114021
 20
116.5272418876734
 10
129.8571934114021
 20
116.5272418876734
 10
131.2970385584246
 20
117.2266363832317
 10
131.2970385584246
 20
117.2266363832317
 10
131.2970385584246
 20
117.2266363832317
 10
131.6260637437362
 20
118.543148508804
 10
133.2306271755783
 20
118.9955478539986
 10
133.2306271755783
 20
118.9955478539986
 10
134.1767288524705
 20
119.3247375930408
 10
133.9298571174053
 20
120.0651471060723
 10
133.9298571174053
 20
120.0651471060723
 10
134.0943697100607
 20
120.4353930010212
 10
134.6292927513963
 20
120.1475062484821
 10
134.6292927513963
 20
120.1475062484821
 10
136.2336504910744
 20
122.4923146396251
 10
138.496264293539
 20
123.2740682775931
 10
138.496264293539
 20
123.2740682775931
 10
139.0309816427105
 20
124.7139134246164
 10
139.0309816427105
 20
124.7139134246164
 10
139.0309816427105
 20
124.7139134246164
 10
140.5531859321429
 20
125.2898103449924
 10
140.5531859321429
 20
125.2898103449924
 10
140.5531859321429
 20
125.2898103449924
 10
140.9233906886589
 20
125.7011946727131
 10
140.9233906886589
 20
125.7011946727131
 10
140.9233906886589
 20
125.7011946727131
 10
142.2399028142313
 20
125.6600151015085
 10
142.4867745492965
 20
127.1822193909409
 10
142.4867745492965
 20
127.1822193909409
 10
143.3095432047378
 20
127.758116311317
 10
143.3095432047378
 20
127.758116311317
 10
143.3095432047378
 20
127.758116311317
 10
144.5025166166959
 20
129.5681662148563
 10
144.5025166166959
 20
129.5681662148563
 10
144.5025166166959
 20
129.5681662148563
 10
144.7905679229656
 20
130.0207301137816
 10
144.7905679229656
 20
130.0207301137816
 10
144.7905679229656
 20
130.0207301137816
 10
144.2556448816306
 20
130.6789861765681
 10
144.2556448816306
 20
130.6789861765681
 10
144.2556448816306
 20
130.6789861765681
 10
145.0372339658674
 20
131.2137035257396
 10
145.0372339658674
 20
131.2137035257396
 10
145.0372339658674
 20
131.2137035257396
 10
145.5721570072023
 20
131.5841139744191
 10
144.8727213732113
 20
132.0364721811809
 10
144.8727213732113
 20
132.0364721811809
 10
142.8981588770172
 20
132.4890360801068
 10
142.8981588770172
 20
132.4890360801068
 10
142.8981588770172
 20
132.4890360801068
 10
75.06051298996064
 20
145.9002063022376
 10
75.06051298996064
 20
145.9002063022376
 97
        0
 97
        0
 75
     2
 76
     1
 98
        0
  0
POLYLINE
  5
6E
330
68
100
AcDbEntity
  8
Layer 1
370
     0
100
AcDb2dPolyline
 66
     1
 10
0.0
 20
0.0
 30
0.0
  0
VERTEX
  5
6F
330
6E
100
AcDbEntity
  8
Layer 1
370
     0
100
AcDbVertex
100
AcDb2dVertex
 10
127.8002717727982
 20
178.6466456194109
 30
0.0
  0
VERTEX
  5
70
330
6E
100
AcDbEntity
  8
Layer 1
370
     0
100
AcDbVertex
100
AcDb2dVertex
 10
132.6545245630381
 20
178.0705430068708
 30
0.0
  0
VERTEX
  5
71
330
6E
100
AcDbEntity
  8
Layer 1
370
     0
100
AcDbVertex
100
AcDb2dVertex
 10
134.9583179367073
 20
173.9566997296626
 30
0.0
  0
VERTEX
  5
72
330
6E
100
AcDbEntity
  8
Layer 1
370
     0
100
AcDbVertex
100
AcDb2dVertex
 10
134.4236005875357
 20
172.8458797679509
 30
0.0
  0
VERTEX
  5
73
330
6E
100
AcDbEntity
  8
Layer 1
370
     0
100
AcDbVertex
100
AcDb2dVertex
 10
137.5089830454416
 20
172.43449544023
 30
0.0
  0
VERTEX
  5
74
330
6E
100
AcDbEntity
  8
Layer 1
370
     0
100
AcDbVertex
100
AcDb2dVertex
 10
136.8919065538603
 20
170.706804679101
 30
0.0
  0
VERTEX
  5
75
330
6E
100
AcDbEntity
  8
Layer 1
370
     0
100
AcDbVertex
100
AcDb2dVertex
 10
138.9076486212596
 20
167.0043457296139
 30
0.0
  0
VERTEX
  5
76
330
6E
100
AcDbEntity
  8
Layer 1
370
     0
100
AcDbVertex
100
AcDb2dVertex
 10
135.2875488141822
 20
163.589732394233
 30
0.0
  0
VERTEX
  5
77
330
6E
100
AcDbEntity
  8
Layer 1
370
     0
100
AcDbVertex
100
AcDb2dVertex
 10
138.496264293539
 20
164.3715317610478
 30
0.0
  0
VERTEX
  5
78
330
6E
100
AcDbEntity
  8
Layer 1
370
     0
100
AcDbVertex
100
AcDb2dVertex
 10
142.8981588770172
 20
163.5487630848216
 30
0.0
  0
VERTEX
  5
79
330
6E
100
AcDbEntity
  8
Layer 1
370
     0
100
AcDbVertex
100
AcDb2dVertex
 10
142.8981588770172
 20
159.3113765243692
 30
0.0
  0
VERTEX
  5
7A
330
6E
100
AcDbEntity
  8
Layer 1
370
     0
100
AcDbVertex
100
AcDb2dVertex
 10
141.9518515079609
 20
158.365274847477
 30
0.0
  0
VERTEX
  5
7B
330
6E
100
AcDbEntity
  8
Layer 1
370
     0
100
AcDbVertex
100
AcDb2dVertex
 10
143.8030809827048
 20
157.336814028175
 30
0.0
  0
VERTEX
  5
7C
330
6E
100
AcDbEntity
  8
Layer 1
370
     0
100
AcDbVertex
100
AcDb2dVertex
 10
142.8981588770172
 20
156.3905066591184
 30
0.0
  0
VERTEX
  5
7D
330
6E
100
AcDbEntity
  8
Layer 1
370
     0
100
AcDbVertex
100
AcDb2dVertex
 10
142.8981588770172
 20
150.8368182348877
 30
0.0
  0
VERTEX
  5
7E
330
6E
100
AcDbEntity
  8
Layer 1
370
     0
100
AcDbVertex
100
AcDb2dVertex
 10
118.3794061142604
 20
142.650311251676
 30
0.0
  0
VERTEX
  5
7F
330
6E
100
AcDbEntity
  8
Layer 1
370
     0
100
AcDbVertex
100
AcDb2dVertex
 10
142.6101075707467
 20
136.76739194997
 30
0.0
  0
VERTEX
  5
80
330
6E
100
AcDbEntity
  8
Layer 1
370
     0
100
AcDbVertex
100
AcDb2dVertex
 10
142.7334405921976
 20
132.6125747937211
 30
0.0
  0
VERTEX
  5
81
330
6E
100
AcDbEntity
  8
Layer 1
370
     0
100
AcDbVertex
100
AcDb2dVertex
 10
142.651287141952
 20
131.7486265670746
 30
0.0
  0
VERTEX
  5
82
330
6E
100
AcDbEntity
  8
Layer 1
370
     0
100
AcDbVertex
100
AcDb2dVertex
 10
140.6355450745526
 20
130.8846783404281
 30
0.0
  0
VERTEX
  5
83
330
6E
100
AcDbEntity
  8
Layer 1
370
     0
100
AcDbVertex
100
AcDb2dVertex
 10
140.1418016044222
 20
130.9258579116332
 30
0.0
  0
VERTEX
  5
84
330
6E
100
AcDbEntity
  8
Layer 1
370
     0
100
AcDbVertex
100
AcDb2dVertex
 10
140.0594424620124
 20
129.0744638831581
 30
0.0
  0
VERTEX
  5
85
330
6E
100
AcDbEntity
  8
Layer 1
370
     0
100
AcDbVertex
100
AcDb2dVertex
 10
137.4266239030318
 20
129.5269866436511
 30
0.0
  0
VERTEX
  5
86
330
6E
100
AcDbEntity
  8
Layer 1
370
     0
100
AcDbVertex
100
AcDb2dVertex
 10
134.1355492812653
 20
128.0460030638561
 30
0.0
  0
VERTEX
  5
87
330
6E
100
AcDbEntity
  8
Layer 1
370
     0
100
AcDbVertex
100
AcDb2dVertex
 10
105.256287198399
 20
135.8212902730778
 30
0.0
  0
VERTEX
  5
88
330
6E
100
AcDbEntity
  8
Layer 1
370
     0
100
AcDbVertex
100
AcDb2dVertex
 10
87.60773498544535
 20
119.6537627783516
 30
0.0
  0
VERTEX
  5
89
330
6E
100
AcDbEntity
  8
Layer 1
370
     0
100
AcDbVertex
100
AcDb2dVertex
 10
82.38327743868926
 20
121.4228388028499
 30
0.0
  0
VERTEX
  5
8A
330
6E
100
AcDbEntity
  8
Layer 1
370
     0
100
AcDbVertex
100
AcDb2dVertex
 10
82.50661273501458
 20
141.0047739407928
 30
0.0
  0
VERTEX
  5
8B
330
6E
100
AcDbEntity
  8
Layer 1
370
     0
100
AcDbVertex
100
AcDb2dVertex
 10
83.32938141124085
 20
141.6218504323741
 30
0.0
  0
VERTEX
  5
8C
330
6E
100
AcDbEntity
  8
Layer 1
370
     0
100
AcDbVertex
100
AcDb2dVertex
 10
75.10169464897602
 20
143.9256438060438
 30
0.0
  0
VERTEX
  5
8D
330
6E
100
AcDbEntity
  8
Layer 1
370
     0
100
AcDbVertex
100
AcDb2dVertex
 10
75.18405170357497
 20
148.0804609622924
 30
0.0
  0
VERTEX
  5
8E
330
6E
100
AcDbEntity
  8
Layer 1
370
     0
100
AcDbVertex
100
AcDb2dVertex
 10
79.00984586105179
 20
149.232460495209
 30
0.0
  0
VERTEX
  5
8F
330
6E
100
AcDbEntity
  8
Layer 1
370
     0
100
AcDbVertex
100
AcDb2dVertex
 10
78.96866410330813
 20
150.3021008857162
 30
0.0
  0
VERTEX
  5
90
330
6E
100
AcDbEntity
  8
Layer 1
370
     0
100
AcDbVertex
100
AcDb2dVertex
 10
81.88953622784481
 20
149.9316904370363
 30
0.0
  0
VERTEX
  5
91
330
6E
100
AcDbEntity
  8
Layer 1
370
     0
100
AcDbVertex
100
AcDb2dVertex
 10
84.27568648463772
 20
150.631126071027
 30
0.0
  0
VERTEX
  5
92
330
6E
100
AcDbEntity
  8
Layer 1
370
     0
100
AcDbVertex
100
AcDb2dVertex
 10
91.84511697626779
 20
148.7798965962835
 30
0.0
  0
VERTEX
  5
93
330
6E
100
AcDbEntity
  8
Layer 1
370
     0
100
AcDbVertex
100
AcDb2dVertex
 10
127.8002717727982
 20
178.6466456194109
 30
0.0
  0
SEQEND
  5
95
330
6E
100
AcDbEntity
  8
Layer 1
370
     0
  0
HATCH
  5
94
330
68
100
AcDbEntity
  8
Layer 1
 62
    43
420
 15510365
100
AcDbHatch
 10
0.0
 20
0.0
 30
0.0
210
0.0
220
0.0
230
1.0
  2
SOLID
 70
     1
 71
     0
 91
        1
 92
        1
 93
       36
 72
     1
 10
127.8002717727982
 20
178.6466456194109
 11
132.6545245630381
 21
178.0705430068708
 72
     1
 10
132.6545245630381
 20
178.0705430068708
 11
134.9583179367073
 21
173.9566997296626
 72
     1
 10
134.9583179367073
 20
173.9566997296626
 11
134.4236005875357
 21
172.8458797679509
 72
     1
 10
134.4236005875357
 20
172.8458797679509
 11
137.5089830454416
 21
172.43449544023
 72
     1
 10
137.5089830454416
 20
172.43449544023
 11
136.8919065538603
 21
170.706804679101
 72
     1
 10
136.8919065538603
 20
170.706804679101
 11
138.9076486212596
 21
167.0043457296139
 72
     1
 10
138.9076486212596
 20
167.0043457296139
 11
135.2875488141822
 21
163.589732394233
 72
     1
 10
135.2875488141822
 20
163.589732394233
 11
138.496264293539
 21
164.3715317610478
 72
     1
 10
138.496264293539
 20
164.3715317610478
 11
142.8981588770172
 21
163.5487630848216
 72
     1
 10
142.8981588770172
 20
163.5487630848216
 11
142.8981588770172
 21
159.3113765243692
 72
     1
 10
142.8981588770172
 20
159.3113765243692
 11
141.9518515079609
 21
158.365274847477
 72
     1
 10
141.9518515079609
 20
158.365274847477
 11
143.8030809827048
 21
157.336814028175
 72
     1
 10
143.8030809827048
 20
157.336814028175
 11
142.8981588770172
 21
156.3905066591184
 72
     1
 10
142.8981588770172
 20
156.3905066591184
 11
142.8981588770172
 21
150.8368182348877
 72
     1
 10
142.8981588770172
 20
150.8368182348877
 11
118.3794061142604
 21
142.650311251676
 72
     1
 10
118.3794061142604
 20
142.650311251676
 11
142.6101075707467
 21
136.76739194997
 72
     1
 10
142.6101075707467
 20
136.76739194997
 11
142.7334405921976
 21
132.6125747937211
 72
     1
 10
142.7334405921976
 20
132.6125747937211
 11
142.651287141952
 21
131.7486265670746
 72
     1
 10
142.651287141952
 20
131.7486265670746
 11
140.6355450745526
 21
130.8846783404281
 72
     1
 10
140.6355450745526
 20
130.8846783404281
 11
140.1418016044222
 21
130.9258579116332
 72
     1
 10
140.1418016044222
 20
130.9258579116332
 11
140.0594424620124
 21
129.0744638831581
 72
     1
 10
140.0594424620124
 20
129.0744638831581
 11
137.4266239030318
 21
129.5269866436511
 72
     1
 10
137.4266239030318
 20
129.5269866436511
 11
134.1355492812653
 21
128.0460030638561
 72
     1
 10
134.1355492812653
 20
128.0460030638561
 11
105.256287198399
 21
135.8212902730778
 72
     1
 10
105.256287198399
 20
135.8212902730778
 11
87.60773498544535
 21
119.6537627783516
 72
     1
 10
87.60773498544535
 20
119.6537627783516
 11
82.38327743868926
 21
121.4228388028499
 72
     1
 10
82.38327743868926
 20
121.4228388028499
 11
82.50661273501458
 21
141.0047739407928
 72
     1
 10
82.50661273501458
 20
141.0047739407928
 11
83.32938141124085
 21
141.6218504323741
 72
     1
 10
83.32938141124085
 20
141.6218504323741
 11
75.10169464897602
 21
143.9256438060438
 72
     1
 10
75.10169464897602
 20
143.9256438060438
 11
75.18405170357497
 21
148.0804609622924
 72
     1
 10
75.18405170357497
 20
148.0804609622924
 11
79.00984586105179
 21
149.232460495209
 72
     1
 10
79.00984586105179
 20
149.232460495209
 11
78.96866410330813
 21
150.3021008857162
 72
     1
 10
78.96866410330813
 20
150.3021008857162
 11
81.88953622784481
 21
149.9316904370363
 72
     1
 10
81.88953622784481
 20
149.9316904370363
 11
84.27568648463772
 21
150.631126071027
 72
     1
 10
84.27568648463772
 20
150.631126071027
 11
91.84511697626779
 21
148.7798965962835
 72
     1
 10
91.84511697626779
 20
148.7798965962835
 11
127.8002717727982
 21
178.6466456194109
 97
        0
 75
     2
 76
     1
 98
        0
  0
SPLINE
  5
96
330
68
100
AcDbEntity
  8
Layer 1
370
     0
100
AcDbSpline
210
0.0
220
0.0
230
1.0
 70
    11
 71
     3
 72
    50
 73
    46
 74
     0
 42
0.0000000001
 43
0.0000000001
 12
1.0
 22
0.0
 32
0.0
 13
1.0
 23
0.0
 33
0.0
 40
0.0
 40
0.0
 40
0.0
 40
0.0
 40
1.0
 40
1.0
 40
1.0
 40
2.0
 40
2.0
 40
2.0
 40
3.0
 40
3.0
 40
3.0
 40
4.0
 40
4.0
 40
4.0
 40
5.0
 40
5.0
 40
5.0
 40
6.0
 40
6.0
 40
6.0
 40
7.0
 40
7.0
 40
7.0
 40
8.0
 40
8.0
 40
8.0
 40
9.0
 40
9.0
 40
9.0
 40
10.0
 40
10.0
 40
10.0
 40
11.0
 40
11.0
 40
11.0
 40
12.0
 40
12.0
 40
12.0
 40
13.0
 40
13.0
 40
13.0
 40
14.0
 40
14.0
 40
14.0
 40
15.0
 40
15.0
 40
15.0
 40
15.0
 10
132.4488323991775
 20
165.4409618689763
 30
0.0
 10
132.4488323991775
 20
165.4409618689763
 30
0.0
 10
133.2716010546195
 20
165.15311625487
 30
0.0
 10
133.2716010546195
 20
165.15311625487
 30
0.0
 10
133.2716010546195
 20
165.15311625487
 30
0.0
 10
133.312780625824
 20
150.2609213145113
 30
0.0
 10
133.312780625824
 20
150.2609213145113
 30
0.0
 10
133.312780625824
 20
150.2609213145113
 30
0.0
 10
114.265562837052
 20
144.048976827494
 30
0.0
 10
114.265562837052
 20
144.048976827494
 30
0.0
 10
114.265562837052
 20
144.048976827494
 30
0.0
 10
115.4587419411735
 20
135.9036494154876
 30
0.0
 10
115.4587419411735
 20
135.9036494154876
 30
0.0
 10
115.4587419411735
 20
135.9036494154876
 30
0.0
 10
115.2530497773134
 20
134.5459577187106
 30
0.0
 10
113.8541785093313
 20
134.5047781475054
 30
0.0
 10
113.8541785093313
 20
134.5047781475054
 30
0.0
 10
105.9557228323901
 20
136.5207259070689
 30
0.0
 10
105.9557228323901
 20
136.5207259070689
 30
0.0
 10
105.9557228323901
 20
136.5207259070689
 30
0.0
 10
109.3701304756074
 20
139.7706209576308
 30
0.0
 10
109.3701304756074
 20
139.7706209576308
 30
0.0
 10
109.3701304756074
 20
139.7706209576308
 30
0.0
 10
109.4934634970577
 20
140.0996461429417
 30
0.0
 10
108.9587461478861
 20
139.9351335502859
 30
0.0
 10
108.9587461478861
 20
139.9351335502859
 30
0.0
 10
106.8194653668728
 20
139.2356979162952
 30
0.0
 10
106.8194653668728
 20
139.2356979162952
 30
0.0
 10
106.8194653668728
 20
139.2356979162952
 30
0.0
 10
106.3259275889061
 20
138.9890318733934
 30
0.0
 10
105.8733636899803
 20
139.4004162011147
 30
0.0
 10
105.8733636899803
 20
139.4004162011147
 30
0.0
 10
105.9145432611852
 20
151.3305617050181
 30
0.0
 10
105.9145432611852
 20
151.3305617050181
 30
0.0
 10
105.9145432611852
 20
151.3305617050181
 30
0.0
 10
109.2467974541565
 20
152.3178429531152
 30
0.0
 10
109.2467974541565
 20
152.3178429531152
 30
0.0
 10
109.2467974541565
 20
152.3178429531152
 30
0.0
 10
111.4270521142113
 20
151.8243094485937
 30
0.0
 10
111.4270521142113
 20
151.8243094485937
 30
0.0
 10
111.4270521142113
 20
151.8243094485937
 30
0.0
 10
111.5094112566211
 20
159.969632587155
 30
0.0
 10
111.5094112566211
 20
159.969632587155
 30
0.0
 10
111.5094112566211
 20
159.969632587155
 30
0.0
 10
132.4488323991775
 20
165.4409618689763
 30
0.0
 10
132.4488323991775
 20
165.4409618689763
 30
0.0
  0
HATCH
  5
97
330
68
100
AcDbEntity
  8
Layer 1
 62
   254
420
 13358815
100
AcDbHatch
 10
0.0
 20
0.0
 30
0.0
210
0.0
220
0.0
230
1.0
  2
SOLID
 70
     1
 71
     0
 91
        1
 92
        1
 93
        1
 72
     4
 94
        3
 73
     0
 74
     1
 95
       50
 96
       46
 40
0.0
 40
0.0
 40
0.0
 40
0.0
 40
1.0
 40
1.0
 40
1.0
 40
2.0
 40
2.0
 40
2.0
 40
3.0
 40
3.0
 40
3.0
 40
4.0
 40
4.0
 40
4.0
 40
5.0
 40
5.0
 40
5.0
 40
6.0
 40
6.0
 40
6.0
 40
7.0
 40
7.0
 40
7.0
 40
8.0
 40
8.0
 40
8.0
 40
9.0
 40
9.0
 40
9.0
 40
10.0
 40
10.0
 40
10.0
 40
11.0
 40
11.0
 40
11.0
 40
12.0
 40
12.0
 40
12.0
 40
13.0
 40
13.0
 40
13.0
 40
14.0
 40
14.0
 40
14.0
 40
15.0
 40
15.0
 40
15.0
 40
15.0
 10
132.4488323991775
 20
165.4409618689763
 10
132.4488323991775
 20
165.4409618689763
 10
133.2716010546195
 20
165.15311625487
 10
133.2716010546195
 20
165.15311625487
 10
133.2716010546195
 20
165.15311625487
 10
133.312780625824
 20
150.2609213145113
 10
133.312780625824
 20
150.2609213145113
 10
133.312780625824
 20
150.2609213145113
 10
114.265562837052
 20
144.048976827494
 10
114.265562837052
 20
144.048976827494
 10
114.265562837052
 20
144.048976827494
 10
115.4587419411735
 20
135.9036494154876
 10
115.4587419411735
 20
135.9036494154876
 10
115.4587419411735
 20
135.9036494154876
 10
115.2530497773134
 20
134.5459577187106
 10
113.8541785093313
 20
134.5047781475054
 10
113.8541785093313
 20
134.5047781475054
 10
105.9557228323901
 20
136.5207259070689
 10
105.9557228323901
 20
136.5207259070689
 10
105.9557228323901
 20
136.5207259070689
 10
109.3701304756074
 20
139.7706209576308
 10
109.3701304756074
 20
139.7706209576308
 10
109.3701304756074
 20
139.7706209576308
 10
109.4934634970577
 20
140.0996461429417
 10
108.9587461478861
 20
139.9351335502859
 10
108.9587461478861
 20
139.9351335502859
 10
106.8194653668728
 20
139.2356979162952
 10
106.8194653668728
 20
139.2356979162952
 10
106.8194653668728
 20
139.2356979162952
 10
106.3259275889061
 20
138.9890318733934
 10
105.8733636899803
 20
139.4004162011147
 10
105.8733636899803
 20
139.4004162011147
 10
105.9145432611852
 20
151.3305617050181
 10
105.9145432611852
 20
151.3305617050181
 10
105.9145432611852
 20
151.3305617050181
 10
109.2467974541565
 20
152.3178429531152
 10
109.2467974541565
 20
152.3178429531152
 10
109.2467974541565
 20
152.3178429531152
 10
111.4270521142113
 20
151.8243094485937
 10
111.4270521142113
 20
151.8243094485937
 10
111.4270521142113
 20
151.8243094485937
 10
111.5094112566211
 20
159.969632587155
 10
111.5094112566211
 20
159.969632587155
 10
111.5094112566211
 20
159.969632587155
 10
132.4488323991775
 20
165.4409618689763
 10
132.4488323991775
 20
165.4409618689763
 97
        0
 97
        0
 75
     2
 76
     1
 98
        0
  0
SPLINE
  5
98
330
68
100
AcDbEntity
  8
Layer 1
 62
     7
420
 16777215
370
     9
100
AcDbSpline
210
0.0
220
0.0
230
1.0
 70
    11
 71
     3
 72
    47
 73
    43
 74
     0
 42
0.0000000001
 43
0.0000000001
 12
1.0
 22
0.0
 32
0.0
 13
1.0
 23
0.0
 33
0.0
 40
0.0
 40
0.0
 40
0.0
 40
0.0
 40
1.0
 40
1.0
 40
1.0
 40
2.0
 40
2.0
 40
2.0
 40
3.0
 40
3.0
 40
3.0
 40
4.0
 40
4.0
 40
4.0
 40
5.0
 40
5.0
 40
5.0
 40
6.0
 40
6.0
 40
6.0
 40
7.0
 40
7.0
 40
7.0
 40
8.0
 40
8.0
 40
8.0
 40
9.0
 40
9.0
 40
9.0
 40
10.0
 40
10.0
 40
10.0
 40
11.0
 40
11.0
 40
11.0
 40
12.0
 40
12.0
 40
12.0
 40
13.0
 40
13.0
 40
13.0
 40
14.0
 40
14.0
 40
14.0
 40
14.0
 10
73.36013814819204
 20
137.3159729509858
 30
0.0
 10
73.36013814819204
 20
137.3159729509858
 30
0.0
 10
82.46543088893527
 20
134.7379919228905
 30
0.0
 10
82.46543088893527
 20
134.7379919228905
 30
0.0
 10
82.46543088893527
 20
134.7379919228905
 30
0.0
 10
82.46543088893527
 20
133.3118047355481
 30
0.0
 10
82.46543088893527
 20
133.3118047355481
 30
0.0
 10
82.46543088893527
 20
133.3118047355481
 30
0.0
 10
81.80738051831284
 20
133.5311548590889
 30
0.0
 10
81.80738051831284
 20
133.5311548590889
 30
0.0
 10
81.80738051831284
 20
133.5311548590889
 30
0.0
 10
81.75254524325308
 20
126.29074955277
 30
0.0
 10
81.75254524325308
 20
126.29074955277
 30
0.0
 10
81.75254524325308
 20
126.29074955277
 30
0.0
 10
82.52026841982031
 20
126.0713994292292
 30
0.0
 10
82.52026841982031
 20
126.0713994292292
 30
0.0
 10
82.52026841982031
 20
126.0713994292292
 30
0.0
 10
82.57531391947965
 20
124.7549284420896
 30
0.0
 10
82.57531391947965
 20
124.7549284420896
 30
0.0
 10
82.57531391947965
 20
124.7549284420896
 30
0.0
 10
74.07323380369264
 20
127.3879115548015
 30
0.0
 10
74.07323380369264
 20
127.3879115548015
 30
0.0
 10
74.07323380369264
 20
127.3879115548015
 30
0.0
 10
73.85388161832276
 20
127.6072616783417
 30
0.0
 10
74.01839421097822
 20
128.0460030638561
 30
0.0
 10
74.01839421097822
 20
128.0460030638561
 30
0.0
 10
73.90871914920781
 20
128.6493841453216
 30
0.0
 10
73.90871914920781
 20
128.6493841453216
 30
0.0
 10
73.90871914920781
 20
128.6493841453216
 30
0.0
 10
80.43603086185577
 20
126.6748179611303
 30
0.0
 10
80.43603086185577
 20
126.6748179611303
 30
0.0
 10
80.43603086185577
 20
126.6748179611303
 30
0.0
 10
80.71021851628194
 20
126.4554714701637
 30
0.0
 10
80.71021851628194
 20
126.8941680846705
 30
0.0
 10
80.71021851628194
 20
126.8941680846705
 30
0.0
 10
80.65538321350462
 20
133.7507106747937
 30
0.0
 10
80.65538321350462
 20
133.7507106747937
 30
0.0
 10
80.65538321350462
 20
133.7507106747937
 30
0.0
 10
73.1956255555366
 20
135.999460825414
 30
0.0
 10
73.1956255555366
 20
135.999460825414
 30
0.0
 10
73.1956255555366
 20
135.999460825414
 30
0.0
 10
73.14078802465154
 20
136.3835292337737
 30
0.0
 10
73.36013814819204
 20
137.3159729509858
 30
0.0
  0
HATCH
  5
99
330
68
100
AcDbEntity
  8
Layer 1
 62
     7
420
 15921906
100
AcDbHatch
 10
0.0
 20
0.0
 30
0.0
210
0.0
220
0.0
230
1.0
  2
SOLID
 70
     1
 71
     0
 91
        1
 92
        1
 93
        1
 72
     4
 94
        3
 73
     0
 74
     1
 95
       47
 96
       43
 40
0.0
 40
0.0
 40
0.0
 40
0.0
 40
1.0
 40
1.0
 40
1.0
 40
2.0
 40
2.0
 40
2.0
 40
3.0
 40
3.0
 40
3.0
 40
4.0
 40
4.0
 40
4.0
 40
5.0
 40
5.0
 40
5.0
 40
6.0
 40
6.0
 40
6.0
 40
7.0
 40
7.0
 40
7.0
 40
8.0
 40
8.0
 40
8.0
 40
9.0
 40
9.0
 40
9.0
 40
10.0
 40
10.0
 40
10.0
 40
11.0
 40
11.0
 40
11.0
 40
12.0
 40
12.0
 40
12.0
 40
13.0
 40
13.0
 40
13.0
 40
14.0
 40
14.0
 40
14.0
 40
14.0
 10
73.36013814819204
 20
137.3159729509858
 10
73.36013814819204
 20
137.3159729509858
 10
82.46543088893527
 20
134.7379919228905
 10
82.46543088893527
 20
134.7379919228905
 10
82.46543088893527
 20
134.7379919228905
 10
82.46543088893527
 20
133.3118047355481
 10
82.46543088893527
 20
133.3118047355481
 10
82.46543088893527
 20
133.3118047355481
 10
81.80738051831284
 20
133.5311548590889
 10
81.80738051831284
 20
133.5311548590889
 10
81.80738051831284
 20
133.5311548590889
 10
81.75254524325308
 20
126.29074955277
 10
81.75254524325308
 20
126.29074955277
 10
81.75254524325308
 20
126.29074955277
 10
82.52026841982031
 20
126.0713994292292
 10
82.52026841982031
 20
126.0713994292292
 10
82.52026841982031
 20
126.0713994292292
 10
82.57531391947965
 20
124.7549284420896
 10
82.57531391947965
 20
124.7549284420896
 10
82.57531391947965
 20
124.7549284420896
 10
74.07323380369264
 20
127.3879115548015
 10
74.07323380369264
 20
127.3879115548015
 10
74.07323380369264
 20
127.3879115548015
 10
73.85388161832276
 20
127.6072616783417
 10
74.01839421097822
 20
128.0460030638561
 10
74.01839421097822
 20
128.0460030638561
 10
73.90871914920781
 20
128.6493841453216
 10
73.90871914920781
 20
128.6493841453216
 10
73.90871914920781
 20
128.6493841453216
 10
80.43603086185577
 20
126.6748179611303
 10
80.43603086185577
 20
126.6748179611303
 10
80.43603086185577
 20
126.6748179611303
 10
80.71021851628194
 20
126.4554714701637
 10
80.71021851628194
 20
126.8941680846705
 10
80.71021851628194
 20
126.8941680846705
 10
80.65538321350462
 20
133.7507106747937
 10
80.65538321350462
 20
133.7507106747937
 10
80.65538321350462
 20
133.7507106747937
 10
73.1956255555366
 20
135.999460825414
 10
73.1956255555366
 20
135.999460825414
 10
73.1956255555366
 20
135.999460825414
 10
73.14078802465154
 20
136.3835292337737
 10
73.36013814819204
 20
137.3159729509858
 97
        0
 97
        0
 75
     2
 76
     1
 98
        0
  0
SPLINE
  5
9A
330
68
100
AcDbEntity
  8
Layer 1
 62
     7
420
 16777215
370
     9
100
AcDbSpline
210
0.0
220
0.0
230
1.0
 70
    11
 71
     3
 72
   104
 73
   100
 74
     0
 42
0.0000000001
 43
0.0000000001
 12
1.0
 22
0.0
 32
0.0
 13
1.0
 23
0.0
 33
0.0
 40
0.0
 40
0.0
 40
0.0
 40
0.0
 40
1.0
 40
1.0
 40
1.0
 40
2.0
 40
2.0
 40
2.0
 40
3.0
 40
3.0
 40
3.0
 40
4.0
 40
4.0
 40
4.0
 40
5.0
 40
5.0
 40
5.0
 40
6.0
 40
6.0
 40
6.0
 40
7.0
 40
7.0
 40
7.0
 40
8.0
 40
8.0
 40
8.0
 40
9.0
 40
9.0
 40
9.0
 40
10.0
 40
10.0
 40
10.0
 40
11.0
 40
11.0
 40
11.0
 40
12.0
 40
12.0
 40
12.0
 40
13.0
 40
13.0
 40
13.0
 40
14.0
 40
14.0
 40
14.0
 40
15.0
 40
15.0
 40
15.0
 40
16.0
 40
16.0
 40
16.0
 40
17.0
 40
17.0
 40
17.0
 40
18.0
 40
18.0
 40
18.0
 40
19.0
 40
19.0
 40
19.0
 40
20.0
 40
20.0
 40
20.0
 40
21.0
 40
21.0
 40
21.0
 40
22.0
 40
22.0
 40
22.0
 40
23.0
 40
23.0
 40
23.0
 40
24.0
 40
24.0
 40
24.0
 40
25.0
 40
25.0
 40
25.0
 40
26.0
 40
26.0
 40
26.0
 40
27.0
 40
27.0
 40
27.0
 40
28.0
 40
28.0
 40
28.0
 40
29.0
 40
29.0
 40
29.0
 40
30.0
 40
30.0
 40
30.0
 40
31.0
 40
31.0
 40
31.0
 40
32.0
 40
32.0
 40
32.0
 40
33.0
 40
33.0
 40
33.0
 40
33.0
 10
79.83261453727836
 20
118.3374563449434
 30
0.0
 10
79.83261453727836
 20
118.3374563449434
 30
0.0
 10
92.0644670998086
 20
114.1137734522336
 30
0.0
 10
92.0644670998086
 20
114.1137734522336
 30
0.0
 10
92.0644670998086
 20
114.1137734522336
 30
0.0
 10
92.00962956892356
 20
121.7382060284806
 30
0.0
 10
92.00962956892356
 20
121.7382060284806
 30
0.0
 10
92.00962956892356
 20
121.7382060284806
 30
0.0
 10
90.52860732822292
 20
122.231949498611
 30
0.0
 10
90.52860732822292
 20
122.231949498611
 30
0.0
 10
90.52860732822292
 20
122.231949498611
 30
0.0
 10
91.62576935797104
 20
123.1093911312064
 30
0.0
 10
91.62576935797104
 20
123.1093911312064
 30
0.0
 10
91.62576935797104
 20
123.1093911312064
 30
0.0
 10
104.6255527471375
 20
118.9406691846804
 30
0.0
 10
104.6255527471375
 20
118.9406691846804
 30
0.0
 10
104.6255527471375
 20
118.9406691846804
 30
0.0
 10
104.6803902780229
 20
126.7296554920151
 30
0.0
 10
104.6803902780229
 20
126.7296554920151
 30
0.0
 10
104.6803902780229
 20
126.7296554920151
 30
0.0
 10
97.82384768789997
 20
128.8687717192981
 30
0.0
 10
97.82384768789997
 20
128.8687717192981
 30
0.0
 10
97.82384768789997
 20
128.8687717192981
 30
0.0
 10
98.92100968993152
 20
129.9658925828968
 30
0.0
 10
98.92100968993152
 20
129.9658925828968
 30
0.0
 10
98.92100968993152
 20
129.9658925828968
 30
0.0
 10
118.1188764195144
 20
124.4258621183459
 30
0.0
 10
118.1188764195144
 20
124.4258621183459
 30
0.0
 10
118.1188764195144
 20
124.4258621183459
 30
0.0
 10
118.0640388886297
 20
132.3245234874513
 30
0.0
 10
118.0640388886297
 20
132.3245234874513
 30
0.0
 10
118.0640388886297
 20
132.3245234874513
 30
0.0
 10
119.4902260759721
 20
131.9954983021398
 30
0.0
 10
119.4902260759721
 20
131.9954983021398
 30
0.0
 10
119.4902260759721
 20
131.9954983021398
 30
0.0
 10
119.4902260759721
 20
123.9321597866483
 30
0.0
 10
119.4902260759721
 20
123.9321597866483
 30
0.0
 10
119.4902260759721
 20
123.9321597866483
 30
0.0
 10
130.1313810658276
 20
120.9154373730386
 30
0.0
 10
130.1313810658276
 20
120.9154373730386
 30
0.0
 10
130.1313810658276
 20
120.9154373730386
 30
0.0
 10
129.4731284643901
 20
120.4216973830564
 30
0.0
 10
129.4182874721564
 20
119.4892501856962
 30
0.0
 10
129.4182874721564
 20
119.4892501856962
 30
0.0
 10
106.0515342423162
 20
126.4004657529729
 30
0.0
 10
106.0515342423162
 20
126.4004657529729
 30
0.0
 10
106.0515342423162
 20
126.4004657529729
 30
0.0
 10
105.9966967114312
 20
118.5568064684842
 30
0.0
 10
105.9966967114312
 20
118.5568064684842
 30
0.0
 10
105.9966967114312
 20
118.5568064684842
 30
0.0
 10
122.2877629197717
 20
113.2910047967923
 30
0.0
 10
122.2877629197717
 20
113.2910047967923
 30
0.0
 10
122.2877629197717
 20
113.2910047967923
 30
0.0
 10
121.6843443878712
 20
112.7974258803931
 30
0.0
 10
121.5746693261004
 20
112.1940106207913
 30
0.0
 10
121.5746693261004
 20
112.1940106207913
 30
0.0
 10
119.4902260759721
 20
112.7425883495078
 30
0.0
 10
119.4902260759721
 20
112.7425883495078
 30
0.0
 10
119.4902260759721
 20
112.7425883495078
 30
0.0
 10
119.4902260759721
 20
110.233102811978
 30
0.0
 10
119.4902260759721
 20
110.233102811978
 30
0.0
 10
119.4902260759721
 20
110.233102811978
 30
0.0
 10
118.3932697661047
 20
110.2194448522978
 30
0.0
 10
118.0915605001541
 20
109.8628980554619
 30
0.0
 10
118.0915605001541
 20
109.8628980554619
 30
0.0
 10
118.0640388886297
 20
113.2361672659069
 30
0.0
 10
118.0640388886297
 20
113.2361672659069
 30
0.0
 10
118.0640388886297
 20
113.2361672659069
 30
0.0
 10
93.435816756266
 20
121.244466059283
 30
0.0
 10
93.435816756266
 20
121.244466059283
 30
0.0
 10
93.435816756266
 20
121.244466059283
 30
0.0
 10
93.38097922538095
 20
113.6201945358344
 30
0.0
 10
93.38097922538095
 20
113.6201945358344
 30
0.0
 10
93.38097922538095
 20
113.6201945358344
 30
0.0
 10
111.6464022377522
 20
107.3122329467276
 30
0.0
 10
111.6464022377522
 20
107.3122329467276
 30
0.0
 10
111.6464022377522
 20
107.3122329467276
 30
0.0
 10
110.7687960514255
 20
106.9830432076854
 30
0.0
 10
110.110539988639
 20
106.4346298872059
 30
0.0
 10
110.110539988639
 20
106.4346298872059
 30
0.0
 10
106.0515342423162
 20
107.8608139477434
 30
0.0
 10
106.0515342423162
 20
107.8608139477434
 30
0.0
 10
106.0515342423162
 20
107.8608139477434
 30
0.0
 10
106.0515342423162
 20
104.4600642642061
 30
0.0
 10
106.0515342423162
 20
104.4600642642061
 30
0.0
 10
106.0515342423162
 20
104.4600642642061
 30
0.0
 10
105.5579964643496
 20
105.063318242376
 30
0.0
 10
104.7352278089076
 20
104.6245768568616
 30
0.0
 10
104.7352278089076
 20
104.6245768568616
 30
0.0
 10
104.6803902780229
 20
108.3543928641425
 30
0.0
 10
104.6803902780229
 20
108.3543928641425
 30
0.0
 10
104.6803902780229
 20
108.3543928641425
 30
0.0
 10
82.57531391947965
 20
116.0885005021596
 30
0.0
 10
82.57531391947965
 20
116.0885005021596
 30
0.0
 10
82.57531391947965
 20
116.0885005021596
 30
0.0
 10
79.94228739172503
 20
117.0757817502564
 30
0.0
 10
79.94228739172503
 20
117.0757817502564
 30
0.0
 10
79.94228739172503
 20
117.0757817502564
 30
0.0
 10
80.32635580008537
 20
117.2402943429118
 30
0.0
 10
79.83261453727836
 20
118.3374563449434
 30
0.0
  0
HATCH
  5
9B
330
68
100
AcDbEntity
  8
Layer 1
 62
     7
420
 15921906
100
AcDbHatch
 10
0.0
 20
0.0
 30
0.0
210
0.0
220
0.0
230
1.0
  2
SOLID
 70
     1
 71
     0
 91
        1
 92
        1
 93
        1
 72
     4
 94
        3
 73
     0
 74
     1
 95
      104
 96
      100
 40
0.0
 40
0.0
 40
0.0
 40
0.0
 40
1.0
 40
1.0
 40
1.0
 40
2.0
 40
2.0
 40
2.0
 40
3.0
 40
3.0
 40
3.0
 40
4.0
 40
4.0
 40
4.0
 40
5.0
 40
5.0
 40
5.0
 40
6.0
 40
6.0
 40
6.0
 40
7.0
 40
7.0
 40
7.0
 40
8.0
 40
8.0
 40
8.0
 40
9.0
 40
9.0
 40
9.0
 40
10.0
 40
10.0
 40
10.0
 40
11.0
 40
11.0
 40
11.0
 40
12.0
 40
12.0
 40
12.0
 40
13.0
 40
13.0
 40
13.0
 40
14.0
 40
14.0
 40
14.0
 40
15.0
 40
15.0
 40
15.0
 40
16.0
 40
16.0
 40
16.0
 40
17.0
 40
17.0
 40
17.0
 40
18.0
 40
18.0
 40
18.0
 40
19.0
 40
19.0
 40
19.0
 40
20.0
 40
20.0
 40
20.0
 40
21.0
 40
21.0
 40
21.0
 40
22.0
 40
22.0
 40
22.0
 40
23.0
 40
23.0
 40
23.0
 40
24.0
 40
24.0
 40
24.0
 40
25.0
 40
25.0
 40
25.0
 40
26.0
 40
26.0
 40
26.0
 40
27.0
 40
27.0
 40
27.0
 40
28.0
 40
28.0
 40
28.0
 40
29.0
 40
29.0
 40
29.0
 40
30.0
 40
30.0
 40
30.0
 40
31.0
 40
31.0
 40
31.0
 40
32.0
 40
32.0
 40
32.0
 40
33.0
 40
33.0
 40
33.0
 40
33.0
 10
79.83261453727836
 20
118.3374563449434
 10
79.83261453727836
 20
118.3374563449434
 10
92.0644670998086
 20
114.1137734522336
 10
92.0644670998086
 20
114.1137734522336
 10
92.0644670998086
 20
114.1137734522336
 10
92.00962956892356
 20
121.7382060284806
 10
92.00962956892356
 20
121.7382060284806
 10
92.00962956892356
 20
121.7382060284806
 10
90.52860732822292
 20
122.231949498611
 10
90.52860732822292
 20
122.231949498611
 10
90.52860732822292
 20
122.231949498611
 10
91.62576935797104
 20
123.1093911312064
 10
91.62576935797104
 20
123.1093911312064
 10
91.62576935797104
 20
123.1093911312064
 10
104.6255527471375
 20
118.9406691846804
 10
104.6255527471375
 20
118.9406691846804
 10
104.6255527471375
 20
118.9406691846804
 10
104.6803902780229
 20
126.7296554920151
 10
104.6803902780229
 20
126.7296554920151
 10
104.6803902780229
 20
126.7296554920151
 10
97.82384768789997
 20
128.8687717192981
 10
97.82384768789997
 20
128.8687717192981
 10
97.82384768789997
 20
128.8687717192981
 10
98.92100968993152
 20
129.9658925828968
 10
98.92100968993152
 20
129.9658925828968
 10
98.92100968993152
 20
129.9658925828968
 10
118.1188764195144
 20
124.4258621183459
 10
118.1188764195144
 20
124.4258621183459
 10
118.1188764195144
 20
124.4258621183459
 10
118.0640388886297
 20
132.3245234874513
 10
118.0640388886297
 20
132.3245234874513
 10
118.0640388886297
 20
132.3245234874513
 10
119.4902260759721
 20
131.9954983021398
 10
119.4902260759721
 20
131.9954983021398
 10
119.4902260759721
 20
131.9954983021398
 10
119.4902260759721
 20
123.9321597866483
 10
119.4902260759721
 20
123.9321597866483
 10
119.4902260759721
 20
123.9321597866483
 10
130.1313810658276
 20
120.9154373730386
 10
130.1313810658276
 20
120.9154373730386
 10
130.1313810658276
 20
120.9154373730386
 10
129.4731284643901
 20
120.4216973830564
 10
129.4182874721564
 20
119.4892501856962
 10
129.4182874721564
 20
119.4892501856962
 10
106.0515342423162
 20
126.4004657529729
 10
106.0515342423162
 20
126.4004657529729
 10
106.0515342423162
 20
126.4004657529729
 10
105.9966967114312
 20
118.5568064684842
 10
105.9966967114312
 20
118.5568064684842
 10
105.9966967114312
 20
118.5568064684842
 10
122.2877629197717
 20
113.2910047967923
 10
122.2877629197717
 20
113.2910047967923
 10
122.2877629197717
 20
113.2910047967923
 10
121.6843443878712
 20
112.7974258803931
 10
121.5746693261004
 20
112.1940106207913
 10
121.5746693261004
 20
112.1940106207913
 10
119.4902260759721
 20
112.7425883495078
 10
119.4902260759721
 20
112.7425883495078
 10
119.4902260759721
 20
112.7425883495078
 10
119.4902260759721
 20
110.233102811978
 10
119.4902260759721
 20
110.233102811978
 10
119.4902260759721
 20
110.233102811978
 10
118.3932697661047
 20
110.2194448522978
 10
118.0915605001541
 20
109.8628980554619
 10
118.0915605001541
 20
109.8628980554619
 10
118.0640388886297
 20
113.2361672659069
 10
118.0640388886297
 20
113.2361672659069
 10
118.0640388886297
 20
113.2361672659069
 10
93.435816756266
 20
121.244466059283
 10
93.435816756266
 20
121.244466059283
 10
93.435816756266
 20
121.244466059283
 10
93.38097922538095
 20
113.6201945358344
 10
93.38097922538095
 20
113.6201945358344
 10
93.38097922538095
 20
113.6201945358344
 10
111.6464022377522
 20
107.3122329467276
 10
111.6464022377522
 20
107.3122329467276
 10
111.6464022377522
 20
107.3122329467276
 10
110.7687960514255
 20
106.9830432076854
 10
110.110539988639
 20
106.4346298872059
 10
110.110539988639
 20
106.4346298872059
 10
106.0515342423162
 20
107.8608139477434
 10
106.0515342423162
 20
107.8608139477434
 10
106.0515342423162
 20
107.8608139477434
 10
106.0515342423162
 20
104.4600642642061
 10
106.0515342423162
 20
104.4600642642061
 10
106.0515342423162
 20
104.4600642642061
 10
105.5579964643496
 20
105.063318242376
 10
104.7352278089076
 20
104.6245768568616
 10
104.7352278089076
 20
104.6245768568616
 10
104.6803902780229
 20
108.3543928641425
 10
104.6803902780229
 20
108.3543928641425
 10
104.6803902780229
 20
108.3543928641425
 10
82.57531391947965
 20
116.0885005021596
 10
82.57531391947965
 20
116.0885005021596
 10
82.57531391947965
 20
116.0885005021596
 10
79.94228739172503
 20
117.0757817502564
 10
79.94228739172503
 20
117.0757817502564
 10
79.94228739172503
 20
117.0757817502564
 10
80.32635580008537
 20
117.2402943429118
 10
79.83261453727836
 20
118.3374563449434
 97
        0
 97
        0
 75
     2
 76
     1
 98
        0
  0
SPLINE
  5
9C
330
68
100
AcDbEntity
  8
Layer 1
 62
     7
420
 16777215
370
     9
100
AcDbSpline
210
0.0
220
0.0
230
1.0
 70
    11
 71
     3
 72
    71
 73
    67
 74
     0
 42
0.0000000001
 43
0.0000000001
 12
1.0
 22
0.0
 32
0.0
 13
1.0
 23
0.0
 33
0.0
 40
0.0
 40
0.0
 40
0.0
 40
0.0
 40
1.0
 40
1.0
 40
1.0
 40
2.0
 40
2.0
 40
2.0
 40
3.0
 40
3.0
 40
3.0
 40
4.0
 40
4.0
 40
4.0
 40
5.0
 40
5.0
 40
5.0
 40
6.0
 40
6.0
 40
6.0
 40
7.0
 40
7.0
 40
7.0
 40
8.0
 40
8.0
 40
8.0
 40
9.0
 40
9.0
 40
9.0
 40
10.0
 40
10.0
 40
10.0
 40
11.0
 40
11.0
 40
11.0
 40
12.0
 40
12.0
 40
12.0
 40
13.0
 40
13.0
 40
13.0
 40
14.0
 40
14.0
 40
14.0
 40
15.0
 40
15.0
 40
15.0
 40
16.0
 40
16.0
 40
16.0
 40
17.0
 40
17.0
 40
17.0
 40
18.0
 40
18.0
 40
18.0
 40
19.0
 40
19.0
 40
19.0
 40
20.0
 40
20.0
 40
20.0
 40
21.0
 40
21.0
 40
21.0
 40
22.0
 40
22.0
 40
22.0
 40
22.0
 10
130.1313810658276
 20
120.9154373730386
 30
0.0
 10
130.1313810658276
 20
120.9154373730386
 30
0.0
 10
131.2285430678591
 20
121.1896250274648
 30
0.0
 10
132.7642031692964
 20
122.0672347355096
 30
0.0
 10
132.7642031692964
 20
122.0672347355096
 30
0.0
 10
132.8190371556936
 20
121.9575561520207
 30
0.0
 10
133.0934305022832
 20
122.4512996221518
 30
0.0
 10
133.0934305022832
 20
122.4512996221518
 30
0.0
 10
133.3403022373484
 20
122.7254872765773
 30
0.0
 10
133.5048148300039
 20
122.6158122148072
 30
0.0
 10
133.5048148300039
 20
122.6158122148072
 30
0.0
 10
133.6693274226593
 20
122.4786190736226
 30
0.0
 10
133.77900248443
 20
122.6706497456926
 30
0.0
 10
133.77900248443
 20
122.6706497456926
 30
0.0
 10
134.3275834854458
 20
123.2740682775931
 30
0.0
 10
134.9310020173463
 20
123.2465466660687
 30
0.0
 10
134.9310020173463
 20
123.2465466660687
 30
0.0
 10
135.0955182133837
 20
123.1093911312064
 30
0.0
 10
136.2473084507546
 20
123.7676060555601
 30
0.0
 10
136.2473084507546
 20
123.7676060555601
 30
0.0
 10
136.4668642664595
 20
123.9596402597399
 30
0.0
 10
136.8782485941801
 20
123.9048027288546
 30
0.0
 10
136.8782485941801
 20
123.9048027288546
 30
0.0
 10
137.1249146370819
 20
123.8499651979699
 30
0.0
 10
137.3993079836715
 20
124.1516744639198
 30
0.0
 10
137.6734956380976
 20
124.4533837298703
 30
0.0
 10
137.3717863721471
 20
124.2338279141661
 30
0.0
 10
137.3717863721471
 20
124.2338279141661
 30
0.0
 10
137.3717863721471
 20
124.2338279141661
 30
0.0
 10
137.6459740265726
 20
124.6452122418868
 30
0.0
 10
138.3590676202438
 20
124.5903747110014
 30
0.0
 10
138.3590676202438
 20
124.5903747110014
 30
0.0
 10
138.797977256403
 20
124.5630587916411
 30
0.0
 10
139.0309816427105
 20
124.7139134246164
 30
0.0
 10
139.0309816427105
 20
124.7139134246164
 30
0.0
 10
138.7156144170798
 20
123.6579309937894
 30
0.0
 10
138.7156144170798
 20
123.6579309937894
 30
0.0
 10
138.7156144170798
 20
123.6579309937894
 30
0.0
 10
138.605939355309
 20
123.4110592587242
 30
0.0
 10
138.2769141699982
 20
123.2740682775931
 30
0.0
 10
138.2769141699982
 20
123.2740682775931
 30
0.0
 10
136.0827958580991
 20
122.5334530723975
 30
0.0
 10
135.8634457345583
 20
122.5609746839219
 30
0.0
 10
135.8634457345583
 20
122.5609746839219
 30
0.0
 10
135.1228305293627
 20
122.368940479742
 30
0.0
 10
134.574455220511
 20
121.9575561520207
 30
0.0
 10
134.574455220511
 20
121.9575561520207
 30
0.0
 10
133.5048148300039
 20
121.244466059283
 30
0.0
 10
133.0385965228176
 20
121.2171466389892
 30
0.0
 10
133.0385965228176
 20
121.2171466389892
 30
0.0
 10
132.1061492541858
 20
120.9154373730386
 30
0.0
 10
131.9414344930698
 20
120.6960907365783
 30
0.0
 10
131.9414344930698
 20
120.6960907365783
 30
0.0
 10
131.8044435084781
 20
120.5313689646783
 30
0.0
 10
131.4752091107609
 20
120.5862064955637
 30
0.0
 10
131.4752091107609
 20
120.5862064955637
 30
0.0
 10
131.0089872521549
 20
120.5313689646783
 30
0.0
 10
130.9541497212695
 20
120.1475062484821
 30
0.0
 10
130.9541497212695
 20
120.1475062484821
 30
0.0
 10
130.8169530479744
 20
120.0651471060723
 30
0.0
 10
130.5427653935489
 20
119.9279915712106
 30
0.0
 10
130.5427653935489
 20
119.9279915712106
 30
0.0
 10
129.5006466145661
 20
119.6264468589913
 30
0.0
 10
129.4182874721564
 20
119.4892501856962
 30
0.0
 10
129.4182874721564
 20
119.4892501856962
 30
0.0
 10
129.4458090836814
 20
120.3393758989313
 30
0.0
 10
130.1313810658276
 20
120.9154373730386
 30
0.0
  0
HATCH
  5
9D
330
68
100
AcDbEntity
  8
Layer 1
 62
     7
420
 15921906
100
AcDbHatch
 10
0.0
 20
0.0
 30
0.0
210
0.0
220
0.0
230
1.0
  2
SOLID
 70
     1
 71
     0
 91
        1
 92
        1
 93
        1
 72
     4
 94
        3
 73
     0
 74
     1
 95
       71
 96
       67
 40
0.0
 40
0.0
 40
0.0
 40
0.0
 40
1.0
 40
1.0
 40
1.0
 40
2.0
 40
2.0
 40
2.0
 40
3.0
 40
3.0
 40
3.0
 40
4.0
 40
4.0
 40
4.0
 40
5.0
 40
5.0
 40
5.0
 40
6.0
 40
6.0
 40
6.0
 40
7.0
 40
7.0
 40
7.0
 40
8.0
 40
8.0
 40
8.0
 40
9.0
 40
9.0
 40
9.0
 40
10.0
 40
10.0
 40
10.0
 40
11.0
 40
11.0
 40
11.0
 40
12.0
 40
12.0
 40
12.0
 40
13.0
 40
13.0
 40
13.0
 40
14.0
 40
14.0
 40
14.0
 40
15.0
 40
15.0
 40
15.0
 40
16.0
 40
16.0
 40
16.0
 40
17.0
 40
17.0
 40
17.0
 40
18.0
 40
18.0
 40
18.0
 40
19.0
 40
19.0
 40
19.0
 40
20.0
 40
20.0
 40
20.0
 40
21.0
 40
21.0
 40
21.0
 40
22.0
 40
22.0
 40
22.0
 40
22.0
 10
130.1313810658276
 20
120.9154373730386
 10
130.1313810658276
 20
120.9154373730386
 10
131.2285430678591
 20
121.1896250274648
 10
132.7642031692964
 20
122.0672347355096
 10
132.7642031692964
 20
122.0672347355096
 10
132.8190371556936
 20
121.9575561520207
 10
133.0934305022832
 20
122.4512996221518
 10
133.0934305022832
 20
122.4512996221518
 10
133.3403022373484
 20
122.7254872765773
 10
133.5048148300039
 20
122.6158122148072
 10
133.5048148300039
 20
122.6158122148072
 10
133.6693274226593
 20
122.4786190736226
 10
133.77900248443
 20
122.6706497456926
 10
133.77900248443
 20
122.6706497456926
 10
134.3275834854458
 20
123.2740682775931
 10
134.9310020173463
 20
123.2465466660687
 10
134.9310020173463
 20
123.2465466660687
 10
135.0955182133837
 20
123.1093911312064
 10
136.2473084507546
 20
123.7676060555601
 10
136.2473084507546
 20
123.7676060555601
 10
136.4668642664595
 20
123.9596402597399
 10
136.8782485941801
 20
123.9048027288546
 10
136.8782485941801
 20
123.9048027288546
 10
137.1249146370819
 20
123.8499651979699
 10
137.3993079836715
 20
124.1516744639198
 10
137.6734956380976
 20
124.4533837298703
 10
137.3717863721471
 20
124.2338279141661
 10
137.3717863721471
 20
124.2338279141661
 10
137.3717863721471
 20
124.2338279141661
 10
137.6459740265726
 20
124.6452122418868
 10
138.3590676202438
 20
124.5903747110014
 10
138.3590676202438
 20
124.5903747110014
 10
138.797977256403
 20
124.5630587916411
 10
139.0309816427105
 20
124.7139134246164
 10
139.0309816427105
 20
124.7139134246164
 10
138.7156144170798
 20
123.6579309937894
 10
138.7156144170798
 20
123.6579309937894
 10
138.7156144170798
 20
123.6579309937894
 10
138.605939355309
 20
123.4110592587242
 10
138.2769141699982
 20
123.2740682775931
 10
138.2769141699982
 20
123.2740682775931
 10
136.0827958580991
 20
122.5334530723975
 10
135.8634457345583
 20
122.5609746839219
 10
135.8634457345583
 20
122.5609746839219
 10
135.1228305293627
 20
122.368940479742
 10
134.574455220511
 20
121.9575561520207
 10
134.574455220511
 20
121.9575561520207
 10
133.5048148300039
 20
121.244466059283
 10
133.0385965228176
 20
121.2171466389892
 10
133.0385965228176
 20
121.2171466389892
 10
132.1061492541858
 20
120.9154373730386
 10
131.9414344930698
 20
120.6960907365783
 10
131.9414344930698
 20
120.6960907365783
 10
131.8044435084781
 20
120.5313689646783
 10
131.4752091107609
 20
120.5862064955637
 10
131.4752091107609
 20
120.5862064955637
 10
131.0089872521549
 20
120.5313689646783
 10
130.9541497212695
 20
120.1475062484821
 10
130.9541497212695
 20
120.1475062484821
 10
130.8169530479744
 20
120.0651471060723
 10
130.5427653935489
 20
119.9279915712106
 10
130.5427653935489
 20
119.9279915712106
 10
129.5006466145661
 20
119.6264468589913
 10
129.4182874721564
 20
119.4892501856962
 10
129.4182874721564
 20
119.4892501856962
 10
129.4458090836814
 20
120.3393758989313
 10
130.1313810658276
 20
120.9154373730386
 97
        0
 97
        0
 75
     2
 76
     1
 98
        0
  0
SPLINE
  5
9E
330
68
100
AcDbEntity
  8
Layer 1
 62
     7
420
 16777215
370
     9
100
AcDbSpline
210
0.0
220
0.0
230
1.0
 70
    11
 71
     3
 72
    53
 73
    49
 74
     0
 42
0.0000000001
 43
0.0000000001
 12
1.0
 22
0.0
 32
0.0
 13
1.0
 23
0.0
 33
0.0
 40
0.0
 40
0.0
 40
0.0
 40
0.0
 40
1.0
 40
1.0
 40
1.0
 40
2.0
 40
2.0
 40
2.0
 40
3.0
 40
3.0
 40
3.0
 40
4.0
 40
4.0
 40
4.0
 40
5.0
 40
5.0
 40
5.0
 40
6.0
 40
6.0
 40
6.0
 40
7.0
 40
7.0
 40
7.0
 40
8.0
 40
8.0
 40
8.0
 40
9.0
 40
9.0
 40
9.0
 40
10.0
 40
10.0
 40
10.0
 40
11.0
 40
11.0
 40
11.0
 40
12.0
 40
12.0
 40
12.0
 40
13.0
 40
13.0
 40
13.0
 40
14.0
 40
14.0
 40
14.0
 40
15.0
 40
15.0
 40
15.0
 40
16.0
 40
16.0
 40
16.0
 40
16.0
 10
122.2877629197717
 20
113.2910047967923
 30
0.0
 10
122.2877629197717
 20
113.2910047967923
 30
0.0
 10
123.4395567605245
 20
113.5105194740643
 30
0.0
 10
124.2896413353268
 20
114.1412539253258
 30
0.0
 10
124.2896413353268
 20
114.1412539253258
 30
0.0
 10
124.4816755395066
 20
114.7446724572263
 30
0.0
 10
125.2496066640632
 20
114.662316649471
 30
0.0
 10
125.2496066640632
 20
114.662316649471
 30
0.0
 10
125.4964783991284
 20
114.5526382530465
 30
0.0
 10
125.9353843383741
 20
114.9091850498824
 30
0.0
 10
125.9353843383741
 20
114.9091850498824
 30
0.0
 10
126.8403064440611
 20
115.6495945629139
 30
0.0
 10
128.8150746324193
 20
116.3626881565851
 30
0.0
 10
128.8150746324193
 20
116.3626881565851
 30
0.0
 10
129.8023558805167
 20
116.6643974225357
 30
0.0
 10
130.2958971406167
 20
116.7740724843058
 30
0.0
 10
130.2958971406167
 20
116.7740724843058
 30
0.0
 10
129.5279625339271
 20
116.2805347063395
 30
0.0
 10
129.390971552796
 20
115.7593107631175
 30
0.0
 10
129.390971552796
 20
115.7593107631175
 30
0.0
 10
128.5682028973541
 20
115.2382102351933
 30
0.0
 10
128.5682028973541
 20
115.2382102351933
 30
0.0
 10
128.5682028973541
 20
115.2382102351933
 30
0.0
 10
127.9647843654536
 20
115.2930889045114
 30
0.0
 10
127.1420157100116
 20
114.7171508457019
 30
0.0
 10
127.1420157100116
 20
114.7171508457019
 30
0.0
 10
126.5385971781112
 20
114.3332881295056
 30
0.0
 10
126.0723753195051
 20
114.1960914562105
 30
0.0
 10
126.0723753195051
 20
114.1960914562105
 30
0.0
 10
125.9078627268497
 20
114.0864163944404
 30
0.0
 10
125.6885126033089
 20
114.1412539253258
 30
0.0
 10
125.6885126033089
 20
114.1412539253258
 30
0.0
 10
125.3592850832578
 20
114.1412539253258
 30
0.0
 10
125.2496066640632
 20
113.8669017171684
 30
0.0
 10
125.2496066640632
 20
113.8669017171684
 30
0.0
 10
125.1674532138175
 20
113.6750320667198
 30
0.0
 10
124.8930598672279
 20
113.6201945358344
 30
0.0
 10
124.8930598672279
 20
113.6201945358344
 30
0.0
 10
124.0154536809006
 20
113.126451065704
 30
0.0
 10
124.0154536809006
 20
113.126451065704
 30
0.0
 10
124.0154536809006
 20
113.126451065704
 30
0.0
 10
123.9881410843259
 20
112.9619384730486
 30
0.0
 10
123.5219159029343
 20
112.989460084573
 30
0.0
 10
123.5219159029343
 20
112.989460084573
 30
0.0
 10
123.0554883521642
 20
112.5230736722357
 30
0.0
 10
121.6843443878712
 20
112.0843322867219
 30
0.0
 10
121.6843443878712
 20
112.0843322867219
 30
0.0
 10
121.547147714576
 20
112.660229207098
 30
0.0
 10
122.2877629197717
 20
113.2910047967923
 30
0.0
  0
HATCH
  5
9F
330
68
100
AcDbEntity
  8
Layer 1
 62
     7
420
 15921906
100
AcDbHatch
 10
0.0
 20
0.0
 30
0.0
210
0.0
220
0.0
230
1.0
  2
SOLID
 70
     1
 71
     0
 91
        1
 92
        1
 93
        1
 72
     4
 94
        3
 73
     0
 74
     1
 95
       53
 96
       49
 40
0.0
 40
0.0
 40
0.0
 40
0.0
 40
1.0
 40
1.0
 40
1.0
 40
2.0
 40
2.0
 40
2.0
 40
3.0
 40
3.0
 40
3.0
 40
4.0
 40
4.0
 40
4.0
 40
5.0
 40
5.0
 40
5.0
 40
6.0
 40
6.0
 40
6.0
 40
7.0
 40
7.0
 40
7.0
 40
8.0
 40
8.0
 40
8.0
 40
9.0
 40
9.0
 40
9.0
 40
10.0
 40
10.0
 40
10.0
 40
11.0
 40
11.0
 40
11.0
 40
12.0
 40
12.0
 40
12.0
 40
13.0
 40
13.0
 40
13.0
 40
14.0
 40
14.0
 40
14.0
 40
15.0
 40
15.0
 40
15.0
 40
16.0
 40
16.0
 40
16.0
 40
16.0
 10
122.2877629197717
 20
113.2910047967923
 10
122.2877629197717
 20
113.2910047967923
 10
123.4395567605245
 20
113.5105194740643
 10
124.2896413353268
 20
114.1412539253258
 10
124.2896413353268
 20
114.1412539253258
 10
124.4816755395066
 20
114.7446724572263
 10
125.2496066640632
 20
114.662316649471
 10
125.2496066640632
 20
114.662316649471
 10
125.4964783991284
 20
114.5526382530465
 10
125.9353843383741
 20
114.9091850498824
 10
125.9353843383741
 20
114.9091850498824
 10
126.8403064440611
 20
115.6495945629139
 10
128.8150746324193
 20
116.3626881565851
 10
128.8150746324193
 20
116.3626881565851
 10
129.8023558805167
 20
116.6643974225357
 10
130.2958971406167
 20
116.7740724843058
 10
130.2958971406167
 20
116.7740724843058
 10
129.5279625339271
 20
116.2805347063395
 10
129.390971552796
 20
115.7593107631175
 10
129.390971552796
 20
115.7593107631175
 10
128.5682028973541
 20
115.2382102351933
 10
128.5682028973541
 20
115.2382102351933
 10
128.5682028973541
 20
115.2382102351933
 10
127.9647843654536
 20
115.2930889045114
 10
127.1420157100116
 20
114.7171508457019
 10
127.1420157100116
 20
114.7171508457019
 10
126.5385971781112
 20
114.3332881295056
 10
126.0723753195051
 20
114.1960914562105
 10
126.0723753195051
 20
114.1960914562105
 10
125.9078627268497
 20
114.0864163944404
 10
125.6885126033089
 20
114.1412539253258
 10
125.6885126033089
 20
114.1412539253258
 10
125.3592850832578
 20
114.1412539253258
 10
125.2496066640632
 20
113.8669017171684
 10
125.2496066640632
 20
113.8669017171684
 10
125.1674532138175
 20
113.6750320667198
 10
124.8930598672279
 20
113.6201945358344
 10
124.8930598672279
 20
113.6201945358344
 10
124.0154536809006
 20
113.126451065704
 10
124.0154536809006
 20
113.126451065704
 10
124.0154536809006
 20
113.126451065704
 10
123.9881410843259
 20
112.9619384730486
 10
123.5219159029343
 20
112.989460084573
 10
123.5219159029343
 20
112.989460084573
 10
123.0554883521642
 20
112.5230736722357
 10
121.6843443878712
 20
112.0843322867219
 10
121.6843443878712
 20
112.0843322867219
 10
121.547147714576
 20
112.660229207098
 10
122.2877629197717
 20
113.2910047967923
 97
        0
 97
        0
 75
     2
 76
     1
 98
        0
  0
SPLINE
  5
A0
330
68
100
AcDbEntity
  8
Layer 1
 62
     7
420
 16777215
370
    35
100
AcDbSpline
210
0.0
220
0.0
230
1.0
 70
     8
 71
     3
 72
    89
 73
    85
 74
     0
 42
0.0000000001
 43
0.0000000001
 12
1.0
 22
0.0
 32
0.0
 13
1.0
 23
0.0
 33
0.0
 40
0.0
 40
0.0
 40
0.0
 40
0.0
 40
1.0
 40
1.0
 40
1.0
 40
2.0
 40
2.0
 40
2.0
 40
3.0
 40
3.0
 40
3.0
 40
4.0
 40
4.0
 40
4.0
 40
5.0
 40
5.0
 40
5.0
 40
6.0
 40
6.0
 40
6.0
 40
7.0
 40
7.0
 40
7.0
 40
8.0
 40
8.0
 40
8.0
 40
9.0
 40
9.0
 40
9.0
 40
10.0
 40
10.0
 40
10.0
 40
11.0
 40
11.0
 40
11.0
 40
12.0
 40
12.0
 40
12.0
 40
13.0
 40
13.0
 40
13.0
 40
14.0
 40
14.0
 40
14.0
 40
15.0
 40
15.0
 40
15.0
 40
16.0
 40
16.0
 40
16.0
 40
17.0
 40
17.0
 40
17.0
 40
18.0
 40
18.0
 40
18.0
 40
19.0
 40
19.0
 40
19.0
 40
20.0
 40
20.0
 40
20.0
 40
21.0
 40
21.0
 40
21.0
 40
22.0
 40
22.0
 40
22.0
 40
23.0
 40
23.0
 40
23.0
 40
24.0
 40
24.0
 40
24.0
 40
25.0
 40
25.0
 40
25.0
 40
26.0
 40
26.0
 40
26.0
 40
27.0
 40
27.0
 40
27.0
 40
28.0
 40
28.0
 40
28.0
 40
28.0
 10
142.8021417749272
 20
132.5438736109915
 30
0.0
 10
142.8021417749272
 20
132.5438736109915
 30
0.0
 10
144.7768688248526
 20
132.0228142215007
 30
0.0
 10
144.7768688248526
 20
132.0228142215007
 30
0.0
 10
144.7768688248526
 20
132.0228142215007
 30
0.0
 10
145.4076444145469
 20
131.8856175482056
 30
0.0
 10
145.1059351485964
 20
131.3097206278295
 30
0.0
 10
145.1059351485964
 20
131.3097206278295
 30
0.0
 10
144.3380040240398
 20
130.7613453189772
 30
0.0
 10
144.3380040240398
 20
130.7613453189772
 30
0.0
 10
144.3380040240398
 20
130.7613453189772
 30
0.0
 10
144.2008073507453
 20
130.5966270341583
 30
0.0
 10
144.4752006973349
 20
130.3497552990931
 30
0.0
 10
144.4752006973349
 20
130.3497552990931
 30
0.0
 10
144.8315418020067
 20
130.1440631352324
 30
0.0
 10
144.6670292093513
 20
129.8562175211261
 30
0.0
 10
144.6670292093513
 20
129.8562175211261
 30
0.0
 10
143.6797479612539
 20
128.237999807208
 30
0.0
 10
143.5152353685985
 20
128.0734835369477
 30
0.0
 10
143.5152353685985
 20
128.0734835369477
 30
0.0
 10
143.350517083779
 20
127.6072616783417
 30
0.0
 10
142.8296633864516
 20
127.5249025359326
 30
0.0
 10
142.8296633864516
 20
127.5249025359326
 30
0.0
 10
142.3907574472066
 20
127.3879115548015
 30
0.0
 10
142.3359199163212
 20
126.7296554920151
 30
0.0
 10
142.3359199163212
 20
126.7296554920151
 30
0.0
 10
142.3083983047968
 20
126.0713994292292
 30
0.0
 10
141.3759545875848
 20
125.824527694164
 30
0.0
 10
141.3759545875848
 20
125.824527694164
 30
0.0
 10
141.0194077907489
 20
125.824527694164
 30
0.0
 10
140.8000576672081
 20
125.5230241203775
 30
0.0
 10
140.8000576672081
 20
125.5230241203775
 30
0.0
 10
140.0869640735368
 20
124.9469251023023
 30
0.0
 10
139.3738704798656
 20
124.7824089151812
 30
0.0
 10
139.3738704798656
 20
124.7824089151812
 30
0.0
 10
139.0996828254401
 20
124.8099341177112
 30
0.0
 10
139.0721612139151
 20
124.5630587916411
 30
0.0
 10
139.0721612139151
 20
124.5630587916411
 30
0.0
 10
138.8252894788498
 20
123.6854526053138
 30
0.0
 10
138.8252894788498
 20
123.6854526053138
 30
0.0
 10
138.8252894788498
 20
123.6854526053138
 30
0.0
 10
138.7156144170798
 20
123.1917091351833
 30
0.0
 10
138.139717496703
 20
123.1093911312064
 30
0.0
 10
138.139717496703
 20
123.1093911312064
 30
0.0
 10
137.2896329219008
 20
122.9175214807578
 30
0.0
 10
137.0152395753111
 20
122.5609746839219
 30
0.0
 10
137.0152395753111
 20
122.5609746839219
 30
0.0
 10
135.1503521408871
 20
121.2171466389892
 30
0.0
 10
134.6841338752708
 20
120.2847063984653
 30
0.0
 10
134.6841338752708
 20
120.2847063984653
 30
0.0
 10
133.8338400153154
 20
120.5588905762034
 30
0.0
 10
133.9710366886098
 20
119.8183165094399
 30
0.0
 10
133.9710366886098
 20
119.8183165094399
 30
0.0
 10
133.9161991577251
 20
119.1602250003853
 30
0.0
 10
133.2306271755783
 20
118.9955478539986
 30
0.0
 10
133.2306271755783
 20
118.9955478539986
 30
0.0
 10
132.1334651735468
 20
118.8585157344347
 30
0.0
 10
131.4478931913999
 20
117.6792002821575
 30
0.0
 10
131.4478931913999
 20
117.6792002821575
 30
0.0
 10
131.4752091107609
 20
117.0483012771648
 30
0.0
 10
130.4606119433026
 20
116.8015940958308
 30
0.0
 10
130.4606119433026
 20
116.8015940958308
 30
0.0
 10
129.8571934114021
 20
116.4723632183559
 30
0.0
 10
129.390971552796
 20
115.7593107631175
 30
0.0
 10
129.390971552796
 20
115.7593107631175
 30
0.0
 10
128.5133688035718
 20
115.3479264353962
 30
0.0
 10
127.3613658335525
 20
113.7298695976051
 30
0.0
 10
127.3613658335525
 20
113.7298695976051
 30
0.0
 10
126.8403064440611
 20
113.0441330617271
 30
0.0
 10
126.4016061969801
 20
113.2088102081138
 30
0.0
 10
126.4016061969801
 20
113.2088102081138
 30
0.0
 10
125.7706694213708
 20
113.1812885965894
 30
0.0
 10
125.6609909917838
 20
112.8796204690716
 30
0.0
 10
125.6609909917838
 20
112.8796204690716
 30
0.0
 10
124.7833848054572
 20
112.8796204690716
 30
0.0
 10
124.7833848054572
 20
112.8796204690716
 30
0.0
 10
124.7833848054572
 20
112.8796204690716
 30
0.0
 10
123.7961035573604
 20
112.0294947558365
 30
0.0
 10
123.7961035573604
 20
112.0294947558365
 30
0.0
 10
123.7961035573604
 20
112.0294947558365
 30
0.0
 10
123.1378474945739
 20
111.8649821631811
 30
0.0
 10
122.8636598401484
 20
111.5357512857061
 30
0.0
 10
122.8636598401484
 20
111.5357512857061
 30
0.0
 10
121.3002759795108
 20
111.2340831581884
 30
0.0
 10
121.2729600601499
 20
111.0695294271001
 30
0.0
  0
SPLINE
  5
A1
330
68
100
AcDbEntity
  8
Layer 1
 62
     7
420
 16777215
370
    35
100
AcDbSpline
210
0.0
220
0.0
230
1.0
 70
     8
 71
     3
 72
   188
 73
   184
 74
     0
 42
0.0000000001
 43
0.0000000001
 12
1.0
 22
0.0
 32
0.0
 13
1.0
 23
0.0
 33
0.0
 40
0.0
 40
0.0
 40
0.0
 40
0.0
 40
1.0
 40
1.0
 40
1.0
 40
2.0
 40
2.0
 40
2.0
 40
3.0
 40
3.0
 40
3.0
 40
4.0
 40
4.0
 40
4.0
 40
5.0
 40
5.0
 40
5.0
 40
6.0
 40
6.0
 40
6.0
 40
7.0
 40
7.0
 40
7.0
 40
8.0
 40
8.0
 40
8.0
 40
9.0
 40
9.0
 40
9.0
 40
10.0
 40
10.0
 40
10.0
 40
11.0
 40
11.0
 40
11.0
 40
12.0
 40
12.0
 40
12.0
 40
13.0
 40
13.0
 40
13.0
 40
14.0
 40
14.0
 40
14.0
 40
15.0
 40
15.0
 40
15.0
 40
16.0
 40
16.0
 40
16.0
 40
17.0
 40
17.0
 40
17.0
 40
18.0
 40
18.0
 40
18.0
 40
19.0
 40
19.0
 40
19.0
 40
20.0
 40
20.0
 40
20.0
 40
21.0
 40
21.0
 40
21.0
 40
22.0
 40
22.0
 40
22.0
 40
23.0
 40
23.0
 40
23.0
 40
24.0
 40
24.0
 40
24.0
 40
25.0
 40
25.0
 40
25.0
 40
26.0
 40
26.0
 40
26.0
 40
27.0
 40
27.0
 40
27.0
 40
28.0
 40
28.0
 40
28.0
 40
29.0
 40
29.0
 40
29.0
 40
30.0
 40
30.0
 40
30.0
 40
31.0
 40
31.0
 40
31.0
 40
32.0
 40
32.0
 40
32.0
 40
33.0
 40
33.0
 40
33.0
 40
34.0
 40
34.0
 40
34.0
 40
35.0
 40
35.0
 40
35.0
 40
36.0
 40
36.0
 40
36.0
 40
37.0
 40
37.0
 40
37.0
 40
38.0
 40
38.0
 40
38.0
 40
39.0
 40
39.0
 40
39.0
 40
40.0
 40
40.0
 40
40.0
 40
41.0
 40
41.0
 40
41.0
 40
42.0
 40
42.0
 40
42.0
 40
43.0
 40
43.0
 40
43.0
 40
44.0
 40
44.0
 40
44.0
 40
45.0
 40
45.0
 40
45.0
 40
46.0
 40
46.0
 40
46.0
 40
47.0
 40
47.0
 40
47.0
 40
48.0
 40
48.0
 40
48.0
 40
49.0
 40
49.0
 40
49.0
 40
50.0
 40
50.0
 40
50.0
 40
51.0
 40
51.0
 40
51.0
 40
52.0
 40
52.0
 40
52.0
 40
53.0
 40
53.0
 40
53.0
 40
54.0
 40
54.0
 40
54.0
 40
55.0
 40
55.0
 40
55.0
 40
56.0
 40
56.0
 40
56.0
 40
57.0
 40
57.0
 40
57.0
 40
58.0
 40
58.0
 40
58.0
 40
59.0
 40
59.0
 40
59.0
 40
60.0
 40
60.0
 40
60.0
 40
61.0
 40
61.0
 40
61.0
 40
61.0
 10
121.4649942643304
 20
111.4535978354598
 30
0.0
 10
121.4649942643304
 20
111.4535978354598
 30
0.0
 10
121.2454417021256
 20
110.5211541182478
 30
0.0
 10
119.9291320152172
 20
110.1919232407728
 30
0.0
 10
119.9291320152172
 20
110.1919232407728
 30
0.0
 10
119.5450636068569
 20
110.0274106481174
 30
0.0
 10
119.1063633597759
 20
110.1644427676812
 30
0.0
 10
119.1063633597759
 20
110.1644427676812
 30
0.0
 10
118.2285514812852
 20
110.1919232407728
 30
0.0
 10
117.7074920917938
 20
109.4788296471016
 30
0.0
 10
117.7074920917938
 20
109.4788296471016
 30
0.0
 10
116.3363481275001
 20
108.518905456798
 30
0.0
 10
115.2940236563539
 20
108.518905456798
 30
0.0
 10
115.2940236563539
 20
108.518905456798
 30
0.0
 10
114.8826393286333
 20
107.9156514786281
 30
0.0
 10
114.6359732857321
 20
107.7236172744482
 30
0.0
 10
114.6359732857321
 20
107.7236172744482
 30
0.0
 10
114.4439390815517
 20
107.1202398809799
 30
0.0
 10
113.3194611601598
 20
107.3670704776123
 30
0.0
 10
113.3194611601598
 20
107.3670704776123
 30
0.0
 10
112.4966925047185
 20
106.9556861498917
 30
0.0
 10
112.4966925047185
 20
106.9556861498917
 30
0.0
 10
112.4966925047185
 20
106.9556861498917
 30
0.0
 10
112.2225048502923
 20
106.8460142253189
 30
0.0
 10
111.9481115037027
 20
107.0380452923014
 30
0.0
 10
111.9481115037027
 20
107.0380452923014
 30
0.0
 10
111.6464022377522
 20
107.2573985634325
 30
0.0
 10
111.3997361948504
 20
107.1477203540721
 30
0.0
 10
111.3997361948504
 20
107.1477203540721
 30
0.0
 10
110.3574117237042
 20
106.6540180223739
 30
0.0
 10
109.1232587405422
 20
105.5021830431889
 30
0.0
 10
109.1232587405422
 20
105.5021830431889
 30
0.0
 10
108.4925272206146
 20
105.063318242376
 30
0.0
 10
108.4925272206146
 20
105.063318242376
 30
0.0
 10
108.4925272206146
 20
105.063318242376
 30
0.0
 10
107.8069523071336
 20
104.9261215690809
 30
0.0
 10
107.395567979413
 20
104.4873801835671
 30
0.0
 10
107.395567979413
 20
104.4873801835671
 30
0.0
 10
107.0938587134624
 20
104.0759958558458
 30
0.0
 10
106.6824743857418
 20
104.1857120560494
 30
0.0
 10
106.6824743857418
 20
104.1857120560494
 30
0.0
 10
106.2162525271357
 20
104.0211583249611
 30
0.0
 10
105.7773465878904
 20
104.5147372413603
 30
0.0
 10
105.7773465878904
 20
104.5147372413603
 30
0.0
 10
105.3111247292844
 20
104.8439269804024
 30
0.0
 10
104.5431936047278
 20
104.5422177144518
 30
0.0
 10
104.5431936047278
 20
104.5422177144518
 30
0.0
 10
103.8851432341057
 20
104.1033529136396
 30
0.0
 10
103.1993655597951
 20
104.5697393259769
 30
0.0
 10
103.1993655597951
 20
104.5697393259769
 30
0.0
 10
101.8555375148624
 20
105.6392151627521
 30
0.0
 10
101.3069565138473
 20
105.6666956358443
 30
0.0
 10
100.7583755128309
 20
105.6942172473687
 30
0.0
 10
100.0179659997987
 20
107.0380452923014
 30
0.0
 10
100.0179659997987
 20
107.0380452923014
 30
0.0
 10
100.0179659997987
 20
107.0380452923014
 30
0.0
 10
99.25003487524242
 20
107.010523680777
 30
0.0
 10
99.25003487524242
 20
107.010523680777
 30
0.0
 10
99.25003487524242
 20
107.010523680777
 30
0.0
 10
99.00316314017721
 20
106.9008486190063
 30
0.0
 10
99.00316314017721
 20
106.9008486190063
 30
0.0
 10
99.00316314017721
 20
106.9008486190063
 30
0.0
 10
98.31759115803071
 20
107.5042671509074
 30
0.0
 10
98.09824103448989
 20
107.7236172744482
 30
0.0
 10
98.09824103448989
 20
107.7236172744482
 30
0.0
 10
95.30070419069006
 20
107.6412992704713
 30
0.0
 10
95.30070419069006
 20
107.6412992704713
 30
0.0
 10
95.30070419069006
 20
107.6412992704713
 30
0.0
 10
95.05383504746877
 20
107.5864617395859
 30
0.0
 10
94.75232888183804
 20
107.8058118631267
 30
0.0
 10
94.75232888183804
 20
107.8058118631267
 30
0.0
 10
92.72272316259478
 20
109.1498044617907
 30
0.0
 10
92.72272316259478
 20
109.1498044617907
 30
0.0
 10
92.72272316259478
 20
109.1498044617907
 30
0.0
 10
92.50337303905397
 20
109.3143202539986
 30
0.0
 10
92.14682624221835
 20
109.3416741122399
 30
0.0
 10
92.14682624221835
 20
109.3416741122399
 30
0.0
 10
90.9399916663362
 20
109.2868365813545
 30
0.0
 10
90.9399916663362
 20
109.2868365813545
 30
0.0
 10
90.9399916663362
 20
109.2868365813545
 30
0.0
 10
89.54132360259868
 20
110.4936325067234
 30
0.0
 10
89.45917015235267
 20
110.7953417726739
 30
0.0
 10
89.45917015235267
 20
110.7953417726739
 30
0.0
 10
89.15746332929163
 20
111.0695294271001
 30
0.0
 10
88.66371741627233
 20
110.9872114231232
 30
0.0
 10
88.66371741627233
 20
110.9872114231232
 30
0.0
 10
88.49920482361625
 20
111.645467485909
 30
0.0
 10
87.81342714930567
 20
111.645467485909
 30
0.0
 10
87.81342714930567
 20
111.645467485909
 30
0.0
 10
85.37264279450584
 20
112.111689344515
 30
0.0
 10
85.37264279450584
 20
112.111689344515
 30
0.0
 10
85.37264279450584
 20
112.111689344515
 30
0.0
 10
85.09845514007934
 20
113.0167792970179
 30
0.0
 10
84.46751499665413
 20
113.2088102081138
 30
0.0
 10
84.46751499665413
 20
113.2088102081138
 30
0.0
 10
84.41267746576877
 20
114.7446724572263
 30
0.0
 10
82.91799707312786
 20
114.6349973954562
 30
0.0
 10
82.91799707312786
 20
114.6349973954562
 30
0.0
 10
83.09637103236048
 20
115.8416287670938
 30
0.0
 10
82.32843990780422
 20
116.0061413597498
 30
0.0
 10
82.32843990780422
 20
116.0061413597498
 30
0.0
 10
79.91497147236439
 20
116.9112691576009
 30
0.0
 10
79.91497147236439
 20
116.9112691576009
 30
0.0
 10
79.91497147236439
 20
116.9112691576009
 30
0.0
 10
80.43603086185577
 20
118.1727791985567
 30
0.0
 10
79.22919379805381
 20
118.5019689375988
 30
0.0
 10
79.22919379805381
 20
118.5019689375988
 30
0.0
 10
78.84533108185755
 20
120.3120188411375
 30
0.0
 10
77.85804983376049
 20
120.3668563720229
 30
0.0
 10
77.85804983376049
 20
120.3668563720229
 30
0.0
 10
77.44666550603951
 20
122.1495903562012
 30
0.0
 10
76.73357191236829
 20
122.9175214807578
 30
0.0
 10
76.73357191236829
 20
122.9175214807578
 30
0.0
 10
76.02047831869675
 20
122.9175214807578
 30
0.0
 10
76.02047831869675
 20
122.9175214807578
 30
0.0
 10
76.02047831869675
 20
122.9175214807578
 30
0.0
 10
76.10263176894276
 20
123.8224435864448
 30
0.0
 10
76.10263176894276
 20
123.8224435864448
 30
0.0
 10
76.10263176894276
 20
123.8224435864448
 30
0.0
 10
75.17018805173105
 20
124.1241564260757
 30
0.0
 10
75.25254719414049
 20
124.3985497795976
 30
0.0
 10
75.25254719414049
 20
124.3985497795976
 30
0.0
 10
75.71877115614579
 20
125.3034683046726
 30
0.0
 10
75.19770966325545
 20
125.8793652250494
 30
0.0
 10
75.19770966325545
 20
125.8793652250494
 30
0.0
 10
73.8811975376834
 20
127.4975866165716
 30
0.0
 10
73.8811975376834
 20
127.4975866165716
 30
0.0
 10
73.8811975376834
 20
127.4975866165716
 30
0.0
 10
74.15559088427301
 20
128.484867864669
 30
0.0
 10
73.689369025667
 20
128.8962521923897
 30
0.0
 10
73.689369025667
 20
128.8962521923897
 30
0.0
 10
73.7751426579968
 20
129.3074719663791
 30
0.0
 10
73.49733482148716
 20
130.048251725306
 30
0.0
 10
73.4149756790774
 20
130.2676018488468
 30
0.0
 10
73.46981320996244
 20
130.3772769106175
 30
0.0
 10
73.63432580261788
 20
130.5966270341583
 30
0.0
 10
73.63432580261788
 20
130.5966270341583
 30
0.0
 10
73.90871914920781
 20
130.9531738309936
 30
0.0
 10
73.16810394401219
 20
131.5565923628947
 30
0.0
 10
73.16810394401219
 20
131.5565923628947
 30
0.0
 10
74.21042841515838
 20
133.8328641250394
 30
0.0
 10
74.21042841515838
 20
133.8328641250394
 30
0.0
 10
74.21042841515838
 20
133.8328641250394
 30
0.0
 10
74.42977853869887
 20
134.3266075951698
 30
0.0
 10
73.96355668009285
 20
134.6831582324289
 30
0.0
 10
73.96355668009285
 20
134.6831582324289
 30
0.0
 10
73.1956255555366
 20
135.8076323133976
 30
0.0
 10
73.1956255555366
 20
135.8076323133976
 30
0.0
 10
73.1956255555366
 20
135.8076323133976
 30
0.0
 10
73.03111296288114
 20
136.1366574987085
 30
0.0
 10
73.16810394401219
 20
136.4383667646591
 30
0.0
 10
73.16810394401219
 20
136.4383667646591
 30
0.0
 10
73.99087259945382
 20
137.5901606054119
 30
0.0
 10
71.7421224488335
 20
139.2632195278196
 30
0.0
 10
71.7421224488335
 20
139.2632195278196
 30
0.0
 10
71.71460083730878
 20
140.0311546279013
 30
0.0
 10
71.71460083730878
 20
140.0311546279013
 30
0.0
 10
71.71460083730878
 20
140.0311546279013
 30
0.0
 10
71.41289157135854
 20
140.3053383068024
 30
0.0
 10
71.71460083730878
 20
140.8812352271785
 30
0.0
 10
71.71460083730878
 20
140.8812352271785
 30
0.0
 10
72.09866924566911
 20
141.4846537590793
 30
0.0
 10
71.6324473870631
 20
141.6766919803544
 30
0.0
 10
71.6324473870631
 20
141.6766919803544
 30
0.0
 10
70.89183218186716
 20
142.6366532919959
 30
0.0
 10
70.32959322117122
 20
142.9793364369872
 30
0.0
 10
70.32959322117122
 20
142.9793364369872
 30
0.0
 10
70.67248205832666
 20
145.0501217274357
 30
0.0
 10
70.67248205832666
 20
145.0501217274357
 30
0.0
 10
70.67248205832666
 20
145.0501217274357
 30
0.0
 10
70.94666971275252
 20
145.1597967892058
 30
0.0
 10
71.3855756519979
 20
145.2146343200911
 30
0.0
 10
71.3855756519979
 20
145.2146343200911
 30
0.0
 10
71.76943836819414
 20
145.2419502394518
 30
0.0
 10
71.76943836819414
 20
145.2419502394518
 30
0.0
 10
71.76943836819414
 20
145.2419502394518
 30
0.0
 10
72.2904977576852
 20
145.516343586041
 30
0.0
 10
73.36013814819204
 20
145.2967877703368
 30
0.0
 10
73.36013814819204
 20
145.2967877703368
 30
0.0
 10
73.99087259945382
 20
145.8590267310331
 30
0.0
 10
73.99087259945382
 20
145.8590267310331
 30
0.0
 10
73.99087259945382
 20
145.8590267310331
 30
0.0
 10
75.06051298996064
 20
145.9002063022376
 30
0.0
 10
75.06051298996064
 20
145.9002063022376
 30
0.0
  0
POLYLINE
  5
A2
330
68
100
AcDbEntity
  8
Layer 1
 62
     7
420
 16777215
370
    15
100
AcDb2dPolyline
 66
     1
 10
0.0
 20
0.0
 30
0.0
  0
VERTEX
  5
A3
330
A2
100
AcDbEntity
  8
Layer 1
 62
     7
420
 16777215
370
    15
100
AcDbVertex
100
AcDb2dVertex
 10
75.10169464897602
 20
143.9256438060438
 30
0.0
  0
VERTEX
  5
A4
330
A2
100
AcDbEntity
  8
Layer 1
 62
     7
420
 16777215
370
    15
100
AcDbVertex
100
AcDb2dVertex
 10
83.20604609413121
 20
141.7040038826201
 30
0.0
  0
SEQEND
  5
A5
330
A2
100
AcDbEntity
  8
Layer 1
 62
     7
420
 16777215
370
    15
  0
POLYLINE
  5
A6
330
68
100
AcDbEntity
  8
Layer 1
 62
     7
420
 16777215
370
    15
100
AcDb2dPolyline
 66
     1
 10
0.0
 20
0.0
 30
0.0
  0
VERTEX
  5
A7
330
A6
100
AcDbEntity
  8
Layer 1
 62
     7
420
 16777215
370
    15
100
AcDbVertex
100
AcDb2dVertex
 10
75.18405170357497
 20
148.0804609622924
 30
0.0
  0
VERTEX
  5
A8
330
A6
100
AcDbEntity
  8
Layer 1
 62
     7
420
 16777215
370
    15
100
AcDbVertex
100
AcDb2dVertex
 10
87.36106894254421
 20
145.077437646796
 30
0.0
  0
SEQEND
  5
A9
330
A6
100
AcDbEntity
  8
Layer 1
 62
     7
420
 16777215
370
    15
  0
POLYLINE
  5
AA
330
68
100
AcDbEntity
  8
Layer 1
 62
     7
420
 16777215
370
    15
100
AcDb2dPolyline
 66
     1
 10
0.0
 20
0.0
 30
0.0
  0
VERTEX
  5
AB
330
AA
100
AcDbEntity
  8
Layer 1
 62
     7
420
 16777215
370
    15
100
AcDbVertex
100
AcDb2dVertex
 10
78.96866410330813
 20
150.3021008857162
 30
0.0
  0
VERTEX
  5
AC
330
AA
100
AcDbEntity
  8
Layer 1
 62
     7
420
 16777215
370
    15
100
AcDbVertex
100
AcDb2dVertex
 10
80.28517622888049
 20
149.232460495209
 30
0.0
  0
VERTEX
  5
AD
330
AA
100
AcDbEntity
  8
Layer 1
 62
     7
420
 16777215
370
    15
100
AcDbVertex
100
AcDb2dVertex
 10
79.00984586105179
 20
149.232460495209
 30
0.0
  0
SEQEND
  5
AE
330
AA
100
AcDbEntity
  8
Layer 1
 62
     7
420
 16777215
370
    15
  0
POLYLINE
  5
AF
330
68
100
AcDbEntity
  8
Layer 1
 62
     7
420
 16777215
370
    15
100
AcDb2dPolyline
 66
     1
 10
0.0
 20
0.0
 30
0.0
  0
VERTEX
  5
B0
330
AF
100
AcDbEntity
  8
Layer 1
 62
     7
420
 16777215
370
    15
100
AcDbVertex
100
AcDb2dVertex
 10
82.50661273501458
 20
141.0047739407928
 30
0.0
  0
VERTEX
  5
B1
330
AF
100
AcDbEntity
  8
Layer 1
 62
     7
420
 16777215
370
    15
100
AcDbVertex
100
AcDb2dVertex
 10
87.48440196399446
 20
139.6882618152207
 30
0.0
  0
VERTEX
  5
B2
330
AF
100
AcDbEntity
  8
Layer 1
 62
     7
420
 16777215
370
    15
100
AcDbVertex
100
AcDb2dVertex
 10
132.6545245630381
 20
178.0705430068708
 30
0.0
  0
SEQEND
  5
B3
330
AF
100
AcDbEntity
  8
Layer 1
 62
     7
420
 16777215
370
    15
  0
POLYLINE
  5
B4
330
68
100
AcDbEntity
  8
Layer 1
 62
     7
420
 16777215
370
    15
100
AcDb2dPolyline
 66
     1
 10
0.0
 20
0.0
 30
0.0
  0
VERTEX
  5
B5
330
B4
100
AcDbEntity
  8
Layer 1
 62
     7
420
 16777215
370
    15
100
AcDbVertex
100
AcDb2dVertex
 10
133.2716010546195
 20
161.0392729776619
 30
0.0
  0
VERTEX
  5
B6
330
B4
100
AcDbEntity
  8
Layer 1
 62
     7
420
 16777215
370
    15
100
AcDbVertex
100
AcDb2dVertex
 10
142.7746201634029
 20
163.589732394233
 30
0.0
  0
SEQEND
  5
B7
330
B4
100
AcDbEntity
  8
Layer 1
 62
     7
420
 16777215
370
    15
  0
POLYLINE
  5
B8
330
68
100
AcDbEntity
  8
Layer 1
 62
     7
420
 16777215
370
    15
100
AcDb2dPolyline
 66
     1
 10
0.0
 20
0.0
 30
0.0
  0
VERTEX
  5
B9
330
B8
100
AcDbEntity
  8
Layer 1
 62
     7
420
 16777215
370
    15
100
AcDbVertex
100
AcDb2dVertex
 10
133.0659088907588
 20
165.15311625487
 30
0.0
  0
VERTEX
  5
BA
330
B8
100
AcDbEntity
  8
Layer 1
 62
     7
420
 16777215
370
    15
100
AcDbVertex
100
AcDb2dVertex
 10
111.9207955843417
 20
159.6815812808852
 30
0.0
  0
VERTEX
  5
BB
330
B8
100
AcDbEntity
  8
Layer 1
 62
     7
420
 16777215
370
    15
100
AcDbVertex
100
AcDb2dVertex
 10
111.8796160131372
 20
151.9064586253942
 30
0.0
  0
SEQEND
  5
BC
330
B8
100
AcDbEntity
  8
Layer 1
 62
     7
420
 16777215
370
    15
  0
POLYLINE
  5
BD
330
68
100
AcDbEntity
  8
Layer 1
 62
     7
420
 16777215
370
    15
100
AcDb2dPolyline
 66
     1
 10
0.0
 20
0.0
 30
0.0
  0
VERTEX
  5
BE
330
BD
100
AcDbEntity
  8
Layer 1
 62
     7
420
 16777215
370
    15
100
AcDbVertex
100
AcDb2dVertex
 10
111.9207955843417
 20
159.6815812808852
 30
0.0
  0
VERTEX
  5
BF
330
BD
100
AcDbEntity
  8
Layer 1
 62
     7
420
 16777215
370
    15
100
AcDbVertex
100
AcDb2dVertex
 10
111.5094112566211
 20
159.969632587155
 30
0.0
  0
SEQEND
  5
C0
330
BD
100
AcDbEntity
  8
Layer 1
 62
     7
420
 16777215
370
    15
  0
POLYLINE
  5
C1
330
68
100
AcDbEntity
  8
Layer 1
 62
     7
420
 16777215
370
    15
100
AcDb2dPolyline
 66
     1
 10
0.0
 20
0.0
 30
0.0
  0
VERTEX
  5
C2
330
C1
100
AcDbEntity
  8
Layer 1
 62
     7
420
 16777215
370
    15
100
AcDbVertex
100
AcDb2dVertex
 10
87.48440196399446
 20
139.6882618152207
 30
0.0
  0
VERTEX
  5
C3
330
C1
100
AcDbEntity
  8
Layer 1
 62
     7
420
 16777215
370
    15
100
AcDbVertex
100
AcDb2dVertex
 10
87.48440196399446
 20
119.8594549422123
 30
0.0
  0
SEQEND
  5
C4
330
C1
100
AcDbEntity
  8
Layer 1
 62
     7
420
 16777215
370
    15
  0
SPLINE
  5
C5
330
68
100
AcDbEntity
  8
Layer 1
 62
     7
420
 16777215
370
    35
100
AcDbSpline
210
0.0
220
0.0
230
1.0
 70
     8
 71
     3
 72
    32
 73
    28
 74
     0
 42
0.0000000001
 43
0.0000000001
 12
1.0
 22
0.0
 32
0.0
 13
1.0
 23
0.0
 33
0.0
 40
0.0
 40
0.0
 40
0.0
 40
0.0
 40
1.0
 40
1.0
 40
1.0
 40
2.0
 40
2.0
 40
2.0
 40
3.0
 40
3.0
 40
3.0
 40
4.0
 40
4.0
 40
4.0
 40
5.0
 40
5.0
 40
5.0
 40
6.0
 40
6.0
 40
6.0
 40
7.0
 40
7.0
 40
7.0
 40
8.0
 40
8.0
 40
8.0
 40
9.0
 40
9.0
 40
9.0
 40
9.0
 10
75.10169464897602
 20
143.9256438060438
 30
0.0
 10
75.10169464897602
 20
143.9256438060438
 30
0.0
 10
75.1428721323704
 20
148.2039996759071
 30
0.0
 10
75.1428721323704
 20
148.2039996759071
 30
0.0
 10
75.1428721323704
 20
148.2039996759071
 30
0.0
 10
78.88651065306243
 20
149.232460495209
 30
0.0
 10
78.88651065306243
 20
149.232460495209
 30
0.0
 10
78.88651065306243
 20
149.232460495209
 30
0.0
 10
79.09220281692276
 20
149.3557935166599
 30
0.0
 10
79.09220281692276
 20
149.3557935166599
 30
0.0
 10
79.09220281692276
 20
149.3557935166599
 30
0.0
 10
78.96866410330813
 20
150.1785621721015
 30
0.0
 10
78.96866410330813
 20
150.1785621721015
 30
0.0
 10
78.96866410330813
 20
150.1785621721015
 30
0.0
 10
81.35481661938731
 20
150.0552291506506
 30
0.0
 10
81.35481661938731
 20
150.0552291506506
 30
0.0
 10
81.35481661938731
 20
150.0552291506506
 30
0.0
 10
81.97189311096861
 20
149.8495369867903
 30
0.0
 10
82.5477900313447
 20
150.1373826008966
 30
0.0
 10
82.5477900313447
 20
150.1373826008966
 30
0.0
 10
83.94645791841093
 20
150.631126071027
 30
0.0
 10
83.94645791841093
 20
150.631126071027
 30
0.0
 10
83.94645791841093
 20
150.631126071027
 30
0.0
 10
84.35784225652422
 20
150.7134852134368
 30
0.0
 10
84.81040383380926
 20
150.4666134783716
 30
0.0
 10
84.81040383380926
 20
150.4666134783716
 30
0.0
 10
91.84511697626779
 20
148.7798965962835
 30
0.0
 10
91.84511697626779
 20
148.7798965962835
 30
0.0
  0
SPLINE
  5
C6
330
68
100
AcDbEntity
  8
Layer 1
 62
     7
420
 16777215
370
    35
100
AcDbSpline
210
0.0
220
0.0
230
1.0
 70
     8
 71
     3
 72
    50
 73
    46
 74
     0
 42
0.0000000001
 43
0.0000000001
 12
1.0
 22
0.0
 32
0.0
 13
1.0
 23
0.0
 33
0.0
 40
0.0
 40
0.0
 40
0.0
 40
0.0
 40
1.0
 40
1.0
 40
1.0
 40
2.0
 40
2.0
 40
2.0
 40
3.0
 40
3.0
 40
3.0
 40
4.0
 40
4.0
 40
4.0
 40
5.0
 40
5.0
 40
5.0
 40
6.0
 40
6.0
 40
6.0
 40
7.0
 40
7.0
 40
7.0
 40
8.0
 40
8.0
 40
8.0
 40
9.0
 40
9.0
 40
9.0
 40
10.0
 40
10.0
 40
10.0
 40
11.0
 40
11.0
 40
11.0
 40
12.0
 40
12.0
 40
12.0
 40
13.0
 40
13.0
 40
13.0
 40
14.0
 40
14.0
 40
14.0
 40
15.0
 40
15.0
 40
15.0
 40
15.0
 10
133.3951397682337
 20
161.9441950833495
 30
0.0
 10
133.3951397682337
 20
161.9441950833495
 30
0.0
 10
138.4139051511292
 20
166.5929614018929
 30
0.0
 10
138.4139051511292
 20
166.5929614018929
 30
0.0
 10
138.9076486212596
 20
167.0043457296139
 30
0.0
 10
138.7843155998094
 20
167.1688583222693
 30
0.0
 10
138.7843155998094
 20
167.1688583222693
 30
0.0
 10
138.7843155998094
 20
167.1688583222693
 30
0.0
 10
136.8919065538603
 20
170.706804679101
 30
0.0
 10
136.8919065538603
 20
170.706804679101
 30
0.0
 10
136.8919065538603
 20
170.706804679101
 30
0.0
 10
137.5089830454416
 20
172.43449544023
 30
0.0
 10
137.5089830454416
 20
172.43449544023
 30
0.0
 10
137.5089830454416
 20
172.43449544023
 30
0.0
 10
134.4236005875357
 20
172.8458797679509
 30
0.0
 10
134.4236005875357
 20
172.8458797679509
 30
0.0
 10
134.4236005875357
 20
172.8458797679509
 30
0.0
 10
134.9583179367073
 20
173.9566997296626
 30
0.0
 10
134.9583179367073
 20
173.9566997296626
 30
0.0
 10
134.9583179367073
 20
173.9566997296626
 30
0.0
 10
132.4488323991775
 20
178.0295691278296
 30
0.0
 10
132.4488323991775
 20
178.0295691278296
 30
0.0
 10
132.4488323991775
 20
178.0295691278296
 30
0.0
 10
127.8002717727982
 20
178.6466456194109
 30
0.0
 10
127.8002717727982
 20
178.6466456194109
 30
0.0
 10
127.8002717727982
 20
178.6466456194109
 30
0.0
 10
82.5477900313447
 20
141.1692865334485
 30
0.0
 10
82.5477900313447
 20
141.1692865334485
 30
0.0
 10
82.5477900313447
 20
141.1692865334485
 30
0.0
 10
82.50661273501458
 20
140.8402613481373
 30
0.0
 10
82.50661273501458
 20
140.8402613481373
 30
0.0
 10
82.50661273501458
 20
140.8402613481373
 30
0.0
 10
82.38327743868926
 20
121.4228388028499
 30
0.0
 10
82.38327743868926
 20
121.4228388028499
 30
0.0
 10
82.38327743868926
 20
121.4228388028499
 30
0.0
 10
87.40204282158503
 20
119.708600309237
 30
0.0
 10
87.40204282158503
 20
119.708600309237
 30
0.0
 10
87.40204282158503
 20
119.708600309237
 30
0.0
 10
87.60773498544535
 20
119.6537627783516
 30
0.0
 10
87.60773498544535
 20
119.6537627783516
 30
0.0
 10
87.60773498544535
 20
119.6537627783516
 30
0.0
 10
109.178096271427
 20
139.4552537319994
 30
0.0
 10
109.178096271427
 20
139.4552537319994
 30
0.0
 10
109.178096271427
 20
139.4552537319994
 30
0.0
 10
109.3701304756074
 20
139.7706209576308
 30
0.0
 10
109.3701304756074
 20
139.7706209576308
 30
0.0
  0
SPLINE
  5
C7
330
68
100
AcDbEntity
  8
Layer 1
 62
     7
420
 16777215
370
    35
100
AcDbSpline
210
0.0
220
0.0
230
1.0
 70
     8
 71
     3
 72
    35
 73
    31
 74
     0
 42
0.0000000001
 43
0.0000000001
 12
1.0
 22
0.0
 32
0.0
 13
1.0
 23
0.0
 33
0.0
 40
0.0
 40
0.0
 40
0.0
 40
0.0
 40
1.0
 40
1.0
 40
1.0
 40
2.0
 40
2.0
 40
2.0
 40
3.0
 40
3.0
 40
3.0
 40
4.0
 40
4.0
 40
4.0
 40
5.0
 40
5.0
 40
5.0
 40
6.0
 40
6.0
 40
6.0
 40
7.0
 40
7.0
 40
7.0
 40
8.0
 40
8.0
 40
8.0
 40
9.0
 40
9.0
 40
9.0
 40
10.0
 40
10.0
 40
10.0
 40
10.0
 10
135.2875488141822
 20
163.589732394233
 30
0.0
 10
135.2875488141822
 20
163.589732394233
 30
0.0
 10
138.0848799658183
 20
164.2891680282235
 30
0.0
 10
138.0848799658183
 20
164.2891680282235
 30
0.0
 10
138.0848799658183
 20
164.2891680282235
 30
0.0
 10
138.4139051511292
 20
164.4536806208792
 30
0.0
 10
139.0309816427105
 20
164.2891680282235
 30
0.0
 10
139.0309816427105
 20
164.2891680282235
 30
0.0
 10
142.6101075707467
 20
163.6309119654376
 30
0.0
 10
142.6101075707467
 20
163.6309119654376
 30
0.0
 10
142.6101075707467
 20
163.6309119654376
 30
0.0
 10
142.8569793058126
 20
163.425219801577
 30
0.0
 10
142.8569793058126
 20
163.425219801577
 30
0.0
 10
142.8569793058126
 20
163.425219801577
 30
0.0
 10
142.8981588770172
 20
159.3113765243692
 30
0.0
 10
142.8981588770172
 20
159.3113765243692
 30
0.0
 10
142.8981588770172
 20
159.3113765243692
 30
0.0
 10
141.9518515079609
 20
158.365274847477
 30
0.0
 10
141.9518515079609
 20
158.365274847477
 30
0.0
 10
141.9518515079609
 20
158.365274847477
 30
0.0
 10
143.8030809827048
 20
157.336814028175
 30
0.0
 10
143.8030809827048
 20
157.336814028175
 30
0.0
 10
143.8030809827048
 20
157.336814028175
 30
0.0
 10
142.8981588770172
 20
156.3905066591184
 30
0.0
 10
142.8981588770172
 20
156.3905066591184
 30
0.0
 10
142.8981588770172
 20
156.3905066591184
 30
0.0
 10
142.8981588770172
 20
150.8368182348877
 30
0.0
 10
142.8981588770172
 20
150.8368182348877
 30
0.0
 10
142.8981588770172
 20
150.8368182348877
 30
0.0
 10
114.6769471647726
 20
141.4161582685137
 30
0.0
 10
114.6769471647726
 20
141.4161582685137
 30
0.0
  0
POLYLINE
  5
C8
330
68
100
AcDbEntity
  8
Layer 1
 62
     7
420
 16777215
370
    35
100
AcDb2dPolyline
 66
     1
 10
0.0
 20
0.0
 30
0.0
  0
VERTEX
  5
C9
330
C8
100
AcDbEntity
  8
Layer 1
 62
     7
420
 16777215
370
    35
100
AcDbVertex
100
AcDb2dVertex
 10
118.2560730928095
 20
142.6091316804714
 30
0.0
  0
VERTEX
  5
CA
330
C8
100
AcDbEntity
  8
Layer 1
 62
     7
420
 16777215
370
    35
100
AcDbVertex
100
AcDb2dVertex
 10
142.6101075707467
 20
136.76739194997
 30
0.0
  0
VERTEX
  5
CB
330
C8
100
AcDbEntity
  8
Layer 1
 62
     7
420
 16777215
370
    35
100
AcDbVertex
100
AcDb2dVertex
 10
142.651287141952
 20
131.7486265670746
 30
0.0
  0
SEQEND
  5
CC
330
C8
100
AcDbEntity
  8
Layer 1
 62
     7
420
 16777215
370
    35
  0
POLYLINE
  5
CD
330
68
100
AcDbEntity
  8
Layer 1
 62
     7
420
 16777215
370
    35
100
AcDb2dPolyline
 66
     1
 10
0.0
 20
0.0
 30
0.0
  0
VERTEX
  5
CE
330
CD
100
AcDbEntity
  8
Layer 1
 62
     7
420
 16777215
370
    35
100
AcDbVertex
100
AcDb2dVertex
 10
138.5374438647435
 20
135.9446232945287
 30
0.0
  0
VERTEX
  5
CF
330
CD
100
AcDbEntity
  8
Layer 1
 62
     7
420
 16777215
370
    35
100
AcDbVertex
100
AcDb2dVertex
 10
140.0594424620124
 20
133.9288812271294
 30
0.0
  0
VERTEX
  5
D0
330
CD
100
AcDbEntity
  8
Layer 1
 62
     7
420
 16777215
370
    35
100
AcDbVertex
100
AcDb2dVertex
 10
140.0594424620124
 20
129.0744638831581
 30
0.0
  0
VERTEX
  5
D1
330
CD
100
AcDbEntity
  8
Layer 1
 62
     7
420
 16777215
370
    35
100
AcDbVertex
100
AcDb2dVertex
 10
137.4266239030318
 20
129.5269866436511
 30
0.0
  0
SEQEND
  5
D2
330
CD
100
AcDbEntity
  8
Layer 1
 62
     7
420
 16777215
370
    35
  0
POLYLINE
  5
D3
330
68
100
AcDbEntity
  8
Layer 1
 62
     7
420
 16777215
370
    15
100
AcDb2dPolyline
 66
     1
 10
0.0
 20
0.0
 30
0.0
  0
VERTEX
  5
D4
330
D3
100
AcDbEntity
  8
Layer 1
 62
     7
420
 16777215
370
    15
100
AcDbVertex
100
AcDb2dVertex
 10
115.2118702061082
 20
138.0427245043378
 30
0.0
  0
VERTEX
  5
D5
330
D3
100
AcDbEntity
  8
Layer 1
 62
     7
420
 16777215
370
    15
100
AcDbVertex
100
AcDb2dVertex
 10
134.1355492812653
 20
133.2296512853024
 30
0.0
  0
VERTEX
  5
D6
330
D3
100
AcDbEntity
  8
Layer 1
 62
     7
420
 16777215
370
    15
100
AcDbVertex
100
AcDb2dVertex
 10
137.3444704527861
 20
134.5459577187106
 30
0.0
  0
VERTEX
  5
D7
330
D3
100
AcDbEntity
  8
Layer 1
 62
     7
420
 16777215
370
    15
100
AcDbVertex
100
AcDb2dVertex
 10
140.0184685829713
 20
134.0933938197848
 30
0.0
  0
SEQEND
  5
D8
330
D3
100
AcDbEntity
  8
Layer 1
 62
     7
420
 16777215
370
    15
  0
POLYLINE
  5
D9
330
68
100
AcDbEntity
  8
Layer 1
 62
     7
420
 16777215
370
    15
100
AcDb2dPolyline
 66
     1
 10
0.0
 20
0.0
 30
0.0
  0
VERTEX
  5
DA
330
D9
100
AcDbEntity
  8
Layer 1
 62
     7
420
 16777215
370
    15
100
AcDbVertex
100
AcDb2dVertex
 10
138.7431360286042
 20
136.0269824369385
 30
0.0
  0
VERTEX
  5
DB
330
D9
100
AcDbEntity
  8
Layer 1
 62
     7
420
 16777215
370
    15
100
AcDbVertex
100
AcDb2dVertex
 10
140.6355450745526
 20
135.8212902730778
 30
0.0
  0
VERTEX
  5
DC
330
D9
100
AcDbEntity
  8
Layer 1
 62
     7
420
 16777215
370
    15
100
AcDbVertex
100
AcDb2dVertex
 10
142.6101075707467
 20
136.76739194997
 30
0.0
  0
SEQEND
  5
DD
330
D9
100
AcDbEntity
  8
Layer 1
 62
     7
420
 16777215
370
    15
  0
POLYLINE
  5
DE
330
68
100
AcDbEntity
  8
Layer 1
 62
     7
420
 16777215
370
    15
100
AcDb2dPolyline
 66
     1
 10
0.0
 20
0.0
 30
0.0
  0
VERTEX
  5
DF
330
DE
100
AcDbEntity
  8
Layer 1
 62
     7
420
 16777215
370
    15
100
AcDbVertex
100
AcDb2dVertex
 10
140.6355450745526
 20
135.8212902730778
 30
0.0
  0
VERTEX
  5
E0
330
DE
100
AcDbEntity
  8
Layer 1
 62
     7
420
 16777215
370
    15
100
AcDbVertex
100
AcDb2dVertex
 10
140.6355450745526
 20
130.8846783404281
 30
0.0
  0
VERTEX
  5
E1
330
DE
100
AcDbEntity
  8
Layer 1
 62
     7
420
 16777215
370
    15
100
AcDbVertex
100
AcDb2dVertex
 10
142.5277484283376
 20
131.6662674246648
 30
0.0
  0
SEQEND
  5
E2
330
DE
100
AcDbEntity
  8
Layer 1
 62
     7
420
 16777215
370
    15
  0
POLYLINE
  5
E3
330
68
100
AcDbEntity
  8
Layer 1
 62
     7
420
 16777215
370
    15
100
AcDb2dPolyline
 66
     1
 10
0.0
 20
0.0
 30
0.0
  0
VERTEX
  5
E4
330
E3
100
AcDbEntity
  8
Layer 1
 62
     7
420
 16777215
370
    15
100
AcDbVertex
100
AcDb2dVertex
 10
137.2621113103764
 20
129.3624740509957
 30
0.0
  0
VERTEX
  5
E5
330
E3
100
AcDbEntity
  8
Layer 1
 62
     7
420
 16777215
370
    15
100
AcDbVertex
100
AcDb2dVertex
 10
134.1355492812653
 20
128.0460030638561
 30
0.0
  0
VERTEX
  5
E6
330
E3
100
AcDbEntity
  8
Layer 1
 62
     7
420
 16777215
370
    15
100
AcDbVertex
100
AcDb2dVertex
 10
134.1355492812653
 20
133.2296512853024
 30
0.0
  0
SEQEND
  5
E7
330
E3
100
AcDbEntity
  8
Layer 1
 62
     7
420
 16777215
370
    15
  0
POLYLINE
  5
E8
330
68
100
AcDbEntity
  8
Layer 1
 62
     7
420
 16777215
370
    15
100
AcDb2dPolyline
 66
     1
 10
0.0
 20
0.0
 30
0.0
  0
VERTEX
  5
E9
330
E8
100
AcDbEntity
  8
Layer 1
 62
     7
420
 16777215
370
    15
100
AcDbVertex
100
AcDb2dVertex
 10
137.3444704527861
 20
134.5459577187106
 30
0.0
  0
VERTEX
  5
EA
330
E8
100
AcDbEntity
  8
Layer 1
 62
     7
420
 16777215
370
    15
100
AcDbVertex
100
AcDb2dVertex
 10
137.4266239030318
 20
129.6505253572655
 30
0.0
  0
SEQEND
  5
EB
330
E8
100
AcDbEntity
  8
Layer 1
 62
     7
420
 16777215
370
    15
  0
POLYLINE
  5
EC
330
68
100
AcDbEntity
  8
Layer 1
 62
     7
420
 16777215
370
    15
100
AcDb2dPolyline
 66
     1
 10
0.0
 20
0.0
 30
0.0
  0
VERTEX
  5
ED
330
EC
100
AcDbEntity
  8
Layer 1
 62
     7
420
 16777215
370
    15
100
AcDbVertex
100
AcDb2dVertex
 10
134.1355492812653
 20
128.0460030638561
 30
0.0
  0
VERTEX
  5
EE
330
EC
100
AcDbEntity
  8
Layer 1
 62
     7
420
 16777215
370
    15
100
AcDbVertex
100
AcDb2dVertex
 10
105.256287198399
 20
135.8212902730778
 30
0.0
  0
SEQEND
  5
EF
330
EC
100
AcDbEntity
  8
Layer 1
 62
     7
420
 16777215
370
    15
  0
SPLINE
  5
F0
330
68
100
AcDbEntity
  8
Layer 1
 62
     7
420
 16777215
370
    15
100
AcDbSpline
210
0.0
220
0.0
230
1.0
 70
     8
 71
     3
 72
    53
 73
    49
 74
     0
 42
0.0000000001
 43
0.0000000001
 12
1.0
 22
0.0
 32
0.0
 13
1.0
 23
0.0
 33
0.0
 40
0.0
 40
0.0
 40
0.0
 40
0.0
 40
1.0
 40
1.0
 40
1.0
 40
2.0
 40
2.0
 40
2.0
 40
3.0
 40
3.0
 40
3.0
 40
4.0
 40
4.0
 40
4.0
 40
5.0
 40
5.0
 40
5.0
 40
6.0
 40
6.0
 40
6.0
 40
7.0
 40
7.0
 40
7.0
 40
8.0
 40
8.0
 40
8.0
 40
9.0
 40
9.0
 40
9.0
 40
10.0
 40
10.0
 40
10.0
 40
11.0
 40
11.0
 40
11.0
 40
12.0
 40
12.0
 40
12.0
 40
13.0
 40
13.0
 40
13.0
 40
14.0
 40
14.0
 40
14.0
 40
15.0
 40
15.0
 40
15.0
 40
16.0
 40
16.0
 40
16.0
 40
16.0
 10
137.7558547805068
 20
127.1410398197363
 30
0.0
 10
137.7558547805068
 20
127.1410398197363
 30
0.0
 10
137.0975987177209
 20
126.7296554920151
 30
0.0
 10
136.6450348187951
 20
126.4004657529729
 30
0.0
 10
136.6450348187951
 20
126.4004657529729
 30
0.0
 10
136.1512913486646
 20
126.1125790004338
 30
0.0
 10
136.2336504910744
 20
125.6188355303033
 30
0.0
 10
136.2336504910744
 20
125.6188355303033
 30
0.0
 10
136.2336504910744
 20
125.2486307737873
 30
0.0
 10
135.6577535706983
 20
125.2898103449924
 30
0.0
 10
135.6577535706983
 20
125.2898103449924
 30
0.0
 10
135.0818566503216
 20
125.001759038722
 30
0.0
 10
135.0818566503216
 20
125.001759038722
 30
0.0
 10
135.0818566503216
 20
125.001759038722
 30
0.0
 10
134.7526257728466
 20
124.9606206059503
 30
0.0
 10
134.3412414451259
 20
124.5492362782296
 30
0.0
 10
134.3412414451259
 20
124.5492362782296
 30
0.0
 10
134.0122162598151
 20
124.1789903832807
 30
0.0
 10
133.5184727896846
 20
124.096836933035
 30
0.0
 10
133.5184727896846
 20
124.096836933035
 30
0.0
 10
131.7084228861453
 20
123.2328887063886
 30
0.0
 10
131.7084228861453
 20
123.2328887063886
 30
0.0
 10
131.7084228861453
 20
123.2328887063886
 30
0.0
 10
131.3382181296299
 20
123.1917091351833
 30
0.0
 10
131.3382181296299
 20
122.6980068034858
 30
0.0
 10
131.3382181296299
 20
122.6980068034858
 30
0.0
 10
130.6799620668434
 20
121.4228388028499
 30
0.0
 10
130.1862185967129
 20
121.0114544751286
 30
0.0
 10
130.1862185967129
 20
121.0114544751286
 30
0.0
 10
129.5143045742469
 20
120.2297008371612
 30
0.0
 10
129.4182874721564
 20
119.4892501856962
 30
0.0
 10
129.4182874721564
 20
119.4892501856962
 30
0.0
 10
128.6642199994447
 20
118.6664815302542
 30
0.0
 10
128.5406812858297
 20
118.419609795189
 30
0.0
 10
128.5406812858297
 20
118.419609795189
 30
0.0
 10
128.2116561005188
 20
117.9670870346966
 30
0.0
 10
127.9236047942484
 20
118.1317641810834
 30
0.0
 10
127.9236047942484
 20
118.1317641810834
 30
0.0
 10
127.1831952812169
 20
118.0905846098781
 30
0.0
 10
127.1008361388071
 20
117.3911489758871
 30
0.0
 10
127.1008361388071
 20
117.3911489758871
 30
0.0
 10
127.5945796089375
 20
116.9797646481664
 30
0.0
 10
124.3856584374167
 20
115.4987810683715
 30
0.0
 10
124.3856584374167
 20
115.4987810683715
 30
0.0
 10
123.2338645966638
 20
113.7298695976051
 30
0.0
 10
122.4522755124271
 20
113.4008444122936
 30
0.0
 10
122.4522755124271
 20
113.4008444122936
 30
0.0
 10
121.3826351219206
 20
112.660229207098
 30
0.0
 10
121.6706864281904
 20
111.5084353663452
 30
0.0
  0
SPLINE
  5
F1
330
68
100
AcDbEntity
  8
Layer 1
 62
     7
420
 16777215
370
    15
100
AcDbSpline
210
0.0
220
0.0
230
1.0
 70
     8
 71
     3
 72
    11
 73
     7
 74
     0
 42
0.0000000001
 43
0.0000000001
 12
1.0
 22
0.0
 32
0.0
 13
1.0
 23
0.0
 33
0.0
 40
0.0
 40
0.0
 40
0.0
 40
0.0
 40
1.0
 40
1.0
 40
1.0
 40
2.0
 40
2.0
 40
2.0
 40
2.0
 10
86.853667512733
 20
139.8118005288354
 30
0.0
 10
86.853667512733
 20
139.8118005288354
 30
0.0
 10
86.853667512733
 20
138.8791511194593
 30
0.0
 10
86.853667512733
 20
138.8791511194593
 30
0.0
 10
86.853667512733
 20
138.8791511194593
 30
0.0
 10
87.42956443310942
 20
134.2717738943159
 30
0.0
 10
87.45708604463381
 20
133.0376208799763
 30
0.0
  0
SPLINE
  5
F2
330
68
100
AcDbEntity
  8
Layer 1
 62
     7
420
 16777215
370
    15
100
AcDbSpline
210
0.0
220
0.0
230
1.0
 70
     8
 71
     3
 72
    14
 73
    10
 74
     0
 42
0.0000000001
 43
0.0000000001
 12
1.0
 22
0.0
 32
0.0
 13
1.0
 23
0.0
 33
0.0
 40
0.0
 40
0.0
 40
0.0
 40
0.0
 40
1.0
 40
1.0
 40
1.0
 40
2.0
 40
2.0
 40
2.0
 40
3.0
 40
3.0
 40
3.0
 40
3.0
 10
86.11305230753739
 20
140.0584665717371
 30
0.0
 10
86.11305230753739
 20
140.0584665717371
 30
0.0
 10
86.38744565412698
 20
133.2569672046627
 30
0.0
 10
86.6891573006119
 20
131.9954983021398
 30
0.0
 10
86.6891573006119
 20
131.9954983021398
 30
0.0
 10
86.99065849386405
 20
128.9237774988435
 30
0.0
 10
87.15537677868356
 20
127.991330086702
 30
0.0
 10
87.15537677868356
 20
127.991330086702
 30
0.0
 10
87.42956443310942
 20
125.1663127698103
 30
0.0
 10
87.45708604463381
 20
124.4258621183459
 30
0.0
  0
SPLINE
  5
F3
330
68
100
AcDbEntity
  8
Layer 1
 62
     7
420
 16777215
370
    15
100
AcDbSpline
210
0.0
220
0.0
230
1.0
 70
     8
 71
     3
 72
     8
 73
     4
 74
     0
 42
0.0000000001
 43
0.0000000001
 12
1.0
 22
0.0
 32
0.0
 13
1.0
 23
0.0
 33
0.0
 40
0.0
 40
0.0
 40
0.0
 40
0.0
 40
1.0
 40
1.0
 40
1.0
 40
1.0
 10
87.42956443310942
 20
121.0799499656941
 30
0.0
 10
87.42956443310942
 20
121.0799499656941
 30
0.0
 10
86.93582096297901
 20
120.6685656379734
 30
0.0
 10
86.88098343209364
 20
120.037831186712
 30
0.0
  0
SPLINE
  5
F4
330
68
100
AcDbEntity
  8
Layer 1
 62
     7
420
 16777215
370
    15
100
AcDbSpline
210
0.0
220
0.0
230
1.0
 70
     8
 71
     3
 72
    20
 73
    16
 74
     0
 42
0.0000000001
 43
0.0000000001
 12
1.0
 22
0.0
 32
0.0
 13
1.0
 23
0.0
 33
0.0
 40
0.0
 40
0.0
 40
0.0
 40
0.0
 40
1.0
 40
1.0
 40
1.0
 40
2.0
 40
2.0
 40
2.0
 40
3.0
 40
3.0
 40
3.0
 40
4.0
 40
4.0
 40
4.0
 40
5.0
 40
5.0
 40
5.0
 40
5.0
 10
85.7016679798164
 20
120.3668563720229
 30
0.0
 10
85.7016679798164
 20
120.3668563720229
 30
0.0
 10
85.75650551070177
 20
121.2993000892349
 30
0.0
 10
85.92122379552065
 20
122.1495903562012
 30
0.0
 10
85.92122379552065
 20
122.1495903562012
 30
0.0
 10
86.41476394709035
 20
123.3837433393638
 30
0.0
 10
86.7439924509626
 20
123.575781103371
 30
0.0
 10
86.7439924509626
 20
123.575781103371
 30
0.0
 10
86.63411169702844
 20
128.1558426793575
 30
0.0
 10
86.22272736930779
 20
129.9110550520115
 30
0.0
 10
86.22272736930779
 20
129.9110550520115
 30
0.0
 10
85.61951452957072
 20
132.9279420193518
 30
0.0
 10
85.67435206045609
 20
133.5586764706132
 30
0.0
 10
85.67435206045609
 20
133.5586764706132
 30
0.0
 10
85.39995871386584
 20
140.1135097947862
 30
0.0
 10
85.31780526362016
 20
140.1956632450316
 30
0.0
  0
SPLINE
  5
F5
330
68
100
AcDbEntity
  8
Layer 1
 62
     7
420
 16777215
370
    15
100
AcDbSpline
210
0.0
220
0.0
230
1.0
 70
     8
 71
     3
 72
    17
 73
    13
 74
     0
 42
0.0000000001
 43
0.0000000001
 12
1.0
 22
0.0
 32
0.0
 13
1.0
 23
0.0
 33
0.0
 40
0.0
 40
0.0
 40
0.0
 40
0.0
 40
1.0
 40
1.0
 40
1.0
 40
2.0
 40
2.0
 40
2.0
 40
3.0
 40
3.0
 40
3.0
 40
4.0
 40
4.0
 40
4.0
 40
4.0
 10
84.60471166994893
 20
140.4150133685724
 30
0.0
 10
84.60471166994893
 20
140.4150133685724
 30
0.0
 10
84.98857438614519
 20
134.13457339099
 30
0.0
 10
85.29028365209575
 20
132.9279420193518
 30
0.0
 10
85.29028365209575
 20
132.9279420193518
 30
0.0
 10
86.19541144994682
 20
126.8118500806936
 30
0.0
 10
86.05821477665202
 20
125.9890814252523
 30
0.0
 10
86.05821477665202
 20
125.9890814252523
 30
0.0
 10
84.65954920083398
 20
123.4934184011339
 30
0.0
 10
84.46751499665413
 20
122.6158122148072
 30
0.0
 10
84.46751499665413
 20
122.6158122148072
 30
0.0
 10
84.41267746576877
 20
120.8057623112686
 30
0.0
 10
84.41267746576877
 20
120.8057623112686
 30
0.0
  0
SPLINE
  5
F6
330
68
100
AcDbEntity
  8
Layer 1
 62
     7
420
 16777215
370
    15
100
AcDbSpline
210
0.0
220
0.0
230
1.0
 70
     8
 71
     3
 72
    20
 73
    16
 74
     0
 42
0.0000000001
 43
0.0000000001
 12
1.0
 22
0.0
 32
0.0
 13
1.0
 23
0.0
 33
0.0
 40
0.0
 40
0.0
 40
0.0
 40
0.0
 40
1.0
 40
1.0
 40
1.0
 40
2.0
 40
2.0
 40
2.0
 40
3.0
 40
3.0
 40
3.0
 40
4.0
 40
4.0
 40
4.0
 40
5.0
 40
5.0
 40
5.0
 40
5.0
 10
83.6722679527369
 20
121.0799499656941
 30
0.0
 10
83.6722679527369
 20
121.0799499656941
 30
0.0
 10
83.72710548362194
 20
124.5903747110014
 30
0.0
 10
83.72710548362194
 20
124.5903747110014
 30
0.0
 10
83.72710548362194
 20
124.5903747110014
 30
0.0
 10
84.96125846678454
 20
126.8393305537858
 30
0.0
 10
85.12577105943998
 20
127.2782401463903
 30
0.0
 10
85.12577105943998
 20
127.2782401463903
 30
0.0
 10
85.37264279450584
 20
127.4427490856863
 30
0.0
 10
85.12577105943998
 20
129.1156023159305
 30
0.0
 10
85.12577105943998
 20
129.1156023159305
 30
0.0
 10
84.52235252753917
 20
133.5038389397285
 30
0.0
 10
84.52235252753917
 20
133.5038389397285
 30
0.0
 10
84.52235252753917
 20
133.5038389397285
 30
0.0
 10
83.97397721868747
 20
140.4150133685724
 30
0.0
 10
84.05613066893316
 20
140.6070475727523
 30
0.0
  0
SPLINE
  5
F7
330
68
100
AcDbEntity
  8
Layer 1
 62
     7
420
 16777215
370
    15
100
AcDbSpline
210
0.0
220
0.0
230
1.0
 70
     8
 71
     3
 72
    20
 73
    16
 74
     0
 42
0.0000000001
 43
0.0000000001
 12
1.0
 22
0.0
 32
0.0
 13
1.0
 23
0.0
 33
0.0
 40
0.0
 40
0.0
 40
0.0
 40
0.0
 40
1.0
 40
1.0
 40
1.0
 40
2.0
 40
2.0
 40
2.0
 40
3.0
 40
3.0
 40
3.0
 40
4.0
 40
4.0
 40
4.0
 40
5.0
 40
5.0
 40
5.0
 40
5.0
 10
83.15120856324585
 20
140.8263976962931
 30
0.0
 10
83.15120856324585
 20
140.8263976962931
 30
0.0
 10
83.89161807627771
 20
133.8328641250394
 30
0.0
 10
83.9191396878021
 20
133.4490052180893
 30
0.0
 10
83.9191396878021
 20
133.4490052180893
 30
0.0
 10
84.11096819981852
 20
130.3497552990931
 30
0.0
 10
84.05613066893316
 20
130.048251725306
 30
0.0
 10
84.05613066893316
 20
130.048251725306
 30
0.0
 10
83.39808259570592
 20
128.2655177411282
 30
0.0
 10
83.37055868678634
 20
127.6346187361355
 30
0.0
 10
83.37055868678634
 20
127.6346187361355
 30
0.0
 10
83.23336201349153
 20
126.9490056155559
 30
0.0
 10
83.04153350147544
 20
126.619980430245
 30
0.0
 10
83.04153350147544
 20
126.619980430245
 30
0.0
 10
82.46543088893527
 20
125.5230241203775
 30
0.0
 10
82.46543088893527
 20
125.0565965696074
 30
0.0
  0
SPLINE
  5
F8
330
68
100
AcDbEntity
  8
Layer 1
 62
     7
420
 16777215
370
    15
100
AcDbSpline
210
0.0
220
0.0
230
1.0
 70
     8
 71
     3
 72
    14
 73
    10
 74
     0
 42
0.0000000001
 43
0.0000000001
 12
1.0
 22
0.0
 32
0.0
 13
1.0
 23
0.0
 33
0.0
 40
0.0
 40
0.0
 40
0.0
 40
0.0
 40
1.0
 40
1.0
 40
1.0
 40
2.0
 40
2.0
 40
2.0
 40
3.0
 40
3.0
 40
3.0
 40
3.0
 10
82.57531391947965
 20
129.719020847831
 30
0.0
 10
82.57531391947965
 20
129.719020847831
 30
0.0
 10
82.84949929729528
 20
130.6789861765681
 30
0.0
 10
83.09637103236048
 20
131.1176901740007
 30
0.0
 10
83.09637103236048
 20
131.1176901740007
 30
0.0
 10
83.5625928909665
 20
131.5290745121143
 30
0.0
 10
83.20604609413121
 20
132.9279420193518
 30
0.0
 10
83.20604609413121
 20
132.9279420193518
 30
0.0
 10
82.79466176641023
 20
136.1366574987085
 30
0.0
 10
82.5477900313447
 20
136.8222294808554
 30
0.0
  0
POLYLINE
  5
F9
330
68
100
AcDbEntity
  8
Layer 1
 62
     7
420
 16777215
370
    15
100
AcDb2dPolyline
 66
     1
 10
0.0
 20
0.0
 30
0.0
  0
VERTEX
  5
FA
330
F9
100
AcDbEntity
  8
Layer 1
 62
     7
420
 16777215
370
    15
100
AcDbVertex
100
AcDb2dVertex
 10
134.1767288524705
 20
132.5302156513113
 30
0.0
  0
VERTEX
  5
FB
330
F9
100
AcDbEntity
  8
Layer 1
 62
     7
420
 16777215
370
    15
100
AcDbVertex
100
AcDb2dVertex
 10
137.3854443318272
 20
133.9288812271294
 30
0.0
  0
VERTEX
  5
FC
330
F9
100
AcDbEntity
  8
Layer 1
 62
     7
420
 16777215
370
    15
100
AcDbVertex
100
AcDb2dVertex
 10
139.9361094405616
 20
133.641035613023
 30
0.0
  0
SEQEND
  5
FD
330
F9
100
AcDbEntity
  8
Layer 1
 62
     7
420
 16777215
370
    15
  0
POLYLINE
  5
FE
330
68
100
AcDbEntity
  8
Layer 1
 62
     7
420
 16777215
370
    15
100
AcDb2dPolyline
 66
     1
 10
0.0
 20
0.0
 30
0.0
  0
VERTEX
  5
FF
330
FE
100
AcDbEntity
  8
Layer 1
 62
     7
420
 16777215
370
    15
100
AcDbVertex
100
AcDb2dVertex
 10
134.1355492812653
 20
131.6250878534602
 30
0.0
  0
VERTEX
  5
100
330
FE
100
AcDbEntity
  8
Layer 1
 62
     7
420
 16777215
370
    15
100
AcDbVertex
100
AcDb2dVertex
 10
137.3444704527861
 20
132.9004204078274
 30
0.0
  0
VERTEX
  5
101
330
FE
100
AcDbEntity
  8
Layer 1
 62
     7
420
 16777215
370
    15
100
AcDbVertex
100
AcDb2dVertex
 10
140.0184685829713
 20
132.6947282439668
 30
0.0
  0
SEQEND
  5
102
330
FE
100
AcDbEntity
  8
Layer 1
 62
     7
420
 16777215
370
    15
  0
POLYLINE
  5
103
330
68
100
AcDbEntity
  8
Layer 1
 62
     7
420
 16777215
370
    15
100
AcDb2dPolyline
 66
     1
 10
0.0
 20
0.0
 30
0.0
  0
VERTEX
  5
104
330
103
100
AcDbEntity
  8
Layer 1
 62
     7
420
 16777215
370
    15
100
AcDbVertex
100
AcDb2dVertex
 10
134.1767288524705
 20
131.0080113618789
 30
0.0
  0
VERTEX
  5
105
330
103
100
AcDbEntity
  8
Layer 1
 62
     7
420
 16777215
370
    15
100
AcDbVertex
100
AcDb2dVertex
 10
137.3854443318272
 20
132.1600108947952
 30
0.0
  0
VERTEX
  5
106
330
103
100
AcDbEntity
  8
Layer 1
 62
     7
420
 16777215
370
    15
100
AcDbVertex
100
AcDb2dVertex
 10
139.8537502981518
 20
131.8307800173203
 30
0.0
  0
SEQEND
  5
107
330
103
100
AcDbEntity
  8
Layer 1
 62
     7
420
 16777215
370
    15
  0
POLYLINE
  5
108
330
68
100
AcDbEntity
  8
Layer 1
 62
     7
420
 16777215
370
    15
100
AcDb2dPolyline
 66
     1
 10
0.0
 20
0.0
 30
0.0
  0
VERTEX
  5
109
330
108
100
AcDbEntity
  8
Layer 1
 62
     7
420
 16777215
370
    15
100
AcDbVertex
100
AcDb2dVertex
 10
134.1355492812653
 20
129.7738583787163
 30
0.0
  0
VERTEX
  5
10A
330
108
100
AcDbEntity
  8
Layer 1
 62
     7
420
 16777215
370
    15
100
AcDbVertex
100
AcDb2dVertex
 10
137.3444704527861
 20
131.1315500754933
 30
0.0
  0
VERTEX
  5
10B
330
108
100
AcDbEntity
  8
Layer 1
 62
     7
420
 16777215
370
    15
100
AcDbVertex
100
AcDb2dVertex
 10
139.9361094405616
 20
130.7613453189772
 30
0.0
  0
SEQEND
  5
10C
330
108
100
AcDbEntity
  8
Layer 1
 62
     7
420
 16777215
370
    15
  0
SPLINE
  5
10D
330
68
100
AcDbEntity
  8
Layer 1
 62
     7
420
 16777215
370
    15
100
AcDbSpline
210
0.0
220
0.0
230
1.0
 70
     8
 71
     3
 72
    11
 73
     7
 74
     0
 42
0.0000000001
 43
0.0000000001
 12
1.0
 22
0.0
 32
0.0
 13
1.0
 23
0.0
 33
0.0
 40
0.0
 40
0.0
 40
0.0
 40
0.0
 40
1.0
 40
1.0
 40
1.0
 40
2.0
 40
2.0
 40
2.0
 40
2.0
 10
134.1767288524705
 20
128.786577130619
 30
0.0
 10
134.1767288524705
 20
128.786577130619
 30
0.0
 10
136.0279583272144
 20
129.2801560470187
 30
0.0
 10
137.2621113103764
 20
130.0619096849867
 30
0.0
 10
137.2621113103764
 20
130.0619096849867
 30
0.0
 10
139.8127764191113
 20
129.8150379499216
 30
0.0
 10
139.8127764191113
 20
129.8150379499216
 30
0.0
  0
POLYLINE
  5
10E
330
68
100
AcDbEntity
  8
Layer 1
 62
     7
420
 16777215
370
    15
100
AcDb2dPolyline
 66
     1
 10
0.0
 20
0.0
 30
0.0
  0
VERTEX
  5
10F
330
10E
100
AcDbEntity
  8
Layer 1
 62
     7
420
 16777215
370
    15
100
AcDbVertex
100
AcDb2dVertex
 10
140.6355450745526
 20
130.8846783404281
 30
0.0
  0
VERTEX
  5
110
330
10E
100
AcDbEntity
  8
Layer 1
 62
     7
420
 16777215
370
    15
100
AcDbVertex
100
AcDb2dVertex
 10
140.1418016044222
 20
130.9258579116332
 30
0.0
  0
SEQEND
  5
111
330
10E
100
AcDbEntity
  8
Layer 1
 62
     7
420
 16777215
370
    15
  0
POLYLINE
  5
112
330
68
100
AcDbEntity
  8
Layer 1
 62
     7
420
 16777215
370
    15
100
AcDb2dPolyline
 66
     1
 10
0.0
 20
0.0
 30
0.0
  0
VERTEX
  5
113
330
112
100
AcDbEntity
  8
Layer 1
 62
     7
420
 16777215
370
    15
100
AcDbVertex
100
AcDb2dVertex
 10
142.6101075707467
 20
132.6947282439668
 30
0.0
  0
VERTEX
  5
114
330
112
100
AcDbEntity
  8
Layer 1
 62
     7
420
 16777215
370
    15
100
AcDbVertex
100
AcDb2dVertex
 10
140.6765189535938
 20
131.6250878534602
 30
0.0
  0
VERTEX
  5
115
330
112
100
AcDbEntity
  8
Layer 1
 62
     7
420
 16777215
370
    15
100
AcDbVertex
100
AcDb2dVertex
 10
140.1418016044222
 20
131.8307800173203
 30
0.0
  0
SEQEND
  5
116
330
112
100
AcDbEntity
  8
Layer 1
 62
     7
420
 16777215
370
    15
  0
POLYLINE
  5
117
330
68
100
AcDbEntity
  8
Layer 1
 62
     7
420
 16777215
370
    15
100
AcDb2dPolyline
 66
     1
 10
0.0
 20
0.0
 30
0.0
  0
VERTEX
  5
118
330
117
100
AcDbEntity
  8
Layer 1
 62
     7
420
 16777215
370
    15
100
AcDbVertex
100
AcDb2dVertex
 10
142.6101075707467
 20
133.4763173282035
 30
0.0
  0
VERTEX
  5
119
330
117
100
AcDbEntity
  8
Layer 1
 62
     7
420
 16777215
370
    15
100
AcDbVertex
100
AcDb2dVertex
 10
140.6355450745526
 20
132.6947282439668
 30
0.0
  0
VERTEX
  5
11A
330
117
100
AcDbEntity
  8
Layer 1
 62
     7
420
 16777215
370
    15
100
AcDbVertex
100
AcDb2dVertex
 10
140.1006220332176
 20
132.941599979032
 30
0.0
  0
SEQEND
  5
11B
330
117
100
AcDbEntity
  8
Layer 1
 62
     7
420
 16777215
370
    15
  0
POLYLINE
  5
11C
330
68
100
AcDbEntity
  8
Layer 1
 62
     7
420
 16777215
370
    15
100
AcDb2dPolyline
 66
     1
 10
0.0
 20
0.0
 30
0.0
  0
VERTEX
  5
11D
330
11C
100
AcDbEntity
  8
Layer 1
 62
     7
420
 16777215
370
    15
100
AcDbVertex
100
AcDb2dVertex
 10
142.5689279995422
 20
134.5459577187106
 30
0.0
  0
VERTEX
  5
11E
330
11C
100
AcDbEntity
  8
Layer 1
 62
     7
420
 16777215
370
    15
100
AcDbVertex
100
AcDb2dVertex
 10
140.6355450745526
 20
133.641035613023
 30
0.0
  0
VERTEX
  5
11F
330
11C
100
AcDbEntity
  8
Layer 1
 62
     7
420
 16777215
370
    15
100
AcDbVertex
100
AcDb2dVertex
 10
140.1006220332176
 20
133.7231890632687
 30
0.0
  0
SEQEND
  5
120
330
11C
100
AcDbEntity
  8
Layer 1
 62
     7
420
 16777215
370
    15
  0
SPLINE
  5
121
330
68
100
AcDbEntity
  8
Layer 1
 62
     7
420
 16777215
370
    15
100
AcDbSpline
210
0.0
220
0.0
230
1.0
 70
     8
 71
     3
 72
    11
 73
     7
 74
     0
 42
0.0000000001
 43
0.0000000001
 12
1.0
 22
0.0
 32
0.0
 13
1.0
 23
0.0
 33
0.0
 40
0.0
 40
0.0
 40
0.0
 40
0.0
 40
1.0
 40
1.0
 40
1.0
 40
2.0
 40
2.0
 40
2.0
 40
2.0
 10
142.651287141952
 20
135.0397011888411
 30
0.0
 10
142.651287141952
 20
135.0397011888411
 30
0.0
 10
140.7588780960035
 20
134.5047781475054
 30
0.0
 10
140.6355450745526
 20
134.5047781475054
 30
0.0
 10
140.6355450745526
 20
134.5047781475054
 30
0.0
 10
139.5659046840461
 20
134.7516498825713
 30
0.0
 10
139.5659046840461
 20
134.7516498825713
 30
0.0
  0
SPLINE
  5
122
330
68
100
AcDbEntity
  8
Layer 1
 62
     7
420
 16777215
370
    15
100
AcDbSpline
210
0.0
220
0.0
230
1.0
 70
     8
 71
     3
 72
    11
 73
     7
 74
     0
 42
0.0000000001
 43
0.0000000001
 12
1.0
 22
0.0
 32
0.0
 13
1.0
 23
0.0
 33
0.0
 40
0.0
 40
0.0
 40
0.0
 40
0.0
 40
1.0
 40
1.0
 40
1.0
 40
2.0
 40
2.0
 40
2.0
 40
2.0
 10
142.651287141952
 20
135.8212902730778
 30
0.0
 10
142.651287141952
 20
135.8212902730778
 30
0.0
 10
140.9233906886589
 20
135.1218546390867
 30
0.0
 10
140.6355450745526
 20
134.834009024981
 30
0.0
 10
140.6355450745526
 20
134.834009024981
 30
0.0
 10
139.0721612139151
 20
135.4099059453572
 30
0.0
 10
139.0721612139151
 20
135.4099059453572
 30
0.0
  0
SPLINE
  5
123
330
68
100
AcDbEntity
  8
Layer 1
 62
     7
420
 16777215
370
    35
100
AcDbSpline
210
0.0
220
0.0
230
1.0
 70
     8
 71
     3
 72
    44
 73
    40
 74
     0
 42
0.0000000001
 43
0.0000000001
 12
1.0
 22
0.0
 32
0.0
 13
1.0
 23
0.0
 33
0.0
 40
0.0
 40
0.0
 40
0.0
 40
0.0
 40
1.0
 40
1.0
 40
1.0
 40
2.0
 40
2.0
 40
2.0
 40
3.0
 40
3.0
 40
3.0
 40
4.0
 40
4.0
 40
4.0
 40
5.0
 40
5.0
 40
5.0
 40
6.0
 40
6.0
 40
6.0
 40
7.0
 40
7.0
 40
7.0
 40
8.0
 40
8.0
 40
8.0
 40
9.0
 40
9.0
 40
9.0
 40
10.0
 40
10.0
 40
10.0
 40
11.0
 40
11.0
 40
11.0
 40
12.0
 40
12.0
 40
12.0
 40
13.0
 40
13.0
 40
13.0
 40
13.0
 10
106.133893384726
 20
136.4383667646591
 30
0.0
 10
106.133893384726
 20
136.4383667646591
 30
0.0
 10
113.8541785093313
 20
134.5047781475054
 30
0.0
 10
113.8541785093313
 20
134.5047781475054
 30
0.0
 10
113.8541785093313
 20
134.5047781475054
 30
0.0
 10
114.2519079542
 20
134.463804268465
 30
0.0
 10
114.8004858783876
 20
134.7928294537759
 30
0.0
 10
115.3488611872393
 20
135.1218546390867
 30
0.0
 10
115.3763827987637
 20
135.6704356401025
 30
0.0
 10
115.3763827987637
 20
135.6704356401025
 30
0.0
 10
115.3763827987637
 20
135.6704356401025
 30
0.0
 10
113.5114953643396
 20
149.9592120485604
 30
0.0
 10
113.5114953643396
 20
149.9592120485604
 30
0.0
 10
113.3194611601598
 20
151.4402367667885
 30
0.0
 10
112.4418549738331
 20
151.5499160950721
 30
0.0
 10
112.4418549738331
 20
151.5499160950721
 30
0.0
 10
112.4418549738331
 20
151.5499160950721
 30
0.0
 10
109.9460273959835
 20
152.1533303604597
 30
0.0
 10
109.9460273959835
 20
152.1533303604597
 30
0.0
 10
109.4524896180172
 20
152.2903213415911
 30
0.0
 10
109.0684212096569
 20
152.2356937867069
 30
0.0
 10
109.0684212096569
 20
152.2356937867069
 30
0.0
 10
109.0684212096569
 20
152.2356937867069
 30
0.0
 10
105.9145432611852
 20
151.3305617050181
 30
0.0
 10
105.9145432611852
 20
151.3305617050181
 30
0.0
 10
105.9145432611852
 20
151.3305617050181
 30
0.0
 10
105.8733636899803
 20
139.4004162011147
 30
0.0
 10
105.8733636899803
 20
139.4004162011147
 30
0.0
 10
105.8733636899803
 20
139.4004162011147
 30
0.0
 10
106.2984059773814
 20
139.2083859516747
 30
0.0
 10
106.2984059773814
 20
139.2083859516747
 30
0.0
 10
106.2984059773814
 20
139.2083859516747
 30
0.0
 10
108.8490710861161
 20
139.9487915099664
 30
0.0
 10
108.8490710861161
 20
139.9487915099664
 30
0.0
 10
108.8490710861161
 20
139.9487915099664
 30
0.0
 10
109.3976520871318
 20
140.1135097947862
 30
0.0
 10
109.5073271489019
 20
139.7021254670649
 30
0.0
 10
109.5073271489019
 20
139.7021254670649
 30
0.0
 10
109.8638739457379
 20
139.5649287937702
 30
0.0
 10
109.8638739457379
 20
139.5649287937702
 30
0.0
  0
POLYLINE
  5
124
330
68
100
AcDbEntity
  8
Layer 1
 62
     7
420
 16777215
370
    15
100
AcDb2dPolyline
 66
     1
 10
0.0
 20
0.0
 30
0.0
  0
VERTEX
  5
125
330
124
100
AcDbEntity
  8
Layer 1
 62
     7
420
 16777215
370
    15
100
AcDbVertex
100
AcDb2dVertex
 10
109.0135836787715
 20
137.3981264012321
 30
0.0
  0
VERTEX
  5
126
330
124
100
AcDbEntity
  8
Layer 1
 62
     7
420
 16777215
370
    15
100
AcDbVertex
100
AcDb2dVertex
 10
107.4777214296587
 20
137.8370323404772
 30
0.0
  0
SEQEND
  5
127
330
124
100
AcDbEntity
  8
Layer 1
 62
     7
420
 16777215
370
    15
  0
POLYLINE
  5
128
330
68
100
AcDbEntity
  8
Layer 1
 62
     7
420
 16777215
370
    15
100
AcDb2dPolyline
 66
     1
 10
0.0
 20
0.0
 30
0.0
  0
VERTEX
  5
129
330
128
100
AcDbEntity
  8
Layer 1
 62
     7
420
 16777215
370
    15
100
AcDbVertex
100
AcDb2dVertex
 10
108.9862677594112
 20
138.0839040755424
 30
0.0
  0
VERTEX
  5
12A
330
128
100
AcDbEntity
  8
Layer 1
 62
     7
420
 16777215
370
    15
100
AcDbVertex
100
AcDb2dVertex
 10
108.0811428825013
 20
138.4129292608532
 30
0.0
  0
SEQEND
  5
12B
330
128
100
AcDbEntity
  8
Layer 1
 62
     7
420
 16777215
370
    15
  0
SPLINE
  5
12C
330
68
100
AcDbEntity
  8
Layer 1
 62
     7
420
 16777215
370
    15
100
AcDbSpline
210
0.0
220
0.0
230
1.0
 70
     8
 71
     3
 72
    17
 73
    13
 74
     0
 42
0.0000000001
 43
0.0000000001
 12
1.0
 22
0.0
 32
0.0
 13
1.0
 23
0.0
 33
0.0
 40
0.0
 40
0.0
 40
0.0
 40
0.0
 40
1.0
 40
1.0
 40
1.0
 40
2.0
 40
2.0
 40
2.0
 40
3.0
 40
3.0
 40
3.0
 40
4.0
 40
4.0
 40
4.0
 40
4.0
 10
109.1232587405422
 20
139.3728945895903
 30
0.0
 10
109.1232587405422
 20
139.3728945895903
 30
0.0
 10
109.8363523342135
 20
139.1260228545245
 30
0.0
 10
109.8363523342135
 20
139.1260228545245
 30
0.0
 10
109.8363523342135
 20
139.1260228545245
 30
0.0
 10
110.110539988639
 20
139.0438694042788
 30
0.0
 10
110.1655832116884
 20
139.3453769362658
 30
0.0
 10
110.1655832116884
 20
139.3453769362658
 30
0.0
 10
110.1655832116884
 20
139.5374071822454
 30
0.0
 10
109.9735490075079
 20
139.6470822440158
 30
0.0
 10
109.9735490075079
 20
139.6470822440158
 30
0.0
 10
109.4798055373775
 20
139.839116448196
 30
0.0
 10
109.4798055373775
 20
139.839116448196
 30
0.0
  0
POLYLINE
  5
12D
330
68
100
AcDbEntity
  8
Layer 1
 62
     7
420
 16777215
370
    15
100
AcDb2dPolyline
 66
     1
 10
0.0
 20
0.0
 30
0.0
  0
VERTEX
  5
12E
330
12D
100
AcDbEntity
  8
Layer 1
 62
     7
420
 16777215
370
    15
100
AcDbVertex
100
AcDb2dVertex
 10
109.2877713331977
 20
140.5522100418669
 30
0.0
  0
VERTEX
  5
12F
330
12D
100
AcDbEntity
  8
Layer 1
 62
     7
420
 16777215
370
    15
100
AcDbVertex
100
AcDb2dVertex
 10
109.2877713331977
 20
140.9362784502272
 30
0.0
  0
SEQEND
  5
130
330
12D
100
AcDbEntity
  8
Layer 1
 62
     7
420
 16777215
370
    15
  0
POLYLINE
  5
131
330
68
100
AcDbEntity
  8
Layer 1
 62
     7
420
 16777215
370
    15
100
AcDb2dPolyline
 66
     1
 10
0.0
 20
0.0
 30
0.0
  0
VERTEX
  5
132
330
131
100
AcDbEntity
  8
Layer 1
 62
     7
420
 16777215
370
    15
100
AcDbVertex
100
AcDb2dVertex
 10
109.2604554138367
 20
141.3201411664238
 30
0.0
  0
VERTEX
  5
133
330
131
100
AcDbEntity
  8
Layer 1
 62
     7
420
 16777215
370
    15
100
AcDbVertex
100
AcDb2dVertex
 10
109.2604554138367
 20
150.6998272537563
 30
0.0
  0
SEQEND
  5
134
330
131
100
AcDbEntity
  8
Layer 1
 62
     7
420
 16777215
370
    15
  0
POLYLINE
  5
135
330
68
100
AcDbEntity
  8
Layer 1
 62
     7
420
 16777215
370
    15
100
AcDb2dPolyline
 66
     1
 10
0.0
 20
0.0
 30
0.0
  0
VERTEX
  5
136
330
135
100
AcDbEntity
  8
Layer 1
 62
     7
420
 16777215
370
    15
100
AcDbVertex
100
AcDb2dVertex
 10
109.2604554138367
 20
151.2208866432477
 30
0.0
  0
VERTEX
  5
137
330
135
100
AcDbEntity
  8
Layer 1
 62
     7
420
 16777215
370
    15
100
AcDbVertex
100
AcDb2dVertex
 10
109.3152958968412
 20
151.5225959091979
 30
0.0
  0
SEQEND
  5
138
330
135
100
AcDbEntity
  8
Layer 1
 62
     7
420
 16777215
370
    15
  0
SPLINE
  5
139
330
68
100
AcDbEntity
  8
Layer 1
 62
     7
420
 16777215
370
    15
100
AcDbSpline
210
0.0
220
0.0
230
1.0
 70
     8
 71
     3
 72
    26
 73
    22
 74
     0
 42
0.0000000001
 43
0.0000000001
 12
1.0
 22
0.0
 32
0.0
 13
1.0
 23
0.0
 33
0.0
 40
0.0
 40
0.0
 40
0.0
 40
0.0
 40
1.0
 40
1.0
 40
1.0
 40
2.0
 40
2.0
 40
2.0
 40
3.0
 40
3.0
 40
3.0
 40
4.0
 40
4.0
 40
4.0
 40
5.0
 40
5.0
 40
5.0
 40
6.0
 40
6.0
 40
6.0
 40
7.0
 40
7.0
 40
7.0
 40
7.0
 10
106.2984059773814
 20
139.2083859516747
 30
0.0
 10
106.2984059773814
 20
139.2083859516747
 30
0.0
 10
106.3259275889061
 20
151.0836899699529
 30
0.0
 10
106.3259275889061
 20
151.0836899699529
 30
0.0
 10
106.3259275889061
 20
151.0836899699529
 30
0.0
 10
108.9862677594112
 20
151.8516210945092
 30
0.0
 10
108.9862677594112
 20
151.8516210945092
 30
0.0
 10
108.9862677594112
 20
151.8516210945092
 30
0.0
 10
109.4798055373775
 20
151.9339802369189
 30
0.0
 10
109.7541988839671
 20
151.8243094485937
 30
0.0
 10
109.7541988839671
 20
151.8243094485937
 30
0.0
 10
112.1128297885216
 20
151.2208866432477
 30
0.0
 10
112.1128297885216
 20
151.2208866432477
 30
0.0
 10
112.1128297885216
 20
151.2208866432477
 30
0.0
 10
112.9080768324391
 20
151.193365031723
 30
0.0
 10
113.12742695598
 20
149.6301868632495
 30
0.0
 10
113.12742695598
 20
149.6301868632495
 30
0.0
 10
114.9374768595187
 20
135.862469844283
 30
0.0
 10
114.9374768595187
 20
135.862469844283
 30
0.0
 10
114.9374768595187
 20
135.862469844283
 30
0.0
 10
114.9925200825674
 20
134.7928294537759
 30
0.0
 10
113.9777172229463
 20
134.4911201878253
 30
0.0
  0
POLYLINE
  5
13A
330
68
100
AcDbEntity
  8
Layer 1
 62
     7
420
 16777215
370
    15
100
AcDb2dPolyline
 66
     1
 10
0.0
 20
0.0
 30
0.0
  0
VERTEX
  5
13B
330
13A
100
AcDbEntity
  8
Layer 1
 62
     7
420
 16777215
370
    15
100
AcDbVertex
100
AcDb2dVertex
 10
106.3259275889061
 20
151.0836899699529
 30
0.0
  0
VERTEX
  5
13C
330
13A
100
AcDbEntity
  8
Layer 1
 62
     7
420
 16777215
370
    15
100
AcDbVertex
100
AcDb2dVertex
 10
105.8597057303001
 20
151.2482025626093
 30
0.0
  0
SEQEND
  5
13D
330
13A
100
AcDbEntity
  8
Layer 1
 62
     7
420
 16777215
370
    15
  0
POLYLINE
  5
13E
330
68
100
AcDbEntity
  8
Layer 1
 62
     7
420
 16777215
370
    15
100
AcDb2dPolyline
 66
     1
 10
0.0
 20
0.0
 30
0.0
  0
VERTEX
  5
13F
330
13E
100
AcDbEntity
  8
Layer 1
 62
     7
420
 16777215
370
    15
100
AcDbVertex
100
AcDb2dVertex
 10
114.265562837052
 20
144.048976827494
 30
0.0
  0
VERTEX
  5
140
330
13E
100
AcDbEntity
  8
Layer 1
 62
     7
420
 16777215
370
    15
100
AcDbVertex
100
AcDb2dVertex
 10
133.312780625824
 20
150.2609213145113
 30
0.0
  0
SEQEND
  5
141
330
13E
100
AcDbEntity
  8
Layer 1
 62
     7
420
 16777215
370
    15
  0
POLYLINE
  5
142
330
68
100
AcDbEntity
  8
Layer 1
 62
     7
420
 16777215
370
    25
100
AcDb2dPolyline
 66
     1
 10
0.0
 20
0.0
 30
0.0
  0
VERTEX
  5
143
330
142
100
AcDbEntity
  8
Layer 1
 62
     7
420
 16777215
370
    25
100
AcDbVertex
100
AcDb2dVertex
 10
133.285464706463
 20
150.343074764757
 30
0.0
  0
VERTEX
  5
144
330
142
100
AcDbEntity
  8
Layer 1
 62
     7
420
 16777215
370
    25
100
AcDbVertex
100
AcDb2dVertex
 10
133.2579430949386
 20
165.235269705116
 30
0.0
  0
VERTEX
  5
145
330
142
100
AcDbEntity
  8
Layer 1
 62
     7
420
 16777215
370
    25
100
AcDbVertex
100
AcDb2dVertex
 10
132.5996870321528
 20
165.4548255208205
 30
0.0
  0
VERTEX
  5
146
330
142
100
AcDbEntity
  8
Layer 1
 62
     7
420
 16777215
370
    25
100
AcDbVertex
100
AcDb2dVertex
 10
111.5915647068668
 20
160.0244701180404
 30
0.0
  0
SEQEND
  5
147
330
142
100
AcDbEntity
  8
Layer 1
 62
     7
420
 16777215
370
    25
  0
POLYLINE
  5
148
330
68
100
AcDbEntity
  8
Layer 1
 62
     7
420
 16777215
370
    25
100
AcDb2dPolyline
 66
     1
 10
0.0
 20
0.0
 30
0.0
  0
VERTEX
  5
149
330
148
100
AcDbEntity
  8
Layer 1
 62
     7
420
 16777215
370
    25
100
AcDbVertex
100
AcDb2dVertex
 10
111.4818896450967
 20
159.8872734447453
 30
0.0
  0
VERTEX
  5
14A
330
148
100
AcDbEntity
  8
Layer 1
 62
     7
420
 16777215
370
    25
100
AcDbVertex
100
AcDb2dVertex
 10
111.4545737257357
 20
151.9064586253942
 30
0.0
  0
SEQEND
  5
14B
330
148
100
AcDbEntity
  8
Layer 1
 62
     7
420
 16777215
370
    25
  0
SPLINE
  5
14C
330
68
100
AcDbEntity
  8
Layer 1
 62
     7
420
 16777215
370
    15
100
AcDbSpline
210
0.0
220
0.0
230
1.0
 70
    11
 71
     3
 72
    17
 73
    13
 74
     0
 42
0.0000000001
 43
0.0000000001
 12
1.0
 22
0.0
 32
0.0
 13
1.0
 23
0.0
 33
0.0
 40
0.0
 40
0.0
 40
0.0
 40
0.0
 40
1.0
 40
1.0
 40
1.0
 40
2.0
 40
2.0
 40
2.0
 40
3.0
 40
3.0
 40
3.0
 40
4.0
 40
4.0
 40
4.0
 40
4.0
 10
107.6679455427969
 20
148.4089102095449
 30
0.0
 10
107.884868498804
 20
148.4089102095449
 30
0.0
 10
108.0608175757702
 20
148.6302761162913
 30
0.0
 10
108.0608175757702
 20
148.903229617734
 30
0.0
 10
108.0608175757702
 20
149.1764299497736
 30
0.0
 10
107.884868498804
 20
149.3977958565201
 30
0.0
 10
107.6679455427969
 20
149.3977958565201
 30
0.0
 10
107.4511871405208
 20
149.3977958565201
 30
0.0
 10
107.275240964137
 20
149.1764299497736
 30
0.0
 10
107.275240964137
 20
148.903229617734
 30
0.0
 10
107.275240964137
 20
148.6302761162913
 30
0.0
 10
107.4511871405208
 20
148.4089102095449
 30
0.0
 10
107.6679455427969
 20
148.4089102095449
 30
0.0
  0
HATCH
  5
14D
330
68
100
AcDbEntity
  8
Layer 1
 62
     7
420
 16777215
100
AcDbHatch
 10
0.0
 20
0.0
 30
0.0
210
0.0
220
0.0
230
1.0
  2
SOLID
 70
     1
 71
     0
 91
        1
 92
        1
 93
        1
 72
     4
 94
        3
 73
     0
 74
     1
 95
       17
 96
       13
 40
0.0
 40
0.0
 40
0.0
 40
0.0
 40
1.0
 40
1.0
 40
1.0
 40
2.0
 40
2.0
 40
2.0
 40
3.0
 40
3.0
 40
3.0
 40
4.0
 40
4.0
 40
4.0
 40
4.0
 10
107.6679455427969
 20
148.4089102095449
 10
107.884868498804
 20
148.4089102095449
 10
108.0608175757702
 20
148.6302761162913
 10
108.0608175757702
 20
148.903229617734
 10
108.0608175757702
 20
149.1764299497736
 10
107.884868498804
 20
149.3977958565201
 10
107.6679455427969
 20
149.3977958565201
 10
107.4511871405208
 20
149.3977958565201
 10
107.275240964137
 20
149.1764299497736
 10
107.275240964137
 20
148.903229617734
 10
107.275240964137
 20
148.6302761162913
 10
107.4511871405208
 20
148.4089102095449
 10
107.6679455427969
 20
148.4089102095449
 97
        0
 97
        0
 75
     2
 76
     1
 98
        0
  0
SPLINE
  5
14E
330
68
100
AcDbEntity
  8
Layer 1
 62
     7
420
 16777215
370
    13
100
AcDbSpline
210
0.0
220
0.0
230
1.0
 70
    11
 71
     3
 72
    17
 73
    13
 74
     0
 42
0.0000000001
 43
0.0000000001
 12
1.0
 22
0.0
 32
0.0
 13
1.0
 23
0.0
 33
0.0
 40
0.0
 40
0.0
 40
0.0
 40
0.0
 40
1.0
 40
1.0
 40
1.0
 40
2.0
 40
2.0
 40
2.0
 40
3.0
 40
3.0
 40
3.0
 40
4.0
 40
4.0
 40
4.0
 40
4.0
 10
107.7760162056892
 20
148.4293971490654
 30
0.0
 10
107.9929391616962
 20
148.4293971490654
 30
0.0
 10
108.1687236849315
 20
148.6507630558119
 30
0.0
 10
108.1687236849315
 20
148.9239222494184
 30
0.0
 10
108.1687236849315
 20
149.197122581458
 30
0.0
 10
107.9929391616962
 20
149.4184884882044
 30
0.0
 10
107.7760162056892
 20
149.4184884882044
 30
0.0
 10
107.559052111249
 20
149.4184884882044
 30
0.0
 10
107.3833087264469
 20
149.197122581458
 30
0.0
 10
107.3833087264469
 20
148.9239222494184
 30
0.0
 10
107.3833087264469
 20
148.6507630558119
 30
0.0
 10
107.559052111249
 20
148.4293971490654
 30
0.0
 10
107.7760162056892
 20
148.4293971490654
 30
0.0
  0
HATCH
  5
14F
330
68
100
AcDbEntity
  8
Layer 1
 62
   254
420
 13358815
100
AcDbHatch
 10
0.0
 20
0.0
 30
0.0
210
0.0
220
0.0
230
1.0
  2
SOLID
 70
     1
 71
     0
 91
        1
 92
        1
 93
        1
 72
     4
 94
        3
 73
     0
 74
     1
 95
       17
 96
       13
 40
0.0
 40
0.0
 40
0.0
 40
0.0
 40
1.0
 40
1.0
 40
1.0
 40
2.0
 40
2.0
 40
2.0
 40
3.0
 40
3.0
 40
3.0
 40
4.0
 40
4.0
 40
4.0
 40
4.0
 10
107.7760162056892
 20
148.4293971490654
 10
107.9929391616962
 20
148.4293971490654
 10
108.1687236849315
 20
148.6507630558119
 10
108.1687236849315
 20
148.9239222494184
 10
108.1687236849315
 20
149.197122581458
 10
107.9929391616962
 20
149.4184884882044
 10
107.7760162056892
 20
149.4184884882044
 10
107.559052111249
 20
149.4184884882044
 10
107.3833087264469
 20
149.197122581458
 10
107.3833087264469
 20
148.9239222494184
 10
107.3833087264469
 20
148.6507630558119
 10
107.559052111249
 20
148.4293971490654
 10
107.7760162056892
 20
148.4293971490654
 97
        0
 97
        0
 75
     2
 76
     1
 98
        0
  0
SPLINE
  5
150
330
68
100
AcDbEntity
  8
Layer 1
 62
     7
420
 16777215
370
    15
100
AcDbSpline
210
0.0
220
0.0
230
1.0
 70
    11
 71
     3
 72
    17
 73
    13
 74
     0
 42
0.0000000001
 43
0.0000000001
 12
1.0
 22
0.0
 32
0.0
 13
1.0
 23
0.0
 33
0.0
 40
0.0
 40
0.0
 40
0.0
 40
0.0
 40
1.0
 40
1.0
 40
1.0
 40
2.0
 40
2.0
 40
2.0
 40
3.0
 40
3.0
 40
3.0
 40
4.0
 40
4.0
 40
4.0
 40
4.0
 10
107.4803131509234
 20
145.5603617091072
 30
0.0
 10
107.6936570632794
 20
145.5217738591674
 30
0.0
 10
107.9061782069798
 20
145.7081720980581
 30
0.0
 10
107.9549683882476
 20
145.9769706177904
 30
0.0
 10
108.0038026269358
 20
146.2457279990909
 30
0.0
 10
107.8702232167372
 20
146.4948253483367
 30
0.0
 10
107.6568793043812
 20
146.5335736131966
 30
0.0
 10
107.4433708382942
 20
146.572326016868
 30
0.0
 10
107.2308496945935
 20
146.3859277779776
 30
0.0
 10
107.1822240670569
 20
146.1171745259485
 30
0.0
 10
107.1334338857895
 20
145.8484130153776
 30
0.0
 10
107.2668046848364
 20
145.5991141127793
 30
0.0
 10
107.4803131509234
 20
145.5603617091072
 30
0.0
  0
HATCH
  5
151
330
68
100
AcDbEntity
  8
Layer 1
 62
     7
420
 16777215
100
AcDbHatch
 10
0.0
 20
0.0
 30
0.0
210
0.0
220
0.0
230
1.0
  2
SOLID
 70
     1
 71
     0
 91
        1
 92
        1
 93
        1
 72
     4
 94
        3
 73
     0
 74
     1
 95
       17
 96
       13
 40
0.0
 40
0.0
 40
0.0
 40
0.0
 40
1.0
 40
1.0
 40
1.0
 40
2.0
 40
2.0
 40
2.0
 40
3.0
 40
3.0
 40
3.0
 40
4.0
 40
4.0
 40
4.0
 40
4.0
 10
107.4803131509234
 20
145.5603617091072
 10
107.6936570632794
 20
145.5217738591674
 10
107.9061782069798
 20
145.7081720980581
 10
107.9549683882476
 20
145.9769706177904
 10
108.0038026269358
 20
146.2457279990909
 10
107.8702232167372
 20
146.4948253483367
 10
107.6568793043812
 20
146.5335736131966
 10
107.4433708382942
 20
146.572326016868
 10
107.2308496945935
 20
146.3859277779776
 10
107.1822240670569
 20
146.1171745259485
 10
107.1334338857895
 20
145.8484130153776
 10
107.2668046848364
 20
145.5991141127793
 10
107.4803131509234
 20
145.5603617091072
 97
        0
 97
        0
 75
     2
 76
     1
 98
        0
  0
SPLINE
  5
152
330
68
100
AcDbEntity
  8
Layer 1
 62
     7
420
 16777215
370
    13
100
AcDbSpline
210
0.0
220
0.0
230
1.0
 70
    11
 71
     3
 72
    17
 73
    13
 74
     0
 42
0.0000000001
 43
0.0000000001
 12
1.0
 22
0.0
 32
0.0
 13
1.0
 23
0.0
 33
0.0
 40
0.0
 40
0.0
 40
0.0
 40
0.0
 40
1.0
 40
1.0
 40
1.0
 40
2.0
 40
2.0
 40
2.0
 40
3.0
 40
3.0
 40
3.0
 40
4.0
 40
4.0
 40
4.0
 40
4.0
 10
107.5901939048575
 20
145.5613490314941
 30
0.0
 10
107.8035378172136
 20
145.5225966278227
 30
0.0
 10
108.0162646530781
 20
145.7092005588769
 30
0.0
 10
108.0648491421818
 20
145.977957940177
 30
0.0
 10
108.1136804618827
 20
146.2465096293134
 30
0.0
 10
107.9801039706714
 20
146.4958085319121
 30
0.0
 10
107.766760058315
 20
146.5345609355832
 30
0.0
 10
107.5534572843921
 20
146.5733544776874
 30
0.0
 10
107.3408950022589
 20
146.3867505466333
 30
0.0
 10
107.2921077219998
 20
146.1181577190644
 30
0.0
 10
107.2432735012911
 20
145.8494003377642
 30
0.0
 10
107.3766854387706
 20
145.6001014351655
 30
0.0
 10
107.5901939048575
 20
145.5613490314941
 30
0.0
  0
HATCH
  5
153
330
68
100
AcDbEntity
  8
Layer 1
 62
   254
420
 13358815
100
AcDbHatch
 10
0.0
 20
0.0
 30
0.0
210
0.0
220
0.0
230
1.0
  2
SOLID
 70
     1
 71
     0
 91
        1
 92
        1
 93
        1
 72
     4
 94
        3
 73
     0
 74
     1
 95
       17
 96
       13
 40
0.0
 40
0.0
 40
0.0
 40
0.0
 40
1.0
 40
1.0
 40
1.0
 40
2.0
 40
2.0
 40
2.0
 40
3.0
 40
3.0
 40
3.0
 40
4.0
 40
4.0
 40
4.0
 40
4.0
 10
107.5901939048575
 20
145.5613490314941
 10
107.8035378172136
 20
145.5225966278227
 10
108.0162646530781
 20
145.7092005588769
 10
108.0648491421818
 20
145.977957940177
 10
108.1136804618827
 20
146.2465096293134
 10
107.9801039706714
 20
146.4958085319121
 10
107.766760058315
 20
146.5345609355832
 10
107.5534572843921
 20
146.5733544776874
 10
107.3408950022589
 20
146.3867505466333
 10
107.2921077219998
 20
146.1181577190644
 10
107.2432735012911
 20
145.8494003377642
 10
107.3766854387706
 20
145.6001014351655
 10
107.5901939048575
 20
145.5613490314941
 97
        0
 97
        0
 75
     2
 76
     1
 98
        0
  0
SPLINE
  5
154
330
68
100
AcDbEntity
  8
Layer 1
 62
     7
420
 16777215
370
    15
100
AcDbSpline
210
0.0
220
0.0
230
1.0
 70
    11
 71
     3
 72
    17
 73
    13
 74
     0
 42
0.0000000001
 43
0.0000000001
 12
1.0
 22
0.0
 32
0.0
 13
1.0
 23
0.0
 33
0.0
 40
0.0
 40
0.0
 40
0.0
 40
0.0
 40
1.0
 40
1.0
 40
1.0
 40
2.0
 40
2.0
 40
2.0
 40
3.0
 40
3.0
 40
3.0
 40
4.0
 40
4.0
 40
4.0
 40
4.0
 10
107.603851864538
 20
142.5770025644764
 30
0.0
 10
107.8185944836081
 20
142.5462721551957
 30
0.0
 10
108.023875263141
 20
142.7405318787149
 30
0.0
 10
108.0624631130811
 20
143.0108896149235
 30
0.0
 10
108.1010098245885
 20
143.2812513951015
 30
0.0
 10
107.9583828781677
 20
143.5253257167383
 30
0.0
 10
107.7436813975304
 20
143.556056126019
 30
0.0
 10
107.5289387784602
 20
143.5867865352993
 30
0.0
 10
107.3236579989274
 20
143.392325163586
 30
0.0
 10
107.2850701489869
 20
143.121963383408
 30
0.0
 10
107.2463177453158
 20
142.8516056500059
 30
0.0
 10
107.3891092454676
 20
142.6075272815933
 30
0.0
 10
107.603851864538
 20
142.5770025644764
 30
0.0
  0
HATCH
  5
155
330
68
100
AcDbEntity
  8
Layer 1
 62
     7
420
 16777215
100
AcDbHatch
 10
0.0
 20
0.0
 30
0.0
210
0.0
220
0.0
230
1.0
  2
SOLID
 70
     1
 71
     0
 91
        1
 92
        1
 93
        1
 72
     4
 94
        3
 73
     0
 74
     1
 95
       17
 96
       13
 40
0.0
 40
0.0
 40
0.0
 40
0.0
 40
1.0
 40
1.0
 40
1.0
 40
2.0
 40
2.0
 40
2.0
 40
3.0
 40
3.0
 40
3.0
 40
4.0
 40
4.0
 40
4.0
 40
4.0
 10
107.603851864538
 20
142.5770025644764
 10
107.8185944836081
 20
142.5462721551957
 10
108.023875263141
 20
142.7405318787149
 10
108.0624631130811
 20
143.0108896149235
 10
108.1010098245885
 20
143.2812513951015
 10
107.9583828781677
 20
143.5253257167383
 10
107.7436813975304
 20
143.556056126019
 10
107.5289387784602
 20
143.5867865352993
 10
107.3236579989274
 20
143.392325163586
 10
107.2850701489869
 20
143.121963383408
 10
107.2463177453158
 20
142.8516056500059
 10
107.3891092454676
 20
142.6075272815933
 10
107.603851864538
 20
142.5770025644764
 97
        0
 97
        0
 75
     2
 76
     1
 98
        0
  0
SPLINE
  5
156
330
68
100
AcDbEntity
  8
Layer 1
 62
     7
420
 16777215
370
    13
100
AcDbSpline
210
0.0
220
0.0
230
1.0
 70
    11
 71
     3
 72
    17
 73
    13
 74
     0
 42
0.0000000001
 43
0.0000000001
 12
1.0
 22
0.0
 32
0.0
 13
1.0
 23
0.0
 33
0.0
 40
0.0
 40
0.0
 40
0.0
 40
0.0
 40
1.0
 40
1.0
 40
1.0
 40
2.0
 40
2.0
 40
2.0
 40
3.0
 40
3.0
 40
3.0
 40
4.0
 40
4.0
 40
4.0
 40
4.0
 10
107.7137326184722
 20
142.5820214532746
 30
0.0
 10
107.9282695453786
 20
142.5512950831826
 30
0.0
 10
108.1337560170754
 20
142.7457524157075
 30
0.0
 10
108.1723027285825
 20
143.0161141958855
 30
0.0
 10
108.2108905785229
 20
143.2864759760635
 30
0.0
 10
108.0680579399381
 20
143.5305502977002
 30
0.0
 10
107.8535210130317
 20
143.5610750148172
 30
0.0
 10
107.6388195323941
 20
143.5918054240982
 30
0.0
 10
107.4333330606978
 20
143.397385190817
 30
0.0
 10
107.3947452107576
 20
143.12718796437
 30
0.0
 10
107.3561984992503
 20
142.856826184192
 30
0.0
 10
107.4989899994021
 20
142.6127518625552
 30
0.0
 10
107.7137326184722
 20
142.5820214532746
 30
0.0
  0
HATCH
  5
157
330
68
100
AcDbEntity
  8
Layer 1
 62
   254
420
 13358815
100
AcDbHatch
 10
0.0
 20
0.0
 30
0.0
210
0.0
220
0.0
230
1.0
  2
SOLID
 70
     1
 71
     0
 91
        1
 92
        1
 93
        1
 72
     4
 94
        3
 73
     0
 74
     1
 95
       17
 96
       13
 40
0.0
 40
0.0
 40
0.0
 40
0.0
 40
1.0
 40
1.0
 40
1.0
 40
2.0
 40
2.0
 40
2.0
 40
3.0
 40
3.0
 40
3.0
 40
4.0
 40
4.0
 40
4.0
 40
4.0
 10
107.7137326184722
 20
142.5820214532746
 10
107.9282695453786
 20
142.5512950831826
 10
108.1337560170754
 20
142.7457524157075
 10
108.1723027285825
 20
143.0161141958855
 10
108.2108905785229
 20
143.2864759760635
 10
108.0680579399381
 20
143.5305502977002
 10
107.8535210130317
 20
143.5610750148172
 10
107.6388195323941
 20
143.5918054240982
 10
107.4333330606978
 20
143.397385190817
 10
107.3947452107576
 20
143.12718796437
 10
107.3561984992503
 20
142.856826184192
 10
107.4989899994021
 20
142.6127518625552
 10
107.7137326184722
 20
142.5820214532746
 97
        0
 97
        0
 75
     2
 76
     1
 98
        0
  0
SPLINE
  5
158
330
68
100
AcDbEntity
  8
Layer 1
 62
     7
420
 16777215
370
    13
100
AcDbSpline
210
0.0
220
0.0
230
1.0
 70
    11
 71
     3
 72
    17
 73
    13
 74
     0
 42
0.0000000001
 43
0.0000000001
 12
1.0
 22
0.0
 32
0.0
 13
1.0
 23
0.0
 33
0.0
 40
0.0
 40
0.0
 40
0.0
 40
0.0
 40
1.0
 40
1.0
 40
1.0
 40
2.0
 40
2.0
 40
2.0
 40
3.0
 40
3.0
 40
3.0
 40
4.0
 40
4.0
 40
4.0
 40
4.0
 10
111.2058918996286
 20
136.7091399291649
 30
0.0
 10
111.4710290988447
 20
136.7091399291649
 30
0.0
 10
111.6859774100789
 20
136.9240882403991
 30
0.0
 10
111.6859774100789
 20
137.1892254396152
 30
0.0
 10
111.6859774100789
 20
137.4541980851
 30
0.0
 10
111.4710290988447
 20
137.6691052579014
 30
0.0
 10
111.2058918996286
 20
137.6691052579014
 30
0.0
 10
110.9409192541438
 20
137.6691052579014
 30
0.0
 10
110.7260120813425
 20
137.4541980851
 30
0.0
 10
110.7260120813425
 20
137.1892254396152
 30
0.0
 10
110.7260120813425
 20
136.9240882403991
 30
0.0
 10
110.9409192541438
 20
136.7091399291649
 30
0.0
 10
111.2058918996286
 20
136.7091399291649
 30
0.0
  0
HATCH
  5
159
330
68
100
AcDbEntity
  8
Layer 1
 62
     7
420
 16777215
100
AcDbHatch
 10
0.0
 20
0.0
 30
0.0
210
0.0
220
0.0
230
1.0
  2
SOLID
 70
     1
 71
     0
 91
        1
 92
        1
 93
        1
 72
     4
 94
        3
 73
     0
 74
     1
 95
       17
 96
       13
 40
0.0
 40
0.0
 40
0.0
 40
0.0
 40
1.0
 40
1.0
 40
1.0
 40
2.0
 40
2.0
 40
2.0
 40
3.0
 40
3.0
 40
3.0
 40
4.0
 40
4.0
 40
4.0
 40
4.0
 10
111.2058918996286
 20
136.7091399291649
 10
111.4710290988447
 20
136.7091399291649
 10
111.6859774100789
 20
136.9240882403991
 10
111.6859774100789
 20
137.1892254396152
 10
111.6859774100789
 20
137.4541980851
 10
111.4710290988447
 20
137.6691052579014
 10
111.2058918996286
 20
137.6691052579014
 10
110.9409192541438
 20
137.6691052579014
 10
110.7260120813425
 20
137.4541980851
 10
110.7260120813425
 20
137.1892254396152
 10
110.7260120813425
 20
136.9240882403991
 10
110.9409192541438
 20
136.7091399291649
 10
111.2058918996286
 20
136.7091399291649
 97
        0
 97
        0
 75
     2
 76
     1
 98
        0
  0
SPLINE
  5
15A
330
68
100
AcDbEntity
  8
Layer 1
 62
     7
420
 16777215
370
    13
100
AcDbSpline
210
0.0
220
0.0
230
1.0
 70
    11
 71
     3
 72
    17
 73
    13
 74
     0
 42
0.0000000001
 43
0.0000000001
 12
1.0
 22
0.0
 32
0.0
 13
1.0
 23
0.0
 33
0.0
 40
0.0
 40
0.0
 40
0.0
 40
0.0
 40
1.0
 40
1.0
 40
1.0
 40
2.0
 40
2.0
 40
2.0
 40
3.0
 40
3.0
 40
3.0
 40
4.0
 40
4.0
 40
4.0
 40
4.0
 10
111.1082703986603
 20
136.7400799229956
 30
0.0
 10
111.3734075978763
 20
136.7400799229956
 30
0.0
 10
111.5881502169471
 20
136.9550243418439
 30
0.0
 10
111.5881502169471
 20
137.2199558488959
 30
0.0
 10
111.5881502169471
 20
137.4851341865447
 30
0.0
 10
111.3734075978763
 20
137.6998395838133
 30
0.0
 10
111.1082703986603
 20
137.6998395838133
 30
0.0
 10
110.8430920610114
 20
137.6998395838133
 30
0.0
 10
110.62818488821
 20
137.4851341865447
 30
0.0
 10
110.62818488821
 20
137.2199558488959
 30
0.0
 10
110.62818488821
 20
136.9550243418439
 30
0.0
 10
110.8430920610114
 20
136.7400799229956
 30
0.0
 10
111.1082703986603
 20
136.7400799229956
 30
0.0
  0
HATCH
  5
15B
330
68
100
AcDbEntity
  8
Layer 1
 62
   254
420
 13358815
100
AcDbHatch
 10
0.0
 20
0.0
 30
0.0
210
0.0
220
0.0
230
1.0
  2
SOLID
 70
     1
 71
     0
 91
        1
 92
        1
 93
        1
 72
     4
 94
        3
 73
     0
 74
     1
 95
       17
 96
       13
 40
0.0
 40
0.0
 40
0.0
 40
0.0
 40
1.0
 40
1.0
 40
1.0
 40
2.0
 40
2.0
 40
2.0
 40
3.0
 40
3.0
 40
3.0
 40
4.0
 40
4.0
 40
4.0
 40
4.0
 10
111.1082703986603
 20
136.7400799229956
 10
111.3734075978763
 20
136.7400799229956
 10
111.5881502169471
 20
136.9550243418439
 10
111.5881502169471
 20
137.2199558488959
 10
111.5881502169471
 20
137.4851341865447
 10
111.3734075978763
 20
137.6998395838133
 10
111.1082703986603
 20
137.6998395838133
 10
110.8430920610114
 20
137.6998395838133
 10
110.62818488821
 20
137.4851341865447
 10
110.62818488821
 20
137.2199558488959
 10
110.62818488821
 20
136.9550243418439
 10
110.8430920610114
 20
136.7400799229956
 10
111.1082703986603
 20
136.7400799229956
 97
        0
 97
        0
 75
     2
 76
     1
 98
        0
  0
SPLINE
  5
15C
330
68
100
AcDbEntity
  8
Layer 1
 62
     7
420
 16777215
370
    13
100
AcDbSpline
210
0.0
220
0.0
230
1.0
 70
    11
 71
     3
 72
    17
 73
    13
 74
     0
 42
0.0000000001
 43
0.0000000001
 12
1.0
 22
0.0
 32
0.0
 13
1.0
 23
0.0
 33
0.0
 40
0.0
 40
0.0
 40
0.0
 40
0.0
 40
1.0
 40
1.0
 40
1.0
 40
2.0
 40
2.0
 40
2.0
 40
3.0
 40
3.0
 40
3.0
 40
4.0
 40
4.0
 40
4.0
 40
4.0
 10
113.7744110881863
 20
137.1552862325782
 30
0.0
 10
113.9754957475763
 20
137.3280265117881
 30
0.0
 10
113.9985744083612
 20
137.6309699307218
 30
0.0
 10
113.8258341291513
 20
137.832013451679
 30
0.0
 10
113.6530938499414
 20
138.0330981110689
 30
0.0
 10
113.3499858772764
 20
138.0562179102867
 30
0.0
 10
113.1489012178864
 20
137.883436492644
 30
0.0
 10
112.9478196023811
 20
137.710696213434
 30
0.0
 10
112.9249435898756
 20
137.4075882407691
 30
0.0
 10
113.0976838690855
 20
137.2065035813791
 30
0.0
 10
113.2704241482954
 20
137.005460060422
 30
0.0
 10
113.5733675672292
 20
136.9825459533683
 30
0.0
 10
113.7744110881863
 20
137.1552862325782
 30
0.0
  0
HATCH
  5
15D
330
68
100
AcDbEntity
  8
Layer 1
 62
     7
420
 16777215
100
AcDbHatch
 10
0.0
 20
0.0
 30
0.0
210
0.0
220
0.0
230
1.0
  2
SOLID
 70
     1
 71
     0
 91
        1
 92
        1
 93
        1
 72
     4
 94
        3
 73
     0
 74
     1
 95
       17
 96
       13
 40
0.0
 40
0.0
 40
0.0
 40
0.0
 40
1.0
 40
1.0
 40
1.0
 40
2.0
 40
2.0
 40
2.0
 40
3.0
 40
3.0
 40
3.0
 40
4.0
 40
4.0
 40
4.0
 40
4.0
 10
113.7744110881863
 20
137.1552862325782
 10
113.9754957475763
 20
137.3280265117881
 10
113.9985744083612
 20
137.6309699307218
 10
113.8258341291513
 20
137.832013451679
 10
113.6530938499414
 20
138.0330981110689
 10
113.3499858772764
 20
138.0562179102867
 10
113.1489012178864
 20
137.883436492644
 10
112.9478196023811
 20
137.710696213434
 10
112.9249435898756
 20
137.4075882407691
 10
113.0976838690855
 20
137.2065035813791
 10
113.2704241482954
 20
137.005460060422
 10
113.5733675672292
 20
136.9825459533683
 10
113.7744110881863
 20
137.1552862325782
 97
        0
 97
        0
 75
     2
 76
     1
 98
        0
  0
SPLINE
  5
15E
330
68
100
AcDbEntity
  8
Layer 1
 62
     7
420
 16777215
370
    13
100
AcDbSpline
210
0.0
220
0.0
230
1.0
 70
    11
 71
     3
 72
    17
 73
    13
 74
     0
 42
0.0000000001
 43
0.0000000001
 12
1.0
 22
0.0
 32
0.0
 13
1.0
 23
0.0
 33
0.0
 40
0.0
 40
0.0
 40
0.0
 40
0.0
 40
1.0
 40
1.0
 40
1.0
 40
2.0
 40
2.0
 40
2.0
 40
3.0
 40
3.0
 40
3.0
 40
4.0
 40
4.0
 40
4.0
 40
4.0
 10
113.6802040771383
 20
137.1149294300286
 30
0.0
 10
113.8812887365282
 20
137.2876697092385
 30
0.0
 10
113.9043673973132
 20
137.5907776819035
 30
0.0
 10
113.7316271181033
 20
137.7918623412935
 30
0.0
 10
113.5588868388933
 20
137.9929058622506
 30
0.0
 10
113.2557788662284
 20
138.0158199693043
 30
0.0
 10
113.0546942068384
 20
137.8430796900944
 30
0.0
 10
112.853612588953
 20
137.6705451030485
 30
0.0
 10
112.8307365788276
 20
137.3673959919508
 30
0.0
 10
113.0034768580375
 20
137.1663524709936
 30
0.0
 10
113.1760114450833
 20
136.9652678116037
 30
0.0
 10
113.4791194177483
 20
136.9421891508187
 30
0.0
 10
113.6802040771383
 20
137.1149294300286
 30
0.0
  0
HATCH
  5
15F
330
68
100
AcDbEntity
  8
Layer 1
 62
   254
420
 13358815
100
AcDbHatch
 10
0.0
 20
0.0
 30
0.0
210
0.0
220
0.0
230
1.0
  2
SOLID
 70
     1
 71
     0
 91
        1
 92
        1
 93
        1
 72
     4
 94
        3
 73
     0
 74
     1
 95
       17
 96
       13
 40
0.0
 40
0.0
 40
0.0
 40
0.0
 40
1.0
 40
1.0
 40
1.0
 40
2.0
 40
2.0
 40
2.0
 40
3.0
 40
3.0
 40
3.0
 40
4.0
 40
4.0
 40
4.0
 40
4.0
 10
113.6802040771383
 20
137.1149294300286
 10
113.8812887365282
 20
137.2876697092385
 10
113.9043673973132
 20
137.5907776819035
 10
113.7316271181033
 20
137.7918623412935
 10
113.5588868388933
 20
137.9929058622506
 10
113.2557788662284
 20
138.0158199693043
 10
113.0546942068384
 20
137.8430796900944
 10
112.853612588953
 20
137.6705451030485
 10
112.8307365788276
 20
137.3673959919508
 10
113.0034768580375
 20
137.1663524709936
 10
113.1760114450833
 20
136.9652678116037
 10
113.4791194177483
 20
136.9421891508187
 10
113.6802040771383
 20
137.1149294300286
 97
        0
 97
        0
 75
     2
 76
     1
 98
        0
  0
SPLINE
  5
160
330
68
100
AcDbEntity
  8
Layer 1
 62
     7
420
 16777215
370
    13
100
AcDbSpline
210
0.0
220
0.0
230
1.0
 70
    11
 71
     3
 72
    17
 73
    13
 74
     0
 42
0.0000000001
 43
0.0000000001
 12
1.0
 22
0.0
 32
0.0
 13
1.0
 23
0.0
 33
0.0
 40
0.0
 40
0.0
 40
0.0
 40
0.0
 40
1.0
 40
1.0
 40
1.0
 40
2.0
 40
2.0
 40
2.0
 40
3.0
 40
3.0
 40
3.0
 40
4.0
 40
4.0
 40
4.0
 40
4.0
 10
114.2042665722219
 20
135.2946360567295
 30
0.0
 10
114.33142546792
 20
135.4965023463423
 30
0.0
 10
114.2707874180143
 20
135.7632439444368
 30
0.0
 10
114.0688799899687
 20
135.8904028401349
 30
0.0
 10
113.8668080081924
 20
136.0173560436696
 30
0.0
 10
113.600275162628
 20
135.956676855331
 30
0.0
 10
113.4731132065632
 20
135.754814433214
 30
0.0
 10
113.3461600030292
 20
135.5529442761054
 30
0.0
 10
113.4068391913677
 20
135.2862026780116
 30
0.0
 10
113.6087054809805
 20
135.1592494744769
 30
0.0
 10
113.8105717705933
 20
135.0320905787781
 30
0.0
 10
114.0773133686872
 20
135.0927286286845
 30
0.0
 10
114.2042665722219
 20
135.2946360567295
 30
0.0
  0
HATCH
  5
161
330
68
100
AcDbEntity
  8
Layer 1
 62
     7
420
 16777215
100
AcDbHatch
 10
0.0
 20
0.0
 30
0.0
210
0.0
220
0.0
230
1.0
  2
SOLID
 70
     1
 71
     0
 91
        1
 92
        1
 93
        1
 72
     4
 94
        3
 73
     0
 74
     1
 95
       17
 96
       13
 40
0.0
 40
0.0
 40
0.0
 40
0.0
 40
1.0
 40
1.0
 40
1.0
 40
2.0
 40
2.0
 40
2.0
 40
3.0
 40
3.0
 40
3.0
 40
4.0
 40
4.0
 40
4.0
 40
4.0
 10
114.2042665722219
 20
135.2946360567295
 10
114.33142546792
 20
135.4965023463423
 10
114.2707874180143
 20
135.7632439444368
 10
114.0688799899687
 20
135.8904028401349
 10
113.8668080081924
 20
136.0173560436696
 10
113.600275162628
 20
135.956676855331
 10
113.4731132065632
 20
135.754814433214
 10
113.3461600030292
 20
135.5529442761054
 10
113.4068391913677
 20
135.2862026780116
 10
113.6087054809805
 20
135.1592494744769
 10
113.8105717705933
 20
135.0320905787781
 10
114.0773133686872
 20
135.0927286286845
 10
114.2042665722219
 20
135.2946360567295
 97
        0
 97
        0
 75
     2
 76
     1
 98
        0
  0
SPLINE
  5
162
330
68
100
AcDbEntity
  8
Layer 1
 62
     7
420
 16777215
370
    13
100
AcDbSpline
210
0.0
220
0.0
230
1.0
 70
    11
 71
     3
 72
    17
 73
    13
 74
     0
 42
0.0000000001
 43
0.0000000001
 12
1.0
 22
0.0
 32
0.0
 13
1.0
 23
0.0
 33
0.0
 40
0.0
 40
0.0
 40
0.0
 40
0.0
 40
1.0
 40
1.0
 40
1.0
 40
2.0
 40
2.0
 40
2.0
 40
3.0
 40
3.0
 40
3.0
 40
4.0
 40
4.0
 40
4.0
 40
4.0
 10
114.1339609906145
 20
135.2349441907772
 30
0.0
 10
114.2611198863126
 20
135.4368516188228
 30
0.0
 10
114.2004849119356
 20
135.7035932169173
 30
0.0
 10
113.99840985463
 20
135.8307521126154
 30
0.0
 10
113.7965054919088
 20
135.9577053161501
 30
0.0
 10
113.5299665206546
 20
135.8970261278116
 30
0.0
 10
113.4028106803339
 20
135.6951637041871
 30
0.0
 10
113.2756487292577
 20
135.493293548586
 30
0.0
 10
113.3363279175963
 20
135.2265108120593
 30
0.0
 10
113.5383998993731
 20
135.0995576085246
 30
0.0
 10
113.7402661889852
 20
134.9724398512587
 30
0.0
 10
114.0070489255126
 20
135.0330779011651
 30
0.0
 10
114.1339609906145
 20
135.2349441907772
 30
0.0
  0
HATCH
  5
163
330
68
100
AcDbEntity
  8
Layer 1
 62
   254
420
 13358815
100
AcDbHatch
 10
0.0
 20
0.0
 30
0.0
210
0.0
220
0.0
230
1.0
  2
SOLID
 70
     1
 71
     0
 91
        1
 92
        1
 93
        1
 72
     4
 94
        3
 73
     0
 74
     1
 95
       17
 96
       13
 40
0.0
 40
0.0
 40
0.0
 40
0.0
 40
1.0
 40
1.0
 40
1.0
 40
2.0
 40
2.0
 40
2.0
 40
3.0
 40
3.0
 40
3.0
 40
4.0
 40
4.0
 40
4.0
 40
4.0
 10
114.1339609906145
 20
135.2349441907772
 10
114.2611198863126
 20
135.4368516188228
 10
114.2004849119356
 20
135.7035932169173
 10
113.99840985463
 20
135.8307521126154
 10
113.7965054919088
 20
135.9577053161501
 10
113.5299665206546
 20
135.8970261278116
 10
113.4028106803339
 20
135.6951637041871
 10
113.2756487292577
 20
135.493293548586
 10
113.3363279175963
 20
135.2265108120593
 10
113.5383998993731
 20
135.0995576085246
 10
113.7402661889852
 20
134.9724398512587
 10
114.0070489255126
 20
135.0330779011651
 10
114.1339609906145
 20
135.2349441907772
 97
        0
 97
        0
 75
     2
 76
     1
 98
        0
  0
SPLINE
  5
164
330
68
100
AcDbEntity
  8
Layer 1
 62
     7
420
 16777215
370
    15
100
AcDbSpline
210
0.0
220
0.0
230
1.0
 70
     8
 71
     3
 72
    17
 73
    13
 74
     0
 42
0.0000000001
 43
0.0000000001
 12
1.0
 22
0.0
 32
0.0
 13
1.0
 23
0.0
 33
0.0
 40
0.0
 40
0.0
 40
0.0
 40
0.0
 40
1.0
 40
1.0
 40
1.0
 40
2.0
 40
2.0
 40
2.0
 40
3.0
 40
3.0
 40
3.0
 40
4.0
 40
4.0
 40
4.0
 40
4.0
 10
118.4617652566702
 20
146.8977310200951
 30
0.0
 10
118.4617652566702
 20
146.8977310200951
 30
0.0
 10
116.9500101291617
 20
146.3835006104442
 30
0.0
 10
116.9500101291617
 20
146.3835006104442
 30
0.0
 10
116.9500101291617
 20
146.3835006104442
 30
0.0
 10
116.9602535989215
 20
145.8385397915125
 30
0.0
 10
116.9602535989215
 20
145.8385397915125
 30
0.0
 10
116.9602535989215
 20
145.8385397915125
 30
0.0
 10
118.2972526640141
 20
146.3527702011635
 30
0.0
 10
118.5748548083606
 20
146.3527702011635
 30
0.0
 10
118.5748548083606
 20
146.3527702011635
 30
0.0
 10
118.0298939894287
 20
146.7229749576792
 30
0.0
 10
118.0298939894287
 20
146.7229749576792
 30
0.0
  0
SPLINE
  5
165
330
68
100
AcDbEntity
  8
Layer 1
 62
     7
420
 16777215
370
    15
100
AcDbSpline
210
0.0
220
0.0
230
1.0
 70
     8
 71
     3
 72
    17
 73
    13
 74
     0
 42
0.0000000001
 43
0.0000000001
 12
1.0
 22
0.0
 32
0.0
 13
1.0
 23
0.0
 33
0.0
 40
0.0
 40
0.0
 40
0.0
 40
0.0
 40
1.0
 40
1.0
 40
1.0
 40
2.0
 40
2.0
 40
2.0
 40
3.0
 40
3.0
 40
3.0
 40
4.0
 40
4.0
 40
4.0
 40
4.0
 10
116.9507917593839
 20
147.9089548360656
 30
0.0
 10
116.9507917593839
 20
147.9089548360656
 30
0.0
 10
115.297808392169
 20
147.3468804291006
 30
0.0
 10
115.297808392169
 20
147.3468804291006
 30
0.0
 10
115.297808392169
 20
147.3468804291006
 30
0.0
 10
115.3090803227485
 20
146.7511177909809
 30
0.0
 10
115.3090803227485
 20
146.7511177909809
 30
0.0
 10
115.3090803227485
 20
146.7511177909809
 30
0.0
 10
116.7708142564674
 20
147.313146914228
 30
0.0
 10
117.0745361651629
 20
147.313146914228
 30
0.0
 10
117.0745361651629
 20
147.313146914228
 30
0.0
 10
116.4785636895934
 20
147.7177022621086
 30
0.0
 10
116.4785636895934
 20
147.7177022621086
 30
0.0
  0
SPLINE
  5
166
330
68
100
AcDbEntity
  8
Layer 1
 62
     7
420
 16777215
370
    15
100
AcDbSpline
210
0.0
220
0.0
230
1.0
 70
     8
 71
     3
 72
    17
 73
    13
 74
     0
 42
0.0000000001
 43
0.0000000001
 12
1.0
 22
0.0
 32
0.0
 13
1.0
 23
0.0
 33
0.0
 40
0.0
 40
0.0
 40
0.0
 40
0.0
 40
1.0
 40
1.0
 40
1.0
 40
2.0
 40
2.0
 40
2.0
 40
3.0
 40
3.0
 40
3.0
 40
4.0
 40
4.0
 40
4.0
 40
4.0
 10
122.1300793069563
 20
148.1041978380021
 30
0.0
 10
122.1300793069563
 20
148.1041978380021
 30
0.0
 10
120.4770959397414
 20
147.5421645694699
 30
0.0
 10
120.4770959397414
 20
147.5421645694699
 30
0.0
 10
120.4770959397414
 20
147.5421645694699
 30
0.0
 10
120.4883267318881
 20
146.9463566476317
 30
0.0
 10
120.4883267318881
 20
146.9463566476317
 30
0.0
 10
120.4883267318881
 20
146.9463566476317
 30
0.0
 10
121.9502632173094
 20
147.5083899161638
 30
0.0
 10
122.2537825743019
 20
147.5083899161638
 30
0.0
 10
122.2537825743019
 20
147.5083899161638
 30
0.0
 10
121.657810098733
 20
147.9131509562085
 30
0.0
 10
121.657810098733
 20
147.9131509562085
 30
0.0
  0
SPLINE
  5
167
330
68
100
AcDbEntity
  8
Layer 1
 62
     7
420
 16777215
370
    15
100
AcDbSpline
210
0.0
220
0.0
230
1.0
 70
     8
 71
     3
 72
    17
 73
    13
 74
     0
 42
0.0000000001
 43
0.0000000001
 12
1.0
 22
0.0
 32
0.0
 13
1.0
 23
0.0
 33
0.0
 40
0.0
 40
0.0
 40
0.0
 40
0.0
 40
1.0
 40
1.0
 40
1.0
 40
2.0
 40
2.0
 40
2.0
 40
3.0
 40
3.0
 40
3.0
 40
4.0
 40
4.0
 40
4.0
 40
4.0
 10
120.1211662193977
 20
148.8550565129582
 30
0.0
 10
120.1211662193977
 20
148.8550565129582
 30
0.0
 10
118.4681860355227
 20
148.2928175522619
 30
0.0
 10
118.4681860355227
 20
148.2928175522619
 30
0.0
 10
118.4681860355227
 20
148.2928175522619
 30
0.0
 10
118.4794136443295
 20
147.697009630424
 30
0.0
 10
118.4794136443295
 20
147.697009630424
 30
0.0
 10
118.4794136443295
 20
147.697009630424
 30
0.0
 10
119.9411855760195
 20
148.2590428989562
 30
0.0
 10
120.2448694867433
 20
148.2590428989562
 30
0.0
 10
120.2448694867433
 20
148.2590428989562
 30
0.0
 10
119.6488970111738
 20
148.6638039390005
 30
0.0
 10
119.6488970111738
 20
148.6638039390005
 30
0.0
  0
SPLINE
  5
168
330
68
100
AcDbEntity
  8
Layer 1
 62
     7
420
 16777215
370
    15
100
AcDbSpline
210
0.0
220
0.0
230
1.0
 70
     8
 71
     3
 72
    17
 73
    13
 74
     0
 42
0.0000000001
 43
0.0000000001
 12
1.0
 22
0.0
 32
0.0
 13
1.0
 23
0.0
 33
0.0
 40
0.0
 40
0.0
 40
0.0
 40
0.0
 40
1.0
 40
1.0
 40
1.0
 40
2.0
 40
2.0
 40
2.0
 40
3.0
 40
3.0
 40
3.0
 40
4.0
 40
4.0
 40
4.0
 40
4.0
 10
116.7887063342619
 20
150.4511454276492
 30
0.0
 10
116.7887063342619
 20
150.4511454276492
 30
0.0
 10
115.2769512067534
 20
149.9369150179982
 30
0.0
 10
115.2769512067534
 20
149.9369150179982
 30
0.0
 10
115.2769512067534
 20
149.9369150179982
 30
0.0
 10
115.2871946765139
 20
149.3917485069025
 30
0.0
 10
115.2871946765139
 20
149.3917485069025
 30
0.0
 10
115.2871946765139
 20
149.3917485069025
 30
0.0
 10
116.6241937416065
 20
149.9059789165535
 30
0.0
 10
116.9020015781164
 20
149.9059789165535
 30
0.0
 10
116.9020015781164
 20
149.9059789165535
 30
0.0
 10
116.356835067021
 20
150.2763893652333
 30
0.0
 10
116.356835067021
 20
150.2763893652333
 30
0.0
  0
SPLINE
  5
169
330
68
100
AcDbEntity
  8
Layer 1
 62
     7
420
 16777215
370
    15
100
AcDbSpline
210
0.0
220
0.0
230
1.0
 70
     8
 71
     3
 72
    17
 73
    13
 74
     0
 42
0.0000000001
 43
0.0000000001
 12
1.0
 22
0.0
 32
0.0
 13
1.0
 23
0.0
 33
0.0
 40
0.0
 40
0.0
 40
0.0
 40
0.0
 40
1.0
 40
1.0
 40
1.0
 40
2.0
 40
2.0
 40
2.0
 40
3.0
 40
3.0
 40
3.0
 40
4.0
 40
4.0
 40
4.0
 40
4.0
 10
118.5131882976352
 20
152.3057893923132
 30
0.0
 10
118.5131882976352
 20
152.3057893923132
 30
0.0
 10
117.0014331701267
 20
151.7915589826619
 30
0.0
 10
117.0014331701267
 20
151.7915589826619
 30
0.0
 10
117.0014331701267
 20
151.7915589826619
 30
0.0
 10
117.0116766398871
 20
151.2465981637302
 30
0.0
 10
117.0116766398871
 20
151.2465981637302
 30
0.0
 10
117.0116766398871
 20
151.2465981637302
 30
0.0
 10
118.3486757049797
 20
151.7608285733812
 30
0.0
 10
118.6262778493256
 20
151.7608285733812
 30
0.0
 10
118.6262778493256
 20
151.7608285733812
 30
0.0
 10
118.0813170303936
 20
152.1310333298973
 30
0.0
 10
118.0813170303936
 20
152.1310333298973
 30
0.0
  0
SPLINE
  5
16A
330
68
100
AcDbEntity
  8
Layer 1
 62
     7
420
 16777215
370
    15
100
AcDbSpline
210
0.0
220
0.0
230
1.0
 70
     8
 71
     3
 72
    17
 73
    13
 74
     0
 42
0.0000000001
 43
0.0000000001
 12
1.0
 22
0.0
 32
0.0
 13
1.0
 23
0.0
 33
0.0
 40
0.0
 40
0.0
 40
0.0
 40
0.0
 40
1.0
 40
1.0
 40
1.0
 40
2.0
 40
2.0
 40
2.0
 40
3.0
 40
3.0
 40
3.0
 40
4.0
 40
4.0
 40
4.0
 40
4.0
 10
116.7818773544218
 20
153.142421699599
 30
0.0
 10
116.7818773544218
 20
153.142421699599
 30
0.0
 10
115.2701222269133
 20
152.6281912899477
 30
0.0
 10
115.2701222269133
 20
152.6281912899477
 30
0.0
 10
115.2701222269133
 20
152.6281912899477
 30
0.0
 10
115.2803687994831
 20
152.0830247788523
 30
0.0
 10
115.2803687994831
 20
152.0830247788523
 30
0.0
 10
115.2803687994831
 20
152.0830247788523
 30
0.0
 10
116.6173678983515
 20
152.5972551885033
 30
0.0
 10
116.8951725982763
 20
152.5972551885033
 30
0.0
 10
116.8951725982763
 20
152.5972551885033
 30
0.0
 10
116.3500060871809
 20
152.9674599450191
 30
0.0
 10
116.3500060871809
 20
152.9674599450191
 30
0.0
  0
SPLINE
  5
16B
330
68
100
AcDbEntity
  8
Layer 1
 62
     7
420
 16777215
370
    15
100
AcDbSpline
210
0.0
220
0.0
230
1.0
 70
     8
 71
     3
 72
    17
 73
    13
 74
     0
 42
0.0000000001
 43
0.0000000001
 12
1.0
 22
0.0
 32
0.0
 13
1.0
 23
0.0
 33
0.0
 40
0.0
 40
0.0
 40
0.0
 40
0.0
 40
1.0
 40
1.0
 40
1.0
 40
2.0
 40
2.0
 40
2.0
 40
3.0
 40
3.0
 40
3.0
 40
4.0
 40
4.0
 40
4.0
 40
4.0
 10
114.9410970416024
 20
151.2327387703869
 30
0.0
 10
114.9410970416024
 20
151.2327387703869
 30
0.0
 10
113.4291392779734
 20
150.7185083477454
 30
0.0
 10
113.4291392779734
 20
150.7185083477454
 30
0.0
 10
113.4291392779734
 20
150.7185083477454
 30
0.0
 10
113.439379691691
 20
150.1735432833033
 30
0.0
 10
113.439379691691
 20
150.1735432833033
 30
0.0
 10
113.439379691691
 20
150.1735432833033
 30
0.0
 10
114.7763787567829
 20
150.6877736929543
 30
0.0
 10
115.0541865932929
 20
150.6877736929543
 30
0.0
 10
115.0541865932929
 20
150.6877736929543
 30
0.0
 10
114.5090231655209
 20
151.0579784494701
 30
0.0
 10
114.5090231655209
 20
151.0579784494701
 30
0.0
  0
SPLINE
  5
16C
330
68
100
AcDbEntity
  8
Layer 1
 62
     7
420
 16777215
370
    15
100
AcDbSpline
210
0.0
220
0.0
230
1.0
 70
     8
 71
     3
 72
    17
 73
    13
 74
     0
 42
0.0000000001
 43
0.0000000001
 12
1.0
 22
0.0
 32
0.0
 13
1.0
 23
0.0
 33
0.0
 40
0.0
 40
0.0
 40
0.0
 40
0.0
 40
1.0
 40
1.0
 40
1.0
 40
2.0
 40
2.0
 40
2.0
 40
3.0
 40
3.0
 40
3.0
 40
4.0
 40
4.0
 40
4.0
 40
4.0
 10
125.6955061368796
 20
149.2182265974701
 30
0.0
 10
125.6955061368796
 20
149.2182265974701
 30
0.0
 10
124.0425639080975
 20
148.6561933289379
 30
0.0
 10
124.0425639080975
 20
148.6561933289379
 30
0.0
 10
124.0425639080975
 20
148.6561933289379
 30
0.0
 10
124.0537947002442
 20
148.0603854070997
 30
0.0
 10
124.0537947002442
 20
148.0603854070997
 30
0.0
 10
124.0537947002442
 20
148.0603854070997
 30
0.0
 10
125.5155254935021
 20
148.6226243677959
 30
0.0
 10
125.8190448504945
 20
148.6226243677959
 30
0.0
 10
125.8190448504945
 20
148.6226243677959
 30
0.0
 10
125.2232780670891
 20
149.0271797156765
 30
0.0
 10
125.2232780670891
 20
149.0271797156765
 30
0.0
  0
SPLINE
  5
16D
330
68
100
AcDbEntity
  8
Layer 1
 62
     7
420
 16777215
370
    15
100
AcDbSpline
210
0.0
220
0.0
230
1.0
 70
     8
 71
     3
 72
    17
 73
    13
 74
     0
 42
0.0000000001
 43
0.0000000001
 12
1.0
 22
0.0
 32
0.0
 13
1.0
 23
0.0
 33
0.0
 40
0.0
 40
0.0
 40
0.0
 40
0.0
 40
1.0
 40
1.0
 40
1.0
 40
2.0
 40
2.0
 40
2.0
 40
3.0
 40
3.0
 40
3.0
 40
4.0
 40
4.0
 40
4.0
 40
4.0
 10
122.0543434522232
 20
150.6922166436937
 30
0.0
 10
122.0543434522232
 20
150.6922166436937
 30
0.0
 10
120.4013600850083
 20
150.1301833751616
 30
0.0
 10
120.4013600850083
 20
150.1301833751616
 30
0.0
 10
120.4013600850083
 20
150.1301833751616
 30
0.0
 10
120.4126320155878
 20
149.5343754533233
 30
0.0
 10
120.4126320155878
 20
149.5343754533233
 30
0.0
 10
120.4126320155878
 20
149.5343754533233
 30
0.0
 10
121.874362808845
 20
150.0964087218555
 30
0.0
 10
122.1778821658375
 20
150.0964087218555
 30
0.0
 10
122.1778821658375
 20
150.0964087218555
 30
0.0
 10
121.5818685518359
 20
150.5009640697361
 30
0.0
 10
121.5818685518359
 20
150.5009640697361
 30
0.0
  0
SPLINE
  5
16E
330
68
100
AcDbEntity
  8
Layer 1
 62
     7
420
 16777215
370
    15
100
AcDbSpline
210
0.0
220
0.0
230
1.0
 70
     8
 71
     3
 72
    17
 73
    13
 74
     0
 42
0.0000000001
 43
0.0000000001
 12
1.0
 22
0.0
 32
0.0
 13
1.0
 23
0.0
 33
0.0
 40
0.0
 40
0.0
 40
0.0
 40
0.0
 40
1.0
 40
1.0
 40
1.0
 40
2.0
 40
2.0
 40
2.0
 40
3.0
 40
3.0
 40
3.0
 40
4.0
 40
4.0
 40
4.0
 40
4.0
 10
120.3206053414764
 20
151.504947521539
 30
0.0
 10
120.3206053414764
 20
151.504947521539
 30
0.0
 10
118.4304177708973
 20
150.9429142530068
 30
0.0
 10
118.4304177708973
 20
150.9429142530068
 30
0.0
 10
118.4304177708973
 20
150.9429142530068
 30
0.0
 10
118.4432529619225
 20
150.3471063311686
 30
0.0
 10
118.4432529619225
 20
150.3471063311686
 30
0.0
 10
118.4432529619225
 20
150.3471063311686
 30
0.0
 10
120.1149131776157
 20
150.9091395997008
 30
0.0
 10
120.4620392733468
 20
150.9091395997008
 30
0.0
 10
120.4620392733468
 20
150.9091395997008
 30
0.0
 10
119.7804577191791
 20
151.3139006397457
 30
0.0
 10
119.7804577191791
 20
151.3139006397457
 30
0.0
  0
SPLINE
  5
16F
330
68
100
AcDbEntity
  8
Layer 1
 62
     7
420
 16777215
370
    15
100
AcDbSpline
210
0.0
220
0.0
230
1.0
 70
     8
 71
     3
 72
    17
 73
    13
 74
     0
 42
0.0000000001
 43
0.0000000001
 12
1.0
 22
0.0
 32
0.0
 13
1.0
 23
0.0
 33
0.0
 40
0.0
 40
0.0
 40
0.0
 40
0.0
 40
1.0
 40
1.0
 40
1.0
 40
2.0
 40
2.0
 40
2.0
 40
3.0
 40
3.0
 40
3.0
 40
4.0
 40
4.0
 40
4.0
 40
4.0
 10
123.734437046635
 20
149.9762844981612
 30
0.0
 10
123.734437046635
 20
149.9762844981612
 30
0.0
 10
122.2224795051442
 20
149.4620540885103
 30
0.0
 10
122.2224795051442
 20
149.4620540885103
 30
0.0
 10
122.2224795051442
 20
149.4620540885103
 30
0.0
 10
122.2327196967229
 20
148.9170932695783
 30
0.0
 10
122.2327196967229
 20
148.9170932695783
 30
0.0
 10
122.2327196967229
 20
148.9170932695783
 30
0.0
 10
123.5697187618155
 20
149.4313236792293
 30
0.0
 10
123.8475265983254
 20
149.4313236792293
 30
0.0
 10
123.8475265983254
 20
149.4313236792293
 30
0.0
 10
123.3023633926917
 20
149.8015326580907
 30
0.0
 10
123.3023633926917
 20
149.8015326580907
 30
0.0
  0
SPLINE
  5
170
330
68
100
AcDbEntity
  8
Layer 1
 62
     7
420
 16777215
370
    15
100
AcDbSpline
210
0.0
220
0.0
230
1.0
 70
     8
 71
     3
 72
    17
 73
    13
 74
     0
 42
0.0000000001
 43
0.0000000001
 12
1.0
 22
0.0
 32
0.0
 13
1.0
 23
0.0
 33
0.0
 40
0.0
 40
0.0
 40
0.0
 40
0.0
 40
1.0
 40
1.0
 40
1.0
 40
2.0
 40
2.0
 40
2.0
 40
3.0
 40
3.0
 40
3.0
 40
4.0
 40
4.0
 40
4.0
 40
4.0
 10
118.7441805976502
 20
149.6651545311059
 30
0.0
 10
118.7441805976502
 20
149.6651545311059
 30
0.0
 10
116.9955915126729
 20
149.1037383390652
 30
0.0
 10
116.9955915126729
 20
149.1037383390652
 30
0.0
 10
116.9955915126729
 20
149.1037383390652
 30
0.0
 10
117.0074393813111
 20
148.5085516834008
 30
0.0
 10
117.0074393813111
 20
148.5085516834008
 30
0.0
 10
117.0074393813111
 20
148.5085516834008
 30
0.0
 10
118.5537539778507
 20
149.0699636857599
 30
0.0
 10
118.8749596754327
 20
149.0699636857599
 30
0.0
 10
118.8749596754327
 20
149.0699636857599
 30
0.0
 10
118.244595470066
 20
149.474313341476
 30
0.0
 10
118.244595470066
 20
149.474313341476
 30
0.0
  0
POLYLINE
  5
171
330
68
100
AcDbEntity
  8
Layer 1
 62
     7
420
 16777215
370
    15
100
AcDb2dPolyline
 66
     1
 10
0.0
 20
0.0
 30
0.0
  0
VERTEX
  5
172
330
171
100
AcDbEntity
  8
Layer 1
 62
     7
420
 16777215
370
    15
100
AcDbVertex
100
AcDb2dVertex
 10
114.1422298156017
 20
145.5711811169267
 30
0.0
  0
VERTEX
  5
173
330
171
100
AcDbEntity
  8
Layer 1
 62
     7
420
 16777215
370
    15
100
AcDbVertex
100
AcDb2dVertex
 10
115.2391861254692
 20
145.8453687713526
 30
0.0
  0
SEQEND
  5
174
330
171
100
AcDbEntity
  8
Layer 1
 62
     7
420
 16777215
370
    15
  0
SPLINE
  5
175
330
68
100
AcDbEntity
  8
Layer 1
 62
     7
420
 16777215
370
    15
100
AcDbSpline
210
0.0
220
0.0
230
1.0
 70
     8
 71
     3
 72
    14
 73
    10
 74
     0
 42
0.0000000001
 43
0.0000000001
 12
1.0
 22
0.0
 32
0.0
 13
1.0
 23
0.0
 33
0.0
 40
0.0
 40
0.0
 40
0.0
 40
0.0
 40
1.0
 40
1.0
 40
1.0
 40
2.0
 40
2.0
 40
2.0
 40
3.0
 40
3.0
 40
3.0
 40
3.0
 10
114.2519079542
 20
145.0226001159113
 30
0.0
 10
114.2519079542
 20
145.0226001159113
 30
0.0
 10
115.1843485945839
 20
145.2967877703368
 30
0.0
 10
115.1843485945839
 20
145.2967877703368
 30
0.0
 10
115.1843485945839
 20
145.2967877703368
 30
0.0
 10
115.2667077369936
 20
145.3243093818615
 30
0.0
 10
115.1570326752229
 20
145.4064628321072
 30
0.0
 10
115.1570326752229
 20
145.4064628321072
 30
0.0
 10
114.7729642668632
 20
145.7081720980581
 30
0.0
 10
114.7729642668632
 20
145.7081720980581
 30
0.0
  0
POLYLINE
  5
176
330
68
100
AcDbEntity
  8
Layer 1
 62
     7
420
 16777215
370
    15
100
AcDb2dPolyline
 66
     1
 10
0.0
 20
0.0
 30
0.0
  0
VERTEX
  5
177
330
176
100
AcDbEntity
  8
Layer 1
 62
     7
420
 16777215
370
    15
100
AcDbVertex
100
AcDb2dVertex
 10
113.8680421611756
 20
148.2039996759071
 30
0.0
  0
VERTEX
  5
178
330
176
100
AcDbEntity
  8
Layer 1
 62
     7
420
 16777215
370
    15
100
AcDbVertex
100
AcDb2dVertex
 10
115.4860609685395
 20
148.6429056151528
 30
0.0
  0
SEQEND
  5
179
330
176
100
AcDbEntity
  8
Layer 1
 62
     7
420
 16777215
370
    15
  0
SPLINE
  5
17A
330
68
100
AcDbEntity
  8
Layer 1
 62
     7
420
 16777215
370
    15
100
AcDbSpline
210
0.0
220
0.0
230
1.0
 70
     8
 71
     3
 72
    11
 73
     7
 74
     0
 42
0.0000000001
 43
0.0000000001
 12
1.0
 22
0.0
 32
0.0
 13
1.0
 23
0.0
 33
0.0
 40
0.0
 40
0.0
 40
0.0
 40
0.0
 40
1.0
 40
1.0
 40
1.0
 40
2.0
 40
2.0
 40
2.0
 40
2.0
 10
113.8680421611756
 20
147.7102562057767
 30
0.0
 10
113.8680421611756
 20
147.7102562057767
 30
0.0
 10
115.1295110636985
 20
148.1491621450223
 30
0.0
 10
115.5957329223045
 20
148.1764780643826
 30
0.0
 10
115.5957329223045
 20
148.1764780643826
 30
0.0
 10
114.9925200825674
 20
148.4781873303332
 30
0.0
 10
114.9925200825674
 20
148.4781873303332
 30
0.0
  0
SPLINE
  5
17B
330
68
100
AcDbEntity
  8
Layer 1
 62
     7
420
 16777215
370
    15
100
AcDbSpline
210
0.0
220
0.0
230
1.0
 70
     8
 71
     3
 72
    17
 73
    13
 74
     0
 42
0.0000000001
 43
0.0000000001
 12
1.0
 22
0.0
 32
0.0
 13
1.0
 23
0.0
 33
0.0
 40
0.0
 40
0.0
 40
0.0
 40
0.0
 40
1.0
 40
1.0
 40
1.0
 40
2.0
 40
2.0
 40
2.0
 40
3.0
 40
3.0
 40
3.0
 40
4.0
 40
4.0
 40
4.0
 40
4.0
 10
115.0200416940918
 20
154.0829285496339
 30
0.0
 10
115.0200416940918
 20
154.0829285496339
 30
0.0
 10
113.1298129850806
 20
153.5208952811021
 30
0.0
 10
113.1298129850806
 20
153.5208952811021
 30
0.0
 10
113.1298129850806
 20
153.5208952811021
 30
0.0
 10
113.1426893145379
 20
152.9250873592639
 30
0.0
 10
113.1426893145379
 20
152.9250873592639
 30
0.0
 10
113.1426893145379
 20
152.9250873592639
 30
0.0
 10
114.8143495302318
 20
153.4871249432474
 30
0.0
 10
115.1614344875295
 20
153.4871249432474
 30
0.0
 10
115.1614344875295
 20
153.4871249432474
 30
0.0
 10
114.4798940717946
 20
153.8918816678407
 30
0.0
 10
114.4798940717946
 20
153.8918816678407
 30
0.0
  0
SPLINE
  5
17C
330
68
100
AcDbEntity
  8
Layer 1
 62
     7
420
 16777215
370
    15
100
AcDbSpline
210
0.0
220
0.0
230
1.0
 70
     8
 71
     3
 72
    17
 73
    13
 74
     0
 42
0.0000000001
 43
0.0000000001
 12
1.0
 22
0.0
 32
0.0
 13
1.0
 23
0.0
 33
0.0
 40
0.0
 40
0.0
 40
0.0
 40
0.0
 40
1.0
 40
1.0
 40
1.0
 40
2.0
 40
2.0
 40
2.0
 40
3.0
 40
3.0
 40
3.0
 40
4.0
 40
4.0
 40
4.0
 40
4.0
 10
127.2518964639458
 20
151.0523836226131
 30
0.0
 10
127.2518964639458
 20
151.0523836226131
 30
0.0
 10
125.5989130967309
 20
150.490350354081
 30
0.0
 10
125.5989130967309
 20
150.490350354081
 30
0.0
 10
125.5989130967309
 20
150.490350354081
 30
0.0
 10
125.6101438888776
 20
149.894542432243
 30
0.0
 10
125.6101438888776
 20
149.894542432243
 30
0.0
 10
125.6101438888776
 20
149.894542432243
 30
0.0
 10
127.0719158205683
 20
150.4565757007752
 30
0.0
 10
127.3755997312914
 20
150.4565757007752
 30
0.0
 10
127.3755997312914
 20
150.4565757007752
 30
0.0
 10
126.7796272557225
 20
150.8613367408196
 30
0.0
 10
126.7796272557225
 20
150.8613367408196
 30
0.0
  0
SPLINE
  5
17D
330
68
100
AcDbEntity
  8
Layer 1
 62
     7
420
 16777215
370
    15
100
AcDbSpline
210
0.0
220
0.0
230
1.0
 70
     8
 71
     3
 72
    17
 73
    13
 74
     0
 42
0.0000000001
 43
0.0000000001
 12
1.0
 22
0.0
 32
0.0
 13
1.0
 23
0.0
 33
0.0
 40
0.0
 40
0.0
 40
0.0
 40
0.0
 40
1.0
 40
1.0
 40
1.0
 40
2.0
 40
2.0
 40
2.0
 40
3.0
 40
3.0
 40
3.0
 40
4.0
 40
4.0
 40
4.0
 40
4.0
 10
125.5412370139846
 20
151.8100712774099
 30
0.0
 10
125.5412370139846
 20
151.8100712774099
 30
0.0
 10
123.8882947852025
 20
151.2480380088771
 30
0.0
 10
123.8882947852025
 20
151.2480380088771
 30
0.0
 10
123.8882947852025
 20
151.2480380088771
 30
0.0
 10
123.8995255773492
 20
150.6522300870392
 30
0.0
 10
123.8995255773492
 20
150.6522300870392
 30
0.0
 10
123.8995255773492
 20
150.6522300870392
 30
0.0
 10
125.3612563706071
 20
151.2142633555714
 30
0.0
 10
125.6647757275989
 20
151.2142633555714
 30
0.0
 10
125.6647757275989
 20
151.2142633555714
 30
0.0
 10
125.0690089441941
 20
151.6190286638749
 30
0.0
 10
125.0690089441941
 20
151.6190286638749
 30
0.0
  0
SPLINE
  5
17E
330
68
100
AcDbEntity
  8
Layer 1
 62
     7
420
 16777215
370
    15
100
AcDbSpline
210
0.0
220
0.0
230
1.0
 70
     8
 71
     3
 72
    17
 73
    13
 74
     0
 42
0.0000000001
 43
0.0000000001
 12
1.0
 22
0.0
 32
0.0
 13
1.0
 23
0.0
 33
0.0
 40
0.0
 40
0.0
 40
0.0
 40
0.0
 40
1.0
 40
1.0
 40
1.0
 40
2.0
 40
2.0
 40
2.0
 40
3.0
 40
3.0
 40
3.0
 40
4.0
 40
4.0
 40
4.0
 40
4.0
 10
127.214131382661
 20
153.5893907716676
 30
0.0
 10
127.214131382661
 20
153.5893907716676
 30
0.0
 10
125.5611480154461
 20
153.027151810972
 30
0.0
 10
125.5611480154461
 20
153.027151810972
 30
0.0
 10
125.5611480154461
 20
153.027151810972
 30
0.0
 10
125.5723821704005
 20
152.4313438891334
 30
0.0
 10
125.5723821704005
 20
152.4313438891334
 30
0.0
 10
125.5723821704005
 20
152.4313438891334
 30
0.0
 10
127.0343152930147
 20
152.9935828498294
 30
0.0
 10
127.3378346500072
 20
152.9935828498294
 30
0.0
 10
127.3378346500072
 20
152.9935828498294
 30
0.0
 10
126.7418621744377
 20
153.39813819771
 30
0.0
 10
126.7418621744377
 20
153.39813819771
 30
0.0
  0
SPLINE
  5
17F
330
68
100
AcDbEntity
  8
Layer 1
 62
     7
420
 16777215
370
    15
100
AcDbSpline
210
0.0
220
0.0
230
1.0
 70
     8
 71
     3
 72
    17
 73
    13
 74
     0
 42
0.0000000001
 43
0.0000000001
 12
1.0
 22
0.0
 32
0.0
 13
1.0
 23
0.0
 33
0.0
 40
0.0
 40
0.0
 40
0.0
 40
0.0
 40
1.0
 40
1.0
 40
1.0
 40
2.0
 40
2.0
 40
2.0
 40
3.0
 40
3.0
 40
3.0
 40
4.0
 40
4.0
 40
4.0
 40
4.0
 10
125.5412370139846
 20
154.398295775265
 30
0.0
 10
125.5412370139846
 20
154.398295775265
 30
0.0
 10
123.8882947852025
 20
153.8362625067331
 30
0.0
 10
123.8882947852025
 20
153.8362625067331
 30
0.0
 10
123.8882947852025
 20
153.8362625067331
 30
0.0
 10
123.8995255773492
 20
153.2404545848946
 30
0.0
 10
123.8995255773492
 20
153.2404545848946
 30
0.0
 10
123.8995255773492
 20
153.2404545848946
 30
0.0
 10
125.3612563706071
 20
153.8024878534268
 30
0.0
 10
125.6647757275989
 20
153.8024878534268
 30
0.0
 10
125.6647757275989
 20
153.8024878534268
 30
0.0
 10
125.0690089441941
 20
154.2072488934714
 30
0.0
 10
125.0690089441941
 20
154.2072488934714
 30
0.0
  0
SPLINE
  5
180
330
68
100
AcDbEntity
  8
Layer 1
 62
     7
420
 16777215
370
    15
100
AcDbSpline
210
0.0
220
0.0
230
1.0
 70
     8
 71
     3
 72
    17
 73
    13
 74
     0
 42
0.0000000001
 43
0.0000000001
 12
1.0
 22
0.0
 32
0.0
 13
1.0
 23
0.0
 33
0.0
 40
0.0
 40
0.0
 40
0.0
 40
0.0
 40
1.0
 40
1.0
 40
1.0
 40
2.0
 40
2.0
 40
2.0
 40
3.0
 40
3.0
 40
3.0
 40
4.0
 40
4.0
 40
4.0
 40
4.0
 10
123.8236251688848
 20
152.6294254429309
 30
0.0
 10
123.8236251688848
 20
152.6294254429309
 30
0.0
 10
122.170645078542
 20
152.0673921743987
 30
0.0
 10
122.170645078542
 20
152.0673921743987
 30
0.0
 10
122.170645078542
 20
152.0673921743987
 30
0.0
 10
122.1818725938166
 20
151.4715842525614
 30
0.0
 10
122.1818725938166
 20
151.4715842525614
 30
0.0
 10
122.1818725938166
 20
151.4715842525614
 30
0.0
 10
123.6436445255067
 20
152.033617521093
 30
0.0
 10
123.9473284362304
 20
152.033617521093
 30
0.0
 10
123.9473284362304
 20
152.033617521093
 30
0.0
 10
123.3513559606609
 20
152.4383785611373
 30
0.0
 10
123.3513559606609
 20
152.4383785611373
 30
0.0
  0
SPLINE
  5
181
330
68
100
AcDbEntity
  8
Layer 1
 62
     7
420
 16777215
370
    15
100
AcDbSpline
210
0.0
220
0.0
230
1.0
 70
     8
 71
     3
 72
    17
 73
    13
 74
     0
 42
0.0000000001
 43
0.0000000001
 12
1.0
 22
0.0
 32
0.0
 13
1.0
 23
0.0
 33
0.0
 40
0.0
 40
0.0
 40
0.0
 40
0.0
 40
1.0
 40
1.0
 40
1.0
 40
2.0
 40
2.0
 40
2.0
 40
3.0
 40
3.0
 40
3.0
 40
4.0
 40
4.0
 40
4.0
 40
4.0
 10
122.058169326471
 20
153.363005976123
 30
0.0
 10
122.058169326471
 20
153.363005976123
 30
0.0
 10
120.4051859592555
 20
152.8009727075908
 30
0.0
 10
120.4051859592555
 20
152.8009727075908
 30
0.0
 10
120.4051859592555
 20
152.8009727075908
 30
0.0
 10
120.4164167514028
 20
152.2051647857526
 30
0.0
 10
120.4164167514028
 20
152.2051647857526
 30
0.0
 10
120.4164167514028
 20
152.2051647857526
 30
0.0
 10
121.8781886830929
 20
152.7672023515491
 30
0.0
 10
122.1816669016525
 20
152.7672023515491
 30
0.0
 10
122.1816669016525
 20
152.7672023515491
 30
0.0
 10
121.5859001182471
 20
153.1719590943291
 30
0.0
 10
121.5859001182471
 20
153.1719590943291
 30
0.0
  0
SPLINE
  5
182
330
68
100
AcDbEntity
  8
Layer 1
 62
     7
420
 16777215
370
    15
100
AcDbSpline
210
0.0
220
0.0
230
1.0
 70
     8
 71
     3
 72
    17
 73
    13
 74
     0
 42
0.0000000001
 43
0.0000000001
 12
1.0
 22
0.0
 32
0.0
 13
1.0
 23
0.0
 33
0.0
 40
0.0
 40
0.0
 40
0.0
 40
0.0
 40
1.0
 40
1.0
 40
1.0
 40
2.0
 40
2.0
 40
2.0
 40
3.0
 40
3.0
 40
3.0
 40
4.0
 40
4.0
 40
4.0
 40
4.0
 10
120.1384064482624
 20
154.2337875169231
 30
0.0
 10
120.1384064482624
 20
154.2337875169231
 30
0.0
 10
118.4852553017827
 20
153.6717499140771
 30
0.0
 10
118.4852553017827
 20
153.6717499140771
 30
0.0
 10
118.4852553017827
 20
153.6717499140771
 30
0.0
 10
118.4964860939293
 20
153.0759419922391
 30
0.0
 10
118.4964860939293
 20
153.0759419922391
 30
0.0
 10
118.4964860939293
 20
153.0759419922391
 30
0.0
 10
119.9584225793513
 20
153.6379752607716
 30
0.0
 10
120.2619419363431
 20
153.6379752607716
 30
0.0
 10
120.2619419363431
 20
153.6379752607716
 30
0.0
 10
119.6659694607743
 20
154.0427363008156
 30
0.0
 10
119.6659694607743
 20
154.0427363008156
 30
0.0
  0
SPLINE
  5
183
330
68
100
AcDbEntity
  8
Layer 1
 62
     7
420
 16777215
370
    15
100
AcDbSpline
210
0.0
220
0.0
230
1.0
 70
     8
 71
     3
 72
    17
 73
    13
 74
     0
 42
0.0000000001
 43
0.0000000001
 12
1.0
 22
0.0
 32
0.0
 13
1.0
 23
0.0
 33
0.0
 40
0.0
 40
0.0
 40
0.0
 40
0.0
 40
1.0
 40
1.0
 40
1.0
 40
2.0
 40
2.0
 40
2.0
 40
3.0
 40
3.0
 40
3.0
 40
4.0
 40
4.0
 40
4.0
 40
4.0
 10
118.6813210723744
 20
155.1389109804606
 30
0.0
 10
118.6813210723744
 20
155.1389109804606
 30
0.0
 10
117.028340852126
 20
154.5768365734956
 30
0.0
 10
117.028340852126
 20
154.5768365734956
 30
0.0
 10
117.028340852126
 20
154.5768365734956
 30
0.0
 10
117.0395684973062
 20
153.9810697900905
 30
0.0
 10
117.0395684973062
 20
153.9810697900905
 30
0.0
 10
117.0395684973062
 20
153.9810697900905
 30
0.0
 10
118.5013404289969
 20
154.5431030586227
 30
0.0
 10
118.80502433972
 20
154.5431030586227
 30
0.0
 10
118.80502433972
 20
154.5431030586227
 30
0.0
 10
118.2090518641512
 20
154.9476584065033
 30
0.0
 10
118.2090518641512
 20
154.9476584065033
 30
0.0
  0
SPLINE
  5
184
330
68
100
AcDbEntity
  8
Layer 1
 62
     7
420
 16777215
370
    15
100
AcDbSpline
210
0.0
220
0.0
230
1.0
 70
     8
 71
     3
 72
    17
 73
    13
 74
     0
 42
0.0000000001
 43
0.0000000001
 12
1.0
 22
0.0
 32
0.0
 13
1.0
 23
0.0
 33
0.0
 40
0.0
 40
0.0
 40
0.0
 40
0.0
 40
1.0
 40
1.0
 40
1.0
 40
2.0
 40
2.0
 40
2.0
 40
3.0
 40
3.0
 40
3.0
 40
4.0
 40
4.0
 40
4.0
 40
4.0
 10
116.9670825787622
 20
155.9381528297262
 30
0.0
 10
116.9670825787622
 20
155.9381528297262
 30
0.0
 10
115.2391861254692
 20
155.4717209015869
 30
0.0
 10
115.2391861254692
 20
155.4717209015869
 30
0.0
 10
115.2391861254692
 20
155.4717209015869
 30
0.0
 10
115.2391861254692
 20
155.0054990429809
 30
0.0
 10
115.2391861254692
 20
155.0054990429809
 30
0.0
 10
115.2391861254692
 20
155.0054990429809
 30
0.0
 10
116.6653733128117
 20
155.4168833707015
 30
0.0
 10
117.0494417211713
 20
155.4992425131113
 30
0.0
 10
117.0494417211713
 20
155.4992425131113
 30
0.0
 10
116.5281766395165
 20
155.7461142481765
 30
0.0
 10
116.5281766395165
 20
155.7461142481765
 30
0.0
  0
SPLINE
  5
185
330
68
100
AcDbEntity
  8
Layer 1
 62
     7
420
 16777215
370
    15
100
AcDbSpline
210
0.0
220
0.0
230
1.0
 70
     8
 71
     3
 72
    17
 73
    13
 74
     0
 42
0.0000000001
 43
0.0000000001
 12
1.0
 22
0.0
 32
0.0
 13
1.0
 23
0.0
 33
0.0
 40
0.0
 40
0.0
 40
0.0
 40
0.0
 40
1.0
 40
1.0
 40
1.0
 40
2.0
 40
2.0
 40
2.0
 40
3.0
 40
3.0
 40
3.0
 40
4.0
 40
4.0
 40
4.0
 40
4.0
 10
114.8484944294322
 20
156.5825408632986
 30
0.0
 10
114.8484944294322
 20
156.5825408632986
 30
0.0
 10
113.1206010243887
 20
156.1163190046929
 30
0.0
 10
113.1206010243887
 20
156.1163190046929
 30
0.0
 10
113.1206010243887
 20
156.1163190046929
 30
0.0
 10
113.1206010243887
 20
155.6500971460866
 30
0.0
 10
113.1206010243887
 20
155.6500971460866
 30
0.0
 10
113.1206010243887
 20
155.6500971460866
 30
0.0
 10
114.5467851634823
 20
156.0614814738072
 30
0.0
 10
114.9306478796786
 20
156.143844998783
 30
0.0
 10
114.9306478796786
 20
156.143844998783
 30
0.0
 10
114.4095884901872
 20
156.3905066591184
 30
0.0
 10
114.4095884901872
 20
156.3905066591184
 30
0.0
  0
POLYLINE
  5
186
330
68
100
AcDbEntity
  8
Layer 1
 62
     7
420
 16777215
370
    15
100
AcDb2dPolyline
 66
     1
 10
0.0
 20
0.0
 30
0.0
  0
VERTEX
  5
187
330
186
100
AcDbEntity
  8
Layer 1
 62
     7
420
 16777215
370
    15
100
AcDbVertex
100
AcDb2dVertex
 10
115.0746766304266
 20
159.5582482594344
 30
0.0
  0
VERTEX
  5
188
330
186
100
AcDbEntity
  8
Layer 1
 62
     7
420
 16777215
370
    15
100
AcDbVertex
100
AcDb2dVertex
 10
113.100111036619
 20
159.0920264008284
 30
0.0
  0
VERTEX
  5
189
330
186
100
AcDbEntity
  8
Layer 1
 62
     7
420
 16777215
370
    15
100
AcDbVertex
100
AcDb2dVertex
 10
113.1549485675043
 20
158.5982829306976
 30
0.0
  0
VERTEX
  5
18A
330
186
100
AcDbEntity
  8
Layer 1
 62
     7
420
 16777215
370
    15
100
AcDbVertex
100
AcDb2dVertex
 10
115.2118702061082
 20
159.1468639317137
 30
0.0
  0
VERTEX
  5
18B
330
186
100
AcDbEntity
  8
Layer 1
 62
     7
420
 16777215
370
    15
100
AcDbVertex
100
AcDb2dVertex
 10
114.663292292313
 20
159.4210515861392
 30
0.0
  0
SEQEND
  5
18C
330
186
100
AcDbEntity
  8
Layer 1
 62
     7
420
 16777215
370
    15
  0
SPLINE
  5
18D
330
68
100
AcDbEntity
  8
Layer 1
 62
     7
420
 16777215
370
    15
100
AcDbSpline
210
0.0
220
0.0
230
1.0
 70
     8
 71
     3
 72
    17
 73
    13
 74
     0
 42
0.0000000001
 43
0.0000000001
 12
1.0
 22
0.0
 32
0.0
 13
1.0
 23
0.0
 33
0.0
 40
0.0
 40
0.0
 40
0.0
 40
0.0
 40
1.0
 40
1.0
 40
1.0
 40
2.0
 40
2.0
 40
2.0
 40
3.0
 40
3.0
 40
3.0
 40
4.0
 40
4.0
 40
4.0
 40
4.0
 10
116.8847234363525
 20
158.570967011337
 30
0.0
 10
116.8847234363525
 20
158.570967011337
 30
0.0
 10
115.1843485945839
 20
158.1047451527309
 30
0.0
 10
115.1843485945839
 20
158.1047451527309
 30
0.0
 10
115.1843485945839
 20
158.1047451527309
 30
0.0
 10
115.1843485945839
 20
157.6383176019612
 30
0.0
 10
115.1843485945839
 20
157.6383176019612
 30
0.0
 10
115.1843485945839
 20
157.6383176019612
 30
0.0
 10
116.4733391086312
 20
158.0772235412066
 30
0.0
 10
116.8847234363525
 20
158.0772235412066
 30
0.0
 10
116.8847234363525
 20
158.0772235412066
 30
0.0
 10
116.3088296447661
 20
158.3789328071574
 30
0.0
 10
116.3088296447661
 20
158.3789328071574
 30
0.0
  0
SPLINE
  5
18E
330
68
100
AcDbEntity
  8
Layer 1
 62
     7
420
 16777215
370
    15
100
AcDbSpline
210
0.0
220
0.0
230
1.0
 70
     8
 71
     3
 72
    17
 73
    13
 74
     0
 42
0.0000000001
 43
0.0000000001
 12
1.0
 22
0.0
 32
0.0
 13
1.0
 23
0.0
 33
0.0
 40
0.0
 40
0.0
 40
0.0
 40
0.0
 40
1.0
 40
1.0
 40
1.0
 40
2.0
 40
2.0
 40
2.0
 40
3.0
 40
3.0
 40
3.0
 40
4.0
 40
4.0
 40
4.0
 40
4.0
 10
118.5029448278748
 20
157.5836901821794
 30
0.0
 10
118.5029448278748
 20
157.5836901821794
 30
0.0
 10
116.8847234363525
 20
157.1172582124701
 30
0.0
 10
116.8847234363525
 20
157.1172582124701
 30
0.0
 10
116.8847234363525
 20
157.1172582124701
 30
0.0
 10
116.8847234363525
 20
156.5961988229787
 30
0.0
 10
116.8847234363525
 20
156.5961988229787
 30
0.0
 10
116.8847234363525
 20
156.5961988229787
 30
0.0
 10
117.8995262959736
 20
157.0075831506997
 30
0.0
 10
118.3657513353322
 20
157.0075831506997
 30
0.0
 10
118.3657513353322
 20
157.0075831506997
 30
0.0
 10
117.8995262959736
 20
157.3641299475353
 30
0.0
 10
117.8995262959736
 20
157.3641299475353
 30
0.0
  0
POLYLINE
  5
18F
330
68
100
AcDbEntity
  8
Layer 1
 62
     7
420
 16777215
370
    15
100
AcDb2dPolyline
 66
     1
 10
0.0
 20
0.0
 30
0.0
  0
VERTEX
  5
190
330
18F
100
AcDbEntity
  8
Layer 1
 62
     7
420
 16777215
370
    15
100
AcDbVertex
100
AcDb2dVertex
 10
120.2581572005281
 20
156.8705921695687
 30
0.0
  0
VERTEX
  5
191
330
18F
100
AcDbEntity
  8
Layer 1
 62
     7
420
 16777215
370
    15
100
AcDbVertex
100
AcDb2dVertex
 10
118.4754232163504
 20
156.3495371678395
 30
0.0
  0
VERTEX
  5
192
330
18F
100
AcDbEntity
  8
Layer 1
 62
     7
420
 16777215
370
    15
100
AcDbVertex
100
AcDb2dVertex
 10
118.4754232163504
 20
155.8009517790618
 30
0.0
  0
VERTEX
  5
193
330
18F
100
AcDbEntity
  8
Layer 1
 62
     7
420
 16777215
370
    15
100
AcDbVertex
100
AcDb2dVertex
 10
120.5598664664787
 20
156.4316862303233
 30
0.0
  0
VERTEX
  5
194
330
18F
100
AcDbEntity
  8
Layer 1
 62
     7
420
 16777215
370
    15
100
AcDbVertex
100
AcDb2dVertex
 10
119.9016104036928
 20
156.7333954962739
 30
0.0
  0
SEQEND
  5
195
330
18F
100
AcDbEntity
  8
Layer 1
 62
     7
420
 16777215
370
    15
  0
POLYLINE
  5
196
330
68
100
AcDbEntity
  8
Layer 1
 62
     7
420
 16777215
370
    15
100
AcDb2dPolyline
 66
     1
 10
0.0
 20
0.0
 30
0.0
  0
VERTEX
  5
197
330
196
100
AcDbEntity
  8
Layer 1
 62
     7
420
 16777215
370
    15
100
AcDbVertex
100
AcDb2dVertex
 10
122.0682103783515
 20
155.9927802910779
 30
0.0
  0
VERTEX
  5
198
330
196
100
AcDbEntity
  8
Layer 1
 62
     7
420
 16777215
370
    15
100
AcDbVertex
100
AcDb2dVertex
 10
120.3678322622988
 20
155.4992425131113
 30
0.0
  0
VERTEX
  5
199
330
196
100
AcDbEntity
  8
Layer 1
 62
     7
420
 16777215
370
    15
100
AcDbVertex
100
AcDb2dVertex
 10
120.3953538738232
 20
155.0603365738662
 30
0.0
  0
VERTEX
  5
19A
330
196
100
AcDbEntity
  8
Layer 1
 62
     7
420
 16777215
370
    15
100
AcDbVertex
100
AcDb2dVertex
 10
122.2602413082473
 20
155.5813959633576
 30
0.0
  0
VERTEX
  5
19B
330
196
100
AcDbEntity
  8
Layer 1
 62
     7
420
 16777215
370
    15
100
AcDbVertex
100
AcDb2dVertex
 10
121.7391819187559
 20
155.8282676984225
 30
0.0
  0
SEQEND
  5
19C
330
196
100
AcDbEntity
  8
Layer 1
 62
     7
420
 16777215
370
    15
  0
POLYLINE
  5
19D
330
68
100
AcDbEntity
  8
Layer 1
 62
     7
420
 16777215
370
    15
100
AcDb2dPolyline
 66
     1
 10
0.0
 20
0.0
 30
0.0
  0
VERTEX
  5
19E
330
19D
100
AcDbEntity
  8
Layer 1
 62
     7
420
 16777215
370
    15
100
AcDbVertex
100
AcDb2dVertex
 10
123.7412660264751
 20
155.1426957162757
 30
0.0
  0
VERTEX
  5
19F
330
19D
100
AcDbEntity
  8
Layer 1
 62
     7
420
 16777215
370
    15
100
AcDbVertex
100
AcDb2dVertex
 10
122.1230446349521
 20
154.6489522461453
 30
0.0
  0
VERTEX
  5
1A0
330
19D
100
AcDbEntity
  8
Layer 1
 62
     7
420
 16777215
370
    15
100
AcDbVertex
100
AcDb2dVertex
 10
122.1778821658375
 20
154.2102519990643
 30
0.0
  0
VERTEX
  5
1A1
330
19D
100
AcDbEntity
  8
Layer 1
 62
     7
420
 16777215
370
    15
100
AcDbVertex
100
AcDb2dVertex
 10
123.7961035573604
 20
154.5667987958996
 30
0.0
  0
VERTEX
  5
1A2
330
19D
100
AcDbEntity
  8
Layer 1
 62
     7
420
 16777215
370
    15
100
AcDbVertex
100
AcDb2dVertex
 10
123.3847192296391
 20
154.9781831236202
 30
0.0
  0
SEQEND
  5
1A3
330
19D
100
AcDbEntity
  8
Layer 1
 62
     7
420
 16777215
370
    15
  0
POLYLINE
  5
1A4
330
68
100
AcDbEntity
  8
Layer 1
 62
     7
420
 16777215
370
    15
100
AcDb2dPolyline
 66
     1
 10
0.0
 20
0.0
 30
0.0
  0
VERTEX
  5
1A5
330
1A4
100
AcDbEntity
  8
Layer 1
 62
     7
420
 16777215
370
    15
100
AcDbVertex
100
AcDb2dVertex
 10
129.0344247559601
 20
150.2060837836259
 30
0.0
  0
VERTEX
  5
1A6
330
1A4
100
AcDbEntity
  8
Layer 1
 62
     7
420
 16777215
370
    15
100
AcDbVertex
100
AcDb2dVertex
 10
127.3065283026671
 20
149.6301868632495
 30
0.0
  0
VERTEX
  5
1A7
330
1A4
100
AcDbEntity
  8
Layer 1
 62
     7
420
 16777215
370
    15
100
AcDbVertex
100
AcDb2dVertex
 10
127.3888874450769
 20
149.1364433931191
 30
0.0
  0
VERTEX
  5
1A8
330
1A4
100
AcDbEntity
  8
Layer 1
 62
     7
420
 16777215
370
    15
100
AcDbVertex
100
AcDb2dVertex
 10
129.0617441262771
 20
149.6575027826102
 30
0.0
  0
VERTEX
  5
1A9
330
1A4
100
AcDbEntity
  8
Layer 1
 62
     7
420
 16777215
370
    15
100
AcDbVertex
100
AcDb2dVertex
 10
128.5133688035718
 20
149.9316904370363
 30
0.0
  0
SEQEND
  5
1AA
330
1A4
100
AcDbEntity
  8
Layer 1
 62
     7
420
 16777215
370
    15
  0
POLYLINE
  5
1AB
330
68
100
AcDbEntity
  8
Layer 1
 62
     7
420
 16777215
370
    15
100
AcDb2dPolyline
 66
     1
 10
0.0
 20
0.0
 30
0.0
  0
VERTEX
  5
1AC
330
1AB
100
AcDbEntity
  8
Layer 1
 62
     7
420
 16777215
370
    15
100
AcDbVertex
100
AcDb2dVertex
 10
132.0786276426614
 20
151.2482025626093
 30
0.0
  0
VERTEX
  5
1AD
330
1AB
100
AcDbEntity
  8
Layer 1
 62
     7
420
 16777215
370
    15
100
AcDbVertex
100
AcDb2dVertex
 10
130.4057744124178
 20
150.6723056422319
 30
0.0
  0
VERTEX
  5
1AE
330
1AB
100
AcDbEntity
  8
Layer 1
 62
     7
420
 16777215
370
    15
100
AcDbVertex
100
AcDb2dVertex
 10
130.4606119433026
 20
150.0964087218555
 30
0.0
  0
VERTEX
  5
1AF
330
1AB
100
AcDbEntity
  8
Layer 1
 62
     7
420
 16777215
370
    15
100
AcDbVertex
100
AcDb2dVertex
 10
132.1061492541858
 20
150.6723056422319
 30
0.0
  0
VERTEX
  5
1B0
330
1AB
100
AcDbEntity
  8
Layer 1
 62
     7
420
 16777215
370
    15
100
AcDbVertex
100
AcDb2dVertex
 10
131.5027307222853
 20
150.9740149081825
 30
0.0
  0
SEQEND
  5
1B1
330
1AB
100
AcDbEntity
  8
Layer 1
 62
     7
420
 16777215
370
    15
  0
POLYLINE
  5
1B2
330
68
100
AcDbEntity
  8
Layer 1
 62
     7
420
 16777215
370
    15
100
AcDb2dPolyline
 66
     1
 10
0.0
 20
0.0
 30
0.0
  0
VERTEX
  5
1B3
330
1B2
100
AcDbEntity
  8
Layer 1
 62
     7
420
 16777215
370
    15
100
AcDbVertex
100
AcDb2dVertex
 10
130.5154494741879
 20
151.9886120756402
 30
0.0
  0
VERTEX
  5
1B4
330
1B2
100
AcDbEntity
  8
Layer 1
 62
     7
420
 16777215
370
    15
100
AcDbVertex
100
AcDb2dVertex
 10
128.5682028973541
 20
151.3853992359032
 30
0.0
  0
VERTEX
  5
1B5
330
1B2
100
AcDbEntity
  8
Layer 1
 62
     7
420
 16777215
370
    15
100
AcDbVertex
100
AcDb2dVertex
 10
128.6230404282394
 20
150.9464932966578
 30
0.0
  0
VERTEX
  5
1B6
330
1B2
100
AcDbEntity
  8
Layer 1
 62
     7
420
 16777215
370
    15
100
AcDbVertex
100
AcDb2dVertex
 10
130.4057744124178
 20
151.4675526861492
 30
0.0
  0
VERTEX
  5
1B7
330
1B2
100
AcDbEntity
  8
Layer 1
 62
     7
420
 16777215
370
    15
100
AcDbVertex
100
AcDb2dVertex
 10
129.8296717998776
 20
151.6871085018537
 30
0.0
  0
SEQEND
  5
1B8
330
1B2
100
AcDbEntity
  8
Layer 1
 62
     7
420
 16777215
370
    15
  0
POLYLINE
  5
1B9
330
68
100
AcDbEntity
  8
Layer 1
 62
     7
420
 16777215
370
    15
100
AcDb2dPolyline
 66
     1
 10
0.0
 20
0.0
 30
0.0
  0
VERTEX
  5
1BA
330
1B9
100
AcDbEntity
  8
Layer 1
 62
     7
420
 16777215
370
    15
100
AcDbVertex
100
AcDb2dVertex
 10
131.9962685002516
 20
153.7165085289332
 30
0.0
  0
VERTEX
  5
1BB
330
1B9
100
AcDbEntity
  8
Layer 1
 62
     7
420
 16777215
370
    15
100
AcDbVertex
100
AcDb2dVertex
 10
130.3782528008934
 20
153.1681332200812
 30
0.0
  0
VERTEX
  5
1BC
330
1B9
100
AcDbEntity
  8
Layer 1
 62
     7
420
 16777215
370
    15
100
AcDbVertex
100
AcDb2dVertex
 10
130.4057744124178
 20
152.6470781248202
 30
0.0
  0
VERTEX
  5
1BD
330
1B9
100
AcDbEntity
  8
Layer 1
 62
     7
420
 16777215
370
    15
100
AcDbVertex
100
AcDb2dVertex
 10
131.914115050006
 20
153.1954534475252
 30
0.0
  0
VERTEX
  5
1BE
330
1B9
100
AcDbEntity
  8
Layer 1
 62
     7
420
 16777215
370
    15
100
AcDbVertex
100
AcDb2dVertex
 10
131.4203715798755
 20
153.4147992629827
 30
0.0
  0
SEQEND
  5
1BF
330
1B9
100
AcDbEntity
  8
Layer 1
 62
     7
420
 16777215
370
    15
  0
POLYLINE
  5
1C0
330
68
100
AcDbEntity
  8
Layer 1
 62
     7
420
 16777215
370
    15
100
AcDb2dPolyline
 66
     1
 10
0.0
 20
0.0
 30
0.0
  0
VERTEX
  5
1C1
330
1C0
100
AcDbEntity
  8
Layer 1
 62
     7
420
 16777215
370
    15
100
AcDbVertex
100
AcDb2dVertex
 10
128.8150746324193
 20
152.7567488923605
 30
0.0
  0
VERTEX
  5
1C2
330
1C0
100
AcDbEntity
  8
Layer 1
 62
     7
420
 16777215
370
    15
100
AcDbVertex
100
AcDb2dVertex
 10
127.2516907717824
 20
152.2356937867069
 30
0.0
  0
VERTEX
  5
1C3
330
1C0
100
AcDbEntity
  8
Layer 1
 62
     7
420
 16777215
370
    15
100
AcDbVertex
100
AcDb2dVertex
 10
127.2792157892322
 20
151.7419460327388
 30
0.0
  0
VERTEX
  5
1C4
330
1C0
100
AcDbEntity
  8
Layer 1
 62
     7
420
 16777215
370
    15
100
AcDbVertex
100
AcDb2dVertex
 10
128.9520656135504
 20
152.2630054222302
 30
0.0
  0
VERTEX
  5
1C5
330
1C0
100
AcDbEntity
  8
Layer 1
 62
     7
420
 16777215
370
    15
100
AcDbVertex
100
AcDb2dVertex
 10
128.4310062240596
 20
152.537193076656
 30
0.0
  0
SEQEND
  5
1C6
330
1C0
100
AcDbEntity
  8
Layer 1
 62
     7
420
 16777215
370
    15
  0
POLYLINE
  5
1C7
330
68
100
AcDbEntity
  8
Layer 1
 62
     7
420
 16777215
370
    15
100
AcDb2dPolyline
 66
     1
 10
0.0
 20
0.0
 30
0.0
  0
VERTEX
  5
1C8
330
1C7
100
AcDbEntity
  8
Layer 1
 62
     7
420
 16777215
370
    15
100
AcDbVertex
100
AcDb2dVertex
 10
130.4330903317781
 20
154.4844396534895
 30
0.0
  0
VERTEX
  5
1C9
330
1C7
100
AcDbEntity
  8
Layer 1
 62
     7
420
 16777215
370
    15
100
AcDbVertex
100
AcDb2dVertex
 10
128.5682028973541
 20
153.9085427331134
 30
0.0
  0
VERTEX
  5
1CA
330
1C7
100
AcDbEntity
  8
Layer 1
 62
     7
420
 16777215
370
    15
100
AcDbVertex
100
AcDb2dVertex
 10
128.5955188167151
 20
153.387483343622
 30
0.0
  0
VERTEX
  5
1CB
330
1C7
100
AcDbEntity
  8
Layer 1
 62
     7
420
 16777215
370
    15
100
AcDbVertex
100
AcDb2dVertex
 10
130.4606119433026
 20
153.9633802639984
 30
0.0
  0
VERTEX
  5
1CC
330
1C7
100
AcDbEntity
  8
Layer 1
 62
     7
420
 16777215
370
    15
100
AcDbVertex
100
AcDb2dVertex
 10
130.0492276155819
 20
154.319927060834
 30
0.0
  0
SEQEND
  5
1CD
330
1C7
100
AcDbEntity
  8
Layer 1
 62
     7
420
 16777215
370
    15
  0
POLYLINE
  5
1CE
330
68
100
AcDbEntity
  8
Layer 1
 62
     7
420
 16777215
370
    15
100
AcDb2dPolyline
 66
     1
 10
0.0
 20
0.0
 30
0.0
  0
VERTEX
  5
1CF
330
1CE
100
AcDbEntity
  8
Layer 1
 62
     7
420
 16777215
370
    15
100
AcDbVertex
100
AcDb2dVertex
 10
131.914115050006
 20
156.2671736376679
 30
0.0
  0
VERTEX
  5
1D0
330
1CE
100
AcDbEntity
  8
Layer 1
 62
     7
420
 16777215
370
    15
100
AcDbVertex
100
AcDb2dVertex
 10
130.4057744124178
 20
155.7734301675374
 30
0.0
  0
VERTEX
  5
1D1
330
1CE
100
AcDbEntity
  8
Layer 1
 62
     7
420
 16777215
370
    15
100
AcDbVertex
100
AcDb2dVertex
 10
130.4606119433026
 20
155.2250548586854
 30
0.0
  0
VERTEX
  5
1D2
330
1CE
100
AcDbEntity
  8
Layer 1
 62
     7
420
 16777215
370
    15
100
AcDbVertex
100
AcDb2dVertex
 10
132.0513117233011
 20
155.7185926366521
 30
0.0
  0
VERTEX
  5
1D3
330
1CE
100
AcDbEntity
  8
Layer 1
 62
     7
420
 16777215
370
    15
100
AcDbVertex
100
AcDb2dVertex
 10
131.5575682531707
 20
156.0478235141271
 30
0.0
  0
SEQEND
  5
1D4
330
1CE
100
AcDbEntity
  8
Layer 1
 62
     7
420
 16777215
370
    15
  0
SPLINE
  5
1D5
330
68
100
AcDbEntity
  8
Layer 1
 62
     7
420
 16777215
370
    15
100
AcDbSpline
210
0.0
220
0.0
230
1.0
 70
     8
 71
     3
 72
    17
 73
    13
 74
     0
 42
0.0000000001
 43
0.0000000001
 12
1.0
 22
0.0
 32
0.0
 13
1.0
 23
0.0
 33
0.0
 40
0.0
 40
0.0
 40
0.0
 40
0.0
 40
1.0
 40
1.0
 40
1.0
 40
2.0
 40
2.0
 40
2.0
 40
3.0
 40
3.0
 40
3.0
 40
4.0
 40
4.0
 40
4.0
 40
4.0
 10
128.9795872250754
 20
155.3895674513409
 30
0.0
 10
128.9795872250754
 20
155.3895674513409
 30
0.0
 10
127.2243748524214
 20
154.8409907999781
 30
0.0
 10
127.2243748524214
 20
154.8409907999781
 30
0.0
 10
127.2243748524214
 20
154.8409907999781
 30
0.0
 10
127.2243748524214
 20
154.319927060834
 30
0.0
 10
127.2243748524214
 20
154.319927060834
 30
0.0
 10
127.2243748524214
 20
154.319927060834
 30
0.0
 10
128.9795872250754
 20
154.7861489194401
 30
0.0
 10
129.0892622868455
 20
154.7861489194401
 30
0.0
 10
129.0892622868455
 20
154.7861489194401
 30
0.0
 10
129.1165782062064
 20
155.0878581853913
 30
0.0
 10
128.6230404282394
 20
155.2523751380914
 30
0.0
  0
SPLINE
  5
1D6
330
68
100
AcDbEntity
  8
Layer 1
 62
     7
420
 16777215
370
    15
100
AcDbSpline
210
0.0
220
0.0
230
1.0
 70
     8
 71
     3
 72
    17
 73
    13
 74
     0
 42
0.0000000001
 43
0.0000000001
 12
1.0
 22
0.0
 32
0.0
 13
1.0
 23
0.0
 33
0.0
 40
0.0
 40
0.0
 40
0.0
 40
0.0
 40
1.0
 40
1.0
 40
1.0
 40
2.0
 40
2.0
 40
2.0
 40
3.0
 40
3.0
 40
3.0
 40
4.0
 40
4.0
 40
4.0
 40
4.0
 10
130.3234152700081
 20
157.1172582124701
 30
0.0
 10
130.3234152700081
 20
157.1172582124701
 30
0.0
 10
128.5682028973541
 20
156.4865281524312
 30
0.0
 10
128.5682028973541
 20
156.4865281524312
 30
0.0
 10
128.5682028973541
 20
156.4865281524312
 30
0.0
 10
128.6230404282394
 20
155.9927802910779
 30
0.0
 10
128.6230404282394
 20
155.9927802910779
 30
0.0
 10
128.6230404282394
 20
155.9927802910779
 30
0.0
 10
129.8845128025037
 20
156.5688829036181
 30
0.0
 10
130.4057744124178
 20
156.5961988229787
 30
0.0
 10
130.4057744124178
 20
156.5961988229787
 30
0.0
 10
129.9393468616477
 20
156.9527456198144
 30
0.0
 10
129.9393468616477
 20
156.9527456198144
 30
0.0
  0
POLYLINE
  5
1D7
330
68
100
AcDbEntity
  8
Layer 1
 62
     7
420
 16777215
370
    15
100
AcDb2dPolyline
 66
     1
 10
0.0
 20
0.0
 30
0.0
  0
VERTEX
  5
1D8
330
1D7
100
AcDbEntity
  8
Layer 1
 62
     7
420
 16777215
370
    15
100
AcDbVertex
100
AcDb2dVertex
 10
127.3888874450769
 20
156.1574985758974
 30
0.0
  0
VERTEX
  5
1D9
330
1D7
100
AcDbEntity
  8
Layer 1
 62
     7
420
 16777215
370
    15
100
AcDbVertex
100
AcDb2dVertex
 10
125.6336784367791
 20
155.6364391864061
 30
0.0
  0
VERTEX
  5
1DA
330
1D7
100
AcDbEntity
  8
Layer 1
 62
     7
420
 16777215
370
    15
100
AcDbVertex
100
AcDb2dVertex
 10
125.6061534608991
 20
155.1700116356363
 30
0.0
  0
VERTEX
  5
1DB
330
1D7
100
AcDbEntity
  8
Layer 1
 62
     7
420
 16777215
370
    15
100
AcDbVertex
100
AcDb2dVertex
 10
127.2516907717824
 20
155.6637594762047
 30
0.0
  0
VERTEX
  5
1DC
330
1D7
100
AcDbEntity
  8
Layer 1
 62
     7
420
 16777215
370
    15
100
AcDbVertex
100
AcDb2dVertex
 10
126.8403064440611
 20
155.9106268408323
 30
0.0
  0
SEQEND
  5
1DD
330
1D7
100
AcDbEntity
  8
Layer 1
 62
     7
420
 16777215
370
    15
  0
POLYLINE
  5
1DE
330
68
100
AcDbEntity
  8
Layer 1
 62
     7
420
 16777215
370
    15
100
AcDb2dPolyline
 66
     1
 10
0.0
 20
0.0
 30
0.0
  0
VERTEX
  5
1DF
330
1DE
100
AcDbEntity
  8
Layer 1
 62
     7
420
 16777215
370
    15
100
AcDbVertex
100
AcDb2dVertex
 10
125.5237943184894
 20
156.9802672313391
 30
0.0
  0
VERTEX
  5
1E0
330
1DE
100
AcDbEntity
  8
Layer 1
 62
     7
420
 16777215
370
    15
100
AcDbVertex
100
AcDb2dVertex
 10
123.8782570076061
 20
156.4865281524312
 30
0.0
  0
VERTEX
  5
1E1
330
1DE
100
AcDbEntity
  8
Layer 1
 62
     7
420
 16777215
370
    15
100
AcDbVertex
100
AcDb2dVertex
 10
123.9333002306549
 20
155.9927802910779
 30
0.0
  0
VERTEX
  5
1E2
330
1DE
100
AcDbEntity
  8
Layer 1
 62
     7
420
 16777215
370
    15
100
AcDbVertex
100
AcDb2dVertex
 10
125.5788375415382
 20
156.5140453727331
 30
0.0
  0
VERTEX
  5
1E3
330
1DE
100
AcDbEntity
  8
Layer 1
 62
     7
420
 16777215
370
    15
100
AcDbVertex
100
AcDb2dVertex
 10
125.1674532138175
 20
156.7882330271589
 30
0.0
  0
SEQEND
  5
1E4
330
1DE
100
AcDbEntity
  8
Layer 1
 62
     7
420
 16777215
370
    15
  0
POLYLINE
  5
1E5
330
68
100
AcDbEntity
  8
Layer 1
 62
     7
420
 16777215
370
    15
100
AcDb2dPolyline
 66
     1
 10
0.0
 20
0.0
 30
0.0
  0
VERTEX
  5
1E6
330
1E5
100
AcDbEntity
  8
Layer 1
 62
     7
420
 16777215
370
    15
100
AcDbVertex
100
AcDb2dVertex
 10
118.5850982781204
 20
160.5182135881708
 30
0.0
  0
VERTEX
  5
1E7
330
1E5
100
AcDbEntity
  8
Layer 1
 62
     7
420
 16777215
370
    15
100
AcDbVertex
100
AcDb2dVertex
 10
116.8847234363525
 20
160.0519962108588
 30
0.0
  0
VERTEX
  5
1E8
330
1E5
100
AcDbEntity
  8
Layer 1
 62
     7
420
 16777215
370
    15
100
AcDbVertex
100
AcDb2dVertex
 10
116.9122450478769
 20
159.6130857903194
 30
0.0
  0
VERTEX
  5
1E9
330
1E5
100
AcDbEntity
  8
Layer 1
 62
     7
420
 16777215
370
    15
100
AcDbVertex
100
AcDb2dVertex
 10
118.6401446888541
 20
160.0793076489254
 30
0.0
  0
VERTEX
  5
1EA
330
1E5
100
AcDbEntity
  8
Layer 1
 62
     7
420
 16777215
370
    15
100
AcDbVertex
100
AcDb2dVertex
 10
118.1463980310395
 20
160.2713418531059
 30
0.0
  0
SEQEND
  5
1EB
330
1E5
100
AcDbEntity
  8
Layer 1
 62
     7
420
 16777215
370
    15
  0
POLYLINE
  5
1EC
330
68
100
AcDbEntity
  8
Layer 1
 62
     7
420
 16777215
370
    15
100
AcDb2dPolyline
 66
     1
 10
0.0
 20
0.0
 30
0.0
  0
VERTEX
  5
1ED
330
1EC
100
AcDbEntity
  8
Layer 1
 62
     7
420
 16777215
370
    15
100
AcDbVertex
100
AcDb2dVertex
 10
120.175798058119
 20
159.503410728549
 30
0.0
  0
VERTEX
  5
1EE
330
1EC
100
AcDbEntity
  8
Layer 1
 62
     7
420
 16777215
370
    15
100
AcDbVertex
100
AcDb2dVertex
 10
118.4481072969894
 20
158.9823513390579
 30
0.0
  0
VERTEX
  5
1EF
330
1EC
100
AcDbEntity
  8
Layer 1
 62
     7
420
 16777215
370
    15
100
AcDbVertex
100
AcDb2dVertex
 10
118.5029448278748
 20
158.5161294804519
 30
0.0
  0
VERTEX
  5
1F0
330
1EC
100
AcDbEntity
  8
Layer 1
 62
     7
420
 16777215
370
    15
100
AcDbVertex
100
AcDb2dVertex
 10
120.3129947314134
 20
159.0096672584186
 30
0.0
  0
VERTEX
  5
1F1
330
1EC
100
AcDbEntity
  8
Layer 1
 62
     7
420
 16777215
370
    15
100
AcDbVertex
100
AcDb2dVertex
 10
119.8467728728074
 20
159.3388981358935
 30
0.0
  0
SEQEND
  5
1F2
330
1EC
100
AcDbEntity
  8
Layer 1
 62
     7
420
 16777215
370
    15
  0
POLYLINE
  5
1F3
330
68
100
AcDbEntity
  8
Layer 1
 62
     7
420
 16777215
370
    15
100
AcDb2dPolyline
 66
     1
 10
0.0
 20
0.0
 30
0.0
  0
VERTEX
  5
1F4
330
1F3
100
AcDbEntity
  8
Layer 1
 62
     7
420
 16777215
370
    15
100
AcDbVertex
100
AcDb2dVertex
 10
122.0408911847065
 20
158.4886078689272
 30
0.0
  0
VERTEX
  5
1F5
330
1F3
100
AcDbEntity
  8
Layer 1
 62
     7
420
 16777215
370
    15
100
AcDbVertex
100
AcDb2dVertex
 10
120.3405163429378
 20
158.0223860103212
 30
0.0
  0
VERTEX
  5
1F6
330
1F3
100
AcDbEntity
  8
Layer 1
 62
     7
420
 16777215
370
    15
100
AcDbVertex
100
AcDb2dVertex
 10
120.3953538738232
 20
157.6383176019612
 30
0.0
  0
VERTEX
  5
1F7
330
1F3
100
AcDbEntity
  8
Layer 1
 62
     7
420
 16777215
370
    15
100
AcDbVertex
100
AcDb2dVertex
 10
122.0682103783515
 20
158.0223860103212
 30
0.0
  0
VERTEX
  5
1F8
330
1F3
100
AcDbEntity
  8
Layer 1
 62
     7
420
 16777215
370
    15
100
AcDbVertex
100
AcDb2dVertex
 10
121.6568260402386
 20
158.2965736647474
 30
0.0
  0
SEQEND
  5
1F9
330
1F3
100
AcDbEntity
  8
Layer 1
 62
     7
420
 16777215
370
    15
  0
SPLINE
  5
1FA
330
68
100
AcDbEntity
  8
Layer 1
 62
     7
420
 16777215
370
    15
100
AcDbSpline
210
0.0
220
0.0
230
1.0
 70
     8
 71
     3
 72
    17
 73
    13
 74
     0
 42
0.0000000001
 43
0.0000000001
 12
1.0
 22
0.0
 32
0.0
 13
1.0
 23
0.0
 33
0.0
 40
0.0
 40
0.0
 40
0.0
 40
0.0
 40
1.0
 40
1.0
 40
1.0
 40
2.0
 40
2.0
 40
2.0
 40
3.0
 40
3.0
 40
3.0
 40
4.0
 40
4.0
 40
4.0
 40
4.0
 10
123.7961035573604
 20
157.8303518061417
 30
0.0
 10
123.7961035573604
 20
157.8303518061417
 30
0.0
 10
122.1778821658375
 20
157.3916515590597
 30
0.0
 10
122.1778821658375
 20
157.3916515590597
 30
0.0
 10
122.1778821658375
 20
157.3916515590597
 30
0.0
 10
122.2054037773619
 20
156.8979124905445
 30
0.0
 10
122.2054037773619
 20
156.8979124905445
 30
0.0
 10
122.2054037773619
 20
156.8979124905445
 30
0.0
 10
123.5219159029343
 20
157.3092968286575
 30
0.0
 10
123.9333002306549
 20
157.3641299475353
 30
0.0
 10
123.9333002306549
 20
157.3641299475353
 30
0.0
 10
123.4668726798855
 20
157.6658392134859
 30
0.0
 10
123.4668726798855
 20
157.6658392134859
 30
0.0
  0
POLYLINE
  5
1FB
330
68
100
AcDbEntity
  8
Layer 1
 62
     7
420
 16777215
370
    15
100
AcDb2dPolyline
 66
     1
 10
0.0
 20
0.0
 30
0.0
  0
VERTEX
  5
1FC
330
1FB
100
AcDbEntity
  8
Layer 1
 62
     7
420
 16777215
370
    15
100
AcDbVertex
100
AcDb2dVertex
 10
122.0613781242273
 20
161.4094777341779
 30
0.0
  0
VERTEX
  5
1FD
330
1FB
100
AcDbEntity
  8
Layer 1
 62
     7
420
 16777215
370
    15
100
AcDbVertex
100
AcDb2dVertex
 10
120.3610032824587
 20
160.9432558755719
 30
0.0
  0
VERTEX
  5
1FE
330
1FB
100
AcDbEntity
  8
Layer 1
 62
     7
420
 16777215
370
    15
100
AcDbVertex
100
AcDb2dVertex
 10
120.3885281258349
 20
160.5043499363265
 30
0.0
  0
VERTEX
  5
1FF
330
1FB
100
AcDbEntity
  8
Layer 1
 62
     7
420
 16777215
370
    15
100
AcDbVertex
100
AcDb2dVertex
 10
122.1162156551121
 20
160.9707774870966
 30
0.0
  0
VERTEX
  5
200
330
1FB
100
AcDbEntity
  8
Layer 1
 62
     7
420
 16777215
370
    15
100
AcDbVertex
100
AcDb2dVertex
 10
121.6226811401751
 20
161.1626059991127
 30
0.0
  0
SEQEND
  5
201
330
1FB
100
AcDbEntity
  8
Layer 1
 62
     7
420
 16777215
370
    15
  0
POLYLINE
  5
202
330
68
100
AcDbEntity
  8
Layer 1
 62
     7
420
 16777215
370
    15
100
AcDb2dPolyline
 66
     1
 10
0.0
 20
0.0
 30
0.0
  0
VERTEX
  5
203
330
202
100
AcDbEntity
  8
Layer 1
 62
     7
420
 16777215
370
    15
100
AcDbVertex
100
AcDb2dVertex
 10
127.2243748524214
 20
161.3682981629734
 30
0.0
  0
VERTEX
  5
204
330
202
100
AcDbEntity
  8
Layer 1
 62
     7
420
 16777215
370
    15
100
AcDbVertex
100
AcDb2dVertex
 10
125.5237943184894
 20
160.902076304367
 30
0.0
  0
VERTEX
  5
205
330
202
100
AcDbEntity
  8
Layer 1
 62
     7
420
 16777215
370
    15
100
AcDbVertex
100
AcDb2dVertex
 10
125.5513159300138
 20
160.4633805489721
 30
0.0
  0
VERTEX
  5
206
330
202
100
AcDbEntity
  8
Layer 1
 62
     7
420
 16777215
370
    15
100
AcDbVertex
100
AcDb2dVertex
 10
127.2792157892322
 20
160.9295979158914
 30
0.0
  0
VERTEX
  5
207
330
202
100
AcDbEntity
  8
Layer 1
 62
     7
420
 16777215
370
    15
100
AcDbVertex
100
AcDb2dVertex
 10
126.7854689131764
 20
161.1214264279079
 30
0.0
  0
SEQEND
  5
208
330
202
100
AcDbEntity
  8
Layer 1
 62
     7
420
 16777215
370
    15
  0
POLYLINE
  5
209
330
68
100
AcDbEntity
  8
Layer 1
 62
     7
420
 16777215
370
    15
100
AcDb2dPolyline
 66
     1
 10
0.0
 20
0.0
 30
0.0
  0
VERTEX
  5
20A
330
209
100
AcDbEntity
  8
Layer 1
 62
     7
420
 16777215
370
    15
100
AcDbVertex
100
AcDb2dVertex
 10
123.8234194767208
 20
160.4633805489721
 30
0.0
  0
VERTEX
  5
20B
330
209
100
AcDbEntity
  8
Layer 1
 62
     7
420
 16777215
370
    15
100
AcDbVertex
100
AcDb2dVertex
 10
122.2054037773619
 20
159.996948506516
 30
0.0
  0
VERTEX
  5
20C
330
209
100
AcDbEntity
  8
Layer 1
 62
     7
420
 16777215
370
    15
100
AcDbVertex
100
AcDb2dVertex
 10
122.2327196967229
 20
159.503410728549
 30
0.0
  0
VERTEX
  5
20D
330
209
100
AcDbEntity
  8
Layer 1
 62
     7
420
 16777215
370
    15
100
AcDbVertex
100
AcDb2dVertex
 10
123.7685819458354
 20
159.9423166677944
 30
0.0
  0
VERTEX
  5
20E
330
209
100
AcDbEntity
  8
Layer 1
 62
     7
420
 16777215
370
    15
100
AcDbVertex
100
AcDb2dVertex
 10
123.3298816987544
 20
160.2713418531059
 30
0.0
  0
SEQEND
  5
20F
330
209
100
AcDbEntity
  8
Layer 1
 62
     7
420
 16777215
370
    15
  0
POLYLINE
  5
210
330
68
100
AcDbEntity
  8
Layer 1
 62
     7
420
 16777215
370
    15
100
AcDb2dPolyline
 66
     1
 10
0.0
 20
0.0
 30
0.0
  0
VERTEX
  5
211
330
210
100
AcDbEntity
  8
Layer 1
 62
     7
420
 16777215
370
    15
100
AcDbVertex
100
AcDb2dVertex
 10
125.5308323522508
 20
159.4965817487089
 30
0.0
  0
VERTEX
  5
212
330
210
100
AcDbEntity
  8
Layer 1
 62
     7
420
 16777215
370
    15
100
AcDbVertex
100
AcDb2dVertex
 10
123.9126075989706
 20
159.0303598901029
 30
0.0
  0
VERTEX
  5
213
330
210
100
AcDbEntity
  8
Layer 1
 62
     7
420
 16777215
370
    15
100
AcDbVertex
100
AcDb2dVertex
 10
123.940129210495
 20
158.5366164199728
 30
0.0
  0
VERTEX
  5
214
330
210
100
AcDbEntity
  8
Layer 1
 62
     7
420
 16777215
370
    15
100
AcDbVertex
100
AcDb2dVertex
 10
125.4759914596082
 20
158.9753166670538
 30
0.0
  0
VERTEX
  5
215
330
210
100
AcDbEntity
  8
Layer 1
 62
     7
420
 16777215
370
    15
100
AcDbVertex
100
AcDb2dVertex
 10
125.0370855203625
 20
159.3045475445291
 30
0.0
  0
SEQEND
  5
216
330
210
100
AcDbEntity
  8
Layer 1
 62
     7
420
 16777215
370
    15
  0
SPLINE
  5
217
330
68
100
AcDbEntity
  8
Layer 1
 62
     7
420
 16777215
370
    15
100
AcDbSpline
210
0.0
220
0.0
230
1.0
 70
     8
 71
     3
 72
    17
 73
    13
 74
     0
 42
0.0000000001
 43
0.0000000001
 12
1.0
 22
0.0
 32
0.0
 13
1.0
 23
0.0
 33
0.0
 40
0.0
 40
0.0
 40
0.0
 40
0.0
 40
1.0
 40
1.0
 40
1.0
 40
2.0
 40
2.0
 40
2.0
 40
3.0
 40
3.0
 40
3.0
 40
4.0
 40
4.0
 40
4.0
 40
4.0
 10
127.299699322827
 20
158.8451546657631
 30
0.0
 10
127.299699322827
 20
158.8451546657631
 30
0.0
 10
125.6816836234682
 20
158.406458858406
 30
0.0
 10
125.6816836234682
 20
158.406458858406
 30
0.0
 10
125.6816836234682
 20
158.406458858406
 30
0.0
 10
125.7089995428291
 20
157.9127109485511
 30
0.0
 10
125.7089995428291
 20
157.9127109485511
 30
0.0
 10
125.7089995428291
 20
157.9127109485511
 30
0.0
 10
127.0255116684015
 20
158.3240952762718
 30
0.0
 10
127.4368959961221
 20
158.3789328071574
 30
0.0
 10
127.4368959961221
 20
158.3789328071574
 30
0.0
 10
126.9706775356475
 20
158.6806420731074
 30
0.0
 10
126.9706775356475
 20
158.6806420731074
 30
0.0
  0
SPLINE
  5
218
330
68
100
AcDbEntity
  8
Layer 1
 62
     7
420
 16777215
370
    15
100
AcDbSpline
210
0.0
220
0.0
230
1.0
 70
     8
 71
     3
 72
    17
 73
    13
 74
     0
 42
0.0000000001
 43
0.0000000001
 12
1.0
 22
0.0
 32
0.0
 13
1.0
 23
0.0
 33
0.0
 40
0.0
 40
0.0
 40
0.0
 40
0.0
 40
1.0
 40
1.0
 40
1.0
 40
2.0
 40
2.0
 40
2.0
 40
3.0
 40
3.0
 40
3.0
 40
4.0
 40
4.0
 40
4.0
 40
4.0
 10
128.9384076538702
 20
157.9846209290367
 30
0.0
 10
128.9384076538702
 20
157.9846209290367
 30
0.0
 10
127.3201862623479
 20
157.5459206819551
 30
0.0
 10
127.3201862623479
 20
157.5459206819551
 30
0.0
 10
127.3201862623479
 20
157.5459206819551
 30
0.0
 10
127.3477078738723
 20
157.0521816173369
 30
0.0
 10
127.3477078738723
 20
157.0521816173369
 30
0.0
 10
127.3477078738723
 20
157.0521816173369
 30
0.0
 10
128.6642199994447
 20
157.4635659554502
 30
0.0
 10
129.0756043271653
 20
157.5183990704307
 30
0.0
 10
129.0756043271653
 20
157.5183990704307
 30
0.0
 10
128.6093824685593
 20
157.8201083363809
 30
0.0
 10
128.6093824685593
 20
157.8201083363809
 30
0.0
  0
SPLINE
  5
219
330
68
100
AcDbEntity
  8
Layer 1
 62
     7
420
 16777215
370
    15
100
AcDbSpline
210
0.0
220
0.0
230
1.0
 70
     8
 71
     3
 72
    17
 73
    13
 74
     0
 42
0.0000000001
 43
0.0000000001
 12
1.0
 22
0.0
 32
0.0
 13
1.0
 23
0.0
 33
0.0
 40
0.0
 40
0.0
 40
0.0
 40
0.0
 40
1.0
 40
1.0
 40
1.0
 40
2.0
 40
2.0
 40
2.0
 40
3.0
 40
3.0
 40
3.0
 40
4.0
 40
4.0
 40
4.0
 40
4.0
 10
130.3200007800877
 20
159.6199147701595
 30
0.0
 10
130.3200007800877
 20
159.6199147701595
 30
0.0
 10
128.701782830428
 20
159.1810088309141
 30
0.0
 10
128.701782830428
 20
159.1810088309141
 30
0.0
 10
128.701782830428
 20
159.1810088309141
 30
0.0
 10
128.7293010000898
 20
158.6874710529478
 30
0.0
 10
128.7293010000898
 20
158.6874710529478
 30
0.0
 10
128.7293010000898
 20
158.6874710529478
 30
0.0
 10
130.0458131256622
 20
159.0988553806684
 30
0.0
 10
130.4571974533828
 20
159.1536929115535
 30
0.0
 10
130.4571974533828
 20
159.1536929115535
 30
0.0
 10
129.9907699026128
 20
159.455402177504
 30
0.0
 10
129.9907699026128
 20
159.455402177504
 30
0.0
  0
POLYLINE
  5
21A
330
68
100
AcDbEntity
  8
Layer 1
 62
     7
420
 16777215
370
    15
100
AcDb2dPolyline
 66
     1
 10
0.0
 20
0.0
 30
0.0
  0
VERTEX
  5
21B
330
21A
100
AcDbEntity
  8
Layer 1
 62
     7
420
 16777215
370
    15
100
AcDbVertex
100
AcDb2dVertex
 10
125.4964783991284
 20
162.3385069614699
 30
0.0
  0
VERTEX
  5
21C
330
21A
100
AcDbEntity
  8
Layer 1
 62
     7
420
 16777215
370
    15
100
AcDbVertex
100
AcDb2dVertex
 10
123.8782570076061
 20
161.8722851028639
 30
0.0
  0
VERTEX
  5
21D
330
21A
100
AcDbEntity
  8
Layer 1
 62
     7
420
 16777215
370
    15
100
AcDbVertex
100
AcDb2dVertex
 10
123.9057786191305
 20
161.3785416327332
 30
0.0
  0
VERTEX
  5
21E
330
21A
100
AcDbEntity
  8
Layer 1
 62
     7
420
 16777215
370
    15
100
AcDbVertex
100
AcDb2dVertex
 10
125.4416408682437
 20
161.8174475719786
 30
0.0
  0
VERTEX
  5
21F
330
21A
100
AcDbEntity
  8
Layer 1
 62
     7
420
 16777215
370
    15
100
AcDbVertex
100
AcDb2dVertex
 10
125.002734928998
 20
162.1464727572898
 30
0.0
  0
SEQEND
  5
220
330
21A
100
AcDbEntity
  8
Layer 1
 62
     7
420
 16777215
370
    15
  0
POLYLINE
  5
221
330
68
100
AcDbEntity
  8
Layer 1
 62
     7
420
 16777215
370
    15
100
AcDb2dPolyline
 66
     1
 10
0.0
 20
0.0
 30
0.0
  0
VERTEX
  5
222
330
221
100
AcDbEntity
  8
Layer 1
 62
     7
420
 16777215
370
    15
100
AcDbVertex
100
AcDb2dVertex
 10
128.7051938784851
 20
163.1510321471511
 30
0.0
  0
VERTEX
  5
223
330
221
100
AcDbEntity
  8
Layer 1
 62
     7
420
 16777215
370
    15
100
AcDbVertex
100
AcDb2dVertex
 10
127.3065283026671
 20
162.7944853503155
 30
0.0
  0
VERTEX
  5
224
330
221
100
AcDbEntity
  8
Layer 1
 62
     7
420
 16777215
370
    15
100
AcDbVertex
100
AcDb2dVertex
 10
127.3340499141921
 20
162.3831010225948
 30
0.0
  0
VERTEX
  5
225
330
221
100
AcDbEntity
  8
Layer 1
 62
     7
420
 16777215
370
    15
100
AcDbVertex
100
AcDb2dVertex
 10
128.7875530208949
 20
162.7396478194301
 30
0.0
  0
VERTEX
  5
226
330
221
100
AcDbEntity
  8
Layer 1
 62
     7
420
 16777215
370
    15
100
AcDbVertex
100
AcDb2dVertex
 10
128.4310062240596
 20
162.9589979429713
 30
0.0
  0
SEQEND
  5
227
330
221
100
AcDbEntity
  8
Layer 1
 62
     7
420
 16777215
370
    15
  0
POLYLINE
  5
228
330
68
100
AcDbEntity
  8
Layer 1
 62
     7
420
 16777215
370
    15
100
AcDb2dPolyline
 66
     1
 10
0.0
 20
0.0
 30
0.0
  0
VERTEX
  5
229
330
228
100
AcDbEntity
  8
Layer 1
 62
     7
420
 16777215
370
    15
100
AcDbVertex
100
AcDb2dVertex
 10
131.8865934384816
 20
163.918963271708
 30
0.0
  0
VERTEX
  5
22A
330
228
100
AcDbEntity
  8
Layer 1
 62
     7
420
 16777215
370
    15
100
AcDbVertex
100
AcDb2dVertex
 10
130.3507311893684
 20
163.5348948633474
 30
0.0
  0
VERTEX
  5
22B
330
228
100
AcDbEntity
  8
Layer 1
 62
     7
420
 16777215
370
    15
100
AcDbVertex
100
AcDb2dVertex
 10
130.4057744124178
 20
163.1235105356267
 30
0.0
  0
VERTEX
  5
22C
330
228
100
AcDbEntity
  8
Layer 1
 62
     7
420
 16777215
370
    15
100
AcDbVertex
100
AcDb2dVertex
 10
132.0513117233011
 20
163.6172540057578
 30
0.0
  0
VERTEX
  5
22D
330
228
100
AcDbEntity
  8
Layer 1
 62
     7
420
 16777215
370
    15
100
AcDbVertex
100
AcDb2dVertex
 10
131.6672433149407
 20
163.8092882099373
 30
0.0
  0
SEQEND
  5
22E
330
228
100
AcDbEntity
  8
Layer 1
 62
     7
420
 16777215
370
    15
  0
POLYLINE
  5
22F
330
68
100
AcDbEntity
  8
Layer 1
 62
     7
420
 16777215
370
    15
100
AcDb2dPolyline
 66
     1
 10
0.0
 20
0.0
 30
0.0
  0
VERTEX
  5
230
330
22F
100
AcDbEntity
  8
Layer 1
 62
     7
420
 16777215
370
    15
100
AcDbVertex
100
AcDb2dVertex
 10
130.2685777391227
 20
162.2185884299391
 30
0.0
  0
VERTEX
  5
231
330
22F
100
AcDbEntity
  8
Layer 1
 62
     7
420
 16777215
370
    15
100
AcDbVertex
100
AcDb2dVertex
 10
128.5682028973541
 20
161.7523665713331
 30
0.0
  0
VERTEX
  5
232
330
22F
100
AcDbEntity
  8
Layer 1
 62
     7
420
 16777215
370
    15
100
AcDbVertex
100
AcDb2dVertex
 10
128.5682028973541
 20
161.3134606320877
 30
0.0
  0
VERTEX
  5
233
330
22F
100
AcDbEntity
  8
Layer 1
 62
     7
420
 16777215
370
    15
100
AcDbVertex
100
AcDb2dVertex
 10
130.1862185967129
 20
161.6975335633119
 30
0.0
  0
VERTEX
  5
234
330
22F
100
AcDbEntity
  8
Layer 1
 62
     7
420
 16777215
370
    15
100
AcDbVertex
100
AcDb2dVertex
 10
129.8845128025037
 20
162.0265542257592
 30
0.0
  0
SEQEND
  5
235
330
22F
100
AcDbEntity
  8
Layer 1
 62
     7
420
 16777215
370
    15
  0
POLYLINE
  5
236
330
68
100
AcDbEntity
  8
Layer 1
 62
     7
420
 16777215
370
    15
100
AcDb2dPolyline
 66
     1
 10
0.0
 20
0.0
 30
0.0
  0
VERTEX
  5
237
330
236
100
AcDbEntity
  8
Layer 1
 62
     7
420
 16777215
370
    15
100
AcDbVertex
100
AcDb2dVertex
 10
128.8150746324193
 20
160.4083328342366
 30
0.0
  0
VERTEX
  5
238
330
236
100
AcDbEntity
  8
Layer 1
 62
     7
420
 16777215
370
    15
100
AcDbVertex
100
AcDb2dVertex
 10
127.2516907717824
 20
159.9423166677944
 30
0.0
  0
VERTEX
  5
239
330
236
100
AcDbEntity
  8
Layer 1
 62
     7
420
 16777215
370
    15
100
AcDbVertex
100
AcDb2dVertex
 10
127.2516907717824
 20
159.448573197664
 30
0.0
  0
VERTEX
  5
23A
330
236
100
AcDbEntity
  8
Layer 1
 62
     7
420
 16777215
370
    15
100
AcDbVertex
100
AcDb2dVertex
 10
128.8699121633047
 20
159.8872734447453
 30
0.0
  0
VERTEX
  5
23B
330
236
100
AcDbEntity
  8
Layer 1
 62
     7
420
 16777215
370
    15
100
AcDbVertex
100
AcDb2dVertex
 10
128.5133688035718
 20
160.2713418531059
 30
0.0
  0
SEQEND
  5
23C
330
236
100
AcDbEntity
  8
Layer 1
 62
     7
420
 16777215
370
    15
  0
POLYLINE
  5
23D
330
68
100
AcDbEntity
  8
Layer 1
 62
     7
420
 16777215
370
    15
100
AcDb2dPolyline
 66
     1
 10
0.0
 20
0.0
 30
0.0
  0
VERTEX
  5
23E
330
23D
100
AcDbEntity
  8
Layer 1
 62
     7
420
 16777215
370
    15
100
AcDbVertex
100
AcDb2dVertex
 10
131.9689525808913
 20
158.8724705851241
 30
0.0
  0
VERTEX
  5
23F
330
23D
100
AcDbEntity
  8
Layer 1
 62
     7
420
 16777215
370
    15
100
AcDbVertex
100
AcDb2dVertex
 10
130.4330903317781
 20
158.406458858406
 30
0.0
  0
VERTEX
  5
240
330
23D
100
AcDbEntity
  8
Layer 1
 62
     7
420
 16777215
370
    15
100
AcDbVertex
100
AcDb2dVertex
 10
130.4606119433026
 20
157.9400268679118
 30
0.0
  0
VERTEX
  5
241
330
23D
100
AcDbEntity
  8
Layer 1
 62
     7
420
 16777215
370
    15
100
AcDbVertex
100
AcDb2dVertex
 10
131.8865934384816
 20
158.3789328071574
 30
0.0
  0
VERTEX
  5
242
330
23D
100
AcDbEntity
  8
Layer 1
 62
     7
420
 16777215
370
    15
100
AcDbVertex
100
AcDb2dVertex
 10
131.4478931913999
 20
158.6806420731074
 30
0.0
  0
SEQEND
  5
243
330
23D
100
AcDbEntity
  8
Layer 1
 62
     7
420
 16777215
370
    15
  0
POLYLINE
  5
244
330
68
100
AcDbEntity
  8
Layer 1
 62
     7
420
 16777215
370
    15
100
AcDb2dPolyline
 66
     1
 10
0.0
 20
0.0
 30
0.0
  0
VERTEX
  5
245
330
244
100
AcDbEntity
  8
Layer 1
 62
     7
420
 16777215
370
    15
100
AcDbVertex
100
AcDb2dVertex
 10
131.9689525808913
 20
161.3134606320877
 30
0.0
  0
VERTEX
  5
246
330
244
100
AcDbEntity
  8
Layer 1
 62
     7
420
 16777215
370
    15
100
AcDbVertex
100
AcDb2dVertex
 10
130.3782528008934
 20
160.8747648870857
 30
0.0
  0
VERTEX
  5
247
330
244
100
AcDbEntity
  8
Layer 1
 62
     7
420
 16777215
370
    15
100
AcDbVertex
100
AcDb2dVertex
 10
130.3782528008934
 20
160.381016914876
 30
0.0
  0
VERTEX
  5
248
330
244
100
AcDbEntity
  8
Layer 1
 62
     7
420
 16777215
370
    15
100
AcDbVertex
100
AcDb2dVertex
 10
131.9689525808913
 20
160.8197171619573
 30
0.0
  0
VERTEX
  5
249
330
244
100
AcDbEntity
  8
Layer 1
 62
     7
420
 16777215
370
    15
100
AcDbVertex
100
AcDb2dVertex
 10
131.5575682531707
 20
161.1214264279079
 30
0.0
  0
SEQEND
  5
24A
330
244
100
AcDbEntity
  8
Layer 1
 62
     7
420
 16777215
370
    15
  0
ENDBLK
  5
6B
330
68
100
AcDbEntity
  8
0
100
AcDbBlockEnd
  0
ENDSEC
  0
SECTION
  2
ENTITIES
  0
INSERT
  5
42
330
1F
100
AcDbEntity
  8
Layer 1
100
AcDbBlockReference
  2
block 2
 10
0.0
 20
0.0
 30
0.0
  0
INSERT
  5
69
330
1F
100
AcDbEntity
  8
Layer 1
100
AcDbBlockReference
  2
block 3
 10
0.0
 20
0.0
 30
0.0
  0
MTEXT
  5
24C
330
1F
100
AcDbEntity
  8
callout
 62
   250
420
  2301728
100
AcDbMText
 10
90.74506931155581
 20
101.6861260159908
 30
0.0
 40
2.9971999992507
 41
0.0
 46
0.0
 71
     7
 72
     1
  1
\fHelvetica Neue LT Std 55 Roman|b0|i0|c0|p34;\W1;SIMPSON Strong-Tie\H1.74737;®\H2.9972; ^C
 73
     1
 44
1.0
  0
MTEXT
  5
24D
330
1F
100
AcDbEntity
  8
callout
 62
   250
420
  2301728
100
AcDbMText
 10
97.02616740026332
 20
96.60633272298995
 30
0.0
 40
2.9971999992507
 41
0.0
 46
0.0
 71
     7
 72
     1
  1
\fHelvetica Neue LT Std 55 Roman|b0|i0|c0|p34;\W1;TCP Installation
 73
     1
 44
1.0
  0
MTEXT
  5
24E
330
1F
100
AcDbEntity
  8
callout
 62
   250
420
  2236191
100
AcDbMText
 10
97.37640980299423
 20
115.4420706566321
 30
0.0
 40
2.9971999992507
 41
0.0
 46
0.0
 71
     7
 72
     1
  1
\fHelvetica Neue LT Std 57 Condensed|b0|i0|c0|p34;\W1;TCP47
 73
     1
 44
1.0
  0
MTEXT
  5
24F
330
1F
100
AcDbEntity
  8
callout
 62
   250
420
  2236191
100
AcDbMText
 10
81.27262586045306
 20
160.8117819490006
 30
0.0
 40
2.9971999992507
 41
0.0
 46
0.0
 71
     7
 72
     1
  1
\fHelvetica Neue LT Std 57 Condensed|b0|i0|c0|p34;\W1;Top Plate
 73
     1
 44
1.0
  0
MTEXT
  5
250
330
1F
100
AcDbEntity
  8
callout
 62
   250
420
  2236191
100
AcDbMText
 10
90.5533632052059
 20
169.4605488247545
 30
0.0
 40
2.9971999992507
 41
0.0
 46
0.0
 71
     7
 72
     1
  1
\fHelvetica Neue LT Std 57 Condensed|b0|i0|c0|p34;\W1;Truss / Rafter
 73
     1
 44
1.0
  0
POLYLINE
  5
251
330
1F
100
AcDbEntity
  8
callout
 62
   250
420
  2236191
370
    18
100
AcDb2dPolyline
 66
     1
 10
0.0
 20
0.0
 30
0.0
  0
VERTEX
  5
252
330
251
100
AcDbEntity
  8
callout
 62
   250
420
  2236191
370
    18
100
AcDbVertex
100
AcDb2dVertex
 10
100.5701164623125
 20
120.3668563720229
 30
0.0
  0
VERTEX
  5
253
330
251
100
AcDbEntity
  8
callout
 62
   250
420
  2236191
370
    18
100
AcDbVertex
100
AcDb2dVertex
 10
109.6444209761153
 20
135.5247461361616
 30
0.0
  0
SEQEND
  5
254
330
251
100
AcDbEntity
  8
callout
 62
   250
420
  2236191
370
    18
  0
POLYLINE
  5
255
330
1F
100
AcDbEntity
  8
callout
 62
   250
420
  2236191
370
    18
100
AcDb2dPolyline
 66
     1
 10
0.0
 20
0.0
 30
0.0
  0
VERTEX
  5
256
330
255
100
AcDbEntity
  8
callout
 62
   250
420
  2236191
370
    18
100
AcDbVertex
100
AcDb2dVertex
 10
102.2147377114862
 20
167.9152475493077
 30
0.0
  0
VERTEX
  5
257
330
255
100
AcDbEntity
  8
callout
 62
   250
420
  2236191
370
    18
100
AcDbVertex
100
AcDb2dVertex
 10
105.7148723599084
 20
160.8119360702016
 30
0.0
  0
SEQEND
  5
258
330
255
100
AcDbEntity
  8
callout
 62
   250
420
  2236191
370
    18
  0
POLYLINE
  5
259
330
1F
100
AcDbEntity
  8
callout
 62
   250
420
  2236191
370
    18
100
AcDb2dPolyline
 66
     1
 10
0.0
 20
0.0
 30
0.0
  0
VERTEX
  5
25A
330
259
100
AcDbEntity
  8
callout
 62
   250
420
  2236191
370
    18
100
AcDbVertex
100
AcDb2dVertex
 10
87.48440196399446
 20
158.8451546657631
 30
0.0
  0
VERTEX
  5
25B
330
259
100
AcDbEntity
  8
callout
 62
   250
420
  2236191
370
    18
100
AcDbVertex
100
AcDb2dVertex
 10
89.31860928772785
 20
149.3977958565201
 30
0.0
  0
SEQEND
  5
25C
330
259
100
AcDbEntity
  8
callout
 62
   250
420
  2236191
370
    18
  0
ENDSEC
  0
SECTION
  2
OBJECTS
  0
DICTIONARY
  5
C
330
0
100
AcDbDictionary
281
     1
  3
ACAD_GROUP
350
D
  3
ACAD_LAYOUT
350
1A
  3
ACAD_MATERIAL
350
3B
  3
ACAD_MLEADERSTYLE
350
25F
  3
ACAD_MLINESTYLE
350
17
  3
ACAD_PLOTSETTINGS
350
19
  3
ACAD_PLOTSTYLENAME
350
E
  3
ACAD_TABLESTYLE
350
25E
  3
ACAD_VISUALSTYLE
350
2A
  0
SUN
  5
3F
330
29
100
AcDbSun
 90
        1
290
     0
 63
     7
421
 16777215
 40
1.0
291
     1
 91
  2455826
 92
 54000000
292
     0
 70
     2
 71
   256
280
     1
  0
DICTIONARY
  5
D
102
{ACAD_REACTORS
330
C
102
}
330
C
100
AcDbDictionary
281
     1
  0
DICTIONARY
  5
1A
102
{ACAD_REACTORS
330
C
102
}
330
C
100
AcDbDictionary
281
     1
  3
Layout1
350
1E
  3
Layout2
350
26
  3
Model
350
22
  0
DICTIONARY
  5
3B
102
{ACAD_REACTORS
330
C
102
}
330
C
100
AcDbDictionary
281
     1
  3
ByBlock
350
3D
  3
ByLayer
350
3C
  3
Global
350
3E
  0
DICTIONARY
  5
25F
102
{ACAD_REACTORS
330
C
102
}
330
C
100
AcDbDictionary
281
     1
  0
DICTIONARY
  5
17
102
{ACAD_REACTORS
330
C
102
}
330
C
100
AcDbDictionary
281
     1
  3
Standard
350
18
  0
DICTIONARY
  5
19
102
{ACAD_REACTORS
330
C
102
}
330
C
100
AcDbDictionary
281
     1
  0
ACDBDICTIONARYWDFLT
  5
E
102
{ACAD_REACTORS
330
C
102
}
330
C
100
AcDbDictionary
281
     1
  3
Normal
350
F
100
AcDbDictionaryWithDefault
340
F
  0
DICTIONARY
  5
25E
102
{ACAD_REACTORS
330
C
102
}
330
C
100
AcDbDictionary
281
     1
  0
DICTIONARY
  5
2A
102
{ACAD_REACTORS
330
C
102
}
330
C
100
AcDbDictionary
281
     1
  3
2dWireframe
350
2F
  3
3D Hidden
350
31
  3
3dWireframe
350
30
  3
Basic
350
32
  3
Brighten
350
36
  3
ColorChange
350
3A
  3
Conceptual
350
34
  3
Dim
350
35
  3
Facepattern
350
39
  3
Flat
350
2B
  3
FlatWithEdges
350
2C
  3
Gouraud
350
2D
  3
GouraudWithEdges
350
2E
  3
Linepattern
350
38
  3
Realistic
350
33
  3
Thicken
350
37
  0
LAYOUT
  5
1E
102
{ACAD_REACTORS
330
1A
102
}
330
1A
100
AcDbPlotSettings
  1

  2
none_device
  4

  6

 40
0.0
 41
0.0
 42
0.0
 43
0.0
 44
0.0
 45
0.0
 46
0.0
 47
0.0
 48
0.0
 49
0.0
140
0.0
141
0.0
142
1.0
143
1.0
 70
   688
 72
     0
 73
     0
 74
     5
  7

 75
    16
 76
     0
 77
     2
 78
   300
147
1.0
148
0.0
149
0.0
100
AcDbLayout
  1
Layout1
 70
     1
 71
     1
 10
0.0
 20
0.0
 11
12.0
 21
9.0
 12
0.0
 22
0.0
 32
0.0
 14
1.000000000000000E+20
 24
1.000000000000000E+20
 34
1.000000000000000E+20
 15
-1.000000000000000E+20
 25
-1.000000000000000E+20
 35
-1.000000000000000E+20
146
0.0
 13
0.0
 23
0.0
 33
0.0
 16
1.0
 26
0.0
 36
0.0
 17
0.0
 27
1.0
 37
0.0
 76
     0
330
1B
  0
LAYOUT
  5
26
102
{ACAD_REACTORS
330
1A
102
}
330
1A
100
AcDbPlotSettings
  1

  2
none_device
  4

  6

 40
0.0
 41
0.0
 42
0.0
 43
0.0
 44
0.0
 45
0.0
 46
0.0
 47
0.0
 48
0.0
 49
0.0
140
0.0
141
0.0
142
1.0
143
1.0
 70
   688
 72
     0
 73
     0
 74
     5
  7

 75
    16
 76
     0
 77
     2
 78
   300
147
1.0
148
0.0
149
0.0
100
AcDbLayout
  1
Layout2
 70
     1
 71
     2
 10
0.0
 20
0.0
 11
0.0
 21
0.0
 12
0.0
 22
0.0
 32
0.0
 14
0.0
 24
0.0
 34
0.0
 15
0.0
 25
0.0
 35
0.0
146
0.0
 13
0.0
 23
0.0
 33
0.0
 16
1.0
 26
0.0
 36
0.0
 17
0.0
 27
1.0
 37
0.0
 76
     0
330
23
  0
LAYOUT
  5
22
102
{ACAD_REACTORS
330
1A
102
}
330
1A
100
AcDbPlotSettings
  1

  2
none_device
  4

  6

 40
0.0
 41
0.0
 42
0.0
 43
0.0
 44
0.0
 45
0.0
 46
0.0
 47
0.0
 48
0.0
 49
0.0
140
0.0
141
0.0
142
1.0
143
1.0
 70
  1712
 72
     0
 73
     0
 74
     0
  7

 75
     0
 76
     0
 77
     2
 78
   300
147
1.0
148
0.0
149
0.0
100
AcDbLayout
  1
Model
 70
     1
 71
     0
 10
0.0
 20
0.0
 11
12.0
 21
9.0
 12
0.0
 22
0.0
 32
0.0
 14
1.000000000000000E+20
 24
1.000000000000000E+20
 34
1.000000000000000E+20
 15
-1.000000000000000E+20
 25
-1.000000000000000E+20
 35
-1.000000000000000E+20
146
0.0
 13
0.0
 23
0.0
 33
0.0
 16
1.0
 26
0.0
 36
0.0
 17
0.0
 27
1.0
 37
0.0
 76
     0
330
1F
331
29
  0
MATERIAL
  5
3D
102
{ACAD_REACTORS
330
3B
102
}
330
3B
100
AcDbMaterial
  1
ByBlock
 72
     1
 94
      127
  0
MATERIAL
  5
3C
102
{ACAD_REACTORS
330
3B
102
}
330
3B
100
AcDbMaterial
  1
ByLayer
 72
     1
 94
      127
  0
MATERIAL
  5
3E
102
{ACAD_REACTORS
330
3B
102
}
330
3B
100
AcDbMaterial
  1
Global
 72
     1
 94
      127
  0
MLINESTYLE
  5
18
102
{ACAD_REACTORS
330
17
102
}
330
17
100
AcDbMlineStyle
  2
Standard
 70
     0
  3

 62
   256
 51
90.0
 52
90.0
 71
     2
 49
0.5
 62
   256
  6
BYLAYER
 49
-0.5
 62
   256
  6
BYLAYER
  0
ACDBPLACEHOLDER
  5
F
102
{ACAD_REACTORS
330
E
102
}
330
E
  0
VISUALSTYLE
  5
2F
102
{ACAD_REACTORS
330
2A
102
}
330
2A
100
AcDbVisualStyle
  2
2dWireframe
 70
     4
177
     2
291
     0
 71
     0
176
     1
 72
     2
176
     1
 73
     0
176
     1
 90
        0
176
     1
 40
-0.6
176
     1
 41
-30.0
176
     1
 62
     5
 63
     7
421
 16777215
176
     1
 74
     1
176
     1
 91
        4
176
     1
 64
     7
176
     1
 65
   257
176
     1
 75
     1
176
     1
175
     1
176
     1
 42
1.0
176
     1
 92
        0
176
     1
 66
   257
176
     1
 43
1.0
176
     1
 76
     1
176
     1
 77
     6
176
     1
 78
     2
176
     1
 67
     7
176
     1
 79
     5
176
     1
170
     0
176
     1
171
     0
176
     1
290
     0
176
     1
 93
        1
176
     1
 44
0.0
176
     1
173
     0
176
     1
  0
VISUALSTYLE
  5
31
102
{ACAD_REACTORS
330
2A
102
}
330
2A
100
AcDbVisualStyle
  2
3D Hidden
 70
     6
177
     2
291
     0
 71
     1
176
     1
 72
     2
176
     1
 73
     2
176
     1
 90
        0
176
     1
 40
-0.6
176
     1
 41
-30.0
176
     1
 62
     5
 63
     7
421
 16777215
176
     1
 74
     2
176
     1
 91
        2
176
     1
 64
     7
176
     1
 65
   257
176
     1
 75
     2
176
     1
175
     1
176
     1
 42
40.0
176
     1
 92
        0
176
     1
 66
   257
176
     1
 43
1.0
176
     1
 76
     1
176
     1
 77
     6
176
     1
 78
     2
176
     1
 67
     7
176
     1
 79
     3
176
     1
170
     0
176
     1
171
     0
176
     1
290
     0
176
     1
 93
        1
176
     1
 44
0.0
176
     1
173
     0
176
     1
  0
VISUALSTYLE
  5
30
102
{ACAD_REACTORS
330
2A
102
}
330
2A
100
AcDbVisualStyle
  2
3dWireframe
 70
     5
177
     2
291
     0
 71
     0
176
     1
 72
     2
176
     1
 73
     0
176
     1
 90
        0
176
     1
 40
-0.6
176
     1
 41
-30.0
176
     1
 62
     5
 63
     7
421
 16777215
176
     1
 74
     1
176
     1
 91
        4
176
     1
 64
     7
176
     1
 65
   257
176
     1
 75
     1
176
     1
175
     1
176
     1
 42
1.0
176
     1
 92
        0
176
     1
 66
   257
176
     1
 43
1.0
176
     1
 76
     1
176
     1
 77
     6
176
     1
 78
     2
176
     1
 67
     7
176
     1
 79
     5
176
     1
170
     0
176
     1
171
     0
176
     1
290
     0
176
     1
 93
        1
176
     1
 44
0.0
176
     1
173
     0
176
     1
  0
VISUALSTYLE
  5
32
102
{ACAD_REACTORS
330
2A
102
}
330
2A
100
AcDbVisualStyle
  2
Basic
 70
     7
177
     2
291
     1
 71
     1
176
     1
 72
     0
176
     1
 73
     1
176
     1
 90
        0
176
     1
 40
-0.6
176
     1
 41
-30.0
176
     1
 62
     5
 63
     7
421
 16777215
176
     1
 74
     0
176
     1
 91
        4
176
     1
 64
     7
176
     1
 65
   257
176
     1
 75
     1
176
     1
175
     1
176
     1
 42
1.0
176
     1
 92
        8
176
     1
 66
     7
176
     1
 43
1.0
176
     1
 76
     1
176
     1
 77
     6
176
     1
 78
     2
176
     1
 67
     7
176
     1
 79
     5
176
     1
170
     0
176
     1
171
     0
176
     1
290
     0
176
     1
 93
        1
176
     1
 44
0.0
176
     1
173
     0
176
     1
  0
VISUALSTYLE
  5
36
102
{ACAD_REACTORS
330
2A
102
}
330
2A
100
AcDbVisualStyle
  2
Brighten
 70
    12
177
     2
291
     1
 71
     2
176
     1
 72
     2
176
     1
 73
     0
176
     1
 90
        0
176
     1
 40
-0.6
176
     1
 41
-30.0
176
     1
 62
     5
 63
     7
421
 16777215
176
     1
 74
     1
176
     1
 91
        4
176
     1
 64
     7
176
     1
 65
   257
176
     1
 75
     1
176
     1
175
     1
176
     1
 42
1.0
176
     1
 92
        8
176
     1
 66
     7
176
     1
 43
1.0
176
     1
 76
     1
176
     1
 77
     6
176
     1
 78
     2
176
     1
 67
     7
176
     1
 79
     5
176
     1
170
     0
176
     1
171
     0
176
     1
290
     0
176
     1
 93
        1
176
     1
 44
50.0
176
     1
173
     0
176
     1
  0
VISUALSTYLE
  5
3A
102
{ACAD_REACTORS
330
2A
102
}
330
2A
100
AcDbVisualStyle
  2
ColorChange
 70
    16
177
     2
291
     1
 71
     2
176
     1
 72
     2
176
     1
 73
     3
176
     1
 90
        0
176
     1
 40
-0.6
176
     1
 41
-30.0
176
     1
 62
     5
 63
     8
421
  8421504
176
     1
 74
     1
176
     1
 91
        4
176
     1
 64
     7
176
     1
 65
   257
176
     1
 75
     1
176
     1
175
     1
176
     1
 42
1.0
176
     1
 92
        8
176
     1
 66
     8
424
  8421504
176
     1
 43
1.0
176
     1
 76
     1
176
     1
 77
     6
176
     1
 78
     2
176
     1
 67
     7
176
     1
 79
     5
176
     1
170
     0
176
     1
171
     0
176
     1
290
     0
176
     1
 93
        1
176
     1
 44
0.0
176
     1
173
     0
176
     1
  0
VISUALSTYLE
  5
34
102
{ACAD_REACTORS
330
2A
102
}
330
2A
100
AcDbVisualStyle
  2
Conceptual
 70
     9
177
     2
291
     0
 71
     3
176
     1
 72
     2
176
     1
 73
     0
176
     1
 90
        0
176
     1
 40
-0.6
176
     1
 41
-30.0
176
     1
 62
     5
 63
     7
421
 16777215
176
     1
 74
     2
176
     1
 91
        2
176
     1
 64
     7
176
     1
 65
   257
176
     1
 75
     1
176
     1
175
     1
176
     1
 42
40.0
176
     1
 92
        8
176
     1
 66
     7
176
     1
 43
1.0
176
     1
 76
     1
176
     1
 77
     6
176
     1
 78
     2
176
     1
 67
     7
176
     1
 79
     3
176
     1
170
     0
176
     1
171
     0
176
     1
290
     0
176
     1
 93
        1
176
     1
 44
0.0
176
     1
173
     0
176
     1
  0
VISUALSTYLE
  5
35
102
{ACAD_REACTORS
330
2A
102
}
330
2A
100
AcDbVisualStyle
  2
Dim
 70
    11
177
     2
291
     1
 71
     2
176
     1
 72
     2
176
     1
 73
     0
176
     1
 90
        0
176
     1
 40
-0.6
176
     1
 41
-30.0
176
     1
 62
     5
 63
     7
421
 16777215
176
     1
 74
     1
176
     1
 91
        4
176
     1
 64
     7
176
     1
 65
   257
176
     1
 75
     1
176
     1
175
     1
176
     1
 42
1.0
176
     1
 92
        8
176
     1
 66
     7
176
     1
 43
1.0
176
     1
 76
     1
176
     1
 77
     6
176
     1
 78
     2
176
     1
 67
     7
176
     1
 79
     5
176
     1
170
     0
176
     1
171
     0
176
     1
290
     0
176
     1
 93
        1
176
     1
 44
-50.0
176
     1
173
     0
176
     1
  0
VISUALSTYLE
  5
39
102
{ACAD_REACTORS
330
2A
102
}
330
2A
100
AcDbVisualStyle
  2
Facepattern
 70
    15
177
     2
291
     1
 71
     2
176
     1
 72
     2
176
     1
 73
     0
176
     1
 90
        0
176
     1
 40
-0.6
176
     1
 41
-30.0
176
     1
 62
     5
 63
     7
421
 16777215
176
     1
 74
     1
176
     1
 91
        4
176
     1
 64
     7
176
     1
 65
   257
176
     1
 75
     1
176
     1
175
     1
176
     1
 42
1.0
176
     1
 92
        8
176
     1
 66
     7
176
     1
 43
1.0
176
     1
 76
     1
176
     1
 77
     6
176
     1
 78
     2
176
     1
 67
     7
176
     1
 79
     5
176
     1
170
     0
176
     1
171
     0
176
     1
290
     0
176
     1
 93
        1
176
     1
 44
0.0
176
     1
173
     0
176
     1
  0
VISUALSTYLE
  5
2B
102
{ACAD_REACTORS
330
2A
102
}
330
2A
100
AcDbVisualStyle
  2
Flat
 70
     0
177
     2
291
     1
 71
     2
176
     1
 72
     1
176
     1
 73
     1
176
     1
 90
        2
176
     1
 40
-0.6
176
     1
 41
30.0
176
     1
 62
     5
 63
     7
421
 16777215
176
     1
 74
     0
176
     1
 91
        4
176
     1
 64
     7
176
     1
 65
   257
176
     1
 75
     1
176
     1
175
     1
176
     1
 42
1.0
176
     1
 92
        8
176
     1
 66
     7
176
     1
 43
1.0
176
     1
 76
     1
176
     1
 77
     6
176
     1
 78
     2
176
     1
 67
     7
176
     1
 79
     5
176
     1
170
     0
176
     1
171
     0
176
     1
290
     0
176
     1
 93
       13
176
     1
 44
0.0
176
     1
173
     0
176
     1
  0
VISUALSTYLE
  5
2C
102
{ACAD_REACTORS
330
2A
102
}
330
2A
100
AcDbVisualStyle
  2
FlatWithEdges
 70
     1
177
     2
291
     1
 71
     2
176
     1
 72
     1
176
     1
 73
     1
176
     1
 90
        2
176
     1
 40
-0.6
176
     1
 41
30.0
176
     1
 62
     5
 63
     7
421
 16777215
176
     1
 74
     1
176
     1
 91
        4
176
     1
 64
     7
176
     1
 65
   257
176
     1
 75
     1
176
     1
175
     1
176
     1
 42
1.0
176
     1
 92
        0
176
     1
 66
   257
176
     1
 43
1.0
176
     1
 76
     1
176
     1
 77
     6
176
     1
 78
     2
176
     1
 67
     7
176
     1
 79
     5
176
     1
170
     0
176
     1
171
     0
176
     1
290
     0
176
     1
 93
       13
176
     1
 44
0.0
176
     1
173
     0
176
     1
  0
VISUALSTYLE
  5
2D
102
{ACAD_REACTORS
330
2A
102
}
330
2A
100
AcDbVisualStyle
  2
Gouraud
 70
     2
177
     2
291
     1
 71
     2
176
     1
 72
     2
176
     1
 73
     1
176
     1
 90
        2
176
     1
 40
-0.6
176
     1
 41
30.0
176
     1
 62
     5
 63
     7
421
 16777215
176
     1
 74
     0
176
     1
 91
        4
176
     1
 64
     7
176
     1
 65
   257
176
     1
 75
     1
176
     1
175
     1
176
     1
 42
1.0
176
     1
 92
        0
176
     1
 66
     7
176
     1
 43
1.0
176
     1
 76
     1
176
     1
 77
     6
176
     1
 78
     2
176
     1
 67
     7
176
     1
 79
     5
176
     1
170
     0
176
     1
171
     0
176
     1
290
     0
176
     1
 93
       13
176
     1
 44
0.0
176
     1
173
     0
176
     1
  0
VISUALSTYLE
  5
2E
102
{ACAD_REACTORS
330
2A
102
}
330
2A
100
AcDbVisualStyle
  2
GouraudWithEdges
 70
     3
177
     2
291
     1
 71
     2
176
     1
 72
     2
176
     1
 73
     1
176
     1
 90
        2
176
     1
 40
-0.6
176
     1
 41
30.0
176
     1
 62
     5
 63
     7
421
 16777215
176
     1
 74
     1
176
     1
 91
        4
176
     1
 64
     7
176
     1
 65
   257
176
     1
 75
     1
176
     1
175
     1
176
     1
 42
1.0
176
     1
 92
        0
176
     1
 66
   257
176
     1
 43
1.0
176
     1
 76
     1
176
     1
 77
     6
176
     1
 78
     2
176
     1
 67
     7
176
     1
 79
     5
176
     1
170
     0
176
     1
171
     0
176
     1
290
     0
176
     1
 93
       13
176
     1
 44
0.0
176
     1
173
     0
176
     1
  0
VISUALSTYLE
  5
38
102
{ACAD_REACTORS
330
2A
102
}
330
2A
100
AcDbVisualStyle
  2
Linepattern
 70
    14
177
     2
291
     1
 71
     2
176
     1
 72
     2
176
     1
 73
     0
176
     1
 90
        0
176
     1
 40
-0.6
176
     1
 41
-30.0
176
     1
 62
     5
 63
     7
421
 16777215
176
     1
 74
     1
176
     1
 91
        4
176
     1
 64
     7
176
     1
 65
   257
176
     1
 75
     7
176
     1
175
     7
176
     1
 42
1.0
176
     1
 92
        8
176
     1
 66
     7
176
     1
 43
1.0
176
     1
 76
     1
176
     1
 77
     6
176
     1
 78
     2
176
     1
 67
     7
176
     1
 79
     5
176
     1
170
     0
176
     1
171
     0
176
     1
290
     0
176
     1
 93
        1
176
     1
 44
0.0
176
     1
173
     0
176
     1
  0
VISUALSTYLE
  5
33
102
{ACAD_REACTORS
330
2A
102
}
330
2A
100
AcDbVisualStyle
  2
Realistic
 70
     8
177
     2
291
     0
 71
     2
176
     1
 72
     2
176
     1
 73
     0
176
     1
 90
        0
176
     1
 40
-0.6
176
     1
 41
-30.0
176
     1
 62
     5
 63
     7
421
 16777215
176
     1
 74
     1
176
     1
 91
        0
176
     1
 64
     7
176
     1
 65
   257
176
     1
 75
     1
176
     1
175
     1
176
     1
 42
1.0
176
     1
 92
        8
176
     1
 66
     8
424
  7895160
176
     1
 43
1.0
176
     1
 76
     1
176
     1
 77
     6
176
     1
 78
     2
176
     1
 67
     7
176
     1
 79
     5
176
     1
170
     0
176
     1
171
     0
176
     1
290
     0
176
     1
 93
       13
176
     1
 44
0.0
176
     1
173
     0
176
     1
  0
VISUALSTYLE
  5
37
102
{ACAD_REACTORS
330
2A
102
}
330
2A
100
AcDbVisualStyle
  2
Thicken
 70
    13
177
     2
291
     1
 71
     2
176
     1
 72
     2
176
     1
 73
     0
176
     1
 90
        0
176
     1
 40
-0.6
176
     1
 41
-30.0
176
     1
 62
     5
 63
     7
421
 16777215
176
     1
 74
     1
176
     1
 91
        4
176
     1
 64
     7
176
     1
 65
   257
176
     1
 75
     1
176
     1
175
     1
176
     1
 42
1.0
176
     1
 92
       12
176
     1
 66
     7
176
     1
 43
1.0
176
     1
 76
     1
176
     1
 77
     6
176
     1
 78
     2
176
     1
 67
     7
176
     1
 79
     5
176
     1
170
     0
176
     1
171
     0
176
     1
290
     0
176
     1
 93
        1
176
     1
 44
0.0
176
     1
173
     0
176
     1
  0
ENDSEC
  0
EOF
