  0
SECTION
  2
HEADER
  9
$ACADVER
  1
AC1024
  9
$ACADMAINTVER
 70
     6
  9
$DWGCODEPAGE
  3
ANSI_1252
  9
$INSBASE
 10
0.0
 20
0.0
 30
0.0
  9
$EXTMIN
 10
1.000000000000000E+20
 20
1.000000000000000E+20
 30
1.000000000000000E+20
  9
$EXTMAX
 10
-1.000000000000000E+20
 20
-1.000000000000000E+20
 30
-1.000000000000000E+20
  9
$LIMMIN
 10
0.0
 20
0.0
  9
$LIMMAX
 10
12.0
 20
9.0
  9
$ORTHOMODE
 70
     0
  9
$REGENMODE
 70
     1
  9
$FILLMODE
 70
     1
  9
$QTEXTMODE
 70
     0
  9
$MIRRTEXT
 70
     1
  9
$LTSCALE
 40
1.0
  9
$ATTMODE
 70
     1
  9
$TEXTSIZE
 40
0.2
  9
$TRACEWID
 40
0.05
  9
$TEXTSTYLE
  7
Standard
  9
$CLAYER
  8
0
  9
$CELTYPE
  6
ByLayer
  9
$CECOLOR
 62
   256
  9
$CELTSCALE
 40
1.0
  9
$DISPSILH
 70
     0
  9
$DIMSCALE
 40
1.0
  9
$DIMASZ
 40
0.18
  9
$DIMEXO
 40
0.0625
  9
$DIMDLI
 40
0.38
  9
$DIMRND
 40
0.0
  9
$DIMDLE
 40
0.0
  9
$DIMEXE
 40
0.18
  9
$DIMTP
 40
0.0
  9
$DIMTM
 40
0.0
  9
$DIMTXT
 40
0.18
  9
$DIMCEN
 40
0.09
  9
$DIMTSZ
 40
0.0
  9
$DIMTOL
 70
     0
  9
$DIMLIM
 70
     0
  9
$DIMTIH
 70
     1
  9
$DIMTOH
 70
     1
  9
$DIMSE1
 70
     0
  9
$DIMSE2
 70
     0
  9
$DIMTAD
 70
     0
  9
$DIMZIN
 70
     0
  9
$DIMBLK
  1

  9
$DIMASO
 70
     1
  9
$DIMSHO
 70
     1
  9
$DIMPOST
  1

  9
$DIMAPOST
  1

  9
$DIMALT
 70
     0
  9
$DIMALTD
 70
     2
  9
$DIMALTF
 40
25.4
  9
$DIMLFAC
 40
1.0
  9
$DIMTOFL
 70
     0
  9
$DIMTVP
 40
0.0
  9
$DIMTIX
 70
     0
  9
$DIMSOXD
 70
     0
  9
$DIMSAH
 70
     0
  9
$DIMBLK1
  1

  9
$DIMBLK2
  1

  9
$DIMSTYLE
  2
Standard
  9
$DIMCLRD
 70
     0
  9
$DIMCLRE
 70
     0
  9
$DIMCLRT
 70
     0
  9
$DIMTFAC
 40
1.0
  9
$DIMGAP
 40
0.09
  9
$DIMJUST
 70
     0
  9
$DIMSD1
 70
     0
  9
$DIMSD2
 70
     0
  9
$DIMTOLJ
 70
     1
  9
$DIMTZIN
 70
     0
  9
$DIMALTZ
 70
     0
  9
$DIMALTTZ
 70
     0
  9
$DIMUPT
 70
     0
  9
$DIMDEC
 70
     4
  9
$DIMTDEC
 70
     4
  9
$DIMALTU
 70
     2
  9
$DIMALTTD
 70
     2
  9
$DIMTXSTY
  7
Standard
  9
$DIMAUNIT
 70
     0
  9
$DIMADEC
 70
     0
  9
$DIMALTRND
 40
0.0
  9
$DIMAZIN
 70
     0
  9
$DIMDSEP
 70
    46
  9
$DIMATFIT
 70
     3
  9
$DIMFRAC
 70
     0
  9
$DIMLDRBLK
  1

  9
$DIMLUNIT
 70
     2
  9
$DIMLWD
 70
    -2
  9
$DIMLWE
 70
    -2
  9
$DIMTMOVE
 70
     0
  9
$DIMFXL
 40
1.0
  9
$DIMFXLON
 70
     0
  9
$DIMJOGANG
 40
0.7853981633974483
  9
$DIMTFILL
 70
     0
  9
$DIMTFILLCLR
 70
     0
  9
$DIMARCSYM
 70
     0
  9
$DIMLTYPE
  6

  9
$DIMLTEX1
  6

  9
$DIMLTEX2
  6

  9
$DIMTXTDIRECTION
 70
     0
  9
$LUNITS
 70
     2
  9
$LUPREC
 70
     4
  9
$SKETCHINC
 40
0.1
  9
$FILLETRAD
 40
0.5
  9
$AUNITS
 70
     0
  9
$AUPREC
 70
     0
  9
$MENU
  1
.
  9
$ELEVATION
 40
0.0
  9
$PELEVATION
 40
0.0
  9
$THICKNESS
 40
0.0
  9
$LIMCHECK
 70
     0
  9
$CHAMFERA
 40
0.5
  9
$CHAMFERB
 40
0.5
  9
$CHAMFERC
 40
1.0
  9
$CHAMFERD
 40
0.0
  9
$SKPOLY
 70
     0
  9
$TDCREATE
 40
2458744.563280058
  9
$TDUCREATE
 40
2458744.063280058
  9
$TDUPDATE
 40
2458744.563280255
  9
$TDUUPDATE
 40
2458744.063280255
  9
$TDINDWG
 40
0.0000000116
  9
$TDUSRTIMER
 40
0.0000000116
  9
$USRTIMER
 70
     1
  9
$ANGBASE
 50
0.0
  9
$ANGDIR
 70
     0
  9
$PDMODE
 70
     0
  9
$PDSIZE
 40
0.0
  9
$PLINEWID
 40
0.0
  9
$SPLFRAME
 70
     0
  9
$SPLINETYPE
 70
     6
  9
$SPLINESEGS
 70
     8
  9
$HANDSEED
  5
500
  9
$SURFTAB1
 70
     6
  9
$SURFTAB2
 70
     6
  9
$SURFTYPE
 70
     6
  9
$SURFU
 70
     6
  9
$SURFV
 70
     6
  9
$UCSBASE
  2

  9
$UCSNAME
  2

  9
$UCSORG
 10
0.0
 20
0.0
 30
0.0
  9
$UCSXDIR
 10
1.0
 20
0.0
 30
0.0
  9
$UCSYDIR
 10
0.0
 20
1.0
 30
0.0
  9
$UCSORTHOREF
  2

  9
$UCSORTHOVIEW
 70
     0
  9
$UCSORGTOP
 10
0.0
 20
0.0
 30
0.0
  9
$UCSORGBOTTOM
 10
0.0
 20
0.0
 30
0.0
  9
$UCSORGLEFT
 10
0.0
 20
0.0
 30
0.0
  9
$UCSORGRIGHT
 10
0.0
 20
0.0
 30
0.0
  9
$UCSORGFRONT
 10
0.0
 20
0.0
 30
0.0
  9
$UCSORGBACK
 10
0.0
 20
0.0
 30
0.0
  9
$PUCSBASE
  2

  9
$PUCSNAME
  2

  9
$PUCSORG
 10
0.0
 20
0.0
 30
0.0
  9
$PUCSXDIR
 10
1.0
 20
0.0
 30
0.0
  9
$PUCSYDIR
 10
0.0
 20
1.0
 30
0.0
  9
$PUCSORTHOREF
  2

  9
$PUCSORTHOVIEW
 70
     0
  9
$PUCSORGTOP
 10
0.0
 20
0.0
 30
0.0
  9
$PUCSORGBOTTOM
 10
0.0
 20
0.0
 30
0.0
  9
$PUCSORGLEFT
 10
0.0
 20
0.0
 30
0.0
  9
$PUCSORGRIGHT
 10
0.0
 20
0.0
 30
0.0
  9
$PUCSORGFRONT
 10
0.0
 20
0.0
 30
0.0
  9
$PUCSORGBACK
 10
0.0
 20
0.0
 30
0.0
  9
$USERI1
 70
     0
  9
$USERI2
 70
     0
  9
$USERI3
 70
     0
  9
$USERI4
 70
     0
  9
$USERI5
 70
     0
  9
$USERR1
 40
0.0
  9
$USERR2
 40
0.0
  9
$USERR3
 40
0.0
  9
$USERR4
 40
0.0
  9
$USERR5
 40
0.0
  9
$WORLDVIEW
 70
     1
  9
$SHADEDGE
 70
     3
  9
$SHADEDIF
 70
    70
  9
$TILEMODE
 70
     1
  9
$MAXACTVP
 70
    64
  9
$PINSBASE
 10
0.0
 20
0.0
 30
0.0
  9
$PLIMCHECK
 70
     0
  9
$PEXTMIN
 10
1.000000000000000E+20
 20
1.000000000000000E+20
 30
1.000000000000000E+20
  9
$PEXTMAX
 10
-1.000000000000000E+20
 20
-1.000000000000000E+20
 30
-1.000000000000000E+20
  9
$PLIMMIN
 10
0.0
 20
0.0
  9
$PLIMMAX
 10
12.0
 20
9.0
  9
$UNITMODE
 70
     0
  9
$VISRETAIN
 70
     1
  9
$PLINEGEN
 70
     0
  9
$PSLTSCALE
 70
     1
  9
$TREEDEPTH
 70
  3020
  9
$CMLSTYLE
  2
Standard
  9
$CMLJUST
 70
     0
  9
$CMLSCALE
 40
1.0
  9
$PROXYGRAPHICS
 70
     1
  9
$MEASUREMENT
 70
     0
  9
$CELWEIGHT
370
    -1
  9
$ENDCAPS
280
     0
  9
$JOINSTYLE
280
     0
  9
$LWDISPLAY
290
     1
  9
$INSUNITS
 70
     1
  9
$HYPERLINKBASE
  1

  9
$STYLESHEET
  1

  9
$XEDIT
290
     1
  9
$CEPSNTYPE
380
     0
  9
$PSTYLEMODE
290
     1
  9
$FINGERPRINTGUID
  2
{C4D7BC9B-34F4-4520-8557-B47369E6BCD4}
  9
$VERSIONGUID
  2
{FAEB1C32-E019-11D5-929B-00C0DF256EC4}
  9
$EXTNAMES
290
     1
  9
$PSVPSCALE
 40
0.0
  9
$OLESTARTUP
290
     0
  9
$SORTENTS
280
   127
  9
$INDEXCTL
280
     0
  9
$HIDETEXT
280
     1
  9
$XCLIPFRAME
280
     2
  9
$HALOGAP
280
     0
  9
$OBSCOLOR
 70
   257
  9
$OBSLTYPE
280
     0
  9
$INTERSECTIONDISPLAY
280
     0
  9
$INTERSECTIONCOLOR
 70
   257
  9
$DIMASSOC
280
     2
  9
$PROJECTNAME
  1

  9
$CAMERADISPLAY
290
     0
  9
$LENSLENGTH
 40
50.0
  9
$CAMERAHEIGHT
 40
0.0
  9
$STEPSPERSEC
 40
2.0
  9
$STEPSIZE
 40
6.0
  9
$3DDWFPREC
 40
2.0
  9
$PSOLWIDTH
 40
0.25
  9
$PSOLHEIGHT
 40
4.0
  9
$LOFTANG1
 40
1.570796326794897
  9
$LOFTANG2
 40
1.570796326794897
  9
$LOFTMAG1
 40
0.0
  9
$LOFTMAG2
 40
0.0
  9
$LOFTPARAM
 70
     7
  9
$LOFTNORMALS
280
     1
  9
$LATITUDE
 40
37.795
  9
$LONGITUDE
 40
-122.394
  9
$NORTHDIRECTION
 40
0.0
  9
$TIMEZONE
 70
 -8000
  9
$LIGHTGLYPHDISPLAY
280
     1
  9
$TILEMODELIGHTSYNCH
280
     1
  9
$CMATERIAL
347
3C
  9
$SOLIDHIST
280
     1
  9
$SHOWHIST
280
     1
  9
$DWFFRAME
280
     2
  9
$DGNFRAME
280
     2
  9
$REALWORLDSCALE
290
     1
  9
$INTERFERECOLOR
 62
   256
  9
$CSHADOW
280
     0
  9
$SHADOWPLANELOCATION
 40
0.0
  0
ENDSEC
  0
SECTION
  2
CLASSES
  0
CLASS
  1
ACDBDICTIONARYWDFLT
  2
AcDbDictionaryWithDefault
  3
ObjectDBX Classes
 90
        0
 91
        4
280
     0
281
     0
  0
CLASS
  1
VISUALSTYLE
  2
AcDbVisualStyle
  3
ObjectDBX Classes
 90
     4095
 91
        4
280
     0
281
     0
  0
CLASS
  1
MATERIAL
  2
AcDbMaterial
  3
ObjectDBX Classes
 90
     1153
 91
        4
280
     0
281
     0
  0
CLASS
  1
SUN
  2
AcDbSun
  3
SCENEOE
 90
     1024
 91
        4
280
     0
281
     0
  0
ENDSEC
  0
SECTION
  2
TABLES
  0
TABLE
  2
VPORT
  5
8
330
0
100
AcDbSymbolTable
 70
     1
  0
VPORT
  5
29
330
8
100
AcDbSymbolTableRecord
100
AcDbViewportTableRecord
  2
*Active
 70
     0
 10
0.0
 20
0.0
 11
1.0
 21
1.0
 12
0.0
 22
0.0
 13
0.0
 23
0.0
 14
0.5
 24
0.5
 15
0.5
 25
0.5
 16
0.0
 26
0.0
 36
1.0
 17
305.9357422714129
 27
-366.8334500000001
 37
0.0
 40
841.8897637795271
 41
0.7070707070707065
 42
50.0
 43
0.0
 44
0.0
 50
0.0
 51
0.0
 71
     0
 72
   100
 73
     1
 74
     3
 75
     0
 76
     0
 77
     0
 78
     0
281
     0
 65
     1
110
0.0
120
0.0
130
0.0
111
1.0
121
0.0
131
0.0
112
0.0
122
1.0
132
0.0
 79
     0
146
0.0
 60
     3
 61
     5
292
     1
282
     1
141
0.0
142
0.0
 63
   250
361
3F
  0
ENDTAB
  0
TABLE
  2
LTYPE
  5
5
330
0
100
AcDbSymbolTable
 70
    13
  0
LTYPE
  5
14
330
5
100
AcDbSymbolTableRecord
100
AcDbLinetypeTableRecord
  2
ByBlock
 70
     0
  3

 72
    65
 73
     0
 40
0.0
  0
LTYPE
  5
15
330
5
100
AcDbSymbolTableRecord
100
AcDbLinetypeTableRecord
  2
ByLayer
 70
     0
  3

 72
    65
 73
     0
 40
0.0
  0
LTYPE
  5
16
330
5
100
AcDbSymbolTableRecord
100
AcDbLinetypeTableRecord
  2
Continuous
 70
     0
  3
Solid line
 72
    65
 73
     0
 40
0.0
  0
LTYPE
  5
C9
330
5
100
AcDbSymbolTableRecord
100
AcDbLinetypeTableRecord
  2
AI-Linetype-1
 70
     0
  3
Adobe Illustrator Linetype No. 1
 72
    65
 73
     6
 40
12.0
 49
3.0
 74
     0
 49
-1.0
 74
     0
 49
3.0
 74
     0
 49
-1.0
 74
     0
 49
3.0
 74
     0
 49
-1.0
 74
     0
  0
LTYPE
  5
CC
330
5
100
AcDbSymbolTableRecord
100
AcDbLinetypeTableRecord
  2
AI-Linetype-2
 70
     0
  3
Adobe Illustrator Linetype No. 2
 72
    65
 73
     6
 40
12.0
 49
3.0
 74
     0
 49
-1.0
 74
     0
 49
3.0
 74
     0
 49
-1.0
 74
     0
 49
3.0
 74
     0
 49
-1.0
 74
     0
  0
LTYPE
  5
CE
330
5
100
AcDbSymbolTableRecord
100
AcDbLinetypeTableRecord
  2
AI-Linetype-3
 70
     0
  3
Adobe Illustrator Linetype No. 3
 72
    65
 73
     6
 40
12.0
 49
3.0
 74
     0
 49
-1.0
 74
     0
 49
3.0
 74
     0
 49
-1.0
 74
     0
 49
3.0
 74
     0
 49
-1.0
 74
     0
  0
LTYPE
  5
D0
330
5
100
AcDbSymbolTableRecord
100
AcDbLinetypeTableRecord
  2
AI-Linetype-4
 70
     0
  3
Adobe Illustrator Linetype No. 4
 72
    65
 73
     6
 40
12.0
 49
3.0
 74
     0
 49
-1.0
 74
     0
 49
3.0
 74
     0
 49
-1.0
 74
     0
 49
3.0
 74
     0
 49
-1.0
 74
     0
  0
LTYPE
  5
D2
330
5
100
AcDbSymbolTableRecord
100
AcDbLinetypeTableRecord
  2
AI-Linetype-5
 70
     0
  3
Adobe Illustrator Linetype No. 5
 72
    65
 73
     6
 40
12.0
 49
3.0
 74
     0
 49
-1.0
 74
     0
 49
3.0
 74
     0
 49
-1.0
 74
     0
 49
3.0
 74
     0
 49
-1.0
 74
     0
  0
LTYPE
  5
DC
330
5
100
AcDbSymbolTableRecord
100
AcDbLinetypeTableRecord
  2
AI-Linetype-6
 70
     0
  3
Adobe Illustrator Linetype No. 6
 72
    65
 73
     6
 40
12.0
 49
3.0
 74
     0
 49
-1.0
 74
     0
 49
3.0
 74
     0
 49
-1.0
 74
     0
 49
3.0
 74
     0
 49
-1.0
 74
     0
  0
LTYPE
  5
E3
330
5
100
AcDbSymbolTableRecord
100
AcDbLinetypeTableRecord
  2
AI-Linetype-7
 70
     0
  3
Adobe Illustrator Linetype No. 7
 72
    65
 73
     6
 40
12.0
 49
3.0
 74
     0
 49
-1.0
 74
     0
 49
3.0
 74
     0
 49
-1.0
 74
     0
 49
3.0
 74
     0
 49
-1.0
 74
     0
  0
LTYPE
  5
114
330
5
100
AcDbSymbolTableRecord
100
AcDbLinetypeTableRecord
  2
AI-Linetype-8
 70
     0
  3
Adobe Illustrator Linetype No. 8
 72
    65
 73
     6
 40
18.0
 49
4.0
 74
     0
 49
-2.0
 74
     0
 49
4.0
 74
     0
 49
-2.0
 74
     0
 49
4.0
 74
     0
 49
-2.0
 74
     0
  0
LTYPE
  5
119
330
5
100
AcDbSymbolTableRecord
100
AcDbLinetypeTableRecord
  2
AI-Linetype-9
 70
     0
  3
Adobe Illustrator Linetype No. 9
 72
    65
 73
     6
 40
18.0
 49
4.0
 74
     0
 49
-2.0
 74
     0
 49
4.0
 74
     0
 49
-2.0
 74
     0
 49
4.0
 74
     0
 49
-2.0
 74
     0
  0
LTYPE
  5
11E
330
5
100
AcDbSymbolTableRecord
100
AcDbLinetypeTableRecord
  2
AI-Linetype-10
 70
     0
  3
Adobe Illustrator Linetype No. 10
 72
    65
 73
     6
 40
18.0
 49
4.0
 74
     0
 49
-2.0
 74
     0
 49
4.0
 74
     0
 49
-2.0
 74
     0
 49
4.0
 74
     0
 49
-2.0
 74
     0
  0
LTYPE
  5
123
330
5
100
AcDbSymbolTableRecord
100
AcDbLinetypeTableRecord
  2
AI-Linetype-11
 70
     0
  3
Adobe Illustrator Linetype No. 11
 72
    65
 73
     6
 40
18.0
 49
4.0
 74
     0
 49
-2.0
 74
     0
 49
4.0
 74
     0
 49
-2.0
 74
     0
 49
4.0
 74
     0
 49
-2.0
 74
     0
  0
LTYPE
  5
12B
330
5
100
AcDbSymbolTableRecord
100
AcDbLinetypeTableRecord
  2
AI-Linetype-12
 70
     0
  3
Adobe Illustrator Linetype No. 12
 72
    65
 73
     6
 40
18.0
 49
4.0
 74
     0
 49
-2.0
 74
     0
 49
4.0
 74
     0
 49
-2.0
 74
     0
 49
4.0
 74
     0
 49
-2.0
 74
     0
  0
ENDTAB
  0
TABLE
  2
LAYER
  5
2
330
0
100
AcDbSymbolTable
 70
     3
  0
LAYER
  5
10
330
2
100
AcDbSymbolTableRecord
100
AcDbLayerTableRecord
  2
0
 70
     0
 62
     7
  6
Continuous
370
    -3
390
F
347
3E
  0
LAYER
  5
40
330
2
100
AcDbSymbolTableRecord
100
AcDbLayerTableRecord
  2
Base
 70
     0
 62
     7
  6
Continuous
370
    -3
390
F
347
3E
  0
LAYER
  5
4F5
330
2
100
AcDbSymbolTableRecord
100
AcDbLayerTableRecord
  2
callout
 70
     0
 62
     7
  6
Continuous
370
    -3
390
F
347
3E
  0
ENDTAB
  0
TABLE
  2
STYLE
  5
3
330
0
100
AcDbSymbolTable
 70
     1
  0
STYLE
  5
11
330
3
100
AcDbSymbolTableRecord
100
AcDbTextStyleTableRecord
  2
Standard
 70
     0
 40
0.0
 41
1.0
 50
0.0
 71
     0
 42
0.2
  3
txt
  4

  0
ENDTAB
  0
TABLE
  2
VIEW
  5
6
330
0
100
AcDbSymbolTable
 70
     0
  0
ENDTAB
  0
TABLE
  2
UCS
  5
7
330
0
100
AcDbSymbolTable
 70
     0
  0
ENDTAB
  0
TABLE
  2
APPID
  5
9
330
0
100
AcDbSymbolTable
 70
     1
  0
APPID
  5
12
330
9
100
AcDbSymbolTableRecord
100
AcDbRegAppTableRecord
  2
ACAD
 70
     0
  0
ENDTAB
  0
TABLE
  2
DIMSTYLE
  5
A
330
0
100
AcDbSymbolTable
 70
     1
100
AcDbDimStyleTable
  0
DIMSTYLE
105
27
330
A
100
AcDbSymbolTableRecord
100
AcDbDimStyleTableRecord
  2
Standard
 70
     0
178
     0
340
11
  0
ENDTAB
  0
TABLE
  2
BLOCK_RECORD
  5
1
330
0
100
AcDbSymbolTable
 70
    10
  0
BLOCK_RECORD
  5
1F
330
1
100
AcDbSymbolTableRecord
100
AcDbBlockTableRecord
  2
*Model_Space
340
22
 70
     0
280
     1
281
     0
  0
BLOCK_RECORD
  5
1B
330
1
100
AcDbSymbolTableRecord
100
AcDbBlockTableRecord
  2
*Paper_Space
340
1E
 70
     0
280
     1
281
     0
  0
BLOCK_RECORD
  5
23
330
1
100
AcDbSymbolTableRecord
100
AcDbBlockTableRecord
  2
*Paper_Space0
340
26
 70
     0
280
     1
281
     0
  0
BLOCK_RECORD
  5
1E4
330
1
100
AcDbSymbolTableRecord
100
AcDbBlockTableRecord
  2
block 2
340
0
102
{BLKREFS
331
1E5
102
}
 70
     0
280
     1
281
     0
  0
BLOCK_RECORD
  5
20B
330
1
100
AcDbSymbolTableRecord
100
AcDbBlockTableRecord
  2
block 3
340
0
102
{BLKREFS
331
20C
102
}
 70
     0
280
     1
281
     0
  0
BLOCK_RECORD
  5
25C
330
1
100
AcDbSymbolTableRecord
100
AcDbBlockTableRecord
  2
block 4
340
0
102
{BLKREFS
331
25D
102
}
 70
     0
280
     1
281
     0
  0
BLOCK_RECORD
  5
2AD
330
1
100
AcDbSymbolTableRecord
100
AcDbBlockTableRecord
  2
block 5
340
0
102
{BLKREFS
331
2AE
102
}
 70
     0
280
     1
281
     0
  0
BLOCK_RECORD
  5
2E3
330
1
100
AcDbSymbolTableRecord
100
AcDbBlockTableRecord
  2
block 6
340
0
102
{BLKREFS
331
2E4
102
}
 70
     0
280
     1
281
     0
  0
BLOCK_RECORD
  5
30A
330
1
100
AcDbSymbolTableRecord
100
AcDbBlockTableRecord
  2
block 7
340
0
102
{BLKREFS
331
30B
102
}
 70
     0
280
     1
281
     0
  0
BLOCK_RECORD
  5
35B
330
1
100
AcDbSymbolTableRecord
100
AcDbBlockTableRecord
  2
block 8
340
0
102
{BLKREFS
331
35C
102
}
 70
     0
280
     1
281
     0
  0
BLOCK_RECORD
  5
3AC
330
1
100
AcDbSymbolTableRecord
100
AcDbBlockTableRecord
  2
block 9
340
0
102
{BLKREFS
331
3AD
102
}
 70
     0
280
     1
281
     0
  0
BLOCK_RECORD
  5
489
330
1
100
AcDbSymbolTableRecord
100
AcDbBlockTableRecord
  2
block 10
340
0
102
{BLKREFS
331
48A
102
}
 70
     0
280
     1
281
     0
  0
ENDTAB
  0
ENDSEC
  0
SECTION
  2
BLOCKS
  0
BLOCK
  5
20
330
1F
100
AcDbEntity
  8
0
100
AcDbBlockBegin
  2
*Model_Space
 70
     0
 10
0.0
 20
0.0
 30
0.0
  3
*Model_Space
  1

  0
ENDBLK
  5
21
330
1F
100
AcDbEntity
  8
0
100
AcDbBlockEnd
  0
BLOCK
  5
1C
330
1B
100
AcDbEntity
 67
     1
  8
0
100
AcDbBlockBegin
  2
*Paper_Space
 70
     0
 10
0.0
 20
0.0
 30
0.0
  3
*Paper_Space
  1

  0
ENDBLK
  5
1D
330
1B
100
AcDbEntity
 67
     1
  8
0
100
AcDbBlockEnd
  0
BLOCK
  5
24
330
23
100
AcDbEntity
  8
0
100
AcDbBlockBegin
  2
*Paper_Space0
 70
     0
 10
0.0
 20
0.0
 30
0.0
  3
*Paper_Space0
  1

  0
ENDBLK
  5
25
330
23
100
AcDbEntity
  8
0
100
AcDbBlockEnd
  0
BLOCK
  5
1E6
330
1E4
100
AcDbEntity
  8
0
100
AcDbBlockBegin
  2
block 2
 70
     0
 10
0.0
 20
0.0
 30
0.0
  3
block 2
  1

  0
POLYLINE
  5
1E8
330
1E4
100
AcDbEntity
  8
Base
370
     0
100
AcDb2dPolyline
 66
     1
 10
0.0
 20
0.0
 30
0.0
  0
VERTEX
  5
1E9
330
1E8
100
AcDbEntity
  8
Base
370
     0
100
AcDbVertex
100
AcDb2dVertex
 10
256.4384935218186
 20
-277.0464000000002
 30
0.0
  0
VERTEX
  5
1EA
330
1E8
100
AcDbEntity
  8
Base
370
     0
100
AcDbVertex
100
AcDb2dVertex
 10
255.4833935459465
 20
-277.0502999999999
 30
0.0
  0
VERTEX
  5
1EB
330
1E8
100
AcDbEntity
  8
Base
370
     0
100
AcDbVertex
100
AcDb2dVertex
 10
255.4843935459212
 20
-281.1372000000001
 30
0.0
  0
VERTEX
  5
1EC
330
1E8
100
AcDbEntity
  8
Base
370
     0
100
AcDbVertex
100
AcDb2dVertex
 10
256.4403935217706
 20
-281.1304
 30
0.0
  0
VERTEX
  5
1ED
330
1E8
100
AcDbEntity
  8
Base
370
     0
100
AcDbVertex
100
AcDb2dVertex
 10
256.4384935218186
 20
-277.0464000000002
 30
0.0
  0
SEQEND
  5
1EE
330
1E8
100
AcDbEntity
  8
Base
370
     0
  0
POLYLINE
  5
1EF
330
1E4
100
AcDbEntity
  8
Base
370
     0
100
AcDb2dPolyline
 66
     1
 10
0.0
 20
0.0
 30
0.0
  0
VERTEX
  5
1F0
330
1EF
100
AcDbEntity
  8
Base
370
     0
100
AcDbVertex
100
AcDb2dVertex
 10
255.4867935458606
 20
-287.0928000000004
 30
0.0
  0
VERTEX
  5
1F1
330
1EF
100
AcDbEntity
  8
Base
370
     0
100
AcDbVertex
100
AcDb2dVertex
 10
256.4428935217074
 20
-287.0811000000003
 30
0.0
  0
VERTEX
  5
1F2
330
1EF
100
AcDbEntity
  8
Base
370
     0
100
AcDbVertex
100
AcDb2dVertex
 10
256.440893521758
 20
-282.9853999999996
 30
0.0
  0
VERTEX
  5
1F3
330
1EF
100
AcDbEntity
  8
Base
370
     0
100
AcDbVertex
100
AcDb2dVertex
 10
255.4853935458959
 20
-282.9937
 30
0.0
  0
VERTEX
  5
1F4
330
1EF
100
AcDbEntity
  8
Base
370
     0
100
AcDbVertex
100
AcDb2dVertex
 10
255.4867935458606
 20
-287.0928000000004
 30
0.0
  0
SEQEND
  5
1F5
330
1EF
100
AcDbEntity
  8
Base
370
     0
  0
POLYLINE
  5
1F6
330
1E4
100
AcDbEntity
  8
Base
370
     0
100
AcDb2dPolyline
 66
     1
 10
0.0
 20
0.0
 30
0.0
  0
VERTEX
  5
1F7
330
1F6
100
AcDbEntity
  8
Base
370
     0
100
AcDbVertex
100
AcDb2dVertex
 10
255.4877935458353
 20
-293.0645000000004
 30
0.0
  0
VERTEX
  5
1F8
330
1F6
100
AcDbEntity
  8
Base
370
     0
100
AcDbVertex
100
AcDb2dVertex
 10
256.4462935216216
 20
-293.0483000000004
 30
0.0
  0
VERTEX
  5
1F9
330
1F6
100
AcDbEntity
  8
Base
370
     0
100
AcDbVertex
100
AcDb2dVertex
 10
256.4442935216721
 20
-288.9413999999997
 30
0.0
  0
VERTEX
  5
1FA
330
1F6
100
AcDbEntity
  8
Base
370
     0
100
AcDbVertex
100
AcDb2dVertex
 10
255.4867935458606
 20
-288.9540999999999
 30
0.0
  0
VERTEX
  5
1FB
330
1F6
100
AcDbEntity
  8
Base
370
     0
100
AcDbVertex
100
AcDb2dVertex
 10
255.4877935458353
 20
-293.0645000000004
 30
0.0
  0
SEQEND
  5
1FC
330
1F6
100
AcDbEntity
  8
Base
370
     0
  0
POLYLINE
  5
1FD
330
1E4
100
AcDbEntity
  8
Base
370
     0
100
AcDb2dPolyline
 66
     1
 10
0.0
 20
0.0
 30
0.0
  0
VERTEX
  5
1FE
330
1FD
100
AcDbEntity
  8
Base
370
     0
100
AcDbVertex
100
AcDb2dVertex
 10
255.4892935457974
 20
-299.0537000000004
 30
0.0
  0
VERTEX
  5
1FF
330
1FD
100
AcDbEntity
  8
Base
370
     0
100
AcDbVertex
100
AcDb2dVertex
 10
256.4491935215483
 20
-299.0326999999997
 30
0.0
  0
VERTEX
  5
200
330
1FD
100
AcDbEntity
  8
Base
370
     0
100
AcDbVertex
100
AcDb2dVertex
 10
256.4472935215963
 20
-294.9141
 30
0.0
  0
VERTEX
  5
201
330
1FD
100
AcDbEntity
  8
Base
370
     0
100
AcDbVertex
100
AcDb2dVertex
 10
255.4882935458227
 20
-294.9315999999999
 30
0.0
  0
VERTEX
  5
202
330
1FD
100
AcDbEntity
  8
Base
370
     0
100
AcDbVertex
100
AcDb2dVertex
 10
255.4892935457974
 20
-299.0537000000004
 30
0.0
  0
SEQEND
  5
203
330
1FD
100
AcDbEntity
  8
Base
370
     0
  0
POLYLINE
  5
204
330
1E4
100
AcDbEntity
  8
Base
370
     0
100
AcDb2dPolyline
 66
     1
 10
0.0
 20
0.0
 30
0.0
  0
VERTEX
  5
205
330
204
100
AcDbEntity
  8
Base
370
     0
100
AcDbVertex
100
AcDb2dVertex
 10
255.4911935457494
 20
-305.0609999999997
 30
0.0
  0
VERTEX
  5
206
330
204
100
AcDbEntity
  8
Base
370
     0
100
AcDbVertex
100
AcDb2dVertex
 10
256.452093521475
 20
-305.0352000000003
 30
0.0
  0
VERTEX
  5
207
330
204
100
AcDbEntity
  8
Base
370
     0
100
AcDbVertex
100
AcDb2dVertex
 10
256.450193521523
 20
-300.9043000000001
 30
0.0
  0
VERTEX
  5
208
330
204
100
AcDbEntity
  8
Base
370
     0
100
AcDbVertex
100
AcDb2dVertex
 10
255.4896935457873
 20
-300.9268000000002
 30
0.0
  0
VERTEX
  5
209
330
204
100
AcDbEntity
  8
Base
370
     0
100
AcDbVertex
100
AcDb2dVertex
 10
255.4911935457494
 20
-305.0609999999997
 30
0.0
  0
SEQEND
  5
20A
330
204
100
AcDbEntity
  8
Base
370
     0
  0
INSERT
  5
20C
330
1E4
100
AcDbEntity
  8
Base
100
AcDbBlockReference
  2
block 3
 10
0.0
 20
0.0
 30
0.0
  0
POLYLINE
  5
239
330
1E4
100
AcDbEntity
  8
Base
370
     0
100
AcDb2dPolyline
 66
     1
 10
0.0
 20
0.0
 30
0.0
  0
VERTEX
  5
23A
330
239
100
AcDbEntity
  8
Base
370
     0
100
AcDbVertex
100
AcDb2dVertex
 10
261.0966934041426
 20
-277.0293000000001
 30
0.0
  0
VERTEX
  5
23B
330
239
100
AcDbEntity
  8
Base
370
     0
100
AcDbVertex
100
AcDb2dVertex
 10
260.1483934280986
 20
-277.0331999999999
 30
0.0
  0
VERTEX
  5
23C
330
239
100
AcDbEntity
  8
Base
370
     0
100
AcDbVertex
100
AcDb2dVertex
 10
260.1542934279496
 20
-281.1040000000003
 30
0.0
  0
VERTEX
  5
23D
330
239
100
AcDbEntity
  8
Base
370
     0
100
AcDbVertex
100
AcDb2dVertex
 10
261.1030000000001
 20
-281.0972000000002
 30
0.0
  0
VERTEX
  5
23E
330
239
100
AcDbEntity
  8
Base
370
     0
100
AcDbVertex
100
AcDb2dVertex
 10
261.0966934041426
 20
-277.0293000000001
 30
0.0
  0
SEQEND
  5
23F
330
239
100
AcDbEntity
  8
Base
370
     0
  0
POLYLINE
  5
240
330
1E4
100
AcDbEntity
  8
Base
370
     0
100
AcDb2dPolyline
 66
     1
 10
0.0
 20
0.0
 30
0.0
  0
VERTEX
  5
241
330
240
100
AcDbEntity
  8
Base
370
     0
100
AcDbVertex
100
AcDb2dVertex
 10
260.1635934277147
 20
-287.0361000000003
 30
0.0
  0
VERTEX
  5
242
330
240
100
AcDbEntity
  8
Base
370
     0
100
AcDbVertex
100
AcDb2dVertex
 10
261.1122934037485
 20
-287.0249000000003
 30
0.0
  0
VERTEX
  5
243
330
240
100
AcDbEntity
  8
Base
370
     0
100
AcDbVertex
100
AcDb2dVertex
 10
261.1054934039203
 20
-282.9448000000002
 30
0.0
  0
VERTEX
  5
244
330
240
100
AcDbEntity
  8
Base
370
     0
100
AcDbVertex
100
AcDb2dVertex
 10
260.1576934278637
 20
-282.9530999999997
 30
0.0
  0
VERTEX
  5
245
330
240
100
AcDbEntity
  8
Base
370
     0
100
AcDbVertex
100
AcDb2dVertex
 10
260.1635934277147
 20
-287.0361000000003
 30
0.0
  0
SEQEND
  5
246
330
240
100
AcDbEntity
  8
Base
370
     0
  0
POLYLINE
  5
247
330
1E4
100
AcDbEntity
  8
Base
370
     0
100
AcDb2dPolyline
 66
     1
 10
0.0
 20
0.0
 30
0.0
  0
VERTEX
  5
248
330
247
100
AcDbEntity
  8
Base
370
     0
100
AcDbVertex
100
AcDb2dVertex
 10
260.1703934275429
 20
-292.9849000000004
 30
0.0
  0
VERTEX
  5
249
330
247
100
AcDbEntity
  8
Base
370
     0
100
AcDbVertex
100
AcDb2dVertex
 10
261.1220934035009
 20
-292.9687999999996
 30
0.0
  0
VERTEX
  5
24A
330
247
100
AcDbEntity
  8
Base
370
     0
100
AcDbVertex
100
AcDb2dVertex
 10
261.1156934036626
 20
-288.8779000000004
 30
0.0
  0
VERTEX
  5
24B
330
247
100
AcDbEntity
  8
Base
370
     0
100
AcDbVertex
100
AcDb2dVertex
 10
260.165
 20
-288.8905999999997
 30
0.0
  0
VERTEX
  5
24C
330
247
100
AcDbEntity
  8
Base
370
     0
100
AcDbVertex
100
AcDb2dVertex
 10
260.1703934275429
 20
-292.9849000000004
 30
0.0
  0
SEQEND
  5
24D
330
247
100
AcDbEntity
  8
Base
370
     0
  0
POLYLINE
  5
24E
330
1E4
100
AcDbEntity
  8
Base
370
     0
100
AcDb2dPolyline
 66
     1
 10
0.0
 20
0.0
 30
0.0
  0
VERTEX
  5
24F
330
24E
100
AcDbEntity
  8
Base
370
     0
100
AcDbVertex
100
AcDb2dVertex
 10
260.1786934273332
 20
-298.9507000000003
 30
0.0
  0
VERTEX
  5
250
330
24E
100
AcDbEntity
  8
Base
370
     0
100
AcDbVertex
100
AcDb2dVertex
 10
261.1317934032559
 20
-298.9296999999997
 30
0.0
  0
VERTEX
  5
251
330
24E
100
AcDbEntity
  8
Base
370
     0
100
AcDbVertex
100
AcDb2dVertex
 10
261.125
 20
-294.8271000000004
 30
0.0
  0
VERTEX
  5
252
330
24E
100
AcDbEntity
  8
Base
370
     0
100
AcDbVertex
100
AcDb2dVertex
 10
260.1732934274696
 20
-294.8446999999996
 30
0.0
  0
VERTEX
  5
253
330
24E
100
AcDbEntity
  8
Base
370
     0
100
AcDbVertex
100
AcDb2dVertex
 10
260.1786934273332
 20
-298.9507000000003
 30
0.0
  0
SEQEND
  5
254
330
24E
100
AcDbEntity
  8
Base
370
     0
  0
POLYLINE
  5
255
330
1E4
100
AcDbEntity
  8
Base
370
     0
100
AcDb2dPolyline
 66
     1
 10
0.0
 20
0.0
 30
0.0
  0
VERTEX
  5
256
330
255
100
AcDbEntity
  8
Base
370
     0
100
AcDbVertex
100
AcDb2dVertex
 10
260.1874934271109
 20
-304.9341000000004
 30
0.0
  0
VERTEX
  5
257
330
255
100
AcDbEntity
  8
Base
370
     0
100
AcDbVertex
100
AcDb2dVertex
 10
261.1415934030083
 20
-304.9081999999999
 30
0.0
  0
VERTEX
  5
258
330
255
100
AcDbEntity
  8
Base
370
     0
100
AcDbVertex
100
AcDb2dVertex
 10
261.1347934031801
 20
-300.7934999999998
 30
0.0
  0
VERTEX
  5
259
330
255
100
AcDbEntity
  8
Base
370
     0
100
AcDbVertex
100
AcDb2dVertex
 10
260.1815934272599
 20
-300.8163999999997
 30
0.0
  0
VERTEX
  5
25A
330
255
100
AcDbEntity
  8
Base
370
     0
100
AcDbVertex
100
AcDb2dVertex
 10
260.1874934271109
 20
-304.9341000000004
 30
0.0
  0
SEQEND
  5
25B
330
255
100
AcDbEntity
  8
Base
370
     0
  0
INSERT
  5
25D
330
1E4
100
AcDbEntity
  8
Base
100
AcDbBlockReference
  2
block 4
 10
0.0
 20
0.0
 30
0.0
  0
POLYLINE
  5
28A
330
1E4
100
AcDbEntity
  8
Base
370
     0
100
AcDb2dPolyline
 66
     1
 10
0.0
 20
0.0
 30
0.0
  0
VERTEX
  5
28B
330
28A
100
AcDbEntity
  8
Base
370
     0
100
AcDbVertex
100
AcDb2dVertex
 10
265.7177932874038
 20
-277.0127000000002
 30
0.0
  0
VERTEX
  5
28C
330
28A
100
AcDbEntity
  8
Base
370
     0
100
AcDbVertex
100
AcDb2dVertex
 10
264.7782933111375
 20
-277.0160999999998
 30
0.0
  0
VERTEX
  5
28D
330
28A
100
AcDbEntity
  8
Base
370
     0
100
AcDbVertex
100
AcDb2dVertex
 10
264.7885933108773
 20
-281.0712999999996
 30
0.0
  0
VERTEX
  5
28E
330
28A
100
AcDbEntity
  8
Base
370
     0
100
AcDbVertex
100
AcDb2dVertex
 10
265.7290000000003
 20
-281.0645000000004
 30
0.0
  0
VERTEX
  5
28F
330
28A
100
AcDbEntity
  8
Base
370
     0
100
AcDbVertex
100
AcDb2dVertex
 10
265.7177932874038
 20
-277.0127000000002
 30
0.0
  0
SEQEND
  5
290
330
28A
100
AcDbEntity
  8
Base
370
     0
  0
POLYLINE
  5
291
330
1E4
100
AcDbEntity
  8
Base
370
     0
100
AcDb2dPolyline
 66
     1
 10
0.0
 20
0.0
 30
0.0
  0
VERTEX
  5
292
330
291
100
AcDbEntity
  8
Base
370
     0
100
AcDbVertex
100
AcDb2dVertex
 10
264.8036933104959
 20
-286.9804999999997
 30
0.0
  0
VERTEX
  5
293
330
291
100
AcDbEntity
  8
Base
370
     0
100
AcDbVertex
100
AcDb2dVertex
 10
265.7450932867141
 20
-286.9687999999996
 30
0.0
  0
VERTEX
  5
294
330
291
100
AcDbEntity
  8
Base
370
     0
100
AcDbVertex
100
AcDb2dVertex
 10
265.733893286997
 20
-282.9053000000004
 30
0.0
  0
VERTEX
  5
295
330
291
100
AcDbEntity
  8
Base
370
     0
100
AcDbVertex
100
AcDb2dVertex
 10
264.7934933107535
 20
-282.9130999999998
 30
0.0
  0
VERTEX
  5
296
330
291
100
AcDbEntity
  8
Base
370
     0
100
AcDbVertex
100
AcDb2dVertex
 10
264.8036933104959
 20
-286.9804999999997
 30
0.0
  0
SEQEND
  5
297
330
291
100
AcDbEntity
  8
Base
370
     0
  0
POLYLINE
  5
298
330
1E4
100
AcDbEntity
  8
Base
370
     0
100
AcDb2dPolyline
 66
     1
 10
0.0
 20
0.0
 30
0.0
  0
VERTEX
  5
299
330
298
100
AcDbEntity
  8
Base
370
     0
100
AcDbVertex
100
AcDb2dVertex
 10
264.8178933101372
 20
-292.9058000000005
 30
0.0
  0
VERTEX
  5
29A
330
298
100
AcDbEntity
  8
Base
370
     0
100
AcDbVertex
100
AcDb2dVertex
 10
265.7611932863074
 20
-292.8896000000004
 30
0.0
  0
VERTEX
  5
29B
330
298
100
AcDbEntity
  8
Base
370
     0
100
AcDbVertex
100
AcDb2dVertex
 10
265.75
 20
-288.8145000000004
 30
0.0
  0
VERTEX
  5
29C
330
298
100
AcDbEntity
  8
Base
370
     0
100
AcDbVertex
100
AcDb2dVertex
 10
264.8075933103974
 20
-288.8275999999996
 30
0.0
  0
VERTEX
  5
29D
330
298
100
AcDbEntity
  8
Base
370
     0
100
AcDbVertex
100
AcDb2dVertex
 10
264.8178933101372
 20
-292.9058000000005
 30
0.0
  0
SEQEND
  5
29E
330
298
100
AcDbEntity
  8
Base
370
     0
  0
POLYLINE
  5
29F
330
1E4
100
AcDbEntity
  8
Base
370
     0
100
AcDb2dPolyline
 66
     1
 10
0.0
 20
0.0
 30
0.0
  0
VERTEX
  5
2A0
330
29F
100
AcDbEntity
  8
Base
370
     0
100
AcDbVertex
100
AcDb2dVertex
 10
264.8329999999996
 20
-298.8481000000002
 30
0.0
  0
VERTEX
  5
2A1
330
29F
100
AcDbEntity
  8
Base
370
     0
100
AcDbVertex
100
AcDb2dVertex
 10
265.7772932859007
 20
-298.8271000000004
 30
0.0
  0
VERTEX
  5
2A2
330
29F
100
AcDbEntity
  8
Base
370
     0
100
AcDbVertex
100
AcDb2dVertex
 10
265.7660932861836
 20
-294.7407000000003
 30
0.0
  0
VERTEX
  5
2A3
330
29F
100
AcDbEntity
  8
Base
370
     0
100
AcDbVertex
100
AcDb2dVertex
 10
264.8227933100134
 20
-294.7583000000004
 30
0.0
  0
VERTEX
  5
2A4
330
29F
100
AcDbEntity
  8
Base
370
     0
100
AcDbVertex
100
AcDb2dVertex
 10
264.8329999999996
 20
-298.8481000000002
 30
0.0
  0
SEQEND
  5
2A5
330
29F
100
AcDbEntity
  8
Base
370
     0
  0
POLYLINE
  5
2A6
330
1E4
100
AcDbEntity
  8
Base
370
     0
100
AcDb2dPolyline
 66
     1
 10
0.0
 20
0.0
 30
0.0
  0
VERTEX
  5
2A7
330
2A6
100
AcDbEntity
  8
Base
370
     0
100
AcDbVertex
100
AcDb2dVertex
 10
264.8476933093843
 20
-304.8076000000001
 30
0.0
  0
VERTEX
  5
2A8
330
2A6
100
AcDbEntity
  8
Base
370
     0
100
AcDbVertex
100
AcDb2dVertex
 10
265.7934932854914
 20
-304.7821999999996
 30
0.0
  0
VERTEX
  5
2A9
330
2A6
100
AcDbEntity
  8
Base
370
     0
100
AcDbVertex
100
AcDb2dVertex
 10
265.7821932857769
 20
-300.6841000000004
 30
0.0
  0
VERTEX
  5
2AA
330
2A6
100
AcDbEntity
  8
Base
370
     0
100
AcDbVertex
100
AcDb2dVertex
 10
264.8373933096445
 20
-300.7061000000003
 30
0.0
  0
VERTEX
  5
2AB
330
2A6
100
AcDbEntity
  8
Base
370
     0
100
AcDbVertex
100
AcDb2dVertex
 10
264.8476933093843
 20
-304.8076000000001
 30
0.0
  0
SEQEND
  5
2AC
330
2A6
100
AcDbEntity
  8
Base
370
     0
  0
INSERT
  5
2AE
330
1E4
100
AcDbEntity
  8
Base
100
AcDbBlockReference
  2
block 5
 10
0.0
 20
0.0
 30
0.0
  0
ENDBLK
  5
1E7
330
1E4
100
AcDbEntity
  8
0
100
AcDbBlockEnd
  0
BLOCK
  5
20D
330
20B
100
AcDbEntity
  8
0
100
AcDbBlockBegin
  2
block 3
 70
     0
 10
0.0
 20
0.0
 30
0.0
  3
block 3
  1

  0
POLYLINE
  5
20F
330
20B
100
AcDbEntity
  8
Base
370
     0
100
AcDb2dPolyline
 66
     1
 10
0.0
 20
0.0
 30
0.0
  0
VERTEX
  5
210
330
20F
100
AcDbEntity
  8
Base
370
     0
100
AcDbVertex
100
AcDb2dVertex
 10
258.7685934629553
 20
-274.0658999999996
 30
0.0
  0
VERTEX
  5
211
330
20F
100
AcDbEntity
  8
Base
370
     0
100
AcDbVertex
100
AcDb2dVertex
 10
257.817893486972
 20
-274.0668999999998
 30
0.0
  0
VERTEX
  5
212
330
20F
100
AcDbEntity
  8
Base
370
     0
100
AcDbVertex
100
AcDb2dVertex
 10
257.8212934868861
 20
-278.1400999999996
 30
0.0
  0
VERTEX
  5
213
330
20F
100
AcDbEntity
  8
Base
370
     0
100
AcDbVertex
100
AcDb2dVertex
 10
258.7728934628467
 20
-278.1356999999998
 30
0.0
  0
VERTEX
  5
214
330
20F
100
AcDbEntity
  8
Base
370
     0
100
AcDbVertex
100
AcDb2dVertex
 10
258.7685934629553
 20
-274.0658999999996
 30
0.0
  0
SEQEND
  5
215
330
20F
100
AcDbEntity
  8
Base
370
     0
  0
POLYLINE
  5
216
330
20B
100
AcDbEntity
  8
Base
370
     0
100
AcDb2dPolyline
 66
     1
 10
0.0
 20
0.0
 30
0.0
  0
VERTEX
  5
217
330
216
100
AcDbEntity
  8
Base
370
     0
100
AcDbVertex
100
AcDb2dVertex
 10
257.8266934867497
 20
-284.0752000000002
 30
0.0
  0
VERTEX
  5
218
330
216
100
AcDbEntity
  8
Base
370
     0
100
AcDbVertex
100
AcDb2dVertex
 10
258.779293462685
 20
-284.0663999999997
 30
0.0
  0
VERTEX
  5
219
330
216
100
AcDbEntity
  8
Base
370
     0
100
AcDbVertex
100
AcDb2dVertex
 10
258.7748934627962
 20
-279.9844000000003
 30
0.0
  0
VERTEX
  5
21A
330
216
100
AcDbEntity
  8
Base
370
     0
100
AcDbVertex
100
AcDb2dVertex
 10
257.8231934868381
 20
-279.9902000000002
 30
0.0
  0
VERTEX
  5
21B
330
216
100
AcDbEntity
  8
Base
370
     0
100
AcDbVertex
100
AcDb2dVertex
 10
257.8266934867497
 20
-284.0752000000002
 30
0.0
  0
SEQEND
  5
21C
330
216
100
AcDbEntity
  8
Base
370
     0
  0
POLYLINE
  5
21D
330
20B
100
AcDbEntity
  8
Base
370
     0
100
AcDb2dPolyline
 66
     1
 10
0.0
 20
0.0
 30
0.0
  0
VERTEX
  5
21E
330
21D
100
AcDbEntity
  8
Base
370
     0
100
AcDbVertex
100
AcDb2dVertex
 10
257.8314934866285
 20
-290.0272999999997
 30
0.0
  0
VERTEX
  5
21F
330
21D
100
AcDbEntity
  8
Base
370
     0
100
AcDbVertex
100
AcDb2dVertex
 10
258.7855934625259
 20
-290.0137000000004
 30
0.0
  0
VERTEX
  5
220
330
21D
100
AcDbEntity
  8
Base
370
     0
100
AcDbVertex
100
AcDb2dVertex
 10
258.7812934626354
 20
-285.9198999999999
 30
0.0
  0
VERTEX
  5
221
330
21D
100
AcDbEntity
  8
Base
370
     0
100
AcDbVertex
100
AcDb2dVertex
 10
257.8280934867144
 20
-285.9301999999998
 30
0.0
  0
VERTEX
  5
222
330
21D
100
AcDbEntity
  8
Base
370
     0
100
AcDbVertex
100
AcDb2dVertex
 10
257.8314934866285
 20
-290.0272999999997
 30
0.0
  0
SEQEND
  5
223
330
21D
100
AcDbEntity
  8
Base
370
     0
  0
POLYLINE
  5
224
330
20B
100
AcDbEntity
  8
Base
370
     0
100
AcDb2dPolyline
 66
     1
 10
0.0
 20
0.0
 30
0.0
  0
VERTEX
  5
225
330
224
100
AcDbEntity
  8
Base
370
     0
100
AcDbVertex
100
AcDb2dVertex
 10
257.8363934865047
 20
-295.9961000000003
 30
0.0
  0
VERTEX
  5
226
330
224
100
AcDbEntity
  8
Base
370
     0
100
AcDbVertex
100
AcDb2dVertex
 10
258.7920000000004
 20
-295.9775
 30
0.0
  0
VERTEX
  5
227
330
224
100
AcDbEntity
  8
Base
370
     0
100
AcDbVertex
100
AcDb2dVertex
 10
258.787093462488
 20
-291.8725999999997
 30
0.0
  0
VERTEX
  5
228
330
224
100
AcDbEntity
  8
Base
370
     0
100
AcDbVertex
100
AcDb2dVertex
 10
257.8329999999996
 20
-291.8882000000003
 30
0.0
  0
VERTEX
  5
229
330
224
100
AcDbEntity
  8
Base
370
     0
100
AcDbVertex
100
AcDb2dVertex
 10
257.8363934865047
 20
-295.9961000000003
 30
0.0
  0
SEQEND
  5
22A
330
224
100
AcDbEntity
  8
Base
370
     0
  0
POLYLINE
  5
22B
330
20B
100
AcDbEntity
  8
Base
370
     0
100
AcDb2dPolyline
 66
     1
 10
0.0
 20
0.0
 30
0.0
  0
VERTEX
  5
22C
330
22B
100
AcDbEntity
  8
Base
370
     0
100
AcDbVertex
100
AcDb2dVertex
 10
257.8412934863809
 20
-301.9823999999999
 30
0.0
  0
VERTEX
  5
22D
330
22B
100
AcDbEntity
  8
Base
370
     0
100
AcDbVertex
100
AcDb2dVertex
 10
258.7978934622151
 20
-301.9589999999998
 30
0.0
  0
VERTEX
  5
22E
330
22B
100
AcDbEntity
  8
Base
370
     0
100
AcDbVertex
100
AcDb2dVertex
 10
258.7938934623162
 20
-297.8428000000004
 30
0.0
  0
VERTEX
  5
22F
330
22B
100
AcDbEntity
  8
Base
370
     0
100
AcDbVertex
100
AcDb2dVertex
 10
257.8378934864668
 20
-297.8627999999999
 30
0.0
  0
VERTEX
  5
230
330
22B
100
AcDbEntity
  8
Base
370
     0
100
AcDbVertex
100
AcDb2dVertex
 10
257.8412934863809
 20
-301.9823999999999
 30
0.0
  0
SEQEND
  5
231
330
22B
100
AcDbEntity
  8
Base
370
     0
  0
POLYLINE
  5
232
330
20B
100
AcDbEntity
  8
Base
370
     0
100
AcDb2dPolyline
 66
     1
 10
0.0
 20
0.0
 30
0.0
  0
VERTEX
  5
233
330
232
100
AcDbEntity
  8
Base
370
     0
100
AcDbVertex
100
AcDb2dVertex
 10
258.7997934621671
 20
-303.8285999999998
 30
0.0
  0
VERTEX
  5
234
330
232
100
AcDbEntity
  8
Base
370
     0
100
AcDbVertex
100
AcDb2dVertex
 10
257.842793486343
 20
-303.8535000000002
 30
0.0
  0
VERTEX
  5
235
330
232
100
AcDbEntity
  8
Base
370
     0
100
AcDbVertex
100
AcDb2dVertex
 10
257.8461934862571
 20
-307.9858000000004
 30
0.0
  0
VERTEX
  5
236
330
232
100
AcDbEntity
  8
Base
370
     0
100
AcDbVertex
100
AcDb2dVertex
 10
258.804193462056
 20
-307.9575000000004
 30
0.0
  0
VERTEX
  5
237
330
232
100
AcDbEntity
  8
Base
370
     0
100
AcDbVertex
100
AcDb2dVertex
 10
258.7997934621671
 20
-303.8285999999998
 30
0.0
  0
SEQEND
  5
238
330
232
100
AcDbEntity
  8
Base
370
     0
  0
ENDBLK
  5
20E
330
20B
100
AcDbEntity
  8
0
100
AcDbBlockEnd
  0
BLOCK
  5
25E
330
25C
100
AcDbEntity
  8
0
100
AcDbBlockBegin
  2
block 4
 70
     0
 10
0.0
 20
0.0
 30
0.0
  3
block 4
  1

  0
POLYLINE
  5
260
330
25C
100
AcDbEntity
  8
Base
370
     0
100
AcDb2dPolyline
 66
     1
 10
0.0
 20
0.0
 30
0.0
  0
VERTEX
  5
261
330
260
100
AcDbEntity
  8
Base
370
     0
100
AcDbVertex
100
AcDb2dVertex
 10
263.4052933458224
 20
-274.0604999999996
 30
0.0
  0
VERTEX
  5
262
330
260
100
AcDbEntity
  8
Base
370
     0
100
AcDbVertex
100
AcDb2dVertex
 10
262.4618933696547
 20
-274.0614999999998
 30
0.0
  0
VERTEX
  5
263
330
260
100
AcDbEntity
  8
Base
370
     0
100
AcDbVertex
100
AcDb2dVertex
 10
262.470193369445
 20
-278.1187
 30
0.0
  0
VERTEX
  5
264
330
260
100
AcDbEntity
  8
Base
370
     0
100
AcDbVertex
100
AcDb2dVertex
 10
263.4140933456001
 20
-278.1143000000002
 30
0.0
  0
VERTEX
  5
265
330
260
100
AcDbEntity
  8
Base
370
     0
100
AcDbVertex
100
AcDb2dVertex
 10
263.4052933458224
 20
-274.0604999999996
 30
0.0
  0
SEQEND
  5
266
330
260
100
AcDbEntity
  8
Base
370
     0
  0
POLYLINE
  5
267
330
25C
100
AcDbEntity
  8
Base
370
     0
100
AcDb2dPolyline
 66
     1
 10
0.0
 20
0.0
 30
0.0
  0
VERTEX
  5
268
330
267
100
AcDbEntity
  8
Base
370
     0
100
AcDbVertex
100
AcDb2dVertex
 10
262.4818933691495
 20
-284.0312999999996
 30
0.0
  0
VERTEX
  5
269
330
267
100
AcDbEntity
  8
Base
370
     0
100
AcDbVertex
100
AcDb2dVertex
 10
263.4262933452919
 20
-284.0219999999999
 30
0.0
  0
VERTEX
  5
26A
330
267
100
AcDbEntity
  8
Base
370
     0
100
AcDbVertex
100
AcDb2dVertex
 10
263.4174933455142
 20
-279.9561000000003
 30
0.0
  0
VERTEX
  5
26B
330
267
100
AcDbEntity
  8
Base
370
     0
100
AcDbVertex
100
AcDb2dVertex
 10
262.4740933693465
 20
-279.9619000000002
 30
0.0
  0
VERTEX
  5
26C
330
267
100
AcDbEntity
  8
Base
370
     0
100
AcDbVertex
100
AcDb2dVertex
 10
262.4818933691495
 20
-284.0312999999996
 30
0.0
  0
SEQEND
  5
26D
330
267
100
AcDbEntity
  8
Base
370
     0
  0
POLYLINE
  5
26E
330
25C
100
AcDbEntity
  8
Base
370
     0
100
AcDb2dPolyline
 66
     1
 10
0.0
 20
0.0
 30
0.0
  0
VERTEX
  5
26F
330
26E
100
AcDbEntity
  8
Base
370
     0
100
AcDbVertex
100
AcDb2dVertex
 10
262.493193368864
 20
-289.9594999999999
 30
0.0
  0
VERTEX
  5
270
330
26E
100
AcDbEntity
  8
Base
370
     0
100
AcDbVertex
100
AcDb2dVertex
 10
263.4398933449484
 20
-289.9458000000004
 30
0.0
  0
VERTEX
  5
271
330
26E
100
AcDbEntity
  8
Base
370
     0
100
AcDbVertex
100
AcDb2dVertex
 10
263.4306933451808
 20
-285.8687
 30
0.0
  0
VERTEX
  5
272
330
26E
100
AcDbEntity
  8
Base
370
     0
100
AcDbVertex
100
AcDb2dVertex
 10
262.4853933690611
 20
-285.8793999999998
 30
0.0
  0
VERTEX
  5
273
330
26E
100
AcDbEntity
  8
Base
370
     0
100
AcDbVertex
100
AcDb2dVertex
 10
262.493193368864
 20
-289.9594999999999
 30
0.0
  0
SEQEND
  5
274
330
26E
100
AcDbEntity
  8
Base
370
     0
  0
POLYLINE
  5
275
330
25C
100
AcDbEntity
  8
Base
370
     0
100
AcDb2dPolyline
 66
     1
 10
0.0
 20
0.0
 30
0.0
  0
VERTEX
  5
276
330
275
100
AcDbEntity
  8
Base
370
     0
100
AcDbVertex
100
AcDb2dVertex
 10
262.5043933685811
 20
-295.9048000000003
 30
0.0
  0
VERTEX
  5
277
330
275
100
AcDbEntity
  8
Base
370
     0
100
AcDbVertex
100
AcDb2dVertex
 10
263.4525933446275
 20
-295.8861999999999
 30
0.0
  0
VERTEX
  5
278
330
275
100
AcDbEntity
  8
Base
370
     0
100
AcDbVertex
100
AcDb2dVertex
 10
263.4437933448498
 20
-291.7978999999996
 30
0.0
  0
VERTEX
  5
279
330
275
100
AcDbEntity
  8
Base
370
     0
100
AcDbVertex
100
AcDb2dVertex
 10
262.4965933687781
 20
-291.8130000000001
 30
0.0
  0
VERTEX
  5
27A
330
275
100
AcDbEntity
  8
Base
370
     0
100
AcDbVertex
100
AcDb2dVertex
 10
262.5043933685811
 20
-295.9048000000003
 30
0.0
  0
SEQEND
  5
27B
330
275
100
AcDbEntity
  8
Base
370
     0
  0
POLYLINE
  5
27C
330
25C
100
AcDbEntity
  8
Base
370
     0
100
AcDb2dPolyline
 66
     1
 10
0.0
 20
0.0
 30
0.0
  0
VERTEX
  5
27D
330
27C
100
AcDbEntity
  8
Base
370
     0
100
AcDbVertex
100
AcDb2dVertex
 10
262.5160933682864
 20
-301.8676999999998
 30
0.0
  0
VERTEX
  5
27E
330
27C
100
AcDbEntity
  8
Base
370
     0
100
AcDbVertex
100
AcDb2dVertex
 10
263.4657933442941
 20
-301.8446999999996
 30
0.0
  0
VERTEX
  5
27F
330
27C
100
AcDbEntity
  8
Base
370
     0
100
AcDbVertex
100
AcDb2dVertex
 10
263.456493344529
 20
-297.7440999999999
 30
0.0
  0
VERTEX
  5
280
330
27C
100
AcDbEntity
  8
Base
370
     0
100
AcDbVertex
100
AcDb2dVertex
 10
262.5082933684826
 20
-297.7641999999996
 30
0.0
  0
VERTEX
  5
281
330
27C
100
AcDbEntity
  8
Base
370
     0
100
AcDbVertex
100
AcDb2dVertex
 10
262.5160933682864
 20
-301.8676999999998
 30
0.0
  0
SEQEND
  5
282
330
27C
100
AcDbEntity
  8
Base
370
     0
  0
POLYLINE
  5
283
330
25C
100
AcDbEntity
  8
Base
370
     0
100
AcDb2dPolyline
 66
     1
 10
0.0
 20
0.0
 30
0.0
  0
VERTEX
  5
284
330
283
100
AcDbEntity
  8
Base
370
     0
100
AcDbVertex
100
AcDb2dVertex
 10
263.4696933441955
 20
-303.7070000000003
 30
0.0
  0
VERTEX
  5
285
330
283
100
AcDbEntity
  8
Base
370
     0
100
AcDbVertex
100
AcDb2dVertex
 10
262.5200000000004
 20
-303.7318999999998
 30
0.0
  0
VERTEX
  5
286
330
283
100
AcDbEntity
  8
Base
370
     0
100
AcDbVertex
100
AcDb2dVertex
 10
262.5277933679899
 20
-307.8472000000002
 30
0.0
  0
VERTEX
  5
287
330
283
100
AcDbEntity
  8
Base
370
     0
100
AcDbVertex
100
AcDb2dVertex
 10
263.4784933439732
 20
-307.8193000000001
 30
0.0
  0
VERTEX
  5
288
330
283
100
AcDbEntity
  8
Base
370
     0
100
AcDbVertex
100
AcDb2dVertex
 10
263.4696933441955
 20
-303.7070000000003
 30
0.0
  0
SEQEND
  5
289
330
283
100
AcDbEntity
  8
Base
370
     0
  0
ENDBLK
  5
25F
330
25C
100
AcDbEntity
  8
0
100
AcDbBlockEnd
  0
BLOCK
  5
2AF
330
2AD
100
AcDbEntity
  8
0
100
AcDbBlockBegin
  2
block 5
 70
     0
 10
0.0
 20
0.0
 30
0.0
  3
block 5
  1

  0
POLYLINE
  5
2B1
330
2AD
100
AcDbEntity
  8
Base
370
     0
100
AcDb2dPolyline
 66
     1
 10
0.0
 20
0.0
 30
0.0
  0
VERTEX
  5
2B2
330
2B1
100
AcDbEntity
  8
Base
370
     0
100
AcDbVertex
100
AcDb2dVertex
 10
268.0058932296024
 20
-274.0551999999998
 30
0.0
  0
VERTEX
  5
2B3
330
2B1
100
AcDbEntity
  8
Base
370
     0
100
AcDbVertex
100
AcDb2dVertex
 10
267.0702932532367
 20
-274.0562
 30
0.0
  0
VERTEX
  5
2B4
330
2B1
100
AcDbEntity
  8
Base
370
     0
100
AcDbVertex
100
AcDb2dVertex
 10
267.0824932529285
 20
-278.0977000000003
 30
0.0
  0
VERTEX
  5
2B5
330
2B1
100
AcDbEntity
  8
Base
370
     0
100
AcDbVertex
100
AcDb2dVertex
 10
268.0190000000002
 20
-278.0933000000005
 30
0.0
  0
VERTEX
  5
2B6
330
2B1
100
AcDbEntity
  8
Base
370
     0
100
AcDbVertex
100
AcDb2dVertex
 10
268.0058932296024
 20
-274.0551999999998
 30
0.0
  0
SEQEND
  5
2B7
330
2B1
100
AcDbEntity
  8
Base
370
     0
  0
POLYLINE
  5
2B8
330
2AD
100
AcDbEntity
  8
Base
370
     0
100
AcDb2dPolyline
 66
     1
 10
0.0
 20
0.0
 30
0.0
  0
VERTEX
  5
2B9
330
2B8
100
AcDbEntity
  8
Base
370
     0
100
AcDbVertex
100
AcDb2dVertex
 10
267.1010932524587
 20
-283.9867999999997
 30
0.0
  0
VERTEX
  5
2BA
330
2B8
100
AcDbEntity
  8
Base
370
     0
100
AcDbVertex
100
AcDb2dVertex
 10
268.0380932287881
 20
-283.9780000000001
 30
0.0
  0
VERTEX
  5
2BB
330
2B8
100
AcDbEntity
  8
Base
370
     0
100
AcDbVertex
100
AcDb2dVertex
 10
268.0248932291215
 20
-279.9277000000002
 30
0.0
  0
VERTEX
  5
2BC
330
2B8
100
AcDbEntity
  8
Base
370
     0
100
AcDbVertex
100
AcDb2dVertex
 10
267.0883932527804
 20
-279.9336000000003
 30
0.0
  0
VERTEX
  5
2BD
330
2B8
100
AcDbEntity
  8
Base
370
     0
100
AcDbVertex
100
AcDb2dVertex
 10
267.1010932524587
 20
-283.9867999999997
 30
0.0
  0
SEQEND
  5
2BE
330
2B8
100
AcDbEntity
  8
Base
370
     0
  0
POLYLINE
  5
2BF
330
2AD
100
AcDbEntity
  8
Base
370
     0
100
AcDb2dPolyline
 66
     1
 10
0.0
 20
0.0
 30
0.0
  0
VERTEX
  5
2C0
330
2BF
100
AcDbEntity
  8
Base
370
     0
100
AcDbVertex
100
AcDb2dVertex
 10
267.1186932520141
 20
-289.8921
 30
0.0
  0
VERTEX
  5
2C1
330
2BF
100
AcDbEntity
  8
Base
370
     0
100
AcDbVertex
100
AcDb2dVertex
 10
268.0580932282828
 20
-289.8783999999996
 30
0.0
  0
VERTEX
  5
2C2
330
2BF
100
AcDbEntity
  8
Base
370
     0
100
AcDbVertex
100
AcDb2dVertex
 10
268.0443932286289
 20
-285.8173999999999
 30
0.0
  0
VERTEX
  5
2C3
330
2BF
100
AcDbEntity
  8
Base
370
     0
100
AcDbVertex
100
AcDb2dVertex
 10
267.1059999999998
 20
-285.8280999999997
 30
0.0
  0
VERTEX
  5
2C4
330
2BF
100
AcDbEntity
  8
Base
370
     0
100
AcDbVertex
100
AcDb2dVertex
 10
267.1186932520141
 20
-289.8921
 30
0.0
  0
SEQEND
  5
2C5
330
2BF
100
AcDbEntity
  8
Base
370
     0
  0
POLYLINE
  5
2C6
330
2AD
100
AcDbEntity
  8
Base
370
     0
100
AcDb2dPolyline
 66
     1
 10
0.0
 20
0.0
 30
0.0
  0
VERTEX
  5
2C7
330
2C6
100
AcDbEntity
  8
Base
370
     0
100
AcDbVertex
100
AcDb2dVertex
 10
267.1366932515593
 20
-295.8145000000004
 30
0.0
  0
VERTEX
  5
2C8
330
2C6
100
AcDbEntity
  8
Base
370
     0
100
AcDbVertex
100
AcDb2dVertex
 10
268.0770932278028
 20
-295.7959000000001
 30
0.0
  0
VERTEX
  5
2C9
330
2C6
100
AcDbEntity
  8
Base
370
     0
100
AcDbVertex
100
AcDb2dVertex
 10
268.0640000000003
 20
-291.7231000000002
 30
0.0
  0
VERTEX
  5
2CA
330
2C6
100
AcDbEntity
  8
Base
370
     0
100
AcDbVertex
100
AcDb2dVertex
 10
267.1239999999998
 20
-291.7383
 30
0.0
  0
VERTEX
  5
2CB
330
2C6
100
AcDbEntity
  8
Base
370
     0
100
AcDbVertex
100
AcDb2dVertex
 10
267.1366932515593
 20
-295.8145000000004
 30
0.0
  0
SEQEND
  5
2CC
330
2C6
100
AcDbEntity
  8
Base
370
     0
  0
POLYLINE
  5
2CD
330
2AD
100
AcDbEntity
  8
Base
370
     0
100
AcDb2dPolyline
 66
     1
 10
0.0
 20
0.0
 30
0.0
  0
VERTEX
  5
2CE
330
2CD
100
AcDbEntity
  8
Base
370
     0
100
AcDbVertex
100
AcDb2dVertex
 10
267.1547932511021
 20
-301.7538999999997
 30
0.0
  0
VERTEX
  5
2CF
330
2CD
100
AcDbEntity
  8
Base
370
     0
100
AcDbVertex
100
AcDb2dVertex
 10
268.0966932273077
 20
-301.7309999999998
 30
0.0
  0
VERTEX
  5
2D0
330
2CD
100
AcDbEntity
  8
Base
370
     0
100
AcDbVertex
100
AcDb2dVertex
 10
268.0834932276412
 20
-297.6464999999998
 30
0.0
  0
VERTEX
  5
2D1
330
2CD
100
AcDbEntity
  8
Base
370
     0
100
AcDbVertex
100
AcDb2dVertex
 10
267.1420932514229
 20
-297.6665000000003
 30
0.0
  0
VERTEX
  5
2D2
330
2CD
100
AcDbEntity
  8
Base
370
     0
100
AcDbVertex
100
AcDb2dVertex
 10
267.1547932511021
 20
-301.7538999999997
 30
0.0
  0
SEQEND
  5
2D3
330
2CD
100
AcDbEntity
  8
Base
370
     0
  0
POLYLINE
  5
2D4
330
2AD
100
AcDbEntity
  8
Base
370
     0
100
AcDb2dPolyline
 66
     1
 10
0.0
 20
0.0
 30
0.0
  0
VERTEX
  5
2D5
330
2D4
100
AcDbEntity
  8
Base
370
     0
100
AcDbVertex
100
AcDb2dVertex
 10
268.1030000000001
 20
-303.5859
 30
0.0
  0
VERTEX
  5
2D6
330
2D4
100
AcDbEntity
  8
Base
370
     0
100
AcDbVertex
100
AcDb2dVertex
 10
267.1605932509556
 20
-303.6108000000004
 30
0.0
  0
VERTEX
  5
2D7
330
2D4
100
AcDbEntity
  8
Base
370
     0
100
AcDbVertex
100
AcDb2dVertex
 10
267.1728932506448
 20
-307.71
 30
0.0
  0
VERTEX
  5
2D8
330
2D4
100
AcDbEntity
  8
Base
370
     0
100
AcDbVertex
100
AcDb2dVertex
 10
268.1161932268151
 20
-307.6821
 30
0.0
  0
VERTEX
  5
2D9
330
2D4
100
AcDbEntity
  8
Base
370
     0
100
AcDbVertex
100
AcDb2dVertex
 10
268.1030000000001
 20
-303.5859
 30
0.0
  0
SEQEND
  5
2DA
330
2D4
100
AcDbEntity
  8
Base
370
     0
  0
ENDBLK
  5
2B0
330
2AD
100
AcDbEntity
  8
0
100
AcDbBlockEnd
  0
BLOCK
  5
2E5
330
2E3
100
AcDbEntity
  8
0
100
AcDbBlockBegin
  2
block 6
 70
     0
 10
0.0
 20
0.0
 30
0.0
  3
block 6
  1

  0
POLYLINE
  5
2E7
330
2E3
100
AcDbEntity
  8
Base
 62
   250
420
  2301728
370
    18
100
AcDb2dPolyline
 66
     1
 10
0.0
 20
0.0
 30
0.0
  0
VERTEX
  5
2E8
330
2E7
100
AcDbEntity
  8
Base
 62
   250
420
  2301728
370
    18
100
AcDbVertex
100
AcDb2dVertex
 10
256.4384935218186
 20
-277.0464000000002
 30
0.0
  0
VERTEX
  5
2E9
330
2E7
100
AcDbEntity
  8
Base
 62
   250
420
  2301728
370
    18
100
AcDbVertex
100
AcDb2dVertex
 10
255.4833935459465
 20
-277.0502999999999
 30
0.0
  0
VERTEX
  5
2EA
330
2E7
100
AcDbEntity
  8
Base
 62
   250
420
  2301728
370
    18
100
AcDbVertex
100
AcDb2dVertex
 10
255.4843935459212
 20
-281.1372000000001
 30
0.0
  0
VERTEX
  5
2EB
330
2E7
100
AcDbEntity
  8
Base
 62
   250
420
  2301728
370
    18
100
AcDbVertex
100
AcDb2dVertex
 10
256.4403935217706
 20
-281.1304
 30
0.0
  0
VERTEX
  5
2EC
330
2E7
100
AcDbEntity
  8
Base
 62
   250
420
  2301728
370
    18
100
AcDbVertex
100
AcDb2dVertex
 10
256.4384935218186
 20
-277.0464000000002
 30
0.0
  0
SEQEND
  5
2ED
330
2E7
100
AcDbEntity
  8
Base
 62
   250
420
  2301728
370
    18
  0
POLYLINE
  5
2EE
330
2E3
100
AcDbEntity
  8
Base
 62
   250
420
  2301728
370
    18
100
AcDb2dPolyline
 66
     1
 10
0.0
 20
0.0
 30
0.0
  0
VERTEX
  5
2EF
330
2EE
100
AcDbEntity
  8
Base
 62
   250
420
  2301728
370
    18
100
AcDbVertex
100
AcDb2dVertex
 10
255.4867935458606
 20
-287.0928000000004
 30
0.0
  0
VERTEX
  5
2F0
330
2EE
100
AcDbEntity
  8
Base
 62
   250
420
  2301728
370
    18
100
AcDbVertex
100
AcDb2dVertex
 10
256.4428935217074
 20
-287.0811000000003
 30
0.0
  0
VERTEX
  5
2F1
330
2EE
100
AcDbEntity
  8
Base
 62
   250
420
  2301728
370
    18
100
AcDbVertex
100
AcDb2dVertex
 10
256.440893521758
 20
-282.9853999999996
 30
0.0
  0
VERTEX
  5
2F2
330
2EE
100
AcDbEntity
  8
Base
 62
   250
420
  2301728
370
    18
100
AcDbVertex
100
AcDb2dVertex
 10
255.4853935458959
 20
-282.9937
 30
0.0
  0
VERTEX
  5
2F3
330
2EE
100
AcDbEntity
  8
Base
 62
   250
420
  2301728
370
    18
100
AcDbVertex
100
AcDb2dVertex
 10
255.4867935458606
 20
-287.0928000000004
 30
0.0
  0
SEQEND
  5
2F4
330
2EE
100
AcDbEntity
  8
Base
 62
   250
420
  2301728
370
    18
  0
POLYLINE
  5
2F5
330
2E3
100
AcDbEntity
  8
Base
 62
   250
420
  2301728
370
    18
100
AcDb2dPolyline
 66
     1
 10
0.0
 20
0.0
 30
0.0
  0
VERTEX
  5
2F6
330
2F5
100
AcDbEntity
  8
Base
 62
   250
420
  2301728
370
    18
100
AcDbVertex
100
AcDb2dVertex
 10
255.4877935458353
 20
-293.0645000000004
 30
0.0
  0
VERTEX
  5
2F7
330
2F5
100
AcDbEntity
  8
Base
 62
   250
420
  2301728
370
    18
100
AcDbVertex
100
AcDb2dVertex
 10
256.4462935216216
 20
-293.0483000000004
 30
0.0
  0
VERTEX
  5
2F8
330
2F5
100
AcDbEntity
  8
Base
 62
   250
420
  2301728
370
    18
100
AcDbVertex
100
AcDb2dVertex
 10
256.4442935216721
 20
-288.9413999999997
 30
0.0
  0
VERTEX
  5
2F9
330
2F5
100
AcDbEntity
  8
Base
 62
   250
420
  2301728
370
    18
100
AcDbVertex
100
AcDb2dVertex
 10
255.4867935458606
 20
-288.9540999999999
 30
0.0
  0
VERTEX
  5
2FA
330
2F5
100
AcDbEntity
  8
Base
 62
   250
420
  2301728
370
    18
100
AcDbVertex
100
AcDb2dVertex
 10
255.4877935458353
 20
-293.0645000000004
 30
0.0
  0
SEQEND
  5
2FB
330
2F5
100
AcDbEntity
  8
Base
 62
   250
420
  2301728
370
    18
  0
POLYLINE
  5
2FC
330
2E3
100
AcDbEntity
  8
Base
 62
   250
420
  2301728
370
    18
100
AcDb2dPolyline
 66
     1
 10
0.0
 20
0.0
 30
0.0
  0
VERTEX
  5
2FD
330
2FC
100
AcDbEntity
  8
Base
 62
   250
420
  2301728
370
    18
100
AcDbVertex
100
AcDb2dVertex
 10
255.4892935457974
 20
-299.0537000000004
 30
0.0
  0
VERTEX
  5
2FE
330
2FC
100
AcDbEntity
  8
Base
 62
   250
420
  2301728
370
    18
100
AcDbVertex
100
AcDb2dVertex
 10
256.4491935215483
 20
-299.0326999999997
 30
0.0
  0
VERTEX
  5
2FF
330
2FC
100
AcDbEntity
  8
Base
 62
   250
420
  2301728
370
    18
100
AcDbVertex
100
AcDb2dVertex
 10
256.4472935215963
 20
-294.9141
 30
0.0
  0
VERTEX
  5
300
330
2FC
100
AcDbEntity
  8
Base
 62
   250
420
  2301728
370
    18
100
AcDbVertex
100
AcDb2dVertex
 10
255.4882935458227
 20
-294.9315999999999
 30
0.0
  0
VERTEX
  5
301
330
2FC
100
AcDbEntity
  8
Base
 62
   250
420
  2301728
370
    18
100
AcDbVertex
100
AcDb2dVertex
 10
255.4892935457974
 20
-299.0537000000004
 30
0.0
  0
SEQEND
  5
302
330
2FC
100
AcDbEntity
  8
Base
 62
   250
420
  2301728
370
    18
  0
POLYLINE
  5
303
330
2E3
100
AcDbEntity
  8
Base
 62
   250
420
  2301728
370
    18
100
AcDb2dPolyline
 66
     1
 10
0.0
 20
0.0
 30
0.0
  0
VERTEX
  5
304
330
303
100
AcDbEntity
  8
Base
 62
   250
420
  2301728
370
    18
100
AcDbVertex
100
AcDb2dVertex
 10
255.4911935457494
 20
-305.0609999999997
 30
0.0
  0
VERTEX
  5
305
330
303
100
AcDbEntity
  8
Base
 62
   250
420
  2301728
370
    18
100
AcDbVertex
100
AcDb2dVertex
 10
256.452093521475
 20
-305.0352000000003
 30
0.0
  0
VERTEX
  5
306
330
303
100
AcDbEntity
  8
Base
 62
   250
420
  2301728
370
    18
100
AcDbVertex
100
AcDb2dVertex
 10
256.450193521523
 20
-300.9043000000001
 30
0.0
  0
VERTEX
  5
307
330
303
100
AcDbEntity
  8
Base
 62
   250
420
  2301728
370
    18
100
AcDbVertex
100
AcDb2dVertex
 10
255.4896935457873
 20
-300.9268000000002
 30
0.0
  0
VERTEX
  5
308
330
303
100
AcDbEntity
  8
Base
 62
   250
420
  2301728
370
    18
100
AcDbVertex
100
AcDb2dVertex
 10
255.4911935457494
 20
-305.0609999999997
 30
0.0
  0
SEQEND
  5
309
330
303
100
AcDbEntity
  8
Base
 62
   250
420
  2301728
370
    18
  0
INSERT
  5
30B
330
2E3
100
AcDbEntity
  8
Base
100
AcDbBlockReference
  2
block 7
 10
0.0
 20
0.0
 30
0.0
  0
POLYLINE
  5
338
330
2E3
100
AcDbEntity
  8
Base
 62
   250
420
  2301728
370
    18
100
AcDb2dPolyline
 66
     1
 10
0.0
 20
0.0
 30
0.0
  0
VERTEX
  5
339
330
338
100
AcDbEntity
  8
Base
 62
   250
420
  2301728
370
    18
100
AcDbVertex
100
AcDb2dVertex
 10
261.0966934041426
 20
-277.0293000000001
 30
0.0
  0
VERTEX
  5
33A
330
338
100
AcDbEntity
  8
Base
 62
   250
420
  2301728
370
    18
100
AcDbVertex
100
AcDb2dVertex
 10
260.1483934280986
 20
-277.0331999999999
 30
0.0
  0
VERTEX
  5
33B
330
338
100
AcDbEntity
  8
Base
 62
   250
420
  2301728
370
    18
100
AcDbVertex
100
AcDb2dVertex
 10
260.1542934279496
 20
-281.1040000000003
 30
0.0
  0
VERTEX
  5
33C
330
338
100
AcDbEntity
  8
Base
 62
   250
420
  2301728
370
    18
100
AcDbVertex
100
AcDb2dVertex
 10
261.1030000000001
 20
-281.0972000000002
 30
0.0
  0
VERTEX
  5
33D
330
338
100
AcDbEntity
  8
Base
 62
   250
420
  2301728
370
    18
100
AcDbVertex
100
AcDb2dVertex
 10
261.0966934041426
 20
-277.0293000000001
 30
0.0
  0
SEQEND
  5
33E
330
338
100
AcDbEntity
  8
Base
 62
   250
420
  2301728
370
    18
  0
POLYLINE
  5
33F
330
2E3
100
AcDbEntity
  8
Base
 62
   250
420
  2301728
370
    18
100
AcDb2dPolyline
 66
     1
 10
0.0
 20
0.0
 30
0.0
  0
VERTEX
  5
340
330
33F
100
AcDbEntity
  8
Base
 62
   250
420
  2301728
370
    18
100
AcDbVertex
100
AcDb2dVertex
 10
260.1635934277147
 20
-287.0361000000003
 30
0.0
  0
VERTEX
  5
341
330
33F
100
AcDbEntity
  8
Base
 62
   250
420
  2301728
370
    18
100
AcDbVertex
100
AcDb2dVertex
 10
261.1122934037485
 20
-287.0249000000003
 30
0.0
  0
VERTEX
  5
342
330
33F
100
AcDbEntity
  8
Base
 62
   250
420
  2301728
370
    18
100
AcDbVertex
100
AcDb2dVertex
 10
261.1054934039203
 20
-282.9448000000002
 30
0.0
  0
VERTEX
  5
343
330
33F
100
AcDbEntity
  8
Base
 62
   250
420
  2301728
370
    18
100
AcDbVertex
100
AcDb2dVertex
 10
260.1576934278637
 20
-282.9530999999997
 30
0.0
  0
VERTEX
  5
344
330
33F
100
AcDbEntity
  8
Base
 62
   250
420
  2301728
370
    18
100
AcDbVertex
100
AcDb2dVertex
 10
260.1635934277147
 20
-287.0361000000003
 30
0.0
  0
SEQEND
  5
345
330
33F
100
AcDbEntity
  8
Base
 62
   250
420
  2301728
370
    18
  0
POLYLINE
  5
346
330
2E3
100
AcDbEntity
  8
Base
 62
   250
420
  2301728
370
    18
100
AcDb2dPolyline
 66
     1
 10
0.0
 20
0.0
 30
0.0
  0
VERTEX
  5
347
330
346
100
AcDbEntity
  8
Base
 62
   250
420
  2301728
370
    18
100
AcDbVertex
100
AcDb2dVertex
 10
260.1703934275429
 20
-292.9849000000004
 30
0.0
  0
VERTEX
  5
348
330
346
100
AcDbEntity
  8
Base
 62
   250
420
  2301728
370
    18
100
AcDbVertex
100
AcDb2dVertex
 10
261.1220934035009
 20
-292.9687999999996
 30
0.0
  0
VERTEX
  5
349
330
346
100
AcDbEntity
  8
Base
 62
   250
420
  2301728
370
    18
100
AcDbVertex
100
AcDb2dVertex
 10
261.1156934036626
 20
-288.8779000000004
 30
0.0
  0
VERTEX
  5
34A
330
346
100
AcDbEntity
  8
Base
 62
   250
420
  2301728
370
    18
100
AcDbVertex
100
AcDb2dVertex
 10
260.165
 20
-288.8905999999997
 30
0.0
  0
VERTEX
  5
34B
330
346
100
AcDbEntity
  8
Base
 62
   250
420
  2301728
370
    18
100
AcDbVertex
100
AcDb2dVertex
 10
260.1703934275429
 20
-292.9849000000004
 30
0.0
  0
SEQEND
  5
34C
330
346
100
AcDbEntity
  8
Base
 62
   250
420
  2301728
370
    18
  0
POLYLINE
  5
34D
330
2E3
100
AcDbEntity
  8
Base
 62
   250
420
  2301728
370
    18
100
AcDb2dPolyline
 66
     1
 10
0.0
 20
0.0
 30
0.0
  0
VERTEX
  5
34E
330
34D
100
AcDbEntity
  8
Base
 62
   250
420
  2301728
370
    18
100
AcDbVertex
100
AcDb2dVertex
 10
260.1786934273332
 20
-298.9507000000003
 30
0.0
  0
VERTEX
  5
34F
330
34D
100
AcDbEntity
  8
Base
 62
   250
420
  2301728
370
    18
100
AcDbVertex
100
AcDb2dVertex
 10
261.1317934032559
 20
-298.9296999999997
 30
0.0
  0
VERTEX
  5
350
330
34D
100
AcDbEntity
  8
Base
 62
   250
420
  2301728
370
    18
100
AcDbVertex
100
AcDb2dVertex
 10
261.125
 20
-294.8271000000004
 30
0.0
  0
VERTEX
  5
351
330
34D
100
AcDbEntity
  8
Base
 62
   250
420
  2301728
370
    18
100
AcDbVertex
100
AcDb2dVertex
 10
260.1732934274696
 20
-294.8446999999996
 30
0.0
  0
VERTEX
  5
352
330
34D
100
AcDbEntity
  8
Base
 62
   250
420
  2301728
370
    18
100
AcDbVertex
100
AcDb2dVertex
 10
260.1786934273332
 20
-298.9507000000003
 30
0.0
  0
SEQEND
  5
353
330
34D
100
AcDbEntity
  8
Base
 62
   250
420
  2301728
370
    18
  0
POLYLINE
  5
354
330
2E3
100
AcDbEntity
  8
Base
 62
   250
420
  2301728
370
    18
100
AcDb2dPolyline
 66
     1
 10
0.0
 20
0.0
 30
0.0
  0
VERTEX
  5
355
330
354
100
AcDbEntity
  8
Base
 62
   250
420
  2301728
370
    18
100
AcDbVertex
100
AcDb2dVertex
 10
260.1874934271109
 20
-304.9341000000004
 30
0.0
  0
VERTEX
  5
356
330
354
100
AcDbEntity
  8
Base
 62
   250
420
  2301728
370
    18
100
AcDbVertex
100
AcDb2dVertex
 10
261.1415934030083
 20
-304.9081999999999
 30
0.0
  0
VERTEX
  5
357
330
354
100
AcDbEntity
  8
Base
 62
   250
420
  2301728
370
    18
100
AcDbVertex
100
AcDb2dVertex
 10
261.1347934031801
 20
-300.7934999999998
 30
0.0
  0
VERTEX
  5
358
330
354
100
AcDbEntity
  8
Base
 62
   250
420
  2301728
370
    18
100
AcDbVertex
100
AcDb2dVertex
 10
260.1815934272599
 20
-300.8163999999997
 30
0.0
  0
VERTEX
  5
359
330
354
100
AcDbEntity
  8
Base
 62
   250
420
  2301728
370
    18
100
AcDbVertex
100
AcDb2dVertex
 10
260.1874934271109
 20
-304.9341000000004
 30
0.0
  0
SEQEND
  5
35A
330
354
100
AcDbEntity
  8
Base
 62
   250
420
  2301728
370
    18
  0
INSERT
  5
35C
330
2E3
100
AcDbEntity
  8
Base
100
AcDbBlockReference
  2
block 8
 10
0.0
 20
0.0
 30
0.0
  0
POLYLINE
  5
389
330
2E3
100
AcDbEntity
  8
Base
 62
   250
420
  2301728
370
    18
100
AcDb2dPolyline
 66
     1
 10
0.0
 20
0.0
 30
0.0
  0
VERTEX
  5
38A
330
389
100
AcDbEntity
  8
Base
 62
   250
420
  2301728
370
    18
100
AcDbVertex
100
AcDb2dVertex
 10
265.7177932874038
 20
-277.0127000000002
 30
0.0
  0
VERTEX
  5
38B
330
389
100
AcDbEntity
  8
Base
 62
   250
420
  2301728
370
    18
100
AcDbVertex
100
AcDb2dVertex
 10
264.7782933111375
 20
-277.0160999999998
 30
0.0
  0
VERTEX
  5
38C
330
389
100
AcDbEntity
  8
Base
 62
   250
420
  2301728
370
    18
100
AcDbVertex
100
AcDb2dVertex
 10
264.7885933108773
 20
-281.0712999999996
 30
0.0
  0
VERTEX
  5
38D
330
389
100
AcDbEntity
  8
Base
 62
   250
420
  2301728
370
    18
100
AcDbVertex
100
AcDb2dVertex
 10
265.7290000000003
 20
-281.0645000000004
 30
0.0
  0
VERTEX
  5
38E
330
389
100
AcDbEntity
  8
Base
 62
   250
420
  2301728
370
    18
100
AcDbVertex
100
AcDb2dVertex
 10
265.7177932874038
 20
-277.0127000000002
 30
0.0
  0
SEQEND
  5
38F
330
389
100
AcDbEntity
  8
Base
 62
   250
420
  2301728
370
    18
  0
POLYLINE
  5
390
330
2E3
100
AcDbEntity
  8
Base
 62
   250
420
  2301728
370
    18
100
AcDb2dPolyline
 66
     1
 10
0.0
 20
0.0
 30
0.0
  0
VERTEX
  5
391
330
390
100
AcDbEntity
  8
Base
 62
   250
420
  2301728
370
    18
100
AcDbVertex
100
AcDb2dVertex
 10
264.8036933104959
 20
-286.9804999999997
 30
0.0
  0
VERTEX
  5
392
330
390
100
AcDbEntity
  8
Base
 62
   250
420
  2301728
370
    18
100
AcDbVertex
100
AcDb2dVertex
 10
265.7450932867141
 20
-286.9687999999996
 30
0.0
  0
VERTEX
  5
393
330
390
100
AcDbEntity
  8
Base
 62
   250
420
  2301728
370
    18
100
AcDbVertex
100
AcDb2dVertex
 10
265.733893286997
 20
-282.9053000000004
 30
0.0
  0
VERTEX
  5
394
330
390
100
AcDbEntity
  8
Base
 62
   250
420
  2301728
370
    18
100
AcDbVertex
100
AcDb2dVertex
 10
264.7934933107535
 20
-282.9130999999998
 30
0.0
  0
VERTEX
  5
395
330
390
100
AcDbEntity
  8
Base
 62
   250
420
  2301728
370
    18
100
AcDbVertex
100
AcDb2dVertex
 10
264.8036933104959
 20
-286.9804999999997
 30
0.0
  0
SEQEND
  5
396
330
390
100
AcDbEntity
  8
Base
 62
   250
420
  2301728
370
    18
  0
POLYLINE
  5
397
330
2E3
100
AcDbEntity
  8
Base
 62
   250
420
  2301728
370
    18
100
AcDb2dPolyline
 66
     1
 10
0.0
 20
0.0
 30
0.0
  0
VERTEX
  5
398
330
397
100
AcDbEntity
  8
Base
 62
   250
420
  2301728
370
    18
100
AcDbVertex
100
AcDb2dVertex
 10
264.8178933101372
 20
-292.9058000000005
 30
0.0
  0
VERTEX
  5
399
330
397
100
AcDbEntity
  8
Base
 62
   250
420
  2301728
370
    18
100
AcDbVertex
100
AcDb2dVertex
 10
265.7611932863074
 20
-292.8896000000004
 30
0.0
  0
VERTEX
  5
39A
330
397
100
AcDbEntity
  8
Base
 62
   250
420
  2301728
370
    18
100
AcDbVertex
100
AcDb2dVertex
 10
265.75
 20
-288.8145000000004
 30
0.0
  0
VERTEX
  5
39B
330
397
100
AcDbEntity
  8
Base
 62
   250
420
  2301728
370
    18
100
AcDbVertex
100
AcDb2dVertex
 10
264.8075933103974
 20
-288.8275999999996
 30
0.0
  0
VERTEX
  5
39C
330
397
100
AcDbEntity
  8
Base
 62
   250
420
  2301728
370
    18
100
AcDbVertex
100
AcDb2dVertex
 10
264.8178933101372
 20
-292.9058000000005
 30
0.0
  0
SEQEND
  5
39D
330
397
100
AcDbEntity
  8
Base
 62
   250
420
  2301728
370
    18
  0
POLYLINE
  5
39E
330
2E3
100
AcDbEntity
  8
Base
 62
   250
420
  2301728
370
    18
100
AcDb2dPolyline
 66
     1
 10
0.0
 20
0.0
 30
0.0
  0
VERTEX
  5
39F
330
39E
100
AcDbEntity
  8
Base
 62
   250
420
  2301728
370
    18
100
AcDbVertex
100
AcDb2dVertex
 10
264.8329999999996
 20
-298.8481000000002
 30
0.0
  0
VERTEX
  5
3A0
330
39E
100
AcDbEntity
  8
Base
 62
   250
420
  2301728
370
    18
100
AcDbVertex
100
AcDb2dVertex
 10
265.7772932859007
 20
-298.8271000000004
 30
0.0
  0
VERTEX
  5
3A1
330
39E
100
AcDbEntity
  8
Base
 62
   250
420
  2301728
370
    18
100
AcDbVertex
100
AcDb2dVertex
 10
265.7660932861836
 20
-294.7407000000003
 30
0.0
  0
VERTEX
  5
3A2
330
39E
100
AcDbEntity
  8
Base
 62
   250
420
  2301728
370
    18
100
AcDbVertex
100
AcDb2dVertex
 10
264.8227933100134
 20
-294.7583000000004
 30
0.0
  0
VERTEX
  5
3A3
330
39E
100
AcDbEntity
  8
Base
 62
   250
420
  2301728
370
    18
100
AcDbVertex
100
AcDb2dVertex
 10
264.8329999999996
 20
-298.8481000000002
 30
0.0
  0
SEQEND
  5
3A4
330
39E
100
AcDbEntity
  8
Base
 62
   250
420
  2301728
370
    18
  0
POLYLINE
  5
3A5
330
2E3
100
AcDbEntity
  8
Base
 62
   250
420
  2301728
370
    18
100
AcDb2dPolyline
 66
     1
 10
0.0
 20
0.0
 30
0.0
  0
VERTEX
  5
3A6
330
3A5
100
AcDbEntity
  8
Base
 62
   250
420
  2301728
370
    18
100
AcDbVertex
100
AcDb2dVertex
 10
264.8476933093843
 20
-304.8076000000001
 30
0.0
  0
VERTEX
  5
3A7
330
3A5
100
AcDbEntity
  8
Base
 62
   250
420
  2301728
370
    18
100
AcDbVertex
100
AcDb2dVertex
 10
265.7934932854914
 20
-304.7821999999996
 30
0.0
  0
VERTEX
  5
3A8
330
3A5
100
AcDbEntity
  8
Base
 62
   250
420
  2301728
370
    18
100
AcDbVertex
100
AcDb2dVertex
 10
265.7821932857769
 20
-300.6841000000004
 30
0.0
  0
VERTEX
  5
3A9
330
3A5
100
AcDbEntity
  8
Base
 62
   250
420
  2301728
370
    18
100
AcDbVertex
100
AcDb2dVertex
 10
264.8373933096445
 20
-300.7061000000003
 30
0.0
  0
VERTEX
  5
3AA
330
3A5
100
AcDbEntity
  8
Base
 62
   250
420
  2301728
370
    18
100
AcDbVertex
100
AcDb2dVertex
 10
264.8476933093843
 20
-304.8076000000001
 30
0.0
  0
SEQEND
  5
3AB
330
3A5
100
AcDbEntity
  8
Base
 62
   250
420
  2301728
370
    18
  0
INSERT
  5
3AD
330
2E3
100
AcDbEntity
  8
Base
100
AcDbBlockReference
  2
block 9
 10
0.0
 20
0.0
 30
0.0
  0
ENDBLK
  5
2E6
330
2E3
100
AcDbEntity
  8
0
100
AcDbBlockEnd
  0
BLOCK
  5
30C
330
30A
100
AcDbEntity
  8
0
100
AcDbBlockBegin
  2
block 7
 70
     0
 10
0.0
 20
0.0
 30
0.0
  3
block 7
  1

  0
POLYLINE
  5
30E
330
30A
100
AcDbEntity
  8
Base
 62
   250
420
  2301728
370
    18
100
AcDb2dPolyline
 66
     1
 10
0.0
 20
0.0
 30
0.0
  0
VERTEX
  5
30F
330
30E
100
AcDbEntity
  8
Base
 62
   250
420
  2301728
370
    18
100
AcDbVertex
100
AcDb2dVertex
 10
258.7685934629553
 20
-274.0658999999996
 30
0.0
  0
VERTEX
  5
310
330
30E
100
AcDbEntity
  8
Base
 62
   250
420
  2301728
370
    18
100
AcDbVertex
100
AcDb2dVertex
 10
257.817893486972
 20
-274.0668999999998
 30
0.0
  0
VERTEX
  5
311
330
30E
100
AcDbEntity
  8
Base
 62
   250
420
  2301728
370
    18
100
AcDbVertex
100
AcDb2dVertex
 10
257.8212934868861
 20
-278.1400999999996
 30
0.0
  0
VERTEX
  5
312
330
30E
100
AcDbEntity
  8
Base
 62
   250
420
  2301728
370
    18
100
AcDbVertex
100
AcDb2dVertex
 10
258.7728934628467
 20
-278.1356999999998
 30
0.0
  0
VERTEX
  5
313
330
30E
100
AcDbEntity
  8
Base
 62
   250
420
  2301728
370
    18
100
AcDbVertex
100
AcDb2dVertex
 10
258.7685934629553
 20
-274.0658999999996
 30
0.0
  0
SEQEND
  5
314
330
30E
100
AcDbEntity
  8
Base
 62
   250
420
  2301728
370
    18
  0
POLYLINE
  5
315
330
30A
100
AcDbEntity
  8
Base
 62
   250
420
  2301728
370
    18
100
AcDb2dPolyline
 66
     1
 10
0.0
 20
0.0
 30
0.0
  0
VERTEX
  5
316
330
315
100
AcDbEntity
  8
Base
 62
   250
420
  2301728
370
    18
100
AcDbVertex
100
AcDb2dVertex
 10
257.8266934867497
 20
-284.0752000000002
 30
0.0
  0
VERTEX
  5
317
330
315
100
AcDbEntity
  8
Base
 62
   250
420
  2301728
370
    18
100
AcDbVertex
100
AcDb2dVertex
 10
258.779293462685
 20
-284.0663999999997
 30
0.0
  0
VERTEX
  5
318
330
315
100
AcDbEntity
  8
Base
 62
   250
420
  2301728
370
    18
100
AcDbVertex
100
AcDb2dVertex
 10
258.7748934627962
 20
-279.9844000000003
 30
0.0
  0
VERTEX
  5
319
330
315
100
AcDbEntity
  8
Base
 62
   250
420
  2301728
370
    18
100
AcDbVertex
100
AcDb2dVertex
 10
257.8231934868381
 20
-279.9902000000002
 30
0.0
  0
VERTEX
  5
31A
330
315
100
AcDbEntity
  8
Base
 62
   250
420
  2301728
370
    18
100
AcDbVertex
100
AcDb2dVertex
 10
257.8266934867497
 20
-284.0752000000002
 30
0.0
  0
SEQEND
  5
31B
330
315
100
AcDbEntity
  8
Base
 62
   250
420
  2301728
370
    18
  0
POLYLINE
  5
31C
330
30A
100
AcDbEntity
  8
Base
 62
   250
420
  2301728
370
    18
100
AcDb2dPolyline
 66
     1
 10
0.0
 20
0.0
 30
0.0
  0
VERTEX
  5
31D
330
31C
100
AcDbEntity
  8
Base
 62
   250
420
  2301728
370
    18
100
AcDbVertex
100
AcDb2dVertex
 10
257.8314934866285
 20
-290.0272999999997
 30
0.0
  0
VERTEX
  5
31E
330
31C
100
AcDbEntity
  8
Base
 62
   250
420
  2301728
370
    18
100
AcDbVertex
100
AcDb2dVertex
 10
258.7855934625259
 20
-290.0137000000004
 30
0.0
  0
VERTEX
  5
31F
330
31C
100
AcDbEntity
  8
Base
 62
   250
420
  2301728
370
    18
100
AcDbVertex
100
AcDb2dVertex
 10
258.7812934626354
 20
-285.9198999999999
 30
0.0
  0
VERTEX
  5
320
330
31C
100
AcDbEntity
  8
Base
 62
   250
420
  2301728
370
    18
100
AcDbVertex
100
AcDb2dVertex
 10
257.8280934867144
 20
-285.9301999999998
 30
0.0
  0
VERTEX
  5
321
330
31C
100
AcDbEntity
  8
Base
 62
   250
420
  2301728
370
    18
100
AcDbVertex
100
AcDb2dVertex
 10
257.8314934866285
 20
-290.0272999999997
 30
0.0
  0
SEQEND
  5
322
330
31C
100
AcDbEntity
  8
Base
 62
   250
420
  2301728
370
    18
  0
POLYLINE
  5
323
330
30A
100
AcDbEntity
  8
Base
 62
   250
420
  2301728
370
    18
100
AcDb2dPolyline
 66
     1
 10
0.0
 20
0.0
 30
0.0
  0
VERTEX
  5
324
330
323
100
AcDbEntity
  8
Base
 62
   250
420
  2301728
370
    18
100
AcDbVertex
100
AcDb2dVertex
 10
257.8363934865047
 20
-295.9961000000003
 30
0.0
  0
VERTEX
  5
325
330
323
100
AcDbEntity
  8
Base
 62
   250
420
  2301728
370
    18
100
AcDbVertex
100
AcDb2dVertex
 10
258.7920000000004
 20
-295.9775
 30
0.0
  0
VERTEX
  5
326
330
323
100
AcDbEntity
  8
Base
 62
   250
420
  2301728
370
    18
100
AcDbVertex
100
AcDb2dVertex
 10
258.787093462488
 20
-291.8725999999997
 30
0.0
  0
VERTEX
  5
327
330
323
100
AcDbEntity
  8
Base
 62
   250
420
  2301728
370
    18
100
AcDbVertex
100
AcDb2dVertex
 10
257.8329999999996
 20
-291.8882000000003
 30
0.0
  0
VERTEX
  5
328
330
323
100
AcDbEntity
  8
Base
 62
   250
420
  2301728
370
    18
100
AcDbVertex
100
AcDb2dVertex
 10
257.8363934865047
 20
-295.9961000000003
 30
0.0
  0
SEQEND
  5
329
330
323
100
AcDbEntity
  8
Base
 62
   250
420
  2301728
370
    18
  0
POLYLINE
  5
32A
330
30A
100
AcDbEntity
  8
Base
 62
   250
420
  2301728
370
    18
100
AcDb2dPolyline
 66
     1
 10
0.0
 20
0.0
 30
0.0
  0
VERTEX
  5
32B
330
32A
100
AcDbEntity
  8
Base
 62
   250
420
  2301728
370
    18
100
AcDbVertex
100
AcDb2dVertex
 10
257.8412934863809
 20
-301.9823999999999
 30
0.0
  0
VERTEX
  5
32C
330
32A
100
AcDbEntity
  8
Base
 62
   250
420
  2301728
370
    18
100
AcDbVertex
100
AcDb2dVertex
 10
258.7978934622151
 20
-301.9589999999998
 30
0.0
  0
VERTEX
  5
32D
330
32A
100
AcDbEntity
  8
Base
 62
   250
420
  2301728
370
    18
100
AcDbVertex
100
AcDb2dVertex
 10
258.7938934623162
 20
-297.8428000000004
 30
0.0
  0
VERTEX
  5
32E
330
32A
100
AcDbEntity
  8
Base
 62
   250
420
  2301728
370
    18
100
AcDbVertex
100
AcDb2dVertex
 10
257.8378934864668
 20
-297.8627999999999
 30
0.0
  0
VERTEX
  5
32F
330
32A
100
AcDbEntity
  8
Base
 62
   250
420
  2301728
370
    18
100
AcDbVertex
100
AcDb2dVertex
 10
257.8412934863809
 20
-301.9823999999999
 30
0.0
  0
SEQEND
  5
330
330
32A
100
AcDbEntity
  8
Base
 62
   250
420
  2301728
370
    18
  0
POLYLINE
  5
331
330
30A
100
AcDbEntity
  8
Base
 62
   250
420
  2301728
370
    18
100
AcDb2dPolyline
 66
     1
 10
0.0
 20
0.0
 30
0.0
  0
VERTEX
  5
332
330
331
100
AcDbEntity
  8
Base
 62
   250
420
  2301728
370
    18
100
AcDbVertex
100
AcDb2dVertex
 10
258.7997934621671
 20
-303.8285999999998
 30
0.0
  0
VERTEX
  5
333
330
331
100
AcDbEntity
  8
Base
 62
   250
420
  2301728
370
    18
100
AcDbVertex
100
AcDb2dVertex
 10
257.842793486343
 20
-303.8535000000002
 30
0.0
  0
VERTEX
  5
334
330
331
100
AcDbEntity
  8
Base
 62
   250
420
  2301728
370
    18
100
AcDbVertex
100
AcDb2dVertex
 10
257.8461934862571
 20
-307.9858000000004
 30
0.0
  0
VERTEX
  5
335
330
331
100
AcDbEntity
  8
Base
 62
   250
420
  2301728
370
    18
100
AcDbVertex
100
AcDb2dVertex
 10
258.804193462056
 20
-307.9575000000004
 30
0.0
  0
VERTEX
  5
336
330
331
100
AcDbEntity
  8
Base
 62
   250
420
  2301728
370
    18
100
AcDbVertex
100
AcDb2dVertex
 10
258.7997934621671
 20
-303.8285999999998
 30
0.0
  0
SEQEND
  5
337
330
331
100
AcDbEntity
  8
Base
 62
   250
420
  2301728
370
    18
  0
ENDBLK
  5
30D
330
30A
100
AcDbEntity
  8
0
100
AcDbBlockEnd
  0
BLOCK
  5
35D
330
35B
100
AcDbEntity
  8
0
100
AcDbBlockBegin
  2
block 8
 70
     0
 10
0.0
 20
0.0
 30
0.0
  3
block 8
  1

  0
POLYLINE
  5
35F
330
35B
100
AcDbEntity
  8
Base
 62
   250
420
  2301728
370
    18
100
AcDb2dPolyline
 66
     1
 10
0.0
 20
0.0
 30
0.0
  0
VERTEX
  5
360
330
35F
100
AcDbEntity
  8
Base
 62
   250
420
  2301728
370
    18
100
AcDbVertex
100
AcDb2dVertex
 10
263.4052933458224
 20
-274.0604999999996
 30
0.0
  0
VERTEX
  5
361
330
35F
100
AcDbEntity
  8
Base
 62
   250
420
  2301728
370
    18
100
AcDbVertex
100
AcDb2dVertex
 10
262.4618933696547
 20
-274.0614999999998
 30
0.0
  0
VERTEX
  5
362
330
35F
100
AcDbEntity
  8
Base
 62
   250
420
  2301728
370
    18
100
AcDbVertex
100
AcDb2dVertex
 10
262.470193369445
 20
-278.1187
 30
0.0
  0
VERTEX
  5
363
330
35F
100
AcDbEntity
  8
Base
 62
   250
420
  2301728
370
    18
100
AcDbVertex
100
AcDb2dVertex
 10
263.4140933456001
 20
-278.1143000000002
 30
0.0
  0
VERTEX
  5
364
330
35F
100
AcDbEntity
  8
Base
 62
   250
420
  2301728
370
    18
100
AcDbVertex
100
AcDb2dVertex
 10
263.4052933458224
 20
-274.0604999999996
 30
0.0
  0
SEQEND
  5
365
330
35F
100
AcDbEntity
  8
Base
 62
   250
420
  2301728
370
    18
  0
POLYLINE
  5
366
330
35B
100
AcDbEntity
  8
Base
 62
   250
420
  2301728
370
    18
100
AcDb2dPolyline
 66
     1
 10
0.0
 20
0.0
 30
0.0
  0
VERTEX
  5
367
330
366
100
AcDbEntity
  8
Base
 62
   250
420
  2301728
370
    18
100
AcDbVertex
100
AcDb2dVertex
 10
262.4818933691495
 20
-284.0312999999996
 30
0.0
  0
VERTEX
  5
368
330
366
100
AcDbEntity
  8
Base
 62
   250
420
  2301728
370
    18
100
AcDbVertex
100
AcDb2dVertex
 10
263.4262933452919
 20
-284.0219999999999
 30
0.0
  0
VERTEX
  5
369
330
366
100
AcDbEntity
  8
Base
 62
   250
420
  2301728
370
    18
100
AcDbVertex
100
AcDb2dVertex
 10
263.4174933455142
 20
-279.9561000000003
 30
0.0
  0
VERTEX
  5
36A
330
366
100
AcDbEntity
  8
Base
 62
   250
420
  2301728
370
    18
100
AcDbVertex
100
AcDb2dVertex
 10
262.4740933693465
 20
-279.9619000000002
 30
0.0
  0
VERTEX
  5
36B
330
366
100
AcDbEntity
  8
Base
 62
   250
420
  2301728
370
    18
100
AcDbVertex
100
AcDb2dVertex
 10
262.4818933691495
 20
-284.0312999999996
 30
0.0
  0
SEQEND
  5
36C
330
366
100
AcDbEntity
  8
Base
 62
   250
420
  2301728
370
    18
  0
POLYLINE
  5
36D
330
35B
100
AcDbEntity
  8
Base
 62
   250
420
  2301728
370
    18
100
AcDb2dPolyline
 66
     1
 10
0.0
 20
0.0
 30
0.0
  0
VERTEX
  5
36E
330
36D
100
AcDbEntity
  8
Base
 62
   250
420
  2301728
370
    18
100
AcDbVertex
100
AcDb2dVertex
 10
262.493193368864
 20
-289.9594999999999
 30
0.0
  0
VERTEX
  5
36F
330
36D
100
AcDbEntity
  8
Base
 62
   250
420
  2301728
370
    18
100
AcDbVertex
100
AcDb2dVertex
 10
263.4398933449484
 20
-289.9458000000004
 30
0.0
  0
VERTEX
  5
370
330
36D
100
AcDbEntity
  8
Base
 62
   250
420
  2301728
370
    18
100
AcDbVertex
100
AcDb2dVertex
 10
263.4306933451808
 20
-285.8687
 30
0.0
  0
VERTEX
  5
371
330
36D
100
AcDbEntity
  8
Base
 62
   250
420
  2301728
370
    18
100
AcDbVertex
100
AcDb2dVertex
 10
262.4853933690611
 20
-285.8793999999998
 30
0.0
  0
VERTEX
  5
372
330
36D
100
AcDbEntity
  8
Base
 62
   250
420
  2301728
370
    18
100
AcDbVertex
100
AcDb2dVertex
 10
262.493193368864
 20
-289.9594999999999
 30
0.0
  0
SEQEND
  5
373
330
36D
100
AcDbEntity
  8
Base
 62
   250
420
  2301728
370
    18
  0
POLYLINE
  5
374
330
35B
100
AcDbEntity
  8
Base
 62
   250
420
  2301728
370
    18
100
AcDb2dPolyline
 66
     1
 10
0.0
 20
0.0
 30
0.0
  0
VERTEX
  5
375
330
374
100
AcDbEntity
  8
Base
 62
   250
420
  2301728
370
    18
100
AcDbVertex
100
AcDb2dVertex
 10
262.5043933685811
 20
-295.9048000000003
 30
0.0
  0
VERTEX
  5
376
330
374
100
AcDbEntity
  8
Base
 62
   250
420
  2301728
370
    18
100
AcDbVertex
100
AcDb2dVertex
 10
263.4525933446275
 20
-295.8861999999999
 30
0.0
  0
VERTEX
  5
377
330
374
100
AcDbEntity
  8
Base
 62
   250
420
  2301728
370
    18
100
AcDbVertex
100
AcDb2dVertex
 10
263.4437933448498
 20
-291.7978999999996
 30
0.0
  0
VERTEX
  5
378
330
374
100
AcDbEntity
  8
Base
 62
   250
420
  2301728
370
    18
100
AcDbVertex
100
AcDb2dVertex
 10
262.4965933687781
 20
-291.8130000000001
 30
0.0
  0
VERTEX
  5
379
330
374
100
AcDbEntity
  8
Base
 62
   250
420
  2301728
370
    18
100
AcDbVertex
100
AcDb2dVertex
 10
262.5043933685811
 20
-295.9048000000003
 30
0.0
  0
SEQEND
  5
37A
330
374
100
AcDbEntity
  8
Base
 62
   250
420
  2301728
370
    18
  0
POLYLINE
  5
37B
330
35B
100
AcDbEntity
  8
Base
 62
   250
420
  2301728
370
    18
100
AcDb2dPolyline
 66
     1
 10
0.0
 20
0.0
 30
0.0
  0
VERTEX
  5
37C
330
37B
100
AcDbEntity
  8
Base
 62
   250
420
  2301728
370
    18
100
AcDbVertex
100
AcDb2dVertex
 10
262.5160933682864
 20
-301.8676999999998
 30
0.0
  0
VERTEX
  5
37D
330
37B
100
AcDbEntity
  8
Base
 62
   250
420
  2301728
370
    18
100
AcDbVertex
100
AcDb2dVertex
 10
263.4657933442941
 20
-301.8446999999996
 30
0.0
  0
VERTEX
  5
37E
330
37B
100
AcDbEntity
  8
Base
 62
   250
420
  2301728
370
    18
100
AcDbVertex
100
AcDb2dVertex
 10
263.456493344529
 20
-297.7440999999999
 30
0.0
  0
VERTEX
  5
37F
330
37B
100
AcDbEntity
  8
Base
 62
   250
420
  2301728
370
    18
100
AcDbVertex
100
AcDb2dVertex
 10
262.5082933684826
 20
-297.7641999999996
 30
0.0
  0
VERTEX
  5
380
330
37B
100
AcDbEntity
  8
Base
 62
   250
420
  2301728
370
    18
100
AcDbVertex
100
AcDb2dVertex
 10
262.5160933682864
 20
-301.8676999999998
 30
0.0
  0
SEQEND
  5
381
330
37B
100
AcDbEntity
  8
Base
 62
   250
420
  2301728
370
    18
  0
POLYLINE
  5
382
330
35B
100
AcDbEntity
  8
Base
 62
   250
420
  2301728
370
    18
100
AcDb2dPolyline
 66
     1
 10
0.0
 20
0.0
 30
0.0
  0
VERTEX
  5
383
330
382
100
AcDbEntity
  8
Base
 62
   250
420
  2301728
370
    18
100
AcDbVertex
100
AcDb2dVertex
 10
263.4696933441955
 20
-303.7070000000003
 30
0.0
  0
VERTEX
  5
384
330
382
100
AcDbEntity
  8
Base
 62
   250
420
  2301728
370
    18
100
AcDbVertex
100
AcDb2dVertex
 10
262.5200000000004
 20
-303.7318999999998
 30
0.0
  0
VERTEX
  5
385
330
382
100
AcDbEntity
  8
Base
 62
   250
420
  2301728
370
    18
100
AcDbVertex
100
AcDb2dVertex
 10
262.5277933679899
 20
-307.8472000000002
 30
0.0
  0
VERTEX
  5
386
330
382
100
AcDbEntity
  8
Base
 62
   250
420
  2301728
370
    18
100
AcDbVertex
100
AcDb2dVertex
 10
263.4784933439732
 20
-307.8193000000001
 30
0.0
  0
VERTEX
  5
387
330
382
100
AcDbEntity
  8
Base
 62
   250
420
  2301728
370
    18
100
AcDbVertex
100
AcDb2dVertex
 10
263.4696933441955
 20
-303.7070000000003
 30
0.0
  0
SEQEND
  5
388
330
382
100
AcDbEntity
  8
Base
 62
   250
420
  2301728
370
    18
  0
ENDBLK
  5
35E
330
35B
100
AcDbEntity
  8
0
100
AcDbBlockEnd
  0
BLOCK
  5
3AE
330
3AC
100
AcDbEntity
  8
0
100
AcDbBlockBegin
  2
block 9
 70
     0
 10
0.0
 20
0.0
 30
0.0
  3
block 9
  1

  0
POLYLINE
  5
3B0
330
3AC
100
AcDbEntity
  8
Base
 62
   250
420
  2301728
370
    18
100
AcDb2dPolyline
 66
     1
 10
0.0
 20
0.0
 30
0.0
  0
VERTEX
  5
3B1
330
3B0
100
AcDbEntity
  8
Base
 62
   250
420
  2301728
370
    18
100
AcDbVertex
100
AcDb2dVertex
 10
268.0058932296024
 20
-274.0551999999998
 30
0.0
  0
VERTEX
  5
3B2
330
3B0
100
AcDbEntity
  8
Base
 62
   250
420
  2301728
370
    18
100
AcDbVertex
100
AcDb2dVertex
 10
267.0702932532367
 20
-274.0562
 30
0.0
  0
VERTEX
  5
3B3
330
3B0
100
AcDbEntity
  8
Base
 62
   250
420
  2301728
370
    18
100
AcDbVertex
100
AcDb2dVertex
 10
267.0824932529285
 20
-278.0977000000003
 30
0.0
  0
VERTEX
  5
3B4
330
3B0
100
AcDbEntity
  8
Base
 62
   250
420
  2301728
370
    18
100
AcDbVertex
100
AcDb2dVertex
 10
268.0190000000002
 20
-278.0933000000005
 30
0.0
  0
VERTEX
  5
3B5
330
3B0
100
AcDbEntity
  8
Base
 62
   250
420
  2301728
370
    18
100
AcDbVertex
100
AcDb2dVertex
 10
268.0058932296024
 20
-274.0551999999998
 30
0.0
  0
SEQEND
  5
3B6
330
3B0
100
AcDbEntity
  8
Base
 62
   250
420
  2301728
370
    18
  0
POLYLINE
  5
3B7
330
3AC
100
AcDbEntity
  8
Base
 62
   250
420
  2301728
370
    18
100
AcDb2dPolyline
 66
     1
 10
0.0
 20
0.0
 30
0.0
  0
VERTEX
  5
3B8
330
3B7
100
AcDbEntity
  8
Base
 62
   250
420
  2301728
370
    18
100
AcDbVertex
100
AcDb2dVertex
 10
267.1010932524587
 20
-283.9867999999997
 30
0.0
  0
VERTEX
  5
3B9
330
3B7
100
AcDbEntity
  8
Base
 62
   250
420
  2301728
370
    18
100
AcDbVertex
100
AcDb2dVertex
 10
268.0380932287881
 20
-283.9780000000001
 30
0.0
  0
VERTEX
  5
3BA
330
3B7
100
AcDbEntity
  8
Base
 62
   250
420
  2301728
370
    18
100
AcDbVertex
100
AcDb2dVertex
 10
268.0248932291215
 20
-279.9277000000002
 30
0.0
  0
VERTEX
  5
3BB
330
3B7
100
AcDbEntity
  8
Base
 62
   250
420
  2301728
370
    18
100
AcDbVertex
100
AcDb2dVertex
 10
267.0883932527804
 20
-279.9336000000003
 30
0.0
  0
VERTEX
  5
3BC
330
3B7
100
AcDbEntity
  8
Base
 62
   250
420
  2301728
370
    18
100
AcDbVertex
100
AcDb2dVertex
 10
267.1010932524587
 20
-283.9867999999997
 30
0.0
  0
SEQEND
  5
3BD
330
3B7
100
AcDbEntity
  8
Base
 62
   250
420
  2301728
370
    18
  0
POLYLINE
  5
3BE
330
3AC
100
AcDbEntity
  8
Base
 62
   250
420
  2301728
370
    18
100
AcDb2dPolyline
 66
     1
 10
0.0
 20
0.0
 30
0.0
  0
VERTEX
  5
3BF
330
3BE
100
AcDbEntity
  8
Base
 62
   250
420
  2301728
370
    18
100
AcDbVertex
100
AcDb2dVertex
 10
267.1186932520141
 20
-289.8921
 30
0.0
  0
VERTEX
  5
3C0
330
3BE
100
AcDbEntity
  8
Base
 62
   250
420
  2301728
370
    18
100
AcDbVertex
100
AcDb2dVertex
 10
268.0580932282828
 20
-289.8783999999996
 30
0.0
  0
VERTEX
  5
3C1
330
3BE
100
AcDbEntity
  8
Base
 62
   250
420
  2301728
370
    18
100
AcDbVertex
100
AcDb2dVertex
 10
268.0443932286289
 20
-285.8173999999999
 30
0.0
  0
VERTEX
  5
3C2
330
3BE
100
AcDbEntity
  8
Base
 62
   250
420
  2301728
370
    18
100
AcDbVertex
100
AcDb2dVertex
 10
267.1059999999998
 20
-285.8280999999997
 30
0.0
  0
VERTEX
  5
3C3
330
3BE
100
AcDbEntity
  8
Base
 62
   250
420
  2301728
370
    18
100
AcDbVertex
100
AcDb2dVertex
 10
267.1186932520141
 20
-289.8921
 30
0.0
  0
SEQEND
  5
3C4
330
3BE
100
AcDbEntity
  8
Base
 62
   250
420
  2301728
370
    18
  0
POLYLINE
  5
3C5
330
3AC
100
AcDbEntity
  8
Base
 62
   250
420
  2301728
370
    18
100
AcDb2dPolyline
 66
     1
 10
0.0
 20
0.0
 30
0.0
  0
VERTEX
  5
3C6
330
3C5
100
AcDbEntity
  8
Base
 62
   250
420
  2301728
370
    18
100
AcDbVertex
100
AcDb2dVertex
 10
267.1366932515593
 20
-295.8145000000004
 30
0.0
  0
VERTEX
  5
3C7
330
3C5
100
AcDbEntity
  8
Base
 62
   250
420
  2301728
370
    18
100
AcDbVertex
100
AcDb2dVertex
 10
268.0770932278028
 20
-295.7959000000001
 30
0.0
  0
VERTEX
  5
3C8
330
3C5
100
AcDbEntity
  8
Base
 62
   250
420
  2301728
370
    18
100
AcDbVertex
100
AcDb2dVertex
 10
268.0640000000003
 20
-291.7231000000002
 30
0.0
  0
VERTEX
  5
3C9
330
3C5
100
AcDbEntity
  8
Base
 62
   250
420
  2301728
370
    18
100
AcDbVertex
100
AcDb2dVertex
 10
267.1239999999998
 20
-291.7383
 30
0.0
  0
VERTEX
  5
3CA
330
3C5
100
AcDbEntity
  8
Base
 62
   250
420
  2301728
370
    18
100
AcDbVertex
100
AcDb2dVertex
 10
267.1366932515593
 20
-295.8145000000004
 30
0.0
  0
SEQEND
  5
3CB
330
3C5
100
AcDbEntity
  8
Base
 62
   250
420
  2301728
370
    18
  0
POLYLINE
  5
3CC
330
3AC
100
AcDbEntity
  8
Base
 62
   250
420
  2301728
370
    18
100
AcDb2dPolyline
 66
     1
 10
0.0
 20
0.0
 30
0.0
  0
VERTEX
  5
3CD
330
3CC
100
AcDbEntity
  8
Base
 62
   250
420
  2301728
370
    18
100
AcDbVertex
100
AcDb2dVertex
 10
267.1547932511021
 20
-301.7538999999997
 30
0.0
  0
VERTEX
  5
3CE
330
3CC
100
AcDbEntity
  8
Base
 62
   250
420
  2301728
370
    18
100
AcDbVertex
100
AcDb2dVertex
 10
268.0966932273077
 20
-301.7309999999998
 30
0.0
  0
VERTEX
  5
3CF
330
3CC
100
AcDbEntity
  8
Base
 62
   250
420
  2301728
370
    18
100
AcDbVertex
100
AcDb2dVertex
 10
268.0834932276412
 20
-297.6464999999998
 30
0.0
  0
VERTEX
  5
3D0
330
3CC
100
AcDbEntity
  8
Base
 62
   250
420
  2301728
370
    18
100
AcDbVertex
100
AcDb2dVertex
 10
267.1420932514229
 20
-297.6665000000003
 30
0.0
  0
VERTEX
  5
3D1
330
3CC
100
AcDbEntity
  8
Base
 62
   250
420
  2301728
370
    18
100
AcDbVertex
100
AcDb2dVertex
 10
267.1547932511021
 20
-301.7538999999997
 30
0.0
  0
SEQEND
  5
3D2
330
3CC
100
AcDbEntity
  8
Base
 62
   250
420
  2301728
370
    18
  0
POLYLINE
  5
3D3
330
3AC
100
AcDbEntity
  8
Base
 62
   250
420
  2301728
370
    18
100
AcDb2dPolyline
 66
     1
 10
0.0
 20
0.0
 30
0.0
  0
VERTEX
  5
3D4
330
3D3
100
AcDbEntity
  8
Base
 62
   250
420
  2301728
370
    18
100
AcDbVertex
100
AcDb2dVertex
 10
268.1030000000001
 20
-303.5859
 30
0.0
  0
VERTEX
  5
3D5
330
3D3
100
AcDbEntity
  8
Base
 62
   250
420
  2301728
370
    18
100
AcDbVertex
100
AcDb2dVertex
 10
267.1605932509556
 20
-303.6108000000004
 30
0.0
  0
VERTEX
  5
3D6
330
3D3
100
AcDbEntity
  8
Base
 62
   250
420
  2301728
370
    18
100
AcDbVertex
100
AcDb2dVertex
 10
267.1728932506448
 20
-307.71
 30
0.0
  0
VERTEX
  5
3D7
330
3D3
100
AcDbEntity
  8
Base
 62
   250
420
  2301728
370
    18
100
AcDbVertex
100
AcDb2dVertex
 10
268.1161932268151
 20
-307.6821
 30
0.0
  0
VERTEX
  5
3D8
330
3D3
100
AcDbEntity
  8
Base
 62
   250
420
  2301728
370
    18
100
AcDbVertex
100
AcDb2dVertex
 10
268.1030000000001
 20
-303.5859
 30
0.0
  0
SEQEND
  5
3D9
330
3D3
100
AcDbEntity
  8
Base
 62
   250
420
  2301728
370
    18
  0
ENDBLK
  5
3AF
330
3AC
100
AcDbEntity
  8
0
100
AcDbBlockEnd
  0
BLOCK
  5
48B
330
489
100
AcDbEntity
  8
0
100
AcDbBlockBegin
  2
block 10
 70
     0
 10
0.0
 20
0.0
 30
0.0
  3
block 10
  1

  0
POLYLINE
  5
48D
330
489
100
AcDbEntity
  8
Base
 62
   250
420
  2301728
370
    18
100
AcDb2dPolyline
 66
     1
 10
0.0
 20
0.0
 30
0.0
  0
VERTEX
  5
48E
330
48D
100
AcDbEntity
  8
Base
 62
   250
420
  2301728
370
    18
100
AcDbVertex
100
AcDb2dVertex
 10
269.865693182619
 20
-439.8418000000001
 30
0.0
  0
VERTEX
  5
48F
330
48D
100
AcDbEntity
  8
Base
 62
   250
420
  2301728
370
    18
100
AcDbVertex
100
AcDb2dVertex
 10
269.9125931814342
 20
-452.5557000000008
 30
0.0
  0
VERTEX
  5
490
330
48D
100
AcDbEntity
  8
Base
 62
   250
420
  2301728
370
    18
100
AcDbVertex
100
AcDb2dVertex
 10
254.5263935701223
 20
-453.8359
 30
0.0
  0
VERTEX
  5
491
330
48D
100
AcDbEntity
  8
Base
 62
   250
420
  2301728
370
    18
100
AcDbVertex
100
AcDb2dVertex
 10
254.5263935701223
 20
-441.4032999999999
 30
0.0
  0
VERTEX
  5
492
330
48D
100
AcDbEntity
  8
Base
 62
   250
420
  2301728
370
    18
100
AcDbVertex
100
AcDb2dVertex
 10
269.865693182619
 20
-439.8418000000001
 30
0.0
  0
SEQEND
  5
494
330
48D
100
AcDbEntity
  8
Base
 62
   250
420
  2301728
370
    18
  0
HATCH
  5
493
330
489
100
AcDbEntity
  8
Base
 62
   254
420
 13358815
100
AcDbHatch
 10
0.0
 20
0.0
 30
0.0
210
0.0
220
0.0
230
1.0
  2
SOLID
 70
     1
 71
     0
 91
        1
 92
        1
 93
        4
 72
     1
 10
269.865693182619
 20
-439.8418000000001
 11
269.9125931814342
 21
-452.5557000000008
 72
     1
 10
269.9125931814342
 20
-452.5557000000008
 11
254.5263935701223
 21
-453.8359
 72
     1
 10
254.5263935701223
 20
-453.8359
 11
254.5263935701223
 21
-441.4032999999999
 72
     1
 10
254.5263935701223
 20
-441.4032999999999
 11
269.865693182619
 21
-439.8418000000001
 97
        0
 75
     2
 76
     1
 98
        0
  0
POLYLINE
  5
495
330
489
100
AcDbEntity
  8
Base
 62
   250
420
  2301728
370
    18
100
AcDb2dPolyline
 66
     1
 10
0.0
 20
0.0
 30
0.0
  0
VERTEX
  5
496
330
495
100
AcDbEntity
  8
Base
 62
   250
420
  2301728
370
    18
100
AcDbVertex
100
AcDb2dVertex
 10
255.6654935413462
 20
-441.2626999999993
 30
0.0
  0
VERTEX
  5
497
330
495
100
AcDbEntity
  8
Base
 62
   250
420
  2301728
370
    18
100
AcDbVertex
100
AcDb2dVertex
 10
255.666493541321
 20
-443.3320000000003
 30
0.0
  0
VERTEX
  5
498
330
495
100
AcDbEntity
  8
Base
 62
   250
420
  2301728
370
    18
100
AcDbVertex
100
AcDb2dVertex
 10
256.6410935167014
 20
-443.2636999999995
 30
0.0
  0
VERTEX
  5
499
330
495
100
AcDbEntity
  8
Base
 62
   250
420
  2301728
370
    18
100
AcDbVertex
100
AcDb2dVertex
 10
256.6400935167258
 20
-441.2245999999996
 30
0.0
  0
VERTEX
  5
49A
330
495
100
AcDbEntity
  8
Base
 62
   250
420
  2301728
370
    18
100
AcDbVertex
100
AcDb2dVertex
 10
255.6654935413462
 20
-441.2626999999993
 30
0.0
  0
SEQEND
  5
49C
330
495
100
AcDbEntity
  8
Base
 62
   250
420
  2301728
370
    18
  0
HATCH
  5
49B
330
489
100
AcDbEntity
  8
Base
 62
   254
420
 16376262
100
AcDbHatch
 10
0.0
 20
0.0
 30
0.0
210
0.0
220
0.0
230
1.0
  2
SOLID
 70
     1
 71
     0
 91
        1
 92
        1
 93
        4
 72
     1
 10
255.6654935413462
 20
-441.2626999999993
 11
255.666493541321
 21
-443.3320000000003
 72
     1
 10
255.666493541321
 20
-443.3320000000003
 11
256.6410935167014
 21
-443.2636999999995
 72
     1
 10
256.6410935167014
 20
-443.2636999999995
 11
256.6400935167258
 21
-441.2245999999996
 72
     1
 10
256.6400935167258
 20
-441.2245999999996
 11
255.6654935413462
 21
-441.2626999999993
 97
        0
 75
     2
 76
     1
 98
        0
  0
POLYLINE
  5
49D
330
489
100
AcDbEntity
  8
Base
 62
   250
420
  2301728
370
    18
100
AcDb2dPolyline
 66
     1
 10
0.0
 20
0.0
 30
0.0
  0
VERTEX
  5
49E
330
49D
100
AcDbEntity
  8
Base
 62
   250
420
  2301728
370
    18
100
AcDbVertex
100
AcDb2dVertex
 10
255.6684935412704
 20
-449.3369000000002
 30
0.0
  0
VERTEX
  5
49F
330
49D
100
AcDbEntity
  8
Base
 62
   250
420
  2301728
370
    18
100
AcDbVertex
100
AcDb2dVertex
 10
256.6440000000002
 20
-449.2597999999998
 30
0.0
  0
VERTEX
  5
4A0
330
49D
100
AcDbEntity
  8
Base
 62
   250
420
  2301728
370
    18
100
AcDbVertex
100
AcDb2dVertex
 10
256.6420935166752
 20
-445.1337999999996
 30
0.0
  0
VERTEX
  5
4A1
330
49D
100
AcDbEntity
  8
Base
 62
   250
420
  2301728
370
    18
100
AcDbVertex
100
AcDb2dVertex
 10
255.6670000000004
 20
-445.2041000000008
 30
0.0
  0
VERTEX
  5
4A2
330
49D
100
AcDbEntity
  8
Base
 62
   250
420
  2301728
370
    18
100
AcDbVertex
100
AcDb2dVertex
 10
255.6684935412704
 20
-449.3369000000002
 30
0.0
  0
SEQEND
  5
4A4
330
49D
100
AcDbEntity
  8
Base
 62
   250
420
  2301728
370
    18
  0
HATCH
  5
4A3
330
489
100
AcDbEntity
  8
Base
 62
   254
420
 16376262
100
AcDbHatch
 10
0.0
 20
0.0
 30
0.0
210
0.0
220
0.0
230
1.0
  2
SOLID
 70
     1
 71
     0
 91
        1
 92
        1
 93
        4
 72
     1
 10
255.6684935412704
 20
-449.3369000000002
 11
256.6440000000002
 21
-449.2597999999998
 72
     1
 10
256.6440000000002
 20
-449.2597999999998
 11
256.6420935166752
 21
-445.1337999999996
 72
     1
 10
256.6420935166752
 20
-445.1337999999996
 11
255.6670000000004
 21
-445.2041000000008
 72
     1
 10
255.6670000000004
 20
-445.2041000000008
 11
255.6684935412704
 21
-449.3369000000002
 97
        0
 75
     2
 76
     1
 98
        0
  0
POLYLINE
  5
4A5
330
489
100
AcDbEntity
  8
Base
 62
   250
420
  2301728
370
    18
100
AcDb2dPolyline
 66
     1
 10
0.0
 20
0.0
 30
0.0
  0
VERTEX
  5
4A6
330
4A5
100
AcDbEntity
  8
Base
 62
   250
420
  2301728
370
    18
100
AcDbVertex
100
AcDb2dVertex
 10
258.0521934810531
 20
-446.1416000000008
 30
0.0
  0
VERTEX
  5
4A7
330
4A5
100
AcDbEntity
  8
Base
 62
   250
420
  2301728
370
    18
100
AcDbVertex
100
AcDb2dVertex
 10
259.0214934565665
 20
-446.0702999999994
 30
0.0
  0
VERTEX
  5
4A8
330
4A5
100
AcDbEntity
  8
Base
 62
   250
420
  2301728
370
    18
100
AcDbVertex
100
AcDb2dVertex
 10
259.0175934566651
 20
-441.9639000000006
 30
0.0
  0
VERTEX
  5
4A9
330
4A5
100
AcDbEntity
  8
Base
 62
   250
420
  2301728
370
    18
100
AcDbVertex
100
AcDb2dVertex
 10
258.048793481139
 20
-442.0293000000001
 30
0.0
  0
VERTEX
  5
4AA
330
4A5
100
AcDbEntity
  8
Base
 62
   250
420
  2301728
370
    18
100
AcDbVertex
100
AcDb2dVertex
 10
258.0521934810531
 20
-446.1416000000008
 30
0.0
  0
SEQEND
  5
4AC
330
4A5
100
AcDbEntity
  8
Base
 62
   250
420
  2301728
370
    18
  0
HATCH
  5
4AB
330
489
100
AcDbEntity
  8
Base
 62
   254
420
 16376262
100
AcDbHatch
 10
0.0
 20
0.0
 30
0.0
210
0.0
220
0.0
230
1.0
  2
SOLID
 70
     1
 71
     0
 91
        1
 92
        1
 93
        4
 72
     1
 10
258.0521934810531
 20
-446.1416000000008
 11
259.0214934565665
 21
-446.0702999999994
 72
     1
 10
259.0214934565665
 20
-446.0702999999994
 11
259.0175934566651
 21
-441.9639000000006
 72
     1
 10
259.0175934566651
 20
-441.9639000000006
 11
258.048793481139
 21
-442.0293000000001
 72
     1
 10
258.048793481139
 20
-442.0293000000001
 11
258.0521934810531
 21
-446.1416000000008
 97
        0
 75
     2
 76
     1
 98
        0
  0
POLYLINE
  5
4AD
330
489
100
AcDbEntity
  8
Base
 62
   250
420
  2301728
370
    18
100
AcDb2dPolyline
 66
     1
 10
0.0
 20
0.0
 30
0.0
  0
VERTEX
  5
4AE
330
4AD
100
AcDbEntity
  8
Base
 62
   250
420
  2301728
370
    18
100
AcDbVertex
100
AcDb2dVertex
 10
259.0233934565185
 20
-447.9364999999998
 30
0.0
  0
VERTEX
  5
4AF
330
4AD
100
AcDbEntity
  8
Base
 62
   250
420
  2301728
370
    18
100
AcDbVertex
100
AcDb2dVertex
 10
258.0536934810152
 20
-448.0097999999998
 30
0.0
  0
VERTEX
  5
4B0
330
4AD
100
AcDbEntity
  8
Base
 62
   250
420
  2301728
370
    18
100
AcDbVertex
100
AcDb2dVertex
 10
258.0570934809293
 20
-452.1327999999994
 30
0.0
  0
VERTEX
  5
4B1
330
4AD
100
AcDbEntity
  8
Base
 62
   250
420
  2301728
370
    18
100
AcDbVertex
100
AcDb2dVertex
 10
259.0277934564074
 20
-452.0565999999999
 30
0.0
  0
VERTEX
  5
4B2
330
4AD
100
AcDbEntity
  8
Base
 62
   250
420
  2301728
370
    18
100
AcDbVertex
100
AcDb2dVertex
 10
259.0233934565185
 20
-447.9364999999998
 30
0.0
  0
SEQEND
  5
4B4
330
4AD
100
AcDbEntity
  8
Base
 62
   250
420
  2301728
370
    18
  0
HATCH
  5
4B3
330
489
100
AcDbEntity
  8
Base
 62
   254
420
 16376262
100
AcDbHatch
 10
0.0
 20
0.0
 30
0.0
210
0.0
220
0.0
230
1.0
  2
SOLID
 70
     1
 71
     0
 91
        1
 92
        1
 93
        4
 72
     1
 10
259.0233934565185
 20
-447.9364999999998
 11
258.0536934810152
 21
-448.0097999999998
 72
     1
 10
258.0536934810152
 20
-448.0097999999998
 11
258.0570934809293
 21
-452.1327999999994
 72
     1
 10
258.0570934809293
 20
-452.1327999999994
 11
259.0277934564074
 21
-452.0565999999999
 72
     1
 10
259.0277934564074
 20
-452.0565999999999
 11
259.0233934565185
 21
-447.9364999999998
 97
        0
 75
     2
 76
     1
 98
        0
  0
POLYLINE
  5
4B5
330
489
100
AcDbEntity
  8
Base
 62
   250
420
  2301728
370
    18
100
AcDb2dPolyline
 66
     1
 10
0.0
 20
0.0
 30
0.0
  0
VERTEX
  5
4B6
330
4B5
100
AcDbEntity
  8
Base
 62
   250
420
  2301728
370
    18
100
AcDbVertex
100
AcDb2dVertex
 10
260.415
 20
-440.7119000000002
 30
0.0
  0
VERTEX
  5
4B7
330
4B5
100
AcDbEntity
  8
Base
 62
   250
420
  2301728
370
    18
100
AcDbVertex
100
AcDb2dVertex
 10
260.4179999999997
 20
-443.0010000000002
 30
0.0
  0
VERTEX
  5
4B8
330
4B5
100
AcDbEntity
  8
Base
 62
   250
420
  2301728
370
    18
100
AcDbVertex
100
AcDb2dVertex
 10
261.3817933969403
 20
-442.9336000000003
 30
0.0
  0
VERTEX
  5
4B9
330
4B5
100
AcDbEntity
  8
Base
 62
   250
420
  2301728
370
    18
100
AcDbVertex
100
AcDb2dVertex
 10
261.3778933970389
 20
-440.6718999999994
 30
0.0
  0
VERTEX
  5
4BA
330
4B5
100
AcDbEntity
  8
Base
 62
   250
420
  2301728
370
    18
100
AcDbVertex
100
AcDb2dVertex
 10
260.415
 20
-440.7119000000002
 30
0.0
  0
SEQEND
  5
4BC
330
4B5
100
AcDbEntity
  8
Base
 62
   250
420
  2301728
370
    18
  0
HATCH
  5
4BB
330
489
100
AcDbEntity
  8
Base
 62
   254
420
 16376262
100
AcDbHatch
 10
0.0
 20
0.0
 30
0.0
210
0.0
220
0.0
230
1.0
  2
SOLID
 70
     1
 71
     0
 91
        1
 92
        1
 93
        4
 72
     1
 10
260.415
 20
-440.7119000000002
 11
260.4179999999997
 21
-443.0010000000002
 72
     1
 10
260.4179999999997
 20
-443.0010000000002
 11
261.3817933969403
 21
-442.9336000000003
 72
     1
 10
261.3817933969403
 20
-442.9336000000003
 11
261.3778933970389
 21
-440.6718999999994
 72
     1
 10
261.3778933970389
 20
-440.6718999999994
 11
260.415
 21
-440.7119000000002
 97
        0
 75
     2
 76
     1
 98
        0
  0
POLYLINE
  5
4BD
330
489
100
AcDbEntity
  8
Base
 62
   250
420
  2301728
370
    18
100
AcDb2dPolyline
 66
     1
 10
0.0
 20
0.0
 30
0.0
  0
VERTEX
  5
4BE
330
4BD
100
AcDbEntity
  8
Base
 62
   250
420
  2301728
370
    18
100
AcDbVertex
100
AcDb2dVertex
 10
260.4213934212021
 20
-444.8613000000005
 30
0.0
  0
VERTEX
  5
4BF
330
4BD
100
AcDbEntity
  8
Base
 62
   250
420
  2301728
370
    18
100
AcDbVertex
100
AcDb2dVertex
 10
261.3847933968646
 20
-444.7919999999995
 30
0.0
  0
VERTEX
  5
4C0
330
4BD
100
AcDbEntity
  8
Base
 62
   250
420
  2301728
370
    18
100
AcDbVertex
100
AcDb2dVertex
 10
261.3915933966928
 20
-448.8935999999994
 30
0.0
  0
VERTEX
  5
4C1
330
4BD
100
AcDbEntity
  8
Base
 62
   250
420
  2301728
370
    18
100
AcDbVertex
100
AcDb2dVertex
 10
260.4271934210556
 20
-448.9678000000004
 30
0.0
  0
VERTEX
  5
4C2
330
4BD
100
AcDbEntity
  8
Base
 62
   250
420
  2301728
370
    18
100
AcDbVertex
100
AcDb2dVertex
 10
260.4213934212021
 20
-444.8613000000005
 30
0.0
  0
SEQEND
  5
4C4
330
4BD
100
AcDbEntity
  8
Base
 62
   250
420
  2301728
370
    18
  0
HATCH
  5
4C3
330
489
100
AcDbEntity
  8
Base
 62
   254
420
 16376262
100
AcDbHatch
 10
0.0
 20
0.0
 30
0.0
210
0.0
220
0.0
230
1.0
  2
SOLID
 70
     1
 71
     0
 91
        1
 92
        1
 93
        4
 72
     1
 10
260.4213934212021
 20
-444.8613000000005
 11
261.3847933968646
 21
-444.7919999999995
 72
     1
 10
261.3847933968646
 20
-444.7919999999995
 11
261.3915933966928
 21
-448.8935999999994
 72
     1
 10
261.3915933966928
 20
-448.8935999999994
 11
260.4271934210556
 21
-448.9678000000004
 72
     1
 10
260.4271934210556
 20
-448.9678000000004
 11
260.4213934212021
 21
-444.8613000000005
 97
        0
 75
     2
 76
     1
 98
        0
  0
POLYLINE
  5
4C5
330
489
100
AcDbEntity
  8
Base
 62
   250
420
  2301728
370
    18
100
AcDb2dPolyline
 66
     1
 10
0.0
 20
0.0
 30
0.0
  0
VERTEX
  5
4C6
330
4C5
100
AcDbEntity
  8
Base
 62
   250
420
  2301728
370
    18
100
AcDbVertex
100
AcDb2dVertex
 10
262.7787933616492
 20
-445.7939000000006
 30
0.0
  0
VERTEX
  5
4C7
330
4C5
100
AcDbEntity
  8
Base
 62
   250
420
  2301728
370
    18
100
AcDbVertex
100
AcDb2dVertex
 10
263.7362933374607
 20
-445.7235999999994
 30
0.0
  0
VERTEX
  5
4C8
330
4C5
100
AcDbEntity
  8
Base
 62
   250
420
  2301728
370
    18
100
AcDbVertex
100
AcDb2dVertex
 10
263.7270933376931
 20
-441.6416000000008
 30
0.0
  0
VERTEX
  5
4C9
330
4C5
100
AcDbEntity
  8
Base
 62
   250
420
  2301728
370
    18
100
AcDbVertex
100
AcDb2dVertex
 10
262.7704933618588
 20
-441.7080000000005
 30
0.0
  0
VERTEX
  5
4CA
330
4C5
100
AcDbEntity
  8
Base
 62
   250
420
  2301728
370
    18
100
AcDbVertex
100
AcDb2dVertex
 10
262.7787933616492
 20
-445.7939000000006
 30
0.0
  0
SEQEND
  5
4CC
330
4C5
100
AcDbEntity
  8
Base
 62
   250
420
  2301728
370
    18
  0
HATCH
  5
4CB
330
489
100
AcDbEntity
  8
Base
 62
   254
420
 16376262
100
AcDbHatch
 10
0.0
 20
0.0
 30
0.0
210
0.0
220
0.0
230
1.0
  2
SOLID
 70
     1
 71
     0
 91
        1
 92
        1
 93
        4
 72
     1
 10
262.7787933616492
 20
-445.7939000000006
 11
263.7362933374607
 21
-445.7235999999994
 72
     1
 10
263.7362933374607
 20
-445.7235999999994
 11
263.7270933376931
 21
-441.6416000000008
 72
     1
 10
263.7270933376931
 20
-441.6416000000008
 11
262.7704933618588
 21
-441.7080000000005
 72
     1
 10
262.7704933618588
 20
-441.7080000000005
 11
262.7787933616492
 21
-445.7939000000006
 97
        0
 75
     2
 76
     1
 98
        0
  0
POLYLINE
  5
4CD
330
489
100
AcDbEntity
  8
Base
 62
   250
420
  2301728
370
    18
100
AcDb2dPolyline
 66
     1
 10
0.0
 20
0.0
 30
0.0
  0
VERTEX
  5
4CE
330
4CD
100
AcDbEntity
  8
Base
 62
   250
420
  2301728
370
    18
100
AcDbVertex
100
AcDb2dVertex
 10
263.7401933373621
 20
-447.5781000000006
 30
0.0
  0
VERTEX
  5
4CF
330
4CD
100
AcDbEntity
  8
Base
 62
   250
420
  2301728
370
    18
100
AcDbVertex
100
AcDb2dVertex
 10
262.7826933615506
 20
-447.6504000000004
 30
0.0
  0
VERTEX
  5
4D0
330
4CD
100
AcDbEntity
  8
Base
 62
   250
420
  2301728
370
    18
100
AcDbVertex
100
AcDb2dVertex
 10
262.7904933613536
 20
-451.7479999999996
 30
0.0
  0
VERTEX
  5
4D1
330
4CD
100
AcDbEntity
  8
Base
 62
   250
420
  2301728
370
    18
100
AcDbVertex
100
AcDb2dVertex
 10
263.7494933371272
 20
-451.6718999999994
 30
0.0
  0
VERTEX
  5
4D2
330
4CD
100
AcDbEntity
  8
Base
 62
   250
420
  2301728
370
    18
100
AcDbVertex
100
AcDb2dVertex
 10
263.7401933373621
 20
-447.5781000000006
 30
0.0
  0
SEQEND
  5
4D4
330
4CD
100
AcDbEntity
  8
Base
 62
   250
420
  2301728
370
    18
  0
HATCH
  5
4D3
330
489
100
AcDbEntity
  8
Base
 62
   254
420
 16376262
100
AcDbHatch
 10
0.0
 20
0.0
 30
0.0
210
0.0
220
0.0
230
1.0
  2
SOLID
 70
     1
 71
     0
 91
        1
 92
        1
 93
        4
 72
     1
 10
263.7401933373621
 20
-447.5781000000006
 11
262.7826933615506
 21
-447.6504000000004
 72
     1
 10
262.7826933615506
 20
-447.6504000000004
 11
262.7904933613536
 21
-451.7479999999996
 72
     1
 10
262.7904933613536
 20
-451.7479999999996
 11
263.7494933371272
 21
-451.6718999999994
 72
     1
 10
263.7494933371272
 20
-451.6718999999994
 11
263.7401933373621
 21
-447.5781000000006
 97
        0
 75
     2
 76
     1
 98
        0
  0
POLYLINE
  5
4D5
330
489
100
AcDbEntity
  8
Base
 62
   250
420
  2301728
370
    18
100
AcDb2dPolyline
 66
     1
 10
0.0
 20
0.0
 30
0.0
  0
VERTEX
  5
4D6
330
4D5
100
AcDbEntity
  8
Base
 62
   250
420
  2301728
370
    18
100
AcDbVertex
100
AcDb2dVertex
 10
265.1068933028364
 20
-440.3896000000004
 30
0.0
  0
VERTEX
  5
4D7
330
4D5
100
AcDbEntity
  8
Base
 62
   250
420
  2301728
370
    18
100
AcDbVertex
100
AcDb2dVertex
 10
265.1132933026747
 20
-442.6738000000005
 30
0.0
  0
VERTEX
  5
4D8
330
4D5
100
AcDbEntity
  8
Base
 62
   250
420
  2301728
370
    18
100
AcDbVertex
100
AcDb2dVertex
 10
266.0634932786706
 20
-442.6083999999992
 30
0.0
  0
VERTEX
  5
4D9
330
4D5
100
AcDbEntity
  8
Base
 62
   250
420
  2301728
370
    18
100
AcDbVertex
100
AcDb2dVertex
 10
266.056593278845
 20
-440.2324000000008
 30
0.0
  0
VERTEX
  5
4DA
330
4D5
100
AcDbEntity
  8
Base
 62
   250
420
  2301728
370
    18
100
AcDbVertex
100
AcDb2dVertex
 10
265.1068933028364
 20
-440.3896000000004
 30
0.0
  0
SEQEND
  5
4DC
330
4D5
100
AcDbEntity
  8
Base
 62
   250
420
  2301728
370
    18
  0
HATCH
  5
4DB
330
489
100
AcDbEntity
  8
Base
 62
   254
420
 16376262
100
AcDbHatch
 10
0.0
 20
0.0
 30
0.0
210
0.0
220
0.0
230
1.0
  2
SOLID
 70
     1
 71
     0
 91
        1
 92
        1
 93
        4
 72
     1
 10
265.1068933028364
 20
-440.3896000000004
 11
265.1132933026747
 21
-442.6738000000005
 72
     1
 10
265.1132933026747
 20
-442.6738000000005
 11
266.0634932786706
 21
-442.6083999999992
 72
     1
 10
266.0634932786706
 20
-442.6083999999992
 11
266.056593278845
 21
-440.2324000000008
 72
     1
 10
266.056593278845
 20
-440.2324000000008
 11
265.1068933028364
 21
-440.3896000000004
 97
        0
 75
     2
 76
     1
 98
        0
  0
POLYLINE
  5
4DD
330
489
100
AcDbEntity
  8
Base
 62
   250
420
  2301728
370
    18
100
AcDb2dPolyline
 66
     1
 10
0.0
 20
0.0
 30
0.0
  0
VERTEX
  5
4DE
330
4DD
100
AcDbEntity
  8
Base
 62
   250
420
  2301728
370
    18
100
AcDbVertex
100
AcDb2dVertex
 10
265.1278933023059
 20
-448.6034999999993
 30
0.0
  0
VERTEX
  5
4DF
330
4DD
100
AcDbEntity
  8
Base
 62
   250
420
  2301728
370
    18
100
AcDbVertex
100
AcDb2dVertex
 10
266.0795932782639
 20
-448.5303000000004
 30
0.0
  0
VERTEX
  5
4E0
330
4DD
100
AcDbEntity
  8
Base
 62
   250
420
  2301728
370
    18
100
AcDbVertex
100
AcDb2dVertex
 10
266.0678932785604
 20
-444.4541000000008
 30
0.0
  0
VERTEX
  5
4E1
330
4DD
100
AcDbEntity
  8
Base
 62
   250
420
  2301728
370
    18
100
AcDbVertex
100
AcDb2dVertex
 10
265.1176933025636
 20
-444.5234
 30
0.0
  0
VERTEX
  5
4E2
330
4DD
100
AcDbEntity
  8
Base
 62
   250
420
  2301728
370
    18
100
AcDbVertex
100
AcDb2dVertex
 10
265.1278933023059
 20
-448.6034999999993
 30
0.0
  0
SEQEND
  5
4E4
330
4DD
100
AcDbEntity
  8
Base
 62
   250
420
  2301728
370
    18
  0
HATCH
  5
4E3
330
489
100
AcDbEntity
  8
Base
 62
   254
420
 16376262
100
AcDbHatch
 10
0.0
 20
0.0
 30
0.0
210
0.0
220
0.0
230
1.0
  2
SOLID
 70
     1
 71
     0
 91
        1
 92
        1
 93
        4
 72
     1
 10
265.1278933023059
 20
-448.6034999999993
 11
266.0795932782639
 21
-448.5303000000004
 72
     1
 10
266.0795932782639
 20
-448.5303000000004
 11
266.0678932785604
 21
-444.4541000000008
 72
     1
 10
266.0678932785604
 20
-444.4541000000008
 11
265.1176933025636
 21
-444.5234
 72
     1
 10
265.1176933025636
 20
-444.5234
 11
265.1278933023059
 21
-448.6034999999993
 97
        0
 75
     2
 76
     1
 98
        0
  0
POLYLINE
  5
4E5
330
489
100
AcDbEntity
  8
Base
 62
   250
420
  2301728
370
    18
100
AcDb2dPolyline
 66
     1
 10
0.0
 20
0.0
 30
0.0
  0
VERTEX
  5
4E6
330
4E5
100
AcDbEntity
  8
Base
 62
   250
420
  2301728
370
    18
100
AcDbVertex
100
AcDb2dVertex
 10
267.4477932437003
 20
-445.4501999999993
 30
0.0
  0
VERTEX
  5
4E7
330
4E5
100
AcDbEntity
  8
Base
 62
   250
420
  2301728
370
    18
100
AcDbVertex
100
AcDb2dVertex
 10
268.39309321982
 20
-445.3809000000001
 30
0.0
  0
VERTEX
  5
4E8
330
4E5
100
AcDbEntity
  8
Base
 62
   250
420
  2301728
370
    18
100
AcDbVertex
100
AcDb2dVertex
 10
268.3798932201535
 20
-441.3241999999991
 30
0.0
  0
VERTEX
  5
4E9
330
4E5
100
AcDbEntity
  8
Base
 62
   250
420
  2301728
370
    18
100
AcDbVertex
100
AcDb2dVertex
 10
267.4345932440337
 20
-441.3896000000004
 30
0.0
  0
VERTEX
  5
4EA
330
4E5
100
AcDbEntity
  8
Base
 62
   250
420
  2301728
370
    18
100
AcDbVertex
100
AcDb2dVertex
 10
267.4477932437003
 20
-445.4501999999993
 30
0.0
  0
SEQEND
  5
4EC
330
4E5
100
AcDbEntity
  8
Base
 62
   250
420
  2301728
370
    18
  0
HATCH
  5
4EB
330
489
100
AcDbEntity
  8
Base
 62
   254
420
 16376262
100
AcDbHatch
 10
0.0
 20
0.0
 30
0.0
210
0.0
220
0.0
230
1.0
  2
SOLID
 70
     1
 71
     0
 91
        1
 92
        1
 93
        4
 72
     1
 10
267.4477932437003
 20
-445.4501999999993
 11
268.39309321982
 21
-445.3809000000001
 72
     1
 10
268.39309321982
 20
-445.3809000000001
 11
268.3798932201535
 21
-441.3241999999991
 72
     1
 10
268.3798932201535
 20
-441.3241999999991
 11
267.4345932440337
 21
-441.3896000000004
 72
     1
 10
267.4345932440337
 20
-441.3896000000004
 11
267.4477932437003
 21
-445.4501999999993
 97
        0
 75
     2
 76
     1
 98
        0
  0
POLYLINE
  5
4ED
330
489
100
AcDbEntity
  8
Base
 62
   250
420
  2301728
370
    18
100
AcDb2dPolyline
 66
     1
 10
0.0
 20
0.0
 30
0.0
  0
VERTEX
  5
4EE
330
4ED
100
AcDbEntity
  8
Base
 62
   250
420
  2301728
370
    18
100
AcDbVertex
100
AcDb2dVertex
 10
268.3993932196609
 20
-447.2235999999994
 30
0.0
  0
VERTEX
  5
4EF
330
4ED
100
AcDbEntity
  8
Base
 62
   250
420
  2301728
370
    18
100
AcDbVertex
100
AcDb2dVertex
 10
267.4530932435664
 20
-447.2949000000008
 30
0.0
  0
VERTEX
  5
4F0
330
4ED
100
AcDbEntity
  8
Base
 62
   250
420
  2301728
370
    18
100
AcDbVertex
100
AcDb2dVertex
 10
267.4657932432456
 20
-451.3690999999999
 30
0.0
  0
VERTEX
  5
4F1
330
4ED
100
AcDbEntity
  8
Base
 62
   250
420
  2301728
370
    18
100
AcDbVertex
100
AcDb2dVertex
 10
268.4130932193148
 20
-451.2919999999995
 30
0.0
  0
VERTEX
  5
4F2
330
4ED
100
AcDbEntity
  8
Base
 62
   250
420
  2301728
370
    18
100
AcDbVertex
100
AcDb2dVertex
 10
268.3993932196609
 20
-447.2235999999994
 30
0.0
  0
SEQEND
  5
4F4
330
4ED
100
AcDbEntity
  8
Base
 62
   250
420
  2301728
370
    18
  0
HATCH
  5
4F3
330
489
100
AcDbEntity
  8
Base
 62
   254
420
 16376262
100
AcDbHatch
 10
0.0
 20
0.0
 30
0.0
210
0.0
220
0.0
230
1.0
  2
SOLID
 70
     1
 71
     0
 91
        1
 92
        1
 93
        4
 72
     1
 10
268.3993932196609
 20
-447.2235999999994
 11
267.4530932435664
 21
-447.2949000000008
 72
     1
 10
267.4530932435664
 20
-447.2949000000008
 11
267.4657932432456
 21
-451.3690999999999
 72
     1
 10
267.4657932432456
 20
-451.3690999999999
 11
268.4130932193148
 21
-451.2919999999995
 72
     1
 10
268.4130932193148
 20
-451.2919999999995
 11
268.3993932196609
 21
-447.2235999999994
 97
        0
 75
     2
 76
     1
 98
        0
  0
ENDBLK
  5
48C
330
489
100
AcDbEntity
  8
0
100
AcDbBlockEnd
  0
ENDSEC
  0
SECTION
  2
ENTITIES
  0
POLYLINE
  5
41
330
1F
100
AcDbEntity
  8
Base
370
     0
100
AcDb2dPolyline
 66
     1
 10
0.0
 20
0.0
 30
0.0
  0
VERTEX
  5
42
330
41
100
AcDbEntity
  8
Base
370
     0
100
AcDbVertex
100
AcDb2dVertex
 10
431.7401890933252
 20
-280.0698000000002
 30
0.0
  0
VERTEX
  5
43
330
41
100
AcDbEntity
  8
Base
370
     0
100
AcDbVertex
100
AcDb2dVertex
 10
431.7401890933252
 20
-243.7129000000004
 30
0.0
  0
VERTEX
  5
44
330
41
100
AcDbEntity
  8
Base
370
     0
100
AcDbVertex
100
AcDb2dVertex
 10
276.3954930176624
 20
-274.9448000000002
 30
0.0
  0
VERTEX
  5
45
330
41
100
AcDbEntity
  8
Base
370
     0
100
AcDbVertex
100
AcDb2dVertex
 10
276.3954930176624
 20
-252.3887000000004
 30
0.0
  0
VERTEX
  5
46
330
41
100
AcDbEntity
  8
Base
370
     0
100
AcDbVertex
100
AcDb2dVertex
 10
270.3334931708014
 20
-250.6670000000004
 30
0.0
  0
VERTEX
  5
47
330
41
100
AcDbEntity
  8
Base
370
     0
100
AcDbVertex
100
AcDb2dVertex
 10
180.1312954495006
 20
-272.6670000000004
 30
0.0
  0
VERTEX
  5
48
330
41
100
AcDbEntity
  8
Base
370
     0
100
AcDbVertex
100
AcDb2dVertex
 10
180.1312954495006
 20
-311.4701999999997
 30
0.0
  0
VERTEX
  5
49
330
41
100
AcDbEntity
  8
Base
370
     0
100
AcDbVertex
100
AcDb2dVertex
 10
180.1312954495006
 20
-321.7988000000014
 30
0.0
  0
VERTEX
  5
4A
330
41
100
AcDbEntity
  8
Base
370
     0
100
AcDbVertex
100
AcDb2dVertex
 10
240.4516939256791
 20
-311.8833000000004
 30
0.0
  0
VERTEX
  5
4B
330
41
100
AcDbEntity
  8
Base
370
     0
100
AcDbVertex
100
AcDb2dVertex
 10
240.4516939256791
 20
-367.5029000000004
 30
0.0
  0
VERTEX
  5
4C
330
41
100
AcDbEntity
  8
Base
370
     0
100
AcDbVertex
100
AcDb2dVertex
 10
180.1312954495006
 20
-347.0
 30
0.0
  0
VERTEX
  5
4D
330
41
100
AcDbEntity
  8
Base
370
     0
100
AcDbVertex
100
AcDb2dVertex
 10
180.1312954495006
 20
-378.8130000000001
 30
0.0
  0
VERTEX
  5
4E
330
41
100
AcDbEntity
  8
Base
370
     0
100
AcDbVertex
100
AcDb2dVertex
 10
240.4516939256791
 20
-401.5938000000006
 30
0.0
  0
VERTEX
  5
4F
330
41
100
AcDbEntity
  8
Base
370
     0
100
AcDbVertex
100
AcDb2dVertex
 10
240.4516939256791
 20
-438.7206999999999
 30
0.0
  0
VERTEX
  5
50
330
41
100
AcDbEntity
  8
Base
370
     0
100
AcDbVertex
100
AcDb2dVertex
 10
180.1312954495006
 20
-444.0
 30
0.0
  0
VERTEX
  5
51
330
41
100
AcDbEntity
  8
Base
370
     0
100
AcDbVertex
100
AcDb2dVertex
 10
180.1312954495006
 20
-483.3340000000007
 30
0.0
  0
VERTEX
  5
52
330
41
100
AcDbEntity
  8
Base
370
     0
100
AcDbVertex
100
AcDb2dVertex
 10
276.3954930176624
 20
-470.1211000000003
 30
0.0
  0
VERTEX
  5
53
330
41
100
AcDbEntity
  8
Base
370
     0
100
AcDbVertex
100
AcDb2dVertex
 10
276.3954930176624
 20
-415.1689000000006
 30
0.0
  0
VERTEX
  5
54
330
41
100
AcDbEntity
  8
Base
370
     0
100
AcDbVertex
100
AcDb2dVertex
 10
431.7401890933252
 20
-473.8379000000004
 30
0.0
  0
VERTEX
  5
55
330
41
100
AcDbEntity
  8
Base
370
     0
100
AcDbVertex
100
AcDb2dVertex
 10
431.7401890933252
 20
-432.5224999999991
 30
0.0
  0
VERTEX
  5
56
330
41
100
AcDbEntity
  8
Base
370
     0
100
AcDbVertex
100
AcDb2dVertex
 10
276.3954930176624
 20
-379.7201999999997
 30
0.0
  0
VERTEX
  5
57
330
41
100
AcDbEntity
  8
Base
370
     0
100
AcDbVertex
100
AcDb2dVertex
 10
276.3954930176624
 20
-305.7363000000014
 30
0.0
  0
VERTEX
  5
58
330
41
100
AcDbEntity
  8
Base
370
     0
100
AcDbVertex
100
AcDb2dVertex
 10
431.7401890933252
 20
-280.0698000000002
 30
0.0
  0
SEQEND
  5
5A
330
41
100
AcDbEntity
  8
Base
370
     0
  0
HATCH
  5
59
330
1F
100
AcDbEntity
  8
Base
 62
    43
420
 15510365
100
AcDbHatch
 10
0.0
 20
0.0
 30
0.0
210
0.0
220
0.0
230
1.0
  2
SOLID
 70
     1
 71
     0
 91
        1
 92
        1
 93
       22
 72
     1
 10
431.7401890933252
 20
-280.0698000000002
 11
431.7401890933252
 21
-243.7129000000004
 72
     1
 10
431.7401890933252
 20
-243.7129000000004
 11
276.3954930176624
 21
-274.9448000000002
 72
     1
 10
276.3954930176624
 20
-274.9448000000002
 11
276.3954930176624
 21
-252.3887000000004
 72
     1
 10
276.3954930176624
 20
-252.3887000000004
 11
270.3334931708014
 21
-250.6670000000004
 72
     1
 10
270.3334931708014
 20
-250.6670000000004
 11
180.1312954495006
 21
-272.6670000000004
 72
     1
 10
180.1312954495006
 20
-272.6670000000004
 11
180.1312954495006
 21
-311.4701999999997
 72
     1
 10
180.1312954495006
 20
-311.4701999999997
 11
180.1312954495006
 21
-321.7988000000014
 72
     1
 10
180.1312954495006
 20
-321.7988000000014
 11
240.4516939256791
 21
-311.8833000000004
 72
     1
 10
240.4516939256791
 20
-311.8833000000004
 11
240.4516939256791
 21
-367.5029000000004
 72
     1
 10
240.4516939256791
 20
-367.5029000000004
 11
180.1312954495006
 21
-347.0
 72
     1
 10
180.1312954495006
 20
-347.0
 11
180.1312954495006
 21
-378.8130000000001
 72
     1
 10
180.1312954495006
 20
-378.8130000000001
 11
240.4516939256791
 21
-401.5938000000006
 72
     1
 10
240.4516939256791
 20
-401.5938000000006
 11
240.4516939256791
 21
-438.7206999999999
 72
     1
 10
240.4516939256791
 20
-438.7206999999999
 11
180.1312954495006
 21
-444.0
 72
     1
 10
180.1312954495006
 20
-444.0
 11
180.1312954495006
 21
-483.3340000000007
 72
     1
 10
180.1312954495006
 20
-483.3340000000007
 11
276.3954930176624
 21
-470.1211000000003
 72
     1
 10
276.3954930176624
 20
-470.1211000000003
 11
276.3954930176624
 21
-415.1689000000006
 72
     1
 10
276.3954930176624
 20
-415.1689000000006
 11
431.7401890933252
 21
-473.8379000000004
 72
     1
 10
431.7401890933252
 20
-473.8379000000004
 11
431.7401890933252
 21
-432.5224999999991
 72
     1
 10
431.7401890933252
 20
-432.5224999999991
 11
276.3954930176624
 21
-379.7201999999997
 72
     1
 10
276.3954930176624
 20
-379.7201999999997
 11
276.3954930176624
 21
-305.7363000000014
 72
     1
 10
276.3954930176624
 20
-305.7363000000014
 11
431.7401890933252
 21
-280.0698000000002
 97
        0
 75
     2
 76
     1
 98
        0
  0
POLYLINE
  5
5B
330
1F
100
AcDbEntity
  8
Base
 62
   250
420
  2301728
370
    35
100
AcDb2dPolyline
 66
     1
 10
0.0
 20
0.0
 30
0.0
  0
VERTEX
  5
5C
330
5B
100
AcDbEntity
  8
Base
 62
   250
420
  2301728
370
    35
100
AcDbVertex
100
AcDb2dVertex
 10
180.1312954495006
 20
-272.6021000000001
 30
0.0
  0
VERTEX
  5
5D
330
5B
100
AcDbEntity
  8
Base
 62
   250
420
  2301728
370
    35
100
AcDbVertex
100
AcDb2dVertex
 10
180.1312954495006
 20
-490.0645000000004
 30
0.0
  0
VERTEX
  5
5E
330
5B
100
AcDbEntity
  8
Base
 62
   250
420
  2301728
370
    35
100
AcDbVertex
100
AcDb2dVertex
 10
431.7401890933252
 20
-490.0645000000004
 30
0.0
  0
VERTEX
  5
5F
330
5B
100
AcDbEntity
  8
Base
 62
   250
420
  2301728
370
    35
100
AcDbVertex
100
AcDb2dVertex
 10
431.7401890933252
 20
-243.7129000000004
 30
0.0
  0
SEQEND
  5
60
330
5B
100
AcDbEntity
  8
Base
 62
   250
420
  2301728
370
    35
  0
POLYLINE
  5
61
330
1F
100
AcDbEntity
  8
Base
 62
   250
420
  2301728
370
    35
100
AcDb2dPolyline
 66
     1
 10
0.0
 20
0.0
 30
0.0
  0
VERTEX
  5
62
330
61
100
AcDbEntity
  8
Base
 62
   250
420
  2301728
370
    35
100
AcDbVertex
100
AcDb2dVertex
 10
276.3954930176624
 20
-431.6982000000007
 30
0.0
  0
VERTEX
  5
63
330
61
100
AcDbEntity
  8
Base
 62
   250
420
  2301728
370
    35
100
AcDbVertex
100
AcDb2dVertex
 10
276.3954930176624
 20
-376.7461000000003
 30
0.0
  0
SEQEND
  5
64
330
61
100
AcDbEntity
  8
Base
 62
   250
420
  2301728
370
    35
  0
POLYLINE
  5
65
330
1F
100
AcDbEntity
  8
Base
 62
   250
420
  2301728
370
    35
100
AcDb2dPolyline
 66
     1
 10
0.0
 20
0.0
 30
0.0
  0
VERTEX
  5
66
330
65
100
AcDbEntity
  8
Base
 62
   250
420
  2301728
370
    35
100
AcDbVertex
100
AcDb2dVertex
 10
240.4516939256791
 20
-366.8891999999996
 30
0.0
  0
VERTEX
  5
67
330
65
100
AcDbEntity
  8
Base
 62
   250
420
  2301728
370
    35
100
AcDbVertex
100
AcDb2dVertex
 10
240.4516939256791
 20
-404.0156000000006
 30
0.0
  0
SEQEND
  5
68
330
65
100
AcDbEntity
  8
Base
 62
   250
420
  2301728
370
    35
  0
POLYLINE
  5
69
330
1F
100
AcDbEntity
  8
Base
 62
   250
420
  2301728
370
    35
100
AcDb2dPolyline
 66
     1
 10
0.0
 20
0.0
 30
0.0
  0
VERTEX
  5
6A
330
69
100
AcDbEntity
  8
Base
 62
   250
420
  2301728
370
    35
100
AcDbVertex
100
AcDb2dVertex
 10
240.4516939256791
 20
-293.7046
 30
0.0
  0
VERTEX
  5
6B
330
69
100
AcDbEntity
  8
Base
 62
   250
420
  2301728
370
    35
100
AcDbVertex
100
AcDb2dVertex
 10
240.4516939256791
 20
-349.3242
 30
0.0
  0
SEQEND
  5
6C
330
69
100
AcDbEntity
  8
Base
 62
   250
420
  2301728
370
    35
  0
POLYLINE
  5
6D
330
1F
100
AcDbEntity
  8
Base
 62
   250
420
  2301728
370
    35
100
AcDb2dPolyline
 66
     1
 10
0.0
 20
0.0
 30
0.0
  0
VERTEX
  5
6E
330
6D
100
AcDbEntity
  8
Base
 62
   250
420
  2301728
370
    35
100
AcDbVertex
100
AcDb2dVertex
 10
431.7401890933252
 20
-280.0698000000002
 30
0.0
  0
VERTEX
  5
6F
330
6D
100
AcDbEntity
  8
Base
 62
   250
420
  2301728
370
    35
100
AcDbVertex
100
AcDb2dVertex
 10
431.7401890933252
 20
-243.7129000000004
 30
0.0
  0
VERTEX
  5
70
330
6D
100
AcDbEntity
  8
Base
 62
   250
420
  2301728
370
    35
100
AcDbVertex
100
AcDb2dVertex
 10
276.3954930176624
 20
-274.9448000000002
 30
0.0
  0
VERTEX
  5
71
330
6D
100
AcDbEntity
  8
Base
 62
   250
420
  2301728
370
    35
100
AcDbVertex
100
AcDb2dVertex
 10
276.3954930176624
 20
-252.3887000000004
 30
0.0
  0
VERTEX
  5
72
330
6D
100
AcDbEntity
  8
Base
 62
   250
420
  2301728
370
    35
100
AcDbVertex
100
AcDb2dVertex
 10
270.3334931708014
 20
-250.6670000000004
 30
0.0
  0
VERTEX
  5
73
330
6D
100
AcDbEntity
  8
Base
 62
   250
420
  2301728
370
    35
100
AcDbVertex
100
AcDb2dVertex
 10
180.1312954495006
 20
-272.6670000000004
 30
0.0
  0
VERTEX
  5
74
330
6D
100
AcDbEntity
  8
Base
 62
   250
420
  2301728
370
    35
100
AcDbVertex
100
AcDb2dVertex
 10
180.1312954495006
 20
-311.4701999999997
 30
0.0
  0
VERTEX
  5
75
330
6D
100
AcDbEntity
  8
Base
 62
   250
420
  2301728
370
    35
100
AcDbVertex
100
AcDb2dVertex
 10
180.1312954495006
 20
-321.7988000000014
 30
0.0
  0
VERTEX
  5
76
330
6D
100
AcDbEntity
  8
Base
 62
   250
420
  2301728
370
    35
100
AcDbVertex
100
AcDb2dVertex
 10
240.4516939256791
 20
-311.8833000000004
 30
0.0
  0
VERTEX
  5
77
330
6D
100
AcDbEntity
  8
Base
 62
   250
420
  2301728
370
    35
100
AcDbVertex
100
AcDb2dVertex
 10
240.4516939256791
 20
-367.5029000000004
 30
0.0
  0
VERTEX
  5
78
330
6D
100
AcDbEntity
  8
Base
 62
   250
420
  2301728
370
    35
100
AcDbVertex
100
AcDb2dVertex
 10
180.1312954495006
 20
-347.0
 30
0.0
  0
VERTEX
  5
79
330
6D
100
AcDbEntity
  8
Base
 62
   250
420
  2301728
370
    35
100
AcDbVertex
100
AcDb2dVertex
 10
180.1312954495006
 20
-378.8130000000001
 30
0.0
  0
VERTEX
  5
7A
330
6D
100
AcDbEntity
  8
Base
 62
   250
420
  2301728
370
    35
100
AcDbVertex
100
AcDb2dVertex
 10
240.4516939256791
 20
-401.5938000000006
 30
0.0
  0
VERTEX
  5
7B
330
6D
100
AcDbEntity
  8
Base
 62
   250
420
  2301728
370
    35
100
AcDbVertex
100
AcDb2dVertex
 10
240.4516939256791
 20
-438.7206999999999
 30
0.0
  0
VERTEX
  5
7C
330
6D
100
AcDbEntity
  8
Base
 62
   250
420
  2301728
370
    35
100
AcDbVertex
100
AcDb2dVertex
 10
180.1312954495006
 20
-444.0
 30
0.0
  0
VERTEX
  5
7D
330
6D
100
AcDbEntity
  8
Base
 62
   250
420
  2301728
370
    35
100
AcDbVertex
100
AcDb2dVertex
 10
180.1312954495006
 20
-483.3340000000007
 30
0.0
  0
VERTEX
  5
7E
330
6D
100
AcDbEntity
  8
Base
 62
   250
420
  2301728
370
    35
100
AcDbVertex
100
AcDb2dVertex
 10
276.3954930176624
 20
-470.1211000000003
 30
0.0
  0
VERTEX
  5
7F
330
6D
100
AcDbEntity
  8
Base
 62
   250
420
  2301728
370
    35
100
AcDbVertex
100
AcDb2dVertex
 10
276.3954930176624
 20
-415.1689000000006
 30
0.0
  0
VERTEX
  5
80
330
6D
100
AcDbEntity
  8
Base
 62
   250
420
  2301728
370
    35
100
AcDbVertex
100
AcDb2dVertex
 10
431.7401890933252
 20
-473.8379000000004
 30
0.0
  0
VERTEX
  5
81
330
6D
100
AcDbEntity
  8
Base
 62
   250
420
  2301728
370
    35
100
AcDbVertex
100
AcDb2dVertex
 10
431.7401890933252
 20
-432.5224999999991
 30
0.0
  0
VERTEX
  5
82
330
6D
100
AcDbEntity
  8
Base
 62
   250
420
  2301728
370
    35
100
AcDbVertex
100
AcDb2dVertex
 10
276.3954930176624
 20
-379.7201999999997
 30
0.0
  0
VERTEX
  5
83
330
6D
100
AcDbEntity
  8
Base
 62
   250
420
  2301728
370
    35
100
AcDbVertex
100
AcDb2dVertex
 10
276.3954930176624
 20
-305.7363000000014
 30
0.0
  0
VERTEX
  5
84
330
6D
100
AcDbEntity
  8
Base
 62
   250
420
  2301728
370
    35
100
AcDbVertex
100
AcDb2dVertex
 10
431.7401890933252
 20
-280.0698000000002
 30
0.0
  0
SEQEND
  5
85
330
6D
100
AcDbEntity
  8
Base
 62
   250
420
  2301728
370
    35
  0
POLYLINE
  5
86
330
1F
100
AcDbEntity
  8
Base
 62
   250
420
  2301728
370
    35
100
AcDb2dPolyline
 66
     1
 10
0.0
 20
0.0
 30
0.0
  0
VERTEX
  5
87
330
86
100
AcDbEntity
  8
Base
 62
   250
420
  2301728
370
    35
100
AcDbVertex
100
AcDb2dVertex
 10
276.3954930176624
 20
-308.9917000000014
 30
0.0
  0
VERTEX
  5
88
330
86
100
AcDbEntity
  8
Base
 62
   250
420
  2301728
370
    35
100
AcDbVertex
100
AcDb2dVertex
 10
276.3954930176624
 20
-252.3887000000004
 30
0.0
  0
SEQEND
  5
89
330
86
100
AcDbEntity
  8
Base
 62
   250
420
  2301728
370
    35
  0
POLYLINE
  5
8A
330
1F
100
AcDbEntity
  8
Base
 62
   250
420
  2301728
370
    25
100
AcDb2dPolyline
 66
     1
 10
0.0
 20
0.0
 30
0.0
  0
VERTEX
  5
8B
330
8A
100
AcDbEntity
  8
Base
 62
   250
420
  2301728
370
    25
100
AcDbVertex
100
AcDb2dVertex
 10
245.7636937914867
 20
-291.8301000000001
 30
0.0
  0
VERTEX
  5
8C
330
8A
100
AcDbEntity
  8
Base
 62
   250
420
  2301728
370
    25
100
AcDbVertex
100
AcDb2dVertex
 10
276.2387930216209
 20
-282.8056999999999
 30
0.0
  0
SEQEND
  5
8D
330
8A
100
AcDbEntity
  8
Base
 62
   250
420
  2301728
370
    25
  0
POLYLINE
  5
8E
330
1F
100
AcDbEntity
  8
Base
 62
   250
420
  2301728
370
    35
100
AcDb2dPolyline
 66
     1
 10
0.0
 20
0.0
 30
0.0
  0
VERTEX
  5
8F
330
8E
100
AcDbEntity
  8
Base
 62
   250
420
  2301728
370
    35
100
AcDbVertex
100
AcDb2dVertex
 10
180.1312954495006
 20
-311.4701999999997
 30
0.0
  0
VERTEX
  5
90
330
8E
100
AcDbEntity
  8
Base
 62
   250
420
  2301728
370
    35
100
AcDbVertex
100
AcDb2dVertex
 10
245.9208937875164
 20
-291.9877999999999
 30
0.0
  0
SEQEND
  5
91
330
8E
100
AcDbEntity
  8
Base
 62
   250
420
  2301728
370
    35
  0
POLYLINE
  5
92
330
1F
100
AcDbEntity
  8
Base
 62
   250
420
  2301728
370
    25
100
AcDb2dPolyline
 66
     1
 10
0.0
 20
0.0
 30
0.0
  0
VERTEX
  5
93
330
92
100
AcDbEntity
  8
Base
 62
   250
420
  2301728
370
    25
100
AcDbVertex
100
AcDb2dVertex
 10
246.2357937795596
 20
-292.0508
 30
0.0
  0
VERTEX
  5
94
330
92
100
AcDbEntity
  8
Base
 62
   250
420
  2301728
370
    25
100
AcDbVertex
100
AcDb2dVertex
 10
246.2357937795596
 20
-442.0
 30
0.0
  0
SEQEND
  5
95
330
92
100
AcDbEntity
  8
Base
 62
   250
420
  2301728
370
    25
  0
POLYLINE
  5
96
330
1F
100
AcDbEntity
  8
Base
 62
   250
420
  2301728
370
    25
100
AcDb2dPolyline
 66
     1
 10
0.0
 20
0.0
 30
0.0
  0
VERTEX
  5
97
330
96
100
AcDbEntity
  8
Base
 62
   250
420
  2301728
370
    25
100
AcDbVertex
100
AcDb2dVertex
 10
275.9828930280855
 20
-439.1337999999996
 30
0.0
  0
VERTEX
  5
98
330
96
100
AcDbEntity
  8
Base
 62
   250
420
  2301728
370
    25
100
AcDbVertex
100
AcDb2dVertex
 10
181.1664954233493
 20
-448.8340000000007
 30
0.0
  0
SEQEND
  5
99
330
96
100
AcDbEntity
  8
Base
 62
   250
420
  2301728
370
    25
  0
POLYLINE
  5
9A
330
1F
100
AcDbEntity
  8
Base
 62
   250
420
  2301728
370
    25
100
AcDb2dPolyline
 66
     1
 10
0.0
 20
0.0
 30
0.0
  0
VERTEX
  5
9B
330
9A
100
AcDbEntity
  8
Base
 62
   250
420
  2301728
370
    25
100
AcDbVertex
100
AcDb2dVertex
 10
240.4516939256791
 20
-438.7206999999999
 30
0.0
  0
VERTEX
  5
9C
330
9A
100
AcDbEntity
  8
Base
 62
   250
420
  2301728
370
    25
100
AcDbVertex
100
AcDb2dVertex
 10
246.0
 20
-442.5
 30
0.0
  0
SEQEND
  5
9D
330
9A
100
AcDbEntity
  8
Base
 62
   250
420
  2301728
370
    25
  0
POLYLINE
  5
9E
330
1F
100
AcDbEntity
  8
Base
 62
   250
420
  2301728
370
    25
100
AcDb2dPolyline
 66
     1
 10
0.0
 20
0.0
 30
0.0
  0
VERTEX
  5
9F
330
9E
100
AcDbEntity
  8
Base
 62
   250
420
  2301728
370
    25
100
AcDbVertex
100
AcDb2dVertex
 10
276.3954930176624
 20
-252.3887000000004
 30
0.0
  0
VERTEX
  5
A0
330
9E
100
AcDbEntity
  8
Base
 62
   250
420
  2301728
370
    25
100
AcDbVertex
100
AcDb2dVertex
 10
180.5438954390775
 20
-276.3525
 30
0.0
  0
SEQEND
  5
A1
330
9E
100
AcDbEntity
  8
Base
 62
   250
420
  2301728
370
    25
  0
POLYLINE
  5
A2
330
1F
100
AcDbEntity
  8
Base
 62
   250
420
  2301728
370
    25
100
AcDb2dPolyline
 66
     1
 10
0.0
 20
0.0
 30
0.0
  0
VERTEX
  5
A3
330
A2
100
AcDbEntity
  8
Base
 62
   250
420
  2301728
370
    25
100
AcDbVertex
100
AcDb2dVertex
 10
276.3950000000004
 20
-275.9395000000004
 30
0.0
  0
VERTEX
  5
A4
330
A2
100
AcDbEntity
  8
Base
 62
   250
420
  2301728
370
    25
100
AcDbVertex
100
AcDb2dVertex
 10
431.7411890932999
 20
-244.9525999999996
 30
0.0
  0
SEQEND
  5
A5
330
A2
100
AcDbEntity
  8
Base
 62
   250
420
  2301728
370
    25
  0
POLYLINE
  5
A6
330
1F
100
AcDbEntity
  8
Base
 62
   250
420
  2301728
370
    25
100
AcDb2dPolyline
 66
     1
 10
0.0
 20
0.0
 30
0.0
  0
VERTEX
  5
A7
330
A6
100
AcDbEntity
  8
Base
 62
   250
420
  2301728
370
    25
100
AcDbVertex
100
AcDb2dVertex
 10
276.7089999999998
 20
-385.4130999999998
 30
0.0
  0
VERTEX
  5
A8
330
A6
100
AcDbEntity
  8
Base
 62
   250
420
  2301728
370
    25
100
AcDbVertex
100
AcDb2dVertex
 10
431.0
 20
-439.0
 30
0.0
  0
SEQEND
  5
A9
330
A6
100
AcDbEntity
  8
Base
 62
   250
420
  2301728
370
    25
  0
POLYLINE
  5
AA
330
1F
100
AcDbEntity
  8
Base
 62
   250
420
  2301728
370
    25
100
AcDb2dPolyline
 66
     1
 10
0.0
 20
0.0
 30
0.0
  0
VERTEX
  5
AB
330
AA
100
AcDbEntity
  8
Base
 62
   250
420
  2301728
370
    25
100
AcDbVertex
100
AcDb2dVertex
 10
180.5
 20
-352.0
 30
0.0
  0
VERTEX
  5
AC
330
AA
100
AcDbEntity
  8
Base
 62
   250
420
  2301728
370
    25
100
AcDbVertex
100
AcDb2dVertex
 10
240.3993939270003
 20
-372.8027000000002
 30
0.0
  0
SEQEND
  5
AD
330
AA
100
AcDbEntity
  8
Base
 62
   250
420
  2301728
370
    25
  0
POLYLINE
  5
AE
330
1F
100
AcDbEntity
  8
Base
370
     0
100
AcDb2dPolyline
 66
     1
 10
0.0
 20
0.0
 30
0.0
  0
VERTEX
  5
AF
330
AE
100
AcDbEntity
  8
Base
370
     0
100
AcDbVertex
100
AcDb2dVertex
 10
246.7250937671997
 20
-442.1270000000004
 30
0.0
  0
VERTEX
  5
B0
330
AE
100
AcDbEntity
  8
Base
370
     0
100
AcDbVertex
100
AcDb2dVertex
 10
246.7011937678044
 20
-463.3418000000001
 30
0.0
  0
VERTEX
  5
B1
330
AE
100
AcDbEntity
  8
Base
370
     0
100
AcDbVertex
100
AcDb2dVertex
 10
270.9906931541991
 20
-460.2900000000009
 30
0.0
  0
VERTEX
  5
B2
330
AE
100
AcDbEntity
  8
Base
370
     0
100
AcDbVertex
100
AcDb2dVertex
 10
276.461893015985
 20
-462.6270000000004
 30
0.0
  0
VERTEX
  5
B3
330
AE
100
AcDbEntity
  8
Base
370
     0
100
AcDbVertex
100
AcDb2dVertex
 10
276.4921930152195
 20
-441.7724999999991
 30
0.0
  0
VERTEX
  5
B4
330
AE
100
AcDbEntity
  8
Base
370
     0
100
AcDbVertex
100
AcDb2dVertex
 10
270.9906931541991
 20
-439.6571999999996
 30
0.0
  0
VERTEX
  5
B5
330
AE
100
AcDbEntity
  8
Base
370
     0
100
AcDbVertex
100
AcDb2dVertex
 10
246.7250937671997
 20
-442.1270000000004
 30
0.0
  0
SEQEND
  5
B7
330
AE
100
AcDbEntity
  8
Base
370
     0
  0
HATCH
  5
B6
330
1F
100
AcDbEntity
  8
Base
 62
   254
420
 16376262
100
AcDbHatch
 10
0.0
 20
0.0
 30
0.0
210
0.0
220
0.0
230
1.0
  2
SOLID
 70
     1
 71
     0
 91
        1
 92
        1
 93
        6
 72
     1
 10
246.7250937671997
 20
-442.1270000000004
 11
246.7011937678044
 21
-463.3418000000001
 72
     1
 10
246.7011937678044
 20
-463.3418000000001
 11
270.9906931541991
 21
-460.2900000000009
 72
     1
 10
270.9906931541991
 20
-460.2900000000009
 11
276.461893015985
 21
-462.6270000000004
 72
     1
 10
276.461893015985
 20
-462.6270000000004
 11
276.4921930152195
 21
-441.7724999999991
 72
     1
 10
276.4921930152195
 20
-441.7724999999991
 11
270.9906931541991
 21
-439.6571999999996
 72
     1
 10
270.9906931541991
 20
-439.6571999999996
 11
246.7250937671997
 21
-442.1270000000004
 97
        0
 75
     2
 76
     1
 98
        0
  0
POLYLINE
  5
B8
330
1F
100
AcDbEntity
  8
Base
370
     0
100
AcDb2dPolyline
 66
     1
 10
0.0
 20
0.0
 30
0.0
  0
VERTEX
  5
B9
330
B8
100
AcDbEntity
  8
Base
370
     0
100
AcDbVertex
100
AcDb2dVertex
 10
276.4390000000003
 20
-441.8320000000003
 30
0.0
  0
VERTEX
  5
BA
330
B8
100
AcDbEntity
  8
Base
370
     0
100
AcDbVertex
100
AcDb2dVertex
 10
276.4390000000003
 20
-462.5771000000004
 30
0.0
  0
VERTEX
  5
BB
330
B8
100
AcDbEntity
  8
Base
370
     0
100
AcDbVertex
100
AcDb2dVertex
 10
290.4477926626714
 20
-469.3544999999995
 30
0.0
  0
VERTEX
  5
BC
330
B8
100
AcDbEntity
  8
Base
370
     0
100
AcDbVertex
100
AcDb2dVertex
 10
291.561492634537
 20
-468.9833999999992
 30
0.0
  0
VERTEX
  5
BD
330
B8
100
AcDbEntity
  8
Base
370
     0
100
AcDbVertex
100
AcDb2dVertex
 10
291.561492634537
 20
-447.9462999999996
 30
0.0
  0
VERTEX
  5
BE
330
B8
100
AcDbEntity
  8
Base
370
     0
100
AcDbVertex
100
AcDb2dVertex
 10
276.4390000000003
 20
-441.8320000000003
 30
0.0
  0
SEQEND
  5
C0
330
B8
100
AcDbEntity
  8
Base
370
     0
  0
HATCH
  5
BF
330
1F
100
AcDbEntity
  8
Base
 62
   254
420
 13358815
100
AcDbHatch
 10
0.0
 20
0.0
 30
0.0
210
0.0
220
0.0
230
1.0
  2
SOLID
 70
     1
 71
     0
 91
        1
 92
        1
 93
        5
 72
     1
 10
276.4390000000003
 20
-441.8320000000003
 11
276.4390000000003
 21
-462.5771000000004
 72
     1
 10
276.4390000000003
 20
-462.5771000000004
 11
290.4477926626714
 21
-469.3544999999995
 72
     1
 10
290.4477926626714
 20
-469.3544999999995
 11
291.561492634537
 21
-468.9833999999992
 72
     1
 10
291.561492634537
 20
-468.9833999999992
 11
291.561492634537
 21
-447.9462999999996
 72
     1
 10
291.561492634537
 20
-447.9462999999996
 11
276.4390000000003
 21
-441.8320000000003
 97
        0
 75
     2
 76
     1
 98
        0
  0
POLYLINE
  5
C1
330
1F
100
AcDbEntity
  8
Base
  6
AI-Linetype-1
 62
   250
420
  2301728
370
    25
100
AcDb2dPolyline
 66
     1
 10
0.0
 20
0.0
 30
0.0
  0
VERTEX
  5
C2
330
C1
100
AcDbEntity
  8
Base
  6
AI-Linetype-1
 62
   250
420
  2301728
370
    25
100
AcDbVertex
100
AcDb2dVertex
 10
246.7250937671997
 20
-442.1270000000004
 30
0.0
  0
VERTEX
  5
C3
330
C1
100
AcDbEntity
  8
Base
  6
AI-Linetype-1
 62
   250
420
  2301728
370
    25
100
AcDbVertex
100
AcDb2dVertex
 10
246.7011937678044
 20
-463.3418000000001
 30
0.0
  0
VERTEX
  5
C4
330
C1
100
AcDbEntity
  8
Base
  6
AI-Linetype-1
 62
   250
420
  2301728
370
    25
100
AcDbVertex
100
AcDb2dVertex
 10
270.9906931541991
 20
-460.2900000000009
 30
0.0
  0
VERTEX
  5
C5
330
C1
100
AcDbEntity
  8
Base
  6
AI-Linetype-1
 62
   250
420
  2301728
370
    25
100
AcDbVertex
100
AcDb2dVertex
 10
276.461893015985
 20
-462.6270000000004
 30
0.0
  0
VERTEX
  5
C6
330
C1
100
AcDbEntity
  8
Base
  6
AI-Linetype-1
 62
   250
420
  2301728
370
    25
100
AcDbVertex
100
AcDb2dVertex
 10
276.4921930152195
 20
-441.7724999999991
 30
0.0
  0
VERTEX
  5
C7
330
C1
100
AcDbEntity
  8
Base
  6
AI-Linetype-1
 62
   250
420
  2301728
370
    25
100
AcDbVertex
100
AcDb2dVertex
 10
270.9906931541991
 20
-439.6571999999996
 30
0.0
  0
VERTEX
  5
C8
330
C1
100
AcDbEntity
  8
Base
  6
AI-Linetype-1
 62
   250
420
  2301728
370
    25
100
AcDbVertex
100
AcDb2dVertex
 10
246.7250937671997
 20
-442.1270000000004
 30
0.0
  0
SEQEND
  5
CA
330
C1
100
AcDbEntity
  8
Base
  6
AI-Linetype-1
 62
   250
420
  2301728
370
    25
  0
SPLINE
  5
CB
330
1F
100
AcDbEntity
  8
Base
  6
AI-Linetype-2
 62
   250
420
  2301728
370
    18
100
AcDbSpline
210
0.0
220
0.0
230
1.0
 70
    11
 71
     3
 72
    17
 73
    13
 74
     0
 42
0.0000000001
 43
0.0000000001
 12
1.0
 22
0.0
 32
0.0
 13
1.0
 23
0.0
 33
0.0
 40
0.0
 40
0.0
 40
0.0
 40
0.0
 40
1.0
 40
1.0
 40
1.0
 40
2.0
 40
2.0
 40
2.0
 40
3.0
 40
3.0
 40
3.0
 40
4.0
 40
4.0
 40
4.0
 40
4.0
 10
250.5248936712087
 20
-445.5781000000006
 30
0.0
 10
250.447293673169
 20
-445.9452999999994
 30
0.0
 10
250.1674936802374
 20
-446.1982000000007
 30
0.0
 10
249.9003936869849
 20
-446.1416000000008
 30
0.0
 10
249.632793693745
 20
-446.0849999999991
 30
0.0
 10
249.4790000000003
 20
-445.7412000000004
 30
0.0
 10
249.55659369567
 20
-445.3729999999996
 30
0.0
 10
249.6342936937071
 20
-445.0059000000001
 30
0.0
 10
249.9140936866388
 20
-444.7528999999995
 30
0.0
 10
250.1815936798812
 20
-444.8096000000005
 30
0.0
 10
250.4486936731337
 20
-444.8662000000004
 30
0.0
 10
250.6024936692484
 20
-445.2099999999991
 30
0.0
 10
250.5248936712087
 20
-445.5781000000006
 30
0.0
  0
SPLINE
  5
CD
330
1F
100
AcDbEntity
  8
Base
  6
AI-Linetype-3
 62
   250
420
  2301728
370
    18
100
AcDbSpline
210
0.0
220
0.0
230
1.0
 70
    11
 71
     3
 72
    17
 73
    13
 74
     0
 42
0.0000000001
 43
0.0000000001
 12
1.0
 22
0.0
 32
0.0
 13
1.0
 23
0.0
 33
0.0
 40
0.0
 40
0.0
 40
0.0
 40
0.0
 40
1.0
 40
1.0
 40
1.0
 40
2.0
 40
2.0
 40
2.0
 40
3.0
 40
3.0
 40
3.0
 40
4.0
 40
4.0
 40
4.0
 40
4.0
 10
250.642093668248
 20
-459.5869000000002
 30
0.0
 10
250.5644936702083
 20
-459.9541000000008
 30
0.0
 10
250.2846936772767
 20
-460.2070000000003
 30
0.0
 10
250.0175936840242
 20
-460.1504000000004
 30
0.0
 10
249.75
 20
-460.0938000000006
 30
0.0
 10
249.5961936946696
 20
-459.75
 30
0.0
 10
249.6737936927093
 20
-459.3817999999992
 30
0.0
 10
249.7514936907464
 20
-459.0146000000004
 30
0.0
 10
250.0312936836781
 20
-458.7616999999991
 30
0.0
 10
250.2987936769205
 20
-458.8184000000001
 30
0.0
 10
250.565893670173
 20
-458.875
 30
0.0
 10
250.7196936662876
 20
-459.2188000000006
 30
0.0
 10
250.642093668248
 20
-459.5869000000002
 30
0.0
  0
SPLINE
  5
CF
330
1F
100
AcDbEntity
  8
Base
  6
AI-Linetype-4
 62
   250
420
  2301728
370
    18
100
AcDbSpline
210
0.0
220
0.0
230
1.0
 70
    11
 71
     3
 72
    17
 73
    13
 74
     0
 42
0.0000000001
 43
0.0000000001
 12
1.0
 22
0.0
 32
0.0
 13
1.0
 23
0.0
 33
0.0
 40
0.0
 40
0.0
 40
0.0
 40
0.0
 40
1.0
 40
1.0
 40
1.0
 40
2.0
 40
2.0
 40
2.0
 40
3.0
 40
3.0
 40
3.0
 40
4.0
 40
4.0
 40
4.0
 40
4.0
 10
255.227493552411
 20
-455.8809000000001
 30
0.0
 10
255.1498935543714
 20
-456.2479999999996
 30
0.0
 10
254.8700935614397
 20
-456.5010000000002
 30
0.0
 10
254.6030000000001
 20
-456.4442999999992
 30
0.0
 10
254.3353935749474
 20
-456.3876999999993
 30
0.0
 10
254.1815935788327
 20
-456.0439000000006
 30
0.0
 10
254.2592935768698
 20
-455.6758000000009
 30
0.0
 10
254.3368935749086
 20
-455.3086000000003
 30
0.0
 10
254.6166935678411
 20
-455.0557000000008
 30
0.0
 10
254.884293561081
 20
-455.1123000000007
 30
0.0
 10
255.1513935543326
 20
-455.1689000000006
 30
0.0
 10
255.3051935504482
 20
-455.5126999999993
 30
0.0
 10
255.227493552411
 20
-455.8809000000001
 30
0.0
  0
SPLINE
  5
D1
330
1F
100
AcDbEntity
  8
Base
  6
AI-Linetype-5
 62
   250
420
  2301728
370
    18
100
AcDbSpline
210
0.0
220
0.0
230
1.0
 70
    11
 71
     3
 72
    17
 73
    13
 74
     0
 42
0.0000000001
 43
0.0000000001
 12
1.0
 22
0.0
 32
0.0
 13
1.0
 23
0.0
 33
0.0
 40
0.0
 40
0.0
 40
0.0
 40
0.0
 40
1.0
 40
1.0
 40
1.0
 40
2.0
 40
2.0
 40
2.0
 40
3.0
 40
3.0
 40
3.0
 40
4.0
 40
4.0
 40
4.0
 40
4.0
 10
254.758293564264
 20
-447.4110999999994
 30
0.0
 10
254.6806935662244
 20
-447.7782999999999
 30
0.0
 10
254.4008935732927
 20
-448.0313000000006
 30
0.0
 10
254.1337935800402
 20
-447.9745999999996
 30
0.0
 10
253.8661935868004
 20
-447.9179999999997
 30
0.0
 10
253.7123935906857
 20
-447.5741999999991
 30
0.0
 10
253.79
 20
-447.2060999999994
 30
0.0
 10
253.8676935867616
 20
-446.8389000000006
 30
0.0
 10
254.1474935796941
 20
-446.5859
 30
0.0
 10
254.415
 20
-446.6425999999992
 30
0.0
 10
254.682093566189
 20
-446.6991999999991
 30
0.0
 10
254.8358935623037
 20
-447.0429999999997
 30
0.0
 10
254.758293564264
 20
-447.4110999999994
 30
0.0
  0
SPLINE
  5
D3
330
1F
100
AcDbEntity
  8
Base
 62
   250
420
  2301728
370
    18
100
AcDbSpline
210
0.0
220
0.0
230
1.0
 70
    11
 71
     3
 72
    29
 73
    25
 74
     0
 42
0.0000000001
 43
0.0000000001
 12
1.0
 22
0.0
 32
0.0
 13
1.0
 23
0.0
 33
0.0
 40
0.0
 40
0.0
 40
0.0
 40
0.0
 40
1.0
 40
1.0
 40
1.0
 40
2.0
 40
2.0
 40
2.0
 40
3.0
 40
3.0
 40
3.0
 40
4.0
 40
4.0
 40
4.0
 40
5.0
 40
5.0
 40
5.0
 40
6.0
 40
6.0
 40
6.0
 40
7.0
 40
7.0
 40
7.0
 40
8.0
 40
8.0
 40
8.0
 40
8.0
 10
271.2665931472293
 20
-457.8017999999993
 30
0.0
 10
271.2665931472293
 20
-457.9179999999997
 30
0.0
 10
271.1557931500283
 20
-458.0126999999993
 30
0.0
 10
271.0190000000002
 20
-458.0126999999993
 30
0.0
 10
271.0190000000002
 20
-458.0126999999993
 30
0.0
 10
271.0190000000002
 20
-458.0126999999993
 30
0.0
 10
271.0190000000002
 20
-458.0126999999993
 30
0.0
 10
270.8822931569375
 20
-458.0126999999993
 30
0.0
 10
270.7714931597366
 20
-457.9179999999997
 30
0.0
 10
270.7714931597366
 20
-457.8017999999993
 30
0.0
 10
270.7714931597366
 20
-457.8017999999993
 30
0.0
 10
270.7714931597366
 20
-455.9092000000001
 30
0.0
 10
270.7714931597366
 20
-455.9092000000001
 30
0.0
 10
270.7714931597366
 20
-455.7929999999997
 30
0.0
 10
270.8822931569375
 20
-455.6991999999991
 30
0.0
 10
271.0190000000002
 20
-455.6991999999991
 30
0.0
 10
271.0190000000002
 20
-455.6991999999991
 30
0.0
 10
271.0190000000002
 20
-455.6991999999991
 30
0.0
 10
271.0190000000002
 20
-455.6991999999991
 30
0.0
 10
271.1557931500283
 20
-455.6991999999991
 30
0.0
 10
271.2665931472293
 20
-455.7929999999997
 30
0.0
 10
271.2665931472293
 20
-455.9092000000001
 30
0.0
 10
271.2665931472293
 20
-455.9092000000001
 30
0.0
 10
271.2665931472293
 20
-457.8017999999993
 30
0.0
 10
271.2665931472293
 20
-457.8017999999993
 30
0.0
  0
SPLINE
  5
D4
330
1F
100
AcDbEntity
  8
Base
 62
   250
420
  2301728
370
    18
100
AcDbSpline
210
0.0
220
0.0
230
1.0
 70
    11
 71
     3
 72
    29
 73
    25
 74
     0
 42
0.0000000001
 43
0.0000000001
 12
1.0
 22
0.0
 32
0.0
 13
1.0
 23
0.0
 33
0.0
 40
0.0
 40
0.0
 40
0.0
 40
0.0
 40
1.0
 40
1.0
 40
1.0
 40
2.0
 40
2.0
 40
2.0
 40
3.0
 40
3.0
 40
3.0
 40
4.0
 40
4.0
 40
4.0
 40
5.0
 40
5.0
 40
5.0
 40
6.0
 40
6.0
 40
6.0
 40
7.0
 40
7.0
 40
7.0
 40
8.0
 40
8.0
 40
8.0
 40
8.0
 10
271.2665931472293
 20
-444.1895000000004
 30
0.0
 10
271.2665931472293
 20
-444.3057000000008
 30
0.0
 10
271.1557931500283
 20
-444.4004000000004
 30
0.0
 10
271.0190000000002
 20
-444.4004000000004
 30
0.0
 10
271.0190000000002
 20
-444.4004000000004
 30
0.0
 10
271.0190000000002
 20
-444.4004000000004
 30
0.0
 10
271.0190000000002
 20
-444.4004000000004
 30
0.0
 10
270.8822931569375
 20
-444.4004000000004
 30
0.0
 10
270.7714931597366
 20
-444.3057000000008
 30
0.0
 10
270.7714931597366
 20
-444.1895000000004
 30
0.0
 10
270.7714931597366
 20
-444.1895000000004
 30
0.0
 10
270.7714931597366
 20
-442.2968999999994
 30
0.0
 10
270.7714931597366
 20
-442.2968999999994
 30
0.0
 10
270.7714931597366
 20
-442.1807000000008
 30
0.0
 10
270.8822931569375
 20
-442.0859
 30
0.0
 10
271.0190000000002
 20
-442.0859
 30
0.0
 10
271.0190000000002
 20
-442.0859
 30
0.0
 10
271.0190000000002
 20
-442.0859
 30
0.0
 10
271.0190000000002
 20
-442.0859
 30
0.0
 10
271.1557931500283
 20
-442.0859
 30
0.0
 10
271.2665931472293
 20
-442.1807000000008
 30
0.0
 10
271.2665931472293
 20
-442.2968999999994
 30
0.0
 10
271.2665931472293
 20
-442.2968999999994
 30
0.0
 10
271.2665931472293
 20
-444.1895000000004
 30
0.0
 10
271.2665931472293
 20
-444.1895000000004
 30
0.0
  0
SPLINE
  5
D5
330
1F
100
AcDbEntity
  8
Base
 62
   250
420
  2301728
370
    18
100
AcDbSpline
210
0.0
220
0.0
230
1.0
 70
    11
 71
     3
 72
    29
 73
    25
 74
     0
 42
0.0000000001
 43
0.0000000001
 12
1.0
 22
0.0
 32
0.0
 13
1.0
 23
0.0
 33
0.0
 40
0.0
 40
0.0
 40
0.0
 40
0.0
 40
1.0
 40
1.0
 40
1.0
 40
2.0
 40
2.0
 40
2.0
 40
3.0
 40
3.0
 40
3.0
 40
4.0
 40
4.0
 40
4.0
 40
5.0
 40
5.0
 40
5.0
 40
6.0
 40
6.0
 40
6.0
 40
7.0
 40
7.0
 40
7.0
 40
8.0
 40
8.0
 40
8.0
 40
8.0
 10
271.2665931472293
 20
-448.7675999999992
 30
0.0
 10
271.2665931472293
 20
-448.8837999999996
 30
0.0
 10
271.1557931500283
 20
-448.9775000000009
 30
0.0
 10
271.0190000000002
 20
-448.9775000000009
 30
0.0
 10
271.0190000000002
 20
-448.9775000000009
 30
0.0
 10
271.0190000000002
 20
-448.9775000000009
 30
0.0
 10
271.0190000000002
 20
-448.9775000000009
 30
0.0
 10
270.8822931569375
 20
-448.9775000000009
 30
0.0
 10
270.7714931597366
 20
-448.8837999999996
 30
0.0
 10
270.7714931597366
 20
-448.7675999999992
 30
0.0
 10
270.7714931597366
 20
-448.7675999999992
 30
0.0
 10
270.7714931597366
 20
-446.875
 30
0.0
 10
270.7714931597366
 20
-446.875
 30
0.0
 10
270.7714931597366
 20
-446.7587999999996
 30
0.0
 10
270.8822931569375
 20
-446.6641
 30
0.0
 10
271.0190000000002
 20
-446.6641
 30
0.0
 10
271.0190000000002
 20
-446.6641
 30
0.0
 10
271.0190000000002
 20
-446.6641
 30
0.0
 10
271.0190000000002
 20
-446.6641
 30
0.0
 10
271.1557931500283
 20
-446.6641
 30
0.0
 10
271.2665931472293
 20
-446.7587999999996
 30
0.0
 10
271.2665931472293
 20
-446.875
 30
0.0
 10
271.2665931472293
 20
-446.875
 30
0.0
 10
271.2665931472293
 20
-448.7675999999992
 30
0.0
 10
271.2665931472293
 20
-448.7675999999992
 30
0.0
  0
SPLINE
  5
D6
330
1F
100
AcDbEntity
  8
Base
 62
   250
420
  2301728
370
    18
100
AcDbSpline
210
0.0
220
0.0
230
1.0
 70
    11
 71
     3
 72
    29
 73
    25
 74
     0
 42
0.0000000001
 43
0.0000000001
 12
1.0
 22
0.0
 32
0.0
 13
1.0
 23
0.0
 33
0.0
 40
0.0
 40
0.0
 40
0.0
 40
0.0
 40
1.0
 40
1.0
 40
1.0
 40
2.0
 40
2.0
 40
2.0
 40
3.0
 40
3.0
 40
3.0
 40
4.0
 40
4.0
 40
4.0
 40
5.0
 40
5.0
 40
5.0
 40
6.0
 40
6.0
 40
6.0
 40
7.0
 40
7.0
 40
7.0
 40
8.0
 40
8.0
 40
8.0
 40
8.0
 10
271.2665931472293
 20
-453.4706999999999
 30
0.0
 10
271.2665931472293
 20
-453.5869000000002
 30
0.0
 10
271.1557931500283
 20
-453.6815999999999
 30
0.0
 10
271.0190000000002
 20
-453.6815999999999
 30
0.0
 10
271.0190000000002
 20
-453.6815999999999
 30
0.0
 10
271.0190000000002
 20
-453.6815999999999
 30
0.0
 10
271.0190000000002
 20
-453.6815999999999
 30
0.0
 10
270.8822931569375
 20
-453.6815999999999
 30
0.0
 10
270.7714931597366
 20
-453.5869000000002
 30
0.0
 10
270.7714931597366
 20
-453.4706999999999
 30
0.0
 10
270.7714931597366
 20
-453.4706999999999
 30
0.0
 10
270.7714931597366
 20
-451.5781000000006
 30
0.0
 10
270.7714931597366
 20
-451.5781000000006
 30
0.0
 10
270.7714931597366
 20
-451.4619000000002
 30
0.0
 10
270.8822931569375
 20
-451.3672000000006
 30
0.0
 10
271.0190000000002
 20
-451.3672000000006
 30
0.0
 10
271.0190000000002
 20
-451.3672000000006
 30
0.0
 10
271.0190000000002
 20
-451.3672000000006
 30
0.0
 10
271.0190000000002
 20
-451.3672000000006
 30
0.0
 10
271.1557931500283
 20
-451.3672000000006
 30
0.0
 10
271.2665931472293
 20
-451.4619000000002
 30
0.0
 10
271.2665931472293
 20
-451.5781000000006
 30
0.0
 10
271.2665931472293
 20
-451.5781000000006
 30
0.0
 10
271.2665931472293
 20
-453.4706999999999
 30
0.0
 10
271.2665931472293
 20
-453.4706999999999
 30
0.0
  0
POLYLINE
  5
D7
330
1F
100
AcDbEntity
  8
Base
  6
AI-Linetype-6
 62
   250
420
  2301728
370
    18
100
AcDb2dPolyline
 66
     1
 10
0.0
 20
0.0
 30
0.0
  0
VERTEX
  5
D8
330
D7
100
AcDbEntity
  8
Base
  6
AI-Linetype-6
 62
   250
420
  2301728
370
    18
100
AcDbVertex
100
AcDb2dVertex
 10
253.1996936036376
 20
-443.3485999999994
 30
0.0
  0
VERTEX
  5
D9
330
D7
100
AcDbEntity
  8
Base
  6
AI-Linetype-6
 62
   250
420
  2301728
370
    18
100
AcDbVertex
100
AcDb2dVertex
 10
254.5609999999997
 20
-443.1005999999998
 30
0.0
  0
VERTEX
  5
DA
330
D7
100
AcDbEntity
  8
Base
  6
AI-Linetype-6
 62
   250
420
  2301728
370
    18
100
AcDbVertex
100
AcDb2dVertex
 10
253.9423935848754
 20
-444.4619000000002
 30
0.0
  0
VERTEX
  5
DB
330
D7
100
AcDbEntity
  8
Base
  6
AI-Linetype-6
 62
   250
420
  2301728
370
    18
100
AcDbVertex
100
AcDb2dVertex
 10
253.1996936036376
 20
-443.3485999999994
 30
0.0
  0
SEQEND
  5
DD
330
D7
100
AcDbEntity
  8
Base
  6
AI-Linetype-6
 62
   250
420
  2301728
370
    18
  0
POLYLINE
  5
DE
330
1F
100
AcDbEntity
  8
Base
  6
AI-Linetype-7
 62
   250
420
  2301728
370
    18
100
AcDb2dPolyline
 66
     1
 10
0.0
 20
0.0
 30
0.0
  0
VERTEX
  5
DF
330
DE
100
AcDbEntity
  8
Base
  6
AI-Linetype-7
 62
   250
420
  2301728
370
    18
100
AcDbVertex
100
AcDb2dVertex
 10
254.5023935707286
 20
-460.6474999999991
 30
0.0
  0
VERTEX
  5
E0
330
DE
100
AcDbEntity
  8
Base
  6
AI-Linetype-7
 62
   250
420
  2301728
370
    18
100
AcDbVertex
100
AcDb2dVertex
 10
255.7396935394718
 20
-460.4004000000004
 30
0.0
  0
VERTEX
  5
E1
330
DE
100
AcDbEntity
  8
Base
  6
AI-Linetype-7
 62
   250
420
  2301728
370
    18
100
AcDbVertex
100
AcDb2dVertex
 10
254.9975935582188
 20
-459.1630999999998
 30
0.0
  0
VERTEX
  5
E2
330
DE
100
AcDbEntity
  8
Base
  6
AI-Linetype-7
 62
   250
420
  2301728
370
    18
100
AcDbVertex
100
AcDb2dVertex
 10
254.5023935707286
 20
-460.6474999999991
 30
0.0
  0
SEQEND
  5
E4
330
DE
100
AcDbEntity
  8
Base
  6
AI-Linetype-7
 62
   250
420
  2301728
370
    18
  0
POLYLINE
  5
E5
330
1F
100
AcDbEntity
  8
Base
 62
   250
420
  2301728
370
    18
100
AcDb2dPolyline
 66
     1
 10
0.0
 20
0.0
 30
0.0
  0
VERTEX
  5
E6
330
E5
100
AcDbEntity
  8
Base
 62
   250
420
  2301728
370
    18
100
AcDbVertex
100
AcDb2dVertex
 10
283.1469999999999
 20
-447.3271000000004
 30
0.0
  0
VERTEX
  5
E7
330
E5
100
AcDbEntity
  8
Base
 62
   250
420
  2301728
370
    18
100
AcDbVertex
100
AcDb2dVertex
 10
284.0131928252231
 20
-447.6982000000007
 30
0.0
  0
VERTEX
  5
E8
330
E5
100
AcDbEntity
  8
Base
 62
   250
420
  2301728
370
    18
100
AcDbVertex
100
AcDb2dVertex
 10
283.3940000000002
 20
-448.5458999999992
 30
0.0
  0
VERTEX
  5
E9
330
E5
100
AcDbEntity
  8
Base
 62
   250
420
  2301728
370
    18
100
AcDbVertex
100
AcDb2dVertex
 10
283.1469999999999
 20
-447.3271000000004
 30
0.0
  0
SEQEND
  5
EA
330
E5
100
AcDbEntity
  8
Base
 62
   250
420
  2301728
370
    18
  0
SPLINE
  5
EB
330
1F
100
AcDbEntity
  8
Base
 62
   250
420
  2301728
370
    18
100
AcDbSpline
210
0.0
220
0.0
230
1.0
 70
    11
 71
     3
 72
    17
 73
    13
 74
     0
 42
0.0000000001
 43
0.0000000001
 12
1.0
 22
0.0
 32
0.0
 13
1.0
 23
0.0
 33
0.0
 40
0.0
 40
0.0
 40
0.0
 40
0.0
 40
1.0
 40
1.0
 40
1.0
 40
2.0
 40
2.0
 40
2.0
 40
3.0
 40
3.0
 40
3.0
 40
4.0
 40
4.0
 40
4.0
 40
4.0
 10
283.7582928316624
 20
-451.3271000000004
 30
0.0
 10
283.8197928301088
 20
-451.6826000000001
 30
0.0
 10
283.6513928343629
 20
-452.0097999999998
 30
0.0
 10
283.382292841161
 20
-452.0557000000008
 30
0.0
 10
283.1127928479691
 20
-452.1025000000009
 30
0.0
 10
282.8446928547419
 20
-451.8516
 30
0.0
 10
282.7831928562964
 20
-451.4951000000001
 30
0.0
 10
282.7216928578491
 20
-451.1396000000004
 30
0.0
 10
282.890092853595
 20
-450.8125
 30
0.0
 10
283.1596928467843
 20
-450.7666000000008
 30
0.0
 10
283.4286928399888
 20
-450.7196999999996
 30
0.0
 10
283.696792833216
 20
-450.9706999999999
 30
0.0
 10
283.7582928316624
 20
-451.3271000000004
 30
0.0
  0
SPLINE
  5
EC
330
1F
100
AcDbEntity
  8
Base
 62
   250
420
  2301728
370
    18
100
AcDbSpline
210
0.0
220
0.0
230
1.0
 70
    11
 71
     3
 72
    17
 73
    13
 74
     0
 42
0.0000000001
 43
0.0000000001
 12
1.0
 22
0.0
 32
0.0
 13
1.0
 23
0.0
 33
0.0
 40
0.0
 40
0.0
 40
0.0
 40
0.0
 40
1.0
 40
1.0
 40
1.0
 40
2.0
 40
2.0
 40
2.0
 40
3.0
 40
3.0
 40
3.0
 40
4.0
 40
4.0
 40
4.0
 40
4.0
 10
288.3627927153429
 20
-451.6815999999999
 30
0.0
 10
288.4242927137893
 20
-452.0370999999996
 30
0.0
 10
288.2558927180444
 20
-452.3642999999993
 30
0.0
 10
287.9867927248424
 20
-452.4102000000003
 30
0.0
 10
287.7172927316496
 20
-452.4570000000003
 30
0.0
 10
287.4491927384224
 20
-452.2060999999994
 30
0.0
 10
287.387692739976
 20
-451.8495999999996
 30
0.0
 10
287.3261927415297
 20
-451.4940999999999
 30
0.0
 10
287.4945927372755
 20
-451.1669999999995
 30
0.0
 10
287.7641927304649
 20
-451.1211000000003
 30
0.0
 10
288.0331927236693
 20
-451.0741999999991
 30
0.0
 10
288.3012927168966
 20
-451.3251999999993
 30
0.0
 10
288.3627927153429
 20
-451.6815999999999
 30
0.0
  0
SPLINE
  5
ED
330
1F
100
AcDbEntity
  8
Base
 62
   250
420
  2301728
370
    18
100
AcDbSpline
210
0.0
220
0.0
230
1.0
 70
    11
 71
     3
 72
    17
 73
    13
 74
     0
 42
0.0000000001
 43
0.0000000001
 12
1.0
 22
0.0
 32
0.0
 13
1.0
 23
0.0
 33
0.0
 40
0.0
 40
0.0
 40
0.0
 40
0.0
 40
1.0
 40
1.0
 40
1.0
 40
2.0
 40
2.0
 40
2.0
 40
3.0
 40
3.0
 40
3.0
 40
4.0
 40
4.0
 40
4.0
 40
4.0
 10
288.3627927153429
 20
-464.0781000000006
 30
0.0
 10
288.4242927137893
 20
-464.4336000000003
 30
0.0
 10
288.2558927180444
 20
-464.7607000000007
 30
0.0
 10
287.9867927248424
 20
-464.8065999999999
 30
0.0
 10
287.7172927316496
 20
-464.8534999999993
 30
0.0
 10
287.4491927384224
 20
-464.6025000000009
 30
0.0
 10
287.387692739976
 20
-464.2461000000003
 30
0.0
 10
287.3261927415297
 20
-463.8906000000006
 30
0.0
 10
287.4945927372755
 20
-463.5635000000002
 30
0.0
 10
287.7641927304649
 20
-463.5175999999992
 30
0.0
 10
288.0331927236693
 20
-463.4706999999999
 30
0.0
 10
288.3012927168966
 20
-463.7217000000001
 30
0.0
 10
288.3627927153429
 20
-464.0781000000006
 30
0.0
  0
SPLINE
  5
EE
330
1F
100
AcDbEntity
  8
Base
 62
   250
420
  2301728
370
    18
100
AcDbSpline
210
0.0
220
0.0
230
1.0
 70
    11
 71
     3
 72
    17
 73
    13
 74
     0
 42
0.0000000001
 43
0.0000000001
 12
1.0
 22
0.0
 32
0.0
 13
1.0
 23
0.0
 33
0.0
 40
0.0
 40
0.0
 40
0.0
 40
0.0
 40
1.0
 40
1.0
 40
1.0
 40
2.0
 40
2.0
 40
2.0
 40
3.0
 40
3.0
 40
3.0
 40
4.0
 40
4.0
 40
4.0
 40
4.0
 10
283.7582928316624
 20
-459.3711000000003
 30
0.0
 10
283.8197928301088
 20
-459.7266
 30
0.0
 10
283.6513928343629
 20
-460.0537000000004
 30
0.0
 10
283.382292841161
 20
-460.0995999999996
 30
0.0
 10
283.1127928479691
 20
-460.1465000000007
 30
0.0
 10
282.8446928547419
 20
-459.8955000000005
 30
0.0
 10
282.7831928562964
 20
-459.5391
 30
0.0
 10
282.7216928578491
 20
-459.1836000000003
 30
0.0
 10
282.890092853595
 20
-458.8564000000006
 30
0.0
 10
283.1596928467843
 20
-458.8104999999996
 30
0.0
 10
283.4286928399888
 20
-458.7636999999995
 30
0.0
 10
283.696792833216
 20
-459.0146000000004
 30
0.0
 10
283.7582928316624
 20
-459.3711000000003
 30
0.0
  0
POLYLINE
  5
EF
330
1F
100
AcDbEntity
  8
Base
 62
   250
420
  2301728
370
    18
100
AcDb2dPolyline
 66
     1
 10
0.0
 20
0.0
 30
0.0
  0
VERTEX
  5
F0
330
EF
100
AcDbEntity
  8
Base
 62
   250
420
  2301728
370
    18
100
AcDbVertex
100
AcDb2dVertex
 10
282.5277928627474
 20
-463.5380999999998
 30
0.0
  0
VERTEX
  5
F1
330
EF
100
AcDbEntity
  8
Base
 62
   250
420
  2301728
370
    18
100
AcDbVertex
100
AcDb2dVertex
 10
283.3944928408528
 20
-464.0331999999999
 30
0.0
  0
VERTEX
  5
F2
330
EF
100
AcDbEntity
  8
Base
 62
   250
420
  2301728
370
    18
100
AcDbVertex
100
AcDb2dVertex
 10
283.0228928502402
 20
-462.4248000000007
 30
0.0
  0
VERTEX
  5
F3
330
EF
100
AcDbEntity
  8
Base
 62
   250
420
  2301728
370
    18
100
AcDbVertex
100
AcDb2dVertex
 10
282.5277928627474
 20
-463.5380999999998
 30
0.0
  0
SEQEND
  5
F4
330
EF
100
AcDbEntity
  8
Base
 62
   250
420
  2301728
370
    18
  0
POLYLINE
  5
F5
330
1F
100
AcDbEntity
  8
Base
 62
   250
420
  2301728
370
    35
100
AcDb2dPolyline
 66
     1
 10
0.0
 20
0.0
 30
0.0
  0
VERTEX
  5
F6
330
F5
100
AcDbEntity
  8
Base
 62
   250
420
  2301728
370
    35
100
AcDbVertex
100
AcDb2dVertex
 10
276.4390000000003
 20
-441.8320000000003
 30
0.0
  0
VERTEX
  5
F7
330
F5
100
AcDbEntity
  8
Base
 62
   250
420
  2301728
370
    35
100
AcDbVertex
100
AcDb2dVertex
 10
276.4390000000003
 20
-462.5771000000004
 30
0.0
  0
VERTEX
  5
F8
330
F5
100
AcDbEntity
  8
Base
 62
   250
420
  2301728
370
    35
100
AcDbVertex
100
AcDb2dVertex
 10
290.4477926626714
 20
-469.3544999999995
 30
0.0
  0
VERTEX
  5
F9
330
F5
100
AcDbEntity
  8
Base
 62
   250
420
  2301728
370
    35
100
AcDbVertex
100
AcDb2dVertex
 10
291.561492634537
 20
-468.9833999999992
 30
0.0
  0
VERTEX
  5
FA
330
F5
100
AcDbEntity
  8
Base
 62
   250
420
  2301728
370
    35
100
AcDbVertex
100
AcDb2dVertex
 10
291.561492634537
 20
-447.9462999999996
 30
0.0
  0
VERTEX
  5
FB
330
F5
100
AcDbEntity
  8
Base
 62
   250
420
  2301728
370
    35
100
AcDbVertex
100
AcDb2dVertex
 10
276.4390000000003
 20
-441.8320000000003
 30
0.0
  0
SEQEND
  5
FC
330
F5
100
AcDbEntity
  8
Base
 62
   250
420
  2301728
370
    35
  0
POLYLINE
  5
FD
330
1F
100
AcDbEntity
  8
Base
 62
   250
420
  2301728
370
    25
100
AcDb2dPolyline
 66
     1
 10
0.0
 20
0.0
 30
0.0
  0
VERTEX
  5
FE
330
FD
100
AcDbEntity
  8
Base
 62
   250
420
  2301728
370
    25
100
AcDbVertex
100
AcDb2dVertex
 10
276.375
 20
-443.0
 30
0.0
  0
VERTEX
  5
FF
330
FD
100
AcDbEntity
  8
Base
 62
   250
420
  2301728
370
    25
100
AcDbVertex
100
AcDb2dVertex
 10
290.375
 20
-448.625
 30
0.0
  0
VERTEX
  5
100
330
FD
100
AcDbEntity
  8
Base
 62
   250
420
  2301728
370
    25
100
AcDbVertex
100
AcDb2dVertex
 10
290.375
 20
-469.3544999999995
 30
0.0
  0
SEQEND
  5
101
330
FD
100
AcDbEntity
  8
Base
 62
   250
420
  2301728
370
    25
  0
POLYLINE
  5
102
330
1F
100
AcDbEntity
  8
Base
 62
   250
420
  2301728
370
    25
100
AcDb2dPolyline
 66
     1
 10
0.0
 20
0.0
 30
0.0
  0
VERTEX
  5
103
330
102
100
AcDbEntity
  8
Base
 62
   250
420
  2301728
370
    25
100
AcDbVertex
100
AcDb2dVertex
 10
290.25
 20
-448.5
 30
0.0
  0
VERTEX
  5
104
330
102
100
AcDbEntity
  8
Base
 62
   250
420
  2301728
370
    25
100
AcDbVertex
100
AcDb2dVertex
 10
291.625
 20
-448.125
 30
0.0
  0
SEQEND
  5
105
330
102
100
AcDbEntity
  8
Base
 62
   250
420
  2301728
370
    25
  0
POLYLINE
  5
106
330
1F
100
AcDbEntity
  8
Base
370
     0
100
AcDb2dPolyline
 66
     1
 10
0.0
 20
0.0
 30
0.0
  0
VERTEX
  5
107
330
106
100
AcDbEntity
  8
Base
370
     0
100
AcDbVertex
100
AcDb2dVertex
 10
341.8954913629932
 20
-422.6669999999995
 30
0.0
  0
VERTEX
  5
108
330
106
100
AcDbEntity
  8
Base
370
     0
100
AcDbVertex
100
AcDb2dVertex
 10
334.6532915459466
 20
-415.3633000000009
 30
0.0
  0
VERTEX
  5
109
330
106
100
AcDbEntity
  8
Base
370
     0
100
AcDbVertex
100
AcDb2dVertex
 10
334.6532915459466
 20
-420.0313000000006
 30
0.0
  0
VERTEX
  5
10A
330
106
100
AcDbEntity
  8
Base
370
     0
100
AcDbVertex
100
AcDb2dVertex
 10
294.6040000000003
 20
-422.0419999999995
 30
0.0
  0
VERTEX
  5
10B
330
106
100
AcDbEntity
  8
Base
370
     0
100
AcDbVertex
100
AcDb2dVertex
 10
294.6040000000003
 20
-429.1260000000002
 30
0.0
  0
VERTEX
  5
10C
330
106
100
AcDbEntity
  8
Base
370
     0
100
AcDbVertex
100
AcDb2dVertex
 10
334.6532915459466
 20
-426.3310999999994
 30
0.0
  0
VERTEX
  5
10D
330
106
100
AcDbEntity
  8
Base
370
     0
100
AcDbVertex
100
AcDb2dVertex
 10
334.6532915459466
 20
-431.6133000000009
 30
0.0
  0
VERTEX
  5
10E
330
106
100
AcDbEntity
  8
Base
370
     0
100
AcDbVertex
100
AcDb2dVertex
 10
341.8954913629932
 20
-422.6669999999995
 30
0.0
  0
SEQEND
  5
110
330
106
100
AcDbEntity
  8
Base
370
     0
  0
HATCH
  5
10F
330
1F
100
AcDbEntity
  8
Base
 62
   250
420
  2301728
100
AcDbHatch
 10
0.0
 20
0.0
 30
0.0
210
0.0
220
0.0
230
1.0
  2
SOLID
 70
     1
 71
     0
 91
        1
 92
        1
 93
        7
 72
     1
 10
341.8954913629932
 20
-422.6669999999995
 11
334.6532915459466
 21
-415.3633000000009
 72
     1
 10
334.6532915459466
 20
-415.3633000000009
 11
334.6532915459466
 21
-420.0313000000006
 72
     1
 10
334.6532915459466
 20
-420.0313000000006
 11
294.6040000000003
 21
-422.0419999999995
 72
     1
 10
294.6040000000003
 20
-422.0419999999995
 11
294.6040000000003
 21
-429.1260000000002
 72
     1
 10
294.6040000000003
 20
-429.1260000000002
 11
334.6532915459466
 21
-426.3310999999994
 72
     1
 10
334.6532915459466
 20
-426.3310999999994
 11
334.6532915459466
 21
-431.6133000000009
 72
     1
 10
334.6532915459466
 20
-431.6133000000009
 11
341.8954913629932
 21
-422.6669999999995
 97
        0
 75
     2
 76
     1
 98
        0
  0
POLYLINE
  5
111
330
1F
100
AcDbEntity
  8
Base
  6
AI-Linetype-8
 62
   250
420
  2301728
370
    25
100
AcDb2dPolyline
 66
     1
 10
0.0
 20
0.0
 30
0.0
  0
VERTEX
  5
112
330
111
100
AcDbEntity
  8
Base
  6
AI-Linetype-8
 62
   250
420
  2301728
370
    25
100
AcDbVertex
100
AcDb2dVertex
 10
278.6664929602921
 20
-438.6669999999995
 30
0.0
  0
VERTEX
  5
113
330
111
100
AcDbEntity
  8
Base
  6
AI-Linetype-8
 62
   250
420
  2301728
370
    25
100
AcDbVertex
100
AcDb2dVertex
 10
378.3330000000005
 20
-429.0
 30
0.0
  0
SEQEND
  5
115
330
111
100
AcDbEntity
  8
Base
  6
AI-Linetype-8
 62
   250
420
  2301728
370
    25
  0
POLYLINE
  5
116
330
1F
100
AcDbEntity
  8
Base
  6
AI-Linetype-9
 62
   250
420
  2301728
370
    25
100
AcDb2dPolyline
 66
     1
 10
0.0
 20
0.0
 30
0.0
  0
VERTEX
  5
117
330
116
100
AcDbEntity
  8
Base
  6
AI-Linetype-9
 62
   250
420
  2301728
370
    25
100
AcDbVertex
100
AcDb2dVertex
 10
293.3334925897734
 20
-447.6669999999995
 30
0.0
  0
VERTEX
  5
118
330
116
100
AcDbEntity
  8
Base
  6
AI-Linetype-9
 62
   250
420
  2301728
370
    25
100
AcDbVertex
100
AcDb2dVertex
 10
397.0
 20
-435.6669999999995
 30
0.0
  0
SEQEND
  5
11A
330
116
100
AcDbEntity
  8
Base
  6
AI-Linetype-9
 62
   250
420
  2301728
370
    25
  0
POLYLINE
  5
11B
330
1F
100
AcDbEntity
  8
Base
  6
AI-Linetype-10
 62
   250
420
  2301728
370
    25
100
AcDb2dPolyline
 66
     1
 10
0.0
 20
0.0
 30
0.0
  0
VERTEX
  5
11C
330
11B
100
AcDbEntity
  8
Base
  6
AI-Linetype-10
 62
   250
420
  2301728
370
    25
100
AcDbVertex
100
AcDb2dVertex
 10
293.6664925813602
 20
-455.6669999999995
 30
0.0
  0
VERTEX
  5
11D
330
11B
100
AcDbEntity
  8
Base
  6
AI-Linetype-10
 62
   250
420
  2301728
370
    25
100
AcDbVertex
100
AcDb2dVertex
 10
378.6669999999995
 20
-446.3330000000005
 30
0.0
  0
SEQEND
  5
11F
330
11B
100
AcDbEntity
  8
Base
  6
AI-Linetype-10
 62
   250
420
  2301728
370
    25
  0
POLYLINE
  5
120
330
1F
100
AcDbEntity
  8
Base
  6
AI-Linetype-11
 62
   250
420
  2301728
370
    25
100
AcDb2dPolyline
 66
     1
 10
0.0
 20
0.0
 30
0.0
  0
VERTEX
  5
121
330
120
100
AcDbEntity
  8
Base
  6
AI-Linetype-11
 62
   250
420
  2301728
370
    25
100
AcDbVertex
100
AcDb2dVertex
 10
293.6664925813602
 20
-468.6669999999995
 30
0.0
  0
VERTEX
  5
122
330
120
100
AcDbEntity
  8
Base
  6
AI-Linetype-11
 62
   250
420
  2301728
370
    25
100
AcDbVertex
100
AcDb2dVertex
 10
396.3330000000005
 20
-453.0
 30
0.0
  0
SEQEND
  5
124
330
120
100
AcDbEntity
  8
Base
  6
AI-Linetype-11
 62
   250
420
  2301728
370
    25
  0
POLYLINE
  5
125
330
1F
100
AcDbEntity
  8
Base
  6
AI-Linetype-12
 62
   250
420
  2301728
370
    25
100
AcDb2dPolyline
 66
     1
 10
0.0
 20
0.0
 30
0.0
  0
VERTEX
  5
126
330
125
100
AcDbEntity
  8
Base
  6
AI-Linetype-12
 62
   250
420
  2301728
370
    25
100
AcDbVertex
100
AcDb2dVertex
 10
378.6669999999995
 20
-429.1650000000009
 30
0.0
  0
VERTEX
  5
127
330
125
100
AcDbEntity
  8
Base
  6
AI-Linetype-12
 62
   250
420
  2301728
370
    25
100
AcDbVertex
100
AcDb2dVertex
 10
378.6669999999995
 20
-446.4989999999998
 30
0.0
  0
VERTEX
  5
128
330
125
100
AcDbEntity
  8
Base
  6
AI-Linetype-12
 62
   250
420
  2301728
370
    25
100
AcDbVertex
100
AcDb2dVertex
 10
397.0010000000002
 20
-453.1659999999993
 30
0.0
  0
VERTEX
  5
129
330
125
100
AcDbEntity
  8
Base
  6
AI-Linetype-12
 62
   250
420
  2301728
370
    25
100
AcDbVertex
100
AcDb2dVertex
 10
397.4179999999997
 20
-435.4150000000009
 30
0.0
  0
VERTEX
  5
12A
330
125
100
AcDbEntity
  8
Base
  6
AI-Linetype-12
 62
   250
420
  2301728
370
    25
100
AcDbVertex
100
AcDb2dVertex
 10
378.6669999999995
 20
-429.1650000000009
 30
0.0
  0
SEQEND
  5
12C
330
125
100
AcDbEntity
  8
Base
  6
AI-Linetype-12
 62
   250
420
  2301728
370
    25
  0
POLYLINE
  5
12D
330
1F
100
AcDbEntity
  8
Base
370
     0
100
AcDb2dPolyline
 66
     1
 10
0.0
 20
0.0
 30
0.0
  0
VERTEX
  5
12E
330
12D
100
AcDbEntity
  8
Base
370
     0
100
AcDbVertex
100
AcDb2dVertex
 10
254.5263935701223
 20
-441.4032999999999
 30
0.0
  0
VERTEX
  5
12F
330
12D
100
AcDbEntity
  8
Base
370
     0
100
AcDbVertex
100
AcDb2dVertex
 10
254.5263935701223
 20
-416.9989999999998
 30
0.0
  0
VERTEX
  5
130
330
12D
100
AcDbEntity
  8
Base
370
     0
100
AcDbVertex
100
AcDb2dVertex
 10
269.7802931847764
 20
-416.4599999999991
 30
0.0
  0
VERTEX
  5
131
330
12D
100
AcDbEntity
  8
Base
370
     0
100
AcDbVertex
100
AcDb2dVertex
 10
269.865693182619
 20
-439.8418000000001
 30
0.0
  0
VERTEX
  5
132
330
12D
100
AcDbEntity
  8
Base
370
     0
100
AcDbVertex
100
AcDb2dVertex
 10
254.5263935701223
 20
-441.4032999999999
 30
0.0
  0
SEQEND
  5
133
330
12D
100
AcDbEntity
  8
Base
370
     0
  0
POLYLINE
  5
134
330
1F
100
AcDbEntity
  8
Base
370
     0
100
AcDb2dPolyline
 66
     1
 10
0.0
 20
0.0
 30
0.0
  0
VERTEX
  5
135
330
134
100
AcDbEntity
  8
Base
370
     0
100
AcDbVertex
100
AcDb2dVertex
 10
256.6303935169708
 20
-421.2998000000007
 30
0.0
  0
VERTEX
  5
136
330
134
100
AcDbEntity
  8
Base
370
     0
100
AcDbVertex
100
AcDb2dVertex
 10
255.66059354147
 20
-421.3397999999997
 30
0.0
  0
VERTEX
  5
137
330
134
100
AcDbEntity
  8
Base
370
     0
100
AcDbVertex
100
AcDb2dVertex
 10
255.6615935414447
 20
-425.4258000000009
 30
0.0
  0
VERTEX
  5
138
330
134
100
AcDbEntity
  8
Base
370
     0
100
AcDbVertex
100
AcDb2dVertex
 10
256.6322935169228
 20
-425.3788999999997
 30
0.0
  0
VERTEX
  5
139
330
134
100
AcDbEntity
  8
Base
370
     0
100
AcDbVertex
100
AcDb2dVertex
 10
256.6303935169708
 20
-421.2998000000007
 30
0.0
  0
SEQEND
  5
13A
330
134
100
AcDbEntity
  8
Base
370
     0
  0
POLYLINE
  5
13B
330
1F
100
AcDbEntity
  8
Base
370
     0
100
AcDb2dPolyline
 66
     1
 10
0.0
 20
0.0
 30
0.0
  0
VERTEX
  5
13C
330
13B
100
AcDbEntity
  8
Base
370
     0
100
AcDbVertex
100
AcDb2dVertex
 10
255.6640935413816
 20
-431.3770000000004
 30
0.0
  0
VERTEX
  5
13D
330
13B
100
AcDbEntity
  8
Base
370
     0
100
AcDbVertex
100
AcDb2dVertex
 10
256.6347935168596
 20
-431.3251999999993
 30
0.0
  0
VERTEX
  5
13E
330
13B
100
AcDbEntity
  8
Base
370
     0
100
AcDbVertex
100
AcDb2dVertex
 10
256.6327935169102
 20
-427.2343999999994
 30
0.0
  0
VERTEX
  5
13F
330
13B
100
AcDbEntity
  8
Base
370
     0
100
AcDbVertex
100
AcDb2dVertex
 10
255.6625935414186
 20
-427.2803000000004
 30
0.0
  0
VERTEX
  5
140
330
13B
100
AcDbEntity
  8
Base
370
     0
100
AcDbVertex
100
AcDb2dVertex
 10
255.6640935413816
 20
-431.3770000000004
 30
0.0
  0
SEQEND
  5
141
330
13B
100
AcDbEntity
  8
Base
370
     0
  0
POLYLINE
  5
142
330
1F
100
AcDbEntity
  8
Base
370
     0
100
AcDb2dPolyline
 66
     1
 10
0.0
 20
0.0
 30
0.0
  0
VERTEX
  5
143
330
142
100
AcDbEntity
  8
Base
370
     0
100
AcDbVertex
100
AcDb2dVertex
 10
255.665
 20
-437.3456999999999
 30
0.0
  0
VERTEX
  5
144
330
142
100
AcDbEntity
  8
Base
370
     0
100
AcDbVertex
100
AcDb2dVertex
 10
256.6381935167738
 20
-437.2852000000003
 30
0.0
  0
VERTEX
  5
145
330
142
100
AcDbEntity
  8
Base
370
     0
100
AcDbVertex
100
AcDb2dVertex
 10
256.6361935168243
 20
-433.1836000000003
 30
0.0
  0
VERTEX
  5
146
330
142
100
AcDbEntity
  8
Base
370
     0
100
AcDbVertex
100
AcDb2dVertex
 10
255.6640935413816
 20
-433.2373000000007
 30
0.0
  0
VERTEX
  5
147
330
142
100
AcDbEntity
  8
Base
370
     0
100
AcDbVertex
100
AcDb2dVertex
 10
255.665
 20
-437.3456999999999
 30
0.0
  0
SEQEND
  5
148
330
142
100
AcDbEntity
  8
Base
370
     0
  0
POLYLINE
  5
149
330
1F
100
AcDbEntity
  8
Base
370
     0
100
AcDb2dPolyline
 66
     1
 10
0.0
 20
0.0
 30
0.0
  0
VERTEX
  5
14A
330
149
100
AcDbEntity
  8
Base
370
     0
100
AcDbVertex
100
AcDb2dVertex
 10
256.6400935167258
 20
-441.2245999999996
 30
0.0
  0
VERTEX
  5
14B
330
149
100
AcDbEntity
  8
Base
370
     0
100
AcDbVertex
100
AcDb2dVertex
 10
256.6391935167494
 20
-439.1494000000002
 30
0.0
  0
VERTEX
  5
14C
330
149
100
AcDbEntity
  8
Base
370
     0
100
AcDbVertex
100
AcDb2dVertex
 10
255.6654935413462
 20
-439.2129000000004
 30
0.0
  0
VERTEX
  5
14D
330
149
100
AcDbEntity
  8
Base
370
     0
100
AcDbVertex
100
AcDb2dVertex
 10
255.6654935413462
 20
-441.2626999999993
 30
0.0
  0
VERTEX
  5
14E
330
149
100
AcDbEntity
  8
Base
370
     0
100
AcDbVertex
100
AcDb2dVertex
 10
256.6400935167258
 20
-441.2245999999996
 30
0.0
  0
SEQEND
  5
14F
330
149
100
AcDbEntity
  8
Base
370
     0
  0
POLYLINE
  5
150
330
1F
100
AcDbEntity
  8
Base
370
     0
100
AcDb2dPolyline
 66
     1
 10
0.0
 20
0.0
 30
0.0
  0
VERTEX
  5
151
330
150
100
AcDbEntity
  8
Base
370
     0
100
AcDbVertex
100
AcDb2dVertex
 10
258.9916934573193
 20
-418.2363000000005
 30
0.0
  0
VERTEX
  5
152
330
150
100
AcDbEntity
  8
Base
370
     0
100
AcDbVertex
100
AcDb2dVertex
 10
258.0287934816442
 20
-418.2734
 30
0.0
  0
VERTEX
  5
153
330
150
100
AcDbEntity
  8
Base
370
     0
100
AcDbVertex
100
AcDb2dVertex
 10
258.0321934815584
 20
-422.3389000000006
 30
0.0
  0
VERTEX
  5
154
330
150
100
AcDbEntity
  8
Base
370
     0
100
AcDbVertex
100
AcDb2dVertex
 10
258.9960934572082
 20
-422.2998000000007
 30
0.0
  0
VERTEX
  5
155
330
150
100
AcDbEntity
  8
Base
370
     0
100
AcDbVertex
100
AcDb2dVertex
 10
258.9916934573193
 20
-418.2363000000005
 30
0.0
  0
SEQEND
  5
156
330
150
100
AcDbEntity
  8
Base
370
     0
  0
POLYLINE
  5
157
330
1F
100
AcDbEntity
  8
Base
370
     0
100
AcDb2dPolyline
 66
     1
 10
0.0
 20
0.0
 30
0.0
  0
VERTEX
  5
158
330
157
100
AcDbEntity
  8
Base
370
     0
100
AcDbVertex
100
AcDb2dVertex
 10
258.0380934814093
 20
-428.2646000000004
 30
0.0
  0
VERTEX
  5
159
330
157
100
AcDbEntity
  8
Base
370
     0
100
AcDbVertex
100
AcDb2dVertex
 10
259.002393457049
 20
-428.2168000000001
 30
0.0
  0
VERTEX
  5
15A
330
157
100
AcDbEntity
  8
Base
370
     0
100
AcDbVertex
100
AcDb2dVertex
 10
258.9979999999996
 20
-424.1435999999994
 30
0.0
  0
VERTEX
  5
15B
330
157
100
AcDbEntity
  8
Base
370
     0
100
AcDbVertex
100
AcDb2dVertex
 10
258.0341934815078
 20
-424.1864999999998
 30
0.0
  0
VERTEX
  5
15C
330
157
100
AcDbEntity
  8
Base
370
     0
100
AcDbVertex
100
AcDb2dVertex
 10
258.0380934814093
 20
-428.2646000000004
 30
0.0
  0
SEQEND
  5
15D
330
157
100
AcDbEntity
  8
Base
370
     0
  0
POLYLINE
  5
15E
330
1F
100
AcDbEntity
  8
Base
370
     0
100
AcDb2dPolyline
 66
     1
 10
0.0
 20
0.0
 30
0.0
  0
VERTEX
  5
15F
330
15E
100
AcDbEntity
  8
Base
370
     0
100
AcDbVertex
100
AcDb2dVertex
 10
258.0429999999997
 20
-434.2070000000003
 30
0.0
  0
VERTEX
  5
160
330
15E
100
AcDbEntity
  8
Base
370
     0
100
AcDbVertex
100
AcDb2dVertex
 10
259.0087934568874
 20
-434.1514000000006
 30
0.0
  0
VERTEX
  5
161
330
15E
100
AcDbEntity
  8
Base
370
     0
100
AcDbVertex
100
AcDb2dVertex
 10
259.0043934569994
 20
-430.0663999999997
 30
0.0
  0
VERTEX
  5
162
330
15E
100
AcDbEntity
  8
Base
370
     0
100
AcDbVertex
100
AcDb2dVertex
 10
258.0395934813714
 20
-430.1172000000006
 30
0.0
  0
VERTEX
  5
163
330
15E
100
AcDbEntity
  8
Base
370
     0
100
AcDbVertex
100
AcDb2dVertex
 10
258.0429999999997
 20
-434.2070000000003
 30
0.0
  0
SEQEND
  5
164
330
15E
100
AcDbEntity
  8
Base
370
     0
  0
POLYLINE
  5
165
330
1F
100
AcDbEntity
  8
Base
370
     0
100
AcDb2dPolyline
 66
     1
 10
0.0
 20
0.0
 30
0.0
  0
VERTEX
  5
166
330
165
100
AcDbEntity
  8
Base
370
     0
100
AcDbVertex
100
AcDb2dVertex
 10
258.0473934811744
 20
-440.1650000000009
 30
0.0
  0
VERTEX
  5
167
330
165
100
AcDbEntity
  8
Base
370
     0
100
AcDbVertex
100
AcDb2dVertex
 10
259.0150934567282
 20
-440.1016
 30
0.0
  0
VERTEX
  5
168
330
165
100
AcDbEntity
  8
Base
370
     0
100
AcDbVertex
100
AcDb2dVertex
 10
259.0102934568495
 20
-436.0059000000001
 30
0.0
  0
VERTEX
  5
169
330
165
100
AcDbEntity
  8
Base
370
     0
100
AcDbVertex
100
AcDb2dVertex
 10
258.0438934812628
 20
-436.0635000000002
 30
0.0
  0
VERTEX
  5
16A
330
165
100
AcDbEntity
  8
Base
370
     0
100
AcDbVertex
100
AcDb2dVertex
 10
258.0473934811744
 20
-440.1650000000009
 30
0.0
  0
SEQEND
  5
16B
330
165
100
AcDbEntity
  8
Base
370
     0
  0
POLYLINE
  5
16C
330
1F
100
AcDbEntity
  8
Base
370
     0
100
AcDb2dPolyline
 66
     1
 10
0.0
 20
0.0
 30
0.0
  0
VERTEX
  5
16D
330
16C
100
AcDbEntity
  8
Base
370
     0
100
AcDbVertex
100
AcDb2dVertex
 10
261.346693397827
 20
-421.1064000000006
 30
0.0
  0
VERTEX
  5
16E
330
16C
100
AcDbEntity
  8
Base
370
     0
100
AcDbVertex
100
AcDb2dVertex
 10
260.3876934220534
 20
-421.1465000000007
 30
0.0
  0
VERTEX
  5
16F
330
16C
100
AcDbEntity
  8
Base
370
     0
100
AcDbVertex
100
AcDb2dVertex
 10
260.3935934219044
 20
-425.2060999999994
 30
0.0
  0
VERTEX
  5
170
330
16C
100
AcDbEntity
  8
Base
370
     0
100
AcDbVertex
100
AcDb2dVertex
 10
261.3524933976805
 20
-425.1610999999994
 30
0.0
  0
VERTEX
  5
171
330
16C
100
AcDbEntity
  8
Base
370
     0
100
AcDbVertex
100
AcDb2dVertex
 10
261.346693397827
 20
-421.1064000000006
 30
0.0
  0
SEQEND
  5
172
330
16C
100
AcDbEntity
  8
Base
370
     0
  0
POLYLINE
  5
173
330
1F
100
AcDbEntity
  8
Base
370
     0
100
AcDb2dPolyline
 66
     1
 10
0.0
 20
0.0
 30
0.0
  0
VERTEX
  5
174
330
173
100
AcDbEntity
  8
Base
370
     0
100
AcDbVertex
100
AcDb2dVertex
 10
260.4032934216593
 20
-431.1211000000003
 30
0.0
  0
VERTEX
  5
175
330
173
100
AcDbEntity
  8
Base
370
     0
100
AcDbVertex
100
AcDb2dVertex
 10
261.3617933974456
 20
-431.0684000000001
 30
0.0
  0
VERTEX
  5
176
330
173
100
AcDbEntity
  8
Base
370
     0
100
AcDbVertex
100
AcDb2dVertex
 10
261.3549999999996
 20
-427.0028999999995
 30
0.0
  0
VERTEX
  5
177
330
173
100
AcDbEntity
  8
Base
370
     0
100
AcDbVertex
100
AcDb2dVertex
 10
260.3974934218058
 20
-427.0498000000007
 30
0.0
  0
VERTEX
  5
178
330
173
100
AcDbEntity
  8
Base
370
     0
100
AcDbVertex
100
AcDb2dVertex
 10
260.4032934216593
 20
-431.1211000000003
 30
0.0
  0
SEQEND
  5
179
330
173
100
AcDbEntity
  8
Base
370
     0
  0
POLYLINE
  5
17A
330
1F
100
AcDbEntity
  8
Base
370
     0
100
AcDb2dPolyline
 66
     1
 10
0.0
 20
0.0
 30
0.0
  0
VERTEX
  5
17B
330
17A
100
AcDbEntity
  8
Base
370
     0
100
AcDbVertex
100
AcDb2dVertex
 10
260.4096934214976
 20
-437.0537000000004
 30
0.0
  0
VERTEX
  5
17C
330
17A
100
AcDbEntity
  8
Base
370
     0
100
AcDbVertex
100
AcDb2dVertex
 10
261.371593397198
 20
-436.9932000000008
 30
0.0
  0
VERTEX
  5
17D
330
17A
100
AcDbEntity
  8
Base
370
     0
100
AcDbVertex
100
AcDb2dVertex
 10
261.3651933973597
 20
-432.9159999999993
 30
0.0
  0
VERTEX
  5
17E
330
17A
100
AcDbEntity
  8
Base
370
     0
100
AcDbVertex
100
AcDb2dVertex
 10
260.4042934216341
 20
-432.9696999999996
 30
0.0
  0
VERTEX
  5
17F
330
17A
100
AcDbEntity
  8
Base
370
     0
100
AcDbVertex
100
AcDb2dVertex
 10
260.4096934214976
 20
-437.0537000000004
 30
0.0
  0
SEQEND
  5
180
330
17A
100
AcDbEntity
  8
Base
370
     0
  0
POLYLINE
  5
181
330
1F
100
AcDbEntity
  8
Base
370
     0
100
AcDb2dPolyline
 66
     1
 10
0.0
 20
0.0
 30
0.0
  0
VERTEX
  5
182
330
181
100
AcDbEntity
  8
Base
370
     0
100
AcDbVertex
100
AcDb2dVertex
 10
261.3778933970389
 20
-440.6718999999994
 30
0.0
  0
VERTEX
  5
183
330
181
100
AcDbEntity
  8
Base
370
     0
100
AcDbVertex
100
AcDb2dVertex
 10
261.375
 20
-438.8446999999996
 30
0.0
  0
VERTEX
  5
184
330
181
100
AcDbEntity
  8
Base
370
     0
100
AcDbVertex
100
AcDb2dVertex
 10
260.4125934214244
 20
-438.9071999999996
 30
0.0
  0
VERTEX
  5
185
330
181
100
AcDbEntity
  8
Base
370
     0
100
AcDbVertex
100
AcDb2dVertex
 10
260.415
 20
-440.7119000000002
 30
0.0
  0
VERTEX
  5
186
330
181
100
AcDbEntity
  8
Base
370
     0
100
AcDbVertex
100
AcDb2dVertex
 10
261.3778933970389
 20
-440.6718999999994
 30
0.0
  0
SEQEND
  5
187
330
181
100
AcDbEntity
  8
Base
370
     0
  0
POLYLINE
  5
188
330
1F
100
AcDbEntity
  8
Base
370
     0
100
AcDb2dPolyline
 66
     1
 10
0.0
 20
0.0
 30
0.0
  0
VERTEX
  5
189
330
188
100
AcDbEntity
  8
Base
370
     0
100
AcDbVertex
100
AcDb2dVertex
 10
263.675793338989
 20
-418.0635000000002
 30
0.0
  0
VERTEX
  5
18A
330
188
100
AcDbEntity
  8
Base
370
     0
100
AcDbVertex
100
AcDb2dVertex
 10
262.724093363031
 20
-418.0985999999994
 30
0.0
  0
VERTEX
  5
18B
330
188
100
AcDbEntity
  8
Base
370
     0
100
AcDbVertex
100
AcDb2dVertex
 10
262.7323933628213
 20
-422.1386999999995
 30
0.0
  0
VERTEX
  5
18C
330
188
100
AcDbEntity
  8
Base
370
     0
100
AcDbVertex
100
AcDb2dVertex
 10
263.6840933387793
 20
-422.0995999999996
 30
0.0
  0
VERTEX
  5
18D
330
188
100
AcDbEntity
  8
Base
370
     0
100
AcDbVertex
100
AcDb2dVertex
 10
263.675793338989
 20
-418.0635000000002
 30
0.0
  0
SEQEND
  5
18E
330
188
100
AcDbEntity
  8
Base
370
     0
  0
POLYLINE
  5
18F
330
1F
100
AcDbEntity
  8
Base
370
     0
100
AcDb2dPolyline
 66
     1
 10
0.0
 20
0.0
 30
0.0
  0
VERTEX
  5
190
330
18F
100
AcDbEntity
  8
Base
370
     0
100
AcDbVertex
100
AcDb2dVertex
 10
262.7440933625257
 20
-428.0282999999999
 30
0.0
  0
VERTEX
  5
191
330
18F
100
AcDbEntity
  8
Base
370
     0
100
AcDbVertex
100
AcDb2dVertex
 10
263.6962933384712
 20
-427.9814000000006
 30
0.0
  0
VERTEX
  5
192
330
18F
100
AcDbEntity
  8
Base
370
     0
100
AcDbVertex
100
AcDb2dVertex
 10
263.6874933386935
 20
-423.9326000000001
 30
0.0
  0
VERTEX
  5
193
330
18F
100
AcDbEntity
  8
Base
370
     0
100
AcDbVertex
100
AcDb2dVertex
 10
262.7362933627228
 20
-423.9766
 30
0.0
  0
VERTEX
  5
194
330
18F
100
AcDbEntity
  8
Base
370
     0
100
AcDbVertex
100
AcDb2dVertex
 10
262.7440933625257
 20
-428.0282999999999
 30
0.0
  0
SEQEND
  5
195
330
18F
100
AcDbEntity
  8
Base
370
     0
  0
POLYLINE
  5
196
330
1F
100
AcDbEntity
  8
Base
370
     0
100
AcDb2dPolyline
 66
     1
 10
0.0
 20
0.0
 30
0.0
  0
VERTEX
  5
197
330
196
100
AcDbEntity
  8
Base
370
     0
100
AcDbVertex
100
AcDb2dVertex
 10
262.7558933622277
 20
-433.9336000000003
 30
0.0
  0
VERTEX
  5
198
330
196
100
AcDbEntity
  8
Base
370
     0
100
AcDbVertex
100
AcDb2dVertex
 10
263.71
 20
-433.8778999999995
 30
0.0
  0
VERTEX
  5
199
330
196
100
AcDbEntity
  8
Base
370
     0
100
AcDbVertex
100
AcDb2dVertex
 10
263.7011933383474
 20
-429.8184000000001
 30
0.0
  0
VERTEX
  5
19A
330
196
100
AcDbEntity
  8
Base
370
     0
100
AcDbVertex
100
AcDb2dVertex
 10
262.7479999999996
 20
-429.8701000000001
 30
0.0
  0
VERTEX
  5
19B
330
196
100
AcDbEntity
  8
Base
370
     0
100
AcDbVertex
100
AcDb2dVertex
 10
262.7558933622277
 20
-433.9336000000003
 30
0.0
  0
SEQEND
  5
19C
330
196
100
AcDbEntity
  8
Base
370
     0
  0
POLYLINE
  5
19D
330
1F
100
AcDbEntity
  8
Base
370
     0
100
AcDb2dPolyline
 66
     1
 10
0.0
 20
0.0
 30
0.0
  0
VERTEX
  5
19E
330
19D
100
AcDbEntity
  8
Base
370
     0
100
AcDbVertex
100
AcDb2dVertex
 10
262.7665933619573
 20
-439.8544999999995
 30
0.0
  0
VERTEX
  5
19F
330
19D
100
AcDbEntity
  8
Base
370
     0
100
AcDbVertex
100
AcDb2dVertex
 10
263.7230933377941
 20
-439.7909999999993
 30
0.0
  0
VERTEX
  5
1A0
330
19D
100
AcDbEntity
  8
Base
370
     0
100
AcDbVertex
100
AcDb2dVertex
 10
263.7138933380265
 20
-435.7227000000003
 30
0.0
  0
VERTEX
  5
1A1
330
19D
100
AcDbEntity
  8
Base
370
     0
100
AcDbVertex
100
AcDb2dVertex
 10
262.7592933621418
 20
-435.7793000000001
 30
0.0
  0
VERTEX
  5
1A2
330
19D
100
AcDbEntity
  8
Base
370
     0
100
AcDbVertex
100
AcDb2dVertex
 10
262.7665933619573
 20
-439.8544999999995
 30
0.0
  0
SEQEND
  5
1A3
330
19D
100
AcDbEntity
  8
Base
370
     0
  0
POLYLINE
  5
1A4
330
1F
100
AcDbEntity
  8
Base
370
     0
100
AcDb2dPolyline
 66
     1
 10
0.0
 20
0.0
 30
0.0
  0
VERTEX
  5
1A5
330
1A4
100
AcDbEntity
  8
Base
370
     0
100
AcDbVertex
100
AcDb2dVertex
 10
266.0033932801889
 20
-420.9159999999993
 30
0.0
  0
VERTEX
  5
1A6
330
1A4
100
AcDbEntity
  8
Base
370
     0
100
AcDbVertex
100
AcDb2dVertex
 10
265.0585933040566
 20
-420.9550999999992
 30
0.0
  0
VERTEX
  5
1A7
330
1A4
100
AcDbEntity
  8
Base
370
     0
100
AcDbVertex
100
AcDb2dVertex
 10
265.0687933037989
 20
-424.9892999999993
 30
0.0
  0
VERTEX
  5
1A8
330
1A4
100
AcDbEntity
  8
Base
370
     0
100
AcDbVertex
100
AcDb2dVertex
 10
266.014593279906
 20
-424.9452999999994
 30
0.0
  0
VERTEX
  5
1A9
330
1A4
100
AcDbEntity
  8
Base
370
     0
100
AcDbVertex
100
AcDb2dVertex
 10
266.0033932801889
 20
-420.9159999999993
 30
0.0
  0
SEQEND
  5
1AA
330
1A4
100
AcDbEntity
  8
Base
370
     0
  0
POLYLINE
  5
1AB
330
1F
100
AcDbEntity
  8
Base
370
     0
100
AcDb2dPolyline
 66
     1
 10
0.0
 20
0.0
 30
0.0
  0
VERTEX
  5
1AC
330
1AB
100
AcDbEntity
  8
Base
370
     0
100
AcDbVertex
100
AcDb2dVertex
 10
265.0839999999998
 20
-430.8672000000006
 30
0.0
  0
VERTEX
  5
1AD
330
1AB
100
AcDbEntity
  8
Base
370
     0
100
AcDbVertex
100
AcDb2dVertex
 10
266.0307932794967
 20
-430.8153999999995
 30
0.0
  0
VERTEX
  5
1AE
330
1AB
100
AcDbEntity
  8
Base
370
     0
100
AcDbVertex
100
AcDb2dVertex
 10
266.0194932797822
 20
-426.7754000000004
 30
0.0
  0
VERTEX
  5
1AF
330
1AB
100
AcDbEntity
  8
Base
370
     0
100
AcDbVertex
100
AcDb2dVertex
 10
265.0731933036877
 20
-426.8212999999996
 30
0.0
  0
VERTEX
  5
1B0
330
1AB
100
AcDbEntity
  8
Base
370
     0
100
AcDbVertex
100
AcDb2dVertex
 10
265.0839999999998
 20
-430.8672000000006
 30
0.0
  0
SEQEND
  5
1B1
330
1AB
100
AcDbEntity
  8
Base
370
     0
  0
POLYLINE
  5
1B2
330
1F
100
AcDbEntity
  8
Base
370
     0
100
AcDb2dPolyline
 66
     1
 10
0.0
 20
0.0
 30
0.0
  0
VERTEX
  5
1B3
330
1B2
100
AcDbEntity
  8
Base
370
     0
100
AcDbVertex
100
AcDb2dVertex
 10
265.0980933030587
 20
-436.7616999999991
 30
0.0
  0
VERTEX
  5
1B4
330
1B2
100
AcDbEntity
  8
Base
370
     0
100
AcDbVertex
100
AcDb2dVertex
 10
266.0473932790774
 20
-436.7031000000006
 30
0.0
  0
VERTEX
  5
1B5
330
1B2
100
AcDbEntity
  8
Base
370
     0
100
AcDbVertex
100
AcDb2dVertex
 10
266.0355932793755
 20
-432.6514000000006
 30
0.0
  0
VERTEX
  5
1B6
330
1B2
100
AcDbEntity
  8
Base
370
     0
100
AcDbVertex
100
AcDb2dVertex
 10
265.087393303329
 20
-432.7050999999992
 30
0.0
  0
VERTEX
  5
1B7
330
1B2
100
AcDbEntity
  8
Base
370
     0
100
AcDbVertex
100
AcDb2dVertex
 10
265.0980933030587
 20
-436.7616999999991
 30
0.0
  0
SEQEND
  5
1B8
330
1B2
100
AcDbEntity
  8
Base
370
     0
  0
POLYLINE
  5
1B9
330
1F
100
AcDbEntity
  8
Base
370
     0
100
AcDb2dPolyline
 66
     1
 10
0.0
 20
0.0
 30
0.0
  0
VERTEX
  5
1BA
330
1B9
100
AcDbEntity
  8
Base
370
     0
100
AcDbVertex
100
AcDb2dVertex
 10
266.056593278845
 20
-440.2324000000008
 30
0.0
  0
VERTEX
  5
1BB
330
1B9
100
AcDbEntity
  8
Base
370
     0
100
AcDbVertex
100
AcDb2dVertex
 10
266.0521932789561
 20
-438.5449000000008
 30
0.0
  0
VERTEX
  5
1BC
330
1B9
100
AcDbEntity
  8
Base
370
     0
100
AcDbVertex
100
AcDb2dVertex
 10
265.1030000000001
 20
-438.6054999999997
 30
0.0
  0
VERTEX
  5
1BD
330
1B9
100
AcDbEntity
  8
Base
370
     0
100
AcDbVertex
100
AcDb2dVertex
 10
265.1068933028364
 20
-440.3896000000004
 30
0.0
  0
VERTEX
  5
1BE
330
1B9
100
AcDbEntity
  8
Base
370
     0
100
AcDbVertex
100
AcDb2dVertex
 10
266.056593278845
 20
-440.2324000000008
 30
0.0
  0
SEQEND
  5
1BF
330
1B9
100
AcDbEntity
  8
Base
370
     0
  0
POLYLINE
  5
1C0
330
1F
100
AcDbEntity
  8
Base
370
     0
100
AcDb2dPolyline
 66
     1
 10
0.0
 20
0.0
 30
0.0
  0
VERTEX
  5
1C1
330
1C0
100
AcDbEntity
  8
Base
370
     0
100
AcDbVertex
100
AcDb2dVertex
 10
268.3017932221264
 20
-417.8916000000008
 30
0.0
  0
VERTEX
  5
1C2
330
1C0
100
AcDbEntity
  8
Base
370
     0
100
AcDbVertex
100
AcDb2dVertex
 10
267.3622932458602
 20
-417.9258000000009
 30
0.0
  0
VERTEX
  5
1C3
330
1C0
100
AcDbEntity
  8
Base
370
     0
100
AcDbVertex
100
AcDb2dVertex
 10
267.375
 20
-421.9423999999999
 30
0.0
  0
VERTEX
  5
1C4
330
1C0
100
AcDbEntity
  8
Base
370
     0
100
AcDbVertex
100
AcDb2dVertex
 10
268.3153932217829
 20
-421.9022999999997
 30
0.0
  0
VERTEX
  5
1C5
330
1C0
100
AcDbEntity
  8
Base
370
     0
100
AcDbVertex
100
AcDb2dVertex
 10
268.3017932221264
 20
-417.8916000000008
 30
0.0
  0
SEQEND
  5
1C6
330
1C0
100
AcDbEntity
  8
Base
370
     0
  0
POLYLINE
  5
1C7
330
1F
100
AcDbEntity
  8
Base
370
     0
100
AcDb2dPolyline
 66
     1
 10
0.0
 20
0.0
 30
0.0
  0
VERTEX
  5
1C8
330
1C7
100
AcDbEntity
  8
Base
370
     0
100
AcDbVertex
100
AcDb2dVertex
 10
267.3935932450704
 20
-427.7958999999992
 30
0.0
  0
VERTEX
  5
1C9
330
1C7
100
AcDbEntity
  8
Base
370
     0
100
AcDbVertex
100
AcDb2dVertex
 10
268.3344932213004
 20
-427.7471000000005
 30
0.0
  0
VERTEX
  5
1CA
330
1C7
100
AcDbEntity
  8
Base
370
     0
100
AcDbVertex
100
AcDb2dVertex
 10
268.3212932216338
 20
-423.7245999999996
 30
0.0
  0
VERTEX
  5
1CB
330
1C7
100
AcDbEntity
  8
Base
370
     0
100
AcDbVertex
100
AcDb2dVertex
 10
267.3808932453903
 20
-423.7666000000008
 30
0.0
  0
VERTEX
  5
1CC
330
1C7
100
AcDbEntity
  8
Base
370
     0
100
AcDbVertex
100
AcDb2dVertex
 10
267.3935932450704
 20
-427.7958999999992
 30
0.0
  0
SEQEND
  5
1CD
330
1C7
100
AcDbEntity
  8
Base
370
     0
  0
POLYLINE
  5
1CE
330
1F
100
AcDbEntity
  8
Base
370
     0
100
AcDb2dPolyline
 66
     1
 10
0.0
 20
0.0
 30
0.0
  0
VERTEX
  5
1CF
330
1CE
100
AcDbEntity
  8
Base
370
     0
100
AcDbVertex
100
AcDb2dVertex
 10
267.4110932446274
 20
-433.6620999999996
 30
0.0
  0
VERTEX
  5
1D0
330
1CE
100
AcDbEntity
  8
Base
370
     0
100
AcDbVertex
100
AcDb2dVertex
 10
268.3540000000003
 20
-433.6083999999992
 30
0.0
  0
VERTEX
  5
1D1
330
1CE
100
AcDbEntity
  8
Base
370
     0
100
AcDbVertex
100
AcDb2dVertex
 10
268.3402932211538
 20
-429.5751999999993
 30
0.0
  0
VERTEX
  5
1D2
330
1CE
100
AcDbEntity
  8
Base
370
     0
100
AcDbVertex
100
AcDb2dVertex
 10
267.3983932449482
 20
-429.625
 30
0.0
  0
VERTEX
  5
1D3
330
1CE
100
AcDbEntity
  8
Base
370
     0
100
AcDbVertex
100
AcDb2dVertex
 10
267.4110932446274
 20
-433.6620999999996
 30
0.0
  0
SEQEND
  5
1D4
330
1CE
100
AcDbEntity
  8
Base
370
     0
  0
POLYLINE
  5
1D5
330
1F
100
AcDbEntity
  8
Base
370
     0
100
AcDb2dPolyline
 66
     1
 10
0.0
 20
0.0
 30
0.0
  0
VERTEX
  5
1D6
330
1D5
100
AcDbEntity
  8
Base
370
     0
100
AcDbVertex
100
AcDb2dVertex
 10
267.4296932441575
 20
-439.5488000000005
 30
0.0
  0
VERTEX
  5
1D7
330
1D5
100
AcDbEntity
  8
Base
370
     0
100
AcDbVertex
100
AcDb2dVertex
 10
268.3734932203151
 20
-439.4863000000005
 30
0.0
  0
VERTEX
  5
1D8
330
1D5
100
AcDbEntity
  8
Base
370
     0
100
AcDbVertex
100
AcDb2dVertex
 10
268.3603932206461
 20
-435.4413999999997
 30
0.0
  0
VERTEX
  5
1D9
330
1D5
100
AcDbEntity
  8
Base
370
     0
100
AcDbVertex
100
AcDb2dVertex
 10
267.4170000000004
 20
-435.4979999999996
 30
0.0
  0
VERTEX
  5
1DA
330
1D5
100
AcDbEntity
  8
Base
370
     0
100
AcDbVertex
100
AcDb2dVertex
 10
267.4296932441575
 20
-439.5488000000005
 30
0.0
  0
SEQEND
  5
1DB
330
1D5
100
AcDbEntity
  8
Base
370
     0
  0
HATCH
  5
1DC
330
1F
100
AcDbEntity
  8
Base
 62
   254
420
 13358815
100
AcDbHatch
 10
0.0
 20
0.0
 30
0.0
210
0.0
220
0.0
230
1.0
  2
SOLID
 70
     1
 71
     0
 91
       25
 92
        1
 93
        4
 72
     1
 10
254.5263935701223
 20
-441.4032999999999
 11
254.5263935701223
 21
-416.9989999999998
 72
     1
 10
254.5263935701223
 20
-416.9989999999998
 11
269.7802931847764
 21
-416.4599999999991
 72
     1
 10
269.7802931847764
 20
-416.4599999999991
 11
269.865693182619
 21
-439.8418000000001
 72
     1
 10
269.865693182619
 20
-439.8418000000001
 11
254.5263935701223
 21
-441.4032999999999
 97
        0
 92
        1
 93
        4
 72
     1
 10
256.6303935169708
 20
-421.2998000000007
 11
255.66059354147
 21
-421.3397999999997
 72
     1
 10
255.66059354147
 20
-421.3397999999997
 11
255.6615935414447
 21
-425.4258000000009
 72
     1
 10
255.6615935414447
 20
-425.4258000000009
 11
256.6322935169228
 21
-425.3788999999997
 72
     1
 10
256.6322935169228
 20
-425.3788999999997
 11
256.6303935169708
 21
-421.2998000000007
 97
        0
 92
        1
 93
        4
 72
     1
 10
255.6640935413816
 20
-431.3770000000004
 11
256.6347935168596
 21
-431.3251999999993
 72
     1
 10
256.6347935168596
 20
-431.3251999999993
 11
256.6327935169102
 21
-427.2343999999994
 72
     1
 10
256.6327935169102
 20
-427.2343999999994
 11
255.6625935414186
 21
-427.2803000000004
 72
     1
 10
255.6625935414186
 20
-427.2803000000004
 11
255.6640935413816
 21
-431.3770000000004
 97
        0
 92
        1
 93
        4
 72
     1
 10
255.665
 20
-437.3456999999999
 11
256.6381935167738
 21
-437.2852000000003
 72
     1
 10
256.6381935167738
 20
-437.2852000000003
 11
256.6361935168243
 21
-433.1836000000003
 72
     1
 10
256.6361935168243
 20
-433.1836000000003
 11
255.6640935413816
 21
-433.2373000000007
 72
     1
 10
255.6640935413816
 20
-433.2373000000007
 11
255.665
 21
-437.3456999999999
 97
        0
 92
        1
 93
        4
 72
     1
 10
256.6400935167258
 20
-441.2245999999996
 11
256.6391935167494
 21
-439.1494000000002
 72
     1
 10
256.6391935167494
 20
-439.1494000000002
 11
255.6654935413462
 21
-439.2129000000004
 72
     1
 10
255.6654935413462
 20
-439.2129000000004
 11
255.6654935413462
 21
-441.2626999999993
 72
     1
 10
255.6654935413462
 20
-441.2626999999993
 11
256.6400935167258
 21
-441.2245999999996
 97
        0
 92
        1
 93
        4
 72
     1
 10
258.9916934573193
 20
-418.2363000000005
 11
258.0287934816442
 21
-418.2734
 72
     1
 10
258.0287934816442
 20
-418.2734
 11
258.0321934815584
 21
-422.3389000000006
 72
     1
 10
258.0321934815584
 20
-422.3389000000006
 11
258.9960934572082
 21
-422.2998000000007
 72
     1
 10
258.9960934572082
 20
-422.2998000000007
 11
258.9916934573193
 21
-418.2363000000005
 97
        0
 92
        1
 93
        4
 72
     1
 10
258.0380934814093
 20
-428.2646000000004
 11
259.002393457049
 21
-428.2168000000001
 72
     1
 10
259.002393457049
 20
-428.2168000000001
 11
258.9979999999996
 21
-424.1435999999994
 72
     1
 10
258.9979999999996
 20
-424.1435999999994
 11
258.0341934815078
 21
-424.1864999999998
 72
     1
 10
258.0341934815078
 20
-424.1864999999998
 11
258.0380934814093
 21
-428.2646000000004
 97
        0
 92
        1
 93
        4
 72
     1
 10
258.0429999999997
 20
-434.2070000000003
 11
259.0087934568874
 21
-434.1514000000006
 72
     1
 10
259.0087934568874
 20
-434.1514000000006
 11
259.0043934569994
 21
-430.0663999999997
 72
     1
 10
259.0043934569994
 20
-430.0663999999997
 11
258.0395934813714
 21
-430.1172000000006
 72
     1
 10
258.0395934813714
 20
-430.1172000000006
 11
258.0429999999997
 21
-434.2070000000003
 97
        0
 92
        1
 93
        4
 72
     1
 10
258.0473934811744
 20
-440.1650000000009
 11
259.0150934567282
 21
-440.1016
 72
     1
 10
259.0150934567282
 20
-440.1016
 11
259.0102934568495
 21
-436.0059000000001
 72
     1
 10
259.0102934568495
 20
-436.0059000000001
 11
258.0438934812628
 21
-436.0635000000002
 72
     1
 10
258.0438934812628
 20
-436.0635000000002
 11
258.0473934811744
 21
-440.1650000000009
 97
        0
 92
        1
 93
        4
 72
     1
 10
261.346693397827
 20
-421.1064000000006
 11
260.3876934220534
 21
-421.1465000000007
 72
     1
 10
260.3876934220534
 20
-421.1465000000007
 11
260.3935934219044
 21
-425.2060999999994
 72
     1
 10
260.3935934219044
 20
-425.2060999999994
 11
261.3524933976805
 21
-425.1610999999994
 72
     1
 10
261.3524933976805
 20
-425.1610999999994
 11
261.346693397827
 21
-421.1064000000006
 97
        0
 92
        1
 93
        4
 72
     1
 10
260.4032934216593
 20
-431.1211000000003
 11
261.3617933974456
 21
-431.0684000000001
 72
     1
 10
261.3617933974456
 20
-431.0684000000001
 11
261.3549999999996
 21
-427.0028999999995
 72
     1
 10
261.3549999999996
 20
-427.0028999999995
 11
260.3974934218058
 21
-427.0498000000007
 72
     1
 10
260.3974934218058
 20
-427.0498000000007
 11
260.4032934216593
 21
-431.1211000000003
 97
        0
 92
        1
 93
        4
 72
     1
 10
260.4096934214976
 20
-437.0537000000004
 11
261.371593397198
 21
-436.9932000000008
 72
     1
 10
261.371593397198
 20
-436.9932000000008
 11
261.3651933973597
 21
-432.9159999999993
 72
     1
 10
261.3651933973597
 20
-432.9159999999993
 11
260.4042934216341
 21
-432.9696999999996
 72
     1
 10
260.4042934216341
 20
-432.9696999999996
 11
260.4096934214976
 21
-437.0537000000004
 97
        0
 92
        1
 93
        4
 72
     1
 10
261.3778933970389
 20
-440.6718999999994
 11
261.375
 21
-438.8446999999996
 72
     1
 10
261.375
 20
-438.8446999999996
 11
260.4125934214244
 21
-438.9071999999996
 72
     1
 10
260.4125934214244
 20
-438.9071999999996
 11
260.415
 21
-440.7119000000002
 72
     1
 10
260.415
 20
-440.7119000000002
 11
261.3778933970389
 21
-440.6718999999994
 97
        0
 92
        1
 93
        4
 72
     1
 10
263.675793338989
 20
-418.0635000000002
 11
262.724093363031
 21
-418.0985999999994
 72
     1
 10
262.724093363031
 20
-418.0985999999994
 11
262.7323933628213
 21
-422.1386999999995
 72
     1
 10
262.7323933628213
 20
-422.1386999999995
 11
263.6840933387793
 21
-422.0995999999996
 72
     1
 10
263.6840933387793
 20
-422.0995999999996
 11
263.675793338989
 21
-418.0635000000002
 97
        0
 92
        1
 93
        4
 72
     1
 10
262.7440933625257
 20
-428.0282999999999
 11
263.6962933384712
 21
-427.9814000000006
 72
     1
 10
263.6962933384712
 20
-427.9814000000006
 11
263.6874933386935
 21
-423.9326000000001
 72
     1
 10
263.6874933386935
 20
-423.9326000000001
 11
262.7362933627228
 21
-423.9766
 72
     1
 10
262.7362933627228
 20
-423.9766
 11
262.7440933625257
 21
-428.0282999999999
 97
        0
 92
        1
 93
        4
 72
     1
 10
262.7558933622277
 20
-433.9336000000003
 11
263.71
 21
-433.8778999999995
 72
     1
 10
263.71
 20
-433.8778999999995
 11
263.7011933383474
 21
-429.8184000000001
 72
     1
 10
263.7011933383474
 20
-429.8184000000001
 11
262.7479999999996
 21
-429.8701000000001
 72
     1
 10
262.7479999999996
 20
-429.8701000000001
 11
262.7558933622277
 21
-433.9336000000003
 97
        0
 92
        1
 93
        4
 72
     1
 10
262.7665933619573
 20
-439.8544999999995
 11
263.7230933377941
 21
-439.7909999999993
 72
     1
 10
263.7230933377941
 20
-439.7909999999993
 11
263.7138933380265
 21
-435.7227000000003
 72
     1
 10
263.7138933380265
 20
-435.7227000000003
 11
262.7592933621418
 21
-435.7793000000001
 72
     1
 10
262.7592933621418
 20
-435.7793000000001
 11
262.7665933619573
 21
-439.8544999999995
 97
        0
 92
        1
 93
        4
 72
     1
 10
266.0033932801889
 20
-420.9159999999993
 11
265.0585933040566
 21
-420.9550999999992
 72
     1
 10
265.0585933040566
 20
-420.9550999999992
 11
265.0687933037989
 21
-424.9892999999993
 72
     1
 10
265.0687933037989
 20
-424.9892999999993
 11
266.014593279906
 21
-424.9452999999994
 72
     1
 10
266.014593279906
 20
-424.9452999999994
 11
266.0033932801889
 21
-420.9159999999993
 97
        0
 92
        1
 93
        4
 72
     1
 10
265.0839999999998
 20
-430.8672000000006
 11
266.0307932794967
 21
-430.8153999999995
 72
     1
 10
266.0307932794967
 20
-430.8153999999995
 11
266.0194932797822
 21
-426.7754000000004
 72
     1
 10
266.0194932797822
 20
-426.7754000000004
 11
265.0731933036877
 21
-426.8212999999996
 72
     1
 10
265.0731933036877
 20
-426.8212999999996
 11
265.0839999999998
 21
-430.8672000000006
 97
        0
 92
        1
 93
        4
 72
     1
 10
265.0980933030587
 20
-436.7616999999991
 11
266.0473932790774
 21
-436.7031000000006
 72
     1
 10
266.0473932790774
 20
-436.7031000000006
 11
266.0355932793755
 21
-432.6514000000006
 72
     1
 10
266.0355932793755
 20
-432.6514000000006
 11
265.087393303329
 21
-432.7050999999992
 72
     1
 10
265.087393303329
 20
-432.7050999999992
 11
265.0980933030587
 21
-436.7616999999991
 97
        0
 92
        1
 93
        4
 72
     1
 10
266.056593278845
 20
-440.2324000000008
 11
266.0521932789561
 21
-438.5449000000008
 72
     1
 10
266.0521932789561
 20
-438.5449000000008
 11
265.1030000000001
 21
-438.6054999999997
 72
     1
 10
265.1030000000001
 20
-438.6054999999997
 11
265.1068933028364
 21
-440.3896000000004
 72
     1
 10
265.1068933028364
 20
-440.3896000000004
 11
266.056593278845
 21
-440.2324000000008
 97
        0
 92
        1
 93
        4
 72
     1
 10
268.3017932221264
 20
-417.8916000000008
 11
267.3622932458602
 21
-417.9258000000009
 72
     1
 10
267.3622932458602
 20
-417.9258000000009
 11
267.375
 21
-421.9423999999999
 72
     1
 10
267.375
 20
-421.9423999999999
 11
268.3153932217829
 21
-421.9022999999997
 72
     1
 10
268.3153932217829
 20
-421.9022999999997
 11
268.3017932221264
 21
-417.8916000000008
 97
        0
 92
        1
 93
        4
 72
     1
 10
267.3935932450704
 20
-427.7958999999992
 11
268.3344932213004
 21
-427.7471000000005
 72
     1
 10
268.3344932213004
 20
-427.7471000000005
 11
268.3212932216338
 21
-423.7245999999996
 72
     1
 10
268.3212932216338
 20
-423.7245999999996
 11
267.3808932453903
 21
-423.7666000000008
 72
     1
 10
267.3808932453903
 20
-423.7666000000008
 11
267.3935932450704
 21
-427.7958999999992
 97
        0
 92
        1
 93
        4
 72
     1
 10
267.4110932446274
 20
-433.6620999999996
 11
268.3540000000003
 21
-433.6083999999992
 72
     1
 10
268.3540000000003
 20
-433.6083999999992
 11
268.3402932211538
 21
-429.5751999999993
 72
     1
 10
268.3402932211538
 20
-429.5751999999993
 11
267.3983932449482
 21
-429.625
 72
     1
 10
267.3983932449482
 20
-429.625
 11
267.4110932446274
 21
-433.6620999999996
 97
        0
 92
        1
 93
        4
 72
     1
 10
267.4296932441575
 20
-439.5488000000005
 11
268.3734932203151
 21
-439.4863000000005
 72
     1
 10
268.3734932203151
 20
-439.4863000000005
 11
268.3603932206461
 21
-435.4413999999997
 72
     1
 10
268.3603932206461
 20
-435.4413999999997
 11
267.4170000000004
 21
-435.4979999999996
 72
     1
 10
267.4170000000004
 20
-435.4979999999996
 11
267.4296932441575
 21
-439.5488000000005
 97
        0
 75
     2
 76
     1
 98
        0
  0
POLYLINE
  5
1DD
330
1F
100
AcDbEntity
  8
Base
370
     0
100
AcDb2dPolyline
 66
     1
 10
0.0
 20
0.0
 30
0.0
  0
VERTEX
  5
1DE
330
1DD
100
AcDbEntity
  8
Base
370
     0
100
AcDbVertex
100
AcDb2dVertex
 10
269.6122931890204
 20
-309.0342000000001
 30
0.0
  0
VERTEX
  5
1DF
330
1DD
100
AcDbEntity
  8
Base
370
     0
100
AcDbVertex
100
AcDb2dVertex
 10
254.367193574144
 20
-309.5029000000004
 30
0.0
  0
VERTEX
  5
1E0
330
1DD
100
AcDbEntity
  8
Base
370
     0
100
AcDbVertex
100
AcDb2dVertex
 10
254.367193574144
 20
-272.6660000000002
 30
0.0
  0
VERTEX
  5
1E1
330
1DD
100
AcDbEntity
  8
Base
370
     0
100
AcDbVertex
100
AcDb2dVertex
 10
269.4799999999996
 20
-272.6660000000002
 30
0.0
  0
VERTEX
  5
1E2
330
1DD
100
AcDbEntity
  8
Base
370
     0
100
AcDbVertex
100
AcDb2dVertex
 10
269.6122931890204
 20
-309.0342000000001
 30
0.0
  0
SEQEND
  5
1E3
330
1DD
100
AcDbEntity
  8
Base
370
     0
  0
INSERT
  5
1E5
330
1F
100
AcDbEntity
  8
Base
100
AcDbBlockReference
  2
block 2
 10
0.0
 20
0.0
 30
0.0
  0
HATCH
  5
2DB
330
1F
100
AcDbEntity
  8
Base
 62
   254
420
 13358815
100
AcDbHatch
 10
0.0
 20
0.0
 30
0.0
210
0.0
220
0.0
230
1.0
  2
SOLID
 70
     1
 71
     0
 91
       34
 92
        1
 93
        4
 72
     1
 10
269.6122931890204
 20
-309.0342000000001
 11
254.367193574144
 21
-309.5029000000004
 72
     1
 10
254.367193574144
 20
-309.5029000000004
 11
254.367193574144
 21
-272.6660000000002
 72
     1
 10
254.367193574144
 20
-272.6660000000002
 11
269.4799999999996
 21
-272.6660000000002
 72
     1
 10
269.4799999999996
 20
-272.6660000000002
 11
269.6122931890204
 21
-309.0342000000001
 97
        0
 92
        1
 93
        4
 72
     1
 10
256.4384935218186
 20
-277.0464000000002
 11
255.4833935459465
 21
-277.0502999999999
 72
     1
 10
255.4833935459465
 20
-277.0502999999999
 11
255.4843935459212
 21
-281.1372000000001
 72
     1
 10
255.4843935459212
 20
-281.1372000000001
 11
256.4403935217706
 21
-281.1304
 72
     1
 10
256.4403935217706
 20
-281.1304
 11
256.4384935218186
 21
-277.0464000000002
 97
        0
 92
        1
 93
        4
 72
     1
 10
255.4867935458606
 20
-287.0928000000004
 11
256.4428935217074
 21
-287.0811000000003
 72
     1
 10
256.4428935217074
 20
-287.0811000000003
 11
256.440893521758
 21
-282.9853999999996
 72
     1
 10
256.440893521758
 20
-282.9853999999996
 11
255.4853935458959
 21
-282.9937
 72
     1
 10
255.4853935458959
 20
-282.9937
 11
255.4867935458606
 21
-287.0928000000004
 97
        0
 92
        1
 93
        4
 72
     1
 10
255.4877935458353
 20
-293.0645000000004
 11
256.4462935216216
 21
-293.0483000000004
 72
     1
 10
256.4462935216216
 20
-293.0483000000004
 11
256.4442935216721
 21
-288.9413999999997
 72
     1
 10
256.4442935216721
 20
-288.9413999999997
 11
255.4867935458606
 21
-288.9540999999999
 72
     1
 10
255.4867935458606
 20
-288.9540999999999
 11
255.4877935458353
 21
-293.0645000000004
 97
        0
 92
        1
 93
        4
 72
     1
 10
255.4892935457974
 20
-299.0537000000004
 11
256.4491935215483
 21
-299.0326999999997
 72
     1
 10
256.4491935215483
 20
-299.0326999999997
 11
256.4472935215963
 21
-294.9141
 72
     1
 10
256.4472935215963
 20
-294.9141
 11
255.4882935458227
 21
-294.9315999999999
 72
     1
 10
255.4882935458227
 20
-294.9315999999999
 11
255.4892935457974
 21
-299.0537000000004
 97
        0
 92
        1
 93
        4
 72
     1
 10
255.4911935457494
 20
-305.0609999999997
 11
256.452093521475
 21
-305.0352000000003
 72
     1
 10
256.452093521475
 20
-305.0352000000003
 11
256.450193521523
 21
-300.9043000000001
 72
     1
 10
256.450193521523
 20
-300.9043000000001
 11
255.4896935457873
 21
-300.9268000000002
 72
     1
 10
255.4896935457873
 20
-300.9268000000002
 11
255.4911935457494
 21
-305.0609999999997
 97
        0
 92
        1
 93
        4
 72
     1
 10
258.7685934629553
 20
-274.0658999999996
 11
257.817893486972
 21
-274.0668999999998
 72
     1
 10
257.817893486972
 20
-274.0668999999998
 11
257.8212934868861
 21
-278.1400999999996
 72
     1
 10
257.8212934868861
 20
-278.1400999999996
 11
258.7728934628467
 21
-278.1356999999998
 72
     1
 10
258.7728934628467
 20
-278.1356999999998
 11
258.7685934629553
 21
-274.0658999999996
 97
        0
 92
        1
 93
        4
 72
     1
 10
257.8266934867497
 20
-284.0752000000002
 11
258.779293462685
 21
-284.0663999999997
 72
     1
 10
258.779293462685
 20
-284.0663999999997
 11
258.7748934627962
 21
-279.9844000000003
 72
     1
 10
258.7748934627962
 20
-279.9844000000003
 11
257.8231934868381
 21
-279.9902000000002
 72
     1
 10
257.8231934868381
 20
-279.9902000000002
 11
257.8266934867497
 21
-284.0752000000002
 97
        0
 92
        1
 93
        4
 72
     1
 10
257.8314934866285
 20
-290.0272999999997
 11
258.7855934625259
 21
-290.0137000000004
 72
     1
 10
258.7855934625259
 20
-290.0137000000004
 11
258.7812934626354
 21
-285.9198999999999
 72
     1
 10
258.7812934626354
 20
-285.9198999999999
 11
257.8280934867144
 21
-285.9301999999998
 72
     1
 10
257.8280934867144
 20
-285.9301999999998
 11
257.8314934866285
 21
-290.0272999999997
 97
        0
 92
        1
 93
        4
 72
     1
 10
257.8363934865047
 20
-295.9961000000003
 11
258.7920000000004
 21
-295.9775
 72
     1
 10
258.7920000000004
 20
-295.9775
 11
258.787093462488
 21
-291.8725999999997
 72
     1
 10
258.787093462488
 20
-291.8725999999997
 11
257.8329999999996
 21
-291.8882000000003
 72
     1
 10
257.8329999999996
 20
-291.8882000000003
 11
257.8363934865047
 21
-295.9961000000003
 97
        0
 92
        1
 93
        4
 72
     1
 10
257.8412934863809
 20
-301.9823999999999
 11
258.7978934622151
 21
-301.9589999999998
 72
     1
 10
258.7978934622151
 20
-301.9589999999998
 11
258.7938934623162
 21
-297.8428000000004
 72
     1
 10
258.7938934623162
 20
-297.8428000000004
 11
257.8378934864668
 21
-297.8627999999999
 72
     1
 10
257.8378934864668
 20
-297.8627999999999
 11
257.8412934863809
 21
-301.9823999999999
 97
        0
 92
        1
 93
        4
 72
     1
 10
258.7997934621671
 20
-303.8285999999998
 11
257.842793486343
 21
-303.8535000000002
 72
     1
 10
257.842793486343
 20
-303.8535000000002
 11
257.8461934862571
 21
-307.9858000000004
 72
     1
 10
257.8461934862571
 20
-307.9858000000004
 11
258.804193462056
 21
-307.9575000000004
 72
     1
 10
258.804193462056
 20
-307.9575000000004
 11
258.7997934621671
 21
-303.8285999999998
 97
        0
 92
        1
 93
        4
 72
     1
 10
261.0966934041426
 20
-277.0293000000001
 11
260.1483934280986
 21
-277.0331999999999
 72
     1
 10
260.1483934280986
 20
-277.0331999999999
 11
260.1542934279496
 21
-281.1040000000003
 72
     1
 10
260.1542934279496
 20
-281.1040000000003
 11
261.1030000000001
 21
-281.0972000000002
 72
     1
 10
261.1030000000001
 20
-281.0972000000002
 11
261.0966934041426
 21
-277.0293000000001
 97
        0
 92
        1
 93
        4
 72
     1
 10
260.1635934277147
 20
-287.0361000000003
 11
261.1122934037485
 21
-287.0249000000003
 72
     1
 10
261.1122934037485
 20
-287.0249000000003
 11
261.1054934039203
 21
-282.9448000000002
 72
     1
 10
261.1054934039203
 20
-282.9448000000002
 11
260.1576934278637
 21
-282.9530999999997
 72
     1
 10
260.1576934278637
 20
-282.9530999999997
 11
260.1635934277147
 21
-287.0361000000003
 97
        0
 92
        1
 93
        4
 72
     1
 10
260.1703934275429
 20
-292.9849000000004
 11
261.1220934035009
 21
-292.9687999999996
 72
     1
 10
261.1220934035009
 20
-292.9687999999996
 11
261.1156934036626
 21
-288.8779000000004
 72
     1
 10
261.1156934036626
 20
-288.8779000000004
 11
260.165
 21
-288.8905999999997
 72
     1
 10
260.165
 20
-288.8905999999997
 11
260.1703934275429
 21
-292.9849000000004
 97
        0
 92
        1
 93
        4
 72
     1
 10
260.1786934273332
 20
-298.9507000000003
 11
261.1317934032559
 21
-298.9296999999997
 72
     1
 10
261.1317934032559
 20
-298.9296999999997
 11
261.125
 21
-294.8271000000004
 72
     1
 10
261.125
 20
-294.8271000000004
 11
260.1732934274696
 21
-294.8446999999996
 72
     1
 10
260.1732934274696
 20
-294.8446999999996
 11
260.1786934273332
 21
-298.9507000000003
 97
        0
 92
        1
 93
        4
 72
     1
 10
260.1874934271109
 20
-304.9341000000004
 11
261.1415934030083
 21
-304.9081999999999
 72
     1
 10
261.1415934030083
 20
-304.9081999999999
 11
261.1347934031801
 21
-300.7934999999998
 72
     1
 10
261.1347934031801
 20
-300.7934999999998
 11
260.1815934272599
 21
-300.8163999999997
 72
     1
 10
260.1815934272599
 20
-300.8163999999997
 11
260.1874934271109
 21
-304.9341000000004
 97
        0
 92
        1
 93
        4
 72
     1
 10
263.4052933458224
 20
-274.0604999999996
 11
262.4618933696547
 21
-274.0614999999998
 72
     1
 10
262.4618933696547
 20
-274.0614999999998
 11
262.470193369445
 21
-278.1187
 72
     1
 10
262.470193369445
 20
-278.1187
 11
263.4140933456001
 21
-278.1143000000002
 72
     1
 10
263.4140933456001
 20
-278.1143000000002
 11
263.4052933458224
 21
-274.0604999999996
 97
        0
 92
        1
 93
        4
 72
     1
 10
262.4818933691495
 20
-284.0312999999996
 11
263.4262933452919
 21
-284.0219999999999
 72
     1
 10
263.4262933452919
 20
-284.0219999999999
 11
263.4174933455142
 21
-279.9561000000003
 72
     1
 10
263.4174933455142
 20
-279.9561000000003
 11
262.4740933693465
 21
-279.9619000000002
 72
     1
 10
262.4740933693465
 20
-279.9619000000002
 11
262.4818933691495
 21
-284.0312999999996
 97
        0
 92
        1
 93
        4
 72
     1
 10
262.493193368864
 20
-289.9594999999999
 11
263.4398933449484
 21
-289.9458000000004
 72
     1
 10
263.4398933449484
 20
-289.9458000000004
 11
263.4306933451808
 21
-285.8687
 72
     1
 10
263.4306933451808
 20
-285.8687
 11
262.4853933690611
 21
-285.8793999999998
 72
     1
 10
262.4853933690611
 20
-285.8793999999998
 11
262.493193368864
 21
-289.9594999999999
 97
        0
 92
        1
 93
        4
 72
     1
 10
262.5043933685811
 20
-295.9048000000003
 11
263.4525933446275
 21
-295.8861999999999
 72
     1
 10
263.4525933446275
 20
-295.8861999999999
 11
263.4437933448498
 21
-291.7978999999996
 72
     1
 10
263.4437933448498
 20
-291.7978999999996
 11
262.4965933687781
 21
-291.8130000000001
 72
     1
 10
262.4965933687781
 20
-291.8130000000001
 11
262.5043933685811
 21
-295.9048000000003
 97
        0
 92
        1
 93
        4
 72
     1
 10
262.5160933682864
 20
-301.8676999999998
 11
263.4657933442941
 21
-301.8446999999996
 72
     1
 10
263.4657933442941
 20
-301.8446999999996
 11
263.456493344529
 21
-297.7440999999999
 72
     1
 10
263.456493344529
 20
-297.7440999999999
 11
262.5082933684826
 21
-297.7641999999996
 72
     1
 10
262.5082933684826
 20
-297.7641999999996
 11
262.5160933682864
 21
-301.8676999999998
 97
        0
 92
        1
 93
        4
 72
     1
 10
263.4696933441955
 20
-303.7070000000003
 11
262.5200000000004
 21
-303.7318999999998
 72
     1
 10
262.5200000000004
 20
-303.7318999999998
 11
262.5277933679899
 21
-307.8472000000002
 72
     1
 10
262.5277933679899
 20
-307.8472000000002
 11
263.4784933439732
 21
-307.8193000000001
 72
     1
 10
263.4784933439732
 20
-307.8193000000001
 11
263.4696933441955
 21
-303.7070000000003
 97
        0
 92
        1
 93
        4
 72
     1
 10
265.7177932874038
 20
-277.0127000000002
 11
264.7782933111375
 21
-277.0160999999998
 72
     1
 10
264.7782933111375
 20
-277.0160999999998
 11
264.7885933108773
 21
-281.0712999999996
 72
     1
 10
264.7885933108773
 20
-281.0712999999996
 11
265.7290000000003
 21
-281.0645000000004
 72
     1
 10
265.7290000000003
 20
-281.0645000000004
 11
265.7177932874038
 21
-277.0127000000002
 97
        0
 92
        1
 93
        4
 72
     1
 10
264.8036933104959
 20
-286.9804999999997
 11
265.7450932867141
 21
-286.9687999999996
 72
     1
 10
265.7450932867141
 20
-286.9687999999996
 11
265.733893286997
 21
-282.9053000000004
 72
     1
 10
265.733893286997
 20
-282.9053000000004
 11
264.7934933107535
 21
-282.9130999999998
 72
     1
 10
264.7934933107535
 20
-282.9130999999998
 11
264.8036933104959
 21
-286.9804999999997
 97
        0
 92
        1
 93
        4
 72
     1
 10
264.8178933101372
 20
-292.9058000000005
 11
265.7611932863074
 21
-292.8896000000004
 72
     1
 10
265.7611932863074
 20
-292.8896000000004
 11
265.75
 21
-288.8145000000004
 72
     1
 10
265.75
 20
-288.8145000000004
 11
264.8075933103974
 21
-288.8275999999996
 72
     1
 10
264.8075933103974
 20
-288.8275999999996
 11
264.8178933101372
 21
-292.9058000000005
 97
        0
 92
        1
 93
        4
 72
     1
 10
264.8329999999996
 20
-298.8481000000002
 11
265.7772932859007
 21
-298.8271000000004
 72
     1
 10
265.7772932859007
 20
-298.8271000000004
 11
265.7660932861836
 21
-294.7407000000003
 72
     1
 10
265.7660932861836
 20
-294.7407000000003
 11
264.8227933100134
 21
-294.7583000000004
 72
     1
 10
264.8227933100134
 20
-294.7583000000004
 11
264.8329999999996
 21
-298.8481000000002
 97
        0
 92
        1
 93
        4
 72
     1
 10
264.8476933093843
 20
-304.8076000000001
 11
265.7934932854914
 21
-304.7821999999996
 72
     1
 10
265.7934932854914
 20
-304.7821999999996
 11
265.7821932857769
 21
-300.6841000000004
 72
     1
 10
265.7821932857769
 20
-300.6841000000004
 11
264.8373933096445
 21
-300.7061000000003
 72
     1
 10
264.8373933096445
 20
-300.7061000000003
 11
264.8476933093843
 21
-304.8076000000001
 97
        0
 92
        1
 93
        4
 72
     1
 10
268.0058932296024
 20
-274.0551999999998
 11
267.0702932532367
 21
-274.0562
 72
     1
 10
267.0702932532367
 20
-274.0562
 11
267.0824932529285
 21
-278.0977000000003
 72
     1
 10
267.0824932529285
 20
-278.0977000000003
 11
268.0190000000002
 21
-278.0933000000005
 72
     1
 10
268.0190000000002
 20
-278.0933000000005
 11
268.0058932296024
 21
-274.0551999999998
 97
        0
 92
        1
 93
        4
 72
     1
 10
267.1010932524587
 20
-283.9867999999997
 11
268.0380932287881
 21
-283.9780000000001
 72
     1
 10
268.0380932287881
 20
-283.9780000000001
 11
268.0248932291215
 21
-279.9277000000002
 72
     1
 10
268.0248932291215
 20
-279.9277000000002
 11
267.0883932527804
 21
-279.9336000000003
 72
     1
 10
267.0883932527804
 20
-279.9336000000003
 11
267.1010932524587
 21
-283.9867999999997
 97
        0
 92
        1
 93
        4
 72
     1
 10
267.1186932520141
 20
-289.8921
 11
268.0580932282828
 21
-289.8783999999996
 72
     1
 10
268.0580932282828
 20
-289.8783999999996
 11
268.0443932286289
 21
-285.8173999999999
 72
     1
 10
268.0443932286289
 20
-285.8173999999999
 11
267.1059999999998
 21
-285.8280999999997
 72
     1
 10
267.1059999999998
 20
-285.8280999999997
 11
267.1186932520141
 21
-289.8921
 97
        0
 92
        1
 93
        4
 72
     1
 10
267.1366932515593
 20
-295.8145000000004
 11
268.0770932278028
 21
-295.7959000000001
 72
     1
 10
268.0770932278028
 20
-295.7959000000001
 11
268.0640000000003
 21
-291.7231000000002
 72
     1
 10
268.0640000000003
 20
-291.7231000000002
 11
267.1239999999998
 21
-291.7383
 72
     1
 10
267.1239999999998
 20
-291.7383
 11
267.1366932515593
 21
-295.8145000000004
 97
        0
 92
        1
 93
        4
 72
     1
 10
267.1547932511021
 20
-301.7538999999997
 11
268.0966932273077
 21
-301.7309999999998
 72
     1
 10
268.0966932273077
 20
-301.7309999999998
 11
268.0834932276412
 21
-297.6464999999998
 72
     1
 10
268.0834932276412
 20
-297.6464999999998
 11
267.1420932514229
 21
-297.6665000000003
 72
     1
 10
267.1420932514229
 20
-297.6665000000003
 11
267.1547932511021
 21
-301.7538999999997
 97
        0
 92
        1
 93
        4
 72
     1
 10
268.1030000000001
 20
-303.5859
 11
267.1605932509556
 21
-303.6108000000004
 72
     1
 10
267.1605932509556
 20
-303.6108000000004
 11
267.1728932506448
 21
-307.71
 72
     1
 10
267.1728932506448
 20
-307.71
 11
268.1161932268151
 21
-307.6821
 72
     1
 10
268.1161932268151
 20
-307.6821
 11
268.1030000000001
 21
-303.5859
 97
        0
 75
     2
 76
     1
 98
        0
  0
POLYLINE
  5
2DC
330
1F
100
AcDbEntity
  8
Base
 62
   250
420
  2301728
370
    18
100
AcDb2dPolyline
 66
     1
 10
0.0
 20
0.0
 30
0.0
  0
VERTEX
  5
2DD
330
2DC
100
AcDbEntity
  8
Base
 62
   250
420
  2301728
370
    18
100
AcDbVertex
100
AcDb2dVertex
 10
269.6122931890204
 20
-309.0342000000001
 30
0.0
  0
VERTEX
  5
2DE
330
2DC
100
AcDbEntity
  8
Base
 62
   250
420
  2301728
370
    18
100
AcDbVertex
100
AcDb2dVertex
 10
254.367193574144
 20
-309.5029000000004
 30
0.0
  0
VERTEX
  5
2DF
330
2DC
100
AcDbEntity
  8
Base
 62
   250
420
  2301728
370
    18
100
AcDbVertex
100
AcDb2dVertex
 10
254.367193574144
 20
-272.6660000000002
 30
0.0
  0
VERTEX
  5
2E0
330
2DC
100
AcDbEntity
  8
Base
 62
   250
420
  2301728
370
    18
100
AcDbVertex
100
AcDb2dVertex
 10
269.4799999999996
 20
-272.6660000000002
 30
0.0
  0
VERTEX
  5
2E1
330
2DC
100
AcDbEntity
  8
Base
 62
   250
420
  2301728
370
    18
100
AcDbVertex
100
AcDb2dVertex
 10
269.6122931890204
 20
-309.0342000000001
 30
0.0
  0
SEQEND
  5
2E2
330
2DC
100
AcDbEntity
  8
Base
 62
   250
420
  2301728
370
    18
  0
INSERT
  5
2E4
330
1F
100
AcDbEntity
  8
Base
100
AcDbBlockReference
  2
block 6
 10
0.0
 20
0.0
 30
0.0
  0
POLYLINE
  5
3DA
330
1F
100
AcDbEntity
  8
Base
 62
   250
420
  2301728
370
    18
100
AcDb2dPolyline
 66
     1
 10
0.0
 20
0.0
 30
0.0
  0
VERTEX
  5
3DB
330
3DA
100
AcDbEntity
  8
Base
 62
   250
420
  2301728
370
    18
100
AcDbVertex
100
AcDb2dVertex
 10
254.5263935701223
 20
-441.4032999999999
 30
0.0
  0
VERTEX
  5
3DC
330
3DA
100
AcDbEntity
  8
Base
 62
   250
420
  2301728
370
    18
100
AcDbVertex
100
AcDb2dVertex
 10
254.5263935701223
 20
-416.9989999999998
 30
0.0
  0
VERTEX
  5
3DD
330
3DA
100
AcDbEntity
  8
Base
 62
   250
420
  2301728
370
    18
100
AcDbVertex
100
AcDb2dVertex
 10
269.7802931847764
 20
-416.4599999999991
 30
0.0
  0
VERTEX
  5
3DE
330
3DA
100
AcDbEntity
  8
Base
 62
   250
420
  2301728
370
    18
100
AcDbVertex
100
AcDb2dVertex
 10
269.865693182619
 20
-439.8418000000001
 30
0.0
  0
VERTEX
  5
3DF
330
3DA
100
AcDbEntity
  8
Base
 62
   250
420
  2301728
370
    18
100
AcDbVertex
100
AcDb2dVertex
 10
254.5263935701223
 20
-441.4032999999999
 30
0.0
  0
SEQEND
  5
3E0
330
3DA
100
AcDbEntity
  8
Base
 62
   250
420
  2301728
370
    18
  0
POLYLINE
  5
3E1
330
1F
100
AcDbEntity
  8
Base
 62
   250
420
  2301728
370
    18
100
AcDb2dPolyline
 66
     1
 10
0.0
 20
0.0
 30
0.0
  0
VERTEX
  5
3E2
330
3E1
100
AcDbEntity
  8
Base
 62
   250
420
  2301728
370
    18
100
AcDbVertex
100
AcDb2dVertex
 10
256.6303935169708
 20
-421.2998000000007
 30
0.0
  0
VERTEX
  5
3E3
330
3E1
100
AcDbEntity
  8
Base
 62
   250
420
  2301728
370
    18
100
AcDbVertex
100
AcDb2dVertex
 10
255.66059354147
 20
-421.3397999999997
 30
0.0
  0
VERTEX
  5
3E4
330
3E1
100
AcDbEntity
  8
Base
 62
   250
420
  2301728
370
    18
100
AcDbVertex
100
AcDb2dVertex
 10
255.6615935414447
 20
-425.4258000000009
 30
0.0
  0
VERTEX
  5
3E5
330
3E1
100
AcDbEntity
  8
Base
 62
   250
420
  2301728
370
    18
100
AcDbVertex
100
AcDb2dVertex
 10
256.6322935169228
 20
-425.3788999999997
 30
0.0
  0
VERTEX
  5
3E6
330
3E1
100
AcDbEntity
  8
Base
 62
   250
420
  2301728
370
    18
100
AcDbVertex
100
AcDb2dVertex
 10
256.6303935169708
 20
-421.2998000000007
 30
0.0
  0
SEQEND
  5
3E7
330
3E1
100
AcDbEntity
  8
Base
 62
   250
420
  2301728
370
    18
  0
POLYLINE
  5
3E8
330
1F
100
AcDbEntity
  8
Base
 62
   250
420
  2301728
370
    18
100
AcDb2dPolyline
 66
     1
 10
0.0
 20
0.0
 30
0.0
  0
VERTEX
  5
3E9
330
3E8
100
AcDbEntity
  8
Base
 62
   250
420
  2301728
370
    18
100
AcDbVertex
100
AcDb2dVertex
 10
255.6640935413816
 20
-431.3770000000004
 30
0.0
  0
VERTEX
  5
3EA
330
3E8
100
AcDbEntity
  8
Base
 62
   250
420
  2301728
370
    18
100
AcDbVertex
100
AcDb2dVertex
 10
256.6347935168596
 20
-431.3251999999993
 30
0.0
  0
VERTEX
  5
3EB
330
3E8
100
AcDbEntity
  8
Base
 62
   250
420
  2301728
370
    18
100
AcDbVertex
100
AcDb2dVertex
 10
256.6327935169102
 20
-427.2343999999994
 30
0.0
  0
VERTEX
  5
3EC
330
3E8
100
AcDbEntity
  8
Base
 62
   250
420
  2301728
370
    18
100
AcDbVertex
100
AcDb2dVertex
 10
255.6625935414186
 20
-427.2803000000004
 30
0.0
  0
VERTEX
  5
3ED
330
3E8
100
AcDbEntity
  8
Base
 62
   250
420
  2301728
370
    18
100
AcDbVertex
100
AcDb2dVertex
 10
255.6640935413816
 20
-431.3770000000004
 30
0.0
  0
SEQEND
  5
3EE
330
3E8
100
AcDbEntity
  8
Base
 62
   250
420
  2301728
370
    18
  0
POLYLINE
  5
3EF
330
1F
100
AcDbEntity
  8
Base
 62
   250
420
  2301728
370
    18
100
AcDb2dPolyline
 66
     1
 10
0.0
 20
0.0
 30
0.0
  0
VERTEX
  5
3F0
330
3EF
100
AcDbEntity
  8
Base
 62
   250
420
  2301728
370
    18
100
AcDbVertex
100
AcDb2dVertex
 10
255.665
 20
-437.3456999999999
 30
0.0
  0
VERTEX
  5
3F1
330
3EF
100
AcDbEntity
  8
Base
 62
   250
420
  2301728
370
    18
100
AcDbVertex
100
AcDb2dVertex
 10
256.6381935167738
 20
-437.2852000000003
 30
0.0
  0
VERTEX
  5
3F2
330
3EF
100
AcDbEntity
  8
Base
 62
   250
420
  2301728
370
    18
100
AcDbVertex
100
AcDb2dVertex
 10
256.6361935168243
 20
-433.1836000000003
 30
0.0
  0
VERTEX
  5
3F3
330
3EF
100
AcDbEntity
  8
Base
 62
   250
420
  2301728
370
    18
100
AcDbVertex
100
AcDb2dVertex
 10
255.6640935413816
 20
-433.2373000000007
 30
0.0
  0
VERTEX
  5
3F4
330
3EF
100
AcDbEntity
  8
Base
 62
   250
420
  2301728
370
    18
100
AcDbVertex
100
AcDb2dVertex
 10
255.665
 20
-437.3456999999999
 30
0.0
  0
SEQEND
  5
3F5
330
3EF
100
AcDbEntity
  8
Base
 62
   250
420
  2301728
370
    18
  0
POLYLINE
  5
3F6
330
1F
100
AcDbEntity
  8
Base
 62
   250
420
  2301728
370
    18
100
AcDb2dPolyline
 66
     1
 10
0.0
 20
0.0
 30
0.0
  0
VERTEX
  5
3F7
330
3F6
100
AcDbEntity
  8
Base
 62
   250
420
  2301728
370
    18
100
AcDbVertex
100
AcDb2dVertex
 10
256.6400935167258
 20
-441.2245999999996
 30
0.0
  0
VERTEX
  5
3F8
330
3F6
100
AcDbEntity
  8
Base
 62
   250
420
  2301728
370
    18
100
AcDbVertex
100
AcDb2dVertex
 10
256.6391935167494
 20
-439.1494000000002
 30
0.0
  0
VERTEX
  5
3F9
330
3F6
100
AcDbEntity
  8
Base
 62
   250
420
  2301728
370
    18
100
AcDbVertex
100
AcDb2dVertex
 10
255.6654935413462
 20
-439.2129000000004
 30
0.0
  0
VERTEX
  5
3FA
330
3F6
100
AcDbEntity
  8
Base
 62
   250
420
  2301728
370
    18
100
AcDbVertex
100
AcDb2dVertex
 10
255.6654935413462
 20
-441.2626999999993
 30
0.0
  0
VERTEX
  5
3FB
330
3F6
100
AcDbEntity
  8
Base
 62
   250
420
  2301728
370
    18
100
AcDbVertex
100
AcDb2dVertex
 10
256.6400935167258
 20
-441.2245999999996
 30
0.0
  0
SEQEND
  5
3FC
330
3F6
100
AcDbEntity
  8
Base
 62
   250
420
  2301728
370
    18
  0
POLYLINE
  5
3FD
330
1F
100
AcDbEntity
  8
Base
 62
   250
420
  2301728
370
    18
100
AcDb2dPolyline
 66
     1
 10
0.0
 20
0.0
 30
0.0
  0
VERTEX
  5
3FE
330
3FD
100
AcDbEntity
  8
Base
 62
   250
420
  2301728
370
    18
100
AcDbVertex
100
AcDb2dVertex
 10
258.9916934573193
 20
-418.2363000000005
 30
0.0
  0
VERTEX
  5
3FF
330
3FD
100
AcDbEntity
  8
Base
 62
   250
420
  2301728
370
    18
100
AcDbVertex
100
AcDb2dVertex
 10
258.0287934816442
 20
-418.2734
 30
0.0
  0
VERTEX
  5
400
330
3FD
100
AcDbEntity
  8
Base
 62
   250
420
  2301728
370
    18
100
AcDbVertex
100
AcDb2dVertex
 10
258.0321934815584
 20
-422.3389000000006
 30
0.0
  0
VERTEX
  5
401
330
3FD
100
AcDbEntity
  8
Base
 62
   250
420
  2301728
370
    18
100
AcDbVertex
100
AcDb2dVertex
 10
258.9960934572082
 20
-422.2998000000007
 30
0.0
  0
VERTEX
  5
402
330
3FD
100
AcDbEntity
  8
Base
 62
   250
420
  2301728
370
    18
100
AcDbVertex
100
AcDb2dVertex
 10
258.9916934573193
 20
-418.2363000000005
 30
0.0
  0
SEQEND
  5
403
330
3FD
100
AcDbEntity
  8
Base
 62
   250
420
  2301728
370
    18
  0
POLYLINE
  5
404
330
1F
100
AcDbEntity
  8
Base
 62
   250
420
  2301728
370
    18
100
AcDb2dPolyline
 66
     1
 10
0.0
 20
0.0
 30
0.0
  0
VERTEX
  5
405
330
404
100
AcDbEntity
  8
Base
 62
   250
420
  2301728
370
    18
100
AcDbVertex
100
AcDb2dVertex
 10
258.0380934814093
 20
-428.2646000000004
 30
0.0
  0
VERTEX
  5
406
330
404
100
AcDbEntity
  8
Base
 62
   250
420
  2301728
370
    18
100
AcDbVertex
100
AcDb2dVertex
 10
259.002393457049
 20
-428.2168000000001
 30
0.0
  0
VERTEX
  5
407
330
404
100
AcDbEntity
  8
Base
 62
   250
420
  2301728
370
    18
100
AcDbVertex
100
AcDb2dVertex
 10
258.9979999999996
 20
-424.1435999999994
 30
0.0
  0
VERTEX
  5
408
330
404
100
AcDbEntity
  8
Base
 62
   250
420
  2301728
370
    18
100
AcDbVertex
100
AcDb2dVertex
 10
258.0341934815078
 20
-424.1864999999998
 30
0.0
  0
VERTEX
  5
409
330
404
100
AcDbEntity
  8
Base
 62
   250
420
  2301728
370
    18
100
AcDbVertex
100
AcDb2dVertex
 10
258.0380934814093
 20
-428.2646000000004
 30
0.0
  0
SEQEND
  5
40A
330
404
100
AcDbEntity
  8
Base
 62
   250
420
  2301728
370
    18
  0
POLYLINE
  5
40B
330
1F
100
AcDbEntity
  8
Base
 62
   250
420
  2301728
370
    18
100
AcDb2dPolyline
 66
     1
 10
0.0
 20
0.0
 30
0.0
  0
VERTEX
  5
40C
330
40B
100
AcDbEntity
  8
Base
 62
   250
420
  2301728
370
    18
100
AcDbVertex
100
AcDb2dVertex
 10
258.0429999999997
 20
-434.2070000000003
 30
0.0
  0
VERTEX
  5
40D
330
40B
100
AcDbEntity
  8
Base
 62
   250
420
  2301728
370
    18
100
AcDbVertex
100
AcDb2dVertex
 10
259.0087934568874
 20
-434.1514000000006
 30
0.0
  0
VERTEX
  5
40E
330
40B
100
AcDbEntity
  8
Base
 62
   250
420
  2301728
370
    18
100
AcDbVertex
100
AcDb2dVertex
 10
259.0043934569994
 20
-430.0663999999997
 30
0.0
  0
VERTEX
  5
40F
330
40B
100
AcDbEntity
  8
Base
 62
   250
420
  2301728
370
    18
100
AcDbVertex
100
AcDb2dVertex
 10
258.0395934813714
 20
-430.1172000000006
 30
0.0
  0
VERTEX
  5
410
330
40B
100
AcDbEntity
  8
Base
 62
   250
420
  2301728
370
    18
100
AcDbVertex
100
AcDb2dVertex
 10
258.0429999999997
 20
-434.2070000000003
 30
0.0
  0
SEQEND
  5
411
330
40B
100
AcDbEntity
  8
Base
 62
   250
420
  2301728
370
    18
  0
POLYLINE
  5
412
330
1F
100
AcDbEntity
  8
Base
 62
   250
420
  2301728
370
    18
100
AcDb2dPolyline
 66
     1
 10
0.0
 20
0.0
 30
0.0
  0
VERTEX
  5
413
330
412
100
AcDbEntity
  8
Base
 62
   250
420
  2301728
370
    18
100
AcDbVertex
100
AcDb2dVertex
 10
258.0473934811744
 20
-440.1650000000009
 30
0.0
  0
VERTEX
  5
414
330
412
100
AcDbEntity
  8
Base
 62
   250
420
  2301728
370
    18
100
AcDbVertex
100
AcDb2dVertex
 10
259.0150934567282
 20
-440.1016
 30
0.0
  0
VERTEX
  5
415
330
412
100
AcDbEntity
  8
Base
 62
   250
420
  2301728
370
    18
100
AcDbVertex
100
AcDb2dVertex
 10
259.0102934568495
 20
-436.0059000000001
 30
0.0
  0
VERTEX
  5
416
330
412
100
AcDbEntity
  8
Base
 62
   250
420
  2301728
370
    18
100
AcDbVertex
100
AcDb2dVertex
 10
258.0438934812628
 20
-436.0635000000002
 30
0.0
  0
VERTEX
  5
417
330
412
100
AcDbEntity
  8
Base
 62
   250
420
  2301728
370
    18
100
AcDbVertex
100
AcDb2dVertex
 10
258.0473934811744
 20
-440.1650000000009
 30
0.0
  0
SEQEND
  5
418
330
412
100
AcDbEntity
  8
Base
 62
   250
420
  2301728
370
    18
  0
POLYLINE
  5
419
330
1F
100
AcDbEntity
  8
Base
 62
   250
420
  2301728
370
    18
100
AcDb2dPolyline
 66
     1
 10
0.0
 20
0.0
 30
0.0
  0
VERTEX
  5
41A
330
419
100
AcDbEntity
  8
Base
 62
   250
420
  2301728
370
    18
100
AcDbVertex
100
AcDb2dVertex
 10
261.346693397827
 20
-421.1064000000006
 30
0.0
  0
VERTEX
  5
41B
330
419
100
AcDbEntity
  8
Base
 62
   250
420
  2301728
370
    18
100
AcDbVertex
100
AcDb2dVertex
 10
260.3876934220534
 20
-421.1465000000007
 30
0.0
  0
VERTEX
  5
41C
330
419
100
AcDbEntity
  8
Base
 62
   250
420
  2301728
370
    18
100
AcDbVertex
100
AcDb2dVertex
 10
260.3935934219044
 20
-425.2060999999994
 30
0.0
  0
VERTEX
  5
41D
330
419
100
AcDbEntity
  8
Base
 62
   250
420
  2301728
370
    18
100
AcDbVertex
100
AcDb2dVertex
 10
261.3524933976805
 20
-425.1610999999994
 30
0.0
  0
VERTEX
  5
41E
330
419
100
AcDbEntity
  8
Base
 62
   250
420
  2301728
370
    18
100
AcDbVertex
100
AcDb2dVertex
 10
261.346693397827
 20
-421.1064000000006
 30
0.0
  0
SEQEND
  5
41F
330
419
100
AcDbEntity
  8
Base
 62
   250
420
  2301728
370
    18
  0
POLYLINE
  5
420
330
1F
100
AcDbEntity
  8
Base
 62
   250
420
  2301728
370
    18
100
AcDb2dPolyline
 66
     1
 10
0.0
 20
0.0
 30
0.0
  0
VERTEX
  5
421
330
420
100
AcDbEntity
  8
Base
 62
   250
420
  2301728
370
    18
100
AcDbVertex
100
AcDb2dVertex
 10
260.4032934216593
 20
-431.1211000000003
 30
0.0
  0
VERTEX
  5
422
330
420
100
AcDbEntity
  8
Base
 62
   250
420
  2301728
370
    18
100
AcDbVertex
100
AcDb2dVertex
 10
261.3617933974456
 20
-431.0684000000001
 30
0.0
  0
VERTEX
  5
423
330
420
100
AcDbEntity
  8
Base
 62
   250
420
  2301728
370
    18
100
AcDbVertex
100
AcDb2dVertex
 10
261.3549999999996
 20
-427.0028999999995
 30
0.0
  0
VERTEX
  5
424
330
420
100
AcDbEntity
  8
Base
 62
   250
420
  2301728
370
    18
100
AcDbVertex
100
AcDb2dVertex
 10
260.3974934218058
 20
-427.0498000000007
 30
0.0
  0
VERTEX
  5
425
330
420
100
AcDbEntity
  8
Base
 62
   250
420
  2301728
370
    18
100
AcDbVertex
100
AcDb2dVertex
 10
260.4032934216593
 20
-431.1211000000003
 30
0.0
  0
SEQEND
  5
426
330
420
100
AcDbEntity
  8
Base
 62
   250
420
  2301728
370
    18
  0
POLYLINE
  5
427
330
1F
100
AcDbEntity
  8
Base
 62
   250
420
  2301728
370
    18
100
AcDb2dPolyline
 66
     1
 10
0.0
 20
0.0
 30
0.0
  0
VERTEX
  5
428
330
427
100
AcDbEntity
  8
Base
 62
   250
420
  2301728
370
    18
100
AcDbVertex
100
AcDb2dVertex
 10
260.4096934214976
 20
-437.0537000000004
 30
0.0
  0
VERTEX
  5
429
330
427
100
AcDbEntity
  8
Base
 62
   250
420
  2301728
370
    18
100
AcDbVertex
100
AcDb2dVertex
 10
261.371593397198
 20
-436.9932000000008
 30
0.0
  0
VERTEX
  5
42A
330
427
100
AcDbEntity
  8
Base
 62
   250
420
  2301728
370
    18
100
AcDbVertex
100
AcDb2dVertex
 10
261.3651933973597
 20
-432.9159999999993
 30
0.0
  0
VERTEX
  5
42B
330
427
100
AcDbEntity
  8
Base
 62
   250
420
  2301728
370
    18
100
AcDbVertex
100
AcDb2dVertex
 10
260.4042934216341
 20
-432.9696999999996
 30
0.0
  0
VERTEX
  5
42C
330
427
100
AcDbEntity
  8
Base
 62
   250
420
  2301728
370
    18
100
AcDbVertex
100
AcDb2dVertex
 10
260.4096934214976
 20
-437.0537000000004
 30
0.0
  0
SEQEND
  5
42D
330
427
100
AcDbEntity
  8
Base
 62
   250
420
  2301728
370
    18
  0
POLYLINE
  5
42E
330
1F
100
AcDbEntity
  8
Base
 62
   250
420
  2301728
370
    18
100
AcDb2dPolyline
 66
     1
 10
0.0
 20
0.0
 30
0.0
  0
VERTEX
  5
42F
330
42E
100
AcDbEntity
  8
Base
 62
   250
420
  2301728
370
    18
100
AcDbVertex
100
AcDb2dVertex
 10
261.3778933970389
 20
-440.6718999999994
 30
0.0
  0
VERTEX
  5
430
330
42E
100
AcDbEntity
  8
Base
 62
   250
420
  2301728
370
    18
100
AcDbVertex
100
AcDb2dVertex
 10
261.375
 20
-438.8446999999996
 30
0.0
  0
VERTEX
  5
431
330
42E
100
AcDbEntity
  8
Base
 62
   250
420
  2301728
370
    18
100
AcDbVertex
100
AcDb2dVertex
 10
260.4125934214244
 20
-438.9071999999996
 30
0.0
  0
VERTEX
  5
432
330
42E
100
AcDbEntity
  8
Base
 62
   250
420
  2301728
370
    18
100
AcDbVertex
100
AcDb2dVertex
 10
260.415
 20
-440.7119000000002
 30
0.0
  0
VERTEX
  5
433
330
42E
100
AcDbEntity
  8
Base
 62
   250
420
  2301728
370
    18
100
AcDbVertex
100
AcDb2dVertex
 10
261.3778933970389
 20
-440.6718999999994
 30
0.0
  0
SEQEND
  5
434
330
42E
100
AcDbEntity
  8
Base
 62
   250
420
  2301728
370
    18
  0
POLYLINE
  5
435
330
1F
100
AcDbEntity
  8
Base
 62
   250
420
  2301728
370
    18
100
AcDb2dPolyline
 66
     1
 10
0.0
 20
0.0
 30
0.0
  0
VERTEX
  5
436
330
435
100
AcDbEntity
  8
Base
 62
   250
420
  2301728
370
    18
100
AcDbVertex
100
AcDb2dVertex
 10
263.675793338989
 20
-418.0635000000002
 30
0.0
  0
VERTEX
  5
437
330
435
100
AcDbEntity
  8
Base
 62
   250
420
  2301728
370
    18
100
AcDbVertex
100
AcDb2dVertex
 10
262.724093363031
 20
-418.0985999999994
 30
0.0
  0
VERTEX
  5
438
330
435
100
AcDbEntity
  8
Base
 62
   250
420
  2301728
370
    18
100
AcDbVertex
100
AcDb2dVertex
 10
262.7323933628213
 20
-422.1386999999995
 30
0.0
  0
VERTEX
  5
439
330
435
100
AcDbEntity
  8
Base
 62
   250
420
  2301728
370
    18
100
AcDbVertex
100
AcDb2dVertex
 10
263.6840933387793
 20
-422.0995999999996
 30
0.0
  0
VERTEX
  5
43A
330
435
100
AcDbEntity
  8
Base
 62
   250
420
  2301728
370
    18
100
AcDbVertex
100
AcDb2dVertex
 10
263.675793338989
 20
-418.0635000000002
 30
0.0
  0
SEQEND
  5
43B
330
435
100
AcDbEntity
  8
Base
 62
   250
420
  2301728
370
    18
  0
POLYLINE
  5
43C
330
1F
100
AcDbEntity
  8
Base
 62
   250
420
  2301728
370
    18
100
AcDb2dPolyline
 66
     1
 10
0.0
 20
0.0
 30
0.0
  0
VERTEX
  5
43D
330
43C
100
AcDbEntity
  8
Base
 62
   250
420
  2301728
370
    18
100
AcDbVertex
100
AcDb2dVertex
 10
262.7440933625257
 20
-428.0282999999999
 30
0.0
  0
VERTEX
  5
43E
330
43C
100
AcDbEntity
  8
Base
 62
   250
420
  2301728
370
    18
100
AcDbVertex
100
AcDb2dVertex
 10
263.6962933384712
 20
-427.9814000000006
 30
0.0
  0
VERTEX
  5
43F
330
43C
100
AcDbEntity
  8
Base
 62
   250
420
  2301728
370
    18
100
AcDbVertex
100
AcDb2dVertex
 10
263.6874933386935
 20
-423.9326000000001
 30
0.0
  0
VERTEX
  5
440
330
43C
100
AcDbEntity
  8
Base
 62
   250
420
  2301728
370
    18
100
AcDbVertex
100
AcDb2dVertex
 10
262.7362933627228
 20
-423.9766
 30
0.0
  0
VERTEX
  5
441
330
43C
100
AcDbEntity
  8
Base
 62
   250
420
  2301728
370
    18
100
AcDbVertex
100
AcDb2dVertex
 10
262.7440933625257
 20
-428.0282999999999
 30
0.0
  0
SEQEND
  5
442
330
43C
100
AcDbEntity
  8
Base
 62
   250
420
  2301728
370
    18
  0
POLYLINE
  5
443
330
1F
100
AcDbEntity
  8
Base
 62
   250
420
  2301728
370
    18
100
AcDb2dPolyline
 66
     1
 10
0.0
 20
0.0
 30
0.0
  0
VERTEX
  5
444
330
443
100
AcDbEntity
  8
Base
 62
   250
420
  2301728
370
    18
100
AcDbVertex
100
AcDb2dVertex
 10
262.7558933622277
 20
-433.9336000000003
 30
0.0
  0
VERTEX
  5
445
330
443
100
AcDbEntity
  8
Base
 62
   250
420
  2301728
370
    18
100
AcDbVertex
100
AcDb2dVertex
 10
263.71
 20
-433.8778999999995
 30
0.0
  0
VERTEX
  5
446
330
443
100
AcDbEntity
  8
Base
 62
   250
420
  2301728
370
    18
100
AcDbVertex
100
AcDb2dVertex
 10
263.7011933383474
 20
-429.8184000000001
 30
0.0
  0
VERTEX
  5
447
330
443
100
AcDbEntity
  8
Base
 62
   250
420
  2301728
370
    18
100
AcDbVertex
100
AcDb2dVertex
 10
262.7479999999996
 20
-429.8701000000001
 30
0.0
  0
VERTEX
  5
448
330
443
100
AcDbEntity
  8
Base
 62
   250
420
  2301728
370
    18
100
AcDbVertex
100
AcDb2dVertex
 10
262.7558933622277
 20
-433.9336000000003
 30
0.0
  0
SEQEND
  5
449
330
443
100
AcDbEntity
  8
Base
 62
   250
420
  2301728
370
    18
  0
POLYLINE
  5
44A
330
1F
100
AcDbEntity
  8
Base
 62
   250
420
  2301728
370
    18
100
AcDb2dPolyline
 66
     1
 10
0.0
 20
0.0
 30
0.0
  0
VERTEX
  5
44B
330
44A
100
AcDbEntity
  8
Base
 62
   250
420
  2301728
370
    18
100
AcDbVertex
100
AcDb2dVertex
 10
262.7665933619573
 20
-439.8544999999995
 30
0.0
  0
VERTEX
  5
44C
330
44A
100
AcDbEntity
  8
Base
 62
   250
420
  2301728
370
    18
100
AcDbVertex
100
AcDb2dVertex
 10
263.7230933377941
 20
-439.7909999999993
 30
0.0
  0
VERTEX
  5
44D
330
44A
100
AcDbEntity
  8
Base
 62
   250
420
  2301728
370
    18
100
AcDbVertex
100
AcDb2dVertex
 10
263.7138933380265
 20
-435.7227000000003
 30
0.0
  0
VERTEX
  5
44E
330
44A
100
AcDbEntity
  8
Base
 62
   250
420
  2301728
370
    18
100
AcDbVertex
100
AcDb2dVertex
 10
262.7592933621418
 20
-435.7793000000001
 30
0.0
  0
VERTEX
  5
44F
330
44A
100
AcDbEntity
  8
Base
 62
   250
420
  2301728
370
    18
100
AcDbVertex
100
AcDb2dVertex
 10
262.7665933619573
 20
-439.8544999999995
 30
0.0
  0
SEQEND
  5
450
330
44A
100
AcDbEntity
  8
Base
 62
   250
420
  2301728
370
    18
  0
POLYLINE
  5
451
330
1F
100
AcDbEntity
  8
Base
 62
   250
420
  2301728
370
    18
100
AcDb2dPolyline
 66
     1
 10
0.0
 20
0.0
 30
0.0
  0
VERTEX
  5
452
330
451
100
AcDbEntity
  8
Base
 62
   250
420
  2301728
370
    18
100
AcDbVertex
100
AcDb2dVertex
 10
266.0033932801889
 20
-420.9159999999993
 30
0.0
  0
VERTEX
  5
453
330
451
100
AcDbEntity
  8
Base
 62
   250
420
  2301728
370
    18
100
AcDbVertex
100
AcDb2dVertex
 10
265.0585933040566
 20
-420.9550999999992
 30
0.0
  0
VERTEX
  5
454
330
451
100
AcDbEntity
  8
Base
 62
   250
420
  2301728
370
    18
100
AcDbVertex
100
AcDb2dVertex
 10
265.0687933037989
 20
-424.9892999999993
 30
0.0
  0
VERTEX
  5
455
330
451
100
AcDbEntity
  8
Base
 62
   250
420
  2301728
370
    18
100
AcDbVertex
100
AcDb2dVertex
 10
266.014593279906
 20
-424.9452999999994
 30
0.0
  0
VERTEX
  5
456
330
451
100
AcDbEntity
  8
Base
 62
   250
420
  2301728
370
    18
100
AcDbVertex
100
AcDb2dVertex
 10
266.0033932801889
 20
-420.9159999999993
 30
0.0
  0
SEQEND
  5
457
330
451
100
AcDbEntity
  8
Base
 62
   250
420
  2301728
370
    18
  0
POLYLINE
  5
458
330
1F
100
AcDbEntity
  8
Base
 62
   250
420
  2301728
370
    18
100
AcDb2dPolyline
 66
     1
 10
0.0
 20
0.0
 30
0.0
  0
VERTEX
  5
459
330
458
100
AcDbEntity
  8
Base
 62
   250
420
  2301728
370
    18
100
AcDbVertex
100
AcDb2dVertex
 10
265.0839999999998
 20
-430.8672000000006
 30
0.0
  0
VERTEX
  5
45A
330
458
100
AcDbEntity
  8
Base
 62
   250
420
  2301728
370
    18
100
AcDbVertex
100
AcDb2dVertex
 10
266.0307932794967
 20
-430.8153999999995
 30
0.0
  0
VERTEX
  5
45B
330
458
100
AcDbEntity
  8
Base
 62
   250
420
  2301728
370
    18
100
AcDbVertex
100
AcDb2dVertex
 10
266.0194932797822
 20
-426.7754000000004
 30
0.0
  0
VERTEX
  5
45C
330
458
100
AcDbEntity
  8
Base
 62
   250
420
  2301728
370
    18
100
AcDbVertex
100
AcDb2dVertex
 10
265.0731933036877
 20
-426.8212999999996
 30
0.0
  0
VERTEX
  5
45D
330
458
100
AcDbEntity
  8
Base
 62
   250
420
  2301728
370
    18
100
AcDbVertex
100
AcDb2dVertex
 10
265.0839999999998
 20
-430.8672000000006
 30
0.0
  0
SEQEND
  5
45E
330
458
100
AcDbEntity
  8
Base
 62
   250
420
  2301728
370
    18
  0
POLYLINE
  5
45F
330
1F
100
AcDbEntity
  8
Base
 62
   250
420
  2301728
370
    18
100
AcDb2dPolyline
 66
     1
 10
0.0
 20
0.0
 30
0.0
  0
VERTEX
  5
460
330
45F
100
AcDbEntity
  8
Base
 62
   250
420
  2301728
370
    18
100
AcDbVertex
100
AcDb2dVertex
 10
265.0980933030587
 20
-436.7616999999991
 30
0.0
  0
VERTEX
  5
461
330
45F
100
AcDbEntity
  8
Base
 62
   250
420
  2301728
370
    18
100
AcDbVertex
100
AcDb2dVertex
 10
266.0473932790774
 20
-436.7031000000006
 30
0.0
  0
VERTEX
  5
462
330
45F
100
AcDbEntity
  8
Base
 62
   250
420
  2301728
370
    18
100
AcDbVertex
100
AcDb2dVertex
 10
266.0355932793755
 20
-432.6514000000006
 30
0.0
  0
VERTEX
  5
463
330
45F
100
AcDbEntity
  8
Base
 62
   250
420
  2301728
370
    18
100
AcDbVertex
100
AcDb2dVertex
 10
265.087393303329
 20
-432.7050999999992
 30
0.0
  0
VERTEX
  5
464
330
45F
100
AcDbEntity
  8
Base
 62
   250
420
  2301728
370
    18
100
AcDbVertex
100
AcDb2dVertex
 10
265.0980933030587
 20
-436.7616999999991
 30
0.0
  0
SEQEND
  5
465
330
45F
100
AcDbEntity
  8
Base
 62
   250
420
  2301728
370
    18
  0
POLYLINE
  5
466
330
1F
100
AcDbEntity
  8
Base
 62
   250
420
  2301728
370
    18
100
AcDb2dPolyline
 66
     1
 10
0.0
 20
0.0
 30
0.0
  0
VERTEX
  5
467
330
466
100
AcDbEntity
  8
Base
 62
   250
420
  2301728
370
    18
100
AcDbVertex
100
AcDb2dVertex
 10
266.056593278845
 20
-440.2324000000008
 30
0.0
  0
VERTEX
  5
468
330
466
100
AcDbEntity
  8
Base
 62
   250
420
  2301728
370
    18
100
AcDbVertex
100
AcDb2dVertex
 10
266.0521932789561
 20
-438.5449000000008
 30
0.0
  0
VERTEX
  5
469
330
466
100
AcDbEntity
  8
Base
 62
   250
420
  2301728
370
    18
100
AcDbVertex
100
AcDb2dVertex
 10
265.1030000000001
 20
-438.6054999999997
 30
0.0
  0
VERTEX
  5
46A
330
466
100
AcDbEntity
  8
Base
 62
   250
420
  2301728
370
    18
100
AcDbVertex
100
AcDb2dVertex
 10
265.1068933028364
 20
-440.3896000000004
 30
0.0
  0
VERTEX
  5
46B
330
466
100
AcDbEntity
  8
Base
 62
   250
420
  2301728
370
    18
100
AcDbVertex
100
AcDb2dVertex
 10
266.056593278845
 20
-440.2324000000008
 30
0.0
  0
SEQEND
  5
46C
330
466
100
AcDbEntity
  8
Base
 62
   250
420
  2301728
370
    18
  0
POLYLINE
  5
46D
330
1F
100
AcDbEntity
  8
Base
 62
   250
420
  2301728
370
    18
100
AcDb2dPolyline
 66
     1
 10
0.0
 20
0.0
 30
0.0
  0
VERTEX
  5
46E
330
46D
100
AcDbEntity
  8
Base
 62
   250
420
  2301728
370
    18
100
AcDbVertex
100
AcDb2dVertex
 10
268.3017932221264
 20
-417.8916000000008
 30
0.0
  0
VERTEX
  5
46F
330
46D
100
AcDbEntity
  8
Base
 62
   250
420
  2301728
370
    18
100
AcDbVertex
100
AcDb2dVertex
 10
267.3622932458602
 20
-417.9258000000009
 30
0.0
  0
VERTEX
  5
470
330
46D
100
AcDbEntity
  8
Base
 62
   250
420
  2301728
370
    18
100
AcDbVertex
100
AcDb2dVertex
 10
267.375
 20
-421.9423999999999
 30
0.0
  0
VERTEX
  5
471
330
46D
100
AcDbEntity
  8
Base
 62
   250
420
  2301728
370
    18
100
AcDbVertex
100
AcDb2dVertex
 10
268.3153932217829
 20
-421.9022999999997
 30
0.0
  0
VERTEX
  5
472
330
46D
100
AcDbEntity
  8
Base
 62
   250
420
  2301728
370
    18
100
AcDbVertex
100
AcDb2dVertex
 10
268.3017932221264
 20
-417.8916000000008
 30
0.0
  0
SEQEND
  5
473
330
46D
100
AcDbEntity
  8
Base
 62
   250
420
  2301728
370
    18
  0
POLYLINE
  5
474
330
1F
100
AcDbEntity
  8
Base
 62
   250
420
  2301728
370
    18
100
AcDb2dPolyline
 66
     1
 10
0.0
 20
0.0
 30
0.0
  0
VERTEX
  5
475
330
474
100
AcDbEntity
  8
Base
 62
   250
420
  2301728
370
    18
100
AcDbVertex
100
AcDb2dVertex
 10
267.3935932450704
 20
-427.7958999999992
 30
0.0
  0
VERTEX
  5
476
330
474
100
AcDbEntity
  8
Base
 62
   250
420
  2301728
370
    18
100
AcDbVertex
100
AcDb2dVertex
 10
268.3344932213004
 20
-427.7471000000005
 30
0.0
  0
VERTEX
  5
477
330
474
100
AcDbEntity
  8
Base
 62
   250
420
  2301728
370
    18
100
AcDbVertex
100
AcDb2dVertex
 10
268.3212932216338
 20
-423.7245999999996
 30
0.0
  0
VERTEX
  5
478
330
474
100
AcDbEntity
  8
Base
 62
   250
420
  2301728
370
    18
100
AcDbVertex
100
AcDb2dVertex
 10
267.3808932453903
 20
-423.7666000000008
 30
0.0
  0
VERTEX
  5
479
330
474
100
AcDbEntity
  8
Base
 62
   250
420
  2301728
370
    18
100
AcDbVertex
100
AcDb2dVertex
 10
267.3935932450704
 20
-427.7958999999992
 30
0.0
  0
SEQEND
  5
47A
330
474
100
AcDbEntity
  8
Base
 62
   250
420
  2301728
370
    18
  0
POLYLINE
  5
47B
330
1F
100
AcDbEntity
  8
Base
 62
   250
420
  2301728
370
    18
100
AcDb2dPolyline
 66
     1
 10
0.0
 20
0.0
 30
0.0
  0
VERTEX
  5
47C
330
47B
100
AcDbEntity
  8
Base
 62
   250
420
  2301728
370
    18
100
AcDbVertex
100
AcDb2dVertex
 10
267.4110932446274
 20
-433.6620999999996
 30
0.0
  0
VERTEX
  5
47D
330
47B
100
AcDbEntity
  8
Base
 62
   250
420
  2301728
370
    18
100
AcDbVertex
100
AcDb2dVertex
 10
268.3540000000003
 20
-433.6083999999992
 30
0.0
  0
VERTEX
  5
47E
330
47B
100
AcDbEntity
  8
Base
 62
   250
420
  2301728
370
    18
100
AcDbVertex
100
AcDb2dVertex
 10
268.3402932211538
 20
-429.5751999999993
 30
0.0
  0
VERTEX
  5
47F
330
47B
100
AcDbEntity
  8
Base
 62
   250
420
  2301728
370
    18
100
AcDbVertex
100
AcDb2dVertex
 10
267.3983932449482
 20
-429.625
 30
0.0
  0
VERTEX
  5
480
330
47B
100
AcDbEntity
  8
Base
 62
   250
420
  2301728
370
    18
100
AcDbVertex
100
AcDb2dVertex
 10
267.4110932446274
 20
-433.6620999999996
 30
0.0
  0
SEQEND
  5
481
330
47B
100
AcDbEntity
  8
Base
 62
   250
420
  2301728
370
    18
  0
POLYLINE
  5
482
330
1F
100
AcDbEntity
  8
Base
 62
   250
420
  2301728
370
    18
100
AcDb2dPolyline
 66
     1
 10
0.0
 20
0.0
 30
0.0
  0
VERTEX
  5
483
330
482
100
AcDbEntity
  8
Base
 62
   250
420
  2301728
370
    18
100
AcDbVertex
100
AcDb2dVertex
 10
267.4296932441575
 20
-439.5488000000005
 30
0.0
  0
VERTEX
  5
484
330
482
100
AcDbEntity
  8
Base
 62
   250
420
  2301728
370
    18
100
AcDbVertex
100
AcDb2dVertex
 10
268.3734932203151
 20
-439.4863000000005
 30
0.0
  0
VERTEX
  5
485
330
482
100
AcDbEntity
  8
Base
 62
   250
420
  2301728
370
    18
100
AcDbVertex
100
AcDb2dVertex
 10
268.3603932206461
 20
-435.4413999999997
 30
0.0
  0
VERTEX
  5
486
330
482
100
AcDbEntity
  8
Base
 62
   250
420
  2301728
370
    18
100
AcDbVertex
100
AcDb2dVertex
 10
267.4170000000004
 20
-435.4979999999996
 30
0.0
  0
VERTEX
  5
487
330
482
100
AcDbEntity
  8
Base
 62
   250
420
  2301728
370
    18
100
AcDbVertex
100
AcDb2dVertex
 10
267.4296932441575
 20
-439.5488000000005
 30
0.0
  0
SEQEND
  5
488
330
482
100
AcDbEntity
  8
Base
 62
   250
420
  2301728
370
    18
  0
INSERT
  5
48A
330
1F
100
AcDbEntity
  8
Base
100
AcDbBlockReference
  2
block 10
 10
0.0
 20
0.0
 30
0.0
  0
MTEXT
  5
4F6
330
1F
100
AcDbEntity
  8
callout
 62
   250
420
  2301728
100
AcDbMText
 10
253.183723449707
 20
-532.4351577758789
 30
0.0
 40
8.495999999999999
 41
0.0
 46
0.0
 71
     7
 72
     1
  1
\fHelvetica Neue LT Std 55 Roman|b0|i0|c0|p34;\W1;SIMPSON Strong-Tie\H4.95317;®\H8.496; ^C
 73
     1
 44
1.0
  0
MTEXT
  5
4F7
330
1F
100
AcDbEntity
  8
callout
 62
   250
420
  2301728
100
AcDbMText
 10
245.530891418457
 20
-546.8355484008789
 30
0.0
 40
8.495999999999999
 41
0.0
 46
0.0
 71
     7
 72
     1
  1
\fHelvetica Neue LT Std 55 Roman|b0|i0|c0|p34;\W1;TJC Standard Installation 
 73
     1
 44
1.0
  0
SPLINE
  5
4F8
330
1F
100
AcDbEntity
  8
callout
 62
   250
420
  2301728
370
    30
100
AcDbSpline
210
0.0
220
0.0
230
1.0
 70
     8
 71
     3
 72
     8
 73
     4
 74
     0
 42
0.0000000001
 43
0.0000000001
 12
1.0
 22
0.0
 32
0.0
 13
1.0
 23
0.0
 33
0.0
 40
0.0
 40
0.0
 40
0.0
 40
0.0
 40
1.0
 40
1.0
 40
1.0
 40
1.0
 10
278.2033948732278
 20
-341.0294186961391
 30
0.0
 10
278.2033948732278
 20
-341.0294186961391
 30
0.0
 10
293.6664925813602
 20
-334.337289993231
 30
0.0
 10
305.9357422714129
 20
-327.645161290322
 30
0.0
  0
MTEXT
  5
4F9
330
1F
100
AcDbEntity
  8
callout
 62
   250
420
  2301728
100
AcDbMText
 10
310.1291618347168
 20
-331.33544921875
 30
0.0
 40
8.495999999999999
 41
0.0
 46
0.0
 71
     7
 72
     1
  1
\fHelvetica LT Std Condensed|b0|i0|c0|p34;\W1;Jack Truss
 73
     1
 44
1.0
  0
MTEXT
  5
4FA
330
1F
100
AcDbEntity
  8
callout
 62
   250
420
  2301728
100
AcDbMText
 10
363.5731506347656
 20
-378.0799713134766
 30
0.0
 40
8.495999999999999
 41
0.0
 46
0.0
 71
     7
 72
     1
  1
\fHelvetica LT Std Condensed|b0|i0|c0|p34;\W1;Girder Truss
 73
     1
 44
1.0
  0
SPLINE
  5
4FB
330
1F
100
AcDbEntity
  8
callout
 62
   250
420
  2301728
370
    30
100
AcDbSpline
210
0.0
220
0.0
230
1.0
 70
     8
 71
     3
 72
     8
 73
     4
 74
     0
 42
0.0000000001
 43
0.0000000001
 12
1.0
 22
0.0
 32
0.0
 13
1.0
 23
0.0
 33
0.0
 40
0.0
 40
0.0
 40
0.0
 40
0.0
 40
1.0
 40
1.0
 40
1.0
 40
1.0
 10
336.1667462906807
 20
-398.1583220563298
 30
0.0
 10
336.1667462906807
 20
-398.1583220563298
 30
0.0
 10
347.0130922799035
 20
-386.8062749720657
 30
0.0
 10
357.8594382691281
 20
-376.7461000000003
 30
0.0
  0
MTEXT
  5
4FC
330
1F
100
AcDbEntity
  8
callout
 62
   250
420
  2301728
100
AcDbMText
 10
318.4999809265137
 20
-485.0758876800537
 30
0.0
 40
8.495999999999999
 41
0.0
 46
0.0
 71
     7
 72
     1
  1
\fHelvetica LT Std Condensed|b0|i0|c0|p34;\W1;TJC
 73
     1
 44
1.0
  0
SPLINE
  5
4FD
330
1F
100
AcDbEntity
  8
callout
 62
   250
420
  2301728
370
    20
100
AcDbSpline
210
0.0
220
0.0
230
1.0
 70
     8
 71
     3
 72
     8
 73
     4
 74
     0
 42
0.0000000001
 43
0.0000000001
 12
1.0
 22
0.0
 32
0.0
 13
1.0
 23
0.0
 33
0.0
 40
0.0
 40
0.0
 40
0.0
 40
0.0
 40
1.0
 40
1.0
 40
1.0
 40
1.0
 10
291.625
 20
-470.9739049114705
 30
0.0
 10
291.625
 20
-470.9739049114705
 30
0.0
 10
300.6112446287698
 20
-479.9820687605206
 30
0.0
 10
314.8177976185452
 20
-481.4098060958895
 30
0.0
  0
ENDSEC
  0
SECTION
  2
OBJECTS
  0
DICTIONARY
  5
C
330
0
100
AcDbDictionary
281
     1
  3
ACAD_GROUP
350
D
  3
ACAD_LAYOUT
350
1A
  3
ACAD_MATERIAL
350
3B
  3
ACAD_MLEADERSTYLE
350
4FF
  3
ACAD_MLINESTYLE
350
17
  3
ACAD_PLOTSETTINGS
350
19
  3
ACAD_PLOTSTYLENAME
350
E
  3
ACAD_TABLESTYLE
350
4FE
  3
ACAD_VISUALSTYLE
350
2A
  0
SUN
  5
3F
330
29
100
AcDbSun
 90
        1
290
     0
 63
     7
421
 16777215
 40
1.0
291
     1
 91
  2455826
 92
 54000000
292
     0
 70
     2
 71
   256
280
     1
  0
DICTIONARY
  5
D
102
{ACAD_REACTORS
330
C
102
}
330
C
100
AcDbDictionary
281
     1
  0
DICTIONARY
  5
1A
102
{ACAD_REACTORS
330
C
102
}
330
C
100
AcDbDictionary
281
     1
  3
Layout1
350
1E
  3
Layout2
350
26
  3
Model
350
22
  0
DICTIONARY
  5
3B
102
{ACAD_REACTORS
330
C
102
}
330
C
100
AcDbDictionary
281
     1
  3
ByBlock
350
3D
  3
ByLayer
350
3C
  3
Global
350
3E
  0
DICTIONARY
  5
4FF
102
{ACAD_REACTORS
330
C
102
}
330
C
100
AcDbDictionary
281
     1
  0
DICTIONARY
  5
17
102
{ACAD_REACTORS
330
C
102
}
330
C
100
AcDbDictionary
281
     1
  3
Standard
350
18
  0
DICTIONARY
  5
19
102
{ACAD_REACTORS
330
C
102
}
330
C
100
AcDbDictionary
281
     1
  0
ACDBDICTIONARYWDFLT
  5
E
102
{ACAD_REACTORS
330
C
102
}
330
C
100
AcDbDictionary
281
     1
  3
Normal
350
F
100
AcDbDictionaryWithDefault
340
F
  0
DICTIONARY
  5
4FE
102
{ACAD_REACTORS
330
C
102
}
330
C
100
AcDbDictionary
281
     1
  0
DICTIONARY
  5
2A
102
{ACAD_REACTORS
330
C
102
}
330
C
100
AcDbDictionary
281
     1
  3
2dWireframe
350
2F
  3
3D Hidden
350
31
  3
3dWireframe
350
30
  3
Basic
350
32
  3
Brighten
350
36
  3
ColorChange
350
3A
  3
Conceptual
350
34
  3
Dim
350
35
  3
Facepattern
350
39
  3
Flat
350
2B
  3
FlatWithEdges
350
2C
  3
Gouraud
350
2D
  3
GouraudWithEdges
350
2E
  3
Linepattern
350
38
  3
Realistic
350
33
  3
Thicken
350
37
  0
LAYOUT
  5
1E
102
{ACAD_REACTORS
330
1A
102
}
330
1A
100
AcDbPlotSettings
  1

  2
none_device
  4

  6

 40
0.0
 41
0.0
 42
0.0
 43
0.0
 44
0.0
 45
0.0
 46
0.0
 47
0.0
 48
0.0
 49
0.0
140
0.0
141
0.0
142
1.0
143
1.0
 70
   688
 72
     0
 73
     0
 74
     5
  7

 75
    16
 76
     0
 77
     2
 78
   300
147
1.0
148
0.0
149
0.0
100
AcDbLayout
  1
Layout1
 70
     1
 71
     1
 10
0.0
 20
0.0
 11
12.0
 21
9.0
 12
0.0
 22
0.0
 32
0.0
 14
1.000000000000000E+20
 24
1.000000000000000E+20
 34
1.000000000000000E+20
 15
-1.000000000000000E+20
 25
-1.000000000000000E+20
 35
-1.000000000000000E+20
146
0.0
 13
0.0
 23
0.0
 33
0.0
 16
1.0
 26
0.0
 36
0.0
 17
0.0
 27
1.0
 37
0.0
 76
     0
330
1B
  0
LAYOUT
  5
26
102
{ACAD_REACTORS
330
1A
102
}
330
1A
100
AcDbPlotSettings
  1

  2
none_device
  4

  6

 40
0.0
 41
0.0
 42
0.0
 43
0.0
 44
0.0
 45
0.0
 46
0.0
 47
0.0
 48
0.0
 49
0.0
140
0.0
141
0.0
142
1.0
143
1.0
 70
   688
 72
     0
 73
     0
 74
     5
  7

 75
    16
 76
     0
 77
     2
 78
   300
147
1.0
148
0.0
149
0.0
100
AcDbLayout
  1
Layout2
 70
     1
 71
     2
 10
0.0
 20
0.0
 11
0.0
 21
0.0
 12
0.0
 22
0.0
 32
0.0
 14
0.0
 24
0.0
 34
0.0
 15
0.0
 25
0.0
 35
0.0
146
0.0
 13
0.0
 23
0.0
 33
0.0
 16
1.0
 26
0.0
 36
0.0
 17
0.0
 27
1.0
 37
0.0
 76
     0
330
23
  0
LAYOUT
  5
22
102
{ACAD_REACTORS
330
1A
102
}
330
1A
100
AcDbPlotSettings
  1

  2
none_device
  4

  6

 40
0.0
 41
0.0
 42
0.0
 43
0.0
 44
0.0
 45
0.0
 46
0.0
 47
0.0
 48
0.0
 49
0.0
140
0.0
141
0.0
142
1.0
143
1.0
 70
  1712
 72
     0
 73
     0
 74
     0
  7

 75
     0
 76
     0
 77
     2
 78
   300
147
1.0
148
0.0
149
0.0
100
AcDbLayout
  1
Model
 70
     1
 71
     0
 10
0.0
 20
0.0
 11
12.0
 21
9.0
 12
0.0
 22
0.0
 32
0.0
 14
1.000000000000000E+20
 24
1.000000000000000E+20
 34
1.000000000000000E+20
 15
-1.000000000000000E+20
 25
-1.000000000000000E+20
 35
-1.000000000000000E+20
146
0.0
 13
0.0
 23
0.0
 33
0.0
 16
1.0
 26
0.0
 36
0.0
 17
0.0
 27
1.0
 37
0.0
 76
     0
330
1F
331
29
  0
MATERIAL
  5
3D
102
{ACAD_REACTORS
330
3B
102
}
330
3B
100
AcDbMaterial
  1
ByBlock
 72
     1
 94
      127
  0
MATERIAL
  5
3C
102
{ACAD_REACTORS
330
3B
102
}
330
3B
100
AcDbMaterial
  1
ByLayer
 72
     1
 94
      127
  0
MATERIAL
  5
3E
102
{ACAD_REACTORS
330
3B
102
}
330
3B
100
AcDbMaterial
  1
Global
 72
     1
 94
      127
  0
MLINESTYLE
  5
18
102
{ACAD_REACTORS
330
17
102
}
330
17
100
AcDbMlineStyle
  2
Standard
 70
     0
  3

 62
   256
 51
90.0
 52
90.0
 71
     2
 49
0.5
 62
   256
  6
BYLAYER
 49
-0.5
 62
   256
  6
BYLAYER
  0
ACDBPLACEHOLDER
  5
F
102
{ACAD_REACTORS
330
E
102
}
330
E
  0
VISUALSTYLE
  5
2F
102
{ACAD_REACTORS
330
2A
102
}
330
2A
100
AcDbVisualStyle
  2
2dWireframe
 70
     4
177
     2
291
     0
 71
     0
176
     1
 72
     2
176
     1
 73
     0
176
     1
 90
        0
176
     1
 40
-0.6
176
     1
 41
-30.0
176
     1
 62
     5
 63
     7
421
 16777215
176
     1
 74
     1
176
     1
 91
        4
176
     1
 64
     7
176
     1
 65
   257
176
     1
 75
     1
176
     1
175
     1
176
     1
 42
1.0
176
     1
 92
        0
176
     1
 66
   257
176
     1
 43
1.0
176
     1
 76
     1
176
     1
 77
     6
176
     1
 78
     2
176
     1
 67
     7
176
     1
 79
     5
176
     1
170
     0
176
     1
171
     0
176
     1
290
     0
176
     1
 93
        1
176
     1
 44
0.0
176
     1
173
     0
176
     1
  0
VISUALSTYLE
  5
31
102
{ACAD_REACTORS
330
2A
102
}
330
2A
100
AcDbVisualStyle
  2
3D Hidden
 70
     6
177
     2
291
     0
 71
     1
176
     1
 72
     2
176
     1
 73
     2
176
     1
 90
        0
176
     1
 40
-0.6
176
     1
 41
-30.0
176
     1
 62
     5
 63
     7
421
 16777215
176
     1
 74
     2
176
     1
 91
        2
176
     1
 64
     7
176
     1
 65
   257
176
     1
 75
     2
176
     1
175
     1
176
     1
 42
40.0
176
     1
 92
        0
176
     1
 66
   257
176
     1
 43
1.0
176
     1
 76
     1
176
     1
 77
     6
176
     1
 78
     2
176
     1
 67
     7
176
     1
 79
     3
176
     1
170
     0
176
     1
171
     0
176
     1
290
     0
176
     1
 93
        1
176
     1
 44
0.0
176
     1
173
     0
176
     1
  0
VISUALSTYLE
  5
30
102
{ACAD_REACTORS
330
2A
102
}
330
2A
100
AcDbVisualStyle
  2
3dWireframe
 70
     5
177
     2
291
     0
 71
     0
176
     1
 72
     2
176
     1
 73
     0
176
     1
 90
        0
176
     1
 40
-0.6
176
     1
 41
-30.0
176
     1
 62
     5
 63
     7
421
 16777215
176
     1
 74
     1
176
     1
 91
        4
176
     1
 64
     7
176
     1
 65
   257
176
     1
 75
     1
176
     1
175
     1
176
     1
 42
1.0
176
     1
 92
        0
176
     1
 66
   257
176
     1
 43
1.0
176
     1
 76
     1
176
     1
 77
     6
176
     1
 78
     2
176
     1
 67
     7
176
     1
 79
     5
176
     1
170
     0
176
     1
171
     0
176
     1
290
     0
176
     1
 93
        1
176
     1
 44
0.0
176
     1
173
     0
176
     1
  0
VISUALSTYLE
  5
32
102
{ACAD_REACTORS
330
2A
102
}
330
2A
100
AcDbVisualStyle
  2
Basic
 70
     7
177
     2
291
     1
 71
     1
176
     1
 72
     0
176
     1
 73
     1
176
     1
 90
        0
176
     1
 40
-0.6
176
     1
 41
-30.0
176
     1
 62
     5
 63
     7
421
 16777215
176
     1
 74
     0
176
     1
 91
        4
176
     1
 64
     7
176
     1
 65
   257
176
     1
 75
     1
176
     1
175
     1
176
     1
 42
1.0
176
     1
 92
        8
176
     1
 66
     7
176
     1
 43
1.0
176
     1
 76
     1
176
     1
 77
     6
176
     1
 78
     2
176
     1
 67
     7
176
     1
 79
     5
176
     1
170
     0
176
     1
171
     0
176
     1
290
     0
176
     1
 93
        1
176
     1
 44
0.0
176
     1
173
     0
176
     1
  0
VISUALSTYLE
  5
36
102
{ACAD_REACTORS
330
2A
102
}
330
2A
100
AcDbVisualStyle
  2
Brighten
 70
    12
177
     2
291
     1
 71
     2
176
     1
 72
     2
176
     1
 73
     0
176
     1
 90
        0
176
     1
 40
-0.6
176
     1
 41
-30.0
176
     1
 62
     5
 63
     7
421
 16777215
176
     1
 74
     1
176
     1
 91
        4
176
     1
 64
     7
176
     1
 65
   257
176
     1
 75
     1
176
     1
175
     1
176
     1
 42
1.0
176
     1
 92
        8
176
     1
 66
     7
176
     1
 43
1.0
176
     1
 76
     1
176
     1
 77
     6
176
     1
 78
     2
176
     1
 67
     7
176
     1
 79
     5
176
     1
170
     0
176
     1
171
     0
176
     1
290
     0
176
     1
 93
        1
176
     1
 44
50.0
176
     1
173
     0
176
     1
  0
VISUALSTYLE
  5
3A
102
{ACAD_REACTORS
330
2A
102
}
330
2A
100
AcDbVisualStyle
  2
ColorChange
 70
    16
177
     2
291
     1
 71
     2
176
     1
 72
     2
176
     1
 73
     3
176
     1
 90
        0
176
     1
 40
-0.6
176
     1
 41
-30.0
176
     1
 62
     5
 63
     8
421
  8421504
176
     1
 74
     1
176
     1
 91
        4
176
     1
 64
     7
176
     1
 65
   257
176
     1
 75
     1
176
     1
175
     1
176
     1
 42
1.0
176
     1
 92
        8
176
     1
 66
     8
424
  8421504
176
     1
 43
1.0
176
     1
 76
     1
176
     1
 77
     6
176
     1
 78
     2
176
     1
 67
     7
176
     1
 79
     5
176
     1
170
     0
176
     1
171
     0
176
     1
290
     0
176
     1
 93
        1
176
     1
 44
0.0
176
     1
173
     0
176
     1
  0
VISUALSTYLE
  5
34
102
{ACAD_REACTORS
330
2A
102
}
330
2A
100
AcDbVisualStyle
  2
Conceptual
 70
     9
177
     2
291
     0
 71
     3
176
     1
 72
     2
176
     1
 73
     0
176
     1
 90
        0
176
     1
 40
-0.6
176
     1
 41
-30.0
176
     1
 62
     5
 63
     7
421
 16777215
176
     1
 74
     2
176
     1
 91
        2
176
     1
 64
     7
176
     1
 65
   257
176
     1
 75
     1
176
     1
175
     1
176
     1
 42
40.0
176
     1
 92
        8
176
     1
 66
     7
176
     1
 43
1.0
176
     1
 76
     1
176
     1
 77
     6
176
     1
 78
     2
176
     1
 67
     7
176
     1
 79
     3
176
     1
170
     0
176
     1
171
     0
176
     1
290
     0
176
     1
 93
        1
176
     1
 44
0.0
176
     1
173
     0
176
     1
  0
VISUALSTYLE
  5
35
102
{ACAD_REACTORS
330
2A
102
}
330
2A
100
AcDbVisualStyle
  2
Dim
 70
    11
177
     2
291
     1
 71
     2
176
     1
 72
     2
176
     1
 73
     0
176
     1
 90
        0
176
     1
 40
-0.6
176
     1
 41
-30.0
176
     1
 62
     5
 63
     7
421
 16777215
176
     1
 74
     1
176
     1
 91
        4
176
     1
 64
     7
176
     1
 65
   257
176
     1
 75
     1
176
     1
175
     1
176
     1
 42
1.0
176
     1
 92
        8
176
     1
 66
     7
176
     1
 43
1.0
176
     1
 76
     1
176
     1
 77
     6
176
     1
 78
     2
176
     1
 67
     7
176
     1
 79
     5
176
     1
170
     0
176
     1
171
     0
176
     1
290
     0
176
     1
 93
        1
176
     1
 44
-50.0
176
     1
173
     0
176
     1
  0
VISUALSTYLE
  5
39
102
{ACAD_REACTORS
330
2A
102
}
330
2A
100
AcDbVisualStyle
  2
Facepattern
 70
    15
177
     2
291
     1
 71
     2
176
     1
 72
     2
176
     1
 73
     0
176
     1
 90
        0
176
     1
 40
-0.6
176
     1
 41
-30.0
176
     1
 62
     5
 63
     7
421
 16777215
176
     1
 74
     1
176
     1
 91
        4
176
     1
 64
     7
176
     1
 65
   257
176
     1
 75
     1
176
     1
175
     1
176
     1
 42
1.0
176
     1
 92
        8
176
     1
 66
     7
176
     1
 43
1.0
176
     1
 76
     1
176
     1
 77
     6
176
     1
 78
     2
176
     1
 67
     7
176
     1
 79
     5
176
     1
170
     0
176
     1
171
     0
176
     1
290
     0
176
     1
 93
        1
176
     1
 44
0.0
176
     1
173
     0
176
     1
  0
VISUALSTYLE
  5
2B
102
{ACAD_REACTORS
330
2A
102
}
330
2A
100
AcDbVisualStyle
  2
Flat
 70
     0
177
     2
291
     1
 71
     2
176
     1
 72
     1
176
     1
 73
     1
176
     1
 90
        2
176
     1
 40
-0.6
176
     1
 41
30.0
176
     1
 62
     5
 63
     7
421
 16777215
176
     1
 74
     0
176
     1
 91
        4
176
     1
 64
     7
176
     1
 65
   257
176
     1
 75
     1
176
     1
175
     1
176
     1
 42
1.0
176
     1
 92
        8
176
     1
 66
     7
176
     1
 43
1.0
176
     1
 76
     1
176
     1
 77
     6
176
     1
 78
     2
176
     1
 67
     7
176
     1
 79
     5
176
     1
170
     0
176
     1
171
     0
176
     1
290
     0
176
     1
 93
       13
176
     1
 44
0.0
176
     1
173
     0
176
     1
  0
VISUALSTYLE
  5
2C
102
{ACAD_REACTORS
330
2A
102
}
330
2A
100
AcDbVisualStyle
  2
FlatWithEdges
 70
     1
177
     2
291
     1
 71
     2
176
     1
 72
     1
176
     1
 73
     1
176
     1
 90
        2
176
     1
 40
-0.6
176
     1
 41
30.0
176
     1
 62
     5
 63
     7
421
 16777215
176
     1
 74
     1
176
     1
 91
        4
176
     1
 64
     7
176
     1
 65
   257
176
     1
 75
     1
176
     1
175
     1
176
     1
 42
1.0
176
     1
 92
        0
176
     1
 66
   257
176
     1
 43
1.0
176
     1
 76
     1
176
     1
 77
     6
176
     1
 78
     2
176
     1
 67
     7
176
     1
 79
     5
176
     1
170
     0
176
     1
171
     0
176
     1
290
     0
176
     1
 93
       13
176
     1
 44
0.0
176
     1
173
     0
176
     1
  0
VISUALSTYLE
  5
2D
102
{ACAD_REACTORS
330
2A
102
}
330
2A
100
AcDbVisualStyle
  2
Gouraud
 70
     2
177
     2
291
     1
 71
     2
176
     1
 72
     2
176
     1
 73
     1
176
     1
 90
        2
176
     1
 40
-0.6
176
     1
 41
30.0
176
     1
 62
     5
 63
     7
421
 16777215
176
     1
 74
     0
176
     1
 91
        4
176
     1
 64
     7
176
     1
 65
   257
176
     1
 75
     1
176
     1
175
     1
176
     1
 42
1.0
176
     1
 92
        0
176
     1
 66
     7
176
     1
 43
1.0
176
     1
 76
     1
176
     1
 77
     6
176
     1
 78
     2
176
     1
 67
     7
176
     1
 79
     5
176
     1
170
     0
176
     1
171
     0
176
     1
290
     0
176
     1
 93
       13
176
     1
 44
0.0
176
     1
173
     0
176
     1
  0
VISUALSTYLE
  5
2E
102
{ACAD_REACTORS
330
2A
102
}
330
2A
100
AcDbVisualStyle
  2
GouraudWithEdges
 70
     3
177
     2
291
     1
 71
     2
176
     1
 72
     2
176
     1
 73
     1
176
     1
 90
        2
176
     1
 40
-0.6
176
     1
 41
30.0
176
     1
 62
     5
 63
     7
421
 16777215
176
     1
 74
     1
176
     1
 91
        4
176
     1
 64
     7
176
     1
 65
   257
176
     1
 75
     1
176
     1
175
     1
176
     1
 42
1.0
176
     1
 92
        0
176
     1
 66
   257
176
     1
 43
1.0
176
     1
 76
     1
176
     1
 77
     6
176
     1
 78
     2
176
     1
 67
     7
176
     1
 79
     5
176
     1
170
     0
176
     1
171
     0
176
     1
290
     0
176
     1
 93
       13
176
     1
 44
0.0
176
     1
173
     0
176
     1
  0
VISUALSTYLE
  5
38
102
{ACAD_REACTORS
330
2A
102
}
330
2A
100
AcDbVisualStyle
  2
Linepattern
 70
    14
177
     2
291
     1
 71
     2
176
     1
 72
     2
176
     1
 73
     0
176
     1
 90
        0
176
     1
 40
-0.6
176
     1
 41
-30.0
176
     1
 62
     5
 63
     7
421
 16777215
176
     1
 74
     1
176
     1
 91
        4
176
     1
 64
     7
176
     1
 65
   257
176
     1
 75
     7
176
     1
175
     7
176
     1
 42
1.0
176
     1
 92
        8
176
     1
 66
     7
176
     1
 43
1.0
176
     1
 76
     1
176
     1
 77
     6
176
     1
 78
     2
176
     1
 67
     7
176
     1
 79
     5
176
     1
170
     0
176
     1
171
     0
176
     1
290
     0
176
     1
 93
        1
176
     1
 44
0.0
176
     1
173
     0
176
     1
  0
VISUALSTYLE
  5
33
102
{ACAD_REACTORS
330
2A
102
}
330
2A
100
AcDbVisualStyle
  2
Realistic
 70
     8
177
     2
291
     0
 71
     2
176
     1
 72
     2
176
     1
 73
     0
176
     1
 90
        0
176
     1
 40
-0.6
176
     1
 41
-30.0
176
     1
 62
     5
 63
     7
421
 16777215
176
     1
 74
     1
176
     1
 91
        0
176
     1
 64
     7
176
     1
 65
   257
176
     1
 75
     1
176
     1
175
     1
176
     1
 42
1.0
176
     1
 92
        8
176
     1
 66
     8
424
  7895160
176
     1
 43
1.0
176
     1
 76
     1
176
     1
 77
     6
176
     1
 78
     2
176
     1
 67
     7
176
     1
 79
     5
176
     1
170
     0
176
     1
171
     0
176
     1
290
     0
176
     1
 93
       13
176
     1
 44
0.0
176
     1
173
     0
176
     1
  0
VISUALSTYLE
  5
37
102
{ACAD_REACTORS
330
2A
102
}
330
2A
100
AcDbVisualStyle
  2
Thicken
 70
    13
177
     2
291
     1
 71
     2
176
     1
 72
     2
176
     1
 73
     0
176
     1
 90
        0
176
     1
 40
-0.6
176
     1
 41
-30.0
176
     1
 62
     5
 63
     7
421
 16777215
176
     1
 74
     1
176
     1
 91
        4
176
     1
 64
     7
176
     1
 65
   257
176
     1
 75
     1
176
     1
175
     1
176
     1
 42
1.0
176
     1
 92
       12
176
     1
 66
     7
176
     1
 43
1.0
176
     1
 76
     1
176
     1
 77
     6
176
     1
 78
     2
176
     1
 67
     7
176
     1
 79
     5
176
     1
170
     0
176
     1
171
     0
176
     1
290
     0
176
     1
 93
        1
176
     1
 44
0.0
176
     1
173
     0
176
     1
  0
ENDSEC
  0
EOF
