  0
SECTION
  2
HEADER
  9
$ACADVER
  1
AC1024
  9
$ACADMAINTVER
 70
     6
  9
$DWGCODEPAGE
  3
ANSI_1252
  9
$INSBASE
 10
0.0
 20
0.0
 30
0.0
  9
$EXTMIN
 10
1.000000000000000E+20
 20
1.000000000000000E+20
 30
1.000000000000000E+20
  9
$EXTMAX
 10
-1.000000000000000E+20
 20
-1.000000000000000E+20
 30
-1.000000000000000E+20
  9
$LIMMIN
 10
0.0
 20
0.0
  9
$LIMMAX
 10
12.0
 20
9.0
  9
$ORTHOMODE
 70
     0
  9
$REGENMODE
 70
     1
  9
$FILLMODE
 70
     1
  9
$QTEXTMODE
 70
     0
  9
$MIRRTEXT
 70
     1
  9
$LTSCALE
 40
1.0
  9
$ATTMODE
 70
     1
  9
$TEXTSIZE
 40
0.2
  9
$TRACEWID
 40
0.05
  9
$TEXTSTYLE
  7
Standard
  9
$CLAYER
  8
0
  9
$CELTYPE
  6
ByLayer
  9
$CECOLOR
 62
   256
  9
$CELTSCALE
 40
1.0
  9
$DISPSILH
 70
     0
  9
$DIMSCALE
 40
1.0
  9
$DIMASZ
 40
0.18
  9
$DIMEXO
 40
0.0625
  9
$DIMDLI
 40
0.38
  9
$DIMRND
 40
0.0
  9
$DIMDLE
 40
0.0
  9
$DIMEXE
 40
0.18
  9
$DIMTP
 40
0.0
  9
$DIMTM
 40
0.0
  9
$DIMTXT
 40
0.18
  9
$DIMCEN
 40
0.09
  9
$DIMTSZ
 40
0.0
  9
$DIMTOL
 70
     0
  9
$DIMLIM
 70
     0
  9
$DIMTIH
 70
     1
  9
$DIMTOH
 70
     1
  9
$DIMSE1
 70
     0
  9
$DIMSE2
 70
     0
  9
$DIMTAD
 70
     0
  9
$DIMZIN
 70
     0
  9
$DIMBLK
  1

  9
$DIMASO
 70
     1
  9
$DIMSHO
 70
     1
  9
$DIMPOST
  1

  9
$DIMAPOST
  1

  9
$DIMALT
 70
     0
  9
$DIMALTD
 70
     2
  9
$DIMALTF
 40
25.4
  9
$DIMLFAC
 40
1.0
  9
$DIMTOFL
 70
     0
  9
$DIMTVP
 40
0.0
  9
$DIMTIX
 70
     0
  9
$DIMSOXD
 70
     0
  9
$DIMSAH
 70
     0
  9
$DIMBLK1
  1

  9
$DIMBLK2
  1

  9
$DIMSTYLE
  2
Standard
  9
$DIMCLRD
 70
     0
  9
$DIMCLRE
 70
     0
  9
$DIMCLRT
 70
     0
  9
$DIMTFAC
 40
1.0
  9
$DIMGAP
 40
0.09
  9
$DIMJUST
 70
     0
  9
$DIMSD1
 70
     0
  9
$DIMSD2
 70
     0
  9
$DIMTOLJ
 70
     1
  9
$DIMTZIN
 70
     0
  9
$DIMALTZ
 70
     0
  9
$DIMALTTZ
 70
     0
  9
$DIMUPT
 70
     0
  9
$DIMDEC
 70
     4
  9
$DIMTDEC
 70
     4
  9
$DIMALTU
 70
     2
  9
$DIMALTTD
 70
     2
  9
$DIMTXSTY
  7
Standard
  9
$DIMAUNIT
 70
     0
  9
$DIMADEC
 70
     0
  9
$DIMALTRND
 40
0.0
  9
$DIMAZIN
 70
     0
  9
$DIMDSEP
 70
    46
  9
$DIMATFIT
 70
     3
  9
$DIMFRAC
 70
     0
  9
$DIMLDRBLK
  1

  9
$DIMLUNIT
 70
     2
  9
$DIMLWD
 70
    -2
  9
$DIMLWE
 70
    -2
  9
$DIMTMOVE
 70
     0
  9
$DIMFXL
 40
1.0
  9
$DIMFXLON
 70
     0
  9
$DIMJOGANG
 40
0.7853981633974483
  9
$DIMTFILL
 70
     0
  9
$DIMTFILLCLR
 70
     0
  9
$DIMARCSYM
 70
     0
  9
$DIMLTYPE
  6

  9
$DIMLTEX1
  6

  9
$DIMLTEX2
  6

  9
$DIMTXTDIRECTION
 70
     0
  9
$LUNITS
 70
     2
  9
$LUPREC
 70
     4
  9
$SKETCHINC
 40
0.1
  9
$FILLETRAD
 40
0.5
  9
$AUNITS
 70
     0
  9
$AUPREC
 70
     0
  9
$MENU
  1
.
  9
$ELEVATION
 40
0.0
  9
$PELEVATION
 40
0.0
  9
$THICKNESS
 40
0.0
  9
$LIMCHECK
 70
     0
  9
$CHAMFERA
 40
0.5
  9
$CHAMFERB
 40
0.5
  9
$CHAMFERC
 40
1.0
  9
$CHAMFERD
 40
0.0
  9
$SKPOLY
 70
     0
  9
$TDCREATE
 40
2458861.920501956
  9
$TDUCREATE
 40
2458861.378835289
  9
$TDUPDATE
 40
2458861.920502107
  9
$TDUUPDATE
 40
2458861.37883544
  9
$TDINDWG
 40
0.0000000116
  9
$TDUSRTIMER
 40
0.0000000116
  9
$USRTIMER
 70
     1
  9
$ANGBASE
 50
0.0
  9
$ANGDIR
 70
     0
  9
$PDMODE
 70
     0
  9
$PDSIZE
 40
0.0
  9
$PLINEWID
 40
0.0
  9
$SPLFRAME
 70
     0
  9
$SPLINETYPE
 70
     6
  9
$SPLINESEGS
 70
     8
  9
$HANDSEED
  5
11A
  9
$SURFTAB1
 70
     6
  9
$SURFTAB2
 70
     6
  9
$SURFTYPE
 70
     6
  9
$SURFU
 70
     6
  9
$SURFV
 70
     6
  9
$UCSBASE
  2

  9
$UCSNAME
  2

  9
$UCSORG
 10
0.0
 20
0.0
 30
0.0
  9
$UCSXDIR
 10
1.0
 20
0.0
 30
0.0
  9
$UCSYDIR
 10
0.0
 20
1.0
 30
0.0
  9
$UCSORTHOREF
  2

  9
$UCSORTHOVIEW
 70
     0
  9
$UCSORGTOP
 10
0.0
 20
0.0
 30
0.0
  9
$UCSORGBOTTOM
 10
0.0
 20
0.0
 30
0.0
  9
$UCSORGLEFT
 10
0.0
 20
0.0
 30
0.0
  9
$UCSORGRIGHT
 10
0.0
 20
0.0
 30
0.0
  9
$UCSORGFRONT
 10
0.0
 20
0.0
 30
0.0
  9
$UCSORGBACK
 10
0.0
 20
0.0
 30
0.0
  9
$PUCSBASE
  2

  9
$PUCSNAME
  2

  9
$PUCSORG
 10
0.0
 20
0.0
 30
0.0
  9
$PUCSXDIR
 10
1.0
 20
0.0
 30
0.0
  9
$PUCSYDIR
 10
0.0
 20
1.0
 30
0.0
  9
$PUCSORTHOREF
  2

  9
$PUCSORTHOVIEW
 70
     0
  9
$PUCSORGTOP
 10
0.0
 20
0.0
 30
0.0
  9
$PUCSORGBOTTOM
 10
0.0
 20
0.0
 30
0.0
  9
$PUCSORGLEFT
 10
0.0
 20
0.0
 30
0.0
  9
$PUCSORGRIGHT
 10
0.0
 20
0.0
 30
0.0
  9
$PUCSORGFRONT
 10
0.0
 20
0.0
 30
0.0
  9
$PUCSORGBACK
 10
0.0
 20
0.0
 30
0.0
  9
$USERI1
 70
     0
  9
$USERI2
 70
     0
  9
$USERI3
 70
     0
  9
$USERI4
 70
     0
  9
$USERI5
 70
     0
  9
$USERR1
 40
0.0
  9
$USERR2
 40
0.0
  9
$USERR3
 40
0.0
  9
$USERR4
 40
0.0
  9
$USERR5
 40
0.0
  9
$WORLDVIEW
 70
     1
  9
$SHADEDGE
 70
     3
  9
$SHADEDIF
 70
    70
  9
$TILEMODE
 70
     1
  9
$MAXACTVP
 70
    64
  9
$PINSBASE
 10
0.0
 20
0.0
 30
0.0
  9
$PLIMCHECK
 70
     0
  9
$PEXTMIN
 10
1.000000000000000E+20
 20
1.000000000000000E+20
 30
1.000000000000000E+20
  9
$PEXTMAX
 10
-1.000000000000000E+20
 20
-1.000000000000000E+20
 30
-1.000000000000000E+20
  9
$PLIMMIN
 10
0.0
 20
0.0
  9
$PLIMMAX
 10
12.0
 20
9.0
  9
$UNITMODE
 70
     0
  9
$VISRETAIN
 70
     1
  9
$PLINEGEN
 70
     0
  9
$PSLTSCALE
 70
     1
  9
$TREEDEPTH
 70
  3020
  9
$CMLSTYLE
  2
Standard
  9
$CMLJUST
 70
     0
  9
$CMLSCALE
 40
1.0
  9
$PROXYGRAPHICS
 70
     1
  9
$MEASUREMENT
 70
     0
  9
$CELWEIGHT
370
    -1
  9
$ENDCAPS
280
     0
  9
$JOINSTYLE
280
     0
  9
$LWDISPLAY
290
     1
  9
$INSUNITS
 70
     1
  9
$HYPERLINKBASE
  1

  9
$STYLESHEET
  1

  9
$XEDIT
290
     1
  9
$CEPSNTYPE
380
     0
  9
$PSTYLEMODE
290
     1
  9
$FINGERPRINTGUID
  2
{308A6BBA-8CA5-4A41-8811-A6C5DBB3E6A4}
  9
$VERSIONGUID
  2
{FAEB1C32-E019-11D5-929B-00C0DF256EC4}
  9
$EXTNAMES
290
     1
  9
$PSVPSCALE
 40
0.0
  9
$OLESTARTUP
290
     0
  9
$SORTENTS
280
   127
  9
$INDEXCTL
280
     0
  9
$HIDETEXT
280
     1
  9
$XCLIPFRAME
280
     2
  9
$HALOGAP
280
     0
  9
$OBSCOLOR
 70
   257
  9
$OBSLTYPE
280
     0
  9
$INTERSECTIONDISPLAY
280
     0
  9
$INTERSECTIONCOLOR
 70
   257
  9
$DIMASSOC
280
     2
  9
$PROJECTNAME
  1

  9
$CAMERADISPLAY
290
     0
  9
$LENSLENGTH
 40
50.0
  9
$CAMERAHEIGHT
 40
0.0
  9
$STEPSPERSEC
 40
2.0
  9
$STEPSIZE
 40
6.0
  9
$3DDWFPREC
 40
2.0
  9
$PSOLWIDTH
 40
0.25
  9
$PSOLHEIGHT
 40
4.0
  9
$LOFTANG1
 40
1.570796326794897
  9
$LOFTANG2
 40
1.570796326794897
  9
$LOFTMAG1
 40
0.0
  9
$LOFTMAG2
 40
0.0
  9
$LOFTPARAM
 70
     7
  9
$LOFTNORMALS
280
     1
  9
$LATITUDE
 40
37.795
  9
$LONGITUDE
 40
-122.394
  9
$NORTHDIRECTION
 40
0.0
  9
$TIMEZONE
 70
 -8000
  9
$LIGHTGLYPHDISPLAY
280
     1
  9
$TILEMODELIGHTSYNCH
280
     1
  9
$CMATERIAL
347
3C
  9
$SOLIDHIST
280
     1
  9
$SHOWHIST
280
     1
  9
$DWFFRAME
280
     2
  9
$DGNFRAME
280
     2
  9
$REALWORLDSCALE
290
     1
  9
$INTERFERECOLOR
 62
   256
  9
$CSHADOW
280
     0
  9
$SHADOWPLANELOCATION
 40
0.0
  0
ENDSEC
  0
SECTION
  2
CLASSES
  0
CLASS
  1
ACDBDICTIONARYWDFLT
  2
AcDbDictionaryWithDefault
  3
ObjectDBX Classes
 90
        0
 91
        4
280
     0
281
     0
  0
CLASS
  1
VISUALSTYLE
  2
AcDbVisualStyle
  3
ObjectDBX Classes
 90
     4095
 91
        4
280
     0
281
     0
  0
CLASS
  1
MATERIAL
  2
AcDbMaterial
  3
ObjectDBX Classes
 90
     1153
 91
        4
280
     0
281
     0
  0
CLASS
  1
SUN
  2
AcDbSun
  3
SCENEOE
 90
     1024
 91
        4
280
     0
281
     0
  0
ENDSEC
  0
SECTION
  2
TABLES
  0
TABLE
  2
VPORT
  5
8
330
0
100
AcDbSymbolTable
 70
     1
  0
VPORT
  5
29
330
8
100
AcDbSymbolTableRecord
100
AcDbViewportTableRecord
  2
*Active
 70
     0
 10
0.0
 20
0.0
 11
1.0
 21
1.0
 12
0.0
 22
0.0
 13
0.0
 23
0.0
 14
0.5
 24
0.5
 15
0.5
 25
0.5
 16
0.0
 26
0.0
 36
1.0
 17
4.364590167518953
 27
7.072309543560657
 37
0.0
 40
11.69291338582678
 41
0.7070707070707057
 42
50.0
 43
0.0
 44
0.0
 50
0.0
 51
0.0
 71
     0
 72
   100
 73
     1
 74
     3
 75
     0
 76
     0
 77
     0
 78
     0
281
     0
 65
     1
110
0.0
120
0.0
130
0.0
111
1.0
121
0.0
131
0.0
112
0.0
122
1.0
132
0.0
 79
     0
146
0.0
 60
     3
 61
     5
292
     1
282
     1
141
0.0
142
0.0
 63
   250
361
3F
  0
ENDTAB
  0
TABLE
  2
LTYPE
  5
5
330
0
100
AcDbSymbolTable
 70
     1
  0
LTYPE
  5
14
330
5
100
AcDbSymbolTableRecord
100
AcDbLinetypeTableRecord
  2
ByBlock
 70
     0
  3

 72
    65
 73
     0
 40
0.0
  0
LTYPE
  5
15
330
5
100
AcDbSymbolTableRecord
100
AcDbLinetypeTableRecord
  2
ByLayer
 70
     0
  3

 72
    65
 73
     0
 40
0.0
  0
LTYPE
  5
16
330
5
100
AcDbSymbolTableRecord
100
AcDbLinetypeTableRecord
  2
Continuous
 70
     0
  3
Solid line
 72
    65
 73
     0
 40
0.0
  0
ENDTAB
  0
TABLE
  2
LAYER
  5
2
330
0
100
AcDbSymbolTable
 70
     3
  0
LAYER
  5
10
330
2
100
AcDbSymbolTableRecord
100
AcDbLayerTableRecord
  2
0
 70
     0
 62
     7
  6
Continuous
370
    -3
390
F
347
3E
  0
LAYER
  5
40
330
2
100
AcDbSymbolTableRecord
100
AcDbLayerTableRecord
  2
Layer 1
 70
     0
 62
     7
  6
Continuous
370
    -3
390
F
347
3E
  0
LAYER
  5
107
330
2
100
AcDbSymbolTableRecord
100
AcDbLayerTableRecord
  2
Layer 2
 70
     0
 62
     7
  6
Continuous
370
    -3
390
F
347
3E
  0
ENDTAB
  0
TABLE
  2
STYLE
  5
3
330
0
100
AcDbSymbolTable
 70
     1
  0
STYLE
  5
11
330
3
100
AcDbSymbolTableRecord
100
AcDbTextStyleTableRecord
  2
Standard
 70
     0
 40
0.0
 41
1.0
 50
0.0
 71
     0
 42
0.2
  3
txt
  4

  0
ENDTAB
  0
TABLE
  2
VIEW
  5
6
330
0
100
AcDbSymbolTable
 70
     0
  0
ENDTAB
  0
TABLE
  2
UCS
  5
7
330
0
100
AcDbSymbolTable
 70
     0
  0
ENDTAB
  0
TABLE
  2
APPID
  5
9
330
0
100
AcDbSymbolTable
 70
     1
  0
APPID
  5
12
330
9
100
AcDbSymbolTableRecord
100
AcDbRegAppTableRecord
  2
ACAD
 70
     0
  0
ENDTAB
  0
TABLE
  2
DIMSTYLE
  5
A
330
0
100
AcDbSymbolTable
 70
     1
100
AcDbDimStyleTable
  0
DIMSTYLE
105
27
330
A
100
AcDbSymbolTableRecord
100
AcDbDimStyleTableRecord
  2
Standard
 70
     0
178
     0
340
11
  0
ENDTAB
  0
TABLE
  2
BLOCK_RECORD
  5
1
330
0
100
AcDbSymbolTable
 70
     1
  0
BLOCK_RECORD
  5
1F
330
1
100
AcDbSymbolTableRecord
100
AcDbBlockTableRecord
  2
*Model_Space
340
22
 70
     0
280
     1
281
     0
  0
BLOCK_RECORD
  5
1B
330
1
100
AcDbSymbolTableRecord
100
AcDbBlockTableRecord
  2
*Paper_Space
340
1E
 70
     0
280
     1
281
     0
  0
BLOCK_RECORD
  5
23
330
1
100
AcDbSymbolTableRecord
100
AcDbBlockTableRecord
  2
*Paper_Space0
340
26
 70
     0
280
     1
281
     0
  0
ENDTAB
  0
ENDSEC
  0
SECTION
  2
BLOCKS
  0
BLOCK
  5
20
330
1F
100
AcDbEntity
  8
0
100
AcDbBlockBegin
  2
*Model_Space
 70
     0
 10
0.0
 20
0.0
 30
0.0
  3
*Model_Space
  1

  0
ENDBLK
  5
21
330
1F
100
AcDbEntity
  8
0
100
AcDbBlockEnd
  0
BLOCK
  5
1C
330
1B
100
AcDbEntity
 67
     1
  8
0
100
AcDbBlockBegin
  2
*Paper_Space
 70
     0
 10
0.0
 20
0.0
 30
0.0
  3
*Paper_Space
  1

  0
ENDBLK
  5
1D
330
1B
100
AcDbEntity
 67
     1
  8
0
100
AcDbBlockEnd
  0
BLOCK
  5
24
330
23
100
AcDbEntity
  8
0
100
AcDbBlockBegin
  2
*Paper_Space0
 70
     0
 10
0.0
 20
0.0
 30
0.0
  3
*Paper_Space0
  1

  0
ENDBLK
  5
25
330
23
100
AcDbEntity
  8
0
100
AcDbBlockEnd
  0
ENDSEC
  0
SECTION
  2
ENTITIES
  0
POLYLINE
  5
41
330
1F
100
AcDbEntity
  8
Layer 1
 62
   250
420
  2301728
370
    40
100
AcDb2dPolyline
 66
     1
 10
0.0
 20
0.0
 30
0.0
  0
VERTEX
  5
42
330
41
100
AcDbEntity
  8
Layer 1
 62
   250
420
  2301728
370
    40
100
AcDbVertex
100
AcDb2dVertex
 10
2.84968048356657
 20
5.874722768258683
 30
0.0
  0
VERTEX
  5
43
330
41
100
AcDbEntity
  8
Layer 1
 62
   250
420
  2301728
370
    40
100
AcDbVertex
100
AcDb2dVertex
 10
2.402954800407365
 20
6.308972757288605
 30
0.0
  0
VERTEX
  5
44
330
41
100
AcDbEntity
  8
Layer 1
 62
   250
420
  2301728
370
    40
100
AcDbVertex
100
AcDb2dVertex
 10
2.406736050311843
 20
6.783316495305674
 30
0.0
  0
VERTEX
  5
45
330
41
100
AcDbEntity
  8
Layer 1
 62
   250
420
  2301728
370
    40
100
AcDbVertex
100
AcDb2dVertex
 10
2.47972215957917
 20
6.86372968771871
 30
0.0
  0
VERTEX
  5
46
330
41
100
AcDbEntity
  8
Layer 1
 62
   250
420
  2301728
370
    40
100
AcDbVertex
100
AcDb2dVertex
 10
2.329965218917904
 20
6.996753989913789
 30
0.0
  0
VERTEX
  5
47
330
41
100
AcDbEntity
  8
Layer 1
 62
   250
420
  2301728
370
    40
100
AcDbVertex
100
AcDb2dVertex
 10
2.408600859832657
 20
7.168243568914932
 30
0.0
  0
VERTEX
  5
48
330
41
100
AcDbEntity
  8
Layer 1
 62
   250
420
  2301728
370
    40
100
AcDbVertex
100
AcDb2dVertex
 10
2.416281188959601
 20
7.644538695771593
 30
0.0
  0
VERTEX
  5
49
330
41
100
AcDbEntity
  8
Layer 1
 62
   250
420
  2301728
370
    40
100
AcDbVertex
100
AcDb2dVertex
 10
4.140100589856703
 20
7.960330354460691
 30
0.0
  0
VERTEX
  5
4A
330
41
100
AcDbEntity
  8
Layer 1
 62
   250
420
  2301728
370
    40
100
AcDbVertex
100
AcDb2dVertex
 10
4.160444339342777
 20
7.957444937866916
 30
0.0
  0
VERTEX
  5
4B
330
41
100
AcDbEntity
  8
Layer 1
 62
   250
420
  2301728
370
    40
100
AcDbVertex
100
AcDb2dVertex
 10
4.173940866779617
 20
7.966517854304382
 30
0.0
  0
VERTEX
  5
4C
330
41
100
AcDbEntity
  8
Layer 1
 62
   250
420
  2301728
370
    40
100
AcDbVertex
100
AcDb2dVertex
 10
5.829892213835643
 20
8.269896318862619
 30
0.0
  0
VERTEX
  5
4D
330
41
100
AcDbEntity
  8
Layer 1
 62
   250
420
  2301728
370
    40
100
AcDbVertex
100
AcDb2dVertex
 10
6.295419979853199
 20
7.940542160516138
 30
0.0
  0
VERTEX
  5
4E
330
41
100
AcDbEntity
  8
Layer 1
 62
   250
420
  2301728
370
    40
100
AcDbVertex
100
AcDb2dVertex
 10
6.303354007430547
 20
7.486476199764588
 30
0.0
  0
VERTEX
  5
4F
330
41
100
AcDbEntity
  8
Layer 1
 62
   250
420
  2301728
370
    40
100
AcDbVertex
100
AcDb2dVertex
 10
6.256288036397311
 20
7.410385923909011
 30
0.0
  0
VERTEX
  5
50
330
41
100
AcDbEntity
  8
Layer 1
 62
   250
420
  2301728
370
    40
100
AcDbVertex
100
AcDb2dVertex
 10
6.399215116120002
 20
7.296028287909039
 30
0.0
  0
VERTEX
  5
51
330
41
100
AcDbEntity
  8
Layer 1
 62
   250
420
  2301728
370
    40
100
AcDbVertex
100
AcDb2dVertex
 10
6.296402618717265
 20
7.17835120754848
 30
0.0
  0
VERTEX
  5
52
330
41
100
AcDbEntity
  8
Layer 1
 62
   250
420
  2301728
370
    40
100
AcDbVertex
100
AcDb2dVertex
 10
6.290433868868048
 20
6.621979693825828
 30
0.0
  0
VERTEX
  5
53
330
41
100
AcDbEntity
  8
Layer 1
 62
   250
420
  2301728
370
    40
100
AcDbVertex
100
AcDb2dVertex
 10
4.582673495343038
 20
6.250698453205182
 30
0.0
  0
VERTEX
  5
54
330
41
100
AcDbEntity
  8
Layer 1
 62
   250
420
  2301728
370
    40
100
AcDbVertex
100
AcDb2dVertex
 10
4.57544780108113
 20
6.25320886980843
 30
0.0
  0
VERTEX
  5
55
330
41
100
AcDbEntity
  8
Layer 1
 62
   250
420
  2301728
370
    40
100
AcDbVertex
100
AcDb2dVertex
 10
4.566295023534571
 20
6.247139425517313
 30
0.0
  0
VERTEX
  5
56
330
41
100
AcDbEntity
  8
Layer 1
 62
   250
420
  2301728
370
    40
100
AcDbVertex
100
AcDb2dVertex
 10
2.84968048356657
 20
5.874722768258683
 30
0.0
  0
SEQEND
  5
58
330
41
100
AcDbEntity
  8
Layer 1
 62
   250
420
  2301728
370
    40
  0
HATCH
  5
57
330
1F
100
AcDbEntity
  8
Layer 1
 62
    43
420
 15510365
100
AcDbHatch
 10
0.0
 20
0.0
 30
0.0
210
0.0
220
0.0
230
1.0
  2
SOLID
 70
     1
 71
     0
 91
        1
 92
        1
 93
       20
 72
     1
 10
2.84968048356657
 20
5.874722768258683
 11
2.402954800407365
 21
6.308972757288605
 72
     1
 10
2.402954800407365
 20
6.308972757288605
 11
2.406736050311843
 21
6.783316495305674
 72
     1
 10
2.406736050311843
 20
6.783316495305674
 11
2.47972215957917
 21
6.86372968771871
 72
     1
 10
2.47972215957917
 20
6.86372968771871
 11
2.329965218917904
 21
6.996753989913789
 72
     1
 10
2.329965218917904
 20
6.996753989913789
 11
2.408600859832657
 21
7.168243568914932
 72
     1
 10
2.408600859832657
 20
7.168243568914932
 11
2.416281188959601
 21
7.644538695771593
 72
     1
 10
2.416281188959601
 20
7.644538695771593
 11
4.140100589856703
 21
7.960330354460691
 72
     1
 10
4.140100589856703
 20
7.960330354460691
 11
4.160444339342777
 21
7.957444937866916
 72
     1
 10
4.160444339342777
 20
7.957444937866916
 11
4.173940866779617
 21
7.966517854304382
 72
     1
 10
4.173940866779617
 20
7.966517854304382
 11
5.829892213835643
 21
8.269896318862619
 72
     1
 10
5.829892213835643
 20
8.269896318862619
 11
6.295419979853199
 21
7.940542160516138
 72
     1
 10
6.295419979853199
 20
7.940542160516138
 11
6.303354007430547
 21
7.486476199764588
 72
     1
 10
6.303354007430547
 20
7.486476199764588
 11
6.256288036397311
 21
7.410385923909011
 72
     1
 10
6.256288036397311
 20
7.410385923909011
 11
6.399215116120002
 21
7.296028287909039
 72
     1
 10
6.399215116120002
 20
7.296028287909039
 11
6.296402618717265
 21
7.17835120754848
 72
     1
 10
6.296402618717265
 20
7.17835120754848
 11
6.290433868868048
 21
6.621979693825828
 72
     1
 10
6.290433868868048
 20
6.621979693825828
 11
4.582673495343038
 21
6.250698453205182
 72
     1
 10
4.582673495343038
 20
6.250698453205182
 11
4.57544780108113
 21
6.25320886980843
 72
     1
 10
4.57544780108113
 20
6.25320886980843
 11
4.566295023534571
 21
6.247139425517313
 72
     1
 10
4.566295023534571
 20
6.247139425517313
 11
2.84968048356657
 21
5.874722768258683
 97
        0
 75
     2
 76
     1
 98
        0
  0
POLYLINE
  5
59
330
1F
100
AcDbEntity
  8
Layer 1
 62
   250
420
  2301728
370
    40
100
AcDb2dPolyline
 66
     1
 10
0.0
 20
0.0
 30
0.0
  0
VERTEX
  5
5A
330
59
100
AcDbEntity
  8
Layer 1
 62
   250
420
  2301728
370
    40
100
AcDbVertex
100
AcDb2dVertex
 10
3.678861018175262
 20
6.127851234086342
 30
0.0
  0
VERTEX
  5
5B
330
59
100
AcDbEntity
  8
Layer 1
 62
   250
420
  2301728
370
    40
100
AcDbVertex
100
AcDb2dVertex
 10
3.644562407930607
 20
6.157823455551402
 30
0.0
  0
VERTEX
  5
5C
330
59
100
AcDbEntity
  8
Layer 1
 62
   250
420
  2301728
370
    40
100
AcDbVertex
100
AcDb2dVertex
 10
3.651697824417018
 20
7.336938009097795
 30
0.0
  0
VERTEX
  5
5D
330
59
100
AcDbEntity
  8
Layer 1
 62
   250
420
  2301728
370
    40
100
AcDbVertex
100
AcDb2dVertex
 10
5.518610971699268
 20
7.706913694195868
 30
0.0
  0
VERTEX
  5
5E
330
59
100
AcDbEntity
  8
Layer 1
 62
   250
420
  2301728
370
    40
100
AcDbVertex
100
AcDb2dVertex
 10
5.556079720752728
 20
7.68007735132571
 30
0.0
  0
VERTEX
  5
5F
330
59
100
AcDbEntity
  8
Layer 1
 62
   250
420
  2301728
370
    40
100
AcDbVertex
100
AcDb2dVertex
 10
5.556725859832719
 20
6.531969279433016
 30
0.0
  0
VERTEX
  5
60
330
59
100
AcDbEntity
  8
Layer 1
 62
   250
420
  2301728
370
    40
100
AcDbVertex
100
AcDb2dVertex
 10
3.678861018175262
 20
6.127851234086342
 30
0.0
  0
SEQEND
  5
62
330
59
100
AcDbEntity
  8
Layer 1
 62
   250
420
  2301728
370
    40
  0
HATCH
  5
61
330
1F
100
AcDbEntity
  8
Layer 1
 62
   254
420
 13358815
100
AcDbHatch
 10
0.0
 20
0.0
 30
0.0
210
0.0
220
0.0
230
1.0
  2
SOLID
 70
     1
 71
     0
 91
        1
 92
        1
 93
        6
 72
     1
 10
3.678861018175262
 20
6.127851234086342
 11
3.644562407930607
 21
6.157823455551402
 72
     1
 10
3.644562407930607
 20
6.157823455551402
 11
3.651697824417018
 21
7.336938009097795
 72
     1
 10
3.651697824417018
 20
7.336938009097795
 11
5.518610971699268
 21
7.706913694195868
 72
     1
 10
5.518610971699268
 20
7.706913694195868
 11
5.556079720752728
 21
7.68007735132571
 72
     1
 10
5.556079720752728
 20
7.68007735132571
 11
5.556725859832719
 21
6.531969279433016
 72
     1
 10
5.556725859832719
 20
6.531969279433016
 11
3.678861018175262
 21
6.127851234086342
 97
        0
 75
     2
 76
     1
 98
        0
  0
POLYLINE
  5
63
330
1F
100
AcDbEntity
  8
Layer 1
 62
   250
420
  2301728
370
    25
100
AcDb2dPolyline
 66
     1
 10
0.0
 20
0.0
 30
0.0
  0
VERTEX
  5
64
330
63
100
AcDbEntity
  8
Layer 1
 62
   250
420
  2301728
370
    25
100
AcDbVertex
100
AcDb2dVertex
 10
2.849746693166
 20
5.874722768258683
 30
0.0
  0
VERTEX
  5
65
330
63
100
AcDbEntity
  8
Layer 1
 62
   250
420
  2301728
370
    25
100
AcDbVertex
100
AcDb2dVertex
 10
2.849052248721566
 20
6.404135949329024
 30
0.0
  0
VERTEX
  5
66
330
63
100
AcDbEntity
  8
Layer 1
 62
   250
420
  2301728
370
    25
100
AcDbVertex
100
AcDb2dVertex
 10
2.919631870688338
 20
6.489160252736686
 30
0.0
  0
VERTEX
  5
67
330
63
100
AcDbEntity
  8
Layer 1
 62
   250
420
  2301728
370
    25
100
AcDbVertex
100
AcDb2dVertex
 10
2.761281180244168
 20
6.612281777404152
 30
0.0
  0
VERTEX
  5
68
330
63
100
AcDbEntity
  8
Layer 1
 62
   250
420
  2301728
370
    25
100
AcDbVertex
100
AcDb2dVertex
 10
2.84918742802347
 20
6.780469273155378
 30
0.0
  0
VERTEX
  5
69
330
63
100
AcDbEntity
  8
Layer 1
 62
   250
420
  2301728
370
    25
100
AcDbVertex
100
AcDb2dVertex
 10
2.855986038962833
 20
7.271785232965915
 30
0.0
  0
VERTEX
  5
6A
330
63
100
AcDbEntity
  8
Layer 1
 62
   250
420
  2301728
370
    25
100
AcDbVertex
100
AcDb2dVertex
 10
2.417263827823667
 20
7.644302584666447
 30
0.0
  0
SEQEND
  5
6B
330
63
100
AcDbEntity
  8
Layer 1
 62
   250
420
  2301728
370
    25
  0
POLYLINE
  5
6C
330
1F
100
AcDbEntity
  8
Layer 1
 62
   250
420
  2301728
370
    25
100
AcDb2dPolyline
 66
     1
 10
0.0
 20
0.0
 30
0.0
  0
VERTEX
  5
6D
330
6C
100
AcDbEntity
  8
Layer 1
 62
   250
420
  2301728
370
    25
100
AcDbVertex
100
AcDb2dVertex
 10
2.848933955807651
 20
6.780229689828097
 30
0.0
  0
VERTEX
  5
6E
330
6C
100
AcDbEntity
  8
Layer 1
 62
   250
420
  2301728
370
    25
100
AcDbVertex
100
AcDb2dVertex
 10
2.408718689150659
 20
7.168448430020867
 30
0.0
  0
SEQEND
  5
6F
330
6C
100
AcDbEntity
  8
Layer 1
 62
   250
420
  2301728
370
    25
  0
POLYLINE
  5
70
330
1F
100
AcDbEntity
  8
Layer 1
 62
   250
420
  2301728
370
    25
100
AcDb2dPolyline
 66
     1
 10
0.0
 20
0.0
 30
0.0
  0
VERTEX
  5
71
330
70
100
AcDbEntity
  8
Layer 1
 62
   250
420
  2301728
370
    25
100
AcDbVertex
100
AcDb2dVertex
 10
2.848881872475633
 20
6.404254004881598
 30
0.0
  0
VERTEX
  5
72
330
70
100
AcDbEntity
  8
Layer 1
 62
   250
420
  2301728
370
    25
100
AcDbVertex
100
AcDb2dVertex
 10
2.407395772517399
 20
6.782823439762574
 30
0.0
  0
SEQEND
  5
73
330
70
100
AcDbEntity
  8
Layer 1
 62
   250
420
  2301728
370
    25
  0
POLYLINE
  5
74
330
1F
100
AcDbEntity
  8
Layer 1
 62
   250
420
  2301728
370
    25
100
AcDb2dPolyline
 66
     1
 10
0.0
 20
0.0
 30
0.0
  0
VERTEX
  5
75
330
74
100
AcDbEntity
  8
Layer 1
 62
   250
420
  2301728
370
    25
100
AcDbVertex
100
AcDb2dVertex
 10
2.479739520689842
 20
6.863594271055464
 30
0.0
  0
VERTEX
  5
76
330
74
100
AcDbEntity
  8
Layer 1
 62
   250
420
  2301728
370
    25
100
AcDbVertex
100
AcDb2dVertex
 10
2.761027708028349
 20
6.612382471846053
 30
0.0
  0
SEQEND
  5
77
330
74
100
AcDbEntity
  8
Layer 1
 62
   250
420
  2301728
370
    25
  0
POLYLINE
  5
78
330
1F
100
AcDbEntity
  8
Layer 1
 62
   250
420
  2301728
370
    40
100
AcDb2dPolyline
 66
     1
 10
0.0
 20
0.0
 30
0.0
  0
VERTEX
  5
79
330
78
100
AcDbEntity
  8
Layer 1
 62
   250
420
  2301728
370
    40
100
AcDbVertex
100
AcDb2dVertex
 10
4.160444339342777
 20
7.957191465651097
 30
0.0
  0
VERTEX
  5
7A
330
78
100
AcDbEntity
  8
Layer 1
 62
   250
420
  2301728
370
    40
100
AcDbVertex
100
AcDb2dVertex
 10
4.588062384095792
 20
7.608698418899216
 30
0.0
  0
VERTEX
  5
7B
330
78
100
AcDbEntity
  8
Layer 1
 62
   250
420
  2301728
370
    40
100
AcDbVertex
100
AcDb2dVertex
 10
4.587284606337662
 20
7.524757448797522
 30
0.0
  0
SEQEND
  5
7C
330
78
100
AcDbEntity
  8
Layer 1
 62
   250
420
  2301728
370
    40
  0
POLYLINE
  5
7D
330
1F
100
AcDbEntity
  8
Layer 1
 62
   250
420
  2301728
370
    40
100
AcDb2dPolyline
 66
     1
 10
0.0
 20
0.0
 30
0.0
  0
VERTEX
  5
7E
330
7D
100
AcDbEntity
  8
Layer 1
 62
   250
420
  2301728
370
    40
100
AcDbVertex
100
AcDb2dVertex
 10
6.255985953071608
 20
7.410080368361175
 30
0.0
  0
VERTEX
  5
7F
330
7D
100
AcDbEntity
  8
Layer 1
 62
   250
420
  2301728
370
    40
100
AcDbVertex
100
AcDb2dVertex
 10
6.220958176178707
 20
7.353521342012199
 30
0.0
  0
VERTEX
  5
80
330
7D
100
AcDbEntity
  8
Layer 1
 62
   250
420
  2301728
370
    40
100
AcDbVertex
100
AcDb2dVertex
 10
6.398940810571376
 20
7.295945406881249
 30
0.0
  0
SEQEND
  5
81
330
7D
100
AcDbEntity
  8
Layer 1
 62
   250
420
  2301728
370
    40
  0
POLYLINE
  5
82
330
1F
100
AcDbEntity
  8
Layer 1
 62
   250
420
  2301728
370
    25
100
AcDb2dPolyline
 66
     1
 10
0.0
 20
0.0
 30
0.0
  0
VERTEX
  5
83
330
82
100
AcDbEntity
  8
Layer 1
 62
   250
420
  2301728
370
    25
100
AcDbVertex
100
AcDb2dVertex
 10
2.855732566747014
 20
7.271816482965126
 30
0.0
  0
VERTEX
  5
84
330
82
100
AcDbEntity
  8
Layer 1
 62
   250
420
  2301728
370
    25
100
AcDbVertex
100
AcDb2dVertex
 10
6.294708174315625
 20
7.939507438320056
 30
0.0
  0
SEQEND
  5
85
330
82
100
AcDbEntity
  8
Layer 1
 62
   250
420
  2301728
370
    25
  0
POLYLINE
  5
86
330
1F
100
AcDbEntity
  8
Layer 1
 62
   250
420
  2301728
370
    40
100
AcDb2dPolyline
 66
     1
 10
0.0
 20
0.0
 30
0.0
  0
VERTEX
  5
87
330
86
100
AcDbEntity
  8
Layer 1
 62
   250
420
  2301728
370
    40
100
AcDbVertex
100
AcDb2dVertex
 10
4.576024189955458
 20
6.321330395865314
 30
0.0
  0
VERTEX
  5
88
330
86
100
AcDbEntity
  8
Layer 1
 62
   250
420
  2301728
370
    40
100
AcDbVertex
100
AcDb2dVertex
 10
4.575347106639229
 20
6.253767897572086
 30
0.0
  0
SEQEND
  5
89
330
86
100
AcDbEntity
  8
Layer 1
 62
   250
420
  2301728
370
    40
  0
SPLINE
  5
8A
330
1F
100
AcDbEntity
  8
Layer 1
 62
   250
420
  2301728
370
    18
100
AcDbSpline
210
0.0
220
0.0
230
1.0
 70
     8
 71
     3
 72
    11
 73
     7
 74
     0
 42
0.0000000001
 43
0.0000000001
 12
1.0
 22
0.0
 32
0.0
 13
1.0
 23
0.0
 33
0.0
 40
0.0
 40
0.0
 40
0.0
 40
0.0
 40
1.0
 40
1.0
 40
1.0
 40
2.0
 40
2.0
 40
2.0
 40
2.0
 10
2.785524235187293
 20
5.93711512779363
 30
0.0
 10
2.799326318171956
 20
5.968632488108546
 30
0.0
 10
2.805024470943825
 20
5.983705404394438
 30
0.0
 10
2.810246456784992
 20
6.012424153668942
 30
0.0
 10
2.815517289985173
 20
6.04114637516558
 30
0.0
 10
2.829656178516871
 20
6.13598665054749
 30
0.0
 10
2.847798539169667
 20
6.150247066853908
 30
0.0
  0
SPLINE
  5
8B
330
1F
100
AcDbEntity
  8
Layer 1
 62
   250
420
  2301728
370
    18
100
AcDbSpline
210
0.0
220
0.0
230
1.0
 70
     8
 71
     3
 72
    14
 73
    10
 74
     0
 42
0.0000000001
 43
0.0000000001
 12
1.0
 22
0.0
 32
0.0
 13
1.0
 23
0.0
 33
0.0
 40
0.0
 40
0.0
 40
0.0
 40
0.0
 40
1.0
 40
1.0
 40
1.0
 40
2.0
 40
2.0
 40
2.0
 40
3.0
 40
3.0
 40
3.0
 40
3.0
 10
2.728982804277166
 20
5.993521376368689
 30
0.0
 10
2.741833264068797
 20
6.016292629103443
 30
0.0
 10
2.75680548591279
 20
6.08758387399247
 30
0.0
 10
2.760840208033086
 20
6.115049151076416
 30
0.0
 10
2.764892291264055
 20
6.142465817050479
 30
0.0
 10
2.772284652188419
 20
6.217233176272808
 30
0.0
 10
2.782472151931061
 20
6.24610470332123
 30
0.0
 10
2.792663359832709
 20
6.275045674812342
 30
0.0
 10
2.826604095260639
 20
6.409035684659051
 30
0.0
 10
2.835183956155005
 20
6.413004004660555
 30
0.0
  0
SPLINE
  5
8C
330
1F
100
AcDbEntity
  8
Layer 1
 62
   250
420
  2301728
370
    18
100
AcDbSpline
210
0.0
220
0.0
230
1.0
 70
     8
 71
     3
 72
    14
 73
    10
 74
     0
 42
0.0000000001
 43
0.0000000001
 12
1.0
 22
0.0
 32
0.0
 13
1.0
 23
0.0
 33
0.0
 40
0.0
 40
0.0
 40
0.0
 40
0.0
 40
1.0
 40
1.0
 40
1.0
 40
2.0
 40
2.0
 40
2.0
 40
3.0
 40
3.0
 40
3.0
 40
3.0
 10
2.662249932745908
 20
6.057066513652292
 30
0.0
 10
2.677427015695836
 20
6.086125540695977
 30
0.0
 10
2.695124931915416
 20
6.150024844637301
 30
0.0
 10
2.695194376358106
 20
6.183576927123037
 30
0.0
 10
2.695295070799994
 20
6.21708039849889
 30
0.0
 10
2.725236042265856
 20
6.323619017992364
 30
0.0
 10
2.730763819903991
 20
6.343660256412325
 30
0.0
 10
2.736274470943752
 20
6.363715811461234
 30
0.0
 10
2.765111041258529
 20
6.465254003340609
 30
0.0
 10
2.771131874439763
 20
6.470444975431696
 30
0.0
  0
SPLINE
  5
8D
330
1F
100
AcDbEntity
  8
Layer 1
 62
   250
420
  2301728
370
    18
100
AcDbSpline
210
0.0
220
0.0
230
1.0
 70
     8
 71
     3
 72
     8
 73
     4
 74
     0
 42
0.0000000001
 43
0.0000000001
 12
1.0
 22
0.0
 32
0.0
 13
1.0
 23
0.0
 33
0.0
 40
0.0
 40
0.0
 40
0.0
 40
0.0
 40
1.0
 40
1.0
 40
1.0
 40
1.0
 10
2.774930485454913
 20
6.468698447698038
 30
0.0
 10
2.780947846414013
 20
6.474497058662664
 30
0.0
 10
2.843440900390861
 20
6.53493846243676
 30
0.0
 10
2.846222150320601
 20
6.544348184659055
 30
0.0
  0
SPLINE
  5
8E
330
1F
100
AcDbEntity
  8
Layer 1
 62
   250
420
  2301728
370
    18
100
AcDbSpline
210
0.0
220
0.0
230
1.0
 70
     8
 71
     3
 72
     8
 73
     4
 74
     0
 42
0.0000000001
 43
0.0000000001
 12
1.0
 22
0.0
 32
0.0
 13
1.0
 23
0.0
 33
0.0
 40
0.0
 40
0.0
 40
0.0
 40
0.0
 40
1.0
 40
1.0
 40
1.0
 40
1.0
 10
2.709739514879554
 20
6.524816501835933
 30
0.0
 10
2.722878403436526
 20
6.538920668146298
 30
0.0
 10
2.780454790870913
 20
6.580000528219657
 30
0.0
 10
2.790187429513935
 20
6.586528305832517
 30
0.0
  0
SPLINE
  5
8F
330
1F
100
AcDbEntity
  8
Layer 1
 62
   250
420
  2301728
370
    18
100
AcDbSpline
210
0.0
220
0.0
230
1.0
 70
     8
 71
     3
 72
    17
 73
    13
 74
     0
 42
0.0000000001
 43
0.0000000001
 12
1.0
 22
0.0
 32
0.0
 13
1.0
 23
0.0
 33
0.0
 40
0.0
 40
0.0
 40
0.0
 40
0.0
 40
1.0
 40
1.0
 40
1.0
 40
2.0
 40
2.0
 40
2.0
 40
3.0
 40
3.0
 40
3.0
 40
4.0
 40
4.0
 40
4.0
 40
4.0
 10
2.590381879005892
 20
6.126646373005668
 30
0.0
 10
2.597944378814848
 20
6.142431094829135
 30
0.0
 10
2.619986044924695
 20
6.187222760364269
 30
0.0
 10
2.621069378230661
 20
6.210229704227509
 30
0.0
 10
2.622121461537416
 20
6.233219286980076
 30
0.0
 10
2.63415965567775
 20
6.299444979751519
 30
0.0
 10
2.642788127681999
 20
6.320212340338003
 30
0.0
 10
2.651367988576365
 20
6.340997062035158
 30
0.0
 10
2.664895766012402
 20
6.400424573547904
 30
0.0
 10
2.671659654730421
 20
6.419920671152491
 30
0.0
 10
2.678458265669797
 20
6.43935122621719
 30
0.0
 10
2.703705026499342
 20
6.519035684659027
 30
0.0
 10
2.705364514990075
 20
6.525323446267571
 30
0.0
  0
SPLINE
  5
90
330
1F
100
AcDbEntity
  8
Layer 1
 62
   250
420
  2301728
370
    18
100
AcDbSpline
210
0.0
220
0.0
230
1.0
 70
     8
 71
     3
 72
    14
 73
    10
 74
     0
 42
0.0000000001
 43
0.0000000001
 12
1.0
 22
0.0
 32
0.0
 13
1.0
 23
0.0
 33
0.0
 40
0.0
 40
0.0
 40
0.0
 40
0.0
 40
1.0
 40
1.0
 40
1.0
 40
2.0
 40
2.0
 40
2.0
 40
3.0
 40
3.0
 40
3.0
 40
3.0
 10
2.530635352737439
 20
6.186069982615613
 30
0.0
 10
2.5420624357821
 20
6.214993592996052
 30
0.0
 10
2.5567638242996
 20
6.293694979896777
 30
0.0
 10
2.5616943797306
 20
6.313719284946475
 30
0.0
 10
2.56657979627385
 20
6.333757906881247
 30
0.0
 10
2.58519437913694
 20
6.4262609487701
 30
0.0
 10
2.592604101171976
 20
6.445115114960471
 30
0.0
 10
2.600062434316897
 20
6.464000962436797
 30
0.0
 10
2.63359715569196
 20
6.573153306170398
 30
0.0
 10
2.640718915388232
 20
6.58271624021457
 30
0.0
  0
SPLINE
  5
91
330
1F
100
AcDbEntity
  8
Layer 1
 62
   250
420
  2301728
370
    18
100
AcDbSpline
210
0.0
220
0.0
230
1.0
 70
     8
 71
     3
 72
     8
 73
     4
 74
     0
 42
0.0000000001
 43
0.0000000001
 12
1.0
 22
0.0
 32
0.0
 13
1.0
 23
0.0
 33
0.0
 40
0.0
 40
0.0
 40
0.0
 40
0.0
 40
1.0
 40
1.0
 40
1.0
 40
1.0
 10
2.641347155496179
 20
6.582729694817367
 30
0.0
 10
2.658774470943778
 20
6.599448444395016
 30
0.0
 10
2.715249931407016
 20
6.635528740214593
 30
0.0
 10
2.721847153462578
 20
6.643156776624184
 30
0.0
  0
SPLINE
  5
92
330
1F
100
AcDbEntity
  8
Layer 1
 62
   250
420
  2301728
370
    18
100
AcDbSpline
210
0.0
220
0.0
230
1.0
 70
     8
 71
     3
 72
    14
 73
    10
 74
     0
 42
0.0000000001
 43
0.0000000001
 12
1.0
 22
0.0
 32
0.0
 13
1.0
 23
0.0
 33
0.0
 40
0.0
 40
0.0
 40
0.0
 40
0.0
 40
1.0
 40
1.0
 40
1.0
 40
2.0
 40
2.0
 40
2.0
 40
3.0
 40
3.0
 40
3.0
 40
3.0
 10
2.454239521334026
 20
6.260431091848204
 30
0.0
 10
2.472041604217641
 20
6.303240118544535
 30
0.0
 10
2.486774242734353
 20
6.345306089704081
 30
0.0
 10
2.490520770417485
 20
6.363445406881257
 30
0.0
 10
2.494201325880062
 20
6.381622061008884
 30
0.0
 10
2.5148332698033
 20
6.487820406881231
 30
0.0
 10
2.523989519572006
 20
6.510455391087614
 30
0.0
 10
2.533145769340687
 20
6.533122057181672
 30
0.0
 10
2.56372910190142
 20
6.637833860091986
 30
0.0
 10
2.566545074052505
 20
6.645986637663807
 30
0.0
  0
SPLINE
  5
93
330
1F
100
AcDbEntity
  8
Layer 1
 62
   250
420
  2301728
370
    18
100
AcDbSpline
210
0.0
220
0.0
230
1.0
 70
     8
 71
     3
 72
     8
 73
     4
 74
     0
 42
0.0000000001
 43
0.0000000001
 12
1.0
 22
0.0
 32
0.0
 13
1.0
 23
0.0
 33
0.0
 40
0.0
 40
0.0
 40
0.0
 40
0.0
 40
1.0
 40
1.0
 40
1.0
 40
1.0
 10
2.561392296404897
 20
6.652007470845041
 30
0.0
 10
2.575836740484445
 20
6.665535248281079
 30
0.0
 10
2.632732804277111
 20
6.709160247179018
 30
0.0
 10
2.647499933118524
 20
6.713378997072444
 30
0.0
  0
SPLINE
  5
94
330
1F
100
AcDbEntity
  8
Layer 1
 62
   250
420
  2301728
370
    18
100
AcDbSpline
210
0.0
220
0.0
230
1.0
 70
     8
 71
     3
 72
    14
 73
    10
 74
     0
 42
0.0000000001
 43
0.0000000001
 12
1.0
 22
0.0
 32
0.0
 13
1.0
 23
0.0
 33
0.0
 40
0.0
 40
0.0
 40
0.0
 40
0.0
 40
1.0
 40
1.0
 40
1.0
 40
2.0
 40
2.0
 40
2.0
 40
3.0
 40
3.0
 40
3.0
 40
3.0
 10
2.404242994819267
 20
6.380399838817539
 30
0.0
 10
2.414718688999073
 20
6.401865116053058
 30
0.0
 10
2.432097160782278
 20
6.437823448478007
 30
0.0
 10
2.433218915388251
 20
6.459608170149901
 30
0.0
 10
2.434336744059035
 20
6.481362073547908
 30
0.0
 10
2.449409660344928
 20
6.548281779020928
 30
0.0
 10
2.457444382364176
 20
6.569660684658983
 30
0.0
 10
2.465378409941523
 20
6.591038722385242
 30
0.0
 10
2.500305492392525
 20
6.696510941943011
 30
0.0
 10
2.502694381221065
 20
6.699070406881269
 30
0.0
  0
SPLINE
  5
95
330
1F
100
AcDbEntity
  8
Layer 1
 62
   250
420
  2301728
370
    18
100
AcDbSpline
210
0.0
220
0.0
230
1.0
 70
     8
 71
     3
 72
     8
 73
     4
 74
     0
 42
0.0000000001
 43
0.0000000001
 12
1.0
 22
0.0
 32
0.0
 13
1.0
 23
0.0
 33
0.0
 40
0.0
 40
0.0
 40
0.0
 40
0.0
 40
1.0
 40
1.0
 40
1.0
 40
1.0
 10
2.500052020176705
 20
6.703955386199393
 30
0.0
 10
2.513374936506807
 20
6.713719274841625
 30
0.0
 10
2.581513823674363
 20
6.758104690387022
 30
0.0
 10
2.58807632350858
 20
6.766378995733551
 30
0.0
  0
SPLINE
  5
96
330
1F
100
AcDbEntity
  8
Layer 1
 62
   250
420
  2301728
370
    18
100
AcDbSpline
210
0.0
220
0.0
230
1.0
 70
     8
 71
     3
 72
    11
 73
     7
 74
     0
 42
0.0000000001
 43
0.0000000001
 12
1.0
 22
0.0
 32
0.0
 13
1.0
 23
0.0
 33
0.0
 40
0.0
 40
0.0
 40
0.0
 40
0.0
 40
1.0
 40
1.0
 40
1.0
 40
2.0
 40
2.0
 40
2.0
 40
2.0
 10
2.406583272537925
 20
6.64118846243678
 30
0.0
 10
2.414263827899453
 20
6.65261510971858
 30
0.0
 10
2.423232577672883
 20
6.681455386767791
 30
0.0
 10
2.429621466400375
 20
6.694105129103465
 30
0.0
 10
2.436013827350002
 20
6.706715802796339
 30
0.0
 10
2.447916604827103
 20
6.739438024191915
 30
0.0
 10
2.452187438052533
 20
6.743271795770093
 30
0.0
  0
SPLINE
  5
97
330
1F
100
AcDbEntity
  8
Layer 1
 62
   250
420
  2301728
370
    18
100
AcDbSpline
210
0.0
220
0.0
230
1.0
 70
     8
 71
     3
 72
    11
 73
     7
 74
     0
 42
0.0000000001
 43
0.0000000001
 12
1.0
 22
0.0
 32
0.0
 13
1.0
 23
0.0
 33
0.0
 40
0.0
 40
0.0
 40
0.0
 40
0.0
 40
1.0
 40
1.0
 40
1.0
 40
2.0
 40
2.0
 40
2.0
 40
2.0
 10
2.449475632565484
 20
6.748153301749526
 30
0.0
 10
2.467041604343952
 20
6.761785245849599
 30
0.0
 10
2.490760353744766
 20
6.776264412150491
 30
0.0
 10
2.50417007562823
 20
6.78355260641082
 30
0.0
 10
2.517597158622367
 20
6.790826911782611
 30
0.0
 10
2.536298547038819
 20
6.80044149487306
 30
0.0
 10
2.546742991219415
 20
6.80327179577014
 30
0.0
  0
SPLINE
  5
98
330
1F
100
AcDbEntity
  8
Layer 1
 62
   250
420
  2301728
370
    18
100
AcDbSpline
210
0.0
220
0.0
230
1.0
 70
     8
 71
     3
 72
    11
 73
     7
 74
     0
 42
0.0000000001
 43
0.0000000001
 12
1.0
 22
0.0
 32
0.0
 13
1.0
 23
0.0
 33
0.0
 40
0.0
 40
0.0
 40
0.0
 40
0.0
 40
1.0
 40
1.0
 40
1.0
 40
2.0
 40
2.0
 40
2.0
 40
2.0
 10
2.360770773695246
 20
6.974712323803942
 30
0.0
 10
2.371027717880578
 20
6.990361628964163
 30
0.0
 10
2.373437440041926
 20
7.010216240214554
 30
0.0
 10
2.393628411754081
 20
7.023302600354226
 30
0.0
 10
2.413888827908926
 20
7.036375516690643
 30
0.0
 10
2.464871465509885
 20
7.106448431587118
 30
0.0
 10
2.469617993167756
 20
7.11322968141581
 30
0.0
  0
SPLINE
  5
99
330
1F
100
AcDbEntity
  8
Layer 1
 62
   250
420
  2301728
370
    18
100
AcDbSpline
210
0.0
220
0.0
230
1.0
 70
     8
 71
     3
 72
    14
 73
    10
 74
     0
 42
0.0000000001
 43
0.0000000001
 12
1.0
 22
0.0
 32
0.0
 13
1.0
 23
0.0
 33
0.0
 40
0.0
 40
0.0
 40
0.0
 40
0.0
 40
1.0
 40
1.0
 40
1.0
 40
2.0
 40
2.0
 40
2.0
 40
3.0
 40
3.0
 40
3.0
 40
3.0
 10
2.414940911215682
 20
6.920917186274032
 30
0.0
 10
2.417840216697995
 20
6.932615102645185
 30
0.0
 10
2.427027716465899
 20
6.942549130172008
 30
0.0
 10
2.435777716244855
 20
6.951910241046638
 30
0.0
 10
2.444524243801677
 20
6.961285240809805
 30
0.0
 10
2.476687437433611
 20
6.989733156757817
 30
0.0
 10
2.487045076060844
 20
7.00082343425543
 30
0.0
 10
2.497440909131556
 20
7.01191023953091
 30
0.0
 10
2.533604102662442
 20
7.056601210624144
 30
0.0
 10
2.533604102662442
 20
7.056601210624144
 30
0.0
  0
SPLINE
  5
9A
330
1F
100
AcDbEntity
  8
Layer 1
 62
   250
420
  2301728
370
    18
100
AcDbSpline
210
0.0
220
0.0
230
1.0
 70
     8
 71
     3
 72
    23
 73
    19
 74
     0
 42
0.0000000001
 43
0.0000000001
 12
1.0
 22
0.0
 32
0.0
 13
1.0
 23
0.0
 33
0.0
 40
0.0
 40
0.0
 40
0.0
 40
0.0
 40
1.0
 40
1.0
 40
1.0
 40
2.0
 40
2.0
 40
2.0
 40
3.0
 40
3.0
 40
3.0
 40
4.0
 40
4.0
 40
4.0
 40
5.0
 40
5.0
 40
5.0
 40
6.0
 40
6.0
 40
6.0
 40
6.0
 10
2.491097159291813
 20
6.852948437991067
 30
0.0
 10
2.502763825663755
 20
6.875292187426616
 30
0.0
 10
2.517124936412074
 20
6.895892881350644
 30
0.0
 10
2.525430491757814
 20
6.90735468661665
 30
0.0
 10
2.53375688043636
 20
6.918830380771194
 30
0.0
 10
2.591197851207501
 20
6.989733156757817
 30
0.0
 10
2.597555489935783
 20
7.000837323143969
 30
0.0
 10
2.602624934252162
 20
7.009705378475498
 30
0.0
 10
2.612965211768723
 20
7.021236628184194
 30
0.0
 10
2.61572910058779
 20
7.03829218330889
 30
0.0
 10
2.618492989406857
 20
7.055330377322914
 30
0.0
 10
2.630055489114764
 20
7.103361626109542
 30
0.0
 10
2.63778812780831
 20
7.120146795770122
 30
0.0
 10
2.645517294279721
 20
7.136931069705952
 30
0.0
 10
2.674458265770833
 20
7.223990095284433
 30
0.0
 10
2.678104099012065
 20
7.237774817158424
 30
0.0
 10
2.681749932253297
 20
7.251573427920952
 30
0.0
 10
2.72932284771817
 20
7.373559535950435
 30
0.0
 10
2.730899236567236
 20
7.376510924764766
 30
0.0
  0
SPLINE
  5
9B
330
1F
100
AcDbEntity
  8
Layer 1
 62
   250
420
  2301728
370
    18
100
AcDbSpline
210
0.0
220
0.0
230
1.0
 70
     8
 71
     3
 72
    11
 73
     7
 74
     0
 42
0.0000000001
 43
0.0000000001
 12
1.0
 22
0.0
 32
0.0
 13
1.0
 23
0.0
 33
0.0
 40
0.0
 40
0.0
 40
0.0
 40
0.0
 40
1.0
 40
1.0
 40
1.0
 40
2.0
 40
2.0
 40
2.0
 40
2.0
 10
2.554607804277111
 20
6.796267883867383
 30
0.0
 10
2.566867990711014
 20
6.813240105660851
 30
0.0
 10
2.586329795774911
 20
6.832399827399058
 30
0.0
 10
2.59289229560914
 20
6.845910684659025
 30
0.0
 10
2.599454795443358
 20
6.859406771161249
 30
0.0
 10
2.643465210998228
 20
6.939924130238321
 30
0.0
 10
2.658555488394793
 20
6.946635935624322
 30
0.0
  0
SPLINE
  5
9C
330
1F
100
AcDbEntity
  8
Layer 1
 62
   250
420
  2301728
370
    18
100
AcDbSpline
210
0.0
220
0.0
230
1.0
 70
     8
 71
     3
 72
    14
 73
    10
 74
     0
 42
0.0000000001
 43
0.0000000001
 12
1.0
 22
0.0
 32
0.0
 13
1.0
 23
0.0
 33
0.0
 40
0.0
 40
0.0
 40
0.0
 40
0.0
 40
1.0
 40
1.0
 40
1.0
 40
2.0
 40
2.0
 40
2.0
 40
3.0
 40
3.0
 40
3.0
 40
3.0
 10
2.615371693166
 20
6.742031774126391
 30
0.0
 10
2.629784655788272
 20
6.756205384879447
 30
0.0
 10
2.639565905541177
 20
6.762684551382436
 30
0.0
 10
2.642805488792672
 20
6.777688023225639
 30
0.0
 10
2.646027710933494
 20
6.792708856179514
 30
0.0
 10
2.655468682917217
 20
6.804983161424994
 30
0.0
 10
2.664183960474828
 20
6.817698438881557
 30
0.0
 10
2.672881876921767
 20
6.830399827449583
 30
0.0
 10
2.717201320246608
 20
6.88899357596938
 30
0.0
 10
2.718690903542311
 20
6.894045659175086
 30
0.0
  0
SPLINE
  5
9D
330
1F
100
AcDbEntity
  8
Layer 1
 62
   250
420
  2301728
370
    18
100
AcDbSpline
210
0.0
220
0.0
230
1.0
 70
     8
 71
     3
 72
    14
 73
    10
 74
     0
 42
0.0000000001
 43
0.0000000001
 12
1.0
 22
0.0
 32
0.0
 13
1.0
 23
0.0
 33
0.0
 40
0.0
 40
0.0
 40
0.0
 40
0.0
 40
1.0
 40
1.0
 40
1.0
 40
2.0
 40
2.0
 40
2.0
 40
3.0
 40
3.0
 40
3.0
 40
3.0
 10
2.676121460173261
 20
6.6877956643854
 30
0.0
 10
2.689343682061462
 20
6.702292191796964
 30
0.0
 10
2.705774237201947
 20
6.713972747057444
 30
0.0
 10
2.712791598135798
 20
6.727063024504534
 30
0.0
 10
2.719795070181084
 20
6.740149829729489
 30
0.0
 10
2.730340208803581
 20
6.75747969040281
 30
0.0
 10
2.741562430742306
 20
6.768632467898846
 30
0.0
 10
2.752770763792505
 20
6.779740106507132
 30
0.0
 10
2.783982804277154
 20
6.824667188705511
 30
0.0
 10
2.792545068343265
 20
6.828260938614726
 30
0.0
  0
SPLINE
  5
9E
330
1F
100
AcDbEntity
  8
Layer 1
 62
   250
420
  2301728
370
    18
100
AcDbSpline
210
0.0
220
0.0
230
1.0
 70
     8
 71
     3
 72
    14
 73
    10
 74
     0
 42
0.0000000001
 43
0.0000000001
 12
1.0
 22
0.0
 32
0.0
 13
1.0
 23
0.0
 33
0.0
 40
0.0
 40
0.0
 40
0.0
 40
0.0
 40
1.0
 40
1.0
 40
1.0
 40
2.0
 40
2.0
 40
2.0
 40
3.0
 40
3.0
 40
3.0
 40
3.0
 10
2.78177770750416
 20
6.84029913275506
 30
0.0
 10
2.788086735122559
 20
6.860830382236397
 30
0.0
 10
2.800920068131695
 20
6.899299131264595
 30
0.0
 10
2.804461734708891
 20
6.915594269741834
 30
0.0
 10
2.808041595729567
 20
6.931819963776383
 30
0.0
 10
2.812888817829339
 20
6.94728176894134
 30
0.0
 10
2.820520762080984
 20
6.966573435120658
 30
0.0
 10
2.828149470943825
 20
6.985885934632783
 30
0.0
 10
2.841694372657205
 20
7.012844267285092
 30
0.0
 10
2.852256872390373
 20
7.018979683796765
 30
0.0
  0
SPLINE
  5
9F
330
1F
100
AcDbEntity
  8
Layer 1
 62
   250
420
  2301728
370
    18
100
AcDbSpline
210
0.0
220
0.0
230
1.0
 70
     8
 71
     3
 72
    20
 73
    16
 74
     0
 42
0.0000000001
 43
0.0000000001
 12
1.0
 22
0.0
 32
0.0
 13
1.0
 23
0.0
 33
0.0
 40
0.0
 40
0.0
 40
0.0
 40
0.0
 40
1.0
 40
1.0
 40
1.0
 40
2.0
 40
2.0
 40
2.0
 40
3.0
 40
3.0
 40
3.0
 40
4.0
 40
4.0
 40
4.0
 40
5.0
 40
5.0
 40
5.0
 40
5.0
 10
2.717385582054905
 20
6.896469270224972
 30
0.0
 10
2.722795070105285
 20
6.908267881038025
 30
0.0
 10
2.729558958823317
 20
6.927903297208672
 30
0.0
 10
2.733729097606859
 20
6.938802602488876
 30
0.0
 10
2.737885347501863
 20
6.949740102212571
 30
0.0
 10
2.749142291661933
 20
6.984493573556847
 30
0.0
 10
2.750041597194783
 20
6.994819962184869
 30
0.0
 10
2.750923541616935
 20
7.005177600812102
 30
0.0
 10
2.755992985933315
 20
7.026848184659027
 30
0.0
 10
2.761399235796742
 20
7.037816488876463
 30
0.0
 10
2.766808957882303
 20
7.048802599710042
 30
0.0
 10
2.792475623900575
 20
7.110024820385661
 30
0.0
 10
2.79810409598061
 20
7.127215792173602
 30
0.0
 10
2.803736040282779
 20
7.144372041740199
 30
0.0
 10
2.847881872500895
 20
7.234010928364619
 30
0.0
 10
2.855104094540668
 20
7.240875962436803
 30
0.0
  0
SPLINE
  5
A0
330
1F
100
AcDbEntity
  8
Layer 1
 62
   250
420
  2301728
370
    18
100
AcDbSpline
210
0.0
220
0.0
230
1.0
 70
     8
 71
     3
 72
    17
 73
    13
 74
     0
 42
0.0000000001
 43
0.0000000001
 12
1.0
 22
0.0
 32
0.0
 13
1.0
 23
0.0
 33
0.0
 40
0.0
 40
0.0
 40
0.0
 40
0.0
 40
1.0
 40
1.0
 40
1.0
 40
2.0
 40
2.0
 40
2.0
 40
3.0
 40
3.0
 40
3.0
 40
4.0
 40
4.0
 40
4.0
 40
4.0
 10
2.655961970943786
 20
6.950705379965964
 30
0.0
 10
2.663319377163336
 20
6.965420657372002
 30
0.0
 10
2.680475859832667
 20
7.009809545139533
 30
0.0
 10
2.684055487750609
 20
7.025253989193819
 30
0.0
 10
2.687666598770496
 20
7.040698433248116
 30
0.0
 10
2.714725625864705
 20
7.133538708680539
 30
0.0
 10
2.722930486768544
 20
7.147882458318185
 30
0.0
 10
2.731135582054927
 20
7.162191485734486
 30
0.0
 10
2.748989513888015
 20
7.209545651204886
 30
0.0
 10
2.751906180481001
 20
7.221243567576039
 30
0.0
 10
2.754822847073986
 20
7.232941483947191
 30
0.0
 10
2.78742354069488
 20
7.320139398411053
 30
0.0
 10
2.79257979056461
 20
7.326510926027872
 30
0.0
  0
SPLINE
  5
A1
330
1F
100
AcDbEntity
  8
Layer 1
 62
   250
420
  2301728
370
    18
100
AcDbSpline
210
0.0
220
0.0
230
1.0
 70
     8
 71
     3
 72
    14
 73
    10
 74
     0
 42
0.0000000001
 43
0.0000000001
 12
1.0
 22
0.0
 32
0.0
 13
1.0
 23
0.0
 33
0.0
 40
0.0
 40
0.0
 40
0.0
 40
0.0
 40
1.0
 40
1.0
 40
1.0
 40
2.0
 40
2.0
 40
2.0
 40
3.0
 40
3.0
 40
3.0
 40
3.0
 10
2.537774241445984
 20
7.055941488418587
 30
0.0
 10
2.542451324661164
 20
7.063924127105818
 30
0.0
 10
2.564086970943764
 20
7.110549125927971
 30
0.0
 10
2.570833268388621
 20
7.129878986550769
 30
0.0
 10
2.577649240438657
 20
7.149153291619414
 30
0.0
 10
2.601878406493256
 20
7.240181517992369
 30
0.0
 10
2.610236045171
 20
7.26278176097114
 30
0.0
 10
2.618545072738875
 20
7.285417177065987
 30
0.0
 10
2.669881876997553
 20
7.418795645918786
 30
0.0
 10
2.673388821353405
 20
7.425118562425723
 30
0.0
  0
SPLINE
  5
A2
330
1F
100
AcDbEntity
  8
Layer 1
 62
   250
420
  2301728
370
    18
100
AcDbSpline
210
0.0
220
0.0
230
1.0
 70
     8
 71
     3
 72
    14
 73
    10
 74
     0
 42
0.0000000001
 43
0.0000000001
 12
1.0
 22
0.0
 32
0.0
 13
1.0
 23
0.0
 33
0.0
 40
0.0
 40
0.0
 40
0.0
 40
0.0
 40
1.0
 40
1.0
 40
1.0
 40
2.0
 40
2.0
 40
2.0
 40
3.0
 40
3.0
 40
3.0
 40
3.0
 10
2.47509391538823
 20
7.110431070375398
 30
0.0
 10
2.484843687227567
 20
7.127369017992351
 30
0.0
 10
2.507069381110543
 20
7.181875513015004
 30
0.0
 10
2.511715214326513
 20
7.201917629103465
 30
0.0
 10
2.516395769763828
 20
7.22193801200294
 30
0.0
 10
2.535198082054901
 20
7.278889399453115
 30
0.0
 10
2.542673546877773
 20
7.301472732215946
 30
0.0
 10
2.550166602244038
 20
7.324070406881269
 30
0.0
 10
2.607319378578015
 20
7.481608144332009
 30
0.0
 10
2.607319378578015
 20
7.481608144332009
 30
0.0
  0
SPLINE
  5
A3
330
1F
100
AcDbEntity
  8
Layer 1
 62
   250
420
  2301728
370
    18
100
AcDbSpline
210
0.0
220
0.0
230
1.0
 70
     8
 71
     3
 72
    17
 73
    13
 74
     0
 42
0.0000000001
 43
0.0000000001
 12
1.0
 22
0.0
 32
0.0
 13
1.0
 23
0.0
 33
0.0
 40
0.0
 40
0.0
 40
0.0
 40
0.0
 40
1.0
 40
1.0
 40
1.0
 40
2.0
 40
2.0
 40
2.0
 40
3.0
 40
3.0
 40
3.0
 40
4.0
 40
4.0
 40
4.0
 40
4.0
 10
2.418805494451388
 20
7.159903740214607
 30
0.0
 10
2.426010355380488
 20
7.177924573547898
 30
0.0
 10
2.430538133043885
 20
7.203712318018916
 30
0.0
 10
2.439913132807053
 20
7.220615095369693
 30
0.0
 10
2.44928813257022
 20
7.237451900499915
 30
0.0
 10
2.462073082054897
 20
7.2867366214771
 30
0.0
 10
2.46677077101746
 20
7.306760926526799
 30
0.0
 10
2.471499937564658
 20
7.326785231576499
 30
0.0
 10
2.507121464442561
 20
7.447955367404372
 30
0.0
 10
2.511562436552595
 20
7.462604672589855
 30
0.0
 10
2.516055491994658
 20
7.477302588885221
 30
0.0
 10
2.532194380475832
 20
7.526605129103447
 30
0.0
 10
2.539992991389934
 20
7.539712309530842
 30
0.0
  0
SPLINE
  5
A4
330
1F
100
AcDbEntity
  8
Layer 1
 62
   250
420
  2301728
370
    18
100
AcDbSpline
210
0.0
220
0.0
230
1.0
 70
     8
 71
     3
 72
    14
 73
    10
 74
     0
 42
0.0000000001
 43
0.0000000001
 12
1.0
 22
0.0
 32
0.0
 13
1.0
 23
0.0
 33
0.0
 40
0.0
 40
0.0
 40
0.0
 40
0.0
 40
1.0
 40
1.0
 40
1.0
 40
2.0
 40
2.0
 40
2.0
 40
3.0
 40
3.0
 40
3.0
 40
3.0
 10
2.411972161290679
 20
7.371542174890287
 30
0.0
 10
2.419857577758143
 20
7.385462313427524
 30
0.0
 10
2.432642299657409
 20
7.435951895485383
 30
0.0
 10
2.436253410677283
 20
7.450990089549931
 30
0.0
 10
2.439847160586497
 20
7.465993561393134
 30
0.0
 10
2.446135582054871
 20
7.511736615793122
 30
0.0
 10
2.451458271404287
 20
7.527215782068752
 30
0.0
 10
2.45671521571593
 20
7.542694948344383
 30
0.0
 10
2.470329798705329
 20
7.592406752644112
 30
0.0
 10
2.474381881936311
 20
7.594642863698734
 30
0.0
  0
POLYLINE
  5
A5
330
1F
100
AcDbEntity
  8
Layer 1
 62
   250
420
  2301728
370
    30
100
AcDb2dPolyline
 66
     1
 10
0.0
 20
0.0
 30
0.0
  0
VERTEX
  5
A6
330
A5
100
AcDbEntity
  8
Layer 1
 62
   250
420
  2301728
370
    30
100
AcDbVertex
100
AcDb2dVertex
 10
3.678996434838508
 20
6.128052622970143
 30
0.0
  0
VERTEX
  5
A7
330
A5
100
AcDbEntity
  8
Layer 1
 62
   250
420
  2301728
370
    30
100
AcDbVertex
100
AcDb2dVertex
 10
3.684385323591262
 20
7.310507454209932
 30
0.0
  0
VERTEX
  5
A8
330
A5
100
AcDbEntity
  8
Layer 1
 62
   250
420
  2301728
370
    30
100
AcDbVertex
100
AcDb2dVertex
 10
5.555638748541646
 20
7.679413694890576
 30
0.0
  0
SEQEND
  5
A9
330
A5
100
AcDbEntity
  8
Layer 1
 62
   250
420
  2301728
370
    30
  0
POLYLINE
  5
AA
330
1F
100
AcDbEntity
  8
Layer 1
 62
   250
420
  2301728
370
    30
100
AcDb2dPolyline
 66
     1
 10
0.0
 20
0.0
 30
0.0
  0
VERTEX
  5
AB
330
AA
100
AcDbEntity
  8
Layer 1
 62
   250
420
  2301728
370
    30
100
AcDbVertex
100
AcDb2dVertex
 10
3.684354073592051
 20
7.310389851325706
 30
0.0
  0
VERTEX
  5
AC
330
AA
100
AcDbEntity
  8
Layer 1
 62
   250
420
  2301728
370
    30
100
AcDbVertex
100
AcDb2dVertex
 10
3.65171518552769
 20
7.336719259103321
 30
0.0
  0
SEQEND
  5
AD
330
AA
100
AcDbEntity
  8
Layer 1
 62
   250
420
  2301728
370
    30
  0
SPLINE
  5
AE
330
1F
100
AcDbEntity
  8
Layer 1
 62
   250
420
  2301728
370
    30
100
AcDbSpline
210
0.0
220
0.0
230
1.0
 70
    11
 71
     3
 72
    11
 73
     7
 74
     0
 42
0.0000000001
 43
0.0000000001
 12
1.0
 22
0.0
 32
0.0
 13
1.0
 23
0.0
 33
0.0
 40
0.0
 40
0.0
 40
0.0
 40
0.0
 40
1.0
 40
1.0
 40
1.0
 40
2.0
 40
2.0
 40
2.0
 40
2.0
 10
4.605829744758062
 20
7.421201895857999
 30
0.0
 10
4.626513772013317
 20
7.421913701395574
 30
0.0
 10
4.634347105148763
 20
7.379122035809915
 30
0.0
 10
4.610444327974821
 20
7.378306517992364
 30
0.0
 10
4.586538078578744
 20
7.377493563628832
 30
0.0
 10
4.585114467503596
 20
7.420507451431098
 30
0.0
 10
4.605829744758062
 20
7.421201895857999
 30
0.0
  0
SPLINE
  5
AF
330
1F
100
AcDbEntity
  8
Layer 1
 62
   250
420
  2301728
370
    30
100
AcDbSpline
210
0.0
220
0.0
230
1.0
 70
    11
 71
     3
 72
    11
 73
     7
 74
     0
 42
0.0000000001
 43
0.0000000001
 12
1.0
 22
0.0
 32
0.0
 13
1.0
 23
0.0
 33
0.0
 40
0.0
 40
0.0
 40
0.0
 40
0.0
 40
1.0
 40
1.0
 40
1.0
 40
2.0
 40
2.0
 40
2.0
 40
2.0
 10
4.603659605923995
 20
7.201052595863883
 30
0.0
 10
4.624378355400595
 20
7.201747040290784
 30
0.0
 10
4.632246693166053
 20
7.158969263593664
 30
0.0
 10
4.608305439139965
 20
7.158139402503517
 30
0.0
 10
4.584402661966022
 20
7.157344263634715
 30
0.0
 10
4.582975859832711
 20
7.200340790326309
 30
0.0
 10
4.603659605923995
 20
7.201052595863883
 30
0.0
  0
SPLINE
  5
B0
330
1F
100
AcDbEntity
  8
Layer 1
 62
   250
420
  2301728
370
    30
100
AcDbSpline
210
0.0
220
0.0
230
1.0
 70
    11
 71
     3
 72
    11
 73
     7
 74
     0
 42
0.0000000001
 43
0.0000000001
 12
1.0
 22
0.0
 32
0.0
 13
1.0
 23
0.0
 33
0.0
 40
0.0
 40
0.0
 40
0.0
 40
0.0
 40
1.0
 40
1.0
 40
1.0
 40
2.0
 40
2.0
 40
2.0
 40
2.0
 10
4.602541550396684
 20
6.953875518774768
 30
0.0
 10
4.623225577651939
 20
6.954552602090997
 30
0.0
 10
4.631058910787386
 20
6.911744017992381
 30
0.0
 10
4.607152661391309
 20
6.910931075415192
 30
0.0
 10
4.583249884217366
 20
6.910118575435718
 30
0.0
 10
4.581822800920084
 20
6.953163713237195
 30
0.0
 10
4.602541550396684
 20
6.953875518774768
 30
0.0
  0
SPLINE
  5
B1
330
1F
100
AcDbEntity
  8
Layer 1
 62
   250
420
  2301728
370
    30
100
AcDbSpline
210
0.0
220
0.0
230
1.0
 70
    11
 71
     3
 72
    11
 73
     7
 74
     0
 42
0.0000000001
 43
0.0000000001
 12
1.0
 22
0.0
 32
0.0
 13
1.0
 23
0.0
 33
0.0
 40
0.0
 40
0.0
 40
0.0
 40
0.0
 40
1.0
 40
1.0
 40
1.0
 40
2.0
 40
2.0
 40
2.0
 40
2.0
 10
4.602541550396684
 20
6.717840802515298
 30
0.0
 10
4.623225577651939
 20
6.718535246942186
 30
0.0
 10
4.631058910787386
 20
6.675708859135183
 30
0.0
 10
4.607152661391309
 20
6.674892886933574
 30
0.0
 10
4.583249884217366
 20
6.674115109175444
 30
0.0
 10
4.581822800920084
 20
6.717128996977711
 30
0.0
 10
4.602541550396684
 20
6.717840802515298
 30
0.0
  0
SPLINE
  5
B2
330
1F
100
AcDbEntity
  8
Layer 1
 62
   250
420
  2301728
370
    30
100
AcDbSpline
210
0.0
220
0.0
230
1.0
 70
    11
 71
     3
 72
    11
 73
     7
 74
     0
 42
0.0000000001
 43
0.0000000001
 12
1.0
 22
0.0
 32
0.0
 13
1.0
 23
0.0
 33
0.0
 40
0.0
 40
0.0
 40
0.0
 40
0.0
 40
1.0
 40
1.0
 40
1.0
 40
2.0
 40
2.0
 40
2.0
 40
2.0
 10
4.601152661542882
 20
6.476969280822433
 30
0.0
 10
4.621801966576792
 20
6.477684558582141
 30
0.0
 10
4.629701271932794
 20
6.434858170775138
 30
0.0
 10
4.605798494758852
 20
6.434059559684202
 30
0.0
 10
4.581892245362774
 20
6.433247059704727
 30
0.0
 10
4.580433912066281
 20
6.476274836395532
 30
0.0
 10
4.601152661542882
 20
6.476969280822433
 30
0.0
  0
SPLINE
  5
B3
330
1F
100
AcDbEntity
  8
Layer 1
 62
   250
420
  2301728
370
    30
100
AcDbSpline
210
0.0
220
0.0
230
1.0
 70
    11
 71
     3
 72
    17
 73
    13
 74
     0
 42
0.0000000001
 43
0.0000000001
 12
1.0
 22
0.0
 32
0.0
 13
1.0
 23
0.0
 33
0.0
 40
0.0
 40
0.0
 40
0.0
 40
0.0
 40
1.0
 40
1.0
 40
1.0
 40
2.0
 40
2.0
 40
2.0
 40
3.0
 40
3.0
 40
3.0
 40
4.0
 40
4.0
 40
4.0
 40
4.0
 10
4.609899189099703
 20
7.420726201425572
 30
0.0
 10
4.608576272466457
 20
7.421049573547911
 30
0.0
 10
4.607256828055344
 20
7.421267868078555
 30
0.0
 10
4.605829744758062
 20
7.421201895857999
 30
0.0
 10
4.593319328407435
 20
7.420778284757603
 30
0.0
 10
4.588944328517957
 20
7.404976201823451
 30
0.0
 10
4.592642245091207
 20
7.392684535467297
 30
0.0
 10
4.594065856166353
 20
7.392344257698116
 30
0.0
 10
4.595555439462057
 20
7.392142868814314
 30
0.0
 10
4.597183911643141
 20
7.39220884103487
 30
0.0
 10
4.611628355722687
 20
7.392719257688642
 30
0.0
 10
4.614409605652427
 20
7.408451896180091
 30
0.0
 10
4.609899189099703
 20
7.420726201425572
 30
0.0
  0
HATCH
  5
B4
330
1F
100
AcDbEntity
  8
Layer 1
 62
    43
420
 15510365
100
AcDbHatch
 10
0.0
 20
0.0
 30
0.0
210
0.0
220
0.0
230
1.0
  2
SOLID
 70
     1
 71
     0
 91
        1
 92
        1
 93
        1
 72
     4
 94
        3
 73
     0
 74
     1
 95
       17
 96
       13
 40
0.0
 40
0.0
 40
0.0
 40
0.0
 40
1.0
 40
1.0
 40
1.0
 40
2.0
 40
2.0
 40
2.0
 40
3.0
 40
3.0
 40
3.0
 40
4.0
 40
4.0
 40
4.0
 40
4.0
 10
4.609899189099703
 20
7.420726201425572
 10
4.608576272466457
 20
7.421049573547911
 10
4.607256828055344
 20
7.421267868078555
 10
4.605829744758062
 20
7.421201895857999
 10
4.593319328407435
 20
7.420778284757603
 10
4.588944328517957
 20
7.404976201823451
 10
4.592642245091207
 20
7.392684535467297
 10
4.594065856166353
 20
7.392344257698116
 10
4.595555439462057
 20
7.392142868814314
 10
4.597183911643141
 20
7.39220884103487
 10
4.611628355722687
 20
7.392719257688642
 10
4.614409605652427
 20
7.408451896180091
 10
4.609899189099703
 20
7.420726201425572
 97
        0
 97
        0
 75
     2
 76
     1
 98
        0
  0
SPLINE
  5
B5
330
1F
100
AcDbEntity
  8
Layer 1
 62
   250
420
  2301728
370
    30
100
AcDbSpline
210
0.0
220
0.0
230
1.0
 70
    11
 71
     3
 72
    17
 73
    13
 74
     0
 42
0.0000000001
 43
0.0000000001
 12
1.0
 22
0.0
 32
0.0
 13
1.0
 23
0.0
 33
0.0
 40
0.0
 40
0.0
 40
0.0
 40
0.0
 40
1.0
 40
1.0
 40
1.0
 40
2.0
 40
2.0
 40
2.0
 40
3.0
 40
3.0
 40
3.0
 40
4.0
 40
4.0
 40
4.0
 40
4.0
 10
4.607763772486982
 20
7.200559540320783
 30
0.0
 10
4.60647557807508
 20
7.200899818089965
 30
0.0
 10
4.605117939220488
 20
7.201101206973767
 30
0.0
 10
4.603659605923995
 20
7.201052595863883
 30
0.0
 10
4.591215161793924
 20
7.200628984763473
 30
0.0
 10
4.586808911905235
 20
7.184792179607989
 30
0.0
 10
4.59050335625635
 20
7.172500513251836
 30
0.0
 10
4.591930439553632
 20
7.172195406881251
 30
0.0
 10
4.593420022849336
 20
7.171990096598064
 30
0.0
 10
4.595114467250974
 20
7.172059541040753
 30
0.0
 10
4.609492939109966
 20
7.172535235473181
 30
0.0
 10
4.612308911261051
 20
7.188285235075303
 30
0.0
 10
4.607763772486982
 20
7.200559540320783
 30
0.0
  0
HATCH
  5
B6
330
1F
100
AcDbEntity
  8
Layer 1
 62
    43
420
 15510365
100
AcDbHatch
 10
0.0
 20
0.0
 30
0.0
210
0.0
220
0.0
230
1.0
  2
SOLID
 70
     1
 71
     0
 91
        1
 92
        1
 93
        1
 72
     4
 94
        3
 73
     0
 74
     1
 95
       17
 96
       13
 40
0.0
 40
0.0
 40
0.0
 40
0.0
 40
1.0
 40
1.0
 40
1.0
 40
2.0
 40
2.0
 40
2.0
 40
3.0
 40
3.0
 40
3.0
 40
4.0
 40
4.0
 40
4.0
 40
4.0
 10
4.607763772486982
 20
7.200559540320783
 10
4.60647557807508
 20
7.200899818089965
 10
4.605117939220488
 20
7.201101206973767
 10
4.603659605923995
 20
7.201052595863883
 10
4.591215161793924
 20
7.200628984763473
 10
4.586808911905235
 20
7.184792179607989
 10
4.59050335625635
 20
7.172500513251836
 10
4.591930439553632
 20
7.172195406881251
 10
4.593420022849336
 20
7.171990096598064
 10
4.595114467250974
 20
7.172059541040753
 10
4.609492939109966
 20
7.172535235473181
 10
4.612308911261051
 20
7.188285235075303
 10
4.607763772486982
 20
7.200559540320783
 97
        0
 97
        0
 75
     2
 76
     1
 98
        0
  0
SPLINE
  5
B7
330
1F
100
AcDbEntity
  8
Layer 1
 62
   250
420
  2301728
370
    30
100
AcDbSpline
210
0.0
220
0.0
230
1.0
 70
    11
 71
     3
 72
    17
 73
    13
 74
     0
 42
0.0000000001
 43
0.0000000001
 12
1.0
 22
0.0
 32
0.0
 13
1.0
 23
0.0
 33
0.0
 40
0.0
 40
0.0
 40
0.0
 40
0.0
 40
1.0
 40
1.0
 40
1.0
 40
2.0
 40
2.0
 40
2.0
 40
3.0
 40
3.0
 40
3.0
 40
4.0
 40
4.0
 40
4.0
 40
4.0
 10
4.606610994738326
 20
6.953316491011113
 30
0.0
 10
4.605322800326424
 20
6.95368846243678
 30
0.0
 10
4.603965161471832
 20
6.953910240996113
 30
0.0
 10
4.602541550396684
 20
6.953875518774768
 30
0.0
 10
4.590062384045268
 20
6.953417185453013
 30
0.0
 10
4.585656134156579
 20
6.937615102518874
 30
0.0
 10
4.589350578507694
 20
6.92529218616351
 30
0.0
 10
4.590774189582842
 20
6.924986630615674
 30
0.0
 10
4.592301967322024
 20
6.924799573547918
 30
0.0
 10
4.593961689502319
 20
6.924869017992377
 30
0.0
 10
4.608374883582655
 20
6.925323436162721
 30
0.0
 10
4.611156133512395
 20
6.941076907986977
 30
0.0
 10
4.606610994738326
 20
6.953316491011113
 30
0.0
  0
HATCH
  5
B8
330
1F
100
AcDbEntity
  8
Layer 1
 62
    43
420
 15510365
100
AcDbHatch
 10
0.0
 20
0.0
 30
0.0
210
0.0
220
0.0
230
1.0
  2
SOLID
 70
     1
 71
     0
 91
        1
 92
        1
 93
        1
 72
     4
 94
        3
 73
     0
 74
     1
 95
       17
 96
       13
 40
0.0
 40
0.0
 40
0.0
 40
0.0
 40
1.0
 40
1.0
 40
1.0
 40
2.0
 40
2.0
 40
2.0
 40
3.0
 40
3.0
 40
3.0
 40
4.0
 40
4.0
 40
4.0
 40
4.0
 10
4.606610994738326
 20
6.953316491011113
 10
4.605322800326424
 20
6.95368846243678
 10
4.603965161471832
 20
6.953910240996113
 10
4.602541550396684
 20
6.953875518774768
 10
4.590062384045268
 20
6.953417185453013
 10
4.585656134156579
 20
6.937615102518874
 10
4.589350578507694
 20
6.92529218616351
 10
4.590774189582842
 20
6.924986630615674
 10
4.592301967322024
 20
6.924799573547918
 10
4.593961689502319
 20
6.924869017992377
 10
4.608374883582655
 20
6.925323436162721
 10
4.611156133512395
 20
6.941076907986977
 10
4.606610994738326
 20
6.953316491011113
 97
        0
 97
        0
 75
     2
 76
     1
 98
        0
  0
SPLINE
  5
B9
330
1F
100
AcDbEntity
  8
Layer 1
 62
   250
420
  2301728
370
    30
100
AcDbSpline
210
0.0
220
0.0
230
1.0
 70
    11
 71
     3
 72
    17
 73
    13
 74
     0
 42
0.0000000001
 43
0.0000000001
 12
1.0
 22
0.0
 32
0.0
 13
1.0
 23
0.0
 33
0.0
 40
0.0
 40
0.0
 40
0.0
 40
0.0
 40
1.0
 40
1.0
 40
1.0
 40
2.0
 40
2.0
 40
2.0
 40
3.0
 40
3.0
 40
3.0
 40
4.0
 40
4.0
 40
4.0
 40
4.0
 10
4.606645716959671
 20
6.717330385861512
 30
0.0
 10
4.605322800326424
 20
6.717688024741366
 30
0.0
 10
4.603965161471832
 20
6.717889851325658
 30
0.0
 10
4.602541550396684
 20
6.717840802515298
 30
0.0
 10
4.590062384045268
 20
6.71738246919353
 30
0.0
 10
4.585656134156579
 20
6.701580386259391
 30
0.0
 10
4.589350578507694
 20
6.689271358792565
 30
0.0
 10
4.590808911804187
 20
6.688983164355401
 30
0.0
 10
4.592301967322024
 20
6.688764414360927
 30
0.0
 10
4.593961689502319
 20
6.688830386581483
 30
0.0
 10
4.608374883582655
 20
6.68930608101391
 30
0.0
 10
4.611187383511606
 20
6.705038719505359
 30
0.0
 10
4.606645716959671
 20
6.717330385861512
 30
0.0
  0
HATCH
  5
BA
330
1F
100
AcDbEntity
  8
Layer 1
 62
    43
420
 15510365
100
AcDbHatch
 10
0.0
 20
0.0
 30
0.0
210
0.0
220
0.0
230
1.0
  2
SOLID
 70
     1
 71
     0
 91
        1
 92
        1
 93
        1
 72
     4
 94
        3
 73
     0
 74
     1
 95
       17
 96
       13
 40
0.0
 40
0.0
 40
0.0
 40
0.0
 40
1.0
 40
1.0
 40
1.0
 40
2.0
 40
2.0
 40
2.0
 40
3.0
 40
3.0
 40
3.0
 40
4.0
 40
4.0
 40
4.0
 40
4.0
 10
4.606645716959671
 20
6.717330385861512
 10
4.605322800326424
 20
6.717688024741366
 10
4.603965161471832
 20
6.717889851325658
 10
4.602541550396684
 20
6.717840802515298
 10
4.590062384045268
 20
6.71738246919353
 10
4.585656134156579
 20
6.701580386259391
 10
4.589350578507694
 20
6.689271358792565
 10
4.590808911804187
 20
6.688983164355401
 10
4.592301967322024
 20
6.688764414360927
 10
4.593961689502319
 20
6.688830386581483
 10
4.608374883582655
 20
6.68930608101391
 10
4.611187383511606
 20
6.705038719505359
 10
4.606645716959671
 20
6.717330385861512
 97
        0
 97
        0
 75
     2
 76
     1
 98
        0
  0
SPLINE
  5
BB
330
1F
100
AcDbEntity
  8
Layer 1
 62
   250
420
  2301728
370
    30
100
AcDbSpline
210
0.0
220
0.0
230
1.0
 70
    11
 71
     3
 72
    17
 73
    13
 74
     0
 42
0.0000000001
 43
0.0000000001
 12
1.0
 22
0.0
 32
0.0
 13
1.0
 23
0.0
 33
0.0
 40
0.0
 40
0.0
 40
0.0
 40
0.0
 40
1.0
 40
1.0
 40
1.0
 40
2.0
 40
2.0
 40
2.0
 40
3.0
 40
3.0
 40
3.0
 40
4.0
 40
4.0
 40
4.0
 40
4.0
 10
4.605222105884523
 20
6.476462336390796
 30
0.0
 10
4.603933911472621
 20
6.47681997527065
 30
0.0
 10
4.602610994839375
 20
6.47702179577013
 30
0.0
 10
4.601152661542882
 20
6.476969280822433
 30
0.0
 10
4.58863877297012
 20
6.476545669722023
 30
0.0
 10
4.584263773080642
 20
6.460712336788674
 30
0.0
 10
4.587961689653891
 20
6.448420670432521
 30
0.0
 10
4.589385300729039
 20
6.448115114884684
 30
0.0
 10
4.590913078468222
 20
6.447927614889421
 30
0.0
 10
4.592538078427171
 20
6.447997059332111
 30
0.0
 10
4.606982522506718
 20
6.448455392653866
 30
0.0
 10
4.609798494657803
 20
6.464188031145315
 30
0.0
 10
4.605222105884523
 20
6.476462336390796
 30
0.0
  0
HATCH
  5
BC
330
1F
100
AcDbEntity
  8
Layer 1
 62
    43
420
 15510365
100
AcDbHatch
 10
0.0
 20
0.0
 30
0.0
210
0.0
220
0.0
230
1.0
  2
SOLID
 70
     1
 71
     0
 91
        1
 92
        1
 93
        1
 72
     4
 94
        3
 73
     0
 74
     1
 95
       17
 96
       13
 40
0.0
 40
0.0
 40
0.0
 40
0.0
 40
1.0
 40
1.0
 40
1.0
 40
2.0
 40
2.0
 40
2.0
 40
3.0
 40
3.0
 40
3.0
 40
4.0
 40
4.0
 40
4.0
 40
4.0
 10
4.605222105884523
 20
6.476462336390796
 10
4.603933911472621
 20
6.47681997527065
 10
4.602610994839375
 20
6.47702179577013
 10
4.601152661542882
 20
6.476969280822433
 10
4.58863877297012
 20
6.476545669722023
 10
4.584263773080642
 20
6.460712336788674
 10
4.587961689653891
 20
6.448420670432521
 10
4.589385300729039
 20
6.448115114884684
 10
4.590913078468222
 20
6.447927614889421
 10
4.592538078427171
 20
6.447997059332111
 10
4.606982522506718
 20
6.448455392653866
 10
4.609798494657803
 20
6.464188031145315
 10
4.605222105884523
 20
6.476462336390796
 97
        0
 97
        0
 75
     2
 76
     1
 98
        0
  0
SPLINE
  5
BD
330
1F
100
AcDbEntity
  8
Layer 1
370
     0
100
AcDbSpline
210
0.0
220
0.0
230
1.0
 70
     8
 71
     3
 72
     8
 73
     4
 74
     0
 42
0.0000000001
 43
0.0000000001
 12
1.0
 22
0.0
 32
0.0
 13
1.0
 23
0.0
 33
0.0
 40
0.0
 40
0.0
 40
0.0
 40
0.0
 40
1.0
 40
1.0
 40
1.0
 40
1.0
 10
6.305117896274876
 20
7.327021795770128
 30
0.0
 10
6.313256784958159
 20
7.334142870279518
 30
0.0
 10
6.335093915388269
 20
7.340958842329554
 30
0.0
 10
6.342656089771026
 20
7.340413703454437
 30
0.0
  0
SPLINE
  5
BE
330
1F
100
AcDbEntity
  8
Layer 1
 62
   250
420
  2301728
370
    18
100
AcDbSpline
210
0.0
220
0.0
230
1.0
 70
    11
 71
     3
 72
    11
 73
     7
 74
     0
 42
0.0000000001
 43
0.0000000001
 12
1.0
 22
0.0
 32
0.0
 13
1.0
 23
0.0
 33
0.0
 40
0.0
 40
0.0
 40
0.0
 40
0.0
 40
1.0
 40
1.0
 40
1.0
 40
2.0
 40
2.0
 40
2.0
 40
2.0
 10
3.838517264142006
 20
7.286719260366428
 30
0.0
 10
3.91180892895717
 20
7.289212315859004
 30
0.0
 10
3.887260318466208
 20
7.21500398440033
 30
0.0
 10
3.845826291735142
 20
7.213615095546528
 30
0.0
 10
3.804406153892614
 20
7.212208845582053
 30
0.0
 10
3.800267526499333
 20
7.285431065954526
 30
0.0
 10
3.838517264142006
 20
7.286719260366428
 30
0.0
  0
HATCH
  5
BF
330
1F
100
AcDbEntity
  8
Layer 1
 62
   250
420
  2301728
100
AcDbHatch
 10
0.0
 20
0.0
 30
0.0
210
0.0
220
0.0
230
1.0
  2
SOLID
 70
     1
 71
     0
 91
        1
 92
        1
 93
        1
 72
     4
 94
        3
 73
     0
 74
     1
 95
       11
 96
        7
 40
0.0
 40
0.0
 40
0.0
 40
0.0
 40
1.0
 40
1.0
 40
1.0
 40
2.0
 40
2.0
 40
2.0
 40
2.0
 10
3.838517264142006
 20
7.286719260366428
 10
3.91180892895717
 20
7.289212315859004
 10
3.887260318466208
 20
7.21500398440033
 10
3.845826291735142
 20
7.213615095546528
 10
3.804406153892614
 20
7.212208845582053
 10
3.800267526499333
 20
7.285431065954526
 10
3.838517264142006
 20
7.286719260366428
 97
        0
 97
        0
 75
     2
 76
     1
 98
        0
  0
SPLINE
  5
C0
330
1F
100
AcDbEntity
  8
Layer 1
 62
   250
420
  2301728
370
    18
100
AcDbSpline
210
0.0
220
0.0
230
1.0
 70
    11
 71
     3
 72
    11
 73
     7
 74
     0
 42
0.0000000001
 43
0.0000000001
 12
1.0
 22
0.0
 32
0.0
 13
1.0
 23
0.0
 33
0.0
 40
0.0
 40
0.0
 40
0.0
 40
0.0
 40
1.0
 40
1.0
 40
1.0
 40
2.0
 40
2.0
 40
2.0
 40
2.0
 10
3.836076291981448
 20
7.077743571201154
 30
0.0
 10
3.909367956796611
 20
7.080236626693729
 30
0.0
 10
3.884801985194978
 20
7.006028295235056
 30
0.0
 10
3.843367958463912
 20
7.004618573048447
 30
0.0
 10
3.801947820621383
 20
7.003212323083972
 30
0.0
 10
3.797843654058397
 20
7.076455376789252
 30
0.0
 10
3.836076291981448
 20
7.077743571201154
 30
0.0
  0
HATCH
  5
C1
330
1F
100
AcDbEntity
  8
Layer 1
 62
   250
420
  2301728
100
AcDbHatch
 10
0.0
 20
0.0
 30
0.0
210
0.0
220
0.0
230
1.0
  2
SOLID
 70
     1
 71
     0
 91
        1
 92
        1
 93
        1
 72
     4
 94
        3
 73
     0
 74
     1
 95
       11
 96
        7
 40
0.0
 40
0.0
 40
0.0
 40
0.0
 40
1.0
 40
1.0
 40
1.0
 40
2.0
 40
2.0
 40
2.0
 40
2.0
 10
3.836076291981448
 20
7.077743571201154
 10
3.909367956796611
 20
7.080236626693729
 10
3.884801985194978
 20
7.006028295235056
 10
3.843367958463912
 20
7.004618573048447
 10
3.801947820621383
 20
7.003212323083972
 10
3.797843654058397
 20
7.076455376789252
 10
3.836076291981448
 20
7.077743571201154
 97
        0
 97
        0
 75
     2
 76
     1
 98
        0
  0
SPLINE
  5
C2
330
1F
100
AcDbEntity
  8
Layer 1
 62
   250
420
  2301728
370
    18
100
AcDbSpline
210
0.0
220
0.0
230
1.0
 70
    11
 71
     3
 72
    11
 73
     7
 74
     0
 42
0.0000000001
 43
0.0000000001
 12
1.0
 22
0.0
 32
0.0
 13
1.0
 23
0.0
 33
0.0
 40
0.0
 40
0.0
 40
0.0
 40
0.0
 40
1.0
 40
1.0
 40
1.0
 40
2.0
 40
2.0
 40
2.0
 40
2.0
 10
3.832242958744953
 20
6.814479688962869
 30
0.0
 10
3.905520734671578
 20
6.8169380222341
 30
0.0
 10
3.880954763069945
 20
6.742743579663966
 30
0.0
 10
3.839517264116744
 20
6.741354690810162
 30
0.0
 10
3.798097126274216
 20
6.739931079735015
 30
0.0
 10
3.794013793044036
 20
6.813156772329623
 30
0.0
 10
3.832242958744953
 20
6.814479688962869
 30
0.0
  0
HATCH
  5
C3
330
1F
100
AcDbEntity
  8
Layer 1
 62
   250
420
  2301728
100
AcDbHatch
 10
0.0
 20
0.0
 30
0.0
210
0.0
220
0.0
230
1.0
  2
SOLID
 70
     1
 71
     0
 91
        1
 92
        1
 93
        1
 72
     4
 94
        3
 73
     0
 74
     1
 95
       11
 96
        7
 40
0.0
 40
0.0
 40
0.0
 40
0.0
 40
1.0
 40
1.0
 40
1.0
 40
2.0
 40
2.0
 40
2.0
 40
2.0
 10
3.832242958744953
 20
6.814479688962869
 10
3.905520734671578
 20
6.8169380222341
 10
3.880954763069945
 20
6.742743579663966
 10
3.839517264116744
 20
6.741354690810162
 10
3.798097126274216
 20
6.739931079735015
 10
3.794013793044036
 20
6.813156772329623
 10
3.832242958744953
 20
6.814479688962869
 97
        0
 97
        0
 75
     2
 76
     1
 98
        0
  0
SPLINE
  5
C4
330
1F
100
AcDbEntity
  8
Layer 1
 62
   250
420
  2301728
370
    18
100
AcDbSpline
210
0.0
220
0.0
230
1.0
 70
    11
 71
     3
 72
    11
 73
     7
 74
     0
 42
0.0000000001
 43
0.0000000001
 12
1.0
 22
0.0
 32
0.0
 13
1.0
 23
0.0
 33
0.0
 40
0.0
 40
0.0
 40
0.0
 40
0.0
 40
1.0
 40
1.0
 40
1.0
 40
2.0
 40
2.0
 40
2.0
 40
2.0
 10
3.826701292218281
 20
6.554333862201373
 30
0.0
 10
3.899958234812099
 20
6.556826917693948
 30
0.0
 10
3.87542698543181
 20
6.482632475123814
 30
0.0
 10
3.834024208699955
 20
6.481226225159339
 30
0.0
 10
3.792590181968889
 20
6.479819975194864
 30
0.0
 10
3.788468654295229
 20
6.553045667789471
 30
0.0
 10
3.826701292218281
 20
6.554333862201373
 30
0.0
  0
HATCH
  5
C5
330
1F
100
AcDbEntity
  8
Layer 1
 62
   250
420
  2301728
100
AcDbHatch
 10
0.0
 20
0.0
 30
0.0
210
0.0
220
0.0
230
1.0
  2
SOLID
 70
     1
 71
     0
 91
        1
 92
        1
 93
        1
 72
     4
 94
        3
 73
     0
 74
     1
 95
       11
 96
        7
 40
0.0
 40
0.0
 40
0.0
 40
0.0
 40
1.0
 40
1.0
 40
1.0
 40
2.0
 40
2.0
 40
2.0
 40
2.0
 10
3.826701292218281
 20
6.554333862201373
 10
3.899958234812099
 20
6.556826917693948
 10
3.87542698543181
 20
6.482632475123814
 10
3.834024208699955
 20
6.481226225159339
 10
3.792590181968889
 20
6.479819975194864
 10
3.788468654295229
 20
6.553045667789471
 10
3.826701292218281
 20
6.554333862201373
 97
        0
 97
        0
 75
     2
 76
     1
 98
        0
  0
SPLINE
  5
C6
330
1F
100
AcDbEntity
  8
Layer 1
 62
   250
420
  2301728
370
    18
100
AcDbSpline
210
0.0
220
0.0
230
1.0
 70
    11
 71
     3
 72
    11
 73
     7
 74
     0
 42
0.0000000001
 43
0.0000000001
 12
1.0
 22
0.0
 32
0.0
 13
1.0
 23
0.0
 33
0.0
 40
0.0
 40
0.0
 40
0.0
 40
0.0
 40
1.0
 40
1.0
 40
1.0
 40
2.0
 40
2.0
 40
2.0
 40
2.0
 10
3.829565875479248
 20
6.327976229030759
 30
0.0
 10
3.902857540294412
 20
6.330469284523335
 30
0.0
 10
3.878274207582106
 20
6.256295675286019
 30
0.0
 10
3.836857541961712
 20
6.254903740214559
 30
0.0
 10
3.795420043008511
 20
6.253497064245594
 30
0.0
 10
3.791298515334852
 20
6.32670539572953
 30
0.0
 10
3.829565875479248
 20
6.327976229030759
 30
0.0
  0
HATCH
  5
C7
330
1F
100
AcDbEntity
  8
Layer 1
 62
   250
420
  2301728
100
AcDbHatch
 10
0.0
 20
0.0
 30
0.0
210
0.0
220
0.0
230
1.0
  2
SOLID
 70
     1
 71
     0
 91
        1
 92
        1
 93
        1
 72
     4
 94
        3
 73
     0
 74
     1
 95
       11
 96
        7
 40
0.0
 40
0.0
 40
0.0
 40
0.0
 40
1.0
 40
1.0
 40
1.0
 40
2.0
 40
2.0
 40
2.0
 40
2.0
 10
3.829565875479248
 20
6.327976229030759
 10
3.902857540294412
 20
6.330469284523335
 10
3.878274207582106
 20
6.256295675286019
 10
3.836857541961712
 20
6.254903740214559
 10
3.795420043008511
 20
6.253497064245594
 10
3.791298515334852
 20
6.32670539572953
 10
3.829565875479248
 20
6.327976229030759
 97
        0
 97
        0
 75
     2
 76
     1
 98
        0
  0
SPLINE
  5
C8
330
1F
100
AcDbEntity
  8
Layer 1
 62
   250
420
  2301728
370
    18
100
AcDbSpline
210
0.0
220
0.0
230
1.0
 70
    11
 71
     3
 72
    11
 73
     7
 74
     0
 42
0.0000000001
 43
0.0000000001
 12
1.0
 22
0.0
 32
0.0
 13
1.0
 23
0.0
 33
0.0
 40
0.0
 40
0.0
 40
0.0
 40
0.0
 40
1.0
 40
1.0
 40
1.0
 40
2.0
 40
2.0
 40
2.0
 40
2.0
 10
4.219545032294213
 20
6.538938029256971
 30
0.0
 10
4.292822808220838
 20
6.541431517992351
 30
0.0
 10
4.268239475508532
 20
6.467240114401546
 30
0.0
 10
4.226801976555331
 20
6.465830392214936
 30
0.0
 10
4.185399199823475
 20
6.464441503361134
 30
0.0
 10
4.181263783261278
 20
6.537667195955741
 30
0.0
 10
4.219545032294213
 20
6.538938029256971
 30
0.0
  0
HATCH
  5
C9
330
1F
100
AcDbEntity
  8
Layer 1
 62
   250
420
  2301728
100
AcDbHatch
 10
0.0
 20
0.0
 30
0.0
210
0.0
220
0.0
230
1.0
  2
SOLID
 70
     1
 71
     0
 91
        1
 92
        1
 93
        1
 72
     4
 94
        3
 73
     0
 74
     1
 95
       11
 96
        7
 40
0.0
 40
0.0
 40
0.0
 40
0.0
 40
1.0
 40
1.0
 40
1.0
 40
2.0
 40
2.0
 40
2.0
 40
2.0
 10
4.219545032294213
 20
6.538938029256971
 10
4.292822808220838
 20
6.541431517992351
 10
4.268239475508532
 20
6.467240114401546
 10
4.226801976555331
 20
6.465830392214936
 10
4.185399199823475
 20
6.464441503361134
 10
4.181263783261278
 20
6.537667195955741
 10
4.219545032294213
 20
6.538938029256971
 97
        0
 97
        0
 75
     2
 76
     1
 98
        0
  0
SPLINE
  5
CA
330
1F
100
AcDbEntity
  8
Layer 1
 62
   250
420
  2301728
370
    18
100
AcDbSpline
210
0.0
220
0.0
230
1.0
 70
    11
 71
     3
 72
    11
 73
     7
 74
     0
 42
0.0000000001
 43
0.0000000001
 12
1.0
 22
0.0
 32
0.0
 13
1.0
 23
0.0
 33
0.0
 40
0.0
 40
0.0
 40
0.0
 40
0.0
 40
1.0
 40
1.0
 40
1.0
 40
2.0
 40
2.0
 40
2.0
 40
2.0
 10
4.223173504424772
 20
6.759156773693777
 30
0.0
 10
4.296486002572743
 20
6.761667190297025
 30
0.0
 10
4.271902669860436
 20
6.68744149772768
 30
0.0
 10
4.230465170907236
 20
6.686049573547936
 30
0.0
 10
4.189027671954035
 20
6.684625962436813
 30
0.0
 10
4.184958227612393
 20
6.757851218171203
 30
0.0
 10
4.223173504424772
 20
6.759156773693777
 30
0.0
  0
HATCH
  5
CB
330
1F
100
AcDbEntity
  8
Layer 1
 62
   250
420
  2301728
100
AcDbHatch
 10
0.0
 20
0.0
 30
0.0
210
0.0
220
0.0
230
1.0
  2
SOLID
 70
     1
 71
     0
 91
        1
 92
        1
 93
        1
 72
     4
 94
        3
 73
     0
 74
     1
 95
       11
 96
        7
 40
0.0
 40
0.0
 40
0.0
 40
0.0
 40
1.0
 40
1.0
 40
1.0
 40
2.0
 40
2.0
 40
2.0
 40
2.0
 10
4.223173504424772
 20
6.759156773693777
 10
4.296486002572743
 20
6.761667190297025
 10
4.271902669860436
 20
6.68744149772768
 10
4.230465170907236
 20
6.686049573547936
 10
4.189027671954035
 20
6.684625962436813
 10
4.184958227612393
 20
6.757851218171203
 10
4.223173504424772
 20
6.759156773693777
 97
        0
 97
        0
 75
     2
 76
     1
 98
        0
  0
SPLINE
  5
CC
330
1F
100
AcDbEntity
  8
Layer 1
 62
   250
420
  2301728
370
    18
100
AcDbSpline
210
0.0
220
0.0
230
1.0
 70
    11
 71
     3
 72
    11
 73
     7
 74
     0
 42
0.0000000001
 43
0.0000000001
 12
1.0
 22
0.0
 32
0.0
 13
1.0
 23
0.0
 33
0.0
 40
0.0
 40
0.0
 40
0.0
 40
0.0
 40
1.0
 40
1.0
 40
1.0
 40
2.0
 40
2.0
 40
2.0
 40
2.0
 10
4.222260310003397
 20
7.022236628158932
 30
0.0
 10
4.295534613707888
 20
7.024726211429374
 30
0.0
 10
4.270986003216927
 20
6.9505178799707
 30
0.0
 10
4.229548504263726
 20
6.949128991116898
 30
0.0
 10
4.18814572753187
 20
6.947722741152423
 30
0.0
 10
4.184010310969685
 20
7.020931072636358
 30
0.0
 10
4.222260310003397
 20
7.022236628158932
 30
0.0
  0
HATCH
  5
CD
330
1F
100
AcDbEntity
  8
Layer 1
 62
   250
420
  2301728
100
AcDbHatch
 10
0.0
 20
0.0
 30
0.0
210
0.0
220
0.0
230
1.0
  2
SOLID
 70
     1
 71
     0
 91
        1
 92
        1
 93
        1
 72
     4
 94
        3
 73
     0
 74
     1
 95
       11
 96
        7
 40
0.0
 40
0.0
 40
0.0
 40
0.0
 40
1.0
 40
1.0
 40
1.0
 40
2.0
 40
2.0
 40
2.0
 40
2.0
 10
4.222260310003397
 20
7.022236628158932
 10
4.295534613707888
 20
7.024726211429374
 10
4.270986003216927
 20
6.9505178799707
 10
4.229548504263726
 20
6.949128991116898
 10
4.18814572753187
 20
6.947722741152423
 10
4.184010310969685
 20
7.020931072636358
 10
4.222260310003397
 20
7.022236628158932
 97
        0
 97
        0
 75
     2
 76
     1
 98
        0
  0
SPLINE
  5
CE
330
1F
100
AcDbEntity
  8
Layer 1
 62
   250
420
  2301728
370
    18
100
AcDbSpline
210
0.0
220
0.0
230
1.0
 70
    11
 71
     3
 72
    11
 73
     7
 74
     0
 42
0.0000000001
 43
0.0000000001
 12
1.0
 22
0.0
 32
0.0
 13
1.0
 23
0.0
 33
0.0
 40
0.0
 40
0.0
 40
0.0
 40
0.0
 40
1.0
 40
1.0
 40
1.0
 40
2.0
 40
2.0
 40
2.0
 40
2.0
 10
4.227142526499342
 20
7.255271344494203
 30
0.0
 10
4.300416558029004
 20
7.257712316654761
 30
0.0
 10
4.275833225316697
 20
7.183538707417433
 30
0.0
 10
4.234434193166028
 20
7.182146346341495
 30
0.0
 10
4.192996421853776
 20
7.180740096377033
 30
0.0
 10
4.188892255290789
 20
7.253948427860955
 30
0.0
 10
4.227142526499342
 20
7.255271344494203
 30
0.0
  0
HATCH
  5
CF
330
1F
100
AcDbEntity
  8
Layer 1
 62
   250
420
  2301728
100
AcDbHatch
 10
0.0
 20
0.0
 30
0.0
210
0.0
220
0.0
230
1.0
  2
SOLID
 70
     1
 71
     0
 91
        1
 92
        1
 93
        1
 72
     4
 94
        3
 73
     0
 74
     1
 95
       11
 96
        7
 40
0.0
 40
0.0
 40
0.0
 40
0.0
 40
1.0
 40
1.0
 40
1.0
 40
2.0
 40
2.0
 40
2.0
 40
2.0
 10
4.227142526499342
 20
7.255271344494203
 10
4.300416558029004
 20
7.257712316654761
 10
4.275833225316697
 20
7.183538707417433
 10
4.234434193166028
 20
7.182146346341495
 10
4.192996421853776
 20
7.180740096377033
 10
4.188892255290789
 20
7.253948427860955
 10
4.227142526499342
 20
7.255271344494203
 97
        0
 97
        0
 75
     2
 76
     1
 98
        0
  0
SPLINE
  5
D0
330
1F
100
AcDbEntity
  8
Layer 1
 62
   250
420
  2301728
370
    18
100
AcDbSpline
210
0.0
220
0.0
230
1.0
 70
    11
 71
     3
 72
    11
 73
     7
 74
     0
 42
0.0000000001
 43
0.0000000001
 12
1.0
 22
0.0
 32
0.0
 13
1.0
 23
0.0
 33
0.0
 40
0.0
 40
0.0
 40
0.0
 40
0.0
 40
1.0
 40
1.0
 40
1.0
 40
2.0
 40
2.0
 40
2.0
 40
2.0
 10
4.966819318972031
 20
7.403128979647893
 30
0.0
 10
5.040097094898656
 20
7.405569951808451
 30
0.0
 10
5.015479039965006
 20
7.33139679577011
 30
0.0
 10
4.974110985454495
 20
7.329986620384513
 30
0.0
 10
4.932673486501295
 20
7.328580370420038
 30
0.0
 10
4.928604042159653
 20
7.401806063014646
 30
0.0
 10
4.966819318972031
 20
7.403128979647893
 30
0.0
  0
HATCH
  5
D1
330
1F
100
AcDbEntity
  8
Layer 1
 62
   250
420
  2301728
100
AcDbHatch
 10
0.0
 20
0.0
 30
0.0
210
0.0
220
0.0
230
1.0
  2
SOLID
 70
     1
 71
     0
 91
        1
 92
        1
 93
        1
 72
     4
 94
        3
 73
     0
 74
     1
 95
       11
 96
        7
 40
0.0
 40
0.0
 40
0.0
 40
0.0
 40
1.0
 40
1.0
 40
1.0
 40
2.0
 40
2.0
 40
2.0
 40
2.0
 10
4.966819318972031
 20
7.403128979647893
 10
5.040097094898656
 20
7.405569951808451
 10
5.015479039965006
 20
7.33139679577011
 10
4.974110985454495
 20
7.329986620384513
 10
4.932673486501295
 20
7.328580370420038
 10
4.928604042159653
 20
7.401806063014646
 10
4.966819318972031
 20
7.403128979647893
 97
        0
 97
        0
 75
     2
 76
     1
 98
        0
  0
SPLINE
  5
D2
330
1F
100
AcDbEntity
  8
Layer 1
 62
   250
420
  2301728
370
    18
100
AcDbSpline
210
0.0
220
0.0
230
1.0
 70
    11
 71
     3
 72
    11
 73
     7
 74
     0
 42
0.0000000001
 43
0.0000000001
 12
1.0
 22
0.0
 32
0.0
 13
1.0
 23
0.0
 33
0.0
 40
0.0
 40
0.0
 40
0.0
 40
0.0
 40
1.0
 40
1.0
 40
1.0
 40
2.0
 40
2.0
 40
2.0
 40
2.0
 10
4.96654848564554
 20
7.176635929814033
 30
0.0
 10
5.039857511571376
 20
7.179128985306609
 30
0.0
 10
5.01527417885907
 20
7.104938462436772
 30
0.0
 10
4.973874874349349
 20
7.103549573547904
 30
0.0
 10
4.932402653174803
 20
7.102139403918196
 30
0.0
 10
4.92830195883395
 20
7.175330374291459
 30
0.0
 10
4.96654848564554
 20
7.176635929814033
 30
0.0
  0
HATCH
  5
D3
330
1F
100
AcDbEntity
  8
Layer 1
 62
   250
420
  2301728
100
AcDbHatch
 10
0.0
 20
0.0
 30
0.0
210
0.0
220
0.0
230
1.0
  2
SOLID
 70
     1
 71
     0
 91
        1
 92
        1
 93
        1
 72
     4
 94
        3
 73
     0
 74
     1
 95
       11
 96
        7
 40
0.0
 40
0.0
 40
0.0
 40
0.0
 40
1.0
 40
1.0
 40
1.0
 40
2.0
 40
2.0
 40
2.0
 40
2.0
 10
4.96654848564554
 20
7.176635929814033
 10
5.039857511571376
 20
7.179128985306609
 10
5.01527417885907
 20
7.104938462436772
 10
4.973874874349349
 20
7.103549573547904
 10
4.932402653174803
 20
7.102139403918196
 10
4.92830195883395
 20
7.175330374291459
 10
4.96654848564554
 20
7.176635929814033
 97
        0
 97
        0
 75
     2
 76
     1
 98
        0
  0
SPLINE
  5
D4
330
1F
100
AcDbEntity
  8
Layer 1
 62
   250
420
  2301728
370
    18
100
AcDbSpline
210
0.0
220
0.0
230
1.0
 70
    11
 71
     3
 72
    11
 73
     7
 74
     0
 42
0.0000000001
 43
0.0000000001
 12
1.0
 22
0.0
 32
0.0
 13
1.0
 23
0.0
 33
0.0
 40
0.0
 40
0.0
 40
0.0
 40
0.0
 40
1.0
 40
1.0
 40
1.0
 40
2.0
 40
2.0
 40
2.0
 40
2.0
 10
4.963631819052554
 20
6.932514408203296
 30
0.0
 10
5.036944317200525
 20
6.93500790688126
 30
0.0
 10
5.012360984488219
 20
6.860830382236397
 30
0.0
 10
4.970923485535018
 20
6.859424132271922
 30
0.0
 10
4.929520708803162
 20
6.858000521196774
 30
0.0
 10
4.925416542240176
 20
6.931243574902055
 30
0.0
 10
4.963631819052554
 20
6.932514408203296
 30
0.0
  0
HATCH
  5
D5
330
1F
100
AcDbEntity
  8
Layer 1
 62
   250
420
  2301728
100
AcDbHatch
 10
0.0
 20
0.0
 30
0.0
210
0.0
220
0.0
230
1.0
  2
SOLID
 70
     1
 71
     0
 91
        1
 92
        1
 93
        1
 72
     4
 94
        3
 73
     0
 74
     1
 95
       11
 96
        7
 40
0.0
 40
0.0
 40
0.0
 40
0.0
 40
1.0
 40
1.0
 40
1.0
 40
2.0
 40
2.0
 40
2.0
 40
2.0
 10
4.963631819052554
 20
6.932514408203296
 10
5.036944317200525
 20
6.93500790688126
 10
5.012360984488219
 20
6.860830382236397
 10
4.970923485535018
 20
6.859424132271922
 10
4.929520708803162
 20
6.858000521196774
 10
4.925416542240176
 20
6.931243574902055
 10
4.963631819052554
 20
6.932514408203296
 97
        0
 97
        0
 75
     2
 76
     1
 98
        0
  0
SPLINE
  5
D6
330
1F
100
AcDbEntity
  8
Layer 1
 62
   250
420
  2301728
370
    18
100
AcDbSpline
210
0.0
220
0.0
230
1.0
 70
    11
 71
     3
 72
    11
 73
     7
 74
     0
 42
0.0000000001
 43
0.0000000001
 12
1.0
 22
0.0
 32
0.0
 13
1.0
 23
0.0
 33
0.0
 40
0.0
 40
0.0
 40
0.0
 40
0.0
 40
1.0
 40
1.0
 40
1.0
 40
2.0
 40
2.0
 40
2.0
 40
2.0
 10
4.973499874358822
 20
6.688899831024186
 30
0.0
 10
5.046777650285447
 20
6.691358164295403
 30
0.0
 10
5.022194317573141
 20
6.617163721725269
 30
0.0
 10
4.980823082054889
 20
6.615757471760793
 30
0.0
 10
4.93938876410943
 20
6.614368582906991
 30
0.0
 10
4.935249875325098
 20
6.687577351325722
 30
0.0
 10
4.973499874358822
 20
6.688899831024186
 30
0.0
  0
HATCH
  5
D7
330
1F
100
AcDbEntity
  8
Layer 1
 62
   250
420
  2301728
100
AcDbHatch
 10
0.0
 20
0.0
 30
0.0
210
0.0
220
0.0
230
1.0
  2
SOLID
 70
     1
 71
     0
 91
        1
 92
        1
 93
        1
 72
     4
 94
        3
 73
     0
 74
     1
 95
       11
 96
        7
 40
0.0
 40
0.0
 40
0.0
 40
0.0
 40
1.0
 40
1.0
 40
1.0
 40
2.0
 40
2.0
 40
2.0
 40
2.0
 10
4.973499874358822
 20
6.688899831024186
 10
5.046777650285447
 20
6.691358164295403
 10
5.022194317573141
 20
6.617163721725269
 10
4.980823082054889
 20
6.615757471760793
 10
4.93938876410943
 20
6.614368582906991
 10
4.935249875325098
 20
6.687577351325722
 10
4.973499874358822
 20
6.688899831024186
 97
        0
 97
        0
 75
     2
 76
     1
 98
        0
  0
SPLINE
  5
D8
330
1F
100
AcDbEntity
  8
Layer 1
 62
   250
420
  2301728
370
    18
100
AcDbSpline
210
0.0
220
0.0
230
1.0
 70
    11
 71
     3
 72
    11
 73
     7
 74
     0
 42
0.0000000001
 43
0.0000000001
 12
1.0
 22
0.0
 32
0.0
 13
1.0
 23
0.0
 33
0.0
 40
0.0
 40
0.0
 40
0.0
 40
0.0
 40
1.0
 40
1.0
 40
1.0
 40
2.0
 40
2.0
 40
2.0
 40
2.0
 10
5.350933892601814
 20
6.89145190924061
 30
0.0
 10
5.424211668528439
 20
6.893958853621724
 30
0.0
 10
5.399659585815344
 20
6.819733161052378
 30
0.0
 10
5.358225559084278
 20
6.818344272198575
 30
0.0
 10
5.316788060131077
 20
6.8169380222341
 30
0.0
 10
5.312687365790225
 20
6.890177603717246
 30
0.0
 10
5.350933892601814
 20
6.89145190924061
 30
0.0
  0
HATCH
  5
D9
330
1F
100
AcDbEntity
  8
Layer 1
 62
   250
420
  2301728
100
AcDbHatch
 10
0.0
 20
0.0
 30
0.0
210
0.0
220
0.0
230
1.0
  2
SOLID
 70
     1
 71
     0
 91
        1
 92
        1
 93
        1
 72
     4
 94
        3
 73
     0
 74
     1
 95
       11
 96
        7
 40
0.0
 40
0.0
 40
0.0
 40
0.0
 40
1.0
 40
1.0
 40
1.0
 40
2.0
 40
2.0
 40
2.0
 40
2.0
 10
5.350933892601814
 20
6.89145190924061
 10
5.424211668528439
 20
6.893958853621724
 10
5.399659585815344
 20
6.819733161052378
 10
5.358225559084278
 20
6.818344272198575
 10
5.316788060131077
 20
6.8169380222341
 10
5.312687365790225
 20
6.890177603717246
 10
5.350933892601814
 20
6.89145190924061
 97
        0
 97
        0
 75
     2
 76
     1
 98
        0
  0
SPLINE
  5
DA
330
1F
100
AcDbEntity
  8
Layer 1
 62
   250
420
  2301728
370
    18
100
AcDbSpline
210
0.0
220
0.0
230
1.0
 70
    11
 71
     3
 72
    11
 73
     7
 74
     0
 42
0.0000000001
 43
0.0000000001
 12
1.0
 22
0.0
 32
0.0
 13
1.0
 23
0.0
 33
0.0
 40
0.0
 40
0.0
 40
0.0
 40
0.0
 40
1.0
 40
1.0
 40
1.0
 40
2.0
 40
2.0
 40
2.0
 40
2.0
 10
5.350867920381258
 20
7.129080375459832
 30
0.0
 10
5.424107501864404
 20
7.131538708731063
 30
0.0
 10
5.399558891373443
 20
7.057365099493735
 30
0.0
 10
5.358124864642377
 20
7.05595884952926
 30
0.0
 10
5.316722087910521
 20
7.05454912734265
 30
0.0
 10
5.312617921347535
 20
7.127757458826586
 30
0.0
 10
5.350867920381258
 20
7.129080375459832
 30
0.0
  0
HATCH
  5
DB
330
1F
100
AcDbEntity
  8
Layer 1
 62
   250
420
  2301728
100
AcDbHatch
 10
0.0
 20
0.0
 30
0.0
210
0.0
220
0.0
230
1.0
  2
SOLID
 70
     1
 71
     0
 91
        1
 92
        1
 93
        1
 72
     4
 94
        3
 73
     0
 74
     1
 95
       11
 96
        7
 40
0.0
 40
0.0
 40
0.0
 40
0.0
 40
1.0
 40
1.0
 40
1.0
 40
2.0
 40
2.0
 40
2.0
 40
2.0
 10
5.350867920381258
 20
7.129080375459832
 10
5.424107501864404
 20
7.131538708731063
 10
5.399558891373443
 20
7.057365099493735
 10
5.358124864642377
 20
7.05595884952926
 10
5.316722087910521
 20
7.05454912734265
 10
5.312617921347535
 20
7.127757458826586
 10
5.350867920381258
 20
7.129080375459832
 97
        0
 97
        0
 75
     2
 76
     1
 98
        0
  0
SPLINE
  5
DC
330
1F
100
AcDbEntity
  8
Layer 1
 62
   250
420
  2301728
370
    18
100
AcDbSpline
210
0.0
220
0.0
230
1.0
 70
    11
 71
     3
 72
    11
 73
     7
 74
     0
 42
0.0000000001
 43
0.0000000001
 12
1.0
 22
0.0
 32
0.0
 13
1.0
 23
0.0
 33
0.0
 40
0.0
 40
0.0
 40
0.0
 40
0.0
 40
1.0
 40
1.0
 40
1.0
 40
2.0
 40
2.0
 40
2.0
 40
2.0
 10
5.363378336731885
 20
7.371882906881233
 30
0.0
 10
5.436621693166014
 20
7.374375508152045
 30
0.0
 10
5.412073082054879
 20
7.300198426692582
 30
0.0
 10
5.370635280993004
 20
7.298792629103495
 30
0.0
 10
5.329201254261938
 20
7.297369017992373
 30
0.0
 10
5.325131809920296
 20
7.370594258247567
 30
0.0
 10
5.363378336731885
 20
7.371882906881233
 30
0.0
  0
HATCH
  5
DD
330
1F
100
AcDbEntity
  8
Layer 1
 62
   250
420
  2301728
100
AcDbHatch
 10
0.0
 20
0.0
 30
0.0
210
0.0
220
0.0
230
1.0
  2
SOLID
 70
     1
 71
     0
 91
        1
 92
        1
 93
        1
 72
     4
 94
        3
 73
     0
 74
     1
 95
       11
 96
        7
 40
0.0
 40
0.0
 40
0.0
 40
0.0
 40
1.0
 40
1.0
 40
1.0
 40
2.0
 40
2.0
 40
2.0
 40
2.0
 10
5.363378336731885
 20
7.371882906881233
 10
5.436621693166014
 20
7.374375508152045
 10
5.412073082054879
 20
7.300198426692582
 10
5.370635280993004
 20
7.298792629103495
 10
5.329201254261938
 20
7.297369017992373
 10
5.325131809920296
 20
7.370594258247567
 10
5.363378336731885
 20
7.371882906881233
 97
        0
 97
        0
 75
     2
 76
     1
 98
        0
  0
SPLINE
  5
DE
330
1F
100
AcDbEntity
  8
Layer 1
 62
   250
420
  2301728
370
    18
100
AcDbSpline
210
0.0
220
0.0
230
1.0
 70
    11
 71
     3
 72
    11
 73
     7
 74
     0
 42
0.0000000001
 43
0.0000000001
 12
1.0
 22
0.0
 32
0.0
 13
1.0
 23
0.0
 33
0.0
 40
0.0
 40
0.0
 40
0.0
 40
0.0
 40
1.0
 40
1.0
 40
1.0
 40
2.0
 40
2.0
 40
2.0
 40
2.0
 10
5.359308892390244
 20
7.58545536393083
 30
0.0
 10
5.432551946095524
 20
7.587931058312734
 30
0.0
 10
5.408003335604563
 20
7.513705365743387
 30
0.0
 10
5.366565836651362
 20
7.512330365778123
 30
0.0
 10
5.325163359832711
 20
7.510906754702975
 30
0.0
 10
5.321062365578655
 20
7.584167169518928
 30
0.0
 10
5.359308892390244
 20
7.58545536393083
 30
0.0
  0
HATCH
  5
DF
330
1F
100
AcDbEntity
  8
Layer 1
 62
   250
420
  2301728
100
AcDbHatch
 10
0.0
 20
0.0
 30
0.0
210
0.0
220
0.0
230
1.0
  2
SOLID
 70
     1
 71
     0
 91
        1
 92
        1
 93
        1
 72
     4
 94
        3
 73
     0
 74
     1
 95
       11
 96
        7
 40
0.0
 40
0.0
 40
0.0
 40
0.0
 40
1.0
 40
1.0
 40
1.0
 40
2.0
 40
2.0
 40
2.0
 40
2.0
 10
5.359308892390244
 20
7.58545536393083
 10
5.432551946095524
 20
7.587931058312734
 10
5.408003335604563
 20
7.513705365743387
 10
5.366565836651362
 20
7.512330365778123
 10
5.325163359832711
 20
7.510906754702975
 10
5.321062365578655
 20
7.584167169518928
 10
5.359308892390244
 20
7.58545536393083
 97
        0
 97
        0
 75
     2
 76
     1
 98
        0
  0
SPLINE
  5
E0
330
1F
100
AcDbEntity
  8
Layer 1
 62
   250
420
  2301728
370
    18
100
AcDbSpline
210
0.0
220
0.0
230
1.0
 70
    11
 71
     3
 72
    11
 73
     7
 74
     0
 42
0.0000000001
 43
0.0000000001
 12
1.0
 22
0.0
 32
0.0
 13
1.0
 23
0.0
 33
0.0
 40
0.0
 40
0.0
 40
0.0
 40
0.0
 40
1.0
 40
1.0
 40
1.0
 40
2.0
 40
2.0
 40
2.0
 40
2.0
 10
3.843569347347713
 20
7.278938010562999
 30
0.0
 10
3.916847123274338
 20
7.281431517992385
 30
0.0
 10
3.89227767945057
 20
7.207240095707574
 30
0.0
 10
3.850843652719504
 20
7.205833845743099
 30
0.0
 10
3.809440875987649
 20
7.204424123556489
 30
0.0
 10
3.8053369709438
 20
7.277667177261769
 30
0.0
 10
3.843569347347713
 20
7.278938010562999
 30
0.0
  0
HATCH
  5
E1
330
1F
100
AcDbEntity
  8
Layer 1
 62
   254
420
 13358815
100
AcDbHatch
 10
0.0
 20
0.0
 30
0.0
210
0.0
220
0.0
230
1.0
  2
SOLID
 70
     1
 71
     0
 91
        1
 92
        1
 93
        1
 72
     4
 94
        3
 73
     0
 74
     1
 95
       11
 96
        7
 40
0.0
 40
0.0
 40
0.0
 40
0.0
 40
1.0
 40
1.0
 40
1.0
 40
2.0
 40
2.0
 40
2.0
 40
2.0
 10
3.843569347347713
 20
7.278938010562999
 10
3.916847123274338
 20
7.281431517992385
 10
3.89227767945057
 20
7.207240095707574
 10
3.850843652719504
 20
7.205833845743099
 10
3.809440875987649
 20
7.204424123556489
 10
3.8053369709438
 20
7.277667177261769
 10
3.843569347347713
 20
7.278938010562999
 97
        0
 97
        0
 75
     2
 76
     1
 98
        0
  0
SPLINE
  5
E2
330
1F
100
AcDbEntity
  8
Layer 1
 62
   250
420
  2301728
370
    18
100
AcDbSpline
210
0.0
220
0.0
230
1.0
 70
    11
 71
     3
 72
    11
 73
     7
 74
     0
 42
0.0000000001
 43
0.0000000001
 12
1.0
 22
0.0
 32
0.0
 13
1.0
 23
0.0
 33
0.0
 40
0.0
 40
0.0
 40
0.0
 40
0.0
 40
1.0
 40
1.0
 40
1.0
 40
2.0
 40
2.0
 40
2.0
 40
2.0
 10
3.841111014076482
 20
7.069927599176379
 30
0.0
 10
3.914388790003108
 20
7.072438462436821
 30
0.0
 10
3.889819346179327
 20
6.998243573209505
 30
0.0
 10
3.848402680558946
 20
6.996854684355689
 30
0.0
 10
3.806999903827091
 20
6.995483156612559
 30
0.0
 10
3.802864487264893
 20
7.068674126985822
 30
0.0
 10
3.841111014076482
 20
7.069927599176379
 30
0.0
  0
HATCH
  5
E3
330
1F
100
AcDbEntity
  8
Layer 1
 62
   254
420
 13358815
100
AcDbHatch
 10
0.0
 20
0.0
 30
0.0
210
0.0
220
0.0
230
1.0
  2
SOLID
 70
     1
 71
     0
 91
        1
 92
        1
 93
        1
 72
     4
 94
        3
 73
     0
 74
     1
 95
       11
 96
        7
 40
0.0
 40
0.0
 40
0.0
 40
0.0
 40
1.0
 40
1.0
 40
1.0
 40
2.0
 40
2.0
 40
2.0
 40
2.0
 10
3.841111014076482
 20
7.069927599176379
 10
3.914388790003108
 20
7.072438462436821
 10
3.889819346179327
 20
6.998243573209505
 10
3.848402680558946
 20
6.996854684355689
 10
3.806999903827091
 20
6.995483156612559
 10
3.802864487264893
 20
7.068674126985822
 10
3.841111014076482
 20
7.069927599176379
 97
        0
 97
        0
 75
     2
 76
     1
 98
        0
  0
SPLINE
  5
E4
330
1F
100
AcDbEntity
  8
Layer 1
 62
   250
420
  2301728
370
    18
100
AcDbSpline
210
0.0
220
0.0
230
1.0
 70
    11
 71
     3
 72
    11
 73
     7
 74
     0
 42
0.0000000001
 43
0.0000000001
 12
1.0
 22
0.0
 32
0.0
 13
1.0
 23
0.0
 33
0.0
 40
0.0
 40
0.0
 40
0.0
 40
0.0
 40
1.0
 40
1.0
 40
1.0
 40
2.0
 40
2.0
 40
2.0
 40
2.0
 10
3.837281415388234
 20
6.806681078048769
 30
0.0
 10
3.910572817877285
 20
6.809170661319209
 30
0.0
 10
3.886006846275652
 20
6.734962329860537
 30
0.0
 10
3.844586708433123
 20
6.733556079896061
 30
0.0
 10
3.803166570590595
 20
6.732149829931586
 30
0.0
 10
3.799031154028398
 20
6.805406772525404
 30
0.0
 10
3.837281415388234
 20
6.806681078048769
 30
0.0
  0
HATCH
  5
E5
330
1F
100
AcDbEntity
  8
Layer 1
 62
   254
420
 13358815
100
AcDbHatch
 10
0.0
 20
0.0
 30
0.0
210
0.0
220
0.0
230
1.0
  2
SOLID
 70
     1
 71
     0
 91
        1
 92
        1
 93
        1
 72
     4
 94
        3
 73
     0
 74
     1
 95
       11
 96
        7
 40
0.0
 40
0.0
 40
0.0
 40
0.0
 40
1.0
 40
1.0
 40
1.0
 40
2.0
 40
2.0
 40
2.0
 40
2.0
 10
3.837281415388234
 20
6.806681078048769
 10
3.910572817877285
 20
6.809170661319209
 10
3.886006846275652
 20
6.734962329860537
 10
3.844586708433123
 20
6.733556079896061
 10
3.803166570590595
 20
6.732149829931586
 10
3.799031154028398
 20
6.805406772525404
 10
3.837281415388234
 20
6.806681078048769
 97
        0
 97
        0
 75
     2
 76
     1
 98
        0
  0
SPLINE
  5
E6
330
1F
100
AcDbEntity
  8
Layer 1
 62
   250
420
  2301728
370
    18
100
AcDbSpline
210
0.0
220
0.0
230
1.0
 70
    11
 71
     3
 72
    11
 73
     7
 74
     0
 42
0.0000000001
 43
0.0000000001
 12
1.0
 22
0.0
 32
0.0
 13
1.0
 23
0.0
 33
0.0
 40
0.0
 40
0.0
 40
0.0
 40
0.0
 40
1.0
 40
1.0
 40
1.0
 40
2.0
 40
2.0
 40
2.0
 40
2.0
 10
3.831718653202643
 20
6.546552612397944
 30
0.0
 10
3.905010318017806
 20
6.549042195668385
 30
0.0
 10
3.880479068637517
 20
6.474851225320385
 30
0.0
 10
3.839041569684317
 20
6.473462336466582
 30
0.0
 10
3.797590181842578
 20
6.472069975390645
 30
0.0
 10
3.793468654168919
 20
6.54527830687458
 30
0.0
 10
3.831718653202643
 20
6.546552612397944
 30
0.0
  0
HATCH
  5
E7
330
1F
100
AcDbEntity
  8
Layer 1
 62
   254
420
 13358815
100
AcDbHatch
 10
0.0
 20
0.0
 30
0.0
210
0.0
220
0.0
230
1.0
  2
SOLID
 70
     1
 71
     0
 91
        1
 92
        1
 93
        1
 72
     4
 94
        3
 73
     0
 74
     1
 95
       11
 96
        7
 40
0.0
 40
0.0
 40
0.0
 40
0.0
 40
1.0
 40
1.0
 40
1.0
 40
2.0
 40
2.0
 40
2.0
 40
2.0
 10
3.831718653202643
 20
6.546552612397944
 10
3.905010318017806
 20
6.549042195668385
 10
3.880479068637517
 20
6.474851225320385
 10
3.839041569684317
 20
6.473462336466582
 10
3.797590181842578
 20
6.472069975390645
 10
3.793468654168919
 20
6.54527830687458
 10
3.831718653202643
 20
6.546552612397944
 97
        0
 97
        0
 75
     2
 76
     1
 98
        0
  0
SPLINE
  5
E8
330
1F
100
AcDbEntity
  8
Layer 1
 62
   250
420
  2301728
370
    18
100
AcDbSpline
210
0.0
220
0.0
230
1.0
 70
    11
 71
     3
 72
    11
 73
     7
 74
     0
 42
0.0000000001
 43
0.0000000001
 12
1.0
 22
0.0
 32
0.0
 13
1.0
 23
0.0
 33
0.0
 40
0.0
 40
0.0
 40
0.0
 40
0.0
 40
1.0
 40
1.0
 40
1.0
 40
2.0
 40
2.0
 40
2.0
 40
2.0
 10
3.834617958684955
 20
6.320229701448675
 30
0.0
 10
3.907878373500908
 20
6.322722756941251
 30
0.0
 10
3.883295040788602
 20
6.248514851325681
 30
0.0
 10
3.841874902946074
 20
6.24712206440664
 30
0.0
 10
3.800454765103546
 20
6.245681092220821
 30
0.0
 10
3.796367959651231
 20
6.318924145926101
 30
0.0
 10
3.834617958684955
 20
6.320229701448675
 30
0.0
  0
HATCH
  5
E9
330
1F
100
AcDbEntity
  8
Layer 1
 62
   254
420
 13358815
100
AcDbHatch
 10
0.0
 20
0.0
 30
0.0
210
0.0
220
0.0
230
1.0
  2
SOLID
 70
     1
 71
     0
 91
        1
 92
        1
 93
        1
 72
     4
 94
        3
 73
     0
 74
     1
 95
       11
 96
        7
 40
0.0
 40
0.0
 40
0.0
 40
0.0
 40
1.0
 40
1.0
 40
1.0
 40
2.0
 40
2.0
 40
2.0
 40
2.0
 10
3.834617958684955
 20
6.320229701448675
 10
3.907878373500908
 20
6.322722756941251
 10
3.883295040788602
 20
6.248514851325681
 10
3.841874902946074
 20
6.24712206440664
 10
3.800454765103546
 20
6.245681092220821
 10
3.796367959651231
 20
6.318924145926101
 10
3.834617958684955
 20
6.320229701448675
 97
        0
 97
        0
 75
     2
 76
     1
 98
        0
  0
SPLINE
  5
EA
330
1F
100
AcDbEntity
  8
Layer 1
 62
   250
420
  2301728
370
    18
100
AcDbSpline
210
0.0
220
0.0
230
1.0
 70
    11
 71
     3
 72
    11
 73
     7
 74
     0
 42
0.0000000001
 43
0.0000000001
 12
1.0
 22
0.0
 32
0.0
 13
1.0
 23
0.0
 33
0.0
 40
0.0
 40
0.0
 40
0.0
 40
0.0
 40
1.0
 40
1.0
 40
1.0
 40
2.0
 40
2.0
 40
2.0
 40
2.0
 10
4.224531143279364
 20
6.531174140564227
 30
0.0
 10
4.2978401692052
 20
6.53364983494613
 30
0.0
 10
4.273291558714239
 20
6.459458864598117
 30
0.0
 10
4.231822809761828
 20
6.45806650352218
 30
0.0
 10
4.190420033029972
 20
6.456660253557705
 30
0.0
 10
4.18628114424564
 20
6.529869017992344
 30
0.0
 10
4.224531143279364
 20
6.531174140564227
 30
0.0
  0
HATCH
  5
EB
330
1F
100
AcDbEntity
  8
Layer 1
 62
   254
420
 13358815
100
AcDbHatch
 10
0.0
 20
0.0
 30
0.0
210
0.0
220
0.0
230
1.0
  2
SOLID
 70
     1
 71
     0
 91
        1
 92
        1
 93
        1
 72
     4
 94
        3
 73
     0
 74
     1
 95
       11
 96
        7
 40
0.0
 40
0.0
 40
0.0
 40
0.0
 40
1.0
 40
1.0
 40
1.0
 40
2.0
 40
2.0
 40
2.0
 40
2.0
 10
4.224531143279364
 20
6.531174140564227
 10
4.2978401692052
 20
6.53364983494613
 10
4.273291558714239
 20
6.459458864598117
 10
4.231822809761828
 20
6.45806650352218
 10
4.190420033029972
 20
6.456660253557705
 10
4.18628114424564
 20
6.529869017992344
 10
4.224531143279364
 20
6.531174140564227
 97
        0
 97
        0
 75
     2
 76
     1
 98
        0
  0
SPLINE
  5
EC
330
1F
100
AcDbEntity
  8
Layer 1
 62
   250
420
  2301728
370
    18
100
AcDbSpline
210
0.0
220
0.0
230
1.0
 70
    11
 71
     3
 72
    11
 73
     7
 74
     0
 42
0.0000000001
 43
0.0000000001
 12
1.0
 22
0.0
 32
0.0
 13
1.0
 23
0.0
 33
0.0
 40
0.0
 40
0.0
 40
0.0
 40
0.0
 40
1.0
 40
1.0
 40
1.0
 40
2.0
 40
2.0
 40
2.0
 40
2.0
 10
4.228225587630492
 20
6.751375523890348
 30
0.0
 10
4.301503363557105
 20
6.753868579382925
 30
0.0
 10
4.276954753066144
 20
6.679674136812789
 30
0.0
 10
4.235517254112943
 20
6.678267886848314
 30
0.0
 10
4.194079755159742
 20
6.676878997994511
 30
0.0
 10
4.189944338597544
 20
6.750069968367774
 30
0.0
 10
4.228225587630492
 20
6.751375523890348
 30
0.0
  0
HATCH
  5
ED
330
1F
100
AcDbEntity
  8
Layer 1
 62
   254
420
 13358815
100
AcDbHatch
 10
0.0
 20
0.0
 30
0.0
210
0.0
220
0.0
230
1.0
  2
SOLID
 70
     1
 71
     0
 91
        1
 92
        1
 93
        1
 72
     4
 94
        3
 73
     0
 74
     1
 95
       11
 96
        7
 40
0.0
 40
0.0
 40
0.0
 40
0.0
 40
1.0
 40
1.0
 40
1.0
 40
2.0
 40
2.0
 40
2.0
 40
2.0
 10
4.228225587630492
 20
6.751375523890348
 10
4.301503363557105
 20
6.753868579382925
 10
4.276954753066144
 20
6.679674136812789
 10
4.235517254112943
 20
6.678267886848314
 10
4.194079755159742
 20
6.676878997994511
 10
4.189944338597544
 20
6.750069968367774
 10
4.228225587630492
 20
6.751375523890348
 97
        0
 97
        0
 75
     2
 76
     1
 98
        0
  0
SPLINE
  5
EE
330
1F
100
AcDbEntity
  8
Layer 1
 62
   250
420
  2301728
370
    18
100
AcDbSpline
210
0.0
220
0.0
230
1.0
 70
    11
 71
     3
 72
    11
 73
     7
 74
     0
 42
0.0000000001
 43
0.0000000001
 12
1.0
 22
0.0
 32
0.0
 13
1.0
 23
0.0
 33
0.0
 40
0.0
 40
0.0
 40
0.0
 40
0.0
 40
1.0
 40
1.0
 40
1.0
 40
2.0
 40
2.0
 40
2.0
 40
2.0
 10
4.227312393209116
 20
7.014452351325669
 30
0.0
 10
4.300586696913594
 20
7.016944961625945
 30
0.0
 10
4.276038086422633
 20
6.942736630167271
 30
0.0
 10
4.234600587469433
 20
6.941347741313469
 30
0.0
 10
4.193201282959712
 20
6.939955380237532
 30
0.0
 10
4.189027671954035
 20
7.013146350610794
 30
0.0
 10
4.227312393209116
 20
7.014452351325669
 30
0.0
  0
HATCH
  5
EF
330
1F
100
AcDbEntity
  8
Layer 1
 62
   254
420
 13358815
100
AcDbHatch
 10
0.0
 20
0.0
 30
0.0
210
0.0
220
0.0
230
1.0
  2
SOLID
 70
     1
 71
     0
 91
        1
 92
        1
 93
        1
 72
     4
 94
        3
 73
     0
 74
     1
 95
       11
 96
        7
 40
0.0
 40
0.0
 40
0.0
 40
0.0
 40
1.0
 40
1.0
 40
1.0
 40
2.0
 40
2.0
 40
2.0
 40
2.0
 10
4.227312393209116
 20
7.014452351325669
 10
4.300586696913594
 20
7.016944961625945
 10
4.276038086422633
 20
6.942736630167271
 10
4.234600587469433
 20
6.941347741313469
 10
4.193201282959712
 20
6.939955380237532
 10
4.189027671954035
 20
7.013146350610794
 10
4.227312393209116
 20
7.014452351325669
 97
        0
 97
        0
 75
     2
 76
     1
 98
        0
  0
SPLINE
  5
F0
330
1F
100
AcDbEntity
  8
Layer 1
 62
   250
420
  2301728
370
    18
100
AcDbSpline
210
0.0
220
0.0
230
1.0
 70
    11
 71
     3
 72
    11
 73
     7
 74
     0
 42
0.0000000001
 43
0.0000000001
 12
1.0
 22
0.0
 32
0.0
 13
1.0
 23
0.0
 33
0.0
 40
0.0
 40
0.0
 40
0.0
 40
0.0
 40
1.0
 40
1.0
 40
1.0
 40
2.0
 40
2.0
 40
2.0
 40
2.0
 10
4.23219433753022
 20
7.247455372469428
 30
0.0
 10
4.305472113456846
 20
7.249948427962003
 30
0.0
 10
4.280885308522405
 20
7.175753985391869
 30
0.0
 10
4.239486004012684
 20
7.174348184659063
 30
0.0
 10
4.198013782838138
 20
7.172959295770093
 30
0.0
 10
4.193913359832651
 20
7.246167178057526
 30
0.0
 10
4.23219433753022
 20
7.247455372469428
 30
0.0
  0
HATCH
  5
F1
330
1F
100
AcDbEntity
  8
Layer 1
 62
   254
420
 13358815
100
AcDbHatch
 10
0.0
 20
0.0
 30
0.0
210
0.0
220
0.0
230
1.0
  2
SOLID
 70
     1
 71
     0
 91
        1
 92
        1
 93
        1
 72
     4
 94
        3
 73
     0
 74
     1
 95
       11
 96
        7
 40
0.0
 40
0.0
 40
0.0
 40
0.0
 40
1.0
 40
1.0
 40
1.0
 40
2.0
 40
2.0
 40
2.0
 40
2.0
 10
4.23219433753022
 20
7.247455372469428
 10
4.305472113456846
 20
7.249948427962003
 10
4.280885308522405
 20
7.175753985391869
 10
4.239486004012684
 20
7.174348184659063
 10
4.198013782838138
 20
7.172959295770093
 10
4.193913359832651
 20
7.246167178057526
 10
4.23219433753022
 20
7.247455372469428
 97
        0
 97
        0
 75
     2
 76
     1
 98
        0
  0
SPLINE
  5
F2
330
1F
100
AcDbEntity
  8
Layer 1
 62
   250
420
  2301728
370
    18
100
AcDbSpline
210
0.0
220
0.0
230
1.0
 70
    11
 71
     3
 72
    11
 73
     7
 74
     0
 42
0.0000000001
 43
0.0000000001
 12
1.0
 22
0.0
 32
0.0
 13
1.0
 23
0.0
 33
0.0
 40
0.0
 40
0.0
 40
0.0
 40
0.0
 40
1.0
 40
1.0
 40
1.0
 40
2.0
 40
2.0
 40
2.0
 40
2.0
 10
4.971840152178528
 20
7.395295646512446
 30
0.0
 10
5.045149178104364
 20
7.397788702005022
 30
0.0
 10
5.020565845392057
 20
7.323628981656232
 30
0.0
 10
4.979163068660202
 20
7.322205370581084
 30
0.0
 10
4.937725569707001
 20
7.320799120616609
 30
0.0
 10
4.933624875366149
 20
7.394024813211217
 30
0.0
 10
4.971840152178528
 20
7.395295646512446
 30
0.0
  0
HATCH
  5
F3
330
1F
100
AcDbEntity
  8
Layer 1
 62
   254
420
 13358815
100
AcDbHatch
 10
0.0
 20
0.0
 30
0.0
210
0.0
220
0.0
230
1.0
  2
SOLID
 70
     1
 71
     0
 91
        1
 92
        1
 93
        1
 72
     4
 94
        3
 73
     0
 74
     1
 95
       11
 96
        7
 40
0.0
 40
0.0
 40
0.0
 40
0.0
 40
1.0
 40
1.0
 40
1.0
 40
2.0
 40
2.0
 40
2.0
 40
2.0
 10
4.971840152178528
 20
7.395295646512446
 10
5.045149178104364
 20
7.397788702005022
 10
5.020565845392057
 20
7.323628981656232
 10
4.979163068660202
 20
7.322205370581084
 10
4.937725569707001
 20
7.320799120616609
 10
4.933624875366149
 20
7.394024813211217
 10
4.971840152178528
 20
7.395295646512446
 97
        0
 97
        0
 75
     2
 76
     1
 98
        0
  0
SPLINE
  5
F4
330
1F
100
AcDbEntity
  8
Layer 1
 62
   250
420
  2301728
370
    18
100
AcDbSpline
210
0.0
220
0.0
230
1.0
 70
    11
 71
     3
 72
    11
 73
     7
 74
     0
 42
0.0000000001
 43
0.0000000001
 12
1.0
 22
0.0
 32
0.0
 13
1.0
 23
0.0
 33
0.0
 40
0.0
 40
0.0
 40
0.0
 40
0.0
 40
1.0
 40
1.0
 40
1.0
 40
2.0
 40
2.0
 40
2.0
 40
2.0
 10
4.971565846629901
 20
7.168872041121277
 30
0.0
 10
5.044843622556527
 20
7.171365096613853
 30
0.0
 10
5.020326262064777
 20
7.097139404044507
 30
0.0
 10
4.978857513112366
 20
7.095747042968569
 30
0.0
 10
4.937420304277111
 20
7.094358154114767
 30
0.0
 10
4.933354042039658
 20
7.167566485598702
 30
0.0
 10
4.971565846629901
 20
7.168872041121277
 30
0.0
  0
HATCH
  5
F5
330
1F
100
AcDbEntity
  8
Layer 1
 62
   254
420
 13358815
100
AcDbHatch
 10
0.0
 20
0.0
 30
0.0
210
0.0
220
0.0
230
1.0
  2
SOLID
 70
     1
 71
     0
 91
        1
 92
        1
 93
        1
 72
     4
 94
        3
 73
     0
 74
     1
 95
       11
 96
        7
 40
0.0
 40
0.0
 40
0.0
 40
0.0
 40
1.0
 40
1.0
 40
1.0
 40
2.0
 40
2.0
 40
2.0
 40
2.0
 10
4.971565846629901
 20
7.168872041121277
 10
5.044843622556527
 20
7.171365096613853
 10
5.020326262064777
 20
7.097139404044507
 10
4.978857513112366
 20
7.095747042968569
 10
4.937420304277111
 20
7.094358154114767
 10
4.933354042039658
 20
7.167566485598702
 10
4.971565846629901
 20
7.168872041121277
 97
        0
 97
        0
 75
     2
 76
     1
 98
        0
  0
SPLINE
  5
F6
330
1F
100
AcDbEntity
  8
Layer 1
 62
   250
420
  2301728
370
    18
100
AcDbSpline
210
0.0
220
0.0
230
1.0
 70
    11
 71
     3
 72
    11
 73
     7
 74
     0
 42
0.0000000001
 43
0.0000000001
 12
1.0
 22
0.0
 32
0.0
 13
1.0
 23
0.0
 33
0.0
 40
0.0
 40
0.0
 40
0.0
 40
0.0
 40
1.0
 40
1.0
 40
1.0
 40
2.0
 40
2.0
 40
2.0
 40
2.0
 10
4.968683902258261
 20
6.924747047288393
 30
0.0
 10
5.041996400406232
 20
6.927222741670296
 30
0.0
 10
5.017413067693925
 20
6.853031771322295
 30
0.0
 10
4.975975568740725
 20
6.851608160247148
 30
0.0
 10
4.934538359832711
 20
6.850233160281883
 30
0.0
 10
4.930437375446672
 20
6.923458852876491
 30
0.0
 10
4.968683902258261
 20
6.924747047288393
 30
0.0
  0
HATCH
  5
F7
330
1F
100
AcDbEntity
  8
Layer 1
 62
   254
420
 13358815
100
AcDbHatch
 10
0.0
 20
0.0
 30
0.0
210
0.0
220
0.0
230
1.0
  2
SOLID
 70
     1
 71
     0
 91
        1
 92
        1
 93
        1
 72
     4
 94
        3
 73
     0
 74
     1
 95
       11
 96
        7
 40
0.0
 40
0.0
 40
0.0
 40
0.0
 40
1.0
 40
1.0
 40
1.0
 40
2.0
 40
2.0
 40
2.0
 40
2.0
 10
4.968683902258261
 20
6.924747047288393
 10
5.041996400406232
 20
6.927222741670296
 10
5.017413067693925
 20
6.853031771322295
 10
4.975975568740725
 20
6.851608160247148
 10
4.934538359832711
 20
6.850233160281883
 10
4.930437375446672
 20
6.923458852876491
 10
4.968683902258261
 20
6.924747047288393
 97
        0
 97
        0
 75
     2
 76
     1
 98
        0
  0
SPLINE
  5
F8
330
1F
100
AcDbEntity
  8
Layer 1
 62
   250
420
  2301728
370
    18
100
AcDbSpline
210
0.0
220
0.0
230
1.0
 70
    11
 71
     3
 72
    11
 73
     7
 74
     0
 42
0.0000000001
 43
0.0000000001
 12
1.0
 22
0.0
 32
0.0
 13
1.0
 23
0.0
 33
0.0
 40
0.0
 40
0.0
 40
0.0
 40
0.0
 40
1.0
 40
1.0
 40
1.0
 40
2.0
 40
2.0
 40
2.0
 40
2.0
 10
4.978517235343184
 20
6.681132470109282
 30
0.0
 10
5.051830026499323
 20
6.683573442269853
 30
0.0
 10
5.027246693165984
 20
6.609365110811167
 30
0.0
 10
4.985843624046993
 20
6.607994017992344
 30
0.0
 10
4.944371402872447
 20
6.606570406881221
 30
0.0
 10
4.940305430752939
 20
6.679795664587497
 30
0.0
 10
4.978517235343184
 20
6.681132470109282
 30
0.0
  0
HATCH
  5
F9
330
1F
100
AcDbEntity
  8
Layer 1
 62
   254
420
 13358815
100
AcDbHatch
 10
0.0
 20
0.0
 30
0.0
210
0.0
220
0.0
230
1.0
  2
SOLID
 70
     1
 71
     0
 91
        1
 92
        1
 93
        1
 72
     4
 94
        3
 73
     0
 74
     1
 95
       11
 96
        7
 40
0.0
 40
0.0
 40
0.0
 40
0.0
 40
1.0
 40
1.0
 40
1.0
 40
2.0
 40
2.0
 40
2.0
 40
2.0
 10
4.978517235343184
 20
6.681132470109282
 10
5.051830026499323
 20
6.683573442269853
 10
5.027246693165984
 20
6.609365110811167
 10
4.985843624046993
 20
6.607994017992344
 10
4.944371402872447
 20
6.606570406881221
 10
4.940305430752939
 20
6.679795664587497
 10
4.978517235343184
 20
6.681132470109282
 97
        0
 97
        0
 75
     2
 76
     1
 98
        0
  0
SPLINE
  5
FA
330
1F
100
AcDbEntity
  8
Layer 1
 62
   250
420
  2301728
370
    18
100
AcDbSpline
210
0.0
220
0.0
230
1.0
 70
    11
 71
     3
 72
    11
 73
     7
 74
     0
 42
0.0000000001
 43
0.0000000001
 12
1.0
 22
0.0
 32
0.0
 13
1.0
 23
0.0
 33
0.0
 40
0.0
 40
0.0
 40
0.0
 40
0.0
 40
1.0
 40
1.0
 40
1.0
 40
2.0
 40
2.0
 40
2.0
 40
2.0
 10
5.363854031164313
 20
6.651090804201531
 30
0.0
 10
5.437128334868803
 20
6.65360122080478
 30
0.0
 10
5.412545002156498
 20
6.579424139345317
 30
0.0
 10
5.371145697646776
 20
6.577983167159497
 30
0.0
 10
5.329742920914921
 20
6.576576917195021
 30
0.0
 10
5.325604032130589
 20
6.649819970900302
 30
0.0
 10
5.363854031164313
 20
6.651090804201531
 30
0.0
  0
HATCH
  5
FB
330
1F
100
AcDbEntity
  8
Layer 1
 62
   254
420
 13358815
100
AcDbHatch
 10
0.0
 20
0.0
 30
0.0
210
0.0
220
0.0
230
1.0
  2
SOLID
 70
     1
 71
     0
 91
        1
 92
        1
 93
        1
 72
     4
 94
        3
 73
     0
 74
     1
 95
       11
 96
        7
 40
0.0
 40
0.0
 40
0.0
 40
0.0
 40
1.0
 40
1.0
 40
1.0
 40
2.0
 40
2.0
 40
2.0
 40
2.0
 10
5.363854031164313
 20
6.651090804201531
 10
5.437128334868803
 20
6.65360122080478
 10
5.412545002156498
 20
6.579424139345317
 10
5.371145697646776
 20
6.577983167159497
 10
5.329742920914921
 20
6.576576917195021
 10
5.325604032130589
 20
6.649819970900302
 10
5.363854031164313
 20
6.651090804201531
 97
        0
 97
        0
 75
     2
 76
     1
 98
        0
  0
SPLINE
  5
FC
330
1F
100
AcDbEntity
  8
Layer 1
 62
   250
420
  2301728
370
    18
100
AcDbSpline
210
0.0
220
0.0
230
1.0
 70
    11
 71
     3
 72
    11
 73
     7
 74
     0
 42
0.0000000001
 43
0.0000000001
 12
1.0
 22
0.0
 32
0.0
 13
1.0
 23
0.0
 33
0.0
 40
0.0
 40
0.0
 40
0.0
 40
0.0
 40
1.0
 40
1.0
 40
1.0
 40
2.0
 40
2.0
 40
2.0
 40
2.0
 10
5.358801947958606
 20
6.658889415115633
 30
0.0
 10
5.432076251663097
 20
6.661365109497536
 30
0.0
 10
5.407527641172136
 20
6.58713941692819
 30
0.0
 10
5.36609361444107
 20
6.585764416962926
 30
0.0
 10
5.324656115487869
 20
6.584375528109123
 30
0.0
 10
5.320551948924882
 20
6.657583859593059
 30
0.0
 10
5.358801947958606
 20
6.658889415115633
 30
0.0
  0
HATCH
  5
FD
330
1F
100
AcDbEntity
  8
Layer 1
 62
   254
420
 13358815
100
AcDbHatch
 10
0.0
 20
0.0
 30
0.0
210
0.0
220
0.0
230
1.0
  2
SOLID
 70
     1
 71
     0
 91
        1
 92
        1
 93
        1
 72
     4
 94
        3
 73
     0
 74
     1
 95
       11
 96
        7
 40
0.0
 40
0.0
 40
0.0
 40
0.0
 40
1.0
 40
1.0
 40
1.0
 40
2.0
 40
2.0
 40
2.0
 40
2.0
 10
5.358801947958606
 20
6.658889415115633
 10
5.432076251663097
 20
6.661365109497536
 10
5.407527641172136
 20
6.58713941692819
 10
5.36609361444107
 20
6.585764416962926
 10
5.324656115487869
 20
6.584375528109123
 10
5.320551948924882
 20
6.657583859593059
 10
5.358801947958606
 20
6.658889415115633
 97
        0
 97
        0
 75
     2
 76
     1
 98
        0
  0
SPLINE
  5
FE
330
1F
100
AcDbEntity
  8
Layer 1
 62
   250
420
  2301728
370
    18
100
AcDbSpline
210
0.0
220
0.0
230
1.0
 70
    11
 71
     3
 72
    11
 73
     7
 74
     0
 42
0.0000000001
 43
0.0000000001
 12
1.0
 22
0.0
 32
0.0
 13
1.0
 23
0.0
 33
0.0
 40
0.0
 40
0.0
 40
0.0
 40
0.0
 40
1.0
 40
1.0
 40
1.0
 40
2.0
 40
2.0
 40
2.0
 40
2.0
 10
5.355954725808311
 20
6.883667187215046
 30
0.0
 10
5.429229029512801
 20
6.88614288159695
 30
0.0
 10
5.404715141243186
 20
6.8119870735479
 30
0.0
 10
5.36324292006864
 20
6.810563462436776
 30
0.0
 10
5.321840143336784
 20
6.809170661319209
 30
0.0
 10
5.317739448995932
 20
6.882378992803145
 30
0.0
 10
5.355954725808311
 20
6.883667187215046
 30
0.0
  0
HATCH
  5
FF
330
1F
100
AcDbEntity
  8
Layer 1
 62
   254
420
 13358815
100
AcDbHatch
 10
0.0
 20
0.0
 30
0.0
210
0.0
220
0.0
230
1.0
  2
SOLID
 70
     1
 71
     0
 91
        1
 92
        1
 93
        1
 72
     4
 94
        3
 73
     0
 74
     1
 95
       11
 96
        7
 40
0.0
 40
0.0
 40
0.0
 40
0.0
 40
1.0
 40
1.0
 40
1.0
 40
2.0
 40
2.0
 40
2.0
 40
2.0
 10
5.355954725808311
 20
6.883667187215046
 10
5.429229029512801
 20
6.88614288159695
 10
5.404715141243186
 20
6.8119870735479
 10
5.36324292006864
 20
6.810563462436776
 10
5.321840143336784
 20
6.809170661319209
 10
5.317739448995932
 20
6.882378992803145
 10
5.355954725808311
 20
6.883667187215046
 97
        0
 97
        0
 75
     2
 76
     1
 98
        0
  0
SPLINE
  5
100
330
1F
100
AcDbEntity
  8
Layer 1
 62
   250
420
  2301728
370
    18
100
AcDbSpline
210
0.0
220
0.0
230
1.0
 70
    11
 71
     3
 72
    11
 73
     7
 74
     0
 42
0.0000000001
 43
0.0000000001
 12
1.0
 22
0.0
 32
0.0
 13
1.0
 23
0.0
 33
0.0
 40
0.0
 40
0.0
 40
0.0
 40
0.0
 40
1.0
 40
1.0
 40
1.0
 40
2.0
 40
2.0
 40
2.0
 40
2.0
 10
5.355850559144275
 20
7.121299125656403
 30
0.0
 10
5.429163057292246
 20
7.123774820038307
 30
0.0
 10
5.404576252357805
 20
7.049597738578844
 30
0.0
 10
5.363142225626739
 20
7.048174127503696
 30
0.0
 10
5.321704726673539
 20
7.046785238649893
 30
0.0
 10
5.317635282331897
 20
7.119993570133829
 30
0.0
 10
5.355850559144275
 20
7.121299125656403
 30
0.0
  0
HATCH
  5
101
330
1F
100
AcDbEntity
  8
Layer 1
 62
   254
420
 13358815
100
AcDbHatch
 10
0.0
 20
0.0
 30
0.0
210
0.0
220
0.0
230
1.0
  2
SOLID
 70
     1
 71
     0
 91
        1
 92
        1
 93
        1
 72
     4
 94
        3
 73
     0
 74
     1
 95
       11
 96
        7
 40
0.0
 40
0.0
 40
0.0
 40
0.0
 40
1.0
 40
1.0
 40
1.0
 40
2.0
 40
2.0
 40
2.0
 40
2.0
 10
5.355850559144275
 20
7.121299125656403
 10
5.429163057292246
 20
7.123774820038307
 10
5.404576252357805
 20
7.049597738578844
 10
5.363142225626739
 20
7.048174127503696
 10
5.321704726673539
 20
7.046785238649893
 10
5.317635282331897
 20
7.119993570133829
 10
5.355850559144275
 20
7.121299125656403
 97
        0
 97
        0
 75
     2
 76
     1
 98
        0
  0
SPLINE
  5
102
330
1F
100
AcDbEntity
  8
Layer 1
 62
   250
420
  2301728
370
    18
100
AcDbSpline
210
0.0
220
0.0
230
1.0
 70
    11
 71
     3
 72
    11
 73
     7
 74
     0
 42
0.0000000001
 43
0.0000000001
 12
1.0
 22
0.0
 32
0.0
 13
1.0
 23
0.0
 33
0.0
 40
0.0
 40
0.0
 40
0.0
 40
0.0
 40
1.0
 40
1.0
 40
1.0
 40
2.0
 40
2.0
 40
2.0
 40
2.0
 10
5.368399169938382
 20
7.364118563966713
 30
0.0
 10
5.441638751421528
 20
7.366576897237943
 30
0.0
 10
5.417124863151912
 20
7.292382454667808
 30
0.0
 10
5.375687364198711
 20
7.291010926924677
 30
0.0
 10
5.334284587466855
 20
7.289587315849531
 30
0.0
 10
5.330149170904658
 20
7.362813008444138
 30
0.0
 10
5.368399169938382
 20
7.364118563966713
 30
0.0
  0
HATCH
  5
103
330
1F
100
AcDbEntity
  8
Layer 1
 62
   254
420
 13358815
100
AcDbHatch
 10
0.0
 20
0.0
 30
0.0
210
0.0
220
0.0
230
1.0
  2
SOLID
 70
     1
 71
     0
 91
        1
 92
        1
 93
        1
 72
     4
 94
        3
 73
     0
 74
     1
 95
       11
 96
        7
 40
0.0
 40
0.0
 40
0.0
 40
0.0
 40
1.0
 40
1.0
 40
1.0
 40
2.0
 40
2.0
 40
2.0
 40
2.0
 10
5.368399169938382
 20
7.364118563966713
 10
5.441638751421528
 20
7.366576897237943
 10
5.417124863151912
 20
7.292382454667808
 10
5.375687364198711
 20
7.291010926924677
 10
5.334284587466855
 20
7.289587315849531
 10
5.330149170904658
 20
7.362813008444138
 10
5.368399169938382
 20
7.364118563966713
 97
        0
 97
        0
 75
     2
 76
     1
 98
        0
  0
SPLINE
  5
104
330
1F
100
AcDbEntity
  8
Layer 1
 62
   250
420
  2301728
370
    18
100
AcDbSpline
210
0.0
220
0.0
230
1.0
 70
    11
 71
     3
 72
    11
 73
     7
 74
     0
 42
0.0000000001
 43
0.0000000001
 12
1.0
 22
0.0
 32
0.0
 13
1.0
 23
0.0
 33
0.0
 40
0.0
 40
0.0
 40
0.0
 40
0.0
 40
1.0
 40
1.0
 40
1.0
 40
2.0
 40
2.0
 40
2.0
 40
2.0
 10
5.364360975595951
 20
7.577670641905266
 30
0.0
 10
5.437604029301231
 20
7.580146795770158
 30
0.0
 10
5.41305541881027
 20
7.505955365939169
 30
0.0
 10
5.371652642078415
 20
7.504531754864021
 30
0.0
 10
5.330215143125214
 20
7.503142866010219
 30
0.0
 10
5.326079726563017
 20
7.576351197494154
 30
0.0
 10
5.364360975595951
 20
7.577670641905266
 30
0.0
  0
HATCH
  5
105
330
1F
100
AcDbEntity
  8
Layer 1
 62
   254
420
 13358815
100
AcDbHatch
 10
0.0
 20
0.0
 30
0.0
210
0.0
220
0.0
230
1.0
  2
SOLID
 70
     1
 71
     0
 91
        1
 92
        1
 93
        1
 72
     4
 94
        3
 73
     0
 74
     1
 95
       11
 96
        7
 40
0.0
 40
0.0
 40
0.0
 40
0.0
 40
1.0
 40
1.0
 40
1.0
 40
2.0
 40
2.0
 40
2.0
 40
2.0
 10
5.364360975595951
 20
7.577670641905266
 10
5.437604029301231
 20
7.580146795770158
 10
5.41305541881027
 20
7.505955365939169
 10
5.371652642078415
 20
7.504531754864021
 10
5.330215143125214
 20
7.503142866010219
 10
5.326079726563017
 20
7.576351197494154
 10
5.364360975595951
 20
7.577670641905266
 97
        0
 97
        0
 75
     2
 76
     1
 98
        0
  0
SPLINE
  5
106
330
1F
100
AcDbEntity
  8
Layer 1
 62
   250
420
  2301728
370
    18
100
AcDbSpline
210
0.0
220
0.0
230
1.0
 70
     8
 71
     3
 72
     8
 73
     4
 74
     0
 42
0.0000000001
 43
0.0000000001
 12
1.0
 22
0.0
 32
0.0
 13
1.0
 23
0.0
 33
0.0
 40
0.0
 40
0.0
 40
0.0
 40
0.0
 40
1.0
 40
1.0
 40
1.0
 40
1.0
 10
6.241371370107471
 20
7.34763592549421
 30
0.0
 10
6.252663359832695
 20
7.349552592112458
 30
0.0
 10
6.291586970943778
 20
7.366865091675107
 30
0.0
 10
6.298979007541068
 20
7.373917174830289
 30
0.0
  0
MTEXT
  5
108
330
1F
100
AcDbEntity
  8
Layer 2
 62
   250
420
  2236191
100
AcDbMText
 10
3.620040310753716
 20
5.080404122670491
 30
0.0
 40
0.118
 41
0.0
 46
0.0
 71
     7
 72
     1
  1
\fHelvetica Neue LT Std 55 Roman|b0|i0|c0|p34;\W1;SIMPSON Strong-Tie\H0.068794;®\H0.118; ^C
 73
     1
 44
1.0
  0
MTEXT
  5
109
330
1F
100
AcDbEntity
  8
Layer 2
 62
   250
420
  2236191
100
AcDbMText
 10
3.405745877159966
 20
4.880412260691324
 30
0.0
 40
0.118
 41
0.0
 46
0.0
 71
     7
 72
     1
  1
\fHelvetica Neue LT Std 55 Roman|b0|i0|c0|p34;\W1;TP Timber Plate Connection 
 73
     1
 44
1.0
  0
MTEXT
  5
10A
330
1F
100
AcDbEntity
  8
Layer 2
 62
   250
420
  2236191
100
AcDbMText
 10
4.964986377292209
 20
5.85774893230862
 30
0.0
 40
0.118
 41
0.0
 46
0.0
 71
     7
 72
     1
  1
\fHelvetica Neue LT Std 57 Condensed|b0|i0|c0|p34;\W1;TP
 73
     1
 44
1.0
  0
MTEXT
  5
10B
330
1F
100
AcDbEntity
  8
Layer 2
 62
   250
420
  2236191
100
AcDbMText
 10
3.731527540418837
 20
8.30713865492079
 30
0.0
 40
0.118
 41
0.0
 46
0.0
 71
     7
 72
     1
  1
\fHelvetica Neue LT Std 57 Condensed|b0|i0|c0|p34;\W1;Timber Plate
 73
     1
 44
1.0
  0
POLYLINE
  5
10C
330
1F
100
AcDbEntity
  8
Layer 2
 62
   250
420
  2236191
370
    18
100
AcDb2dPolyline
 66
     1
 10
0.0
 20
0.0
 30
0.0
  0
VERTEX
  5
10D
330
10C
100
AcDbEntity
  8
Layer 2
 62
   250
420
  2236191
370
    18
100
AcDbVertex
100
AcDb2dVertex
 10
5.010549014998737
 20
6.022606382978703
 30
0.0
  0
VERTEX
  5
10E
330
10C
100
AcDbEntity
  8
Layer 2
 62
   250
420
  2236191
370
    18
100
AcDbVertex
100
AcDb2dVertex
 10
4.785904255319161
 20
6.37367021276595
 30
0.0
  0
SEQEND
  5
10F
330
10C
100
AcDbEntity
  8
Layer 2
 62
   250
420
  2236191
370
    18
  0
POLYLINE
  5
110
330
1F
100
AcDbEntity
  8
Layer 2
 62
   250
420
  2236191
370
    18
100
AcDb2dPolyline
 66
     1
 10
0.0
 20
0.0
 30
0.0
  0
VERTEX
  5
111
330
110
100
AcDbEntity
  8
Layer 2
 62
   250
420
  2236191
370
    18
100
AcDbVertex
100
AcDb2dVertex
 10
3.963800236406617
 20
8.230644208037827
 30
0.0
  0
VERTEX
  5
112
330
110
100
AcDbEntity
  8
Layer 2
 62
   250
420
  2236191
370
    18
100
AcDbVertex
100
AcDb2dVertex
 10
3.830230496453926
 20
7.916506372117927
 30
0.0
  0
SEQEND
  5
113
330
110
100
AcDbEntity
  8
Layer 2
 62
   250
420
  2236191
370
    18
  0
POLYLINE
  5
114
330
1F
100
AcDbEntity
  8
Layer 2
 62
   250
420
  2236191
370
    18
100
AcDb2dPolyline
 66
     1
 10
0.0
 20
0.0
 30
0.0
  0
VERTEX
  5
115
330
114
100
AcDbEntity
  8
Layer 2
 62
   250
420
  2236191
370
    18
100
AcDbVertex
100
AcDb2dVertex
 10
4.18370679335011
 20
8.272392510389938
 30
0.0
  0
VERTEX
  5
116
330
114
100
AcDbEntity
  8
Layer 2
 62
   250
420
  2236191
370
    18
100
AcDbVertex
100
AcDb2dVertex
 10
4.425975177304988
 20
8.010264130734816
 30
0.0
  0
SEQEND
  5
117
330
114
100
AcDbEntity
  8
Layer 2
 62
   250
420
  2236191
370
    18
  0
ENDSEC
  0
SECTION
  2
OBJECTS
  0
DICTIONARY
  5
C
330
0
100
AcDbDictionary
281
     1
  3
ACAD_GROUP
350
D
  3
ACAD_LAYOUT
350
1A
  3
ACAD_MATERIAL
350
3B
  3
ACAD_MLEADERSTYLE
350
119
  3
ACAD_MLINESTYLE
350
17
  3
ACAD_PLOTSETTINGS
350
19
  3
ACAD_PLOTSTYLENAME
350
E
  3
ACAD_TABLESTYLE
350
118
  3
ACAD_VISUALSTYLE
350
2A
  0
SUN
  5
3F
330
29
100
AcDbSun
 90
        1
290
     0
 63
     7
421
 16777215
 40
1.0
291
     1
 91
  2455826
 92
 54000000
292
     0
 70
     2
 71
   256
280
     1
  0
DICTIONARY
  5
D
102
{ACAD_REACTORS
330
C
102
}
330
C
100
AcDbDictionary
281
     1
  0
DICTIONARY
  5
1A
102
{ACAD_REACTORS
330
C
102
}
330
C
100
AcDbDictionary
281
     1
  3
Layout1
350
1E
  3
Layout2
350
26
  3
Model
350
22
  0
DICTIONARY
  5
3B
102
{ACAD_REACTORS
330
C
102
}
330
C
100
AcDbDictionary
281
     1
  3
ByBlock
350
3D
  3
ByLayer
350
3C
  3
Global
350
3E
  0
DICTIONARY
  5
119
102
{ACAD_REACTORS
330
C
102
}
330
C
100
AcDbDictionary
281
     1
  0
DICTIONARY
  5
17
102
{ACAD_REACTORS
330
C
102
}
330
C
100
AcDbDictionary
281
     1
  3
Standard
350
18
  0
DICTIONARY
  5
19
102
{ACAD_REACTORS
330
C
102
}
330
C
100
AcDbDictionary
281
     1
  0
ACDBDICTIONARYWDFLT
  5
E
102
{ACAD_REACTORS
330
C
102
}
330
C
100
AcDbDictionary
281
     1
  3
Normal
350
F
100
AcDbDictionaryWithDefault
340
F
  0
DICTIONARY
  5
118
102
{ACAD_REACTORS
330
C
102
}
330
C
100
AcDbDictionary
281
     1
  0
DICTIONARY
  5
2A
102
{ACAD_REACTORS
330
C
102
}
330
C
100
AcDbDictionary
281
     1
  3
2dWireframe
350
2F
  3
3D Hidden
350
31
  3
3dWireframe
350
30
  3
Basic
350
32
  3
Brighten
350
36
  3
ColorChange
350
3A
  3
Conceptual
350
34
  3
Dim
350
35
  3
Facepattern
350
39
  3
Flat
350
2B
  3
FlatWithEdges
350
2C
  3
Gouraud
350
2D
  3
GouraudWithEdges
350
2E
  3
Linepattern
350
38
  3
Realistic
350
33
  3
Thicken
350
37
  0
LAYOUT
  5
1E
102
{ACAD_REACTORS
330
1A
102
}
330
1A
100
AcDbPlotSettings
  1

  2
none_device
  4

  6

 40
0.0
 41
0.0
 42
0.0
 43
0.0
 44
0.0
 45
0.0
 46
0.0
 47
0.0
 48
0.0
 49
0.0
140
0.0
141
0.0
142
1.0
143
1.0
 70
   688
 72
     0
 73
     0
 74
     5
  7

 75
    16
 76
     0
 77
     2
 78
   300
147
1.0
148
0.0
149
0.0
100
AcDbLayout
  1
Layout1
 70
     1
 71
     1
 10
0.0
 20
0.0
 11
12.0
 21
9.0
 12
0.0
 22
0.0
 32
0.0
 14
1.000000000000000E+20
 24
1.000000000000000E+20
 34
1.000000000000000E+20
 15
-1.000000000000000E+20
 25
-1.000000000000000E+20
 35
-1.000000000000000E+20
146
0.0
 13
0.0
 23
0.0
 33
0.0
 16
1.0
 26
0.0
 36
0.0
 17
0.0
 27
1.0
 37
0.0
 76
     0
330
1B
  0
LAYOUT
  5
26
102
{ACAD_REACTORS
330
1A
102
}
330
1A
100
AcDbPlotSettings
  1

  2
none_device
  4

  6

 40
0.0
 41
0.0
 42
0.0
 43
0.0
 44
0.0
 45
0.0
 46
0.0
 47
0.0
 48
0.0
 49
0.0
140
0.0
141
0.0
142
1.0
143
1.0
 70
   688
 72
     0
 73
     0
 74
     5
  7

 75
    16
 76
     0
 77
     2
 78
   300
147
1.0
148
0.0
149
0.0
100
AcDbLayout
  1
Layout2
 70
     1
 71
     2
 10
0.0
 20
0.0
 11
0.0
 21
0.0
 12
0.0
 22
0.0
 32
0.0
 14
0.0
 24
0.0
 34
0.0
 15
0.0
 25
0.0
 35
0.0
146
0.0
 13
0.0
 23
0.0
 33
0.0
 16
1.0
 26
0.0
 36
0.0
 17
0.0
 27
1.0
 37
0.0
 76
     0
330
23
  0
LAYOUT
  5
22
102
{ACAD_REACTORS
330
1A
102
}
330
1A
100
AcDbPlotSettings
  1

  2
none_device
  4

  6

 40
0.0
 41
0.0
 42
0.0
 43
0.0
 44
0.0
 45
0.0
 46
0.0
 47
0.0
 48
0.0
 49
0.0
140
0.0
141
0.0
142
1.0
143
1.0
 70
  1712
 72
     0
 73
     0
 74
     0
  7

 75
     0
 76
     0
 77
     2
 78
   300
147
1.0
148
0.0
149
0.0
100
AcDbLayout
  1
Model
 70
     1
 71
     0
 10
0.0
 20
0.0
 11
12.0
 21
9.0
 12
0.0
 22
0.0
 32
0.0
 14
1.000000000000000E+20
 24
1.000000000000000E+20
 34
1.000000000000000E+20
 15
-1.000000000000000E+20
 25
-1.000000000000000E+20
 35
-1.000000000000000E+20
146
0.0
 13
0.0
 23
0.0
 33
0.0
 16
1.0
 26
0.0
 36
0.0
 17
0.0
 27
1.0
 37
0.0
 76
     0
330
1F
331
29
  0
MATERIAL
  5
3D
102
{ACAD_REACTORS
330
3B
102
}
330
3B
100
AcDbMaterial
  1
ByBlock
 72
     1
 94
      127
  0
MATERIAL
  5
3C
102
{ACAD_REACTORS
330
3B
102
}
330
3B
100
AcDbMaterial
  1
ByLayer
 72
     1
 94
      127
  0
MATERIAL
  5
3E
102
{ACAD_REACTORS
330
3B
102
}
330
3B
100
AcDbMaterial
  1
Global
 72
     1
 94
      127
  0
MLINESTYLE
  5
18
102
{ACAD_REACTORS
330
17
102
}
330
17
100
AcDbMlineStyle
  2
Standard
 70
     0
  3

 62
   256
 51
90.0
 52
90.0
 71
     2
 49
0.5
 62
   256
  6
BYLAYER
 49
-0.5
 62
   256
  6
BYLAYER
  0
ACDBPLACEHOLDER
  5
F
102
{ACAD_REACTORS
330
E
102
}
330
E
  0
VISUALSTYLE
  5
2F
102
{ACAD_REACTORS
330
2A
102
}
330
2A
100
AcDbVisualStyle
  2
2dWireframe
 70
     4
177
     2
291
     0
 71
     0
176
     1
 72
     2
176
     1
 73
     0
176
     1
 90
        0
176
     1
 40
-0.6
176
     1
 41
-30.0
176
     1
 62
     5
 63
     7
421
 16777215
176
     1
 74
     1
176
     1
 91
        4
176
     1
 64
     7
176
     1
 65
   257
176
     1
 75
     1
176
     1
175
     1
176
     1
 42
1.0
176
     1
 92
        0
176
     1
 66
   257
176
     1
 43
1.0
176
     1
 76
     1
176
     1
 77
     6
176
     1
 78
     2
176
     1
 67
     7
176
     1
 79
     5
176
     1
170
     0
176
     1
171
     0
176
     1
290
     0
176
     1
 93
        1
176
     1
 44
0.0
176
     1
173
     0
176
     1
  0
VISUALSTYLE
  5
31
102
{ACAD_REACTORS
330
2A
102
}
330
2A
100
AcDbVisualStyle
  2
3D Hidden
 70
     6
177
     2
291
     0
 71
     1
176
     1
 72
     2
176
     1
 73
     2
176
     1
 90
        0
176
     1
 40
-0.6
176
     1
 41
-30.0
176
     1
 62
     5
 63
     7
421
 16777215
176
     1
 74
     2
176
     1
 91
        2
176
     1
 64
     7
176
     1
 65
   257
176
     1
 75
     2
176
     1
175
     1
176
     1
 42
40.0
176
     1
 92
        0
176
     1
 66
   257
176
     1
 43
1.0
176
     1
 76
     1
176
     1
 77
     6
176
     1
 78
     2
176
     1
 67
     7
176
     1
 79
     3
176
     1
170
     0
176
     1
171
     0
176
     1
290
     0
176
     1
 93
        1
176
     1
 44
0.0
176
     1
173
     0
176
     1
  0
VISUALSTYLE
  5
30
102
{ACAD_REACTORS
330
2A
102
}
330
2A
100
AcDbVisualStyle
  2
3dWireframe
 70
     5
177
     2
291
     0
 71
     0
176
     1
 72
     2
176
     1
 73
     0
176
     1
 90
        0
176
     1
 40
-0.6
176
     1
 41
-30.0
176
     1
 62
     5
 63
     7
421
 16777215
176
     1
 74
     1
176
     1
 91
        4
176
     1
 64
     7
176
     1
 65
   257
176
     1
 75
     1
176
     1
175
     1
176
     1
 42
1.0
176
     1
 92
        0
176
     1
 66
   257
176
     1
 43
1.0
176
     1
 76
     1
176
     1
 77
     6
176
     1
 78
     2
176
     1
 67
     7
176
     1
 79
     5
176
     1
170
     0
176
     1
171
     0
176
     1
290
     0
176
     1
 93
        1
176
     1
 44
0.0
176
     1
173
     0
176
     1
  0
VISUALSTYLE
  5
32
102
{ACAD_REACTORS
330
2A
102
}
330
2A
100
AcDbVisualStyle
  2
Basic
 70
     7
177
     2
291
     1
 71
     1
176
     1
 72
     0
176
     1
 73
     1
176
     1
 90
        0
176
     1
 40
-0.6
176
     1
 41
-30.0
176
     1
 62
     5
 63
     7
421
 16777215
176
     1
 74
     0
176
     1
 91
        4
176
     1
 64
     7
176
     1
 65
   257
176
     1
 75
     1
176
     1
175
     1
176
     1
 42
1.0
176
     1
 92
        8
176
     1
 66
     7
176
     1
 43
1.0
176
     1
 76
     1
176
     1
 77
     6
176
     1
 78
     2
176
     1
 67
     7
176
     1
 79
     5
176
     1
170
     0
176
     1
171
     0
176
     1
290
     0
176
     1
 93
        1
176
     1
 44
0.0
176
     1
173
     0
176
     1
  0
VISUALSTYLE
  5
36
102
{ACAD_REACTORS
330
2A
102
}
330
2A
100
AcDbVisualStyle
  2
Brighten
 70
    12
177
     2
291
     1
 71
     2
176
     1
 72
     2
176
     1
 73
     0
176
     1
 90
        0
176
     1
 40
-0.6
176
     1
 41
-30.0
176
     1
 62
     5
 63
     7
421
 16777215
176
     1
 74
     1
176
     1
 91
        4
176
     1
 64
     7
176
     1
 65
   257
176
     1
 75
     1
176
     1
175
     1
176
     1
 42
1.0
176
     1
 92
        8
176
     1
 66
     7
176
     1
 43
1.0
176
     1
 76
     1
176
     1
 77
     6
176
     1
 78
     2
176
     1
 67
     7
176
     1
 79
     5
176
     1
170
     0
176
     1
171
     0
176
     1
290
     0
176
     1
 93
        1
176
     1
 44
50.0
176
     1
173
     0
176
     1
  0
VISUALSTYLE
  5
3A
102
{ACAD_REACTORS
330
2A
102
}
330
2A
100
AcDbVisualStyle
  2
ColorChange
 70
    16
177
     2
291
     1
 71
     2
176
     1
 72
     2
176
     1
 73
     3
176
     1
 90
        0
176
     1
 40
-0.6
176
     1
 41
-30.0
176
     1
 62
     5
 63
     8
421
  8421504
176
     1
 74
     1
176
     1
 91
        4
176
     1
 64
     7
176
     1
 65
   257
176
     1
 75
     1
176
     1
175
     1
176
     1
 42
1.0
176
     1
 92
        8
176
     1
 66
     8
424
  8421504
176
     1
 43
1.0
176
     1
 76
     1
176
     1
 77
     6
176
     1
 78
     2
176
     1
 67
     7
176
     1
 79
     5
176
     1
170
     0
176
     1
171
     0
176
     1
290
     0
176
     1
 93
        1
176
     1
 44
0.0
176
     1
173
     0
176
     1
  0
VISUALSTYLE
  5
34
102
{ACAD_REACTORS
330
2A
102
}
330
2A
100
AcDbVisualStyle
  2
Conceptual
 70
     9
177
     2
291
     0
 71
     3
176
     1
 72
     2
176
     1
 73
     0
176
     1
 90
        0
176
     1
 40
-0.6
176
     1
 41
-30.0
176
     1
 62
     5
 63
     7
421
 16777215
176
     1
 74
     2
176
     1
 91
        2
176
     1
 64
     7
176
     1
 65
   257
176
     1
 75
     1
176
     1
175
     1
176
     1
 42
40.0
176
     1
 92
        8
176
     1
 66
     7
176
     1
 43
1.0
176
     1
 76
     1
176
     1
 77
     6
176
     1
 78
     2
176
     1
 67
     7
176
     1
 79
     3
176
     1
170
     0
176
     1
171
     0
176
     1
290
     0
176
     1
 93
        1
176
     1
 44
0.0
176
     1
173
     0
176
     1
  0
VISUALSTYLE
  5
35
102
{ACAD_REACTORS
330
2A
102
}
330
2A
100
AcDbVisualStyle
  2
Dim
 70
    11
177
     2
291
     1
 71
     2
176
     1
 72
     2
176
     1
 73
     0
176
     1
 90
        0
176
     1
 40
-0.6
176
     1
 41
-30.0
176
     1
 62
     5
 63
     7
421
 16777215
176
     1
 74
     1
176
     1
 91
        4
176
     1
 64
     7
176
     1
 65
   257
176
     1
 75
     1
176
     1
175
     1
176
     1
 42
1.0
176
     1
 92
        8
176
     1
 66
     7
176
     1
 43
1.0
176
     1
 76
     1
176
     1
 77
     6
176
     1
 78
     2
176
     1
 67
     7
176
     1
 79
     5
176
     1
170
     0
176
     1
171
     0
176
     1
290
     0
176
     1
 93
        1
176
     1
 44
-50.0
176
     1
173
     0
176
     1
  0
VISUALSTYLE
  5
39
102
{ACAD_REACTORS
330
2A
102
}
330
2A
100
AcDbVisualStyle
  2
Facepattern
 70
    15
177
     2
291
     1
 71
     2
176
     1
 72
     2
176
     1
 73
     0
176
     1
 90
        0
176
     1
 40
-0.6
176
     1
 41
-30.0
176
     1
 62
     5
 63
     7
421
 16777215
176
     1
 74
     1
176
     1
 91
        4
176
     1
 64
     7
176
     1
 65
   257
176
     1
 75
     1
176
     1
175
     1
176
     1
 42
1.0
176
     1
 92
        8
176
     1
 66
     7
176
     1
 43
1.0
176
     1
 76
     1
176
     1
 77
     6
176
     1
 78
     2
176
     1
 67
     7
176
     1
 79
     5
176
     1
170
     0
176
     1
171
     0
176
     1
290
     0
176
     1
 93
        1
176
     1
 44
0.0
176
     1
173
     0
176
     1
  0
VISUALSTYLE
  5
2B
102
{ACAD_REACTORS
330
2A
102
}
330
2A
100
AcDbVisualStyle
  2
Flat
 70
     0
177
     2
291
     1
 71
     2
176
     1
 72
     1
176
     1
 73
     1
176
     1
 90
        2
176
     1
 40
-0.6
176
     1
 41
30.0
176
     1
 62
     5
 63
     7
421
 16777215
176
     1
 74
     0
176
     1
 91
        4
176
     1
 64
     7
176
     1
 65
   257
176
     1
 75
     1
176
     1
175
     1
176
     1
 42
1.0
176
     1
 92
        8
176
     1
 66
     7
176
     1
 43
1.0
176
     1
 76
     1
176
     1
 77
     6
176
     1
 78
     2
176
     1
 67
     7
176
     1
 79
     5
176
     1
170
     0
176
     1
171
     0
176
     1
290
     0
176
     1
 93
       13
176
     1
 44
0.0
176
     1
173
     0
176
     1
  0
VISUALSTYLE
  5
2C
102
{ACAD_REACTORS
330
2A
102
}
330
2A
100
AcDbVisualStyle
  2
FlatWithEdges
 70
     1
177
     2
291
     1
 71
     2
176
     1
 72
     1
176
     1
 73
     1
176
     1
 90
        2
176
     1
 40
-0.6
176
     1
 41
30.0
176
     1
 62
     5
 63
     7
421
 16777215
176
     1
 74
     1
176
     1
 91
        4
176
     1
 64
     7
176
     1
 65
   257
176
     1
 75
     1
176
     1
175
     1
176
     1
 42
1.0
176
     1
 92
        0
176
     1
 66
   257
176
     1
 43
1.0
176
     1
 76
     1
176
     1
 77
     6
176
     1
 78
     2
176
     1
 67
     7
176
     1
 79
     5
176
     1
170
     0
176
     1
171
     0
176
     1
290
     0
176
     1
 93
       13
176
     1
 44
0.0
176
     1
173
     0
176
     1
  0
VISUALSTYLE
  5
2D
102
{ACAD_REACTORS
330
2A
102
}
330
2A
100
AcDbVisualStyle
  2
Gouraud
 70
     2
177
     2
291
     1
 71
     2
176
     1
 72
     2
176
     1
 73
     1
176
     1
 90
        2
176
     1
 40
-0.6
176
     1
 41
30.0
176
     1
 62
     5
 63
     7
421
 16777215
176
     1
 74
     0
176
     1
 91
        4
176
     1
 64
     7
176
     1
 65
   257
176
     1
 75
     1
176
     1
175
     1
176
     1
 42
1.0
176
     1
 92
        0
176
     1
 66
     7
176
     1
 43
1.0
176
     1
 76
     1
176
     1
 77
     6
176
     1
 78
     2
176
     1
 67
     7
176
     1
 79
     5
176
     1
170
     0
176
     1
171
     0
176
     1
290
     0
176
     1
 93
       13
176
     1
 44
0.0
176
     1
173
     0
176
     1
  0
VISUALSTYLE
  5
2E
102
{ACAD_REACTORS
330
2A
102
}
330
2A
100
AcDbVisualStyle
  2
GouraudWithEdges
 70
     3
177
     2
291
     1
 71
     2
176
     1
 72
     2
176
     1
 73
     1
176
     1
 90
        2
176
     1
 40
-0.6
176
     1
 41
30.0
176
     1
 62
     5
 63
     7
421
 16777215
176
     1
 74
     1
176
     1
 91
        4
176
     1
 64
     7
176
     1
 65
   257
176
     1
 75
     1
176
     1
175
     1
176
     1
 42
1.0
176
     1
 92
        0
176
     1
 66
   257
176
     1
 43
1.0
176
     1
 76
     1
176
     1
 77
     6
176
     1
 78
     2
176
     1
 67
     7
176
     1
 79
     5
176
     1
170
     0
176
     1
171
     0
176
     1
290
     0
176
     1
 93
       13
176
     1
 44
0.0
176
     1
173
     0
176
     1
  0
VISUALSTYLE
  5
38
102
{ACAD_REACTORS
330
2A
102
}
330
2A
100
AcDbVisualStyle
  2
Linepattern
 70
    14
177
     2
291
     1
 71
     2
176
     1
 72
     2
176
     1
 73
     0
176
     1
 90
        0
176
     1
 40
-0.6
176
     1
 41
-30.0
176
     1
 62
     5
 63
     7
421
 16777215
176
     1
 74
     1
176
     1
 91
        4
176
     1
 64
     7
176
     1
 65
   257
176
     1
 75
     7
176
     1
175
     7
176
     1
 42
1.0
176
     1
 92
        8
176
     1
 66
     7
176
     1
 43
1.0
176
     1
 76
     1
176
     1
 77
     6
176
     1
 78
     2
176
     1
 67
     7
176
     1
 79
     5
176
     1
170
     0
176
     1
171
     0
176
     1
290
     0
176
     1
 93
        1
176
     1
 44
0.0
176
     1
173
     0
176
     1
  0
VISUALSTYLE
  5
33
102
{ACAD_REACTORS
330
2A
102
}
330
2A
100
AcDbVisualStyle
  2
Realistic
 70
     8
177
     2
291
     0
 71
     2
176
     1
 72
     2
176
     1
 73
     0
176
     1
 90
        0
176
     1
 40
-0.6
176
     1
 41
-30.0
176
     1
 62
     5
 63
     7
421
 16777215
176
     1
 74
     1
176
     1
 91
        0
176
     1
 64
     7
176
     1
 65
   257
176
     1
 75
     1
176
     1
175
     1
176
     1
 42
1.0
176
     1
 92
        8
176
     1
 66
     8
424
  7895160
176
     1
 43
1.0
176
     1
 76
     1
176
     1
 77
     6
176
     1
 78
     2
176
     1
 67
     7
176
     1
 79
     5
176
     1
170
     0
176
     1
171
     0
176
     1
290
     0
176
     1
 93
       13
176
     1
 44
0.0
176
     1
173
     0
176
     1
  0
VISUALSTYLE
  5
37
102
{ACAD_REACTORS
330
2A
102
}
330
2A
100
AcDbVisualStyle
  2
Thicken
 70
    13
177
     2
291
     1
 71
     2
176
     1
 72
     2
176
     1
 73
     0
176
     1
 90
        0
176
     1
 40
-0.6
176
     1
 41
-30.0
176
     1
 62
     5
 63
     7
421
 16777215
176
     1
 74
     1
176
     1
 91
        4
176
     1
 64
     7
176
     1
 65
   257
176
     1
 75
     1
176
     1
175
     1
176
     1
 42
1.0
176
     1
 92
       12
176
     1
 66
     7
176
     1
 43
1.0
176
     1
 76
     1
176
     1
 77
     6
176
     1
 78
     2
176
     1
 67
     7
176
     1
 79
     5
176
     1
170
     0
176
     1
171
     0
176
     1
290
     0
176
     1
 93
        1
176
     1
 44
0.0
176
     1
173
     0
176
     1
  0
ENDSEC
  0
EOF
