  0
SECTION
  2
HEADER
  9
$ACADVER
  1
AC1024
  9
$ACADMAINTVER
 70
     6
  9
$DWGCODEPAGE
  3
ANSI_1252
  9
$INSBASE
 10
0.0
 20
0.0
 30
0.0
  9
$EXTMIN
 10
1.000000000000000E+20
 20
1.000000000000000E+20
 30
1.000000000000000E+20
  9
$EXTMAX
 10
-1.000000000000000E+20
 20
-1.000000000000000E+20
 30
-1.000000000000000E+20
  9
$LIMMIN
 10
0.0
 20
0.0
  9
$LIMMAX
 10
12.0
 20
9.0
  9
$ORTHOMODE
 70
     0
  9
$REGENMODE
 70
     1
  9
$FILLMODE
 70
     1
  9
$QTEXTMODE
 70
     0
  9
$MIRRTEXT
 70
     1
  9
$LTSCALE
 40
1.0
  9
$ATTMODE
 70
     1
  9
$TEXTSIZE
 40
0.2
  9
$TRACEWID
 40
0.05
  9
$TEXTSTYLE
  7
Standard
  9
$CLAYER
  8
0
  9
$CELTYPE
  6
ByLayer
  9
$CECOLOR
 62
   256
  9
$CELTSCALE
 40
1.0
  9
$DISPSILH
 70
     0
  9
$DIMSCALE
 40
1.0
  9
$DIMASZ
 40
0.18
  9
$DIMEXO
 40
0.0625
  9
$DIMDLI
 40
0.38
  9
$DIMRND
 40
0.0
  9
$DIMDLE
 40
0.0
  9
$DIMEXE
 40
0.18
  9
$DIMTP
 40
0.0
  9
$DIMTM
 40
0.0
  9
$DIMTXT
 40
0.18
  9
$DIMCEN
 40
0.09
  9
$DIMTSZ
 40
0.0
  9
$DIMTOL
 70
     0
  9
$DIMLIM
 70
     0
  9
$DIMTIH
 70
     1
  9
$DIMTOH
 70
     1
  9
$DIMSE1
 70
     0
  9
$DIMSE2
 70
     0
  9
$DIMTAD
 70
     0
  9
$DIMZIN
 70
     0
  9
$DIMBLK
  1

  9
$DIMASO
 70
     1
  9
$DIMSHO
 70
     1
  9
$DIMPOST
  1

  9
$DIMAPOST
  1

  9
$DIMALT
 70
     0
  9
$DIMALTD
 70
     2
  9
$DIMALTF
 40
25.4
  9
$DIMLFAC
 40
1.0
  9
$DIMTOFL
 70
     0
  9
$DIMTVP
 40
0.0
  9
$DIMTIX
 70
     0
  9
$DIMSOXD
 70
     0
  9
$DIMSAH
 70
     0
  9
$DIMBLK1
  1

  9
$DIMBLK2
  1

  9
$DIMSTYLE
  2
Standard
  9
$DIMCLRD
 70
     0
  9
$DIMCLRE
 70
     0
  9
$DIMCLRT
 70
     0
  9
$DIMTFAC
 40
1.0
  9
$DIMGAP
 40
0.09
  9
$DIMJUST
 70
     0
  9
$DIMSD1
 70
     0
  9
$DIMSD2
 70
     0
  9
$DIMTOLJ
 70
     1
  9
$DIMTZIN
 70
     0
  9
$DIMALTZ
 70
     0
  9
$DIMALTTZ
 70
     0
  9
$DIMUPT
 70
     0
  9
$DIMDEC
 70
     4
  9
$DIMTDEC
 70
     4
  9
$DIMALTU
 70
     2
  9
$DIMALTTD
 70
     2
  9
$DIMTXSTY
  7
Standard
  9
$DIMAUNIT
 70
     0
  9
$DIMADEC
 70
     0
  9
$DIMALTRND
 40
0.0
  9
$DIMAZIN
 70
     0
  9
$DIMDSEP
 70
    46
  9
$DIMATFIT
 70
     3
  9
$DIMFRAC
 70
     0
  9
$DIMLDRBLK
  1

  9
$DIMLUNIT
 70
     2
  9
$DIMLWD
 70
    -2
  9
$DIMLWE
 70
    -2
  9
$DIMTMOVE
 70
     0
  9
$DIMFXL
 40
1.0
  9
$DIMFXLON
 70
     0
  9
$DIMJOGANG
 40
0.7853981633974483
  9
$DIMTFILL
 70
     0
  9
$DIMTFILLCLR
 70
     0
  9
$DIMARCSYM
 70
     0
  9
$DIMLTYPE
  6

  9
$DIMLTEX1
  6

  9
$DIMLTEX2
  6

  9
$DIMTXTDIRECTION
 70
     0
  9
$LUNITS
 70
     2
  9
$LUPREC
 70
     4
  9
$SKETCHINC
 40
0.1
  9
$FILLETRAD
 40
0.5
  9
$AUNITS
 70
     0
  9
$AUPREC
 70
     0
  9
$MENU
  1
.
  9
$ELEVATION
 40
0.0
  9
$PELEVATION
 40
0.0
  9
$THICKNESS
 40
0.0
  9
$LIMCHECK
 70
     0
  9
$CHAMFERA
 40
0.5
  9
$CHAMFERB
 40
0.5
  9
$CHAMFERC
 40
1.0
  9
$CHAMFERD
 40
0.0
  9
$SKPOLY
 70
     0
  9
$TDCREATE
 40
2458774.632295185
  9
$TDUCREATE
 40
2458774.090628519
  9
$TDUPDATE
 40
2458774.632295347
  9
$TDUUPDATE
 40
2458774.090628681
  9
$TDINDWG
 40
0.0000000116
  9
$TDUSRTIMER
 40
0.0000000116
  9
$USRTIMER
 70
     1
  9
$ANGBASE
 50
0.0
  9
$ANGDIR
 70
     0
  9
$PDMODE
 70
     0
  9
$PDSIZE
 40
0.0
  9
$PLINEWID
 40
0.0
  9
$SPLFRAME
 70
     0
  9
$SPLINETYPE
 70
     6
  9
$SPLINESEGS
 70
     8
  9
$HANDSEED
  5
2B5
  9
$SURFTAB1
 70
     6
  9
$SURFTAB2
 70
     6
  9
$SURFTYPE
 70
     6
  9
$SURFU
 70
     6
  9
$SURFV
 70
     6
  9
$UCSBASE
  2

  9
$UCSNAME
  2

  9
$UCSORG
 10
0.0
 20
0.0
 30
0.0
  9
$UCSXDIR
 10
1.0
 20
0.0
 30
0.0
  9
$UCSYDIR
 10
0.0
 20
1.0
 30
0.0
  9
$UCSORTHOREF
  2

  9
$UCSORTHOVIEW
 70
     0
  9
$UCSORGTOP
 10
0.0
 20
0.0
 30
0.0
  9
$UCSORGBOTTOM
 10
0.0
 20
0.0
 30
0.0
  9
$UCSORGLEFT
 10
0.0
 20
0.0
 30
0.0
  9
$UCSORGRIGHT
 10
0.0
 20
0.0
 30
0.0
  9
$UCSORGFRONT
 10
0.0
 20
0.0
 30
0.0
  9
$UCSORGBACK
 10
0.0
 20
0.0
 30
0.0
  9
$PUCSBASE
  2

  9
$PUCSNAME
  2

  9
$PUCSORG
 10
0.0
 20
0.0
 30
0.0
  9
$PUCSXDIR
 10
1.0
 20
0.0
 30
0.0
  9
$PUCSYDIR
 10
0.0
 20
1.0
 30
0.0
  9
$PUCSORTHOREF
  2

  9
$PUCSORTHOVIEW
 70
     0
  9
$PUCSORGTOP
 10
0.0
 20
0.0
 30
0.0
  9
$PUCSORGBOTTOM
 10
0.0
 20
0.0
 30
0.0
  9
$PUCSORGLEFT
 10
0.0
 20
0.0
 30
0.0
  9
$PUCSORGRIGHT
 10
0.0
 20
0.0
 30
0.0
  9
$PUCSORGFRONT
 10
0.0
 20
0.0
 30
0.0
  9
$PUCSORGBACK
 10
0.0
 20
0.0
 30
0.0
  9
$USERI1
 70
     0
  9
$USERI2
 70
     0
  9
$USERI3
 70
     0
  9
$USERI4
 70
     0
  9
$USERI5
 70
     0
  9
$USERR1
 40
0.0
  9
$USERR2
 40
0.0
  9
$USERR3
 40
0.0
  9
$USERR4
 40
0.0
  9
$USERR5
 40
0.0
  9
$WORLDVIEW
 70
     1
  9
$SHADEDGE
 70
     3
  9
$SHADEDIF
 70
    70
  9
$TILEMODE
 70
     1
  9
$MAXACTVP
 70
    64
  9
$PINSBASE
 10
0.0
 20
0.0
 30
0.0
  9
$PLIMCHECK
 70
     0
  9
$PEXTMIN
 10
1.000000000000000E+20
 20
1.000000000000000E+20
 30
1.000000000000000E+20
  9
$PEXTMAX
 10
-1.000000000000000E+20
 20
-1.000000000000000E+20
 30
-1.000000000000000E+20
  9
$PLIMMIN
 10
0.0
 20
0.0
  9
$PLIMMAX
 10
12.0
 20
9.0
  9
$UNITMODE
 70
     0
  9
$VISRETAIN
 70
     1
  9
$PLINEGEN
 70
     0
  9
$PSLTSCALE
 70
     1
  9
$TREEDEPTH
 70
  3020
  9
$CMLSTYLE
  2
Standard
  9
$CMLJUST
 70
     0
  9
$CMLSCALE
 40
1.0
  9
$PROXYGRAPHICS
 70
     1
  9
$MEASUREMENT
 70
     0
  9
$CELWEIGHT
370
    -1
  9
$ENDCAPS
280
     0
  9
$JOINSTYLE
280
     0
  9
$LWDISPLAY
290
     1
  9
$INSUNITS
 70
     1
  9
$HYPERLINKBASE
  1

  9
$STYLESHEET
  1

  9
$XEDIT
290
     1
  9
$CEPSNTYPE
380
     0
  9
$PSTYLEMODE
290
     1
  9
$FINGERPRINTGUID
  2
{1F34ED58-E363-4F80-9126-248B7898A69E}
  9
$VERSIONGUID
  2
{FAEB1C32-E019-11D5-929B-00C0DF256EC4}
  9
$EXTNAMES
290
     1
  9
$PSVPSCALE
 40
0.0
  9
$OLESTARTUP
290
     0
  9
$SORTENTS
280
   127
  9
$INDEXCTL
280
     0
  9
$HIDETEXT
280
     1
  9
$XCLIPFRAME
280
     2
  9
$HALOGAP
280
     0
  9
$OBSCOLOR
 70
   257
  9
$OBSLTYPE
280
     0
  9
$INTERSECTIONDISPLAY
280
     0
  9
$INTERSECTIONCOLOR
 70
   257
  9
$DIMASSOC
280
     2
  9
$PROJECTNAME
  1

  9
$CAMERADISPLAY
290
     0
  9
$LENSLENGTH
 40
50.0
  9
$CAMERAHEIGHT
 40
0.0
  9
$STEPSPERSEC
 40
2.0
  9
$STEPSIZE
 40
6.0
  9
$3DDWFPREC
 40
2.0
  9
$PSOLWIDTH
 40
0.25
  9
$PSOLHEIGHT
 40
4.0
  9
$LOFTANG1
 40
1.570796326794897
  9
$LOFTANG2
 40
1.570796326794897
  9
$LOFTMAG1
 40
0.0
  9
$LOFTMAG2
 40
0.0
  9
$LOFTPARAM
 70
     7
  9
$LOFTNORMALS
280
     1
  9
$LATITUDE
 40
37.795
  9
$LONGITUDE
 40
-122.394
  9
$NORTHDIRECTION
 40
0.0
  9
$TIMEZONE
 70
 -8000
  9
$LIGHTGLYPHDISPLAY
280
     1
  9
$TILEMODELIGHTSYNCH
280
     1
  9
$CMATERIAL
347
3C
  9
$SOLIDHIST
280
     1
  9
$SHOWHIST
280
     1
  9
$DWFFRAME
280
     2
  9
$DGNFRAME
280
     2
  9
$REALWORLDSCALE
290
     1
  9
$INTERFERECOLOR
 62
   256
  9
$CSHADOW
280
     0
  9
$SHADOWPLANELOCATION
 40
0.0
  0
ENDSEC
  0
SECTION
  2
CLASSES
  0
CLASS
  1
ACDBDICTIONARYWDFLT
  2
AcDbDictionaryWithDefault
  3
ObjectDBX Classes
 90
        0
 91
        4
280
     0
281
     0
  0
CLASS
  1
VISUALSTYLE
  2
AcDbVisualStyle
  3
ObjectDBX Classes
 90
     4095
 91
        4
280
     0
281
     0
  0
CLASS
  1
MATERIAL
  2
AcDbMaterial
  3
ObjectDBX Classes
 90
     1153
 91
        4
280
     0
281
     0
  0
CLASS
  1
SUN
  2
AcDbSun
  3
SCENEOE
 90
     1024
 91
        4
280
     0
281
     0
  0
ENDSEC
  0
SECTION
  2
TABLES
  0
TABLE
  2
VPORT
  5
8
330
0
100
AcDbSymbolTable
 70
     1
  0
VPORT
  5
29
330
8
100
AcDbSymbolTableRecord
100
AcDbViewportTableRecord
  2
*Active
 70
     0
 10
0.0
 20
0.0
 11
1.0
 21
1.0
 12
0.0
 22
0.0
 13
0.0
 23
0.0
 14
0.5
 24
0.5
 15
0.5
 25
0.5
 16
0.0
 26
0.0
 36
1.0
 17
4.465015859426432
 27
5.152645008722124
 37
0.0
 40
11.69291338582677
 41
0.7070707070707065
 42
50.0
 43
0.0
 44
0.0
 50
0.0
 51
0.0
 71
     0
 72
   100
 73
     1
 74
     3
 75
     0
 76
     0
 77
     0
 78
     0
281
     0
 65
     1
110
0.0
120
0.0
130
0.0
111
1.0
121
0.0
131
0.0
112
0.0
122
1.0
132
0.0
 79
     0
146
0.0
 60
     3
 61
     5
292
     1
282
     1
141
0.0
142
0.0
 63
   250
361
3F
  0
ENDTAB
  0
TABLE
  2
LTYPE
  5
5
330
0
100
AcDbSymbolTable
 70
     2
  0
LTYPE
  5
14
330
5
100
AcDbSymbolTableRecord
100
AcDbLinetypeTableRecord
  2
ByBlock
 70
     0
  3

 72
    65
 73
     0
 40
0.0
  0
LTYPE
  5
15
330
5
100
AcDbSymbolTableRecord
100
AcDbLinetypeTableRecord
  2
ByLayer
 70
     0
  3

 72
    65
 73
     0
 40
0.0
  0
LTYPE
  5
16
330
5
100
AcDbSymbolTableRecord
100
AcDbLinetypeTableRecord
  2
Continuous
 70
     0
  3
Solid line
 72
    65
 73
     0
 40
0.0
  0
LTYPE
  5
157
330
5
100
AcDbSymbolTableRecord
100
AcDbLinetypeTableRecord
  2
AI-Linetype-1
 70
     0
  3
Adobe Illustrator Linetype No. 1
 72
    65
 73
     6
 40
0.218102087577184
 49
0.0436204175154368
 74
     0
 49
-0.0290802783436245
 74
     0
 49
0.0436204175154368
 74
     0
 49
-0.0290802783436245
 74
     0
 49
0.0436204175154368
 74
     0
 49
-0.0290802783436245
 74
     0
  0
ENDTAB
  0
TABLE
  2
LAYER
  5
2
330
0
100
AcDbSymbolTable
 70
     4
  0
LAYER
  5
10
330
2
100
AcDbSymbolTableRecord
100
AcDbLayerTableRecord
  2
0
 70
     0
 62
     7
  6
Continuous
370
    -3
390
F
347
3E
  0
LAYER
  5
40
330
2
100
AcDbSymbolTableRecord
100
AcDbLayerTableRecord
  2
Wood
 70
     0
 62
     7
  6
Continuous
370
    -3
390
F
347
3E
  0
LAYER
  5
1F6
330
2
100
AcDbSymbolTableRecord
100
AcDbLayerTableRecord
  2
TSP
 70
     0
 62
     7
  6
Continuous
370
    -3
390
F
347
3E
  0
LAYER
  5
2A1
330
2
100
AcDbSymbolTableRecord
100
AcDbLayerTableRecord
  2
callouts
 70
     0
 62
     7
  6
Continuous
370
    -3
390
F
347
3E
  0
ENDTAB
  0
TABLE
  2
STYLE
  5
3
330
0
100
AcDbSymbolTable
 70
     1
  0
STYLE
  5
11
330
3
100
AcDbSymbolTableRecord
100
AcDbTextStyleTableRecord
  2
Standard
 70
     0
 40
0.0
 41
1.0
 50
0.0
 71
     0
 42
0.2
  3
txt
  4

  0
ENDTAB
  0
TABLE
  2
VIEW
  5
6
330
0
100
AcDbSymbolTable
 70
     0
  0
ENDTAB
  0
TABLE
  2
UCS
  5
7
330
0
100
AcDbSymbolTable
 70
     0
  0
ENDTAB
  0
TABLE
  2
APPID
  5
9
330
0
100
AcDbSymbolTable
 70
     1
  0
APPID
  5
12
330
9
100
AcDbSymbolTableRecord
100
AcDbRegAppTableRecord
  2
ACAD
 70
     0
  0
ENDTAB
  0
TABLE
  2
DIMSTYLE
  5
A
330
0
100
AcDbSymbolTable
 70
     1
100
AcDbDimStyleTable
  0
DIMSTYLE
105
27
330
A
100
AcDbSymbolTableRecord
100
AcDbDimStyleTableRecord
  2
Standard
 70
     0
178
     0
340
11
  0
ENDTAB
  0
TABLE
  2
BLOCK_RECORD
  5
1
330
0
100
AcDbSymbolTable
 70
    24
  0
BLOCK_RECORD
  5
1F
330
1
100
AcDbSymbolTableRecord
100
AcDbBlockTableRecord
  2
*Model_Space
340
22
 70
     0
280
     1
281
     0
  0
BLOCK_RECORD
  5
1B
330
1
100
AcDbSymbolTableRecord
100
AcDbBlockTableRecord
  2
*Paper_Space
340
1E
 70
     0
280
     1
281
     0
  0
BLOCK_RECORD
  5
23
330
1
100
AcDbSymbolTableRecord
100
AcDbBlockTableRecord
  2
*Paper_Space0
340
26
 70
     0
280
     1
281
     0
  0
BLOCK_RECORD
  5
159
330
1
100
AcDbSymbolTableRecord
100
AcDbBlockTableRecord
  2
block 2
340
0
102
{BLKREFS
331
15A
102
}
 70
     0
280
     1
281
     0
  0
BLOCK_RECORD
  5
207
330
1
100
AcDbSymbolTableRecord
100
AcDbBlockTableRecord
  2
block 3
340
0
102
{BLKREFS
331
208
102
}
 70
     0
280
     1
281
     0
  0
BLOCK_RECORD
  5
211
330
1
100
AcDbSymbolTableRecord
100
AcDbBlockTableRecord
  2
block 4
340
0
102
{BLKREFS
331
212
102
}
 70
     0
280
     1
281
     0
  0
BLOCK_RECORD
  5
21B
330
1
100
AcDbSymbolTableRecord
100
AcDbBlockTableRecord
  2
block 5
340
0
102
{BLKREFS
331
21C
102
}
 70
     0
280
     1
281
     0
  0
BLOCK_RECORD
  5
225
330
1
100
AcDbSymbolTableRecord
100
AcDbBlockTableRecord
  2
block 6
340
0
102
{BLKREFS
331
226
102
}
 70
     0
280
     1
281
     0
  0
BLOCK_RECORD
  5
22B
330
1
100
AcDbSymbolTableRecord
100
AcDbBlockTableRecord
  2
block 7
340
0
102
{BLKREFS
331
22C
102
}
 70
     0
280
     1
281
     0
  0
BLOCK_RECORD
  5
231
330
1
100
AcDbSymbolTableRecord
100
AcDbBlockTableRecord
  2
block 8
340
0
102
{BLKREFS
331
232
102
}
 70
     0
280
     1
281
     0
  0
BLOCK_RECORD
  5
237
330
1
100
AcDbSymbolTableRecord
100
AcDbBlockTableRecord
  2
block 9
340
0
102
{BLKREFS
331
238
102
}
 70
     0
280
     1
281
     0
  0
BLOCK_RECORD
  5
23D
330
1
100
AcDbSymbolTableRecord
100
AcDbBlockTableRecord
  2
block 10
340
0
102
{BLKREFS
331
23E
102
}
 70
     0
280
     1
281
     0
  0
BLOCK_RECORD
  5
243
330
1
100
AcDbSymbolTableRecord
100
AcDbBlockTableRecord
  2
block 11
340
0
102
{BLKREFS
331
244
102
}
 70
     0
280
     1
281
     0
  0
BLOCK_RECORD
  5
249
330
1
100
AcDbSymbolTableRecord
100
AcDbBlockTableRecord
  2
block 12
340
0
102
{BLKREFS
331
24A
102
}
 70
     0
280
     1
281
     0
  0
BLOCK_RECORD
  5
24F
330
1
100
AcDbSymbolTableRecord
100
AcDbBlockTableRecord
  2
block 13
340
0
102
{BLKREFS
331
250
102
}
 70
     0
280
     1
281
     0
  0
BLOCK_RECORD
  5
255
330
1
100
AcDbSymbolTableRecord
100
AcDbBlockTableRecord
  2
block 14
340
0
102
{BLKREFS
331
256
102
}
 70
     0
280
     1
281
     0
  0
BLOCK_RECORD
  5
25B
330
1
100
AcDbSymbolTableRecord
100
AcDbBlockTableRecord
  2
block 15
340
0
102
{BLKREFS
331
25C
102
}
 70
     0
280
     1
281
     0
  0
BLOCK_RECORD
  5
261
330
1
100
AcDbSymbolTableRecord
100
AcDbBlockTableRecord
  2
block 16
340
0
102
{BLKREFS
331
262
102
}
 70
     0
280
     1
281
     0
  0
BLOCK_RECORD
  5
267
330
1
100
AcDbSymbolTableRecord
100
AcDbBlockTableRecord
  2
block 17
340
0
102
{BLKREFS
331
268
102
}
 70
     0
280
     1
281
     0
  0
BLOCK_RECORD
  5
26D
330
1
100
AcDbSymbolTableRecord
100
AcDbBlockTableRecord
  2
block 18
340
0
102
{BLKREFS
331
26E
102
}
 70
     0
280
     1
281
     0
  0
BLOCK_RECORD
  5
273
330
1
100
AcDbSymbolTableRecord
100
AcDbBlockTableRecord
  2
block 19
340
0
102
{BLKREFS
331
274
102
}
 70
     0
280
     1
281
     0
  0
BLOCK_RECORD
  5
27B
330
1
100
AcDbSymbolTableRecord
100
AcDbBlockTableRecord
  2
block 20
340
0
102
{BLKREFS
331
27C
102
}
 70
     0
280
     1
281
     0
  0
BLOCK_RECORD
  5
283
330
1
100
AcDbSymbolTableRecord
100
AcDbBlockTableRecord
  2
block 21
340
0
102
{BLKREFS
331
284
102
}
 70
     0
280
     1
281
     0
  0
BLOCK_RECORD
  5
28C
330
1
100
AcDbSymbolTableRecord
100
AcDbBlockTableRecord
  2
block 22
340
0
102
{BLKREFS
331
28D
102
}
 70
     0
280
     1
281
     0
  0
BLOCK_RECORD
  5
293
330
1
100
AcDbSymbolTableRecord
100
AcDbBlockTableRecord
  2
block 23
340
0
102
{BLKREFS
331
294
102
}
 70
     0
280
     1
281
     0
  0
BLOCK_RECORD
  5
29A
330
1
100
AcDbSymbolTableRecord
100
AcDbBlockTableRecord
  2
block 24
340
0
102
{BLKREFS
331
29B
102
}
 70
     0
280
     1
281
     0
  0
ENDTAB
  0
ENDSEC
  0
SECTION
  2
BLOCKS
  0
BLOCK
  5
20
330
1F
100
AcDbEntity
  8
0
100
AcDbBlockBegin
  2
*Model_Space
 70
     0
 10
0.0
 20
0.0
 30
0.0
  3
*Model_Space
  1

  0
ENDBLK
  5
21
330
1F
100
AcDbEntity
  8
0
100
AcDbBlockEnd
  0
BLOCK
  5
1C
330
1B
100
AcDbEntity
 67
     1
  8
0
100
AcDbBlockBegin
  2
*Paper_Space
 70
     0
 10
0.0
 20
0.0
 30
0.0
  3
*Paper_Space
  1

  0
ENDBLK
  5
1D
330
1B
100
AcDbEntity
 67
     1
  8
0
100
AcDbBlockEnd
  0
BLOCK
  5
24
330
23
100
AcDbEntity
  8
0
100
AcDbBlockBegin
  2
*Paper_Space0
 70
     0
 10
0.0
 20
0.0
 30
0.0
  3
*Paper_Space0
  1

  0
ENDBLK
  5
25
330
23
100
AcDbEntity
  8
0
100
AcDbBlockEnd
  0
BLOCK
  5
15B
330
159
100
AcDbEntity
  8
0
100
AcDbBlockBegin
  2
block 2
 70
     0
 10
0.0
 20
0.0
 30
0.0
  3
block 2
  1

  0
POLYLINE
  5
15D
330
159
100
AcDbEntity
  8
Wood
370
     0
100
AcDb2dPolyline
 66
     1
 10
0.0
 20
0.0
 30
0.0
  0
VERTEX
  5
15E
330
15D
100
AcDbEntity
  8
Wood
370
     0
100
AcDbVertex
100
AcDb2dVertex
 10
5.902805555555561
 20
5.363851253386605
 30
0.0
  0
VERTEX
  5
15F
330
15D
100
AcDbEntity
  8
Wood
370
     0
100
AcDbVertex
100
AcDb2dVertex
 10
5.9034831841988
 20
5.298923477249041
 30
0.0
  0
VERTEX
  5
160
330
15D
100
AcDbEntity
  8
Wood
370
     0
100
AcDbVertex
100
AcDb2dVertex
 10
5.670491523417998
 20
5.338731809576731
 30
0.0
  0
VERTEX
  5
161
330
15D
100
AcDbEntity
  8
Wood
370
     0
100
AcDbVertex
100
AcDb2dVertex
 10
5.670274856756805
 20
5.28856097751082
 30
0.0
  0
VERTEX
  5
162
330
15D
100
AcDbEntity
  8
Wood
370
     0
100
AcDbVertex
100
AcDb2dVertex
 10
5.485188750321362
 20
5.222073479190436
 30
0.0
  0
VERTEX
  5
163
330
15D
100
AcDbEntity
  8
Wood
370
     0
100
AcDbVertex
100
AcDb2dVertex
 10
5.055908205610345
 20
5.3078206992465
 30
0.0
  0
VERTEX
  5
164
330
15D
100
AcDbEntity
  8
Wood
370
     0
100
AcDbVertex
100
AcDb2dVertex
 10
3.927530456337788
 20
5.517116527292576
 30
0.0
  0
VERTEX
  5
165
330
15D
100
AcDbEntity
  8
Wood
370
     0
100
AcDbVertex
100
AcDb2dVertex
 10
2.767977707852777
 20
5.729017910828386
 30
0.0
  0
VERTEX
  5
166
330
15D
100
AcDbEntity
  8
Wood
370
     0
100
AcDbVertex
100
AcDb2dVertex
 10
2.767977707852777
 20
6.141574844850766
 30
0.0
  0
VERTEX
  5
167
330
15D
100
AcDbEntity
  8
Wood
370
     0
100
AcDbVertex
100
AcDb2dVertex
 10
2.976067980373753
 20
6.241067897892915
 30
0.0
  0
VERTEX
  5
168
330
15D
100
AcDbEntity
  8
Wood
370
     0
100
AcDbVertex
100
AcDb2dVertex
 10
2.975769369270185
 20
6.292812341030185
 30
0.0
  0
VERTEX
  5
169
330
15D
100
AcDbEntity
  8
Wood
370
     0
100
AcDbVertex
100
AcDb2dVertex
 10
3.246561029096079
 20
6.297030396479183
 30
0.0
  0
VERTEX
  5
16A
330
15D
100
AcDbEntity
  8
Wood
370
     0
100
AcDbVertex
100
AcDb2dVertex
 10
3.246087417996932
 20
6.357726228279211
 30
0.0
  0
VERTEX
  5
16B
330
15D
100
AcDbEntity
  8
Wood
370
     0
100
AcDbVertex
100
AcDb2dVertex
 10
3.518113800013857
 20
6.476454003057673
 30
0.0
  0
VERTEX
  5
16C
330
15D
100
AcDbEntity
  8
Wood
370
     0
100
AcDbVertex
100
AcDb2dVertex
 10
6.161512344347102
 20
5.819058186331555
 30
0.0
  0
VERTEX
  5
16D
330
15D
100
AcDbEntity
  8
Wood
370
     0
100
AcDbVertex
100
AcDb2dVertex
 10
6.161512344347102
 20
5.458794306543697
 30
0.0
  0
VERTEX
  5
16E
330
15D
100
AcDbEntity
  8
Wood
370
     0
100
AcDbVertex
100
AcDb2dVertex
 10
5.902805555555561
 20
5.363851253386605
 30
0.0
  0
SEQEND
  5
170
330
15D
100
AcDbEntity
  8
Wood
370
     0
  0
HATCH
  5
16F
330
159
100
AcDbEntity
  8
Wood
 62
    43
420
 15510365
100
AcDbHatch
 10
0.0
 20
0.0
 30
0.0
210
0.0
220
0.0
230
1.0
  2
SOLID
 70
     1
 71
     0
 91
        1
 92
        1
 93
       16
 72
     1
 10
5.902805555555561
 20
5.363851253386605
 11
5.9034831841988
 21
5.298923477249041
 72
     1
 10
5.9034831841988
 20
5.298923477249041
 11
5.670491523417998
 21
5.338731809576731
 72
     1
 10
5.670491523417998
 20
5.338731809576731
 11
5.670274856756805
 21
5.28856097751082
 72
     1
 10
5.670274856756805
 20
5.28856097751082
 11
5.485188750321362
 21
5.222073479190436
 72
     1
 10
5.485188750321362
 20
5.222073479190436
 11
5.055908205610345
 21
5.3078206992465
 72
     1
 10
5.055908205610345
 20
5.3078206992465
 11
3.927530456337788
 21
5.517116527292576
 72
     1
 10
3.927530456337788
 20
5.517116527292576
 11
2.767977707852777
 21
5.729017910828386
 72
     1
 10
2.767977707852777
 20
5.729017910828386
 11
2.767977707852777
 21
6.141574844850766
 72
     1
 10
2.767977707852777
 20
6.141574844850766
 11
2.976067980373753
 21
6.241067897892915
 72
     1
 10
2.976067980373753
 20
6.241067897892915
 11
2.975769369270185
 21
6.292812341030185
 72
     1
 10
2.975769369270185
 20
6.292812341030185
 11
3.246561029096079
 21
6.297030396479183
 72
     1
 10
3.246561029096079
 20
6.297030396479183
 11
3.246087417996932
 21
6.357726228279211
 72
     1
 10
3.246087417996932
 20
6.357726228279211
 11
3.518113800013857
 21
6.476454003057673
 72
     1
 10
3.518113800013857
 20
6.476454003057673
 11
6.161512344347102
 21
5.819058186331555
 72
     1
 10
6.161512344347102
 20
5.819058186331555
 11
6.161512344347102
 21
5.458794306543697
 72
     1
 10
6.161512344347102
 20
5.458794306543697
 11
5.902805555555561
 21
5.363851253386605
 97
        0
 75
     2
 76
     1
 98
        0
  0
POLYLINE
  5
171
330
159
100
AcDbEntity
  8
Wood
 62
   250
420
  2301728
370
    35
100
AcDb2dPolyline
 66
     1
 10
0.0
 20
0.0
 30
0.0
  0
VERTEX
  5
172
330
171
100
AcDbEntity
  8
Wood
 62
   250
420
  2301728
370
    35
100
AcDbVertex
100
AcDb2dVertex
 10
3.927530456337788
 20
5.517116527292576
 30
0.0
  0
VERTEX
  5
173
330
171
100
AcDbEntity
  8
Wood
 62
   250
420
  2301728
370
    35
100
AcDbVertex
100
AcDb2dVertex
 10
2.767977707852777
 20
5.729017910828386
 30
0.0
  0
VERTEX
  5
174
330
171
100
AcDbEntity
  8
Wood
 62
   250
420
  2301728
370
    35
100
AcDbVertex
100
AcDb2dVertex
 10
2.767977707852777
 20
6.151862344590894
 30
0.0
  0
VERTEX
  5
175
330
171
100
AcDbEntity
  8
Wood
 62
   250
420
  2301728
370
    35
100
AcDbVertex
100
AcDb2dVertex
 10
2.976067980373753
 20
6.241067897892915
 30
0.0
  0
VERTEX
  5
176
330
171
100
AcDbEntity
  8
Wood
 62
   250
420
  2301728
370
    35
100
AcDbVertex
100
AcDb2dVertex
 10
2.975769369270185
 20
6.302835951888078
 30
0.0
  0
VERTEX
  5
177
330
171
100
AcDbEntity
  8
Wood
 62
   250
420
  2301728
370
    35
100
AcDbVertex
100
AcDb2dVertex
 10
3.246561029096079
 20
6.297030396479183
 30
0.0
  0
VERTEX
  5
178
330
171
100
AcDbEntity
  8
Wood
 62
   250
420
  2301728
370
    35
100
AcDbVertex
100
AcDb2dVertex
 10
3.246087417996932
 20
6.357726228279211
 30
0.0
  0
VERTEX
  5
179
330
171
100
AcDbEntity
  8
Wood
 62
   250
420
  2301728
370
    35
100
AcDbVertex
100
AcDb2dVertex
 10
3.518113800013857
 20
6.474372058665822
 30
0.0
  0
VERTEX
  5
17A
330
171
100
AcDbEntity
  8
Wood
 62
   250
420
  2301728
370
    35
100
AcDbVertex
100
AcDb2dVertex
 10
6.161512344347102
 20
5.808769297702585
 30
0.0
  0
VERTEX
  5
17B
330
171
100
AcDbEntity
  8
Wood
 62
   250
420
  2301728
370
    35
100
AcDbVertex
100
AcDb2dVertex
 10
6.161512344347102
 20
5.458794306543697
 30
0.0
  0
VERTEX
  5
17C
330
171
100
AcDbEntity
  8
Wood
 62
   250
420
  2301728
370
    35
100
AcDbVertex
100
AcDb2dVertex
 10
5.902805555555561
 20
5.363851253386605
 30
0.0
  0
VERTEX
  5
17D
330
171
100
AcDbEntity
  8
Wood
 62
   250
420
  2301728
370
    35
100
AcDbVertex
100
AcDb2dVertex
 10
5.9034831841988
 20
5.298923477249041
 30
0.0
  0
VERTEX
  5
17E
330
171
100
AcDbEntity
  8
Wood
 62
   250
420
  2301728
370
    35
100
AcDbVertex
100
AcDb2dVertex
 10
5.670491523417998
 20
5.338731809576731
 30
0.0
  0
VERTEX
  5
17F
330
171
100
AcDbEntity
  8
Wood
 62
   250
420
  2301728
370
    35
100
AcDbVertex
100
AcDb2dVertex
 10
5.670274856756805
 20
5.28856097751082
 30
0.0
  0
VERTEX
  5
180
330
171
100
AcDbEntity
  8
Wood
 62
   250
420
  2301728
370
    35
100
AcDbVertex
100
AcDb2dVertex
 10
5.485188750321362
 20
5.222073479190436
 30
0.0
  0
VERTEX
  5
181
330
171
100
AcDbEntity
  8
Wood
 62
   250
420
  2301728
370
    35
100
AcDbVertex
100
AcDb2dVertex
 10
5.055908205610345
 20
5.3078206992465
 30
0.0
  0
SEQEND
  5
182
330
171
100
AcDbEntity
  8
Wood
 62
   250
420
  2301728
370
    35
  0
POLYLINE
  5
183
330
159
100
AcDbEntity
  8
Wood
 62
   250
420
  2301728
370
    35
100
AcDb2dPolyline
 66
     1
 10
0.0
 20
0.0
 30
0.0
  0
VERTEX
  5
184
330
183
100
AcDbEntity
  8
Wood
 62
   250
420
  2301728
370
    35
100
AcDbVertex
100
AcDb2dVertex
 10
5.915038739462438
 20
5.368448475492692
 30
0.0
  0
VERTEX
  5
185
330
183
100
AcDbEntity
  8
Wood
 62
   250
420
  2301728
370
    35
100
AcDbVertex
100
AcDb2dVertex
 10
5.850910963304664
 20
5.344876253865954
 30
0.0
  0
SEQEND
  5
186
330
183
100
AcDbEntity
  8
Wood
 62
   250
420
  2301728
370
    35
  0
POLYLINE
  5
187
330
159
100
AcDbEntity
  8
Wood
 62
   250
420
  2301728
370
    35
100
AcDb2dPolyline
 66
     1
 10
0.0
 20
0.0
 30
0.0
  0
VERTEX
  5
188
330
187
100
AcDbEntity
  8
Wood
 62
   250
420
  2301728
370
    35
100
AcDbVertex
100
AcDb2dVertex
 10
5.680365134279681
 20
5.338731809576731
 30
0.0
  0
VERTEX
  5
189
330
187
100
AcDbEntity
  8
Wood
 62
   250
420
  2301728
370
    35
100
AcDbVertex
100
AcDb2dVertex
 10
5.594984580881019
 20
5.352444444444447
 30
0.0
  0
SEQEND
  5
18A
330
187
100
AcDbEntity
  8
Wood
 62
   250
420
  2301728
370
    35
  0
POLYLINE
  5
18B
330
159
100
AcDbEntity
  8
Wood
 62
   250
420
  2301728
370
    35
100
AcDb2dPolyline
 66
     1
 10
0.0
 20
0.0
 30
0.0
  0
VERTEX
  5
18C
330
18B
100
AcDbEntity
  8
Wood
 62
   250
420
  2301728
370
    35
100
AcDbVertex
100
AcDb2dVertex
 10
5.056179038936837
 20
5.705816522525613
 30
0.0
  0
VERTEX
  5
18D
330
18B
100
AcDbEntity
  8
Wood
 62
   250
420
  2301728
370
    35
100
AcDbVertex
100
AcDb2dVertex
 10
5.056179038936837
 20
5.113797093036838
 30
0.0
  0
SEQEND
  5
18E
330
18B
100
AcDbEntity
  8
Wood
 62
   250
420
  2301728
370
    35
  0
POLYLINE
  5
18F
330
159
100
AcDbEntity
  8
Wood
 62
   250
420
  2301728
370
    30
100
AcDb2dPolyline
 66
     1
 10
0.0
 20
0.0
 30
0.0
  0
VERTEX
  5
190
330
18F
100
AcDbEntity
  8
Wood
 62
   250
420
  2301728
370
    30
100
AcDbVertex
100
AcDb2dVertex
 10
3.248758251262795
 20
5.946865127547325
 30
0.0
  0
VERTEX
  5
191
330
18F
100
AcDbEntity
  8
Wood
 62
   250
420
  2301728
370
    30
100
AcDbVertex
100
AcDb2dVertex
 10
3.517991577794722
 20
6.048916666666665
 30
0.0
  0
VERTEX
  5
192
330
18F
100
AcDbEntity
  8
Wood
 62
   250
420
  2301728
370
    30
100
AcDbVertex
100
AcDb2dVertex
 10
6.161512344347102
 20
5.458794306543697
 30
0.0
  0
SEQEND
  5
193
330
18F
100
AcDbEntity
  8
Wood
 62
   250
420
  2301728
370
    30
  0
POLYLINE
  5
194
330
159
100
AcDbEntity
  8
Wood
 62
   250
420
  2301728
370
    30
100
AcDb2dPolyline
 66
     1
 10
0.0
 20
0.0
 30
0.0
  0
VERTEX
  5
195
330
194
100
AcDbEntity
  8
Wood
 62
   250
420
  2301728
370
    30
100
AcDbVertex
100
AcDb2dVertex
 10
2.767977707852777
 20
5.729017910828386
 30
0.0
  0
VERTEX
  5
196
330
194
100
AcDbEntity
  8
Wood
 62
   250
420
  2301728
370
    30
100
AcDbVertex
100
AcDb2dVertex
 10
3.030713812326616
 20
5.846163741202367
 30
0.0
  0
SEQEND
  5
197
330
194
100
AcDbEntity
  8
Wood
 62
   250
420
  2301728
370
    30
  0
POLYLINE
  5
198
330
159
100
AcDbEntity
  8
Wood
 62
   250
420
  2301728
370
    30
100
AcDb2dPolyline
 66
     1
 10
0.0
 20
0.0
 30
0.0
  0
VERTEX
  5
199
330
198
100
AcDbEntity
  8
Wood
 62
   250
420
  2301728
370
    30
100
AcDbVertex
100
AcDb2dVertex
 10
3.517991577794722
 20
6.048916666666665
 30
0.0
  0
VERTEX
  5
19A
330
198
100
AcDbEntity
  8
Wood
 62
   250
420
  2301728
370
    30
100
AcDbVertex
100
AcDb2dVertex
 10
3.517991577794722
 20
6.474372058665822
 30
0.0
  0
SEQEND
  5
19B
330
198
100
AcDbEntity
  8
Wood
 62
   250
420
  2301728
370
    30
  0
POLYLINE
  5
19C
330
159
100
AcDbEntity
  8
Wood
 62
   250
420
  2301728
370
    35
100
AcDb2dPolyline
 66
     1
 10
0.0
 20
0.0
 30
0.0
  0
VERTEX
  5
19D
330
19C
100
AcDbEntity
  8
Wood
 62
   250
420
  2301728
370
    35
100
AcDbVertex
100
AcDb2dVertex
 10
3.027241590192109
 20
5.844258185694949
 30
0.0
  0
VERTEX
  5
19E
330
19C
100
AcDbEntity
  8
Wood
 62
   250
420
  2301728
370
    35
100
AcDbVertex
100
AcDb2dVertex
 10
2.976324924811706
 20
5.905151239712217
 30
0.0
  0
VERTEX
  5
19F
330
19C
100
AcDbEntity
  8
Wood
 62
   250
420
  2301728
370
    35
100
AcDbVertex
100
AcDb2dVertex
 10
2.976324924811706
 20
6.241067897892915
 30
0.0
  0
SEQEND
  5
1A0
330
19C
100
AcDbEntity
  8
Wood
 62
   250
420
  2301728
370
    35
  0
POLYLINE
  5
1A1
330
159
100
AcDbEntity
  8
Wood
 62
   250
420
  2301728
370
    35
100
AcDb2dPolyline
 66
     1
 10
0.0
 20
0.0
 30
0.0
  0
VERTEX
  5
1A2
330
1A1
100
AcDbEntity
  8
Wood
 62
   250
420
  2301728
370
    35
100
AcDbVertex
100
AcDb2dVertex
 10
3.313699916288897
 20
5.903848461967351
 30
0.0
  0
VERTEX
  5
1A3
330
1A1
100
AcDbEntity
  8
Wood
 62
   250
420
  2301728
370
    35
100
AcDbVertex
100
AcDb2dVertex
 10
3.246548529096394
 20
5.947611111111112
 30
0.0
  0
VERTEX
  5
1A4
330
1A1
100
AcDbEntity
  8
Wood
 62
   250
420
  2301728
370
    35
100
AcDbVertex
100
AcDb2dVertex
 10
3.246548529096394
 20
6.297030396479183
 30
0.0
  0
SEQEND
  5
1A5
330
1A1
100
AcDbEntity
  8
Wood
 62
   250
420
  2301728
370
    35
  0
SPLINE
  5
1A6
330
159
100
AcDbEntity
  8
Wood
 62
   250
420
  2301728
370
    30
100
AcDbSpline
210
0.0
220
0.0
230
1.0
 70
     8
 71
     3
 72
     8
 73
     4
 74
     0
 42
0.0000000001
 43
0.0000000001
 12
1.0
 22
0.0
 32
0.0
 13
1.0
 23
0.0
 33
0.0
 40
0.0
 40
0.0
 40
0.0
 40
0.0
 40
1.0
 40
1.0
 40
1.0
 40
1.0
 10
2.976324924811706
 20
5.905151239712217
 30
0.0
 10
2.988736111111115
 20
5.90201096201377
 30
0.0
 10
2.996019368758627
 20
5.896315128824325
 30
0.0
 10
3.318908249490657
 20
5.901942906459933
 30
0.0
  0
POLYLINE
  5
1A7
330
159
100
AcDbEntity
  8
Wood
 62
   250
420
  2301728
370
    18
100
AcDb2dPolyline
 66
     1
 10
0.0
 20
0.0
 30
0.0
  0
VERTEX
  5
1A8
330
1A7
100
AcDbEntity
  8
Wood
 62
   250
420
  2301728
370
    18
100
AcDbVertex
100
AcDb2dVertex
 10
2.765658263466927
 20
5.748745688107811
 30
0.0
  0
VERTEX
  5
1A9
330
1A7
100
AcDbEntity
  8
Wood
 62
   250
420
  2301728
370
    18
100
AcDbVertex
100
AcDb2dVertex
 10
2.86288048323311
 20
5.766879020983045
 30
0.0
  0
SEQEND
  5
1AA
330
1A7
100
AcDbEntity
  8
Wood
 62
   250
420
  2301728
370
    18
  0
POLYLINE
  5
1AB
330
159
100
AcDbEntity
  8
Wood
 62
   250
420
  2301728
370
    18
100
AcDb2dPolyline
 66
     1
 10
0.0
 20
0.0
 30
0.0
  0
VERTEX
  5
1AC
330
1AB
100
AcDbEntity
  8
Wood
 62
   250
420
  2301728
370
    18
100
AcDbVertex
100
AcDb2dVertex
 10
2.767977707852777
 20
5.814710964219153
 30
0.0
  0
VERTEX
  5
1AD
330
1AB
100
AcDbEntity
  8
Wood
 62
   250
420
  2301728
370
    18
100
AcDbVertex
100
AcDb2dVertex
 10
3.00176936861337
 20
5.868367907308109
 30
0.0
  0
SEQEND
  5
1AE
330
1AB
100
AcDbEntity
  8
Wood
 62
   250
420
  2301728
370
    18
  0
POLYLINE
  5
1AF
330
159
100
AcDbEntity
  8
Wood
 62
   250
420
  2301728
370
    18
100
AcDb2dPolyline
 66
     1
 10
0.0
 20
0.0
 30
0.0
  0
VERTEX
  5
1B0
330
1AF
100
AcDbEntity
  8
Wood
 62
   250
420
  2301728
370
    18
100
AcDbVertex
100
AcDb2dVertex
 10
2.770297152238628
 20
5.903497073087338
 30
0.0
  0
VERTEX
  5
1B1
330
1AF
100
AcDbEntity
  8
Wood
 62
   250
420
  2301728
370
    18
100
AcDbVertex
100
AcDb2dVertex
 10
2.971686036040005
 20
5.944472222222227
 30
0.0
  0
SEQEND
  5
1B2
330
1AF
100
AcDbEntity
  8
Wood
 62
   250
420
  2301728
370
    18
  0
POLYLINE
  5
1B3
330
159
100
AcDbEntity
  8
Wood
 62
   250
420
  2301728
370
    18
100
AcDb2dPolyline
 66
     1
 10
0.0
 20
0.0
 30
0.0
  0
VERTEX
  5
1B4
330
1B3
100
AcDbEntity
  8
Wood
 62
   250
420
  2301728
370
    18
100
AcDbVertex
100
AcDb2dVertex
 10
2.77260270773594
 20
5.974541666666672
 30
0.0
  0
VERTEX
  5
1B5
330
1B3
100
AcDbEntity
  8
Wood
 62
   250
420
  2301728
370
    18
100
AcDbVertex
100
AcDb2dVertex
 10
2.851311039080934
 20
6.004855403860144
 30
0.0
  0
VERTEX
  5
1B6
330
1B3
100
AcDbEntity
  8
Wood
 62
   250
420
  2301728
370
    18
100
AcDbVertex
100
AcDb2dVertex
 10
2.976311035923168
 20
6.010437348163578
 30
0.0
  0
SEQEND
  5
1B7
330
1B3
100
AcDbEntity
  8
Wood
 62
   250
420
  2301728
370
    18
  0
POLYLINE
  5
1B8
330
159
100
AcDbEntity
  8
Wood
 62
   250
420
  2301728
370
    18
100
AcDb2dPolyline
 66
     1
 10
0.0
 20
0.0
 30
0.0
  0
VERTEX
  5
1B9
330
1B8
100
AcDbEntity
  8
Wood
 62
   250
420
  2301728
370
    18
100
AcDbVertex
100
AcDb2dVertex
 10
2.770297152238628
 20
6.021254014556992
 30
0.0
  0
VERTEX
  5
1BA
330
1B8
100
AcDbEntity
  8
Wood
 62
   250
420
  2301728
370
    18
100
AcDbVertex
100
AcDb2dVertex
 10
2.881408260542836
 20
6.069830402218738
 30
0.0
  0
VERTEX
  5
1BB
330
1B8
100
AcDbEntity
  8
Wood
 62
   250
420
  2301728
370
    18
100
AcDbVertex
100
AcDb2dVertex
 10
2.971686036040005
 20
6.087585957325751
 30
0.0
  0
SEQEND
  5
1BC
330
1B8
100
AcDbEntity
  8
Wood
 62
   250
420
  2301728
370
    18
  0
POLYLINE
  5
1BD
330
159
100
AcDbEntity
  8
Wood
 62
   250
420
  2301728
370
    18
100
AcDb2dPolyline
 66
     1
 10
0.0
 20
0.0
 30
0.0
  0
VERTEX
  5
1BE
330
1BD
100
AcDbEntity
  8
Wood
 62
   250
420
  2301728
370
    18
100
AcDbVertex
100
AcDb2dVertex
 10
2.767977707852777
 20
6.069444444444444
 30
0.0
  0
VERTEX
  5
1BF
330
1BD
100
AcDbEntity
  8
Wood
 62
   250
420
  2301728
370
    18
100
AcDbVertex
100
AcDb2dVertex
 10
2.973991591537318
 20
6.143398455915809
 30
0.0
  0
SEQEND
  5
1C0
330
1BD
100
AcDbEntity
  8
Wood
 62
   250
420
  2301728
370
    18
  0
POLYLINE
  5
1C1
330
159
100
AcDbEntity
  8
Wood
 62
   250
420
  2301728
370
    18
100
AcDb2dPolyline
 66
     1
 10
0.0
 20
0.0
 30
0.0
  0
VERTEX
  5
1C2
330
1C1
100
AcDbEntity
  8
Wood
 62
   250
420
  2301728
370
    18
100
AcDbVertex
100
AcDb2dVertex
 10
2.978630480309019
 20
5.977458333333339
 30
0.0
  0
VERTEX
  5
1C3
330
1C1
100
AcDbEntity
  8
Wood
 62
   250
420
  2301728
370
    18
100
AcDbVertex
100
AcDb2dVertex
 10
3.066588811420337
 20
5.944484572051906
 30
0.0
  0
VERTEX
  5
1C4
330
1C1
100
AcDbEntity
  8
Wood
 62
   250
420
  2301728
370
    18
100
AcDbVertex
100
AcDb2dVertex
 10
3.244824918028826
 20
5.967895682571617
 30
0.0
  0
SEQEND
  5
1C5
330
1C1
100
AcDbEntity
  8
Wood
 62
   250
420
  2301728
370
    18
  0
SPLINE
  5
1C6
330
159
100
AcDbEntity
  8
Wood
 62
   250
420
  2301728
370
    18
100
AcDbSpline
210
0.0
220
0.0
230
1.0
 70
     8
 71
     3
 72
    11
 73
     7
 74
     0
 42
0.0000000001
 43
0.0000000001
 12
1.0
 22
0.0
 32
0.0
 13
1.0
 23
0.0
 33
0.0
 40
0.0
 40
0.0
 40
0.0
 40
0.0
 40
1.0
 40
1.0
 40
1.0
 40
2.0
 40
2.0
 40
2.0
 40
2.0
 10
2.978630480309019
 20
6.051024847138251
 30
0.0
 10
2.987880480075344
 20
6.051024847138251
 30
0.0
 10
3.14065825399363
 20
6.01045679260753
 30
0.0
 10
3.14065825399363
 20
6.01045679260753
 30
0.0
 10
3.14065825399363
 20
6.01045679260753
 30
0.0
 10
3.247144362414676
 20
6.031317903191658
 30
0.0
 10
3.247144362414676
 20
6.031317903191658
 30
0.0
  0
POLYLINE
  5
1C7
330
159
100
AcDbEntity
  8
Wood
 62
   250
420
  2301728
370
    18
100
AcDb2dPolyline
 66
     1
 10
0.0
 20
0.0
 30
0.0
  0
VERTEX
  5
1C8
330
1C7
100
AcDbEntity
  8
Wood
 62
   250
420
  2301728
370
    18
100
AcDbVertex
100
AcDb2dVertex
 10
2.973991591537318
 20
6.069830402218738
 30
0.0
  0
VERTEX
  5
1C9
330
1C7
100
AcDbEntity
  8
Wood
 62
   250
420
  2301728
370
    18
100
AcDbVertex
100
AcDb2dVertex
 10
3.156866586917519
 20
6.029765125453094
 30
0.0
  0
VERTEX
  5
1CA
330
1C7
100
AcDbEntity
  8
Wood
 62
   250
420
  2301728
370
    18
100
AcDbVertex
100
AcDb2dVertex
 10
3.247144362414676
 20
6.052659569319176
 30
0.0
  0
SEQEND
  5
1CB
330
1C7
100
AcDbEntity
  8
Wood
 62
   250
420
  2301728
370
    18
  0
POLYLINE
  5
1CC
330
159
100
AcDbEntity
  8
Wood
 62
   250
420
  2301728
370
    18
100
AcDb2dPolyline
 66
     1
 10
0.0
 20
0.0
 30
0.0
  0
VERTEX
  5
1CD
330
1CC
100
AcDbEntity
  8
Wood
 62
   250
420
  2301728
370
    18
100
AcDbVertex
100
AcDb2dVertex
 10
2.978630480309019
 20
6.133247067283365
 30
0.0
  0
VERTEX
  5
1CE
330
1CC
100
AcDbEntity
  8
Wood
 62
   250
420
  2301728
370
    18
100
AcDbVertex
100
AcDb2dVertex
 10
3.080477699958363
 20
6.105366512432144
 30
0.0
  0
VERTEX
  5
1CF
330
1CC
100
AcDbEntity
  8
Wood
 62
   250
420
  2301728
370
    18
100
AcDbVertex
100
AcDb2dVertex
 10
3.168436031069682
 20
6.079501235307766
 30
0.0
  0
VERTEX
  5
1D0
330
1CC
100
AcDbEntity
  8
Wood
 62
   250
420
  2301728
370
    18
100
AcDbVertex
100
AcDb2dVertex
 10
3.242519362531513
 20
6.095784568229747
 30
0.0
  0
SEQEND
  5
1D1
330
1CC
100
AcDbEntity
  8
Wood
 62
   250
420
  2301728
370
    18
  0
SPLINE
  5
1D2
330
159
100
AcDbEntity
  8
Wood
 62
   250
420
  2301728
370
    18
100
AcDbSpline
210
0.0
220
0.0
230
1.0
 70
     8
 71
     3
 72
    11
 73
     7
 74
     0
 42
0.0000000001
 43
0.0000000001
 12
1.0
 22
0.0
 32
0.0
 13
1.0
 23
0.0
 33
0.0
 40
0.0
 40
0.0
 40
0.0
 40
0.0
 40
1.0
 40
1.0
 40
1.0
 40
2.0
 40
2.0
 40
2.0
 40
2.0
 10
2.978630480309019
 20
6.19413178796751
 30
0.0
 10
2.992519368847045
 20
6.19413178796751
 30
0.0
 10
3.16613047557237
 20
6.156101233372699
 30
0.0
 10
3.16613047557237
 20
6.156101233372699
 30
0.0
 10
3.16613047557237
 20
6.156101233372699
 30
0.0
 10
3.242519362531513
 20
6.17951095500353
 30
0.0
 10
3.242519362531513
 20
6.17951095500353
 30
0.0
  0
SPLINE
  5
1D3
330
159
100
AcDbEntity
  8
Wood
 62
   250
420
  2301728
370
    18
100
AcDbSpline
210
0.0
220
0.0
230
1.0
 70
     8
 71
     3
 72
    11
 73
     7
 74
     0
 42
0.0000000001
 43
0.0000000001
 12
1.0
 22
0.0
 32
0.0
 13
1.0
 23
0.0
 33
0.0
 40
0.0
 40
0.0
 40
0.0
 40
0.0
 40
1.0
 40
1.0
 40
1.0
 40
2.0
 40
2.0
 40
2.0
 40
2.0
 10
2.976311035923168
 20
6.24995261989069
 30
0.0
 10
2.983255480192181
 20
6.24995261989069
 30
0.0
 10
3.087422144227376
 20
6.224602620531085
 30
0.0
 10
3.087422144227376
 20
6.224602620531085
 30
0.0
 10
3.087422144227376
 20
6.224602620531085
 30
0.0
 10
3.242519362531513
 20
6.217569444444444
 30
0.0
 10
3.242519362531513
 20
6.217569444444444
 30
0.0
  0
SPLINE
  5
1D4
330
159
100
AcDbEntity
  8
Wood
 62
   250
420
  2301728
370
    18
100
AcDbSpline
210
0.0
220
0.0
230
1.0
 70
     8
 71
     3
 72
    11
 73
     7
 74
     0
 42
0.0000000001
 43
0.0000000001
 12
1.0
 22
0.0
 32
0.0
 13
1.0
 23
0.0
 33
0.0
 40
0.0
 40
0.0
 40
0.0
 40
0.0
 40
1.0
 40
1.0
 40
1.0
 40
2.0
 40
2.0
 40
2.0
 40
2.0
 10
3.247144362414676
 20
6.011033181481858
 30
0.0
 10
3.256408251069539
 20
6.011033181481858
 30
0.0
 10
3.376769359140073
 20
6.003255403900564
 30
0.0
 10
3.376769359140073
 20
6.003255403900564
 30
0.0
 10
3.376769359140073
 20
6.003255403900564
 30
0.0
 10
3.501769355982308
 20
6.043849847319519
 30
0.0
 10
3.501769355982308
 20
6.043849847319519
 30
0.0
  0
SPLINE
  5
1D5
330
159
100
AcDbEntity
  8
Wood
 62
   250
420
  2301728
370
    18
100
AcDbSpline
210
0.0
220
0.0
230
1.0
 70
     8
 71
     3
 72
     8
 73
     4
 74
     0
 42
0.0000000001
 43
0.0000000001
 12
1.0
 22
0.0
 32
0.0
 13
1.0
 23
0.0
 33
0.0
 40
0.0
 40
0.0
 40
0.0
 40
0.0
 40
1.0
 40
1.0
 40
1.0
 40
1.0
 10
3.251769362297839
 20
6.032376236498243
 30
0.0
 10
3.251769362297839
 20
6.032376236498243
 30
0.0
 10
3.508713800251321
 20
6.062648457955725
 30
0.0
 10
3.515658244520333
 20
6.062648457955725
 30
0.0
  0
POLYLINE
  5
1D6
330
159
100
AcDbEntity
  8
Wood
 62
   250
420
  2301728
370
    18
100
AcDb2dPolyline
 66
     1
 10
0.0
 20
0.0
 30
0.0
  0
VERTEX
  5
1D7
330
1D6
100
AcDbEntity
  8
Wood
 62
   250
420
  2301728
370
    18
100
AcDbVertex
100
AcDb2dVertex
 10
3.249463806800526
 20
6.103399845815147
 30
0.0
  0
VERTEX
  5
1D8
330
1D6
100
AcDbEntity
  8
Wood
 62
   250
420
  2301728
370
    18
100
AcDbVertex
100
AcDb2dVertex
 10
3.365199914987898
 20
6.082940124109781
 30
0.0
  0
VERTEX
  5
1D9
330
1D6
100
AcDbEntity
  8
Wood
 62
   250
420
  2301728
370
    18
100
AcDbVertex
100
AcDb2dVertex
 10
3.517977688906184
 20
6.118462345434637
 30
0.0
  0
SEQEND
  5
1DA
330
1D6
100
AcDbEntity
  8
Wood
 62
   250
420
  2301728
370
    18
  0
POLYLINE
  5
1DB
330
159
100
AcDbEntity
  8
Wood
 62
   250
420
  2301728
370
    18
100
AcDb2dPolyline
 66
     1
 10
0.0
 20
0.0
 30
0.0
  0
VERTEX
  5
1DC
330
1DB
100
AcDbEntity
  8
Wood
 62
   250
420
  2301728
370
    18
100
AcDbVertex
100
AcDb2dVertex
 10
3.249463806800526
 20
6.197272065665957
 30
0.0
  0
VERTEX
  5
1DD
330
1DB
100
AcDbEntity
  8
Wood
 62
   250
420
  2301728
370
    18
100
AcDbVertex
100
AcDb2dVertex
 10
3.351311026449871
 20
6.225138888888889
 30
0.0
  0
VERTEX
  5
1DE
330
1DB
100
AcDbEntity
  8
Wood
 62
   250
420
  2301728
370
    18
100
AcDbVertex
100
AcDb2dVertex
 10
3.515658244520333
 20
6.186956788148765
 30
0.0
  0
SEQEND
  5
1DF
330
1DB
100
AcDbEntity
  8
Wood
 62
   250
420
  2301728
370
    18
  0
POLYLINE
  5
1E0
330
159
100
AcDbEntity
  8
Wood
 62
   250
420
  2301728
370
    18
100
AcDb2dPolyline
 66
     1
 10
0.0
 20
0.0
 30
0.0
  0
VERTEX
  5
1E1
330
1E0
100
AcDbEntity
  8
Wood
 62
   250
420
  2301728
370
    18
100
AcDbVertex
100
AcDb2dVertex
 10
3.247144362414676
 20
6.248005397717659
 30
0.0
  0
VERTEX
  5
1E2
330
1E0
100
AcDbEntity
  8
Wood
 62
   250
420
  2301728
370
    18
100
AcDbVertex
100
AcDb2dVertex
 10
3.520297133292022
 20
6.301127618597901
 30
0.0
  0
SEQEND
  5
1E3
330
1E0
100
AcDbEntity
  8
Wood
 62
   250
420
  2301728
370
    18
  0
POLYLINE
  5
1E4
330
159
100
AcDbEntity
  8
Wood
 62
   250
420
  2301728
370
    18
100
AcDb2dPolyline
 66
     1
 10
0.0
 20
0.0
 30
0.0
  0
VERTEX
  5
1E5
330
1E4
100
AcDbEntity
  8
Wood
 62
   250
420
  2301728
370
    18
100
AcDbVertex
100
AcDb2dVertex
 10
3.244824918028826
 20
6.313401229398955
 30
0.0
  0
VERTEX
  5
1E6
330
1E4
100
AcDbEntity
  8
Wood
 62
   250
420
  2301728
370
    18
100
AcDbVertex
100
AcDb2dVertex
 10
3.367519359373748
 20
6.338663728760783
 30
0.0
  0
VERTEX
  5
1E7
330
1E4
100
AcDbEntity
  8
Wood
 62
   250
420
  2301728
370
    18
100
AcDbVertex
100
AcDb2dVertex
 10
3.515658244520333
 20
6.364542894773674
 30
0.0
  0
SEQEND
  5
1E8
330
1E4
100
AcDbEntity
  8
Wood
 62
   250
420
  2301728
370
    18
  0
POLYLINE
  5
1E9
330
159
100
AcDbEntity
  8
Wood
 62
   250
420
  2301728
370
    30
100
AcDb2dPolyline
 66
     1
 10
0.0
 20
0.0
 30
0.0
  0
VERTEX
  5
1EA
330
1E9
100
AcDbEntity
  8
Wood
 62
   250
420
  2301728
370
    30
100
AcDbVertex
100
AcDb2dVertex
 10
3.922430555555555
 20
5.509880416364265
 30
0.0
  0
VERTEX
  5
1EB
330
1E9
100
AcDbEntity
  8
Wood
 62
   250
420
  2301728
370
    30
100
AcDbVertex
100
AcDb2dVertex
 10
4.689208333333327
 20
5.784729020532116
 30
0.0
  0
VERTEX
  5
1EC
330
1E9
100
AcDbEntity
  8
Wood
 62
   250
420
  2301728
370
    30
100
AcDbVertex
100
AcDb2dVertex
 10
4.689208333333327
 20
3.688422129044839
 30
0.0
  0
SEQEND
  5
1ED
330
1E9
100
AcDbEntity
  8
Wood
 62
   250
420
  2301728
370
    30
  0
POLYLINE
  5
1EE
330
159
100
AcDbEntity
  8
Wood
 62
   250
420
  2301728
370
    30
100
AcDb2dPolyline
 66
     1
 10
0.0
 20
0.0
 30
0.0
  0
VERTEX
  5
1EF
330
1EE
100
AcDbEntity
  8
Wood
 62
   250
420
  2301728
370
    30
100
AcDbVertex
100
AcDb2dVertex
 10
5.846652777777788
 20
5.346774864929102
 30
0.0
  0
VERTEX
  5
1F0
330
1EE
100
AcDbEntity
  8
Wood
 62
   250
420
  2301728
370
    30
100
AcDbVertex
100
AcDb2dVertex
 10
5.903509573087022
 20
5.300713754981593
 30
0.0
  0
SEQEND
  5
1F1
330
1EE
100
AcDbEntity
  8
Wood
 62
   250
420
  2301728
370
    30
  0
POLYLINE
  5
1F2
330
159
100
AcDbEntity
  8
Wood
 62
   250
420
  2301728
370
    30
100
AcDb2dPolyline
 66
     1
 10
0.0
 20
0.0
 30
0.0
  0
VERTEX
  5
1F3
330
1F2
100
AcDbEntity
  8
Wood
 62
   250
420
  2301728
370
    30
100
AcDbVertex
100
AcDb2dVertex
 10
5.594984580881019
 20
5.352444444444447
 30
0.0
  0
VERTEX
  5
1F4
330
1F2
100
AcDbEntity
  8
Wood
 62
   250
420
  2301728
370
    30
100
AcDbVertex
100
AcDb2dVertex
 10
5.670463745640922
 20
5.287258199765953
 30
0.0
  0
SEQEND
  5
1F5
330
1F2
100
AcDbEntity
  8
Wood
 62
   250
420
  2301728
370
    30
  0
ENDBLK
  5
15C
330
159
100
AcDbEntity
  8
0
100
AcDbBlockEnd
  0
BLOCK
  5
209
330
207
100
AcDbEntity
  8
0
100
AcDbBlockBegin
  2
block 3
 70
     0
 10
0.0
 20
0.0
 30
0.0
  3
block 3
  1

  0
SPLINE
  5
20B
330
207
100
AcDbEntity
  8
TSP
 62
   250
420
  2301728
370
    25
100
AcDbSpline
210
0.0
220
0.0
230
1.0
 70
     8
 71
     3
 72
    17
 73
    13
 74
     0
 42
0.0000000001
 43
0.0000000001
 12
1.0
 22
0.0
 32
0.0
 13
1.0
 23
0.0
 33
0.0
 40
0.0
 40
0.0
 40
0.0
 40
0.0
 40
1.0
 40
1.0
 40
1.0
 40
2.0
 40
2.0
 40
2.0
 40
3.0
 40
3.0
 40
3.0
 40
4.0
 40
4.0
 40
4.0
 40
4.0
 10
4.299086002507061
 20
6.368516505784403
 30
0.0
 10
4.299086002507061
 20
6.368516505784403
 30
0.0
 10
4.302558224641567
 20
6.358099839380884
 30
0.0
 10
4.3199193353141
 20
6.358099839380884
 30
0.0
 10
4.3199193353141
 20
6.358099839380884
 30
0.0
 10
4.340752668121139
 20
6.358099839380884
 30
0.0
 10
4.344224890255646
 20
6.378933172187923
 30
0.0
 10
4.344224890255646
 20
6.378933172187923
 30
0.0
 10
4.344224890255646
 20
6.693997053117628
 30
0.0
 10
4.344224890255646
 20
6.693997053117628
 30
0.0
 10
4.344224890255646
 20
6.693997053117628
 30
0.0
 10
4.34539155689284
 20
6.711372052678699
 30
0.0
 10
4.339599890372483
 20
6.715997052561861
 30
0.0
  0
SPLINE
  5
20C
330
207
100
AcDbEntity
  8
TSP
 62
   250
420
  2301728
370
    18
100
AcDbSpline
210
0.0
220
0.0
230
1.0
 70
     8
 71
     3
 72
    11
 73
     7
 74
     0
 42
0.0000000001
 43
0.0000000001
 12
1.0
 22
0.0
 32
0.0
 13
1.0
 23
0.0
 33
0.0
 40
0.0
 40
0.0
 40
0.0
 40
0.0
 40
1.0
 40
1.0
 40
1.0
 40
2.0
 40
2.0
 40
2.0
 40
2.0
 10
4.294461002623899
 20
6.565972222222221
 30
0.0
 10
4.294461002623899
 20
6.565972222222221
 30
0.0
 10
4.294461002623899
 20
6.710205386041505
 30
0.0
 10
4.294461002623899
 20
6.710205386041505
 30
0.0
 10
4.294461002623899
 20
6.710205386041505
 30
0.0
 10
4.290988780489392
 20
6.721774830193681
 30
0.0
 10
4.284044336220378
 20
6.724094274579531
 30
0.0
  0
POLYLINE
  5
20D
330
207
100
AcDbEntity
  8
TSP
 62
   250
420
  2301728
370
    18
100
AcDb2dPolyline
 66
     1
 10
0.0
 20
0.0
 30
0.0
  0
VERTEX
  5
20E
330
20D
100
AcDbEntity
  8
TSP
 62
   250
420
  2301728
370
    18
100
AcDbVertex
100
AcDb2dVertex
 10
4.294461002623899
 20
6.400458333333328
 30
0.0
  0
VERTEX
  5
20F
330
20D
100
AcDbEntity
  8
TSP
 62
   250
420
  2301728
370
    18
100
AcDbVertex
100
AcDb2dVertex
 10
4.294461002623899
 20
6.53125
 30
0.0
  0
SEQEND
  5
210
330
20D
100
AcDbEntity
  8
TSP
 62
   250
420
  2301728
370
    18
  0
ENDBLK
  5
20A
330
207
100
AcDbEntity
  8
0
100
AcDbBlockEnd
  0
BLOCK
  5
213
330
211
100
AcDbEntity
  8
0
100
AcDbBlockBegin
  2
block 4
 70
     0
 10
0.0
 20
0.0
 30
0.0
  3
block 4
  1

  0
SPLINE
  5
215
330
211
100
AcDbEntity
  8
TSP
 62
   250
420
  2301728
370
    25
100
AcDbSpline
210
0.0
220
0.0
230
1.0
 70
     8
 71
     3
 72
    17
 73
    13
 74
     0
 42
0.0000000001
 43
0.0000000001
 12
1.0
 22
0.0
 32
0.0
 13
1.0
 23
0.0
 33
0.0
 40
0.0
 40
0.0
 40
0.0
 40
0.0
 40
1.0
 40
1.0
 40
1.0
 40
2.0
 40
2.0
 40
2.0
 40
3.0
 40
3.0
 40
3.0
 40
4.0
 40
4.0
 40
4.0
 40
4.0
 10
4.433335999115621
 20
6.545138888888888
 30
0.0
 10
4.433335999115621
 20
6.545138888888888
 30
0.0
 10
4.436808221250127
 20
6.534722222222221
 30
0.0
 10
4.454169331922659
 20
6.534722222222221
 30
0.0
 10
4.454169331922659
 20
6.534722222222221
 30
0.0
 10
4.475016553618237
 20
6.534722222222221
 30
0.0
 10
4.478488775752743
 20
6.555555555555555
 30
0.0
 10
4.478488775752743
 20
6.555555555555555
 30
0.0
 10
4.478488775752743
 20
6.655083333333335
 30
0.0
 10
4.478488775752743
 20
6.655083333333335
 30
0.0
 10
4.478488775752743
 20
6.655083333333335
 30
0.0
 10
4.479655442389937
 20
6.672472222222217
 30
0.0
 10
4.473863775869581
 20
6.677097222222224
 30
0.0
  0
SPLINE
  5
216
330
211
100
AcDbEntity
  8
TSP
 62
   250
420
  2301728
370
    18
100
AcDbSpline
210
0.0
220
0.0
230
1.0
 70
     8
 71
     3
 72
    11
 73
     7
 74
     0
 42
0.0000000001
 43
0.0000000001
 12
1.0
 22
0.0
 32
0.0
 13
1.0
 23
0.0
 33
0.0
 40
0.0
 40
0.0
 40
0.0
 40
0.0
 40
1.0
 40
1.0
 40
1.0
 40
2.0
 40
2.0
 40
2.0
 40
2.0
 10
4.428710999232458
 20
6.644449832147075
 30
0.0
 10
4.428710999232458
 20
6.644449832147075
 30
0.0
 10
4.428710999232458
 20
6.671305555555553
 30
0.0
 10
4.428710999232458
 20
6.671305555555553
 30
0.0
 10
4.428710999232458
 20
6.671305555555553
 30
0.0
 10
4.425238777097952
 20
6.682861111111113
 30
0.0
 10
4.418294332828938
 20
6.685194444444441
 30
0.0
  0
POLYLINE
  5
217
330
211
100
AcDbEntity
  8
TSP
 62
   250
420
  2301728
370
    18
100
AcDb2dPolyline
 66
     1
 10
0.0
 20
0.0
 30
0.0
  0
VERTEX
  5
218
330
217
100
AcDbEntity
  8
TSP
 62
   250
420
  2301728
370
    18
100
AcDbVertex
100
AcDb2dVertex
 10
4.428710999232458
 20
6.577094278293063
 30
0.0
  0
VERTEX
  5
219
330
217
100
AcDbEntity
  8
TSP
 62
   250
420
  2301728
370
    18
100
AcDbVertex
100
AcDb2dVertex
 10
4.428710999232458
 20
6.615288721772635
 30
0.0
  0
SEQEND
  5
21A
330
217
100
AcDbEntity
  8
TSP
 62
   250
420
  2301728
370
    18
  0
ENDBLK
  5
214
330
211
100
AcDbEntity
  8
0
100
AcDbBlockEnd
  0
BLOCK
  5
21D
330
21B
100
AcDbEntity
  8
0
100
AcDbBlockBegin
  2
block 5
 70
     0
 10
0.0
 20
0.0
 30
0.0
  3
block 5
  1

  0
SPLINE
  5
21F
330
21B
100
AcDbEntity
  8
TSP
 62
   250
420
  2301728
370
    25
100
AcDbSpline
210
0.0
220
0.0
230
1.0
 70
     8
 71
     3
 72
    17
 73
    13
 74
     0
 42
0.0000000001
 43
0.0000000001
 12
1.0
 22
0.0
 32
0.0
 13
1.0
 23
0.0
 33
0.0
 40
0.0
 40
0.0
 40
0.0
 40
0.0
 40
1.0
 40
1.0
 40
1.0
 40
2.0
 40
2.0
 40
2.0
 40
3.0
 40
3.0
 40
3.0
 40
4.0
 40
4.0
 40
4.0
 40
4.0
 10
4.562758218068362
 20
6.30898734062157
 30
0.0
 10
4.562758218068362
 20
6.30898734062157
 30
0.0
 10
4.566148495760495
 20
6.298827618656004
 30
0.0
 10
4.583088773110325
 20
6.298827618656004
 30
0.0
 10
4.583088773110325
 20
6.298827618656004
 30
0.0
 10
4.603406828152603
 20
6.298827618656004
 30
0.0
 10
4.60679849473359
 20
6.319145673698282
 30
0.0
 10
4.60679849473359
 20
6.319145673698282
 30
0.0
 10
4.60679849473359
 20
6.619208333333328
 30
0.0
 10
4.60679849473359
 20
6.619208333333328
 30
0.0
 10
4.60679849473359
 20
6.619208333333328
 30
0.0
 10
4.60679849473359
 20
6.635091499050152
 30
0.0
 10
4.603406828152603
 20
6.639540110048882
 30
0.0
  0
SPLINE
  5
220
330
21B
100
AcDbEntity
  8
TSP
 62
   250
420
  2301728
370
    18
100
AcDbSpline
210
0.0
220
0.0
230
1.0
 70
     8
 71
     3
 72
    11
 73
     7
 74
     0
 42
0.0000000001
 43
0.0000000001
 12
1.0
 22
0.0
 32
0.0
 13
1.0
 23
0.0
 33
0.0
 40
0.0
 40
0.0
 40
0.0
 40
0.0
 40
1.0
 40
1.0
 40
1.0
 40
2.0
 40
2.0
 40
2.0
 40
2.0
 10
4.558254051515481
 20
6.494927613702101
 30
0.0
 10
4.558254051515481
 20
6.494927613702101
 30
0.0
 10
4.558254051515481
 20
6.635009554607778
 30
0.0
 10
4.558254051515481
 20
6.635009554607778
 30
0.0
 10
4.558254051515481
 20
6.635009554607778
 30
0.0
 10
4.558349884846393
 20
6.645141498796268
 30
0.0
 10
4.550252662828724
 20
6.649780387567969
 30
0.0
  0
POLYLINE
  5
221
330
21B
100
AcDbEntity
  8
TSP
 62
   250
420
  2301728
370
    18
100
AcDb2dPolyline
 66
     1
 10
0.0
 20
0.0
 30
0.0
  0
VERTEX
  5
222
330
221
100
AcDbEntity
  8
TSP
 62
   250
420
  2301728
370
    18
100
AcDbVertex
100
AcDb2dVertex
 10
4.558254051515481
 20
6.335394284398919
 30
0.0
  0
VERTEX
  5
223
330
221
100
AcDbEntity
  8
TSP
 62
   250
420
  2301728
370
    18
100
AcDbVertex
100
AcDb2dVertex
 10
4.558254051515481
 20
6.461045670113586
 30
0.0
  0
SEQEND
  5
224
330
221
100
AcDbEntity
  8
TSP
 62
   250
420
  2301728
370
    18
  0
ENDBLK
  5
21E
330
21B
100
AcDbEntity
  8
0
100
AcDbBlockEnd
  0
BLOCK
  5
227
330
225
100
AcDbEntity
  8
0
100
AcDbBlockBegin
  2
block 6
 70
     0
 10
0.0
 20
0.0
 30
0.0
  3
block 6
  1

  0
SPLINE
  5
229
330
225
100
AcDbEntity
  8
TSP
 62
   250
420
  2301728
370
    25
100
AcDbSpline
210
0.0
220
0.0
230
1.0
 70
    11
 71
     3
 72
    17
 73
    13
 74
     0
 42
0.0000000001
 43
0.0000000001
 12
1.0
 22
0.0
 32
0.0
 13
1.0
 23
0.0
 33
0.0
 40
0.0
 40
0.0
 40
0.0
 40
0.0
 40
1.0
 40
1.0
 40
1.0
 40
2.0
 40
2.0
 40
2.0
 40
3.0
 40
3.0
 40
3.0
 40
4.0
 40
4.0
 40
4.0
 40
4.0
 10
4.491387386538008
 20
6.476359558615614
 30
0.0
 10
4.485310997802622
 20
6.496840113653787
 30
0.0
 10
4.493611111111123
 20
6.517388888888894
 30
0.0
 10
4.509915163847735
 20
6.522202613013077
 30
0.0
 10
4.526204052325132
 20
6.527031779557748
 30
0.0
 10
4.54435266297777
 20
6.514335946545138
 30
0.0
 10
4.550429051713157
 20
6.493841502618428
 30
0.0
 10
4.556505440448543
 20
6.47334844758057
 30
0.0
 10
4.548204051769365
 20
6.452812336988245
 30
0.0
 10
4.53190127440343
 20
6.447984559332427
 30
0.0
 10
4.515611111111108
 20
6.443155392787755
 30
0.0
 10
4.497477664161933
 20
6.455851225800365
 30
0.0
 10
4.491387386538008
 20
6.476359558615614
 30
0.0
  0
SPLINE
  5
22A
330
225
100
AcDbEntity
  8
TSP
 62
   250
420
  2301728
370
    25
100
AcDbSpline
210
0.0
220
0.0
230
1.0
 70
    11
 71
     3
 72
    29
 73
    25
 74
     0
 42
0.0000000001
 43
0.0000000001
 12
1.0
 22
0.0
 32
0.0
 13
1.0
 23
0.0
 33
0.0
 40
0.0
 40
0.0
 40
0.0
 40
0.0
 40
1.0
 40
1.0
 40
1.0
 40
2.0
 40
2.0
 40
2.0
 40
3.0
 40
3.0
 40
3.0
 40
4.0
 40
4.0
 40
4.0
 40
5.0
 40
5.0
 40
5.0
 40
6.0
 40
6.0
 40
6.0
 40
7.0
 40
7.0
 40
7.0
 40
8.0
 40
8.0
 40
8.0
 40
8.0
 10
4.53190127440343
 20
6.447984559332427
 30
0.0
 10
4.530734607766235
 20
6.447631781563561
 30
0.0
 10
4.529554052240504
 20
6.447577614898263
 30
0.0
 10
4.528361111111104
 20
6.44740122601383
 30
0.0
 10
4.52693738563994
 20
6.446655392699338
 30
0.0
 10
4.525486111111099
 20
6.445909559384845
 30
0.0
 10
4.52389849682782
 20
6.445434559396845
 30
0.0
 10
4.507609608350422
 20
6.440605392852174
 30
0.0
 10
4.489460997697784
 20
6.453301225864783
 30
0.0
 10
4.483384608962397
 20
6.473809558680032
 30
0.0
 10
4.475708333333336
 20
6.499729002469697
 30
0.0
 10
4.479817942385832
 20
6.513129002131184
 30
0.0
 10
4.501912386272124
 20
6.519666666666668
 30
0.0
 10
4.50306516402078
 20
6.520005390846361
 30
0.0
 10
4.504258219546196
 20
6.520073446400197
 30
0.0
 10
4.505452663960467
 20
6.520249999999995
 30
0.0
 10
4.506876275035615
 20
6.52100955748766
 30
0.0
 10
4.508327663887838
 20
6.521741501913614
 30
0.0
 10
4.509915163847735
 20
6.522202613013077
 30
0.0
 10
4.526204052325132
 20
6.527031779557748
 30
0.0
 10
4.54435266297777
 20
6.514335946545138
 30
0.0
 10
4.550429051713157
 20
6.493841502618428
 30
0.0
 10
4.556505440448543
 20
6.47334844758057
 30
0.0
 10
4.548204051769365
 20
6.452812336988245
 30
0.0
 10
4.53190127440343
 20
6.447984559332427
 30
0.0
  0
ENDBLK
  5
228
330
225
100
AcDbEntity
  8
0
100
AcDbBlockEnd
  0
BLOCK
  5
22D
330
22B
100
AcDbEntity
  8
0
100
AcDbBlockBegin
  2
block 7
 70
     0
 10
0.0
 20
0.0
 30
0.0
  3
block 7
  1

  0
SPLINE
  5
22F
330
22B
100
AcDbEntity
  8
TSP
 62
   250
420
  2301728
370
    25
100
AcDbSpline
210
0.0
220
0.0
230
1.0
 70
    11
 71
     3
 72
    17
 73
    13
 74
     0
 42
0.0000000001
 43
0.0000000001
 12
1.0
 22
0.0
 32
0.0
 13
1.0
 23
0.0
 33
0.0
 40
0.0
 40
0.0
 40
0.0
 40
0.0
 40
1.0
 40
1.0
 40
1.0
 40
2.0
 40
2.0
 40
2.0
 40
3.0
 40
3.0
 40
3.0
 40
4.0
 40
4.0
 40
4.0
 40
4.0
 10
4.491387386538008
 20
6.332410951140964
 30
0.0
 10
4.485310997802622
 20
6.352891506179124
 30
0.0
 10
4.493611111111123
 20
6.373440116771134
 30
0.0
 10
4.509915163847735
 20
6.378255394427267
 30
0.0
 10
4.526204052325132
 20
6.383083333333338
 30
0.0
 10
4.54435266297777
 20
6.370388888888884
 30
0.0
 10
4.550429051713157
 20
6.349894284032618
 30
0.0
 10
4.556505440448543
 20
6.329399840105907
 30
0.0
 10
4.548204051769365
 20
6.308865118402435
 30
0.0
 10
4.53190127440343
 20
6.304035951857763
 30
0.0
 10
4.515611111111108
 20
6.299208333333328
 30
0.0
 10
4.497477664161933
 20
6.311902777777782
 30
0.0
 10
4.491387386538008
 20
6.332410951140964
 30
0.0
  0
SPLINE
  5
230
330
22B
100
AcDbEntity
  8
TSP
 62
   250
420
  2301728
370
    25
100
AcDbSpline
210
0.0
220
0.0
230
1.0
 70
    11
 71
     3
 72
    29
 73
    25
 74
     0
 42
0.0000000001
 43
0.0000000001
 12
1.0
 22
0.0
 32
0.0
 13
1.0
 23
0.0
 33
0.0
 40
0.0
 40
0.0
 40
0.0
 40
0.0
 40
1.0
 40
1.0
 40
1.0
 40
2.0
 40
2.0
 40
2.0
 40
3.0
 40
3.0
 40
3.0
 40
4.0
 40
4.0
 40
4.0
 40
5.0
 40
5.0
 40
5.0
 40
6.0
 40
6.0
 40
6.0
 40
7.0
 40
7.0
 40
7.0
 40
8.0
 40
8.0
 40
8.0
 40
8.0
 10
4.53190127440343
 20
6.304035951857763
 30
0.0
 10
4.530734607766235
 20
6.303683174088897
 30
0.0
 10
4.529554052240504
 20
6.303629007423599
 30
0.0
 10
4.528361111111104
 20
6.303452618539167
 30
0.0
 10
4.52693738563994
 20
6.302706785224674
 30
0.0
 10
4.525486111111099
 20
6.301960951910182
 30
0.0
 10
4.52389849682782
 20
6.301486111111116
 30
0.0
 10
4.507609608350422
 20
6.296658174266364
 30
0.0
 10
4.489460997697784
 20
6.30935261839012
 30
0.0
 10
4.483384608962397
 20
6.329861111111111
 30
0.0
 10
4.475708333333336
 20
6.355780394995033
 30
0.0
 10
4.479817942385832
 20
6.369181783545375
 30
0.0
 10
4.501912386272124
 20
6.375719283380223
 30
0.0
 10
4.50306516402078
 20
6.376058172260551
 30
0.0
 10
4.504258219546196
 20
6.376126227814388
 30
0.0
 10
4.505452663960467
 20
6.376302616698821
 30
0.0
 10
4.506876275035615
 20
6.377060950012996
 30
0.0
 10
4.508327663887838
 20
6.377794283327805
 30
0.0
 10
4.509915163847735
 20
6.378255394427267
 30
0.0
 10
4.526204052325132
 20
6.383083333333338
 30
0.0
 10
4.54435266297777
 20
6.370388888888884
 30
0.0
 10
4.550429051713157
 20
6.349894284032618
 30
0.0
 10
4.556505440448543
 20
6.329399840105907
 30
0.0
 10
4.548204051769365
 20
6.308865118402435
 30
0.0
 10
4.53190127440343
 20
6.304035951857763
 30
0.0
  0
ENDBLK
  5
22E
330
22B
100
AcDbEntity
  8
0
100
AcDbBlockEnd
  0
BLOCK
  5
233
330
231
100
AcDbEntity
  8
0
100
AcDbBlockBegin
  2
block 8
 70
     0
 10
0.0
 20
0.0
 30
0.0
  3
block 8
  1

  0
SPLINE
  5
235
330
231
100
AcDbEntity
  8
TSP
 62
   250
420
  2301728
370
    25
100
AcDbSpline
210
0.0
220
0.0
230
1.0
 70
    11
 71
     3
 72
    17
 73
    13
 74
     0
 42
0.0000000001
 43
0.0000000001
 12
1.0
 22
0.0
 32
0.0
 13
1.0
 23
0.0
 33
0.0
 40
0.0
 40
0.0
 40
0.0
 40
0.0
 40
1.0
 40
1.0
 40
1.0
 40
2.0
 40
2.0
 40
2.0
 40
3.0
 40
3.0
 40
3.0
 40
4.0
 40
4.0
 40
4.0
 40
4.0
 10
4.492447142298563
 20
6.46899418054847
 30
0.0
 10
4.486370753563177
 20
6.48947473558663
 30
0.0
 10
4.494670866871679
 20
6.51002334617864
 30
0.0
 10
4.51097491960829
 20
6.514838623834773
 30
0.0
 10
4.527263808085687
 20
6.519666562740844
 30
0.0
 10
4.545412418738326
 20
6.50697211829639
 30
0.0
 10
4.551488807473712
 20
6.486477513440124
 30
0.0
 10
4.557565196209098
 20
6.465983069513413
 30
0.0
 10
4.54926380752992
 20
6.445448347809942
 30
0.0
 10
4.532961030163985
 20
6.440619181265269
 30
0.0
 10
4.516670866871664
 20
6.435791562740834
 30
0.0
 10
4.498537419922488
 20
6.448486007185288
 30
0.0
 10
4.492447142298563
 20
6.46899418054847
 30
0.0
  0
SPLINE
  5
236
330
231
100
AcDbEntity
  8
TSP
 62
   250
420
  2301728
370
    25
100
AcDbSpline
210
0.0
220
0.0
230
1.0
 70
    11
 71
     3
 72
    29
 73
    25
 74
     0
 42
0.0000000001
 43
0.0000000001
 12
1.0
 22
0.0
 32
0.0
 13
1.0
 23
0.0
 33
0.0
 40
0.0
 40
0.0
 40
0.0
 40
0.0
 40
1.0
 40
1.0
 40
1.0
 40
2.0
 40
2.0
 40
2.0
 40
3.0
 40
3.0
 40
3.0
 40
4.0
 40
4.0
 40
4.0
 40
5.0
 40
5.0
 40
5.0
 40
6.0
 40
6.0
 40
6.0
 40
7.0
 40
7.0
 40
7.0
 40
8.0
 40
8.0
 40
8.0
 40
8.0
 10
4.532961030163985
 20
6.440619181265269
 30
0.0
 10
4.531794363526791
 20
6.440266403496404
 30
0.0
 10
4.530613808001059
 20
6.440212236831106
 30
0.0
 10
4.529420866871659
 20
6.440035847946673
 30
0.0
 10
4.527997141400495
 20
6.439290014632181
 30
0.0
 10
4.526545866871654
 20
6.438544181317688
 30
0.0
 10
4.524958252588375
 20
6.438069340518622
 30
0.0
 10
4.508669364110978
 20
6.43324140367387
 30
0.0
 10
4.490520753458339
 20
6.445935847797626
 30
0.0
 10
4.484444364722953
 20
6.466444340518617
 30
0.0
 10
4.476768089093891
 20
6.49236362440254
 30
0.0
 10
4.480877698146387
 20
6.505765012952881
 30
0.0
 10
4.50297214203268
 20
6.51230251278773
 30
0.0
 10
4.504124919781336
 20
6.512641401668057
 30
0.0
 10
4.505317975306752
 20
6.512709457221894
 30
0.0
 10
4.506512419721022
 20
6.512885846106327
 30
0.0
 10
4.50793603079617
 20
6.513644179420503
 30
0.0
 10
4.509387419648394
 20
6.514377512735311
 30
0.0
 10
4.51097491960829
 20
6.514838623834773
 30
0.0
 10
4.527263808085687
 20
6.519666562740844
 30
0.0
 10
4.545412418738326
 20
6.50697211829639
 30
0.0
 10
4.551488807473712
 20
6.486477513440124
 30
0.0
 10
4.557565196209098
 20
6.465983069513413
 30
0.0
 10
4.54926380752992
 20
6.445448347809942
 30
0.0
 10
4.532961030163985
 20
6.440619181265269
 30
0.0
  0
ENDBLK
  5
234
330
231
100
AcDbEntity
  8
0
100
AcDbBlockEnd
  0
BLOCK
  5
239
330
237
100
AcDbEntity
  8
0
100
AcDbBlockBegin
  2
block 9
 70
     0
 10
0.0
 20
0.0
 30
0.0
  3
block 9
  1

  0
SPLINE
  5
23B
330
237
100
AcDbEntity
  8
TSP
 62
   250
420
  2301728
370
    25
100
AcDbSpline
210
0.0
220
0.0
230
1.0
 70
    11
 71
     3
 72
    17
 73
    13
 74
     0
 42
0.0000000001
 43
0.0000000001
 12
1.0
 22
0.0
 32
0.0
 13
1.0
 23
0.0
 33
0.0
 40
0.0
 40
0.0
 40
0.0
 40
0.0
 40
1.0
 40
1.0
 40
1.0
 40
2.0
 40
2.0
 40
2.0
 40
3.0
 40
3.0
 40
3.0
 40
4.0
 40
4.0
 40
4.0
 40
4.0
 10
4.356756834383506
 20
6.428440115381717
 30
0.0
 10
4.350680555555552
 20
6.448933170419574
 30
0.0
 10
4.358981834327298
 20
6.469469281011899
 30
0.0
 10
4.375284611693234
 20
6.474283169779179
 30
0.0
 10
4.391574889059484
 20
6.479126225212389
 30
0.0
 10
4.409722222222222
 20
6.466416666666671
 30
0.0
 10
4.415798499558655
 20
6.44592205938453
 30
0.0
 10
4.421875
 20
6.425429004346673
 30
0.0
 10
4.413573499614864
 20
6.404892893754347
 30
0.0
 10
4.397270722248928
 20
6.400079004987067
 30
0.0
 10
4.380981833771531
 20
6.395236111111116
 30
0.0
 10
4.362847222222222
 20
6.407945671455005
 30
0.0
 10
4.356756834383506
 20
6.428440115381717
 30
0.0
  0
SPLINE
  5
23C
330
237
100
AcDbEntity
  8
TSP
 62
   250
420
  2301728
370
    25
100
AcDbSpline
210
0.0
220
0.0
230
1.0
 70
    11
 71
     3
 72
    29
 73
    25
 74
     0
 42
0.0000000001
 43
0.0000000001
 12
1.0
 22
0.0
 32
0.0
 13
1.0
 23
0.0
 33
0.0
 40
0.0
 40
0.0
 40
0.0
 40
0.0
 40
1.0
 40
1.0
 40
1.0
 40
2.0
 40
2.0
 40
2.0
 40
3.0
 40
3.0
 40
3.0
 40
4.0
 40
4.0
 40
4.0
 40
5.0
 40
5.0
 40
5.0
 40
6.0
 40
6.0
 40
6.0
 40
7.0
 40
7.0
 40
7.0
 40
8.0
 40
8.0
 40
8.0
 40
8.0
 10
4.397270722248928
 20
6.400079004987067
 30
0.0
 10
4.396104055611734
 20
6.399726227218202
 30
0.0
 10
4.394924888974856
 20
6.399672060552903
 30
0.0
 10
4.393730444560585
 20
6.39949567166847
 30
0.0
 10
4.392306833485438
 20
6.39875
 30
0.0
 10
4.390855444633214
 20
6.398004005039486
 30
0.0
 10
4.389267944673318
 20
6.397529005051486
 30
0.0
 10
4.372979056195921
 20
6.392685949618276
 30
0.0
 10
4.354831834432136
 20
6.405381782630886
 30
0.0
 10
4.348755445696749
 20
6.425902777777777
 30
0.0
 10
4.342679056961363
 20
6.446383170484005
 30
0.0
 10
4.350979056751688
 20
6.466931781076002
 30
0.0
 10
4.367281834117622
 20
6.471760947620673
 30
0.0
 10
4.368434611866279
 20
6.472085947612463
 30
0.0
 10
4.369629056280549
 20
6.472167892054838
 30
0.0
 10
4.370822111805966
 20
6.472330392050733
 30
0.0
 10
4.372247111769967
 20
6.473090114253763
 30
0.0
 10
4.373698500622191
 20
6.473822058679716
 30
0.0
 10
4.375284611693234
 20
6.474283169779179
 30
0.0
 10
4.391574889059484
 20
6.479126225212389
 30
0.0
 10
4.409722222222222
 20
6.466416666666671
 30
0.0
 10
4.415798499558655
 20
6.44592205938453
 30
0.0
 10
4.421875
 20
6.425429004346673
 30
0.0
 10
4.413573499614864
 20
6.404892893754347
 30
0.0
 10
4.397270722248928
 20
6.400079004987067
 30
0.0
  0
ENDBLK
  5
23A
330
237
100
AcDbEntity
  8
0
100
AcDbBlockEnd
  0
BLOCK
  5
23F
330
23D
100
AcDbEntity
  8
0
100
AcDbBlockBegin
  2
block 10
 70
     0
 10
0.0
 20
0.0
 30
0.0
  3
block 10
  1

  0
SPLINE
  5
241
330
23D
100
AcDbEntity
  8
TSP
 62
   250
420
  2301728
370
    25
100
AcDbSpline
210
0.0
220
0.0
230
1.0
 70
    11
 71
     3
 72
    17
 73
    13
 74
     0
 42
0.0000000001
 43
0.0000000001
 12
1.0
 22
0.0
 32
0.0
 13
1.0
 23
0.0
 33
0.0
 40
0.0
 40
0.0
 40
0.0
 40
0.0
 40
1.0
 40
1.0
 40
1.0
 40
2.0
 40
2.0
 40
2.0
 40
3.0
 40
3.0
 40
3.0
 40
4.0
 40
4.0
 40
4.0
 40
4.0
 10
4.431844332486636
 20
4.54812210732699
 30
0.0
 10
4.437920721222023
 20
4.568616551253702
 30
0.0
 10
4.429619332542845
 20
4.589165161845711
 30
0.0
 10
4.41331655517691
 20
4.593980439501845
 30
0.0
 10
4.397026277810659
 20
4.598809606046516
 30
0.0
 10
4.378879056046874
 20
4.586113773033907
 30
0.0
 10
4.372802667311488
 20
4.565619329107196
 30
0.0
 10
4.366726278576102
 20
4.545111111111106
 30
0.0
 10
4.375027777777783
 20
4.524590163477013
 30
0.0
 10
4.391330444621214
 20
4.519762385821195
 30
0.0
 10
4.407619333098611
 20
4.514919330387985
 30
0.0
 10
4.425754054862712
 20
4.527629052289133
 30
0.0
 10
4.431844332486636
 20
4.54812210732699
 30
0.0
  0
SPLINE
  5
242
330
23D
100
AcDbEntity
  8
TSP
 62
   250
420
  2301728
370
    25
100
AcDbSpline
210
0.0
220
0.0
230
1.0
 70
    11
 71
     3
 72
    29
 73
    25
 74
     0
 42
0.0000000001
 43
0.0000000001
 12
1.0
 22
0.0
 32
0.0
 13
1.0
 23
0.0
 33
0.0
 40
0.0
 40
0.0
 40
0.0
 40
0.0
 40
1.0
 40
1.0
 40
1.0
 40
2.0
 40
2.0
 40
2.0
 40
3.0
 40
3.0
 40
3.0
 40
4.0
 40
4.0
 40
4.0
 40
5.0
 40
5.0
 40
5.0
 40
6.0
 40
6.0
 40
6.0
 40
7.0
 40
7.0
 40
7.0
 40
8.0
 40
8.0
 40
8.0
 40
8.0
 10
4.391330444621214
 20
4.519762385821195
 30
0.0
 10
4.392497111258409
 20
4.519409608052329
 30
0.0
 10
4.393676277895287
 20
4.519341552498493
 30
0.0
 10
4.394870722309557
 20
4.519179052502598
 30
0.0
 10
4.396294333384705
 20
4.518419330299568
 30
0.0
 10
4.397745722236929
 20
4.517685996984761
 30
0.0
 10
4.399333333333339
 20
4.517212385885614
 30
0.0
 10
4.415622110674223
 20
4.512383219340942
 30
0.0
 10
4.433769332438007
 20
4.525079052353552
 30
0.0
 10
4.439845721173393
 20
4.545585996279947
 30
0.0
 10
4.445922109908779
 20
4.566080440206658
 30
0.0
 10
4.437622110118456
 20
4.58661516191013
 30
0.0
 10
4.421319444444432
 20
4.591444444444455
 30
0.0
 10
4.420166666666672
 20
4.591783217335129
 30
0.0
 10
4.418972222222211
 20
4.591851272888966
 30
0.0
 10
4.417779055064178
 20
4.592027777777781
 30
0.0
 10
4.416354055100176
 20
4.592773495087891
 30
0.0
 10
4.414902777777772
 20
4.593519328402382
 30
0.0
 10
4.41331655517691
 20
4.593980439501845
 30
0.0
 10
4.397026277810659
 20
4.598809606046516
 30
0.0
 10
4.378879056046874
 20
4.586113773033907
 30
0.0
 10
4.372802667311488
 20
4.565619329107196
 30
0.0
 10
4.366726278576102
 20
4.545111111111106
 30
0.0
 10
4.375027777777783
 20
4.524590163477013
 30
0.0
 10
4.391330444621214
 20
4.519762385821195
 30
0.0
  0
ENDBLK
  5
240
330
23D
100
AcDbEntity
  8
0
100
AcDbBlockEnd
  0
BLOCK
  5
245
330
243
100
AcDbEntity
  8
0
100
AcDbBlockBegin
  2
block 11
 70
     0
 10
0.0
 20
0.0
 30
0.0
  3
block 11
  1

  0
SPLINE
  5
247
330
243
100
AcDbEntity
  8
TSP
 62
   250
420
  2301728
370
    25
100
AcDbSpline
210
0.0
220
0.0
230
1.0
 70
    11
 71
     3
 72
    17
 73
    13
 74
     0
 42
0.0000000001
 43
0.0000000001
 12
1.0
 22
0.0
 32
0.0
 13
1.0
 23
0.0
 33
0.0
 40
0.0
 40
0.0
 40
0.0
 40
0.0
 40
1.0
 40
1.0
 40
1.0
 40
2.0
 40
2.0
 40
2.0
 40
3.0
 40
3.0
 40
3.0
 40
4.0
 40
4.0
 40
4.0
 40
4.0
 10
4.468410998229552
 20
4.714788769783303
 30
0.0
 10
4.474487386964938
 20
4.735283213710014
 30
0.0
 10
4.46618599828576
 20
4.755817935413486
 30
0.0
 10
4.449883220919824
 20
4.760647101958157
 30
0.0
 10
4.433594332442428
 20
4.765476268502829
 30
0.0
 10
4.415445721789789
 20
4.752766546601682
 30
0.0
 10
4.409369333054403
 20
4.73227210267497
 30
0.0
 10
4.403292944319016
 20
4.711777777777772
 30
0.0
 10
4.411594332998194
 20
4.691242937044787
 30
0.0
 10
4.42789711036413
 20
4.68641515938897
 30
0.0
 10
4.444185998841527
 20
4.681585992844298
 30
0.0
 10
4.462320720605627
 20
4.694281825856907
 30
0.0
 10
4.468410998229552
 20
4.714788769783303
 30
0.0
  0
SPLINE
  5
248
330
243
100
AcDbEntity
  8
TSP
 62
   250
420
  2301728
370
    25
100
AcDbSpline
210
0.0
220
0.0
230
1.0
 70
    11
 71
     3
 72
    29
 73
    25
 74
     0
 42
0.0000000001
 43
0.0000000001
 12
1.0
 22
0.0
 32
0.0
 13
1.0
 23
0.0
 33
0.0
 40
0.0
 40
0.0
 40
0.0
 40
0.0
 40
1.0
 40
1.0
 40
1.0
 40
2.0
 40
2.0
 40
2.0
 40
3.0
 40
3.0
 40
3.0
 40
4.0
 40
4.0
 40
4.0
 40
5.0
 40
5.0
 40
5.0
 40
6.0
 40
6.0
 40
6.0
 40
7.0
 40
7.0
 40
7.0
 40
8.0
 40
8.0
 40
8.0
 40
8.0
 10
4.42789711036413
 20
4.68641515938897
 30
0.0
 10
4.429063777001324
 20
4.686076270508642
 30
0.0
 10
4.430242943638202
 20
4.686008214954805
 30
0.0
 10
4.431437388052473
 20
4.685831826070372
 30
0.0
 10
4.432861111111101
 20
4.685085992755881
 30
0.0
 10
4.434312387979844
 20
4.684340159441389
 30
0.0
 10
4.43589988793974
 20
4.683879048341926
 30
0.0
 10
4.452188776417137
 20
4.679035992908717
 30
0.0
 10
4.470337387069776
 20
4.691745714809864
 30
0.0
 10
4.476413775805162
 20
4.712240158736575
 30
0.0
 10
4.482490164540549
 20
4.732733213774432
 30
0.0
 10
4.474188775861371
 20
4.753281824366442
 30
0.0
 10
4.457885998495436
 20
4.758097222222229
 30
0.0
 10
4.456733220746779
 20
4.758449879791442
 30
0.0
 10
4.455538776332509
 20
4.75850404645674
 30
0.0
 10
4.454345720807092
 20
4.758680555555555
 30
0.0
 10
4.452922109731944
 20
4.759440157544203
 30
0.0
 10
4.451470720879721
 20
4.760172101970157
 30
0.0
 10
4.449883220919824
 20
4.760647101958157
 30
0.0
 10
4.433594332442428
 20
4.765476268502829
 30
0.0
 10
4.415445721789789
 20
4.752766546601682
 30
0.0
 10
4.409369333054403
 20
4.73227210267497
 30
0.0
 10
4.403292944319016
 20
4.711777777777772
 30
0.0
 10
4.411594332998194
 20
4.691242937044787
 30
0.0
 10
4.42789711036413
 20
4.68641515938897
 30
0.0
  0
ENDBLK
  5
246
330
243
100
AcDbEntity
  8
0
100
AcDbBlockEnd
  0
BLOCK
  5
24B
330
249
100
AcDbEntity
  8
0
100
AcDbBlockBegin
  2
block 12
 70
     0
 10
0.0
 20
0.0
 30
0.0
  3
block 12
  1

  0
SPLINE
  5
24D
330
249
100
AcDbEntity
  8
TSP
 62
   250
420
  2301728
370
    25
100
AcDbSpline
210
0.0
220
0.0
230
1.0
 70
    11
 71
     3
 72
    17
 73
    13
 74
     0
 42
0.0000000001
 43
0.0000000001
 12
1.0
 22
0.0
 32
0.0
 13
1.0
 23
0.0
 33
0.0
 40
0.0
 40
0.0
 40
0.0
 40
0.0
 40
1.0
 40
1.0
 40
1.0
 40
2.0
 40
2.0
 40
2.0
 40
3.0
 40
3.0
 40
3.0
 40
4.0
 40
4.0
 40
4.0
 40
4.0
 10
4.524427663481118
 20
4.839788766625538
 30
0.0
 10
4.530504052216505
 20
4.860283210552248
 30
0.0
 10
4.522202663537326
 20
4.880831821144258
 30
0.0
 10
4.505899886171392
 20
4.885647098800391
 30
0.0
 10
4.489611111111117
 20
4.890476265345064
 30
0.0
 10
4.471462387041356
 20
4.877780432332454
 30
0.0
 10
4.46538599830597
 20
4.857285988405743
 30
0.0
 10
4.459309609570583
 20
4.836777777777772
 30
0.0
 10
4.467611111111106
 20
4.81625682277556
 30
0.0
 10
4.483913775615696
 20
4.811429045119742
 30
0.0
 10
4.500202664093093
 20
4.806585989686533
 30
0.0
 10
4.518337385857194
 20
4.81929571158768
 30
0.0
 10
4.524427663481118
 20
4.839788766625538
 30
0.0
  0
SPLINE
  5
24E
330
249
100
AcDbEntity
  8
TSP
 62
   250
420
  2301728
370
    25
100
AcDbSpline
210
0.0
220
0.0
230
1.0
 70
    11
 71
     3
 72
    29
 73
    25
 74
     0
 42
0.0000000001
 43
0.0000000001
 12
1.0
 22
0.0
 32
0.0
 13
1.0
 23
0.0
 33
0.0
 40
0.0
 40
0.0
 40
0.0
 40
0.0
 40
1.0
 40
1.0
 40
1.0
 40
2.0
 40
2.0
 40
2.0
 40
3.0
 40
3.0
 40
3.0
 40
4.0
 40
4.0
 40
4.0
 40
5.0
 40
5.0
 40
5.0
 40
6.0
 40
6.0
 40
6.0
 40
7.0
 40
7.0
 40
7.0
 40
8.0
 40
8.0
 40
8.0
 40
8.0
 10
4.483913775615696
 20
4.811429045119742
 30
0.0
 10
4.48508044225289
 20
4.811076267350876
 30
0.0
 10
4.486259608889768
 20
4.81100821179704
 30
0.0
 10
4.487454053304039
 20
4.810845711801145
 30
0.0
 10
4.488877664379187
 20
4.810085989598115
 30
0.0
 10
4.49032905323141
 20
4.809352656283307
 30
0.0
 10
4.491916666666662
 20
4.808879045184161
 30
0.0
 10
4.508205441668704
 20
4.804049878639489
 30
0.0
 10
4.526354052321342
 20
4.816745711652098
 30
0.0
 10
4.532430555555544
 20
4.837252655578494
 30
0.0
 10
4.538506829792115
 20
4.857747099505205
 30
0.0
 10
4.530205441112937
 20
4.878281821208676
 30
0.0
 10
4.513902777777781
 20
4.883111111111121
 30
0.0
 10
4.512749999999995
 20
4.883449876633676
 30
0.0
 10
4.51155555555556
 20
4.883517932187512
 30
0.0
 10
4.510362386058659
 20
4.883694444444447
 30
0.0
 10
4.508938774983512
 20
4.884440154386438
 30
0.0
 10
4.507487386131288
 20
4.88518598770093
 30
0.0
 10
4.505899886171392
 20
4.885647098800391
 30
0.0
 10
4.489611111111117
 20
4.890476265345064
 30
0.0
 10
4.471462387041356
 20
4.877780432332454
 30
0.0
 10
4.46538599830597
 20
4.857285988405743
 30
0.0
 10
4.459309609570583
 20
4.836777777777772
 30
0.0
 10
4.467611111111106
 20
4.81625682277556
 30
0.0
 10
4.483913775615696
 20
4.811429045119742
 30
0.0
  0
ENDBLK
  5
24C
330
249
100
AcDbEntity
  8
0
100
AcDbBlockEnd
  0
BLOCK
  5
251
330
24F
100
AcDbEntity
  8
0
100
AcDbBlockBegin
  2
block 13
 70
     0
 10
0.0
 20
0.0
 30
0.0
  3
block 13
  1

  0
SPLINE
  5
253
330
24F
100
AcDbEntity
  8
TSP
 62
   250
420
  2301728
370
    25
100
AcDbSpline
210
0.0
220
0.0
230
1.0
 70
    11
 71
     3
 72
    17
 73
    13
 74
     0
 42
0.0000000001
 43
0.0000000001
 12
1.0
 22
0.0
 32
0.0
 13
1.0
 23
0.0
 33
0.0
 40
0.0
 40
0.0
 40
0.0
 40
0.0
 40
1.0
 40
1.0
 40
1.0
 40
2.0
 40
2.0
 40
2.0
 40
3.0
 40
3.0
 40
3.0
 40
4.0
 40
4.0
 40
4.0
 40
4.0
 10
4.584594328627847
 20
4.978677652005798
 30
0.0
 10
4.590670717363233
 20
4.999172095932509
 30
0.0
 10
4.582370717572909
 20
5.01970681763598
 30
0.0
 10
4.56606655131812
 20
5.024535984180653
 30
0.0
 10
4.549777777777788
 20
5.029365150725324
 30
0.0
 10
4.531629052188085
 20
5.016655428824176
 30
0.0
 10
4.525552663452698
 20
4.996160984897466
 30
0.0
 10
4.519476274717312
 20
4.975666666666661
 30
0.0
 10
4.527777777777778
 20
4.955131819267282
 30
0.0
 10
4.544080440762425
 20
4.950304041611465
 30
0.0
 10
4.560370718128675
 20
4.945474875066793
 30
0.0
 10
4.578504051003923
 20
4.958170708079402
 30
0.0
 10
4.584594328627847
 20
4.978677652005798
 30
0.0
  0
SPLINE
  5
254
330
24F
100
AcDbEntity
  8
TSP
 62
   250
420
  2301728
370
    25
100
AcDbSpline
210
0.0
220
0.0
230
1.0
 70
    11
 71
     3
 72
    29
 73
    25
 74
     0
 42
0.0000000001
 43
0.0000000001
 12
1.0
 22
0.0
 32
0.0
 13
1.0
 23
0.0
 33
0.0
 40
0.0
 40
0.0
 40
0.0
 40
0.0
 40
1.0
 40
1.0
 40
1.0
 40
2.0
 40
2.0
 40
2.0
 40
3.0
 40
3.0
 40
3.0
 40
4.0
 40
4.0
 40
4.0
 40
5.0
 40
5.0
 40
5.0
 40
6.0
 40
6.0
 40
6.0
 40
7.0
 40
7.0
 40
7.0
 40
8.0
 40
8.0
 40
8.0
 40
8.0
 10
4.544080440762425
 20
4.950304041611465
 30
0.0
 10
4.545247107399619
 20
4.949965152731137
 30
0.0
 10
4.546427662925351
 20
4.9498970971773
 30
0.0
 10
4.547620718450768
 20
4.949720708292867
 30
0.0
 10
4.549045718414769
 20
4.948974874978376
 30
0.0
 10
4.550495718378139
 20
4.948229041663883
 30
0.0
 10
4.552083333333333
 20
4.947767930564421
 30
0.0
 10
4.568373495704287
 20
4.942924875131212
 30
0.0
 10
4.586520717468071
 20
4.955634597032359
 30
0.0
 10
4.592597222222214
 20
4.97612904095907
 30
0.0
 10
4.598673494938844
 20
4.996622095996927
 30
0.0
 10
4.590372106259665
 20
5.017170706588937
 30
0.0
 10
4.574069444444452
 20
5.021986111111119
 30
0.0
 10
4.572916666666666
 20
5.022338762013937
 30
0.0
 10
4.571723495619659
 20
5.022392928679235
 30
0.0
 10
4.570529051205388
 20
5.022569444444444
 30
0.0
 10
4.56910544013024
 20
5.023329039766698
 30
0.0
 10
4.567654051278017
 20
5.024060984192652
 30
0.0
 10
4.56606655131812
 20
5.024535984180653
 30
0.0
 10
4.549777777777788
 20
5.029365150725324
 30
0.0
 10
4.531629052188085
 20
5.016655428824176
 30
0.0
 10
4.525552663452698
 20
4.996160984897466
 30
0.0
 10
4.519476274717312
 20
4.975666666666661
 30
0.0
 10
4.527777777777778
 20
4.955131819267282
 30
0.0
 10
4.544080440762425
 20
4.950304041611465
 30
0.0
  0
ENDBLK
  5
252
330
24F
100
AcDbEntity
  8
0
100
AcDbBlockEnd
  0
BLOCK
  5
257
330
255
100
AcDbEntity
  8
0
100
AcDbBlockBegin
  2
block 14
 70
     0
 10
0.0
 20
0.0
 30
0.0
  3
block 14
  1

  0
SPLINE
  5
259
330
255
100
AcDbEntity
  8
TSP
 62
   250
420
  2301728
370
    25
100
AcDbSpline
210
0.0
220
0.0
230
1.0
 70
    11
 71
     3
 72
    17
 73
    13
 74
     0
 42
0.0000000001
 43
0.0000000001
 12
1.0
 22
0.0
 32
0.0
 13
1.0
 23
0.0
 33
0.0
 40
0.0
 40
0.0
 40
0.0
 40
0.0
 40
1.0
 40
1.0
 40
1.0
 40
2.0
 40
2.0
 40
2.0
 40
3.0
 40
3.0
 40
3.0
 40
4.0
 40
4.0
 40
4.0
 40
4.0
 10
4.383708333333339
 20
4.853677655163564
 30
0.0
 10
4.389770722438394
 20
4.874172099090274
 30
0.0
 10
4.381483222647754
 20
4.894720709682284
 30
0.0
 10
4.365166666666659
 20
4.899535987338418
 30
0.0
 10
4.348890167915568
 20
4.90436515388309
 30
0.0
 10
4.330729057263246
 20
4.89166932087048
 30
0.0
 10
4.324652777777778
 20
4.871174876943769
 30
0.0
 10
4.318576279792473
 20
4.850666666666661
 30
0.0
 10
4.326890168471335
 20
4.830145711313586
 30
0.0
 10
4.343180555555565
 20
4.825317933657768
 30
0.0
 10
4.359483223203521
 20
4.820474878224559
 30
0.0
 10
4.377604056079083
 20
4.833184600125706
 30
0.0
 10
4.383708333333339
 20
4.853677655163564
 30
0.0
  0
SPLINE
  5
25A
330
255
100
AcDbEntity
  8
TSP
 62
   250
420
  2301728
370
    25
100
AcDbSpline
210
0.0
220
0.0
230
1.0
 70
    11
 71
     3
 72
    29
 73
    25
 74
     0
 42
0.0000000001
 43
0.0000000001
 12
1.0
 22
0.0
 32
0.0
 13
1.0
 23
0.0
 33
0.0
 40
0.0
 40
0.0
 40
0.0
 40
0.0
 40
1.0
 40
1.0
 40
1.0
 40
2.0
 40
2.0
 40
2.0
 40
3.0
 40
3.0
 40
3.0
 40
4.0
 40
4.0
 40
4.0
 40
5.0
 40
5.0
 40
5.0
 40
6.0
 40
6.0
 40
6.0
 40
7.0
 40
7.0
 40
7.0
 40
8.0
 40
8.0
 40
8.0
 40
8.0
 10
4.343180555555565
 20
4.825317933657768
 30
0.0
 10
4.344347222222217
 20
4.824965155888902
 30
0.0
 10
4.345540168000197
 20
4.824897100335066
 30
0.0
 10
4.346733223525613
 20
4.824734600339171
 30
0.0
 10
4.348144334601076
 20
4.823974878136141
 30
0.0
 10
4.3495957234533
 20
4.823241544821333
 30
0.0
 10
4.35119572341288
 20
4.822767933722186
 30
0.0
 10
4.367472222222229
 20
4.817938767177515
 30
0.0
 10
4.385633222542916
 20
4.830634600190124
 30
0.0
 10
4.391709611278303
 20
4.85114154411652
 30
0.0
 10
4.397786000013689
 20
4.871635988043232
 30
0.0
 10
4.389472222222214
 20
4.892170709746702
 30
0.0
 10
4.373181833968576
 20
4.89700000000001
 30
0.0
 10
4.37202905621992
 20
4.897338765171702
 30
0.0
 10
4.370836000694504
 20
4.897406820725538
 30
0.0
 10
4.369629056280549
 20
4.897583333333336
 30
0.0
 10
4.368217945205085
 20
4.898329042924463
 30
0.0
 10
4.366766556352862
 20
4.899074876238956
 30
0.0
 10
4.365166666666659
 20
4.899535987338418
 30
0.0
 10
4.348890167915568
 20
4.90436515388309
 30
0.0
 10
4.330729057263246
 20
4.89166932087048
 30
0.0
 10
4.324652777777778
 20
4.871174876943769
 30
0.0
 10
4.318576279792473
 20
4.850666666666661
 30
0.0
 10
4.326890168471335
 20
4.830145711313586
 30
0.0
 10
4.343180555555565
 20
4.825317933657768
 30
0.0
  0
ENDBLK
  5
258
330
255
100
AcDbEntity
  8
0
100
AcDbBlockEnd
  0
BLOCK
  5
25D
330
25B
100
AcDbEntity
  8
0
100
AcDbBlockBegin
  2
block 15
 70
     0
 10
0.0
 20
0.0
 30
0.0
  3
block 15
  1

  0
SPLINE
  5
25F
330
25B
100
AcDbEntity
  8
TSP
 62
   250
420
  2301728
370
    25
100
AcDbSpline
210
0.0
220
0.0
230
1.0
 70
    11
 71
     3
 72
    17
 73
    13
 74
     0
 42
0.0000000001
 43
0.0000000001
 12
1.0
 22
0.0
 32
0.0
 13
1.0
 23
0.0
 33
0.0
 40
0.0
 40
0.0
 40
0.0
 40
0.0
 40
1.0
 40
1.0
 40
1.0
 40
2.0
 40
2.0
 40
2.0
 40
3.0
 40
3.0
 40
3.0
 40
4.0
 40
4.0
 40
4.0
 40
4.0
 10
4.328152777777783
 20
4.723469325119569
 30
0.0
 10
4.33421516828629
 20
4.743963769046281
 30
0.0
 10
4.32592766849565
 20
4.76451237963829
 30
0.0
 10
4.309611111111104
 20
4.769327657294424
 30
0.0
 10
4.293334613763465
 20
4.774156823839095
 30
0.0
 10
4.275173503111142
 20
4.761460990826486
 30
0.0
 10
4.269097222222222
 20
4.740966546899775
 30
0.0
 10
4.263020725640368
 20
4.720458333333327
 30
0.0
 10
4.271334614319231
 20
4.699937381269592
 30
0.0
 10
4.28762500000001
 20
4.695109603613774
 30
0.0
 10
4.303927669051417
 20
4.690266548180564
 30
0.0
 10
4.32204850192698
 20
4.702976270081712
 30
0.0
 10
4.328152777777783
 20
4.723469325119569
 30
0.0
  0
SPLINE
  5
260
330
25B
100
AcDbEntity
  8
TSP
 62
   250
420
  2301728
370
    25
100
AcDbSpline
210
0.0
220
0.0
230
1.0
 70
    11
 71
     3
 72
    29
 73
    25
 74
     0
 42
0.0000000001
 43
0.0000000001
 12
1.0
 22
0.0
 32
0.0
 13
1.0
 23
0.0
 33
0.0
 40
0.0
 40
0.0
 40
0.0
 40
0.0
 40
1.0
 40
1.0
 40
1.0
 40
2.0
 40
2.0
 40
2.0
 40
3.0
 40
3.0
 40
3.0
 40
4.0
 40
4.0
 40
4.0
 40
5.0
 40
5.0
 40
5.0
 40
6.0
 40
6.0
 40
6.0
 40
7.0
 40
7.0
 40
7.0
 40
8.0
 40
8.0
 40
8.0
 40
8.0
 10
4.28762500000001
 20
4.695109603613774
 30
0.0
 10
4.288791666666662
 20
4.694756825844908
 30
0.0
 10
4.289984613848093
 20
4.694688770291072
 30
0.0
 10
4.291177669373509
 20
4.694526270295177
 30
0.0
 10
4.292588780448972
 20
4.693766548092147
 30
0.0
 10
4.294040169301196
 20
4.693033214777339
 30
0.0
 10
4.295640169260777
 20
4.692559603678192
 30
0.0
 10
4.311916666666674
 20
4.687730437133521
 30
0.0
 10
4.330077668390812
 20
4.700426270146131
 30
0.0
 10
4.336154057126199
 20
4.720933214072526
 30
0.0
 10
4.342230445861585
 20
4.741427657999237
 30
0.0
 10
4.333916666666659
 20
4.761962379702709
 30
0.0
 10
4.317626279816472
 20
4.766791666666677
 30
0.0
 10
4.316473502067816
 20
4.767130435127708
 30
0.0
 10
4.315280446542399
 20
4.767198490681545
 30
0.0
 10
4.314073502128445
 20
4.767375000000002
 30
0.0
 10
4.312662391052982
 20
4.768120712880469
 30
0.0
 10
4.311211002200758
 20
4.768866546194961
 30
0.0
 10
4.309611111111104
 20
4.769327657294424
 30
0.0
 10
4.293334613763465
 20
4.774156823839095
 30
0.0
 10
4.275173503111142
 20
4.761460990826486
 30
0.0
 10
4.269097222222222
 20
4.740966546899775
 30
0.0
 10
4.263020725640368
 20
4.720458333333327
 30
0.0
 10
4.271334614319231
 20
4.699937381269592
 30
0.0
 10
4.28762500000001
 20
4.695109603613774
 30
0.0
  0
ENDBLK
  5
25E
330
25B
100
AcDbEntity
  8
0
100
AcDbBlockEnd
  0
BLOCK
  5
263
330
261
100
AcDbEntity
  8
0
100
AcDbBlockBegin
  2
block 16
 70
     0
 10
0.0
 20
0.0
 30
0.0
  3
block 16
  1

  0
SPLINE
  5
265
330
261
100
AcDbEntity
  8
TSP
 62
   250
420
  2301728
370
    25
100
AcDbSpline
210
0.0
220
0.0
230
1.0
 70
    11
 71
     3
 72
    17
 73
    13
 74
     0
 42
0.0000000001
 43
0.0000000001
 12
1.0
 22
0.0
 32
0.0
 13
1.0
 23
0.0
 33
0.0
 40
0.0
 40
0.0
 40
0.0
 40
0.0
 40
1.0
 40
1.0
 40
1.0
 40
2.0
 40
2.0
 40
2.0
 40
3.0
 40
3.0
 40
3.0
 40
4.0
 40
4.0
 40
4.0
 40
4.0
 10
4.246555555555561
 20
4.502983219578406
 30
0.0
 10
4.252617948125387
 20
4.523477663505117
 30
0.0
 10
4.244330448334747
 20
4.544026274097127
 30
0.0
 10
4.228013888888894
 20
4.54884155175326
 30
0.0
 10
4.211737393602561
 20
4.553670718297932
 30
0.0
 10
4.193576282950239
 20
4.540974885285323
 30
0.0
 10
4.1875
 20
4.520480441358611
 30
0.0
 10
4.181423505479466
 20
4.499972222222216
 30
0.0
 10
4.189737394158328
 20
4.479451275728429
 30
0.0
 10
4.206027777777775
 20
4.474623498072611
 30
0.0
 10
4.222330448890514
 20
4.469780442639401
 30
0.0
 10
4.240451281766089
 20
4.482490164540549
 30
0.0
 10
4.246555555555561
 20
4.502983219578406
 30
0.0
  0
SPLINE
  5
266
330
261
100
AcDbEntity
  8
TSP
 62
   250
420
  2301728
370
    25
100
AcDbSpline
210
0.0
220
0.0
230
1.0
 70
    11
 71
     3
 72
    29
 73
    25
 74
     0
 42
0.0000000001
 43
0.0000000001
 12
1.0
 22
0.0
 32
0.0
 13
1.0
 23
0.0
 33
0.0
 40
0.0
 40
0.0
 40
0.0
 40
0.0
 40
1.0
 40
1.0
 40
1.0
 40
2.0
 40
2.0
 40
2.0
 40
3.0
 40
3.0
 40
3.0
 40
4.0
 40
4.0
 40
4.0
 40
5.0
 40
5.0
 40
5.0
 40
6.0
 40
6.0
 40
6.0
 40
7.0
 40
7.0
 40
7.0
 40
8.0
 40
8.0
 40
8.0
 40
8.0
 10
4.206027777777775
 20
4.474623498072611
 30
0.0
 10
4.20719444444444
 20
4.474270720303744
 30
0.0
 10
4.20838739368719
 20
4.474202664749908
 30
0.0
 10
4.209580449212606
 20
4.474040164754014
 30
0.0
 10
4.210991560288069
 20
4.473280442550983
 30
0.0
 10
4.212442949140293
 20
4.472547109236175
 30
0.0
 10
4.214042949099873
 20
4.472073498137029
 30
0.0
 10
4.230319444444439
 20
4.467244331592357
 30
0.0
 10
4.248480448229921
 20
4.479940164604967
 30
0.0
 10
4.254556836965295
 20
4.500447108531362
 30
0.0
 10
4.260633225700682
 20
4.520941552458074
 30
0.0
 10
4.252319444444449
 20
4.541476274161545
 30
0.0
 10
4.236029059655569
 20
4.546305555555565
 30
0.0
 10
4.234876281906913
 20
4.546644329586544
 30
0.0
 10
4.233683226381496
 20
4.546712385140381
 30
0.0
 10
4.232476281967542
 20
4.546888888888891
 30
0.0
 10
4.231065170892078
 20
4.547634607339305
 30
0.0
 10
4.229613782039855
 20
4.548380440653798
 30
0.0
 10
4.228013888888894
 20
4.54884155175326
 30
0.0
 10
4.211737393602561
 20
4.553670718297932
 30
0.0
 10
4.193576282950239
 20
4.540974885285323
 30
0.0
 10
4.1875
 20
4.520480441358611
 30
0.0
 10
4.181423505479466
 20
4.499972222222216
 30
0.0
 10
4.189737394158328
 20
4.479451275728429
 30
0.0
 10
4.206027777777775
 20
4.474623498072611
 30
0.0
  0
ENDBLK
  5
264
330
261
100
AcDbEntity
  8
0
100
AcDbBlockEnd
  0
BLOCK
  5
269
330
267
100
AcDbEntity
  8
0
100
AcDbBlockBegin
  2
block 17
 70
     0
 10
0.0
 20
0.0
 30
0.0
  3
block 17
  1

  0
SPLINE
  5
26B
330
267
100
AcDbEntity
  8
TSP
 62
   250
420
  2301728
370
    25
100
AcDbSpline
210
0.0
220
0.0
230
1.0
 70
    11
 71
     3
 72
    17
 73
    13
 74
     0
 42
0.0000000001
 43
0.0000000001
 12
1.0
 22
0.0
 32
0.0
 13
1.0
 23
0.0
 33
0.0
 40
0.0
 40
0.0
 40
0.0
 40
0.0
 40
1.0
 40
1.0
 40
1.0
 40
2.0
 40
2.0
 40
2.0
 40
3.0
 40
3.0
 40
3.0
 40
4.0
 40
4.0
 40
4.0
 40
4.0
 10
4.437866554556725
 20
4.986545707362589
 30
0.0
 10
4.443942943292111
 20
5.007038762400447
 30
0.0
 10
4.435641554612933
 20
5.027587372992457
 30
0.0
 10
4.419338777246998
 20
5.032402777777785
 30
0.0
 10
4.403048499880748
 20
5.037231817193262
 30
0.0
 10
4.384901278116963
 20
5.024535984180653
 30
0.0
 10
4.378824889381576
 20
5.004041666666656
 30
0.0
 10
4.37274850064619
 20
4.983534596327545
 30
0.0
 10
4.381048500436514
 20
4.963012374623759
 30
0.0
 10
4.397352666691303
 20
4.95818459696794
 30
0.0
 10
4.4136415551687
 20
4.953341541534731
 30
0.0
 10
4.4317762769328
 20
4.966051263435879
 30
0.0
 10
4.437866554556725
 20
4.986545707362589
 30
0.0
  0
SPLINE
  5
26C
330
267
100
AcDbEntity
  8
TSP
 62
   250
420
  2301728
370
    25
100
AcDbSpline
210
0.0
220
0.0
230
1.0
 70
    11
 71
     3
 72
    29
 73
    25
 74
     0
 42
0.0000000001
 43
0.0000000001
 12
1.0
 22
0.0
 32
0.0
 13
1.0
 23
0.0
 33
0.0
 40
0.0
 40
0.0
 40
0.0
 40
0.0
 40
1.0
 40
1.0
 40
1.0
 40
2.0
 40
2.0
 40
2.0
 40
3.0
 40
3.0
 40
3.0
 40
4.0
 40
4.0
 40
4.0
 40
5.0
 40
5.0
 40
5.0
 40
6.0
 40
6.0
 40
6.0
 40
7.0
 40
7.0
 40
7.0
 40
8.0
 40
8.0
 40
8.0
 40
8.0
 10
4.397352666691303
 20
4.95818459696794
 30
0.0
 10
4.398519333328497
 20
4.957831819199074
 30
0.0
 10
4.399698499965376
 20
4.957763888888899
 30
0.0
 10
4.400892944379645
 20
4.957601263649344
 30
0.0
 10
4.402316555454793
 20
4.956841541446313
 30
0.0
 10
4.403767944307017
 20
4.956108208131505
 30
0.0
 10
4.405354055378059
 20
4.955634597032359
 30
0.0
 10
4.42164433274431
 20
4.950805555555562
 30
0.0
 10
4.439791666666679
 20
4.963501263500297
 30
0.0
 10
4.445867943243481
 20
4.984008207426692
 30
0.0
 10
4.451944444444456
 20
5.004502651353404
 30
0.0
 10
4.443644332188543
 20
5.025037373056875
 30
0.0
 10
4.427341554822608
 20
5.029866539601547
 30
0.0
 10
4.426187388185099
 20
5.030205428481874
 30
0.0
 10
4.424994332659682
 20
5.030273484035711
 30
0.0
 10
4.423801277134266
 20
5.030449872920144
 30
0.0
 10
4.422376277170264
 20
5.031195706234636
 30
0.0
 10
4.420924888318041
 20
5.031941539549128
 30
0.0
 10
4.419338777246998
 20
5.032402777777785
 30
0.0
 10
4.403048499880748
 20
5.037231817193262
 30
0.0
 10
4.384901278116963
 20
5.024535984180653
 30
0.0
 10
4.378824889381576
 20
5.004041666666656
 30
0.0
 10
4.37274850064619
 20
4.983534596327545
 30
0.0
 10
4.381048500436514
 20
4.963012374623759
 30
0.0
 10
4.397352666691303
 20
4.95818459696794
 30
0.0
  0
ENDBLK
  5
26A
330
267
100
AcDbEntity
  8
0
100
AcDbBlockEnd
  0
BLOCK
  5
26F
330
26D
100
AcDbEntity
  8
0
100
AcDbBlockBegin
  2
block 18
 70
     0
 10
0.0
 20
0.0
 30
0.0
  3
block 18
  1

  0
SPLINE
  5
271
330
26D
100
AcDbEntity
  8
TSP
 62
   250
420
  2301728
370
    25
100
AcDbSpline
210
0.0
220
0.0
230
1.0
 70
    11
 71
     3
 72
    17
 73
    13
 74
     0
 42
0.0000000001
 43
0.0000000001
 12
1.0
 22
0.0
 32
0.0
 13
1.0
 23
0.0
 33
0.0
 40
0.0
 40
0.0
 40
0.0
 40
0.0
 40
1.0
 40
1.0
 40
1.0
 40
2.0
 40
2.0
 40
2.0
 40
3.0
 40
3.0
 40
3.0
 40
4.0
 40
4.0
 40
4.0
 40
4.0
 10
4.515191552603331
 20
5.175916666666656
 30
0.0
 10
4.521267941338717
 20
5.196410979838725
 30
0.0
 10
4.512966552659539
 20
5.216945701542196
 30
0.0
 10
4.496663775293604
 20
5.221774868086868
 30
0.0
 10
4.480373497927354
 20
5.226602645742686
 30
0.0
 10
4.462212387275031
 20
5.213894312730392
 30
0.0
 10
4.456135998539644
 20
5.193399868803681
 30
0.0
 10
4.450059609804257
 20
5.172905424876969
 30
0.0
 10
4.458361111111117
 20
5.152370703173498
 30
0.0
 10
4.474663775849371
 20
5.147541666666661
 30
0.0
 10
4.490966553215306
 20
5.142713758973009
 30
0.0
 10
4.509101274979407
 20
5.155409591985618
 30
0.0
 10
4.515191552603331
 20
5.175916666666656
 30
0.0
  0
SPLINE
  5
272
330
26D
100
AcDbEntity
  8
TSP
 62
   250
420
  2301728
370
    25
100
AcDbSpline
210
0.0
220
0.0
230
1.0
 70
    11
 71
     3
 72
    29
 73
    25
 74
     0
 42
0.0000000001
 43
0.0000000001
 12
1.0
 22
0.0
 32
0.0
 13
1.0
 23
0.0
 33
0.0
 40
0.0
 40
0.0
 40
0.0
 40
0.0
 40
1.0
 40
1.0
 40
1.0
 40
2.0
 40
2.0
 40
2.0
 40
3.0
 40
3.0
 40
3.0
 40
4.0
 40
4.0
 40
4.0
 40
5.0
 40
5.0
 40
5.0
 40
6.0
 40
6.0
 40
6.0
 40
7.0
 40
7.0
 40
7.0
 40
8.0
 40
8.0
 40
8.0
 40
8.0
 10
4.474663775849371
 20
5.147541666666661
 30
0.0
 10
4.475830442486565
 20
5.147202647748498
 30
0.0
 10
4.477023498011982
 20
5.147135981083516
 30
0.0
 10
4.478216553537398
 20
5.146959592199083
 30
0.0
 10
4.479641553501399
 20
5.146212369995737
 30
0.0
 10
4.481079053465085
 20
5.145466536681245
 30
0.0
 10
4.482666666666672
 20
5.145005425581783
 30
0.0
 10
4.498969330790916
 20
5.140163759037427
 30
0.0
 10
4.517116552554701
 20
5.15287209204972
 30
0.0
 10
4.523192941290088
 20
5.173366535976432
 30
0.0
 10
4.529269330025474
 20
5.193861111111119
 30
0.0
 10
4.520969330235149
 20
5.214409590495152
 30
0.0
 10
4.504665163980361
 20
5.219224868151287
 30
0.0
 10
4.503512386231705
 20
5.219577645920152
 30
0.0
 10
4.502319444444437
 20
5.21963181258545
 30
0.0
 10
4.501126275180872
 20
5.219808201469883
 30
0.0
 10
4.499701275216871
 20
5.220567923672913
 30
0.0
 10
4.498249999999997
 20
5.221299868098868
 30
0.0
 10
4.496663775293604
 20
5.221774868086868
 30
0.0
 10
4.480373497927354
 20
5.226602645742686
 30
0.0
 10
4.462212387275031
 20
5.213894312730392
 30
0.0
 10
4.456135998539644
 20
5.193399868803681
 30
0.0
 10
4.450059609804257
 20
5.172905424876969
 30
0.0
 10
4.458361111111117
 20
5.152370703173498
 30
0.0
 10
4.474663775849371
 20
5.147541666666661
 30
0.0
  0
ENDBLK
  5
270
330
26D
100
AcDbEntity
  8
0
100
AcDbBlockEnd
  0
BLOCK
  5
275
330
273
100
AcDbEntity
  8
0
100
AcDbBlockBegin
  2
block 19
 70
     0
 10
0.0
 20
0.0
 30
0.0
  3
block 19
  1

  0
SPLINE
  5
277
330
273
100
AcDbEntity
  8
TSP
 62
   250
420
  2301728
370
    18
100
AcDbSpline
210
0.0
220
0.0
230
1.0
 70
    11
 71
     3
 72
    23
 73
    19
 74
     0
 42
0.0000000001
 43
0.0000000001
 12
1.0
 22
0.0
 32
0.0
 13
1.0
 23
0.0
 33
0.0
 40
0.0
 40
0.0
 40
0.0
 40
0.0
 40
1.0
 40
1.0
 40
1.0
 40
2.0
 40
2.0
 40
2.0
 40
3.0
 40
3.0
 40
3.0
 40
4.0
 40
4.0
 40
4.0
 40
5.0
 40
5.0
 40
5.0
 40
6.0
 40
6.0
 40
6.0
 40
6.0
 10
4.350722222222227
 20
6.003072070571862
 30
0.0
 10
4.350722222222227
 20
6.003072070571862
 30
0.0
 10
4.336480446006842
 20
6.050224847158461
 30
0.0
 10
4.336480446006842
 20
6.050224847158461
 30
0.0
 10
4.336480446006842
 20
6.050224847158461
 30
0.0
 10
4.331569444444439
 20
6.066637346743846
 30
0.0
 10
4.347250000000005
 20
6.065626235658278
 30
0.0
 10
4.347250000000005
 20
6.065626235658278
 30
0.0
 10
4.378879056046874
 20
6.059773458028354
 30
0.0
 10
4.378879056046874
 20
6.059773458028354
 30
0.0
 10
4.378879056046874
 20
6.059773458028354
 30
0.0
 10
4.390286000203155
 20
6.052408180436638
 30
0.0
 10
4.387762389155796
 20
6.042127625140791
 30
0.0
 10
4.387762389155796
 20
6.042127625140791
 30
0.0
 10
4.36697072301437
 20
5.999938737317684
 30
0.0
 10
4.36697072301437
 20
5.999938737317684
 30
0.0
 10
4.36697072301437
 20
5.999938737317684
 30
0.0
 10
4.359158223211731
 20
5.989623459800492
 30
0.0
 10
4.350722222222227
 20
6.003072070571862
 30
0.0
  0
HATCH
  5
278
330
273
100
AcDbEntity
  8
TSP
 62
   254
420
 13358815
100
AcDbHatch
 10
0.0
 20
0.0
 30
0.0
210
0.0
220
0.0
230
1.0
  2
SOLID
 70
     1
 71
     0
 91
        1
 92
        1
 93
        1
 72
     4
 94
        3
 73
     0
 74
     1
 95
       23
 96
       19
 40
0.0
 40
0.0
 40
0.0
 40
0.0
 40
1.0
 40
1.0
 40
1.0
 40
2.0
 40
2.0
 40
2.0
 40
3.0
 40
3.0
 40
3.0
 40
4.0
 40
4.0
 40
4.0
 40
5.0
 40
5.0
 40
5.0
 40
6.0
 40
6.0
 40
6.0
 40
6.0
 10
4.350722222222227
 20
6.003072070571862
 10
4.350722222222227
 20
6.003072070571862
 10
4.336480446006842
 20
6.050224847158461
 10
4.336480446006842
 20
6.050224847158461
 10
4.336480446006842
 20
6.050224847158461
 10
4.331569444444439
 20
6.066637346743846
 10
4.347250000000005
 20
6.065626235658278
 10
4.347250000000005
 20
6.065626235658278
 10
4.378879056046874
 20
6.059773458028354
 10
4.378879056046874
 20
6.059773458028354
 10
4.378879056046874
 20
6.059773458028354
 10
4.390286000203155
 20
6.052408180436638
 10
4.387762389155796
 20
6.042127625140791
 10
4.387762389155796
 20
6.042127625140791
 10
4.36697072301437
 20
5.999938737317684
 10
4.36697072301437
 20
5.999938737317684
 10
4.36697072301437
 20
5.999938737317684
 10
4.359158223211731
 20
5.989623459800492
 10
4.350722222222227
 20
6.003072070571862
 97
        0
 97
        0
 75
     2
 76
     1
 98
        0
  0
SPLINE
  5
279
330
273
100
AcDbEntity
  8
TSP
 62
   250
420
  2301728
370
    18
100
AcDbSpline
210
0.0
220
0.0
230
1.0
 70
    11
 71
     3
 72
    23
 73
    19
 74
     0
 42
0.0000000001
 43
0.0000000001
 12
1.0
 22
0.0
 32
0.0
 13
1.0
 23
0.0
 33
0.0
 40
0.0
 40
0.0
 40
0.0
 40
0.0
 40
1.0
 40
1.0
 40
1.0
 40
2.0
 40
2.0
 40
2.0
 40
3.0
 40
3.0
 40
3.0
 40
4.0
 40
4.0
 40
4.0
 40
5.0
 40
5.0
 40
5.0
 40
6.0
 40
6.0
 40
6.0
 40
6.0
 10
4.351141556747582
 20
6.010016514840875
 30
0.0
 10
4.351141556747582
 20
6.010016514840875
 30
0.0
 10
4.338256834850855
 20
6.048902777777774
 30
0.0
 10
4.338256834850855
 20
6.048902777777774
 30
0.0
 10
4.338256834850855
 20
6.048902777777774
 30
0.0
 10
4.332329057222826
 20
6.053826235956371
 30
0.0
 10
4.3464360013109
 20
6.052897069313176
 30
0.0
 10
4.3464360013109
 20
6.052897069313176
 30
0.0
 10
4.363348500883654
 20
6.050001236052998
 30
0.0
 10
4.363348500883654
 20
6.050001236052998
 30
0.0
 10
4.369655445168771
 20
6.048542902756505
 30
0.0
 10
4.371120722909533
 20
6.044745680630209
 30
0.0
 10
4.368895722965741
 20
6.041266514051434
 30
0.0
 10
4.368895722965741
 20
6.041266514051434
 30
0.0
 10
4.351141556747582
 20
6.010016514840875
 30
0.0
 10
4.351141556747582
 20
6.010016514840875
 30
0.0
 10
4.351141556747582
 20
6.010016514840875
 30
0.0
 10
4.351616556735583
 20
6.010769292599636
 30
0.0
 10
4.351141556747582
 20
6.010016514840875
 30
0.0
  0
HATCH
  5
27A
330
273
100
AcDbEntity
  8
TSP
 62
    33
420
 15376454
100
AcDbHatch
 10
0.0
 20
0.0
 30
0.0
210
0.0
220
0.0
230
1.0
  2
SOLID
 70
     1
 71
     0
 91
        1
 92
        1
 93
        1
 72
     4
 94
        3
 73
     0
 74
     1
 95
       23
 96
       19
 40
0.0
 40
0.0
 40
0.0
 40
0.0
 40
1.0
 40
1.0
 40
1.0
 40
2.0
 40
2.0
 40
2.0
 40
3.0
 40
3.0
 40
3.0
 40
4.0
 40
4.0
 40
4.0
 40
5.0
 40
5.0
 40
5.0
 40
6.0
 40
6.0
 40
6.0
 40
6.0
 10
4.351141556747582
 20
6.010016514840875
 10
4.351141556747582
 20
6.010016514840875
 10
4.338256834850855
 20
6.048902777777774
 10
4.338256834850855
 20
6.048902777777774
 10
4.338256834850855
 20
6.048902777777774
 10
4.332329057222826
 20
6.053826235956371
 10
4.3464360013109
 20
6.052897069313176
 10
4.3464360013109
 20
6.052897069313176
 10
4.363348500883654
 20
6.050001236052998
 10
4.363348500883654
 20
6.050001236052998
 10
4.369655445168771
 20
6.048542902756505
 10
4.371120722909533
 20
6.044745680630209
 10
4.368895722965741
 20
6.041266514051434
 10
4.368895722965741
 20
6.041266514051434
 10
4.351141556747582
 20
6.010016514840875
 10
4.351141556747582
 20
6.010016514840875
 10
4.351141556747582
 20
6.010016514840875
 10
4.351616556735583
 20
6.010769292599636
 10
4.351141556747582
 20
6.010016514840875
 97
        0
 97
        0
 75
     2
 76
     1
 98
        0
  0
ENDBLK
  5
276
330
273
100
AcDbEntity
  8
0
100
AcDbBlockEnd
  0
BLOCK
  5
27D
330
27B
100
AcDbEntity
  8
0
100
AcDbBlockBegin
  2
block 20
 70
     0
 10
0.0
 20
0.0
 30
0.0
  3
block 20
  1

  0
SPLINE
  5
27F
330
27B
100
AcDbEntity
  8
TSP
 62
   250
420
  2301728
370
    18
100
AcDbSpline
210
0.0
220
0.0
230
1.0
 70
    11
 71
     3
 72
    23
 73
    19
 74
     0
 42
0.0000000001
 43
0.0000000001
 12
1.0
 22
0.0
 32
0.0
 13
1.0
 23
0.0
 33
0.0
 40
0.0
 40
0.0
 40
0.0
 40
0.0
 40
1.0
 40
1.0
 40
1.0
 40
2.0
 40
2.0
 40
2.0
 40
3.0
 40
3.0
 40
3.0
 40
4.0
 40
4.0
 40
4.0
 40
5.0
 40
5.0
 40
5.0
 40
6.0
 40
6.0
 40
6.0
 40
6.0
 10
4.567844329050987
 20
6.090915123908315
 30
0.0
 10
4.567844329050987
 20
6.090915123908315
 30
0.0
 10
4.553602662744096
 20
6.138067900494914
 30
0.0
 10
4.553602662744096
 20
6.138067900494914
 30
0.0
 10
4.553602662744096
 20
6.138067900494914
 30
0.0
 10
4.548692940645903
 20
6.154486111111106
 30
0.0
 10
4.564372106916481
 20
6.153469288994731
 30
0.0
 10
4.564372106916481
 20
6.153469288994731
 30
0.0
 10
4.596001272784128
 20
6.147623455809089
 30
0.0
 10
4.596001272784128
 20
6.147623455809089
 30
0.0
 10
4.596001272784128
 20
6.147623455809089
 30
0.0
 10
4.607408216940408
 20
6.140251233773092
 30
0.0
 10
4.604898494781588
 20
6.129970678477244
 30
0.0
 10
4.604898494781588
 20
6.129970678477244
 30
0.0
 10
4.584106828640162
 20
6.087788735098406
 30
0.0
 10
4.584106828640162
 20
6.087788735098406
 30
0.0
 10
4.584106828640162
 20
6.087788735098406
 30
0.0
 10
4.576280439948984
 20
6.077473457581214
 30
0.0
 10
4.567844329050987
 20
6.090915123908315
 30
0.0
  0
HATCH
  5
280
330
27B
100
AcDbEntity
  8
TSP
 62
   254
420
 13358815
100
AcDbHatch
 10
0.0
 20
0.0
 30
0.0
210
0.0
220
0.0
230
1.0
  2
SOLID
 70
     1
 71
     0
 91
        1
 92
        1
 93
        1
 72
     4
 94
        3
 73
     0
 74
     1
 95
       23
 96
       19
 40
0.0
 40
0.0
 40
0.0
 40
0.0
 40
1.0
 40
1.0
 40
1.0
 40
2.0
 40
2.0
 40
2.0
 40
3.0
 40
3.0
 40
3.0
 40
4.0
 40
4.0
 40
4.0
 40
5.0
 40
5.0
 40
5.0
 40
6.0
 40
6.0
 40
6.0
 40
6.0
 10
4.567844329050987
 20
6.090915123908315
 10
4.567844329050987
 20
6.090915123908315
 10
4.553602662744096
 20
6.138067900494914
 10
4.553602662744096
 20
6.138067900494914
 10
4.553602662744096
 20
6.138067900494914
 10
4.548692940645903
 20
6.154486111111106
 10
4.564372106916481
 20
6.153469288994731
 10
4.564372106916481
 20
6.153469288994731
 10
4.596001272784128
 20
6.147623455809089
 10
4.596001272784128
 20
6.147623455809089
 10
4.596001272784128
 20
6.147623455809089
 10
4.607408216940408
 20
6.140251233773092
 10
4.604898494781588
 20
6.129970678477244
 10
4.604898494781588
 20
6.129970678477244
 10
4.584106828640162
 20
6.087788735098406
 10
4.584106828640162
 20
6.087788735098406
 10
4.584106828640162
 20
6.087788735098406
 10
4.576280439948984
 20
6.077473457581214
 10
4.567844329050987
 20
6.090915123908315
 97
        0
 97
        0
 75
     2
 76
     1
 98
        0
  0
SPLINE
  5
281
330
27B
100
AcDbEntity
  8
TSP
 62
   250
420
  2301728
370
    18
100
AcDbSpline
210
0.0
220
0.0
230
1.0
 70
    11
 71
     3
 72
    23
 73
    19
 74
     0
 42
0.0000000001
 43
0.0000000001
 12
1.0
 22
0.0
 32
0.0
 13
1.0
 23
0.0
 33
0.0
 40
0.0
 40
0.0
 40
0.0
 40
0.0
 40
1.0
 40
1.0
 40
1.0
 40
2.0
 40
2.0
 40
2.0
 40
3.0
 40
3.0
 40
3.0
 40
4.0
 40
4.0
 40
4.0
 40
5.0
 40
5.0
 40
5.0
 40
6.0
 40
6.0
 40
6.0
 40
6.0
 10
4.568263888888901
 20
6.097866512621597
 30
0.0
 10
4.568263888888901
 20
6.097866512621597
 30
0.0
 10
4.555392940476647
 20
6.136752622750363
 30
0.0
 10
4.555392940476647
 20
6.136752622750363
 30
0.0
 10
4.555392940476647
 20
6.136752622750363
 30
0.0
 10
4.54945127396008
 20
6.141669289292824
 30
0.0
 10
4.563570718047837
 20
6.140747067093899
 30
0.0
 10
4.563570718047837
 20
6.140747067093899
 30
0.0
 10
4.580470717620907
 20
6.137851233833721
 30
0.0
 10
4.580470717620907
 20
6.137851233833721
 30
0.0
 10
4.586777777777772
 20
6.136392900537228
 30
0.0
 10
4.588242939646786
 20
6.132595678410931
 30
0.0
 10
4.586031828591532
 20
6.129116511832156
 30
0.0
 10
4.586031828591532
 20
6.129116511832156
 30
0.0
 10
4.568263888888901
 20
6.097866512621597
 30
0.0
 10
4.568263888888901
 20
6.097866512621597
 30
0.0
 10
4.568263888888901
 20
6.097866512621597
 30
0.0
 10
4.568738773472837
 20
6.09861234593609
 30
0.0
 10
4.568263888888901
 20
6.097866512621597
 30
0.0
  0
HATCH
  5
282
330
27B
100
AcDbEntity
  8
TSP
 62
    33
420
 15376454
100
AcDbHatch
 10
0.0
 20
0.0
 30
0.0
210
0.0
220
0.0
230
1.0
  2
SOLID
 70
     1
 71
     0
 91
        1
 92
        1
 93
        1
 72
     4
 94
        3
 73
     0
 74
     1
 95
       23
 96
       19
 40
0.0
 40
0.0
 40
0.0
 40
0.0
 40
1.0
 40
1.0
 40
1.0
 40
2.0
 40
2.0
 40
2.0
 40
3.0
 40
3.0
 40
3.0
 40
4.0
 40
4.0
 40
4.0
 40
5.0
 40
5.0
 40
5.0
 40
6.0
 40
6.0
 40
6.0
 40
6.0
 10
4.568263888888901
 20
6.097866512621597
 10
4.568263888888901
 20
6.097866512621597
 10
4.555392940476647
 20
6.136752622750363
 10
4.555392940476647
 20
6.136752622750363
 10
4.555392940476647
 20
6.136752622750363
 10
4.54945127396008
 20
6.141669289292824
 10
4.563570718047837
 20
6.140747067093899
 10
4.563570718047837
 20
6.140747067093899
 10
4.580470717620907
 20
6.137851233833721
 10
4.580470717620907
 20
6.137851233833721
 10
4.586777777777772
 20
6.136392900537228
 10
4.588242939646786
 20
6.132595678410931
 10
4.586031828591532
 20
6.129116511832156
 10
4.586031828591532
 20
6.129116511832156
 10
4.568263888888901
 20
6.097866512621597
 10
4.568263888888901
 20
6.097866512621597
 10
4.568263888888901
 20
6.097866512621597
 10
4.568738773472837
 20
6.09861234593609
 10
4.568263888888901
 20
6.097866512621597
 97
        0
 97
        0
 75
     2
 76
     1
 98
        0
  0
ENDBLK
  5
27E
330
27B
100
AcDbEntity
  8
0
100
AcDbBlockEnd
  0
BLOCK
  5
285
330
283
100
AcDbEntity
  8
0
100
AcDbBlockBegin
  2
block 21
 70
     0
 10
0.0
 20
0.0
 30
0.0
  3
block 21
  1

  0
SPLINE
  5
287
330
283
100
AcDbEntity
  8
TSP
 62
   250
420
  2301728
370
    18
100
AcDbSpline
210
0.0
220
0.0
230
1.0
 70
    11
 71
     3
 72
    23
 73
    19
 74
     0
 42
0.0000000001
 43
0.0000000001
 12
1.0
 22
0.0
 32
0.0
 13
1.0
 23
0.0
 33
0.0
 40
0.0
 40
0.0
 40
0.0
 40
0.0
 40
1.0
 40
1.0
 40
1.0
 40
2.0
 40
2.0
 40
2.0
 40
3.0
 40
3.0
 40
3.0
 40
4.0
 40
4.0
 40
4.0
 40
5.0
 40
5.0
 40
5.0
 40
6.0
 40
6.0
 40
6.0
 40
6.0
 10
4.499498497444216
 20
5.883280406931387
 30
0.0
 10
4.499498497444216
 20
5.883280406931387
 30
0.0
 10
4.485256831137323
 20
5.930433183517986
 30
0.0
 10
4.485256831137323
 20
5.930433183517986
 30
0.0
 10
4.485256831137323
 20
5.930433183517986
 30
0.0
 10
4.48034722222221
 20
5.946845683103371
 30
0.0
 10
4.496026275309709
 20
5.945834572017803
 30
0.0
 10
4.496026275309709
 20
5.945834572017803
 30
0.0
 10
4.527655441177355
 20
5.939981794387879
 30
0.0
 10
4.527655441177355
 20
5.939981794387879
 30
0.0
 10
4.527655441177355
 20
5.939981794387879
 30
0.0
 10
4.539062385333636
 20
5.932616516796164
 30
0.0
 10
4.536540163175131
 20
5.922335961500317
 30
0.0
 10
4.536540163175131
 20
5.922335961500317
 30
0.0
 10
4.515747108144851
 20
5.880147073677208
 30
0.0
 10
4.515747108144851
 20
5.880147073677208
 30
0.0
 10
4.515747108144851
 20
5.880147073677208
 30
0.0
 10
4.507934608342212
 20
5.869831796160017
 30
0.0
 10
4.499498497444216
 20
5.883280406931387
 30
0.0
  0
HATCH
  5
288
330
283
100
AcDbEntity
  8
TSP
 62
   254
420
 13358815
100
AcDbHatch
 10
0.0
 20
0.0
 30
0.0
210
0.0
220
0.0
230
1.0
  2
SOLID
 70
     1
 71
     0
 91
        1
 92
        1
 93
        1
 72
     4
 94
        3
 73
     0
 74
     1
 95
       23
 96
       19
 40
0.0
 40
0.0
 40
0.0
 40
0.0
 40
1.0
 40
1.0
 40
1.0
 40
2.0
 40
2.0
 40
2.0
 40
3.0
 40
3.0
 40
3.0
 40
4.0
 40
4.0
 40
4.0
 40
5.0
 40
5.0
 40
5.0
 40
6.0
 40
6.0
 40
6.0
 40
6.0
 10
4.499498497444216
 20
5.883280406931387
 10
4.499498497444216
 20
5.883280406931387
 10
4.485256831137323
 20
5.930433183517986
 10
4.485256831137323
 20
5.930433183517986
 10
4.485256831137323
 20
5.930433183517986
 10
4.48034722222221
 20
5.946845683103371
 10
4.496026275309709
 20
5.945834572017803
 10
4.496026275309709
 20
5.945834572017803
 10
4.527655441177355
 20
5.939981794387879
 10
4.527655441177355
 20
5.939981794387879
 10
4.527655441177355
 20
5.939981794387879
 10
4.539062385333636
 20
5.932616516796164
 10
4.536540163175131
 20
5.922335961500317
 10
4.536540163175131
 20
5.922335961500317
 10
4.515747108144851
 20
5.880147073677208
 10
4.515747108144851
 20
5.880147073677208
 10
4.515747108144851
 20
5.880147073677208
 10
4.507934608342212
 20
5.869831796160017
 10
4.499498497444216
 20
5.883280406931387
 97
        0
 97
        0
 75
     2
 76
     1
 98
        0
  0
SPLINE
  5
289
330
283
100
AcDbEntity
  8
TSP
 62
   250
420
  2301728
370
    18
100
AcDbSpline
210
0.0
220
0.0
230
1.0
 70
    11
 71
     3
 72
    23
 73
    19
 74
     0
 42
0.0000000001
 43
0.0000000001
 12
1.0
 22
0.0
 32
0.0
 13
1.0
 23
0.0
 33
0.0
 40
0.0
 40
0.0
 40
0.0
 40
0.0
 40
1.0
 40
1.0
 40
1.0
 40
2.0
 40
2.0
 40
2.0
 40
3.0
 40
3.0
 40
3.0
 40
4.0
 40
4.0
 40
4.0
 40
5.0
 40
5.0
 40
5.0
 40
6.0
 40
6.0
 40
6.0
 40
6.0
 10
4.499917941878063
 20
5.890224851200401
 30
0.0
 10
4.499917941878063
 20
5.890224851200401
 30
0.0
 10
4.487047108869874
 20
5.929111111111107
 30
0.0
 10
4.487047108869874
 20
5.929111111111107
 30
0.0
 10
4.487047108869874
 20
5.929111111111107
 30
0.0
 10
4.481105442353307
 20
5.934034572315896
 30
0.0
 10
4.495226275329919
 20
5.933105405672702
 30
0.0
 10
4.495226275329919
 20
5.933105405672702
 30
0.0
 10
4.512124999999994
 20
5.930209572412523
 30
0.0
 10
4.512124999999994
 20
5.930209572412523
 30
0.0
 10
4.518431830299252
 20
5.928751239116031
 30
0.0
 10
4.519897108040014
 20
5.924954016989735
 30
0.0
 10
4.517673496985076
 20
5.921474850410959
 30
0.0
 10
4.517673496985076
 20
5.921474850410959
 30
0.0
 10
4.499917941878063
 20
5.890224851200401
 30
0.0
 10
4.499917941878063
 20
5.890224851200401
 30
0.0
 10
4.499917941878063
 20
5.890224851200401
 30
0.0
 10
4.500392941866064
 20
5.890977628959162
 30
0.0
 10
4.499917941878063
 20
5.890224851200401
 30
0.0
  0
HATCH
  5
28A
330
283
100
AcDbEntity
  8
TSP
 62
    33
420
 15376454
100
AcDbHatch
 10
0.0
 20
0.0
 30
0.0
210
0.0
220
0.0
230
1.0
  2
SOLID
 70
     1
 71
     0
 91
        1
 92
        1
 93
        1
 72
     4
 94
        3
 73
     0
 74
     1
 95
       23
 96
       19
 40
0.0
 40
0.0
 40
0.0
 40
0.0
 40
1.0
 40
1.0
 40
1.0
 40
2.0
 40
2.0
 40
2.0
 40
3.0
 40
3.0
 40
3.0
 40
4.0
 40
4.0
 40
4.0
 40
5.0
 40
5.0
 40
5.0
 40
6.0
 40
6.0
 40
6.0
 40
6.0
 10
4.499917941878063
 20
5.890224851200401
 10
4.499917941878063
 20
5.890224851200401
 10
4.487047108869874
 20
5.929111111111107
 10
4.487047108869874
 20
5.929111111111107
 10
4.487047108869874
 20
5.929111111111107
 10
4.481105442353307
 20
5.934034572315896
 10
4.495226275329919
 20
5.933105405672702
 10
4.495226275329919
 20
5.933105405672702
 10
4.512124999999994
 20
5.930209572412523
 10
4.512124999999994
 20
5.930209572412523
 10
4.518431830299252
 20
5.928751239116031
 10
4.519897108040014
 20
5.924954016989735
 10
4.517673496985076
 20
5.921474850410959
 10
4.517673496985076
 20
5.921474850410959
 10
4.499917941878063
 20
5.890224851200401
 10
4.499917941878063
 20
5.890224851200401
 10
4.499917941878063
 20
5.890224851200401
 10
4.500392941866064
 20
5.890977628959162
 10
4.499917941878063
 20
5.890224851200401
 97
        0
 97
        0
 75
     2
 76
     1
 98
        0
  0
ENDBLK
  5
286
330
283
100
AcDbEntity
  8
0
100
AcDbBlockEnd
  0
BLOCK
  5
28E
330
28C
100
AcDbEntity
  8
0
100
AcDbBlockBegin
  2
block 22
 70
     0
 10
0.0
 20
0.0
 30
0.0
  3
block 22
  1

  0
SPLINE
  5
290
330
28C
100
AcDbEntity
  8
TSP
 62
   250
420
  2301728
370
    25
100
AcDbSpline
210
0.0
220
0.0
230
1.0
 70
    11
 71
     3
 72
    17
 73
    13
 74
     0
 42
0.0000000001
 43
0.0000000001
 12
1.0
 22
0.0
 32
0.0
 13
1.0
 23
0.0
 33
0.0
 40
0.0
 40
0.0
 40
0.0
 40
0.0
 40
1.0
 40
1.0
 40
1.0
 40
2.0
 40
2.0
 40
2.0
 40
3.0
 40
3.0
 40
3.0
 40
4.0
 40
4.0
 40
4.0
 40
4.0
 10
4.335097222222227
 20
6.027452625511513
 30
0.0
 10
4.329020723973068
 20
6.04794568054937
 30
0.0
 10
4.337320723763392
 20
6.068481791141696
 30
0.0
 10
4.353623501129328
 20
6.073295679908975
 30
0.0
 10
4.369913778495579
 20
6.078138888888891
 30
0.0
 10
4.388061000259364
 20
6.065429013441038
 30
0.0
 10
4.39413738899475
 20
6.044935958403181
 30
0.0
 10
4.400213777730136
 20
6.024441514476469
 30
0.0
 10
4.391913777939812
 20
6.003906792772997
 30
0.0
 10
4.375609611685023
 20
5.999091515116864
 30
0.0
 10
4.359320723207626
 20
5.994248459683654
 30
0.0
 10
4.341186001443526
 20
6.006958333333336
 30
0.0
 10
4.335097222222227
 20
6.027452625511513
 30
0.0
  0
HATCH
  5
291
330
28C
100
AcDbEntity
  8
TSP
 62
   254
420
 13358815
100
AcDbHatch
 10
0.0
 20
0.0
 30
0.0
210
0.0
220
0.0
230
1.0
  2
SOLID
 70
     1
 71
     0
 91
        1
 92
        1
 93
        1
 72
     4
 94
        3
 73
     0
 74
     1
 95
       17
 96
       13
 40
0.0
 40
0.0
 40
0.0
 40
0.0
 40
1.0
 40
1.0
 40
1.0
 40
2.0
 40
2.0
 40
2.0
 40
3.0
 40
3.0
 40
3.0
 40
4.0
 40
4.0
 40
4.0
 40
4.0
 10
4.335097222222227
 20
6.027452625511513
 10
4.329020723973068
 20
6.04794568054937
 10
4.337320723763392
 20
6.068481791141696
 10
4.353623501129328
 20
6.073295679908975
 10
4.369913778495579
 20
6.078138888888891
 10
4.388061000259364
 20
6.065429013441038
 10
4.39413738899475
 20
6.044935958403181
 10
4.400213777730136
 20
6.024441514476469
 10
4.391913777939812
 20
6.003906792772997
 10
4.375609611685023
 20
5.999091515116864
 10
4.359320723207626
 20
5.994248459683654
 10
4.341186001443526
 20
6.006958333333336
 10
4.335097222222227
 20
6.027452625511513
 97
        0
 97
        0
 75
     2
 76
     1
 98
        0
  0
SPLINE
  5
292
330
28C
100
AcDbEntity
  8
TSP
 62
   250
420
  2301728
370
    25
100
AcDbSpline
210
0.0
220
0.0
230
1.0
 70
    11
 71
     3
 72
    29
 73
    25
 74
     0
 42
0.0000000001
 43
0.0000000001
 12
1.0
 22
0.0
 32
0.0
 13
1.0
 23
0.0
 33
0.0
 40
0.0
 40
0.0
 40
0.0
 40
0.0
 40
1.0
 40
1.0
 40
1.0
 40
2.0
 40
2.0
 40
2.0
 40
3.0
 40
3.0
 40
3.0
 40
4.0
 40
4.0
 40
4.0
 40
5.0
 40
5.0
 40
5.0
 40
6.0
 40
6.0
 40
6.0
 40
7.0
 40
7.0
 40
7.0
 40
8.0
 40
8.0
 40
8.0
 40
8.0
 10
4.375609611685023
 20
5.999091515116864
 30
0.0
 10
4.374444444444432
 20
5.998738737347998
 30
0.0
 10
4.373263888888888
 20
5.998684570682699
 30
0.0
 10
4.372070722885534
 20
5.998508181798266
 30
0.0
 10
4.370645722921532
 20
5.997762348483775
 30
0.0
 10
4.369194444444449
 20
5.997016515169283
 30
0.0
 10
4.367608222998266
 20
5.996541666666669
 30
0.0
 10
4.351317945632015
 20
5.991698459748073
 30
0.0
 10
4.33317072386823
 20
6.004394292760682
 30
0.0
 10
4.327094335132844
 20
6.024915125575616
 30
0.0
 10
4.321017946397458
 20
6.045397069502642
 30
0.0
 10
4.329317946187782
 20
6.065944444444439
 30
0.0
 10
4.345622112442571
 20
6.07077345775047
 30
0.0
 10
4.346774890191227
 20
6.07109845774226
 30
0.0
 10
4.347967945716643
 20
6.071180555555555
 30
0.0
 10
4.34916100124206
 20
6.071342902180529
 30
0.0
 10
4.350586001206062
 20
6.072102624383559
 30
0.0
 10
4.352037390058285
 20
6.072834568809513
 30
0.0
 10
4.353623501129328
 20
6.073295679908975
 30
0.0
 10
4.369913778495579
 20
6.078138888888891
 30
0.0
 10
4.388061000259364
 20
6.065429013441038
 30
0.0
 10
4.39413738899475
 20
6.044935958403181
 30
0.0
 10
4.400213777730136
 20
6.024441514476469
 30
0.0
 10
4.391913777939812
 20
6.003906792772997
 30
0.0
 10
4.375609611685023
 20
5.999091515116864
 30
0.0
  0
ENDBLK
  5
28F
330
28C
100
AcDbEntity
  8
0
100
AcDbBlockEnd
  0
BLOCK
  5
295
330
293
100
AcDbEntity
  8
0
100
AcDbBlockBegin
  2
block 23
 70
     0
 10
0.0
 20
0.0
 30
0.0
  3
block 23
  1

  0
SPLINE
  5
297
330
293
100
AcDbEntity
  8
TSP
 62
   250
420
  2301728
370
    25
100
AcDbSpline
210
0.0
220
0.0
230
1.0
 70
    11
 71
     3
 72
    17
 73
    13
 74
     0
 42
0.0000000001
 43
0.0000000001
 12
1.0
 22
0.0
 32
0.0
 13
1.0
 23
0.0
 33
0.0
 40
0.0
 40
0.0
 40
0.0
 40
0.0
 40
1.0
 40
1.0
 40
1.0
 40
2.0
 40
2.0
 40
2.0
 40
3.0
 40
3.0
 40
3.0
 40
4.0
 40
4.0
 40
4.0
 40
4.0
 10
4.553059607202258
 20
6.111986111111112
 30
0.0
 10
4.546983218466872
 20
6.132466511747528
 30
0.0
 10
4.55528460714605
 20
6.153015122339538
 30
0.0
 10
4.571587384511986
 20
6.157830399995671
 30
0.0
 10
4.587876272989383
 20
6.162658177651489
 30
0.0
 10
4.606024883642021
 20
6.149963733527733
 30
0.0
 10
4.612101272377408
 20
6.129469289601022
 30
0.0
 10
4.618177661112794
 20
6.108974845674311
 30
0.0
 10
4.609876272433616
 20
6.088440123970839
 30
0.0
 10
4.593573495067681
 20
6.083611111111117
 30
0.0
 10
4.577284606590283
 20
6.078783179770349
 30
0.0
 10
4.559149884826184
 20
6.091477623894106
 30
0.0
 10
4.553059607202258
 20
6.111986111111112
 30
0.0
  0
HATCH
  5
298
330
293
100
AcDbEntity
  8
TSP
 62
   254
420
 13358815
100
AcDbHatch
 10
0.0
 20
0.0
 30
0.0
210
0.0
220
0.0
230
1.0
  2
SOLID
 70
     1
 71
     0
 91
        1
 92
        1
 93
        1
 72
     4
 94
        3
 73
     0
 74
     1
 95
       17
 96
       13
 40
0.0
 40
0.0
 40
0.0
 40
0.0
 40
1.0
 40
1.0
 40
1.0
 40
2.0
 40
2.0
 40
2.0
 40
3.0
 40
3.0
 40
3.0
 40
4.0
 40
4.0
 40
4.0
 40
4.0
 10
4.553059607202258
 20
6.111986111111112
 10
4.546983218466872
 20
6.132466511747528
 10
4.55528460714605
 20
6.153015122339538
 10
4.571587384511986
 20
6.157830399995671
 10
4.587876272989383
 20
6.162658177651489
 10
4.606024883642021
 20
6.149963733527733
 10
4.612101272377408
 20
6.129469289601022
 10
4.618177661112794
 20
6.108974845674311
 10
4.609876272433616
 20
6.088440123970839
 10
4.593573495067681
 20
6.083611111111117
 10
4.577284606590283
 20
6.078783179770349
 10
4.559149884826184
 20
6.091477623894106
 10
4.553059607202258
 20
6.111986111111112
 97
        0
 97
        0
 75
     2
 76
     1
 98
        0
  0
SPLINE
  5
299
330
293
100
AcDbEntity
  8
TSP
 62
   250
420
  2301728
370
    25
100
AcDbSpline
210
0.0
220
0.0
230
1.0
 70
    11
 71
     3
 72
    29
 73
    25
 74
     0
 42
0.0000000001
 43
0.0000000001
 12
1.0
 22
0.0
 32
0.0
 13
1.0
 23
0.0
 33
0.0
 40
0.0
 40
0.0
 40
0.0
 40
0.0
 40
1.0
 40
1.0
 40
1.0
 40
2.0
 40
2.0
 40
2.0
 40
3.0
 40
3.0
 40
3.0
 40
4.0
 40
4.0
 40
4.0
 40
5.0
 40
5.0
 40
5.0
 40
6.0
 40
6.0
 40
6.0
 40
7.0
 40
7.0
 40
7.0
 40
8.0
 40
8.0
 40
8.0
 40
8.0
 10
4.593573495067681
 20
6.083611111111117
 30
0.0
 10
4.592406828430486
 20
6.083258179657301
 30
0.0
 10
4.591227661793608
 20
6.083204012992003
 30
0.0
 10
4.590033217379338
 20
6.083027777777779
 30
0.0
 10
4.58860960630419
 20
6.082281790793078
 30
0.0
 10
4.587158217451966
 20
6.081535957478587
 30
0.0
 10
4.58557071749207
 20
6.081060957490586
 30
0.0
 10
4.569281829014673
 20
6.076233179834768
 30
0.0
 10
4.551133218362034
 20
6.088927623958524
 30
0.0
 10
4.545056829626648
 20
6.109435956773773
 30
0.0
 10
4.537380440931681
 20
6.13535540056345
 30
0.0
 10
4.541490163050083
 20
6.148755400224925
 30
0.0
 10
4.563584606936375
 20
6.155294288948627
 30
0.0
 10
4.564737384685031
 20
6.155633177828955
 30
0.0
 10
4.565931829099301
 20
6.155699844493938
 30
0.0
 10
4.567125000000007
 20
6.155876233378371
 30
0.0
 10
4.568548495699866
 20
6.156635955581401
 30
0.0
 10
4.570000000000012
 20
6.157369288896208
 30
0.0
 10
4.571587384511986
 20
6.157830399995671
 30
0.0
 10
4.587876272989383
 20
6.162658177651489
 30
0.0
 10
4.606024883642021
 20
6.149963733527733
 30
0.0
 10
4.612101272377408
 20
6.129469289601022
 30
0.0
 10
4.618177661112794
 20
6.108974845674311
 30
0.0
 10
4.609876272433616
 20
6.088440123970839
 30
0.0
 10
4.593573495067681
 20
6.083611111111117
 30
0.0
  0
ENDBLK
  5
296
330
293
100
AcDbEntity
  8
0
100
AcDbBlockEnd
  0
BLOCK
  5
29C
330
29A
100
AcDbEntity
  8
0
100
AcDbBlockBegin
  2
block 24
 70
     0
 10
0.0
 20
0.0
 30
0.0
  3
block 24
  1

  0
SPLINE
  5
29E
330
29A
100
AcDbEntity
  8
TSP
 62
   250
420
  2301728
370
    25
100
AcDbSpline
210
0.0
220
0.0
230
1.0
 70
    11
 71
     3
 72
    17
 73
    13
 74
     0
 42
0.0000000001
 43
0.0000000001
 12
1.0
 22
0.0
 32
0.0
 13
1.0
 23
0.0
 33
0.0
 40
0.0
 40
0.0
 40
0.0
 40
0.0
 40
1.0
 40
1.0
 40
1.0
 40
2.0
 40
2.0
 40
2.0
 40
3.0
 40
3.0
 40
3.0
 40
4.0
 40
4.0
 40
4.0
 40
4.0
 10
4.483629053400667
 20
5.906392906347516
 30
0.0
 10
4.47755266466528
 20
5.92687346138569
 30
0.0
 10
4.485852664455605
 20
5.947422071977699
 30
0.0
 10
4.502156830710393
 20
5.952236111111106
 30
0.0
 10
4.51844571918779
 20
5.957065127289651
 30
0.0
 10
4.536594329840429
 20
5.944369294277041
 30
0.0
 10
4.542670718575815
 20
5.923875000000003
 30
0.0
 10
4.548747107311201
 20
5.903381795312472
 30
0.0
 10
4.540445718632023
 20
5.882845684720147
 30
0.0
 10
4.524142941266089
 20
5.878017907064329
 30
0.0
 10
4.507852663899838
 20
5.873188740519658
 30
0.0
 10
4.489719331024591
 20
5.885884573532267
 30
0.0
 10
4.483629053400667
 20
5.906392906347516
 30
0.0
  0
HATCH
  5
29F
330
29A
100
AcDbEntity
  8
TSP
 62
   254
420
 13358815
100
AcDbHatch
 10
0.0
 20
0.0
 30
0.0
210
0.0
220
0.0
230
1.0
  2
SOLID
 70
     1
 71
     0
 91
        1
 92
        1
 93
        1
 72
     4
 94
        3
 73
     0
 74
     1
 95
       17
 96
       13
 40
0.0
 40
0.0
 40
0.0
 40
0.0
 40
1.0
 40
1.0
 40
1.0
 40
2.0
 40
2.0
 40
2.0
 40
3.0
 40
3.0
 40
3.0
 40
4.0
 40
4.0
 40
4.0
 40
4.0
 10
4.483629053400667
 20
5.906392906347516
 10
4.47755266466528
 20
5.92687346138569
 10
4.485852664455605
 20
5.947422071977699
 10
4.502156830710393
 20
5.952236111111106
 10
4.51844571918779
 20
5.957065127289651
 10
4.536594329840429
 20
5.944369294277041
 10
4.542670718575815
 20
5.923875000000003
 10
4.548747107311201
 20
5.903381795312472
 10
4.540445718632023
 20
5.882845684720147
 10
4.524142941266089
 20
5.878017907064329
 10
4.507852663899838
 20
5.873188740519658
 10
4.489719331024591
 20
5.885884573532267
 10
4.483629053400667
 20
5.906392906347516
 97
        0
 97
        0
 75
     2
 76
     1
 98
        0
  0
SPLINE
  5
2A0
330
29A
100
AcDbEntity
  8
TSP
 62
   250
420
  2301728
370
    25
100
AcDbSpline
210
0.0
220
0.0
230
1.0
 70
    11
 71
     3
 72
    29
 73
    25
 74
     0
 42
0.0000000001
 43
0.0000000001
 12
1.0
 22
0.0
 32
0.0
 13
1.0
 23
0.0
 33
0.0
 40
0.0
 40
0.0
 40
0.0
 40
0.0
 40
1.0
 40
1.0
 40
1.0
 40
2.0
 40
2.0
 40
2.0
 40
3.0
 40
3.0
 40
3.0
 40
4.0
 40
4.0
 40
4.0
 40
5.0
 40
5.0
 40
5.0
 40
6.0
 40
6.0
 40
6.0
 40
7.0
 40
7.0
 40
7.0
 40
8.0
 40
8.0
 40
8.0
 40
8.0
 10
4.524142941266089
 20
5.878017907064329
 30
0.0
 10
4.522976274628895
 20
5.877665129295464
 30
0.0
 10
4.521795719103162
 20
5.877611111111112
 30
0.0
 10
4.520602663577746
 20
5.877434573745732
 30
0.0
 10
4.519179052502598
 20
5.87668874043124
 30
0.0
 10
4.517727663650374
 20
5.875942907116748
 30
0.0
 10
4.516140163690478
 20
5.875467907128748
 30
0.0
 10
4.499851275213081
 20
5.870638888888885
 30
0.0
 10
4.481702664560443
 20
5.883334573596685
 30
0.0
 10
4.475626275825056
 20
5.903842906411935
 30
0.0
 10
4.467949887130089
 20
5.929762350201599
 30
0.0
 10
4.472059609248491
 20
5.943162349863087
 30
0.0
 10
4.494154053134783
 20
5.949699849697936
 30
0.0
 10
4.495306830883439
 20
5.950038738578264
 30
0.0
 10
4.496499999999994
 20
5.9501067941321
 30
0.0
 10
4.497694444444455
 20
5.950283183016532
 30
0.0
 10
4.499117941898273
 20
5.951042905219563
 30
0.0
 10
4.500569444444434
 20
5.951774849645517
 30
0.0
 10
4.502156830710393
 20
5.952236111111106
 30
0.0
 10
4.51844571918779
 20
5.957065127289651
 30
0.0
 10
4.536594329840429
 20
5.944369294277041
 30
0.0
 10
4.542670718575815
 20
5.923875000000003
 30
0.0
 10
4.548747107311201
 20
5.903381795312472
 30
0.0
 10
4.540445718632023
 20
5.882845684720147
 30
0.0
 10
4.524142941266089
 20
5.878017907064329
 30
0.0
  0
ENDBLK
  5
29D
330
29A
100
AcDbEntity
  8
0
100
AcDbBlockEnd
  0
ENDSEC
  0
SECTION
  2
ENTITIES
  0
POLYLINE
  5
41
330
1F
100
AcDbEntity
  8
Wood
370
     0
100
AcDb2dPolyline
 66
     1
 10
0.0
 20
0.0
 30
0.0
  0
VERTEX
  5
42
330
41
100
AcDbEntity
  8
Wood
370
     0
100
AcDbVertex
100
AcDb2dVertex
 10
5.910223461806305
 20
5.656487357105107
 30
0.0
  0
VERTEX
  5
43
330
41
100
AcDbEntity
  8
Wood
370
     0
100
AcDbVertex
100
AcDb2dVertex
 10
5.910902777777765
 20
5.591566525411811
 30
0.0
  0
VERTEX
  5
44
330
41
100
AcDbEntity
  8
Wood
370
     0
100
AcDbVertex
100
AcDb2dVertex
 10
5.600233191859539
 20
5.588854025480335
 30
0.0
  0
VERTEX
  5
45
330
41
100
AcDbEntity
  8
Wood
370
     0
100
AcDbVertex
100
AcDb2dVertex
 10
5.60002902519803
 20
5.538655415637347
 30
0.0
  0
VERTEX
  5
46
330
41
100
AcDbEntity
  8
Wood
370
     0
100
AcDbVertex
100
AcDb2dVertex
 10
5.347236111111114
 20
5.442626251396582
 30
0.0
  0
VERTEX
  5
47
330
41
100
AcDbEntity
  8
Wood
370
     0
100
AcDbVertex
100
AcDb2dVertex
 10
5.056463761151867
 20
5.516479027308681
 30
0.0
  0
VERTEX
  5
48
330
41
100
AcDbEntity
  8
Wood
370
     0
100
AcDbVertex
100
AcDb2dVertex
 10
3.921305555555553
 20
5.804769297803634
 30
0.0
  0
VERTEX
  5
49
330
41
100
AcDbEntity
  8
Wood
370
     0
100
AcDbVertex
100
AcDb2dVertex
 10
2.768527777777775
 20
6.097160957083866
 30
0.0
  0
VERTEX
  5
4A
330
41
100
AcDbEntity
  8
Wood
370
     0
100
AcDbVertex
100
AcDb2dVertex
 10
2.768527777777775
 20
6.518316502000137
 30
0.0
  0
VERTEX
  5
4B
330
41
100
AcDbEntity
  8
Wood
370
     0
100
AcDbVertex
100
AcDb2dVertex
 10
2.976616591471005
 20
6.625277777777783
 30
0.0
  0
VERTEX
  5
4C
330
41
100
AcDbEntity
  8
Wood
370
     0
100
AcDbVertex
100
AcDb2dVertex
 10
2.97631798036745
 20
6.688626219919974
 30
0.0
  0
VERTEX
  5
4D
330
41
100
AcDbEntity
  8
Wood
370
     0
100
AcDbVertex
100
AcDb2dVertex
 10
3.247111111111116
 20
6.699862330747237
 30
0.0
  0
VERTEX
  5
4E
330
41
100
AcDbEntity
  8
Wood
370
     0
100
AcDbVertex
100
AcDb2dVertex
 10
3.246636029094184
 20
6.764098440235607
 30
0.0
  0
VERTEX
  5
4F
330
41
100
AcDbEntity
  8
Wood
370
     0
100
AcDbVertex
100
AcDb2dVertex
 10
3.518663799999962
 20
6.90393055555555
 30
0.0
  0
VERTEX
  5
50
330
41
100
AcDbEntity
  8
Wood
370
     0
100
AcDbVertex
100
AcDb2dVertex
 10
6.162055555555551
 20
6.147908178024105
 30
0.0
  0
VERTEX
  5
51
330
41
100
AcDbEntity
  8
Wood
370
     0
100
AcDbVertex
100
AcDb2dVertex
 10
6.162055555555551
 20
5.752142910244199
 30
0.0
  0
VERTEX
  5
52
330
41
100
AcDbEntity
  8
Wood
370
     0
100
AcDbVertex
100
AcDb2dVertex
 10
5.910223461806305
 20
5.656487357105107
 30
0.0
  0
SEQEND
  5
54
330
41
100
AcDbEntity
  8
Wood
370
     0
  0
HATCH
  5
53
330
1F
100
AcDbEntity
  8
Wood
 62
    43
420
 15510365
100
AcDbHatch
 10
0.0
 20
0.0
 30
0.0
210
0.0
220
0.0
230
1.0
  2
SOLID
 70
     1
 71
     0
 91
        1
 92
        1
 93
       16
 72
     1
 10
5.910223461806305
 20
5.656487357105107
 11
5.910902777777765
 21
5.591566525411811
 72
     1
 10
5.910902777777765
 20
5.591566525411811
 11
5.600233191859539
 21
5.588854025480335
 72
     1
 10
5.600233191859539
 20
5.588854025480335
 11
5.60002902519803
 21
5.538655415637347
 72
     1
 10
5.60002902519803
 20
5.538655415637347
 11
5.347236111111114
 21
5.442626251396582
 72
     1
 10
5.347236111111114
 20
5.442626251396582
 11
5.056463761151867
 21
5.516479027308681
 72
     1
 10
5.056463761151867
 20
5.516479027308681
 11
3.921305555555553
 21
5.804769297803634
 72
     1
 10
3.921305555555553
 20
5.804769297803634
 11
2.768527777777775
 21
6.097160957083866
 72
     1
 10
2.768527777777775
 20
6.097160957083866
 11
2.768527777777775
 21
6.518316502000137
 72
     1
 10
2.768527777777775
 20
6.518316502000137
 11
2.976616591471005
 21
6.625277777777783
 72
     1
 10
2.976616591471005
 20
6.625277777777783
 11
2.97631798036745
 21
6.688626219919974
 72
     1
 10
2.97631798036745
 20
6.688626219919974
 11
3.247111111111116
 21
6.699862330747237
 72
     1
 10
3.247111111111116
 20
6.699862330747237
 11
3.246636029094184
 21
6.764098440235607
 72
     1
 10
3.246636029094184
 20
6.764098440235607
 11
3.518663799999962
 21
6.90393055555555
 72
     1
 10
3.518663799999962
 20
6.90393055555555
 11
6.162055555555551
 21
6.147908178024105
 72
     1
 10
6.162055555555551
 20
6.147908178024105
 11
6.162055555555551
 21
5.752142910244199
 72
     1
 10
6.162055555555551
 20
5.752142910244199
 11
5.910223461806305
 21
5.656487357105107
 97
        0
 75
     2
 76
     1
 98
        0
  0
POLYLINE
  5
55
330
1F
100
AcDbEntity
  8
Wood
370
     0
100
AcDb2dPolyline
 66
     1
 10
0.0
 20
0.0
 30
0.0
  0
VERTEX
  5
56
330
55
100
AcDbEntity
  8
Wood
370
     0
100
AcDbVertex
100
AcDb2dVertex
 10
5.056463761151867
 20
5.516479027308681
 30
0.0
  0
VERTEX
  5
57
330
55
100
AcDbEntity
  8
Wood
370
     0
100
AcDbVertex
100
AcDb2dVertex
 10
5.059041666666669
 20
3.603326297861208
 30
0.0
  0
VERTEX
  5
58
330
55
100
AcDbEntity
  8
Wood
370
     0
100
AcDbVertex
100
AcDb2dVertex
 10
4.794623489988731
 20
3.541490188312208
 30
0.0
  0
VERTEX
  5
59
330
55
100
AcDbEntity
  8
Wood
370
     0
100
AcDbVertex
100
AcDb2dVertex
 10
4.694458333333336
 20
3.557658243459324
 30
0.0
  0
VERTEX
  5
5A
330
55
100
AcDbEntity
  8
Wood
370
     0
100
AcDbVertex
100
AcDb2dVertex
 10
4.642375000000002
 20
3.401624999999992
 30
0.0
  0
VERTEX
  5
5B
330
55
100
AcDbEntity
  8
Wood
370
     0
100
AcDbVertex
100
AcDb2dVertex
 10
4.364392945301713
 20
3.440890190853578
 30
0.0
  0
VERTEX
  5
5C
330
55
100
AcDbEntity
  8
Wood
370
     0
100
AcDbVertex
100
AcDb2dVertex
 10
4.277791666666669
 20
3.420654080253674
 30
0.0
  0
VERTEX
  5
5D
330
55
100
AcDbEntity
  8
Wood
370
     0
100
AcDbVertex
100
AcDb2dVertex
 10
3.921305555555553
 20
3.481540189826672
 30
0.0
  0
VERTEX
  5
5E
330
55
100
AcDbEntity
  8
Wood
370
     0
100
AcDbVertex
100
AcDb2dVertex
 10
3.921305555555553
 20
5.804769297803634
 30
0.0
  0
VERTEX
  5
5F
330
55
100
AcDbEntity
  8
Wood
370
     0
100
AcDbVertex
100
AcDb2dVertex
 10
4.696777777777773
 20
6.142842900374287
 30
0.0
  0
VERTEX
  5
60
330
55
100
AcDbEntity
  8
Wood
370
     0
100
AcDbVertex
100
AcDb2dVertex
 10
5.057888888888884
 20
6.043897069540535
 30
0.0
  0
VERTEX
  5
61
330
55
100
AcDbEntity
  8
Wood
370
     0
100
AcDbVertex
100
AcDb2dVertex
 10
5.056463761151867
 20
5.516479027308681
 30
0.0
  0
SEQEND
  5
63
330
55
100
AcDbEntity
  8
Wood
370
     0
  0
HATCH
  5
62
330
1F
100
AcDbEntity
  8
Wood
 62
    43
420
 15510365
100
AcDbHatch
 10
0.0
 20
0.0
 30
0.0
210
0.0
220
0.0
230
1.0
  2
SOLID
 70
     1
 71
     0
 91
        1
 92
        1
 93
       11
 72
     1
 10
5.056463761151867
 20
5.516479027308681
 11
5.059041666666669
 21
3.603326297861208
 72
     1
 10
5.059041666666669
 20
3.603326297861208
 11
4.794623489988731
 21
3.541490188312208
 72
     1
 10
4.794623489988731
 20
3.541490188312208
 11
4.694458333333336
 21
3.557658243459324
 72
     1
 10
4.694458333333336
 20
3.557658243459324
 11
4.642375000000002
 21
3.401624999999992
 72
     1
 10
4.642375000000002
 20
3.401624999999992
 11
4.364392945301713
 21
3.440890190853578
 72
     1
 10
4.364392945301713
 20
3.440890190853578
 11
4.277791666666669
 21
3.420654080253674
 72
     1
 10
4.277791666666669
 20
3.420654080253674
 11
3.921305555555553
 21
3.481540189826672
 72
     1
 10
3.921305555555553
 20
3.481540189826672
 11
3.921305555555553
 21
5.804769297803634
 72
     1
 10
3.921305555555553
 20
5.804769297803634
 11
4.696777777777773
 21
6.142842900374287
 72
     1
 10
4.696777777777773
 20
6.142842900374287
 11
5.057888888888884
 21
6.043897069540535
 72
     1
 10
5.057888888888884
 20
6.043897069540535
 11
5.056463761151867
 21
5.516479027308681
 97
        0
 75
     2
 76
     1
 98
        0
  0
POLYLINE
  5
64
330
1F
100
AcDbEntity
  8
Wood
 62
   250
420
  2301728
370
    35
100
AcDb2dPolyline
 66
     1
 10
0.0
 20
0.0
 30
0.0
  0
VERTEX
  5
65
330
64
100
AcDbEntity
  8
Wood
 62
   250
420
  2301728
370
    35
100
AcDbVertex
100
AcDb2dVertex
 10
5.910223461806305
 20
5.656487357105107
 30
0.0
  0
VERTEX
  5
66
330
64
100
AcDbEntity
  8
Wood
 62
   250
420
  2301728
370
    35
100
AcDbVertex
100
AcDb2dVertex
 10
5.910902777777765
 20
5.591566525411811
 30
0.0
  0
VERTEX
  5
67
330
64
100
AcDbEntity
  8
Wood
 62
   250
420
  2301728
370
    35
100
AcDbVertex
100
AcDb2dVertex
 10
5.600233191859539
 20
5.588854025480335
 30
0.0
  0
VERTEX
  5
68
330
64
100
AcDbEntity
  8
Wood
 62
   250
420
  2301728
370
    35
100
AcDbVertex
100
AcDb2dVertex
 10
5.60002902519803
 20
5.538655415637347
 30
0.0
  0
VERTEX
  5
69
330
64
100
AcDbEntity
  8
Wood
 62
   250
420
  2301728
370
    35
100
AcDbVertex
100
AcDb2dVertex
 10
5.347236111111114
 20
5.442626251396582
 30
0.0
  0
VERTEX
  5
6A
330
64
100
AcDbEntity
  8
Wood
 62
   250
420
  2301728
370
    35
100
AcDbVertex
100
AcDb2dVertex
 10
5.056463761151867
 20
5.516479027308681
 30
0.0
  0
VERTEX
  5
6B
330
64
100
AcDbEntity
  8
Wood
 62
   250
420
  2301728
370
    35
100
AcDbVertex
100
AcDb2dVertex
 10
5.059041666666669
 20
3.603326297861208
 30
0.0
  0
VERTEX
  5
6C
330
64
100
AcDbEntity
  8
Wood
 62
   250
420
  2301728
370
    35
100
AcDbVertex
100
AcDb2dVertex
 10
4.794623489988731
 20
3.541490188312208
 30
0.0
  0
VERTEX
  5
6D
330
64
100
AcDbEntity
  8
Wood
 62
   250
420
  2301728
370
    35
100
AcDbVertex
100
AcDb2dVertex
 10
4.694458333333336
 20
3.557658243459324
 30
0.0
  0
VERTEX
  5
6E
330
64
100
AcDbEntity
  8
Wood
 62
   250
420
  2301728
370
    35
100
AcDbVertex
100
AcDb2dVertex
 10
4.642375000000002
 20
3.401624999999992
 30
0.0
  0
VERTEX
  5
6F
330
64
100
AcDbEntity
  8
Wood
 62
   250
420
  2301728
370
    35
100
AcDbVertex
100
AcDb2dVertex
 10
4.364392945301713
 20
3.440890190853578
 30
0.0
  0
VERTEX
  5
70
330
64
100
AcDbEntity
  8
Wood
 62
   250
420
  2301728
370
    35
100
AcDbVertex
100
AcDb2dVertex
 10
4.277791666666669
 20
3.420654080253674
 30
0.0
  0
VERTEX
  5
71
330
64
100
AcDbEntity
  8
Wood
 62
   250
420
  2301728
370
    35
100
AcDbVertex
100
AcDb2dVertex
 10
3.921305555555553
 20
3.481540189826672
 30
0.0
  0
VERTEX
  5
72
330
64
100
AcDbEntity
  8
Wood
 62
   250
420
  2301728
370
    35
100
AcDbVertex
100
AcDb2dVertex
 10
3.921305555555553
 20
5.804769297803634
 30
0.0
  0
VERTEX
  5
73
330
64
100
AcDbEntity
  8
Wood
 62
   250
420
  2301728
370
    35
100
AcDbVertex
100
AcDb2dVertex
 10
2.768527777777775
 20
6.097160957083866
 30
0.0
  0
VERTEX
  5
74
330
64
100
AcDbEntity
  8
Wood
 62
   250
420
  2301728
370
    35
100
AcDbVertex
100
AcDb2dVertex
 10
2.768527777777775
 20
6.518316502000137
 30
0.0
  0
VERTEX
  5
75
330
64
100
AcDbEntity
  8
Wood
 62
   250
420
  2301728
370
    35
100
AcDbVertex
100
AcDb2dVertex
 10
2.976616591471005
 20
6.625277777777783
 30
0.0
  0
VERTEX
  5
76
330
64
100
AcDbEntity
  8
Wood
 62
   250
420
  2301728
370
    35
100
AcDbVertex
100
AcDb2dVertex
 10
2.97631798036745
 20
6.688626219919974
 30
0.0
  0
VERTEX
  5
77
330
64
100
AcDbEntity
  8
Wood
 62
   250
420
  2301728
370
    35
100
AcDbVertex
100
AcDb2dVertex
 10
3.247111111111116
 20
6.699862330747237
 30
0.0
  0
VERTEX
  5
78
330
64
100
AcDbEntity
  8
Wood
 62
   250
420
  2301728
370
    35
100
AcDbVertex
100
AcDb2dVertex
 10
3.246636029094184
 20
6.764098440235607
 30
0.0
  0
VERTEX
  5
79
330
64
100
AcDbEntity
  8
Wood
 62
   250
420
  2301728
370
    35
100
AcDbVertex
100
AcDb2dVertex
 10
3.518663799999962
 20
6.90393055555555
 30
0.0
  0
VERTEX
  5
7A
330
64
100
AcDbEntity
  8
Wood
 62
   250
420
  2301728
370
    35
100
AcDbVertex
100
AcDb2dVertex
 10
6.162055555555551
 20
6.147908178024105
 30
0.0
  0
VERTEX
  5
7B
330
64
100
AcDbEntity
  8
Wood
 62
   250
420
  2301728
370
    35
100
AcDbVertex
100
AcDb2dVertex
 10
6.162055555555551
 20
5.752142910244199
 30
0.0
  0
VERTEX
  5
7C
330
64
100
AcDbEntity
  8
Wood
 62
   250
420
  2301728
370
    35
100
AcDbVertex
100
AcDb2dVertex
 10
5.910223461806305
 20
5.656487357105107
 30
0.0
  0
SEQEND
  5
7D
330
64
100
AcDbEntity
  8
Wood
 62
   250
420
  2301728
370
    35
  0
POLYLINE
  5
7E
330
1F
100
AcDbEntity
  8
Wood
 62
   250
420
  2301728
370
    35
100
AcDb2dPolyline
 66
     1
 10
0.0
 20
0.0
 30
0.0
  0
VERTEX
  5
7F
330
7E
100
AcDbEntity
  8
Wood
 62
   250
420
  2301728
370
    35
100
AcDbVertex
100
AcDb2dVertex
 10
5.922444444444434
 20
5.661105412544
 30
0.0
  0
VERTEX
  5
80
330
7E
100
AcDbEntity
  8
Wood
 62
   250
420
  2301728
370
    35
100
AcDbVertex
100
AcDb2dVertex
 10
5.858316518673139
 20
5.637519302028724
 30
0.0
  0
SEQEND
  5
81
330
7E
100
AcDbEntity
  8
Wood
 62
   250
420
  2301728
370
    35
  0
POLYLINE
  5
82
330
1F
100
AcDbEntity
  8
Wood
 62
   250
420
  2301728
370
    35
100
AcDb2dPolyline
 66
     1
 10
0.0
 20
0.0
 30
0.0
  0
VERTEX
  5
83
330
82
100
AcDbEntity
  8
Wood
 62
   250
420
  2301728
370
    35
100
AcDbVertex
100
AcDb2dVertex
 10
5.610106802721222
 20
5.588854025480335
 30
0.0
  0
VERTEX
  5
84
330
82
100
AcDbEntity
  8
Wood
 62
   250
420
  2301728
370
    35
100
AcDbVertex
100
AcDb2dVertex
 10
5.532660971344336
 20
5.587951247725363
 30
0.0
  0
SEQEND
  5
85
330
82
100
AcDbEntity
  8
Wood
 62
   250
420
  2301728
370
    35
  0
POLYLINE
  5
86
330
1F
100
AcDbEntity
  8
Wood
 62
   250
420
  2301728
370
    35
100
AcDb2dPolyline
 66
     1
 10
0.0
 20
0.0
 30
0.0
  0
VERTEX
  5
87
330
86
100
AcDbEntity
  8
Wood
 62
   250
420
  2301728
370
    35
100
AcDbVertex
100
AcDb2dVertex
 10
5.056736111111099
 20
6.046434569476433
 30
0.0
  0
VERTEX
  5
88
330
86
100
AcDbEntity
  8
Wood
 62
   250
420
  2301728
370
    35
100
AcDbVertex
100
AcDb2dVertex
 10
5.056736111111099
 20
5.516201249537921
 30
0.0
  0
SEQEND
  5
89
330
86
100
AcDbEntity
  8
Wood
 62
   250
420
  2301728
370
    35
  0
POLYLINE
  5
8A
330
1F
100
AcDbEntity
  8
Wood
 62
   250
420
  2301728
370
    35
100
AcDb2dPolyline
 66
     1
 10
0.0
 20
0.0
 30
0.0
  0
VERTEX
  5
8B
330
8A
100
AcDbEntity
  8
Wood
 62
   250
420
  2301728
370
    35
100
AcDbVertex
100
AcDb2dVertex
 10
4.794623489988731
 20
3.541490188312208
 30
0.0
  0
VERTEX
  5
8C
330
8A
100
AcDbEntity
  8
Wood
 62
   250
420
  2301728
370
    35
100
AcDbVertex
100
AcDb2dVertex
 10
4.434041666666669
 20
3.603326297861208
 30
0.0
  0
SEQEND
  5
8D
330
8A
100
AcDbEntity
  8
Wood
 62
   250
420
  2301728
370
    35
  0
POLYLINE
  5
8E
330
1F
100
AcDbEntity
  8
Wood
 62
   250
420
  2301728
370
    35
100
AcDb2dPolyline
 66
     1
 10
0.0
 20
0.0
 30
0.0
  0
VERTEX
  5
8F
330
8E
100
AcDbEntity
  8
Wood
 62
   250
420
  2301728
370
    35
100
AcDbVertex
100
AcDb2dVertex
 10
4.586819444444447
 20
3.409233247208855
 30
0.0
  0
VERTEX
  5
90
330
8E
100
AcDbEntity
  8
Wood
 62
   250
420
  2301728
370
    35
100
AcDbVertex
100
AcDb2dVertex
 10
4.308837391149609
 20
3.448499999999992
 30
0.0
  0
SEQEND
  5
91
330
8E
100
AcDbEntity
  8
Wood
 62
   250
420
  2301728
370
    35
  0
POLYLINE
  5
92
330
1F
100
AcDbEntity
  8
Wood
 62
   250
420
  2301728
370
    30
100
AcDb2dPolyline
 66
     1
 10
0.0
 20
0.0
 30
0.0
  0
VERTEX
  5
93
330
92
100
AcDbEntity
  8
Wood
 62
   250
420
  2301728
370
    30
100
AcDbVertex
100
AcDb2dVertex
 10
3.2493082512489
 20
6.327297062381249
 30
0.0
  0
VERTEX
  5
94
330
92
100
AcDbEntity
  8
Wood
 62
   250
420
  2301728
370
    30
100
AcDbVertex
100
AcDb2dVertex
 10
3.518541666666667
 20
6.457424836871724
 30
0.0
  0
VERTEX
  5
95
330
92
100
AcDbEntity
  8
Wood
 62
   250
420
  2301728
370
    30
100
AcDbVertex
100
AcDb2dVertex
 10
6.162055555555551
 20
5.752142910244199
 30
0.0
  0
SEQEND
  5
96
330
92
100
AcDbEntity
  8
Wood
 62
   250
420
  2301728
370
    30
  0
POLYLINE
  5
97
330
1F
100
AcDbEntity
  8
Wood
 62
   250
420
  2301728
370
    30
100
AcDb2dPolyline
 66
     1
 10
0.0
 20
0.0
 30
0.0
  0
VERTEX
  5
98
330
97
100
AcDbEntity
  8
Wood
 62
   250
420
  2301728
370
    30
100
AcDbVertex
100
AcDb2dVertex
 10
2.773166666666662
 20
6.097174845972404
 30
0.0
  0
VERTEX
  5
99
330
97
100
AcDbEntity
  8
Wood
 62
   250
420
  2301728
370
    30
100
AcDbVertex
100
AcDb2dVertex
 10
3.031263888888891
 20
6.219584565102296
 30
0.0
  0
SEQEND
  5
9A
330
97
100
AcDbEntity
  8
Wood
 62
   250
420
  2301728
370
    30
  0
POLYLINE
  5
9B
330
1F
100
AcDbEntity
  8
Wood
 62
   250
420
  2301728
370
    30
100
AcDb2dPolyline
 66
     1
 10
0.0
 20
0.0
 30
0.0
  0
VERTEX
  5
9C
330
9B
100
AcDbEntity
  8
Wood
 62
   250
420
  2301728
370
    30
100
AcDbVertex
100
AcDb2dVertex
 10
3.518541666666667
 20
6.457424836871724
 30
0.0
  0
VERTEX
  5
9D
330
9B
100
AcDbEntity
  8
Wood
 62
   250
420
  2301728
370
    30
100
AcDbVertex
100
AcDb2dVertex
 10
3.518541666666667
 20
6.90393055555555
 30
0.0
  0
SEQEND
  5
9E
330
9B
100
AcDbEntity
  8
Wood
 62
   250
420
  2301728
370
    30
  0
POLYLINE
  5
9F
330
1F
100
AcDbEntity
  8
Wood
 62
   250
420
  2301728
370
    35
100
AcDb2dPolyline
 66
     1
 10
0.0
 20
0.0
 30
0.0
  0
VERTEX
  5
A0
330
9F
100
AcDbEntity
  8
Wood
 62
   250
420
  2301728
370
    35
100
AcDbVertex
100
AcDb2dVertex
 10
3.02779166666667
 20
6.217679009594879
 30
0.0
  0
VERTEX
  5
A1
330
9F
100
AcDbEntity
  8
Wood
 62
   250
420
  2301728
370
    35
100
AcDbVertex
100
AcDb2dVertex
 10
2.976875
 20
6.278570674723293
 30
0.0
  0
VERTEX
  5
A2
330
9F
100
AcDbEntity
  8
Wood
 62
   250
420
  2301728
370
    35
100
AcDbVertex
100
AcDb2dVertex
 10
2.976875
 20
6.631680555555552
 30
0.0
  0
SEQEND
  5
A3
330
9F
100
AcDbEntity
  8
Wood
 62
   250
420
  2301728
370
    35
  0
POLYLINE
  5
A4
330
1F
100
AcDbEntity
  8
Wood
 62
   250
420
  2301728
370
    35
100
AcDb2dPolyline
 66
     1
 10
0.0
 20
0.0
 30
0.0
  0
VERTEX
  5
A5
330
A4
100
AcDbEntity
  8
Wood
 62
   250
420
  2301728
370
    35
100
AcDbVertex
100
AcDb2dVertex
 10
3.314250000000003
 20
6.28427484124586
 30
0.0
  0
VERTEX
  5
A6
330
A4
100
AcDbEntity
  8
Wood
 62
   250
420
  2301728
370
    35
100
AcDbVertex
100
AcDb2dVertex
 10
3.247097222222224
 20
6.328037340140327
 30
0.0
  0
VERTEX
  5
A7
330
A4
100
AcDbEntity
  8
Wood
 62
   250
420
  2301728
370
    35
100
AcDbVertex
100
AcDb2dVertex
 10
3.247097222222224
 20
6.703870663979311
 30
0.0
  0
SEQEND
  5
A8
330
A4
100
AcDbEntity
  8
Wood
 62
   250
420
  2301728
370
    35
  0
SPLINE
  5
A9
330
1F
100
AcDbEntity
  8
Wood
 62
   250
420
  2301728
370
    30
100
AcDbSpline
210
0.0
220
0.0
230
1.0
 70
     8
 71
     3
 72
     8
 73
     4
 74
     0
 42
0.0000000001
 43
0.0000000001
 12
1.0
 22
0.0
 32
0.0
 13
1.0
 23
0.0
 33
0.0
 40
0.0
 40
0.0
 40
0.0
 40
0.0
 40
1.0
 40
1.0
 40
1.0
 40
1.0
 10
2.976875
 20
6.278570674723293
 30
0.0
 10
2.989284646706538
 20
6.275431785913699
 30
0.0
 10
2.996567979855879
 20
6.276760952546788
 30
0.0
 10
3.319458333333336
 20
6.282369285738443
 30
0.0
  0
POLYLINE
  5
AA
330
1F
100
AcDbEntity
  8
Wood
 62
   250
420
  2301728
370
    18
100
AcDb2dPolyline
 66
     1
 10
0.0
 20
0.0
 30
0.0
  0
VERTEX
  5
AB
330
AA
100
AcDbEntity
  8
Wood
 62
   250
420
  2301728
370
    18
100
AcDbVertex
100
AcDb2dVertex
 10
2.766208333333338
 20
6.13269012285299
 30
0.0
  0
VERTEX
  5
AC
330
AA
100
AcDbEntity
  8
Wood
 62
   250
420
  2301728
370
    18
100
AcDbVertex
100
AcDb2dVertex
 10
2.86343055555556
 20
6.140299844882975
 30
0.0
  0
SEQEND
  5
AD
330
AA
100
AcDbEntity
  8
Wood
 62
   250
420
  2301728
370
    18
  0
POLYLINE
  5
AE
330
1F
100
AcDbEntity
  8
Wood
 62
   250
420
  2301728
370
    18
100
AcDb2dPolyline
 66
     1
 10
0.0
 20
0.0
 30
0.0
  0
VERTEX
  5
AF
330
AE
100
AcDbEntity
  8
Wood
 62
   250
420
  2301728
370
    18
100
AcDbVertex
100
AcDb2dVertex
 10
2.768527777777775
 20
6.198648454520089
 30
0.0
  0
VERTEX
  5
B0
330
AE
100
AcDbEntity
  8
Wood
 62
   250
420
  2301728
370
    18
100
AcDbVertex
100
AcDb2dVertex
 10
3.00231944444445
 20
6.241787342319185
 30
0.0
  0
SEQEND
  5
B1
330
AE
100
AcDbEntity
  8
Wood
 62
   250
420
  2301728
370
    18
  0
POLYLINE
  5
B2
330
1F
100
AcDbEntity
  8
Wood
 62
   250
420
  2301728
370
    18
100
AcDb2dPolyline
 66
     1
 10
0.0
 20
0.0
 30
0.0
  0
VERTEX
  5
B3
330
B2
100
AcDbEntity
  8
Wood
 62
   250
420
  2301728
370
    18
100
AcDbVertex
100
AcDb2dVertex
 10
2.770847222222225
 20
6.287448452276799
 30
0.0
  0
VERTEX
  5
B4
330
B2
100
AcDbEntity
  8
Wood
 62
   250
420
  2301728
370
    18
100
AcDbVertex
100
AcDb2dVertex
 10
2.972236111111114
 20
6.317884562619029
 30
0.0
  0
SEQEND
  5
B5
330
B2
100
AcDbEntity
  8
Wood
 62
   250
420
  2301728
370
    18
  0
POLYLINE
  5
B6
330
1F
100
AcDbEntity
  8
Wood
 62
   250
420
  2301728
370
    18
100
AcDb2dPolyline
 66
     1
 10
0.0
 20
0.0
 30
0.0
  0
VERTEX
  5
B7
330
B6
100
AcDbEntity
  8
Wood
 62
   250
420
  2301728
370
    18
100
AcDbVertex
100
AcDb2dVertex
 10
2.773152777777783
 20
6.358486111111106
 30
0.0
  0
VERTEX
  5
B8
330
B6
100
AcDbEntity
  8
Wood
 62
   250
420
  2301728
370
    18
100
AcDbVertex
100
AcDb2dVertex
 10
2.851861111111109
 20
6.378269283315805
 30
0.0
  0
VERTEX
  5
B9
330
B6
100
AcDbEntity
  8
Wood
 62
   250
420
  2301728
370
    18
100
AcDbVertex
100
AcDb2dVertex
 10
2.976861111111109
 20
6.383849838730384
 30
0.0
  0
SEQEND
  5
BA
330
B6
100
AcDbEntity
  8
Wood
 62
   250
420
  2301728
370
    18
  0
POLYLINE
  5
BB
330
1F
100
AcDbEntity
  8
Wood
 62
   250
420
  2301728
370
    18
100
AcDb2dPolyline
 66
     1
 10
0.0
 20
0.0
 30
0.0
  0
VERTEX
  5
BC
330
BB
100
AcDbEntity
  8
Wood
 62
   250
420
  2301728
370
    18
100
AcDbVertex
100
AcDb2dVertex
 10
2.773152777777783
 20
6.406690115931168
 30
0.0
  0
VERTEX
  5
BD
330
BB
100
AcDbEntity
  8
Wood
 62
   250
420
  2301728
370
    18
100
AcDbVertex
100
AcDb2dVertex
 10
2.881958333333336
 20
6.434590115226355
 30
0.0
  0
VERTEX
  5
BE
330
BB
100
AcDbEntity
  8
Wood
 62
   250
420
  2301728
370
    18
100
AcDbVertex
100
AcDb2dVertex
 10
2.976861111111109
 20
6.444742892747652
 30
0.0
  0
SEQEND
  5
BF
330
BB
100
AcDbEntity
  8
Wood
 62
   250
420
  2301728
370
    18
  0
POLYLINE
  5
C0
330
1F
100
AcDbEntity
  8
Wood
 62
   250
420
  2301728
370
    18
100
AcDb2dPolyline
 66
     1
 10
0.0
 20
0.0
 30
0.0
  0
VERTEX
  5
C1
330
C0
100
AcDbEntity
  8
Wood
 62
   250
420
  2301728
370
    18
100
AcDbVertex
100
AcDb2dVertex
 10
2.770847222222225
 20
6.444742892747652
 30
0.0
  0
VERTEX
  5
C2
330
C0
100
AcDbEntity
  8
Wood
 62
   250
420
  2301728
370
    18
100
AcDbVertex
100
AcDb2dVertex
 10
2.881958333333336
 20
6.482801225119551
 30
0.0
  0
VERTEX
  5
C3
330
C0
100
AcDbEntity
  8
Wood
 62
   250
420
  2301728
370
    18
100
AcDbVertex
100
AcDb2dVertex
 10
2.972236111111114
 20
6.500549835782294
 30
0.0
  0
SEQEND
  5
C4
330
C0
100
AcDbEntity
  8
Wood
 62
   250
420
  2301728
370
    18
  0
POLYLINE
  5
C5
330
1F
100
AcDbEntity
  8
Wood
 62
   250
420
  2301728
370
    18
100
AcDb2dPolyline
 66
     1
 10
0.0
 20
0.0
 30
0.0
  0
VERTEX
  5
C6
330
C5
100
AcDbEntity
  8
Wood
 62
   250
420
  2301728
370
    18
100
AcDbVertex
100
AcDb2dVertex
 10
2.768527777777775
 20
6.49294011375231
 30
0.0
  0
VERTEX
  5
C7
330
C5
100
AcDbEntity
  8
Wood
 62
   250
420
  2301728
370
    18
100
AcDbVertex
100
AcDb2dVertex
 10
2.974541666666672
 20
6.556362334372352
 30
0.0
  0
SEQEND
  5
C8
330
C5
100
AcDbEntity
  8
Wood
 62
   250
420
  2301728
370
    18
  0
POLYLINE
  5
C9
330
1F
100
AcDbEntity
  8
Wood
 62
   250
420
  2301728
370
    18
100
AcDb2dPolyline
 66
     1
 10
0.0
 20
0.0
 30
0.0
  0
VERTEX
  5
CA
330
C9
100
AcDbEntity
  8
Wood
 62
   250
420
  2301728
370
    18
100
AcDbVertex
100
AcDb2dVertex
 10
2.979180555555558
 20
6.350870672896841
 30
0.0
  0
VERTEX
  5
CB
330
C9
100
AcDbEntity
  8
Wood
 62
   250
420
  2301728
370
    18
100
AcDbVertex
100
AcDb2dVertex
 10
3.067138888888886
 20
6.340717895375544
 30
0.0
  0
VERTEX
  5
CC
330
C9
100
AcDbEntity
  8
Wood
 62
   250
420
  2301728
370
    18
100
AcDbVertex
100
AcDb2dVertex
 10
3.245375000000005
 20
6.348334561849797
 30
0.0
  0
SEQEND
  5
CD
330
C9
100
AcDbEntity
  8
Wood
 62
   250
420
  2301728
370
    18
  0
SPLINE
  5
CE
330
1F
100
AcDbEntity
  8
Wood
 62
   250
420
  2301728
370
    18
100
AcDbSpline
210
0.0
220
0.0
230
1.0
 70
     8
 71
     3
 72
    11
 73
     7
 74
     0
 42
0.0000000001
 43
0.0000000001
 12
1.0
 22
0.0
 32
0.0
 13
1.0
 23
0.0
 33
0.0
 40
0.0
 40
0.0
 40
0.0
 40
0.0
 40
1.0
 40
1.0
 40
1.0
 40
2.0
 40
2.0
 40
2.0
 40
2.0
 10
2.979180555555558
 20
6.42444567103818
 30
0.0
 10
2.98843055555556
 20
6.42444567103818
 30
0.0
 10
3.141208333333338
 20
6.406690115931168
 30
0.0
 10
3.141208333333338
 20
6.406690115931168
 30
0.0
 10
3.141208333333338
 20
6.406690115931168
 30
0.0
 10
3.247694444444442
 20
6.411763888888887
 30
0.0
 10
3.247694444444442
 20
6.411763888888887
 30
0.0
  0
POLYLINE
  5
CF
330
1F
100
AcDbEntity
  8
Wood
 62
   250
420
  2301728
370
    18
100
AcDb2dPolyline
 66
     1
 10
0.0
 20
0.0
 30
0.0
  0
VERTEX
  5
D0
330
CF
100
AcDbEntity
  8
Wood
 62
   250
420
  2301728
370
    18
100
AcDbVertex
100
AcDb2dVertex
 10
2.974541666666672
 20
6.482801225119551
 30
0.0
  0
VERTEX
  5
D1
330
CF
100
AcDbEntity
  8
Wood
 62
   250
420
  2301728
370
    18
100
AcDbVertex
100
AcDb2dVertex
 10
3.157416666666664
 20
6.465541666666669
 30
0.0
  0
VERTEX
  5
D2
330
CF
100
AcDbEntity
  8
Wood
 62
   250
420
  2301728
370
    18
100
AcDbVertex
100
AcDb2dVertex
 10
3.247694444444442
 20
6.472656780931376
 30
0.0
  0
SEQEND
  5
D3
330
CF
100
AcDbEntity
  8
Wood
 62
   250
420
  2301728
370
    18
  0
POLYLINE
  5
D4
330
1F
100
AcDbEntity
  8
Wood
 62
   250
420
  2301728
370
    18
100
AcDb2dPolyline
 66
     1
 10
0.0
 20
0.0
 30
0.0
  0
VERTEX
  5
D5
330
D4
100
AcDbEntity
  8
Wood
 62
   250
420
  2301728
370
    18
100
AcDbVertex
100
AcDb2dVertex
 10
2.979180555555558
 20
6.546209556851054
 30
0.0
  0
VERTEX
  5
D6
330
D4
100
AcDbEntity
  8
Wood
 62
   250
420
  2301728
370
    18
100
AcDbVertex
100
AcDb2dVertex
 10
3.081027777777775
 20
6.541151223645506
 30
0.0
  0
VERTEX
  5
D7
330
D4
100
AcDbEntity
  8
Wood
 62
   250
420
  2301728
370
    18
100
AcDbVertex
100
AcDb2dVertex
 10
3.168986111111116
 20
6.515279002076871
 30
0.0
  0
VERTEX
  5
D8
330
D4
100
AcDbEntity
  8
Wood
 62
   250
420
  2301728
370
    18
100
AcDbVertex
100
AcDb2dVertex
 10
3.243069444444447
 20
6.515773446508824
 30
0.0
  0
SEQEND
  5
D9
330
D4
100
AcDbEntity
  8
Wood
 62
   250
420
  2301728
370
    18
  0
SPLINE
  5
DA
330
1F
100
AcDbEntity
  8
Wood
 62
   250
420
  2301728
370
    18
100
AcDbSpline
210
0.0
220
0.0
230
1.0
 70
     8
 71
     3
 72
    11
 73
     7
 74
     0
 42
0.0000000001
 43
0.0000000001
 12
1.0
 22
0.0
 32
0.0
 13
1.0
 23
0.0
 33
0.0
 40
0.0
 40
0.0
 40
0.0
 40
0.0
 40
1.0
 40
1.0
 40
1.0
 40
2.0
 40
2.0
 40
2.0
 40
2.0
 10
2.979180555555558
 20
6.607102610868322
 30
0.0
 10
2.993069444444447
 20
6.607102610868322
 30
0.0
 10
3.166680555555558
 20
6.591877611252938
 30
0.0
 10
3.166680555555558
 20
6.591877611252938
 30
0.0
 10
3.166680555555558
 20
6.591877611252938
 30
0.0
 10
3.243069444444447
 20
6.599501222171461
 30
0.0
 10
3.243069444444447
 20
6.599501222171461
 30
0.0
  0
SPLINE
  5
DB
330
1F
100
AcDbEntity
  8
Wood
 62
   250
420
  2301728
370
    18
100
AcDbSpline
210
0.0
220
0.0
230
1.0
 70
     8
 71
     3
 72
    11
 73
     7
 74
     0
 42
0.0000000001
 43
0.0000000001
 12
1.0
 22
0.0
 32
0.0
 13
1.0
 23
0.0
 33
0.0
 40
0.0
 40
0.0
 40
0.0
 40
0.0
 40
1.0
 40
1.0
 40
1.0
 40
2.0
 40
2.0
 40
2.0
 40
2.0
 10
2.976861111111109
 20
6.662923442791502
 30
0.0
 10
2.983805555555553
 20
6.662923442791502
 30
0.0
 10
3.08797222222222
 20
6.660373442855921
 30
0.0
 10
3.08797222222222
 20
6.660373442855921
 30
0.0
 10
3.08797222222222
 20
6.660373442855921
 30
0.0
 10
3.243069444444447
 20
6.637545665654821
 30
0.0
 10
3.243069444444447
 20
6.637545665654821
 30
0.0
  0
SPLINE
  5
DC
330
1F
100
AcDbEntity
  8
Wood
 62
   250
420
  2301728
370
    18
100
AcDbSpline
210
0.0
220
0.0
230
1.0
 70
     8
 71
     3
 72
    11
 73
     7
 74
     0
 42
0.0000000001
 43
0.0000000001
 12
1.0
 22
0.0
 32
0.0
 13
1.0
 23
0.0
 33
0.0
 40
0.0
 40
0.0
 40
0.0
 40
0.0
 40
1.0
 40
1.0
 40
1.0
 40
2.0
 40
2.0
 40
2.0
 40
2.0
 10
3.247694444444442
 20
6.391472222222218
 30
0.0
 10
3.256958333333336
 20
6.391472222222218
 30
0.0
 10
3.377319444444449
 20
6.411763888888887
 30
0.0
 10
3.377319444444449
 20
6.411763888888887
 30
0.0
 10
3.377319444444449
 20
6.411763888888887
 30
0.0
 10
3.502319444444449
 20
6.452358170333051
 30
0.0
 10
3.502319444444449
 20
6.452358170333051
 30
0.0
  0
SPLINE
  5
DD
330
1F
100
AcDbEntity
  8
Wood
 62
   250
420
  2301728
370
    18
100
AcDbSpline
210
0.0
220
0.0
230
1.0
 70
     8
 71
     3
 72
     8
 73
     4
 74
     0
 42
0.0000000001
 43
0.0000000001
 12
1.0
 22
0.0
 32
0.0
 13
1.0
 23
0.0
 33
0.0
 40
0.0
 40
0.0
 40
0.0
 40
0.0
 40
1.0
 40
1.0
 40
1.0
 40
1.0
 10
3.252319444444449
 20
6.452358170333051
 30
0.0
 10
3.252319444444449
 20
6.452358170333051
 30
0.0
 10
3.509263888888894
 20
6.510701224414738
 30
0.0
 10
3.516208333333338
 20
6.510701224414738
 30
0.0
  0
POLYLINE
  5
DE
330
1F
100
AcDbEntity
  8
Wood
 62
   250
420
  2301728
370
    18
100
AcDb2dPolyline
 66
     1
 10
0.0
 20
0.0
 30
0.0
  0
VERTEX
  5
DF
330
DE
100
AcDbEntity
  8
Wood
 62
   250
420
  2301728
370
    18
100
AcDbVertex
100
AcDb2dVertex
 10
3.250013888888891
 20
6.523383168538809
 30
0.0
  0
VERTEX
  5
E0
330
DE
100
AcDbEntity
  8
Wood
 62
   250
420
  2301728
370
    18
100
AcDbVertex
100
AcDb2dVertex
 10
3.365749999999998
 20
6.530998446124208
 30
0.0
  0
VERTEX
  5
E1
330
DE
100
AcDbEntity
  8
Wood
 62
   250
420
  2301728
370
    18
100
AcDbVertex
100
AcDb2dVertex
 10
3.518527777777775
 20
6.566522056337917
 30
0.0
  0
SEQEND
  5
E2
330
DE
100
AcDbEntity
  8
Wood
 62
   250
420
  2301728
370
    18
  0
POLYLINE
  5
E3
330
1F
100
AcDbEntity
  8
Wood
 62
   250
420
  2301728
370
    18
100
AcDb2dPolyline
 66
     1
 10
0.0
 20
0.0
 30
0.0
  0
VERTEX
  5
E4
330
E3
100
AcDbEntity
  8
Wood
 62
   250
420
  2301728
370
    18
100
AcDbVertex
100
AcDb2dVertex
 10
3.250013888888891
 20
6.617255388389619
 30
0.0
  0
VERTEX
  5
E5
330
E3
100
AcDbEntity
  8
Wood
 62
   250
420
  2301728
370
    18
100
AcDbVertex
100
AcDb2dVertex
 10
3.351861111111109
 20
6.622327610483707
 30
0.0
  0
VERTEX
  5
E6
330
E3
100
AcDbEntity
  8
Wood
 62
   250
420
  2301728
370
    18
100
AcDbVertex
100
AcDb2dVertex
 10
3.516208333333338
 20
6.635023443496316
 30
0.0
  0
SEQEND
  5
E7
330
E3
100
AcDbEntity
  8
Wood
 62
   250
420
  2301728
370
    18
  0
POLYLINE
  5
E8
330
1F
100
AcDbEntity
  8
Wood
 62
   250
420
  2301728
370
    18
100
AcDb2dPolyline
 66
     1
 10
0.0
 20
0.0
 30
0.0
  0
VERTEX
  5
E9
330
E8
100
AcDbEntity
  8
Wood
 62
   250
420
  2301728
370
    18
100
AcDbVertex
100
AcDb2dVertex
 10
3.247694444444442
 20
6.667988720441321
 30
0.0
  0
VERTEX
  5
EA
330
E8
100
AcDbEntity
  8
Wood
 62
   250
420
  2301728
370
    18
100
AcDbVertex
100
AcDb2dVertex
 10
3.520847222222225
 20
6.749185940612328
 30
0.0
  0
SEQEND
  5
EB
330
E8
100
AcDbEntity
  8
Wood
 62
   250
420
  2301728
370
    18
  0
POLYLINE
  5
EC
330
1F
100
AcDbEntity
  8
Wood
 62
   250
420
  2301728
370
    18
100
AcDb2dPolyline
 66
     1
 10
0.0
 20
0.0
 30
0.0
  0
VERTEX
  5
ED
330
EC
100
AcDbEntity
  8
Wood
 62
   250
420
  2301728
370
    18
100
AcDbVertex
100
AcDb2dVertex
 10
3.245375000000005
 20
6.749185940612328
 30
0.0
  0
VERTEX
  5
EE
330
EC
100
AcDbEntity
  8
Wood
 62
   250
420
  2301728
370
    18
100
AcDbVertex
100
AcDb2dVertex
 10
3.368069444444447
 20
6.786722222222225
 30
0.0
  0
VERTEX
  5
EF
330
EC
100
AcDbEntity
  8
Wood
 62
   250
420
  2301728
370
    18
100
AcDbVertex
100
AcDb2dVertex
 10
3.516208333333338
 20
6.812601216788102
 30
0.0
  0
SEQEND
  5
F0
330
EC
100
AcDbEntity
  8
Wood
 62
   250
420
  2301728
370
    18
  0
POLYLINE
  5
F1
330
1F
100
AcDbEntity
  8
Wood
 62
   250
420
  2301728
370
    30
100
AcDb2dPolyline
 66
     1
 10
0.0
 20
0.0
 30
0.0
  0
VERTEX
  5
F2
330
F1
100
AcDbEntity
  8
Wood
 62
   250
420
  2301728
370
    30
100
AcDbVertex
100
AcDb2dVertex
 10
4.430569444444447
 20
3.607123519987504
 30
0.0
  0
VERTEX
  5
F3
330
F1
100
AcDbEntity
  8
Wood
 62
   250
420
  2301728
370
    30
100
AcDbVertex
100
AcDb2dVertex
 10
4.694458333333336
 20
3.676892962669424
 30
0.0
  0
VERTEX
  5
F4
330
F1
100
AcDbEntity
  8
Wood
 62
   250
420
  2301728
370
    30
100
AcDbVertex
100
AcDb2dVertex
 10
5.059041666666669
 20
3.603326297861208
 30
0.0
  0
SEQEND
  5
F5
330
F1
100
AcDbEntity
  8
Wood
 62
   250
420
  2301728
370
    30
  0
POLYLINE
  5
F6
330
1F
100
AcDbEntity
  8
Wood
 62
   250
420
  2301728
370
    35
100
AcDb2dPolyline
 66
     1
 10
0.0
 20
0.0
 30
0.0
  0
VERTEX
  5
F7
330
F6
100
AcDbEntity
  8
Wood
 62
   250
420
  2301728
370
    35
100
AcDbVertex
100
AcDb2dVertex
 10
4.371541666666669
 20
3.713677683962386
 30
0.0
  0
VERTEX
  5
F8
330
F6
100
AcDbEntity
  8
Wood
 62
   250
420
  2301728
370
    35
100
AcDbVertex
100
AcDb2dVertex
 10
4.434041666666669
 20
3.599513888888901
 30
0.0
  0
SEQEND
  5
F9
330
F6
100
AcDbEntity
  8
Wood
 62
   250
420
  2301728
370
    35
  0
POLYLINE
  5
FA
330
1F
100
AcDbEntity
  8
Wood
 62
   250
420
  2301728
370
    30
100
AcDb2dPolyline
 66
     1
 10
0.0
 20
0.0
 30
0.0
  0
VERTEX
  5
FB
330
FA
100
AcDbEntity
  8
Wood
 62
   250
420
  2301728
370
    30
100
AcDbVertex
100
AcDb2dVertex
 10
4.302097222222224
 20
3.458699912625889
 30
0.0
  0
VERTEX
  5
FC
330
FA
100
AcDbEntity
  8
Wood
 62
   250
420
  2301728
370
    30
100
AcDbVertex
100
AcDb2dVertex
 10
4.371541666666669
 20
3.713677683962386
 30
0.0
  0
SEQEND
  5
FD
330
FA
100
AcDbEntity
  8
Wood
 62
   250
420
  2301728
370
    30
  0
POLYLINE
  5
FE
330
1F
100
AcDbEntity
  8
Wood
 62
   250
420
  2301728
370
    35
100
AcDb2dPolyline
 66
     1
 10
0.0
 20
0.0
 30
0.0
  0
VERTEX
  5
FF
330
FE
100
AcDbEntity
  8
Wood
 62
   250
420
  2301728
370
    35
100
AcDbVertex
100
AcDb2dVertex
 10
4.232231837529272
 20
3.559747132295443
 30
0.0
  0
VERTEX
  5
100
330
FE
100
AcDbEntity
  8
Wood
 62
   250
420
  2301728
370
    35
100
AcDbVertex
100
AcDb2dVertex
 10
4.309041666666669
 20
3.447292968469608
 30
0.0
  0
SEQEND
  5
101
330
FE
100
AcDbEntity
  8
Wood
 62
   250
420
  2301728
370
    35
  0
POLYLINE
  5
102
330
1F
100
AcDbEntity
  8
Wood
 62
   250
420
  2301728
370
    30
100
AcDb2dPolyline
 66
     1
 10
0.0
 20
0.0
 30
0.0
  0
VERTEX
  5
103
330
102
100
AcDbEntity
  8
Wood
 62
   250
420
  2301728
370
    30
100
AcDbVertex
100
AcDb2dVertex
 10
3.923625000000003
 20
3.481540189826672
 30
0.0
  0
VERTEX
  5
104
330
102
100
AcDbEntity
  8
Wood
 62
   250
420
  2301728
370
    30
100
AcDbVertex
100
AcDb2dVertex
 10
4.232231837529272
 20
3.559747132295443
 30
0.0
  0
SEQEND
  5
105
330
102
100
AcDbEntity
  8
Wood
 62
   250
420
  2301728
370
    30
  0
POLYLINE
  5
106
330
1F
100
AcDbEntity
  8
Wood
 62
   250
420
  2301728
370
    18
100
AcDb2dPolyline
 66
     1
 10
0.0
 20
0.0
 30
0.0
  0
VERTEX
  5
107
330
106
100
AcDbEntity
  8
Wood
 62
   250
420
  2301728
370
    18
100
AcDbVertex
100
AcDb2dVertex
 10
3.979180555555558
 20
3.470133245670392
 30
0.0
  0
VERTEX
  5
108
330
106
100
AcDbEntity
  8
Wood
 62
   250
420
  2301728
370
    18
100
AcDbVertex
100
AcDb2dVertex
 10
4.239597222222224
 20
3.542426299399671
 30
0.0
  0
SEQEND
  5
109
330
106
100
AcDbEntity
  8
Wood
 62
   250
420
  2301728
370
    18
  0
POLYLINE
  5
10A
330
1F
100
AcDbEntity
  8
Wood
 62
   250
420
  2301728
370
    18
100
AcDb2dPolyline
 66
     1
 10
0.0
 20
0.0
 30
0.0
  0
VERTEX
  5
10B
330
10A
100
AcDbEntity
  8
Wood
 62
   250
420
  2301728
370
    18
100
AcDbVertex
100
AcDb2dVertex
 10
4.065986111111114
 20
3.458699912625889
 30
0.0
  0
VERTEX
  5
10C
330
10A
100
AcDbEntity
  8
Wood
 62
   250
420
  2301728
370
    18
100
AcDbVertex
100
AcDb2dVertex
 10
4.260430555555558
 20
3.523409633213406
 30
0.0
  0
SEQEND
  5
10D
330
10A
100
AcDbEntity
  8
Wood
 62
   250
420
  2301728
370
    18
  0
POLYLINE
  5
10E
330
1F
100
AcDbEntity
  8
Wood
 62
   250
420
  2301728
370
    18
100
AcDb2dPolyline
 66
     1
 10
0.0
 20
0.0
 30
0.0
  0
VERTEX
  5
10F
330
10E
100
AcDbEntity
  8
Wood
 62
   250
420
  2301728
370
    18
100
AcDbVertex
100
AcDb2dVertex
 10
4.138902777777781
 20
3.443481857454774
 30
0.0
  0
VERTEX
  5
110
330
10E
100
AcDbEntity
  8
Wood
 62
   250
420
  2301728
370
    18
100
AcDbVertex
100
AcDb2dVertex
 10
4.277791666666669
 20
3.485337411952969
 30
0.0
  0
SEQEND
  5
111
330
10E
100
AcDbEntity
  8
Wood
 62
   250
420
  2301728
370
    18
  0
POLYLINE
  5
112
330
1F
100
AcDbEntity
  8
Wood
 62
   250
420
  2301728
370
    18
100
AcDb2dPolyline
 66
     1
 10
0.0
 20
0.0
 30
0.0
  0
VERTEX
  5
113
330
112
100
AcDbEntity
  8
Wood
 62
   250
420
  2301728
370
    18
100
AcDbVertex
100
AcDb2dVertex
 10
4.225708333333336
 20
3.428276302283343
 30
0.0
  0
VERTEX
  5
114
330
112
100
AcDbEntity
  8
Wood
 62
   250
420
  2301728
370
    18
100
AcDbVertex
100
AcDb2dVertex
 10
4.322930555555558
 20
3.443481857454774
 30
0.0
  0
VERTEX
  5
115
330
112
100
AcDbEntity
  8
Wood
 62
   250
420
  2301728
370
    18
100
AcDbVertex
100
AcDb2dVertex
 10
4.385430555555558
 20
3.687024906857914
 30
0.0
  0
SEQEND
  5
116
330
112
100
AcDbEntity
  8
Wood
 62
   250
420
  2301728
370
    18
  0
POLYLINE
  5
117
330
1F
100
AcDbEntity
  8
Wood
 62
   250
420
  2301728
370
    18
100
AcDb2dPolyline
 66
     1
 10
0.0
 20
0.0
 30
0.0
  0
VERTEX
  5
118
330
117
100
AcDbEntity
  8
Wood
 62
   250
420
  2301728
370
    18
100
AcDbVertex
100
AcDb2dVertex
 10
4.361125000000003
 20
3.447292968469608
 30
0.0
  0
VERTEX
  5
119
330
117
100
AcDbEntity
  8
Wood
 62
   250
420
  2301728
370
    18
100
AcDbVertex
100
AcDb2dVertex
 10
4.409736111111114
 20
3.637559630329734
 30
0.0
  0
SEQEND
  5
11A
330
117
100
AcDbEntity
  8
Wood
 62
   250
420
  2301728
370
    18
  0
POLYLINE
  5
11B
330
1F
100
AcDbEntity
  8
Wood
 62
   250
420
  2301728
370
    18
100
AcDb2dPolyline
 66
     1
 10
0.0
 20
0.0
 30
0.0
  0
VERTEX
  5
11C
330
11B
100
AcDbEntity
  8
Wood
 62
   250
420
  2301728
370
    18
100
AcDbVertex
100
AcDb2dVertex
 10
4.420152777777781
 20
3.432074913298493
 30
0.0
  0
VERTEX
  5
11D
330
11B
100
AcDbEntity
  8
Wood
 62
   250
420
  2301728
370
    18
100
AcDbVertex
100
AcDb2dVertex
 10
4.465291666666669
 20
3.591905464816389
 30
0.0
  0
SEQEND
  5
11E
330
11B
100
AcDbEntity
  8
Wood
 62
   250
420
  2301728
370
    18
  0
POLYLINE
  5
11F
330
1F
100
AcDbEntity
  8
Wood
 62
   250
420
  2301728
370
    18
100
AcDb2dPolyline
 66
     1
 10
0.0
 20
0.0
 30
0.0
  0
VERTEX
  5
120
330
11F
100
AcDbEntity
  8
Wood
 62
   250
420
  2301728
370
    18
100
AcDbVertex
100
AcDb2dVertex
 10
4.472236111111114
 20
3.424465191268508
 30
0.0
  0
VERTEX
  5
121
330
11F
100
AcDbEntity
  8
Wood
 62
   250
420
  2301728
370
    18
100
AcDbVertex
100
AcDb2dVertex
 10
4.513902777777781
 20
3.576673520756736
 30
0.0
  0
SEQEND
  5
122
330
11F
100
AcDbEntity
  8
Wood
 62
   250
420
  2301728
370
    18
  0
POLYLINE
  5
123
330
1F
100
AcDbEntity
  8
Wood
 62
   250
420
  2301728
370
    18
100
AcDb2dPolyline
 66
     1
 10
0.0
 20
0.0
 30
0.0
  0
VERTEX
  5
124
330
123
100
AcDbEntity
  8
Wood
 62
   250
420
  2301728
370
    18
100
AcDbVertex
100
AcDb2dVertex
 10
4.552097222222224
 20
3.413031858224005
 30
0.0
  0
VERTEX
  5
125
330
123
100
AcDbEntity
  8
Wood
 62
   250
420
  2301728
370
    18
100
AcDbVertex
100
AcDb2dVertex
 10
4.593763888888891
 20
3.572862409741902
 30
0.0
  0
SEQEND
  5
126
330
123
100
AcDbEntity
  8
Wood
 62
   250
420
  2301728
370
    18
  0
POLYLINE
  5
127
330
1F
100
AcDbEntity
  8
Wood
 62
   250
420
  2301728
370
    18
100
AcDb2dPolyline
 66
     1
 10
0.0
 20
0.0
 30
0.0
  0
VERTEX
  5
128
330
127
100
AcDbEntity
  8
Wood
 62
   250
420
  2301728
370
    18
100
AcDbVertex
100
AcDb2dVertex
 10
4.607652777777781
 20
3.409233247208855
 30
0.0
  0
VERTEX
  5
129
330
127
100
AcDbEntity
  8
Wood
 62
   250
420
  2301728
370
    18
100
AcDbVertex
100
AcDb2dVertex
 10
4.652791666666669
 20
3.56145546558562
 30
0.0
  0
SEQEND
  5
12A
330
127
100
AcDbEntity
  8
Wood
 62
   250
420
  2301728
370
    18
  0
POLYLINE
  5
12B
330
1F
100
AcDbEntity
  8
Wood
 62
   250
420
  2301728
370
    18
100
AcDb2dPolyline
 66
     1
 10
0.0
 20
0.0
 30
0.0
  0
VERTEX
  5
12C
330
12B
100
AcDbEntity
  8
Wood
 62
   250
420
  2301728
370
    18
100
AcDbVertex
100
AcDb2dVertex
 10
4.493069444444447
 20
3.588094353801555
 30
0.0
  0
VERTEX
  5
12D
330
12B
100
AcDbEntity
  8
Wood
 62
   250
420
  2301728
370
    18
100
AcDbVertex
100
AcDb2dVertex
 10
4.746541666666669
 20
3.656602685404222
 30
0.0
  0
SEQEND
  5
12E
330
12B
100
AcDbEntity
  8
Wood
 62
   250
420
  2301728
370
    18
  0
POLYLINE
  5
12F
330
1F
100
AcDbEntity
  8
Wood
 62
   250
420
  2301728
370
    18
100
AcDb2dPolyline
 66
     1
 10
0.0
 20
0.0
 30
0.0
  0
VERTEX
  5
130
330
12F
100
AcDbEntity
  8
Wood
 62
   250
420
  2301728
370
    18
100
AcDbVertex
100
AcDb2dVertex
 10
4.569458333333336
 20
3.58048463177157
 30
0.0
  0
VERTEX
  5
131
330
12F
100
AcDbEntity
  8
Wood
 62
   250
420
  2301728
370
    18
100
AcDbVertex
100
AcDb2dVertex
 10
4.826402777777781
 20
3.641356852456031
 30
0.0
  0
SEQEND
  5
132
330
12F
100
AcDbEntity
  8
Wood
 62
   250
420
  2301728
370
    18
  0
POLYLINE
  5
133
330
1F
100
AcDbEntity
  8
Wood
 62
   250
420
  2301728
370
    18
100
AcDb2dPolyline
 66
     1
 10
0.0
 20
0.0
 30
0.0
  0
VERTEX
  5
134
330
133
100
AcDbEntity
  8
Wood
 62
   250
420
  2301728
370
    18
100
AcDbVertex
100
AcDb2dVertex
 10
4.670152777777781
 20
3.565266576600455
 30
0.0
  0
VERTEX
  5
135
330
133
100
AcDbEntity
  8
Wood
 62
   250
420
  2301728
370
    18
100
AcDbVertex
100
AcDb2dVertex
 10
4.927097222222224
 20
3.62994990829975
 30
0.0
  0
SEQEND
  5
136
330
133
100
AcDbEntity
  8
Wood
 62
   250
420
  2301728
370
    18
  0
POLYLINE
  5
137
330
1F
100
AcDbEntity
  8
Wood
 62
   250
420
  2301728
370
    18
100
AcDb2dPolyline
 66
     1
 10
0.0
 20
0.0
 30
0.0
  0
VERTEX
  5
138
330
137
100
AcDbEntity
  8
Wood
 62
   250
420
  2301728
370
    18
100
AcDbVertex
100
AcDb2dVertex
 10
4.753486111111114
 20
3.546237410414506
 30
0.0
  0
VERTEX
  5
139
330
137
100
AcDbEntity
  8
Wood
 62
   250
420
  2301728
370
    18
100
AcDbVertex
100
AcDb2dVertex
 10
5.006958333333336
 20
3.610934631002338
 30
0.0
  0
SEQEND
  5
13A
330
137
100
AcDbEntity
  8
Wood
 62
   250
420
  2301728
370
    18
  0
POLYLINE
  5
13B
330
1F
100
AcDbEntity
  8
Wood
 62
   250
420
  2301728
370
    30
100
AcDb2dPolyline
 66
     1
 10
0.0
 20
0.0
 30
0.0
  0
VERTEX
  5
13C
330
13B
100
AcDbEntity
  8
Wood
 62
   250
420
  2301728
370
    30
100
AcDbVertex
100
AcDb2dVertex
 10
3.921305555555553
 20
5.804769297803634
 30
0.0
  0
VERTEX
  5
13D
330
13B
100
AcDbEntity
  8
Wood
 62
   250
420
  2301728
370
    30
100
AcDbVertex
100
AcDb2dVertex
 10
4.694458333333336
 20
6.141574844850766
 30
0.0
  0
SEQEND
  5
13E
330
13B
100
AcDbEntity
  8
Wood
 62
   250
420
  2301728
370
    30
  0
POLYLINE
  5
13F
330
1F
100
AcDbEntity
  8
Wood
 62
   250
420
  2301728
370
    30
100
AcDb2dPolyline
 66
     1
 10
0.0
 20
0.0
 30
0.0
  0
VERTEX
  5
140
330
13F
100
AcDbEntity
  8
Wood
 62
   250
420
  2301728
370
    30
100
AcDbVertex
100
AcDb2dVertex
 10
5.85405818544738
 20
5.639424857536142
 30
0.0
  0
VERTEX
  5
141
330
13F
100
AcDbEntity
  8
Wood
 62
   250
420
  2301728
370
    30
100
AcDbVertex
100
AcDb2dVertex
 10
5.910915128455498
 20
5.5933706920329
 30
0.0
  0
SEQEND
  5
142
330
13F
100
AcDbEntity
  8
Wood
 62
   250
420
  2301728
370
    30
  0
POLYLINE
  5
143
330
1F
100
AcDbEntity
  8
Wood
 62
   250
420
  2301728
370
    30
100
AcDb2dPolyline
 66
     1
 10
0.0
 20
0.0
 30
0.0
  0
VERTEX
  5
144
330
143
100
AcDbEntity
  8
Wood
 62
   250
420
  2301728
370
    30
100
AcDbVertex
100
AcDb2dVertex
 10
5.526869304823978
 20
5.591559580967542
 30
0.0
  0
VERTEX
  5
145
330
143
100
AcDbEntity
  8
Wood
 62
   250
420
  2301728
370
    30
100
AcDbVertex
100
AcDb2dVertex
 10
5.600205414082463
 20
5.537373471225288
 30
0.0
  0
SEQEND
  5
146
330
143
100
AcDbEntity
  8
Wood
 62
   250
420
  2301728
370
    30
  0
POLYLINE
  5
147
330
1F
100
AcDbEntity
  8
Wood
370
     0
100
AcDb2dPolyline
 66
     1
 10
0.0
 20
0.0
 30
0.0
  0
VERTEX
  5
148
330
147
100
AcDbEntity
  8
Wood
370
     0
100
AcDbVertex
100
AcDb2dVertex
 10
4.166897116957545
 20
6.722473441287143
 30
0.0
  0
VERTEX
  5
149
330
147
100
AcDbEntity
  8
Wood
370
     0
100
AcDbVertex
100
AcDb2dVertex
 10
4.022190176168705
 20
6.658969276224727
 30
0.0
  0
VERTEX
  5
14A
330
147
100
AcDbEntity
  8
Wood
370
     0
100
AcDbVertex
100
AcDb2dVertex
 10
4.026244342732954
 20
6.602512333206505
 30
0.0
  0
VERTEX
  5
14B
330
147
100
AcDbEntity
  8
Wood
370
     0
100
AcDbVertex
100
AcDb2dVertex
 10
4.215359615733279
 20
6.541008168093564
 30
0.0
  0
VERTEX
  5
14C
330
147
100
AcDbEntity
  8
Wood
370
     0
100
AcDbVertex
100
AcDb2dVertex
 10
4.215359615733279
 20
6.706848441681863
 30
0.0
  0
VERTEX
  5
14D
330
147
100
AcDbEntity
  8
Wood
370
     0
100
AcDbVertex
100
AcDb2dVertex
 10
4.166897116957545
 20
6.722473441287143
 30
0.0
  0
SEQEND
  5
14F
330
147
100
AcDbEntity
  8
Wood
370
     0
  0
HATCH
  5
14E
330
1F
100
AcDbEntity
  8
Wood
 62
   254
420
 16243643
100
AcDbHatch
 10
0.0
 20
0.0
 30
0.0
210
0.0
220
0.0
230
1.0
  2
SOLID
 70
     1
 71
     0
 91
        1
 92
        1
 93
        5
 72
     1
 10
4.166897116957545
 20
6.722473441287143
 11
4.022190176168705
 21
6.658969276224727
 72
     1
 10
4.022190176168705
 20
6.658969276224727
 11
4.026244342732954
 21
6.602512333206505
 72
     1
 10
4.026244342732954
 20
6.602512333206505
 11
4.215359615733279
 21
6.541008168093564
 72
     1
 10
4.215359615733279
 20
6.541008168093564
 11
4.215359615733279
 21
6.706848441681863
 72
     1
 10
4.215359615733279
 20
6.706848441681863
 11
4.166897116957545
 21
6.722473441287143
 97
        0
 75
     2
 76
     1
 98
        0
  0
POLYLINE
  5
150
330
1F
100
AcDbEntity
  8
Wood
  6
AI-Linetype-1
 62
   250
420
  2301728
370
    30
100
AcDb2dPolyline
 66
     1
 10
0.0
 20
0.0
 30
0.0
  0
VERTEX
  5
151
330
150
100
AcDbEntity
  8
Wood
  6
AI-Linetype-1
 62
   250
420
  2301728
370
    30
100
AcDbVertex
100
AcDb2dVertex
 10
4.165513888888894
 20
6.72474427456311
 30
0.0
  0
VERTEX
  5
152
330
150
100
AcDbEntity
  8
Wood
  6
AI-Linetype-1
 62
   250
420
  2301728
370
    30
100
AcDbVertex
100
AcDb2dVertex
 10
4.020805555555549
 20
6.661241498389548
 30
0.0
  0
VERTEX
  5
153
330
150
100
AcDbEntity
  8
Wood
  6
AI-Linetype-1
 62
   250
420
  2301728
370
    30
100
AcDbVertex
100
AcDb2dVertex
 10
4.026244342732954
 20
6.602512333206505
 30
0.0
  0
VERTEX
  5
154
330
150
100
AcDbEntity
  8
Wood
  6
AI-Linetype-1
 62
   250
420
  2301728
370
    30
100
AcDbVertex
100
AcDb2dVertex
 10
4.213988782434575
 20
6.542019279179132
 30
0.0
  0
VERTEX
  5
155
330
150
100
AcDbEntity
  8
Wood
  6
AI-Linetype-1
 62
   250
420
  2301728
370
    30
100
AcDbVertex
100
AcDb2dVertex
 10
4.213988782434575
 20
6.7091262194021
 30
0.0
  0
VERTEX
  5
156
330
150
100
AcDbEntity
  8
Wood
  6
AI-Linetype-1
 62
   250
420
  2301728
370
    30
100
AcDbVertex
100
AcDb2dVertex
 10
4.165513888888894
 20
6.72474427456311
 30
0.0
  0
SEQEND
  5
158
330
150
100
AcDbEntity
  8
Wood
  6
AI-Linetype-1
 62
   250
420
  2301728
370
    30
  0
INSERT
  5
15A
330
1F
100
AcDbEntity
  8
Wood
100
AcDbBlockReference
  2
block 2
 10
0.0
 20
0.0
 30
0.0
  0
SPLINE
  5
1F7
330
1F
100
AcDbEntity
  8
TSP
370
     0
100
AcDbSpline
210
0.0
220
0.0
230
1.0
 70
    11
 71
     3
 72
    89
 73
    85
 74
     0
 42
0.0000000001
 43
0.0000000001
 12
1.0
 22
0.0
 32
0.0
 13
1.0
 23
0.0
 33
0.0
 40
0.0
 40
0.0
 40
0.0
 40
0.0
 40
1.0
 40
1.0
 40
1.0
 40
2.0
 40
2.0
 40
2.0
 40
3.0
 40
3.0
 40
3.0
 40
4.0
 40
4.0
 40
4.0
 40
5.0
 40
5.0
 40
5.0
 40
6.0
 40
6.0
 40
6.0
 40
7.0
 40
7.0
 40
7.0
 40
8.0
 40
8.0
 40
8.0
 40
9.0
 40
9.0
 40
9.0
 40
10.0
 40
10.0
 40
10.0
 40
11.0
 40
11.0
 40
11.0
 40
12.0
 40
12.0
 40
12.0
 40
13.0
 40
13.0
 40
13.0
 40
14.0
 40
14.0
 40
14.0
 40
15.0
 40
15.0
 40
15.0
 40
16.0
 40
16.0
 40
16.0
 40
17.0
 40
17.0
 40
17.0
 40
18.0
 40
18.0
 40
18.0
 40
19.0
 40
19.0
 40
19.0
 40
20.0
 40
20.0
 40
20.0
 40
21.0
 40
21.0
 40
21.0
 40
22.0
 40
22.0
 40
22.0
 40
23.0
 40
23.0
 40
23.0
 40
24.0
 40
24.0
 40
24.0
 40
25.0
 40
25.0
 40
25.0
 40
26.0
 40
26.0
 40
26.0
 40
27.0
 40
27.0
 40
27.0
 40
28.0
 40
28.0
 40
28.0
 40
28.0
 10
4.659112382300918
 20
4.974256818784144
 30
0.0
 10
4.609944444444434
 20
4.862995710483725
 30
0.0
 10
4.507541666666662
 20
4.620361111111101
 30
0.0
 10
4.507541666666662
 20
4.620361111111101
 30
0.0
 10
4.507541666666662
 20
4.620361111111101
 30
0.0
 10
4.502658219586616
 20
4.521701274661104
 30
0.0
 10
4.502658219586616
 20
4.521701274661104
 30
0.0
 10
4.502658219586616
 20
4.521701274661104
 30
0.0
 10
4.476779053573712
 20
4.475830442486565
 30
0.0
 10
4.476779053573712
 20
4.475830442486565
 30
0.0
 10
4.476779053573712
 20
4.475830442486565
 30
0.0
 10
4.207329060380592
 20
4.401991555463003
 30
0.0
 10
4.207329060380592
 20
4.401991555463003
 30
0.0
 10
4.207329060380592
 20
4.401991555463003
 30
0.0
 10
4.16644989474662
 20
4.408162388640449
 30
0.0
 10
4.16644989474662
 20
4.408162388640449
 30
0.0
 10
4.16644989474662
 20
4.408162388640449
 30
0.0
 10
4.1457512841584
 20
4.426269332627473
 30
0.0
 10
4.1457512841584
 20
4.426269332627473
 30
0.0
 10
4.1457512841584
 20
4.426269332627473
 30
0.0
 10
4.140570728733715
 20
4.533040163263548
 30
0.0
 10
4.140570728733715
 20
4.533040163263548
 30
0.0
 10
4.140570728733715
 20
4.533040163263548
 30
0.0
 10
4.475788775820951
 20
5.361165142343351
 30
0.0
 10
4.475788775820951
 20
5.361165142343351
 30
0.0
 10
4.475788775820951
 20
5.361165142343351
 30
0.0
 10
4.239813781782181
 20
5.789401242636308
 30
0.0
 10
4.239813781782181
 20
5.789401242636308
 30
0.0
 10
4.239813781782181
 20
5.789401242636308
 30
0.0
 10
4.212280449144398
 20
5.824340130642566
 30
0.0
 10
4.212280449144398
 20
5.877387351524703
 30
0.0
 10
4.212280449144398
 20
5.930433183517986
 30
0.0
 10
4.212280449144398
 20
6.7252470523282
 30
0.0
 10
4.212280449144398
 20
6.7252470523282
 30
0.0
 10
4.212280449144398
 20
6.7252470523282
 30
0.0
 10
4.167141561395813
 20
6.739135940866213
 30
0.0
 10
4.167141561395813
 20
6.739135940866213
 30
0.0
 10
4.167141561395813
 20
6.739135940866213
 30
0.0
 10
4.194213782934134
 20
6.750827607237524
 30
0.0
 10
4.215752671278905
 20
6.746080385135226
 30
0.0
 10
4.215752671278905
 20
6.746080385135226
 30
0.0
 10
4.282511002925781
 20
6.727578996713722
 30
0.0
 10
4.282511002925781
 20
6.727578996713722
 30
0.0
 10
4.282511002925781
 20
6.727578996713722
 30
0.0
 10
4.290662391608748
 20
6.734428996540676
 30
0.0
 10
4.310655446659236
 20
6.729885941099887
 30
0.0
 10
4.336127668237976
 20
6.724094274579531
 30
0.0
 10
4.345377668004302
 20
6.709052608292849
 30
0.0
 10
4.345377668004302
 20
6.709052608292849
 30
0.0
 10
4.345377668004302
 20
6.709052608292849
 30
0.0
 10
4.420884610541281
 20
6.688069444444446
 30
0.0
 10
4.420884610541281
 20
6.688069444444446
 30
0.0
 10
4.420884610541281
 20
6.688069444444446
 30
0.0
 10
4.432399888028158
 20
6.697740108578627
 30
0.0
 10
4.452487387520705
 20
6.691976219835346
 30
0.0
 10
4.472560998124714
 20
6.686198442203526
 30
0.0
 10
4.483017942304993
 20
6.670830387036213
 30
0.0
 10
4.483017942304993
 20
6.670830387036213
 30
0.0
 10
4.483017942304993
 20
6.670830387036213
 30
0.0
 10
4.546766551805679
 20
6.653130387483341
 30
0.0
 10
4.546766551805679
 20
6.653130387483341
 30
0.0
 10
4.546766551805679
 20
6.653130387483341
 30
0.0
 10
4.563937384705241
 20
6.659084553999592
 30
0.0
 10
4.578030439904776
 20
6.655558165199787
 30
0.0
 10
4.601169328209127
 20
6.649780387567969
 30
0.0
 10
4.605808216980828
 20
6.637044276778599
 30
0.0
 10
4.605808216980828
 20
6.637044276778599
 30
0.0
 10
4.605808216980828
 20
6.637044276778599
 30
0.0
 10
4.638210993940043
 20
6.627780388123735
 30
0.0
 10
4.638210993940043
 20
6.627780388123735
 30
0.0
 10
4.638210993940043
 20
6.627780388123735
 30
0.0
 10
4.652099882478069
 20
6.610419277451203
 30
0.0
 10
4.652099882478069
 20
6.596530388913177
 30
0.0
 10
4.652099882478069
 20
6.596530388913177
 30
0.0
 10
4.652099882478069
 20
5.817599853035075
 30
0.0
 10
4.652099882478069
 20
5.817599853035075
 30
0.0
 10
4.652099882478069
 20
5.817599853035075
 30
0.0
 10
4.676405437419614
 20
5.759270687841914
 30
0.0
 10
4.676405437419614
 20
5.759270687841914
 30
0.0
 10
4.676405437419614
 20
5.759270687841914
 30
0.0
 10
4.676405437419614
 20
5.090712371397785
 30
0.0
 10
4.676405437419614
 20
5.031195706234636
 30
0.0
 10
4.676405437419614
 20
5.021606817587982
 30
0.0
 10
4.674140159699062
 20
5.008273484591478
 30
0.0
 10
4.659112382300918
 20
4.974256818784144
 30
0.0
  0
HATCH
  5
1F8
330
1F
100
AcDbEntity
  8
TSP
 62
   254
420
 13358815
100
AcDbHatch
 10
0.0
 20
0.0
 30
0.0
210
0.0
220
0.0
230
1.0
  2
SOLID
 70
     1
 71
     0
 91
        1
 92
        1
 93
        1
 72
     4
 94
        3
 73
     0
 74
     1
 95
       89
 96
       85
 40
0.0
 40
0.0
 40
0.0
 40
0.0
 40
1.0
 40
1.0
 40
1.0
 40
2.0
 40
2.0
 40
2.0
 40
3.0
 40
3.0
 40
3.0
 40
4.0
 40
4.0
 40
4.0
 40
5.0
 40
5.0
 40
5.0
 40
6.0
 40
6.0
 40
6.0
 40
7.0
 40
7.0
 40
7.0
 40
8.0
 40
8.0
 40
8.0
 40
9.0
 40
9.0
 40
9.0
 40
10.0
 40
10.0
 40
10.0
 40
11.0
 40
11.0
 40
11.0
 40
12.0
 40
12.0
 40
12.0
 40
13.0
 40
13.0
 40
13.0
 40
14.0
 40
14.0
 40
14.0
 40
15.0
 40
15.0
 40
15.0
 40
16.0
 40
16.0
 40
16.0
 40
17.0
 40
17.0
 40
17.0
 40
18.0
 40
18.0
 40
18.0
 40
19.0
 40
19.0
 40
19.0
 40
20.0
 40
20.0
 40
20.0
 40
21.0
 40
21.0
 40
21.0
 40
22.0
 40
22.0
 40
22.0
 40
23.0
 40
23.0
 40
23.0
 40
24.0
 40
24.0
 40
24.0
 40
25.0
 40
25.0
 40
25.0
 40
26.0
 40
26.0
 40
26.0
 40
27.0
 40
27.0
 40
27.0
 40
28.0
 40
28.0
 40
28.0
 40
28.0
 10
4.659112382300918
 20
4.974256818784144
 10
4.609944444444434
 20
4.862995710483725
 10
4.507541666666662
 20
4.620361111111101
 10
4.507541666666662
 20
4.620361111111101
 10
4.507541666666662
 20
4.620361111111101
 10
4.502658219586616
 20
4.521701274661104
 10
4.502658219586616
 20
4.521701274661104
 10
4.502658219586616
 20
4.521701274661104
 10
4.476779053573712
 20
4.475830442486565
 10
4.476779053573712
 20
4.475830442486565
 10
4.476779053573712
 20
4.475830442486565
 10
4.207329060380592
 20
4.401991555463003
 10
4.207329060380592
 20
4.401991555463003
 10
4.207329060380592
 20
4.401991555463003
 10
4.16644989474662
 20
4.408162388640449
 10
4.16644989474662
 20
4.408162388640449
 10
4.16644989474662
 20
4.408162388640449
 10
4.1457512841584
 20
4.426269332627473
 10
4.1457512841584
 20
4.426269332627473
 10
4.1457512841584
 20
4.426269332627473
 10
4.140570728733715
 20
4.533040163263548
 10
4.140570728733715
 20
4.533040163263548
 10
4.140570728733715
 20
4.533040163263548
 10
4.475788775820951
 20
5.361165142343351
 10
4.475788775820951
 20
5.361165142343351
 10
4.475788775820951
 20
5.361165142343351
 10
4.239813781782181
 20
5.789401242636308
 10
4.239813781782181
 20
5.789401242636308
 10
4.239813781782181
 20
5.789401242636308
 10
4.212280449144398
 20
5.824340130642566
 10
4.212280449144398
 20
5.877387351524703
 10
4.212280449144398
 20
5.930433183517986
 10
4.212280449144398
 20
6.7252470523282
 10
4.212280449144398
 20
6.7252470523282
 10
4.212280449144398
 20
6.7252470523282
 10
4.167141561395813
 20
6.739135940866213
 10
4.167141561395813
 20
6.739135940866213
 10
4.167141561395813
 20
6.739135940866213
 10
4.194213782934134
 20
6.750827607237524
 10
4.215752671278905
 20
6.746080385135226
 10
4.215752671278905
 20
6.746080385135226
 10
4.282511002925781
 20
6.727578996713722
 10
4.282511002925781
 20
6.727578996713722
 10
4.282511002925781
 20
6.727578996713722
 10
4.290662391608748
 20
6.734428996540676
 10
4.310655446659236
 20
6.729885941099887
 10
4.336127668237976
 20
6.724094274579531
 10
4.345377668004302
 20
6.709052608292849
 10
4.345377668004302
 20
6.709052608292849
 10
4.345377668004302
 20
6.709052608292849
 10
4.420884610541281
 20
6.688069444444446
 10
4.420884610541281
 20
6.688069444444446
 10
4.420884610541281
 20
6.688069444444446
 10
4.432399888028158
 20
6.697740108578627
 10
4.452487387520705
 20
6.691976219835346
 10
4.472560998124714
 20
6.686198442203526
 10
4.483017942304993
 20
6.670830387036213
 10
4.483017942304993
 20
6.670830387036213
 10
4.483017942304993
 20
6.670830387036213
 10
4.546766551805679
 20
6.653130387483341
 10
4.546766551805679
 20
6.653130387483341
 10
4.546766551805679
 20
6.653130387483341
 10
4.563937384705241
 20
6.659084553999592
 10
4.578030439904776
 20
6.655558165199787
 10
4.601169328209127
 20
6.649780387567969
 10
4.605808216980828
 20
6.637044276778599
 10
4.605808216980828
 20
6.637044276778599
 10
4.605808216980828
 20
6.637044276778599
 10
4.638210993940043
 20
6.627780388123735
 10
4.638210993940043
 20
6.627780388123735
 10
4.638210993940043
 20
6.627780388123735
 10
4.652099882478069
 20
6.610419277451203
 10
4.652099882478069
 20
6.596530388913177
 10
4.652099882478069
 20
6.596530388913177
 10
4.652099882478069
 20
5.817599853035075
 10
4.652099882478069
 20
5.817599853035075
 10
4.652099882478069
 20
5.817599853035075
 10
4.676405437419614
 20
5.759270687841914
 10
4.676405437419614
 20
5.759270687841914
 10
4.676405437419614
 20
5.759270687841914
 10
4.676405437419614
 20
5.090712371397785
 10
4.676405437419614
 20
5.031195706234636
 10
4.676405437419614
 20
5.021606817587982
 10
4.674140159699062
 20
5.008273484591478
 10
4.659112382300918
 20
4.974256818784144
 97
        0
 97
        0
 75
     2
 76
     1
 98
        0
  0
SPLINE
  5
1F9
330
1F
100
AcDbEntity
  8
TSP
 62
   250
420
  2301728
370
    35
100
AcDbSpline
210
0.0
220
0.0
230
1.0
 70
    11
 71
     3
 72
    89
 73
    85
 74
     0
 42
0.0000000001
 43
0.0000000001
 12
1.0
 22
0.0
 32
0.0
 13
1.0
 23
0.0
 33
0.0
 40
0.0
 40
0.0
 40
0.0
 40
0.0
 40
1.0
 40
1.0
 40
1.0
 40
2.0
 40
2.0
 40
2.0
 40
3.0
 40
3.0
 40
3.0
 40
4.0
 40
4.0
 40
4.0
 40
5.0
 40
5.0
 40
5.0
 40
6.0
 40
6.0
 40
6.0
 40
7.0
 40
7.0
 40
7.0
 40
8.0
 40
8.0
 40
8.0
 40
9.0
 40
9.0
 40
9.0
 40
10.0
 40
10.0
 40
10.0
 40
11.0
 40
11.0
 40
11.0
 40
12.0
 40
12.0
 40
12.0
 40
13.0
 40
13.0
 40
13.0
 40
14.0
 40
14.0
 40
14.0
 40
15.0
 40
15.0
 40
15.0
 40
16.0
 40
16.0
 40
16.0
 40
17.0
 40
17.0
 40
17.0
 40
18.0
 40
18.0
 40
18.0
 40
19.0
 40
19.0
 40
19.0
 40
20.0
 40
20.0
 40
20.0
 40
21.0
 40
21.0
 40
21.0
 40
22.0
 40
22.0
 40
22.0
 40
23.0
 40
23.0
 40
23.0
 40
24.0
 40
24.0
 40
24.0
 40
25.0
 40
25.0
 40
25.0
 40
26.0
 40
26.0
 40
26.0
 40
27.0
 40
27.0
 40
27.0
 40
28.0
 40
28.0
 40
28.0
 40
28.0
 10
4.662815159985156
 20
4.984972222222217
 30
0.0
 10
4.600734605997887
 20
4.842745710995283
 30
0.0
 10
4.506497108378526
 20
4.618760994431391
 30
0.0
 10
4.506497108378526
 20
4.618760994431391
 30
0.0
 10
4.506497108378526
 20
4.618760994431391
 30
0.0
 10
4.501872108495363
 20
4.519680555555547
 30
0.0
 10
4.501872108495363
 20
4.519680555555547
 30
0.0
 10
4.501872108495363
 20
4.519680555555547
 30
0.0
 10
4.473158220331849
 20
4.476169331366893
 30
0.0
 10
4.473158220331849
 20
4.476169331366893
 30
0.0
 10
4.473158220331849
 20
4.476169331366893
 30
0.0
 10
4.207356838157668
 20
4.401542944363225
 30
0.0
 10
4.207356838157668
 20
4.401542944363225
 30
0.0
 10
4.207356838157668
 20
4.401542944363225
 30
0.0
 10
4.166856839180784
 20
4.407715166429524
 30
0.0
 10
4.166856839180784
 20
4.407715166429524
 30
0.0
 10
4.166856839180784
 20
4.407715166429524
 30
0.0
 10
4.146322117477325
 20
4.4266082215078
 30
0.0
 10
4.146322117477325
 20
4.4266082215078
 30
0.0
 10
4.146322117477325
 20
4.4266082215078
 30
0.0
 10
4.141683228705611
 20
4.535902777777765
 30
0.0
 10
4.141683228705611
 20
4.535902777777765
 30
0.0
 10
4.141683228705611
 20
4.535902777777765
 30
0.0
 10
4.4759526647057
 20
5.361355420116322
 30
0.0
 10
4.4759526647057
 20
5.361355420116322
 30
0.0
 10
4.4759526647057
 20
5.361355420116322
 30
0.0
 10
4.35127777777777
 20
5.591545692079004
 30
0.0
 10
4.259915170163266
 20
5.754598465737723
 30
0.0
 10
4.238674892922063
 20
5.79250679811341
 30
0.0
 10
4.212280449144398
 20
5.825160963955164
 30
0.0
 10
4.212280449144398
 20
5.86515277777778
 30
0.0
 10
4.212280449144398
 20
5.921447072633883
 30
0.0
 10
4.212280449144398
 20
6.723849830141262
 30
0.0
 10
4.212280449144398
 20
6.723849830141262
 30
0.0
 10
4.212280449144398
 20
6.723849830141262
 30
0.0
 10
4.167141561395813
 20
6.7363553853809
 30
0.0
 10
4.167141561395813
 20
6.7363553853809
 30
0.0
 10
4.167141561395813
 20
6.7363553853809
 30
0.0
 10
4.194213782934134
 20
6.750827607237524
 30
0.0
 10
4.215752671278905
 20
6.746080385135226
 30
0.0
 10
4.215752671278905
 20
6.746080385135226
 30
0.0
 10
4.282511002925781
 20
6.727578996713722
 30
0.0
 10
4.282511002925781
 20
6.727578996713722
 30
0.0
 10
4.282511002925781
 20
6.727578996713722
 30
0.0
 10
4.290662391608748
 20
6.734428996540676
 30
0.0
 10
4.310655446659236
 20
6.729885941099887
 30
0.0
 10
4.336127668237976
 20
6.724094274579531
 30
0.0
 10
4.345377668004302
 20
6.709052608292849
 30
0.0
 10
4.345377668004302
 20
6.709052608292849
 30
0.0
 10
4.345377668004302
 20
6.709052608292849
 30
0.0
 10
4.420748499433608
 20
6.687486111111108
 30
0.0
 10
4.420748499433608
 20
6.687486111111108
 30
0.0
 10
4.420748499433608
 20
6.687486111111108
 30
0.0
 10
4.436740165696291
 20
6.696140108619046
 30
0.0
 10
4.455362387448076
 20
6.690362330987227
 30
0.0
 10
4.473986111111117
 20
6.684597222222224
 30
0.0
 10
4.483181831189742
 20
6.671508164796856
 30
0.0
 10
4.483181831189742
 20
6.671508164796856
 30
0.0
 10
4.483181831189742
 20
6.671508164796856
 30
0.0
 10
4.546766551805679
 20
6.653130387483341
 30
0.0
 10
4.546766551805679
 20
6.653130387483341
 30
0.0
 10
4.546766551805679
 20
6.653130387483341
 30
0.0
 10
4.563937384705241
 20
6.659084553999592
 30
0.0
 10
4.578030439904776
 20
6.655558165199787
 30
0.0
 10
4.601169328209127
 20
6.649780387567969
 30
0.0
 10
4.605808216980828
 20
6.637044276778599
 30
0.0
 10
4.605808216980828
 20
6.637044276778599
 30
0.0
 10
4.605808216980828
 20
6.637044276778599
 30
0.0
 10
4.638210993940043
 20
6.627780388123735
 30
0.0
 10
4.638210993940043
 20
6.627780388123735
 30
0.0
 10
4.638210993940043
 20
6.627780388123735
 30
0.0
 10
4.652099882478069
 20
6.610419277451203
 30
0.0
 10
4.652099882478069
 20
6.596530388913177
 30
0.0
 10
4.652099882478069
 20
6.596530388913177
 30
0.0
 10
4.652099882478069
 20
5.916876239416019
 30
0.0
 10
4.652099882478069
 20
5.85438318543917
 30
0.0
 10
4.652099882478069
 20
5.791890131462322
 30
0.0
 10
4.676417937419298
 20
5.762729021087883
 30
0.0
 10
4.676417937419298
 20
5.762729021087883
 30
0.0
 10
4.676417937419298
 20
5.762729021087883
 30
0.0
 10
4.676417937419298
 20
5.114705426347225
 30
0.0
 10
4.676417937419298
 20
5.045138888888888
 30
0.0
 10
4.676417937419298
 20
5.02856376185668
 30
0.0
 10
4.67230960418975
 20
5.006713762408658
 30
0.0
 10
4.662815159985156
 20
4.984972222222217
 30
0.0
  0
SPLINE
  5
1FA
330
1F
100
AcDbEntity
  8
TSP
 62
   250
420
  2301728
370
    25
100
AcDbSpline
210
0.0
220
0.0
230
1.0
 70
     8
 71
     3
 72
    23
 73
    19
 74
     0
 42
0.0000000001
 43
0.0000000001
 12
1.0
 22
0.0
 32
0.0
 13
1.0
 23
0.0
 33
0.0
 40
0.0
 40
0.0
 40
0.0
 40
0.0
 40
1.0
 40
1.0
 40
1.0
 40
2.0
 40
2.0
 40
2.0
 40
3.0
 40
3.0
 40
3.0
 40
4.0
 40
4.0
 40
4.0
 40
5.0
 40
5.0
 40
5.0
 40
6.0
 40
6.0
 40
6.0
 40
6.0
 10
4.208808227009891
 20
6.746772051784419
 30
0.0
 10
4.232313781971647
 20
6.748181773971029
 30
0.0
 10
4.23311378195145
 20
6.718302608059174
 30
0.0
 10
4.23311378195145
 20
6.718302608059174
 30
0.0
 10
4.23311378195145
 20
6.718302608059174
 30
0.0
 10
4.23311378195145
 20
5.926323461399584
 30
0.0
 10
4.23311378195145
 20
5.878702629269254
 30
0.0
 10
4.23311378195145
 20
5.836805555555555
 30
0.0
 10
4.245483226083403
 20
5.82282207512536
 30
0.0
 10
4.263319444444442
 20
5.79170679813362
 30
0.0
 10
4.348605445700539
 20
5.643012357445514
 30
0.0
 10
4.607666666666672
 20
5.168077647221152
 30
0.0
 10
4.607666666666672
 20
5.168077647221152
 30
0.0
 10
4.607666666666672
 20
5.168077647221152
 30
0.0
 10
4.654188771314188
 20
5.088216538127502
 30
0.0
 10
4.654188771314188
 20
5.088216538127502
 30
0.0
 10
4.672702659735377
 20
5.065972222222222
 30
0.0
 10
4.675956826319836
 20
5.03125
 30
0.0
 10
4.675956826319836
 20
5.03125
 30
0.0
  0
POLYLINE
  5
1FB
330
1F
100
AcDbEntity
  8
TSP
 62
   250
420
  2301728
370
    25
100
AcDb2dPolyline
 66
     1
 10
0.0
 20
0.0
 30
0.0
  0
VERTEX
  5
1FC
330
1FB
100
AcDbEntity
  8
TSP
 62
   250
420
  2301728
370
    25
100
AcDbVertex
100
AcDb2dVertex
 10
4.451429054214107
 20
4.487155442200471
 30
0.0
  0
VERTEX
  5
1FD
330
1FB
100
AcDbEntity
  8
TSP
 62
   250
420
  2301728
370
    25
100
AcDbVertex
100
AcDb2dVertex
 10
4.473986111111117
 20
4.480210997931459
 30
0.0
  0
SEQEND
  5
1FE
330
1FB
100
AcDbEntity
  8
TSP
 62
   250
420
  2301728
370
    25
  0
POLYLINE
  5
1FF
330
1F
100
AcDbEntity
  8
TSP
 62
   250
420
  2301728
370
    25
100
AcDb2dPolyline
 66
     1
 10
0.0
 20
0.0
 30
0.0
  0
VERTEX
  5
200
330
1FF
100
AcDbEntity
  8
TSP
 62
   250
420
  2301728
370
    25
100
AcDbVertex
100
AcDb2dVertex
 10
4.480930555555561
 20
4.528822107814549
 30
0.0
  0
VERTEX
  5
201
330
1FF
100
AcDbEntity
  8
TSP
 62
   250
420
  2301728
370
    25
100
AcDbVertex
100
AcDb2dVertex
 10
4.500474886308439
 20
4.522460996864134
 30
0.0
  0
SEQEND
  5
202
330
1FF
100
AcDbEntity
  8
TSP
 62
   250
420
  2301728
370
    25
  0
POLYLINE
  5
203
330
1F
100
AcDbEntity
  8
TSP
 62
   250
420
  2301728
370
    25
100
AcDb2dPolyline
 66
     1
 10
0.0
 20
0.0
 30
0.0
  0
VERTEX
  5
204
330
203
100
AcDbEntity
  8
TSP
 62
   250
420
  2301728
370
    25
100
AcDbVertex
100
AcDb2dVertex
 10
4.488226275506753
 20
4.624308216513478
 30
0.0
  0
VERTEX
  5
205
330
203
100
AcDbEntity
  8
TSP
 62
   250
420
  2301728
370
    25
100
AcDbVertex
100
AcDb2dVertex
 10
4.507772108346317
 20
4.617947105563062
 30
0.0
  0
SEQEND
  5
206
330
203
100
AcDbEntity
  8
TSP
 62
   250
420
  2301728
370
    25
  0
INSERT
  5
208
330
1F
100
AcDbEntity
  8
TSP
100
AcDbBlockReference
  2
block 3
 10
0.0
 20
0.0
 30
0.0
  0
INSERT
  5
212
330
1F
100
AcDbEntity
  8
TSP
100
AcDbBlockReference
  2
block 4
 10
0.0
 20
0.0
 30
0.0
  0
INSERT
  5
21C
330
1F
100
AcDbEntity
  8
TSP
100
AcDbBlockReference
  2
block 5
 10
0.0
 20
0.0
 30
0.0
  0
INSERT
  5
226
330
1F
100
AcDbEntity
  8
TSP
100
AcDbBlockReference
  2
block 6
 10
0.0
 20
0.0
 30
0.0
  0
INSERT
  5
22C
330
1F
100
AcDbEntity
  8
TSP
100
AcDbBlockReference
  2
block 7
 10
0.0
 20
0.0
 30
0.0
  0
INSERT
  5
232
330
1F
100
AcDbEntity
  8
TSP
100
AcDbBlockReference
  2
block 8
 10
0.0
 20
0.0
 30
0.0
  0
INSERT
  5
238
330
1F
100
AcDbEntity
  8
TSP
100
AcDbBlockReference
  2
block 9
 10
0.0
 20
0.0
 30
0.0
  0
INSERT
  5
23E
330
1F
100
AcDbEntity
  8
TSP
100
AcDbBlockReference
  2
block 10
 10
0.0
 20
0.0
 30
0.0
  0
INSERT
  5
244
330
1F
100
AcDbEntity
  8
TSP
100
AcDbBlockReference
  2
block 11
 10
0.0
 20
0.0
 30
0.0
  0
INSERT
  5
24A
330
1F
100
AcDbEntity
  8
TSP
100
AcDbBlockReference
  2
block 12
 10
0.0
 20
0.0
 30
0.0
  0
INSERT
  5
250
330
1F
100
AcDbEntity
  8
TSP
100
AcDbBlockReference
  2
block 13
 10
0.0
 20
0.0
 30
0.0
  0
INSERT
  5
256
330
1F
100
AcDbEntity
  8
TSP
100
AcDbBlockReference
  2
block 14
 10
0.0
 20
0.0
 30
0.0
  0
INSERT
  5
25C
330
1F
100
AcDbEntity
  8
TSP
100
AcDbBlockReference
  2
block 15
 10
0.0
 20
0.0
 30
0.0
  0
INSERT
  5
262
330
1F
100
AcDbEntity
  8
TSP
100
AcDbBlockReference
  2
block 16
 10
0.0
 20
0.0
 30
0.0
  0
INSERT
  5
268
330
1F
100
AcDbEntity
  8
TSP
100
AcDbBlockReference
  2
block 17
 10
0.0
 20
0.0
 30
0.0
  0
INSERT
  5
26E
330
1F
100
AcDbEntity
  8
TSP
100
AcDbBlockReference
  2
block 18
 10
0.0
 20
0.0
 30
0.0
  0
INSERT
  5
274
330
1F
100
AcDbEntity
  8
TSP
100
AcDbBlockReference
  2
block 19
 10
0.0
 20
0.0
 30
0.0
  0
INSERT
  5
27C
330
1F
100
AcDbEntity
  8
TSP
100
AcDbBlockReference
  2
block 20
 10
0.0
 20
0.0
 30
0.0
  0
INSERT
  5
284
330
1F
100
AcDbEntity
  8
TSP
100
AcDbBlockReference
  2
block 21
 10
0.0
 20
0.0
 30
0.0
  0
SPLINE
  5
28B
330
1F
100
AcDbEntity
  8
TSP
 62
   250
420
  2301728
370
    25
100
AcDbSpline
210
0.0
220
0.0
230
1.0
 70
     8
 71
     3
 72
    23
 73
    19
 74
     0
 42
0.0000000001
 43
0.0000000001
 12
1.0
 22
0.0
 32
0.0
 13
1.0
 23
0.0
 33
0.0
 40
0.0
 40
0.0
 40
0.0
 40
0.0
 40
1.0
 40
1.0
 40
1.0
 40
2.0
 40
2.0
 40
2.0
 40
3.0
 40
3.0
 40
3.0
 40
4.0
 40
4.0
 40
4.0
 40
5.0
 40
5.0
 40
5.0
 40
6.0
 40
6.0
 40
6.0
 40
6.0
 10
4.477348498003772
 20
5.361355420116322
 30
0.0
 10
4.477348498003772
 20
5.361355420116322
 30
0.0
 10
4.630370716360327
 20
5.089002649218754
 30
0.0
 10
4.642158216062549
 20
5.068291666666659
 30
0.0
 10
4.650404049187576
 20
5.053833333333336
 30
0.0
 10
4.659694444444439
 20
5.036892928312934
 30
0.0
 10
4.645861111111117
 20
5.003947095811882
 30
0.0
 10
4.626166666666677
 20
4.957017930330746
 30
0.0
 10
4.4823262756558
 20
4.623955438744613
 30
0.0
 10
4.4823262756558
 20
4.623955438744613
 30
0.0
 10
4.4823262756558
 20
4.623955438744613
 30
0.0
 10
4.480930555555561
 20
4.529052663364281
 30
0.0
 10
4.480930555555561
 20
4.529052663364281
 30
0.0
 10
4.480930555555561
 20
4.529052663364281
 30
0.0
 10
4.451063776445557
 20
4.48924433103659
 30
0.0
 10
4.451063776445557
 20
4.48924433103659
 30
0.0
 10
4.451063776445557
 20
4.48924433103659
 30
0.0
 10
4.166680555555558
 20
4.410413777472463
 30
0.0
 10
4.166680555555558
 20
4.410413777472463
 30
0.0
  0
INSERT
  5
28D
330
1F
100
AcDbEntity
  8
TSP
100
AcDbBlockReference
  2
block 22
 10
0.0
 20
0.0
 30
0.0
  0
INSERT
  5
294
330
1F
100
AcDbEntity
  8
TSP
100
AcDbBlockReference
  2
block 23
 10
0.0
 20
0.0
 30
0.0
  0
INSERT
  5
29B
330
1F
100
AcDbEntity
  8
TSP
100
AcDbBlockReference
  2
block 24
 10
0.0
 20
0.0
 30
0.0
  0
MTEXT
  5
2A2
330
1F
100
AcDbEntity
  8
callouts
 62
   250
420
  2301728
100
AcDbMText
 10
5.253337065378824
 20
4.722262859344482
 30
0.0
 40
0.118
 41
0.0
 46
0.0
 71
     7
 72
     1
  1
\fHelvetica LT Std Condensed|b0|i0|c0|p34;\W1;Top Plate
 73
     1
 44
1.0
  0
MTEXT
  5
2A3
330
1F
100
AcDbEntity
  8
callouts
 62
   250
420
  2301728
100
AcDbMText
 10
3.147613949245876
 20
4.068290286593967
 30
0.0
 40
0.118
 41
0.0
 46
0.0
 71
     7
 72
     1
  1
\fHelvetica LT Std Condensed|b0|i0|c0|p34;\W1;Stud
 73
     1
 44
1.0
  0
MTEXT
  5
2A4
330
1F
100
AcDbEntity
  8
callouts
 62
   250
420
  2236191
100
AcDbMText
 10
3.689876185523139
 20
2.979833073086209
 30
0.0
 40
0.118
 41
0.0
 46
0.0
 71
     7
 72
     1
  1
\fHelvetica Neue LT Std 55 Roman|b0|i0|c0|p34;\W1;SIMPSON Strong-Tie\H0.068794;®\H0.118; ^C
 73
     1
 44
1.0
  0
MTEXT
  5
2A5
330
1F
100
AcDbEntity
  8
callouts
 62
   250
420
  2236191
100
AcDbMText
 10
3.308996465471056
 20
2.779841211107042
 30
0.0
 40
0.118
 41
0.0
 46
0.0
 71
     7
 72
     1
  1
\fHelvetica Neue LT Std 55 Roman|b0|i0|c0|p34;\W1;TSP Stud-to-Top Plate Tie Down
 73
     1
 44
1.0
  0
MTEXT
  5
2A6
330
1F
100
AcDbEntity
  8
callouts
 62
   250
420
  2236191
100
AcDbMText
 10
3.147615538703071
 20
4.659617106119791
 30
0.0
 40
0.118
 41
0.0
 46
0.0
 71
     7
 72
     1
  1
\fHelvetica Neue LT Std 57 Condensed|b0|i0|c0|p34;\W1;TSP
 73
     1
 44
1.0
  0
POLYLINE
  5
2A7
330
1F
100
AcDbEntity
  8
callouts
 62
   250
420
  2236191
370
    18
100
AcDb2dPolyline
 66
     1
 10
0.0
 20
0.0
 30
0.0
  0
VERTEX
  5
2A8
330
2A7
100
AcDbEntity
  8
callouts
 62
   250
420
  2236191
370
    18
100
AcDbVertex
100
AcDb2dVertex
 10
3.472310310016888
 20
4.752229650206472
 30
0.0
  0
VERTEX
  5
2A9
330
2A7
100
AcDbEntity
  8
callouts
 62
   250
420
  2236191
370
    18
100
AcDbVertex
100
AcDb2dVertex
 10
4.371541666666669
 20
5.537373471225288
 30
0.0
  0
SEQEND
  5
2AA
330
2A7
100
AcDbEntity
  8
callouts
 62
   250
420
  2236191
370
    18
  0
POLYLINE
  5
2AB
330
1F
100
AcDbEntity
  8
callouts
 62
   250
420
  2236191
370
    18
100
AcDb2dPolyline
 66
     1
 10
0.0
 20
0.0
 30
0.0
  0
VERTEX
  5
2AC
330
2AB
100
AcDbEntity
  8
callouts
 62
   250
420
  2236191
370
    18
100
AcDbVertex
100
AcDb2dVertex
 10
3.472310310016888
 20
4.218971631205679
 30
0.0
  0
VERTEX
  5
2AD
330
2AB
100
AcDbEntity
  8
callouts
 62
   250
420
  2236191
370
    18
100
AcDbVertex
100
AcDb2dVertex
 10
3.921925988341779
 20
4.484833823628125
 30
0.0
  0
SEQEND
  5
2AE
330
2AB
100
AcDbEntity
  8
callouts
 62
   250
420
  2236191
370
    18
  0
POLYLINE
  5
2AF
330
1F
100
AcDbEntity
  8
callouts
 62
   250
420
  2236191
370
    18
100
AcDb2dPolyline
 66
     1
 10
0.0
 20
0.0
 30
0.0
  0
VERTEX
  5
2B0
330
2AF
100
AcDbEntity
  8
callouts
 62
   250
420
  2236191
370
    18
100
AcDbVertex
100
AcDb2dVertex
 10
5.479018912529555
 20
4.900561047382249
 30
0.0
  0
VERTEX
  5
2B1
330
2AF
100
AcDbEntity
  8
callouts
 62
   250
420
  2236191
370
    18
100
AcDbVertex
100
AcDb2dVertex
 10
5.311174312844464
 20
5.25683222716331
 30
0.0
  0
SEQEND
  5
2B2
330
2AF
100
AcDbEntity
  8
callouts
 62
   250
420
  2236191
370
    18
  0
ENDSEC
  0
SECTION
  2
OBJECTS
  0
DICTIONARY
  5
C
330
0
100
AcDbDictionary
281
     1
  3
ACAD_GROUP
350
D
  3
ACAD_LAYOUT
350
1A
  3
ACAD_MATERIAL
350
3B
  3
ACAD_MLEADERSTYLE
350
2B4
  3
ACAD_MLINESTYLE
350
17
  3
ACAD_PLOTSETTINGS
350
19
  3
ACAD_PLOTSTYLENAME
350
E
  3
ACAD_TABLESTYLE
350
2B3
  3
ACAD_VISUALSTYLE
350
2A
  0
SUN
  5
3F
330
29
100
AcDbSun
 90
        1
290
     0
 63
     7
421
 16777215
 40
1.0
291
     1
 91
  2455826
 92
 54000000
292
     0
 70
     2
 71
   256
280
     1
  0
DICTIONARY
  5
D
102
{ACAD_REACTORS
330
C
102
}
330
C
100
AcDbDictionary
281
     1
  0
DICTIONARY
  5
1A
102
{ACAD_REACTORS
330
C
102
}
330
C
100
AcDbDictionary
281
     1
  3
Layout1
350
1E
  3
Layout2
350
26
  3
Model
350
22
  0
DICTIONARY
  5
3B
102
{ACAD_REACTORS
330
C
102
}
330
C
100
AcDbDictionary
281
     1
  3
ByBlock
350
3D
  3
ByLayer
350
3C
  3
Global
350
3E
  0
DICTIONARY
  5
2B4
102
{ACAD_REACTORS
330
C
102
}
330
C
100
AcDbDictionary
281
     1
  0
DICTIONARY
  5
17
102
{ACAD_REACTORS
330
C
102
}
330
C
100
AcDbDictionary
281
     1
  3
Standard
350
18
  0
DICTIONARY
  5
19
102
{ACAD_REACTORS
330
C
102
}
330
C
100
AcDbDictionary
281
     1
  0
ACDBDICTIONARYWDFLT
  5
E
102
{ACAD_REACTORS
330
C
102
}
330
C
100
AcDbDictionary
281
     1
  3
Normal
350
F
100
AcDbDictionaryWithDefault
340
F
  0
DICTIONARY
  5
2B3
102
{ACAD_REACTORS
330
C
102
}
330
C
100
AcDbDictionary
281
     1
  0
DICTIONARY
  5
2A
102
{ACAD_REACTORS
330
C
102
}
330
C
100
AcDbDictionary
281
     1
  3
2dWireframe
350
2F
  3
3D Hidden
350
31
  3
3dWireframe
350
30
  3
Basic
350
32
  3
Brighten
350
36
  3
ColorChange
350
3A
  3
Conceptual
350
34
  3
Dim
350
35
  3
Facepattern
350
39
  3
Flat
350
2B
  3
FlatWithEdges
350
2C
  3
Gouraud
350
2D
  3
GouraudWithEdges
350
2E
  3
Linepattern
350
38
  3
Realistic
350
33
  3
Thicken
350
37
  0
LAYOUT
  5
1E
102
{ACAD_REACTORS
330
1A
102
}
330
1A
100
AcDbPlotSettings
  1

  2
none_device
  4

  6

 40
0.0
 41
0.0
 42
0.0
 43
0.0
 44
0.0
 45
0.0
 46
0.0
 47
0.0
 48
0.0
 49
0.0
140
0.0
141
0.0
142
1.0
143
1.0
 70
   688
 72
     0
 73
     0
 74
     5
  7

 75
    16
 76
     0
 77
     2
 78
   300
147
1.0
148
0.0
149
0.0
100
AcDbLayout
  1
Layout1
 70
     1
 71
     1
 10
0.0
 20
0.0
 11
12.0
 21
9.0
 12
0.0
 22
0.0
 32
0.0
 14
1.000000000000000E+20
 24
1.000000000000000E+20
 34
1.000000000000000E+20
 15
-1.000000000000000E+20
 25
-1.000000000000000E+20
 35
-1.000000000000000E+20
146
0.0
 13
0.0
 23
0.0
 33
0.0
 16
1.0
 26
0.0
 36
0.0
 17
0.0
 27
1.0
 37
0.0
 76
     0
330
1B
  0
LAYOUT
  5
26
102
{ACAD_REACTORS
330
1A
102
}
330
1A
100
AcDbPlotSettings
  1

  2
none_device
  4

  6

 40
0.0
 41
0.0
 42
0.0
 43
0.0
 44
0.0
 45
0.0
 46
0.0
 47
0.0
 48
0.0
 49
0.0
140
0.0
141
0.0
142
1.0
143
1.0
 70
   688
 72
     0
 73
     0
 74
     5
  7

 75
    16
 76
     0
 77
     2
 78
   300
147
1.0
148
0.0
149
0.0
100
AcDbLayout
  1
Layout2
 70
     1
 71
     2
 10
0.0
 20
0.0
 11
0.0
 21
0.0
 12
0.0
 22
0.0
 32
0.0
 14
0.0
 24
0.0
 34
0.0
 15
0.0
 25
0.0
 35
0.0
146
0.0
 13
0.0
 23
0.0
 33
0.0
 16
1.0
 26
0.0
 36
0.0
 17
0.0
 27
1.0
 37
0.0
 76
     0
330
23
  0
LAYOUT
  5
22
102
{ACAD_REACTORS
330
1A
102
}
330
1A
100
AcDbPlotSettings
  1

  2
none_device
  4

  6

 40
0.0
 41
0.0
 42
0.0
 43
0.0
 44
0.0
 45
0.0
 46
0.0
 47
0.0
 48
0.0
 49
0.0
140
0.0
141
0.0
142
1.0
143
1.0
 70
  1712
 72
     0
 73
     0
 74
     0
  7

 75
     0
 76
     0
 77
     2
 78
   300
147
1.0
148
0.0
149
0.0
100
AcDbLayout
  1
Model
 70
     1
 71
     0
 10
0.0
 20
0.0
 11
12.0
 21
9.0
 12
0.0
 22
0.0
 32
0.0
 14
1.000000000000000E+20
 24
1.000000000000000E+20
 34
1.000000000000000E+20
 15
-1.000000000000000E+20
 25
-1.000000000000000E+20
 35
-1.000000000000000E+20
146
0.0
 13
0.0
 23
0.0
 33
0.0
 16
1.0
 26
0.0
 36
0.0
 17
0.0
 27
1.0
 37
0.0
 76
     0
330
1F
331
29
  0
MATERIAL
  5
3D
102
{ACAD_REACTORS
330
3B
102
}
330
3B
100
AcDbMaterial
  1
ByBlock
 72
     1
 94
      127
  0
MATERIAL
  5
3C
102
{ACAD_REACTORS
330
3B
102
}
330
3B
100
AcDbMaterial
  1
ByLayer
 72
     1
 94
      127
  0
MATERIAL
  5
3E
102
{ACAD_REACTORS
330
3B
102
}
330
3B
100
AcDbMaterial
  1
Global
 72
     1
 94
      127
  0
MLINESTYLE
  5
18
102
{ACAD_REACTORS
330
17
102
}
330
17
100
AcDbMlineStyle
  2
Standard
 70
     0
  3

 62
   256
 51
90.0
 52
90.0
 71
     2
 49
0.5
 62
   256
  6
BYLAYER
 49
-0.5
 62
   256
  6
BYLAYER
  0
ACDBPLACEHOLDER
  5
F
102
{ACAD_REACTORS
330
E
102
}
330
E
  0
VISUALSTYLE
  5
2F
102
{ACAD_REACTORS
330
2A
102
}
330
2A
100
AcDbVisualStyle
  2
2dWireframe
 70
     4
177
     2
291
     0
 71
     0
176
     1
 72
     2
176
     1
 73
     0
176
     1
 90
        0
176
     1
 40
-0.6
176
     1
 41
-30.0
176
     1
 62
     5
 63
     7
421
 16777215
176
     1
 74
     1
176
     1
 91
        4
176
     1
 64
     7
176
     1
 65
   257
176
     1
 75
     1
176
     1
175
     1
176
     1
 42
1.0
176
     1
 92
        0
176
     1
 66
   257
176
     1
 43
1.0
176
     1
 76
     1
176
     1
 77
     6
176
     1
 78
     2
176
     1
 67
     7
176
     1
 79
     5
176
     1
170
     0
176
     1
171
     0
176
     1
290
     0
176
     1
 93
        1
176
     1
 44
0.0
176
     1
173
     0
176
     1
  0
VISUALSTYLE
  5
31
102
{ACAD_REACTORS
330
2A
102
}
330
2A
100
AcDbVisualStyle
  2
3D Hidden
 70
     6
177
     2
291
     0
 71
     1
176
     1
 72
     2
176
     1
 73
     2
176
     1
 90
        0
176
     1
 40
-0.6
176
     1
 41
-30.0
176
     1
 62
     5
 63
     7
421
 16777215
176
     1
 74
     2
176
     1
 91
        2
176
     1
 64
     7
176
     1
 65
   257
176
     1
 75
     2
176
     1
175
     1
176
     1
 42
40.0
176
     1
 92
        0
176
     1
 66
   257
176
     1
 43
1.0
176
     1
 76
     1
176
     1
 77
     6
176
     1
 78
     2
176
     1
 67
     7
176
     1
 79
     3
176
     1
170
     0
176
     1
171
     0
176
     1
290
     0
176
     1
 93
        1
176
     1
 44
0.0
176
     1
173
     0
176
     1
  0
VISUALSTYLE
  5
30
102
{ACAD_REACTORS
330
2A
102
}
330
2A
100
AcDbVisualStyle
  2
3dWireframe
 70
     5
177
     2
291
     0
 71
     0
176
     1
 72
     2
176
     1
 73
     0
176
     1
 90
        0
176
     1
 40
-0.6
176
     1
 41
-30.0
176
     1
 62
     5
 63
     7
421
 16777215
176
     1
 74
     1
176
     1
 91
        4
176
     1
 64
     7
176
     1
 65
   257
176
     1
 75
     1
176
     1
175
     1
176
     1
 42
1.0
176
     1
 92
        0
176
     1
 66
   257
176
     1
 43
1.0
176
     1
 76
     1
176
     1
 77
     6
176
     1
 78
     2
176
     1
 67
     7
176
     1
 79
     5
176
     1
170
     0
176
     1
171
     0
176
     1
290
     0
176
     1
 93
        1
176
     1
 44
0.0
176
     1
173
     0
176
     1
  0
VISUALSTYLE
  5
32
102
{ACAD_REACTORS
330
2A
102
}
330
2A
100
AcDbVisualStyle
  2
Basic
 70
     7
177
     2
291
     1
 71
     1
176
     1
 72
     0
176
     1
 73
     1
176
     1
 90
        0
176
     1
 40
-0.6
176
     1
 41
-30.0
176
     1
 62
     5
 63
     7
421
 16777215
176
     1
 74
     0
176
     1
 91
        4
176
     1
 64
     7
176
     1
 65
   257
176
     1
 75
     1
176
     1
175
     1
176
     1
 42
1.0
176
     1
 92
        8
176
     1
 66
     7
176
     1
 43
1.0
176
     1
 76
     1
176
     1
 77
     6
176
     1
 78
     2
176
     1
 67
     7
176
     1
 79
     5
176
     1
170
     0
176
     1
171
     0
176
     1
290
     0
176
     1
 93
        1
176
     1
 44
0.0
176
     1
173
     0
176
     1
  0
VISUALSTYLE
  5
36
102
{ACAD_REACTORS
330
2A
102
}
330
2A
100
AcDbVisualStyle
  2
Brighten
 70
    12
177
     2
291
     1
 71
     2
176
     1
 72
     2
176
     1
 73
     0
176
     1
 90
        0
176
     1
 40
-0.6
176
     1
 41
-30.0
176
     1
 62
     5
 63
     7
421
 16777215
176
     1
 74
     1
176
     1
 91
        4
176
     1
 64
     7
176
     1
 65
   257
176
     1
 75
     1
176
     1
175
     1
176
     1
 42
1.0
176
     1
 92
        8
176
     1
 66
     7
176
     1
 43
1.0
176
     1
 76
     1
176
     1
 77
     6
176
     1
 78
     2
176
     1
 67
     7
176
     1
 79
     5
176
     1
170
     0
176
     1
171
     0
176
     1
290
     0
176
     1
 93
        1
176
     1
 44
50.0
176
     1
173
     0
176
     1
  0
VISUALSTYLE
  5
3A
102
{ACAD_REACTORS
330
2A
102
}
330
2A
100
AcDbVisualStyle
  2
ColorChange
 70
    16
177
     2
291
     1
 71
     2
176
     1
 72
     2
176
     1
 73
     3
176
     1
 90
        0
176
     1
 40
-0.6
176
     1
 41
-30.0
176
     1
 62
     5
 63
     8
421
  8421504
176
     1
 74
     1
176
     1
 91
        4
176
     1
 64
     7
176
     1
 65
   257
176
     1
 75
     1
176
     1
175
     1
176
     1
 42
1.0
176
     1
 92
        8
176
     1
 66
     8
424
  8421504
176
     1
 43
1.0
176
     1
 76
     1
176
     1
 77
     6
176
     1
 78
     2
176
     1
 67
     7
176
     1
 79
     5
176
     1
170
     0
176
     1
171
     0
176
     1
290
     0
176
     1
 93
        1
176
     1
 44
0.0
176
     1
173
     0
176
     1
  0
VISUALSTYLE
  5
34
102
{ACAD_REACTORS
330
2A
102
}
330
2A
100
AcDbVisualStyle
  2
Conceptual
 70
     9
177
     2
291
     0
 71
     3
176
     1
 72
     2
176
     1
 73
     0
176
     1
 90
        0
176
     1
 40
-0.6
176
     1
 41
-30.0
176
     1
 62
     5
 63
     7
421
 16777215
176
     1
 74
     2
176
     1
 91
        2
176
     1
 64
     7
176
     1
 65
   257
176
     1
 75
     1
176
     1
175
     1
176
     1
 42
40.0
176
     1
 92
        8
176
     1
 66
     7
176
     1
 43
1.0
176
     1
 76
     1
176
     1
 77
     6
176
     1
 78
     2
176
     1
 67
     7
176
     1
 79
     3
176
     1
170
     0
176
     1
171
     0
176
     1
290
     0
176
     1
 93
        1
176
     1
 44
0.0
176
     1
173
     0
176
     1
  0
VISUALSTYLE
  5
35
102
{ACAD_REACTORS
330
2A
102
}
330
2A
100
AcDbVisualStyle
  2
Dim
 70
    11
177
     2
291
     1
 71
     2
176
     1
 72
     2
176
     1
 73
     0
176
     1
 90
        0
176
     1
 40
-0.6
176
     1
 41
-30.0
176
     1
 62
     5
 63
     7
421
 16777215
176
     1
 74
     1
176
     1
 91
        4
176
     1
 64
     7
176
     1
 65
   257
176
     1
 75
     1
176
     1
175
     1
176
     1
 42
1.0
176
     1
 92
        8
176
     1
 66
     7
176
     1
 43
1.0
176
     1
 76
     1
176
     1
 77
     6
176
     1
 78
     2
176
     1
 67
     7
176
     1
 79
     5
176
     1
170
     0
176
     1
171
     0
176
     1
290
     0
176
     1
 93
        1
176
     1
 44
-50.0
176
     1
173
     0
176
     1
  0
VISUALSTYLE
  5
39
102
{ACAD_REACTORS
330
2A
102
}
330
2A
100
AcDbVisualStyle
  2
Facepattern
 70
    15
177
     2
291
     1
 71
     2
176
     1
 72
     2
176
     1
 73
     0
176
     1
 90
        0
176
     1
 40
-0.6
176
     1
 41
-30.0
176
     1
 62
     5
 63
     7
421
 16777215
176
     1
 74
     1
176
     1
 91
        4
176
     1
 64
     7
176
     1
 65
   257
176
     1
 75
     1
176
     1
175
     1
176
     1
 42
1.0
176
     1
 92
        8
176
     1
 66
     7
176
     1
 43
1.0
176
     1
 76
     1
176
     1
 77
     6
176
     1
 78
     2
176
     1
 67
     7
176
     1
 79
     5
176
     1
170
     0
176
     1
171
     0
176
     1
290
     0
176
     1
 93
        1
176
     1
 44
0.0
176
     1
173
     0
176
     1
  0
VISUALSTYLE
  5
2B
102
{ACAD_REACTORS
330
2A
102
}
330
2A
100
AcDbVisualStyle
  2
Flat
 70
     0
177
     2
291
     1
 71
     2
176
     1
 72
     1
176
     1
 73
     1
176
     1
 90
        2
176
     1
 40
-0.6
176
     1
 41
30.0
176
     1
 62
     5
 63
     7
421
 16777215
176
     1
 74
     0
176
     1
 91
        4
176
     1
 64
     7
176
     1
 65
   257
176
     1
 75
     1
176
     1
175
     1
176
     1
 42
1.0
176
     1
 92
        8
176
     1
 66
     7
176
     1
 43
1.0
176
     1
 76
     1
176
     1
 77
     6
176
     1
 78
     2
176
     1
 67
     7
176
     1
 79
     5
176
     1
170
     0
176
     1
171
     0
176
     1
290
     0
176
     1
 93
       13
176
     1
 44
0.0
176
     1
173
     0
176
     1
  0
VISUALSTYLE
  5
2C
102
{ACAD_REACTORS
330
2A
102
}
330
2A
100
AcDbVisualStyle
  2
FlatWithEdges
 70
     1
177
     2
291
     1
 71
     2
176
     1
 72
     1
176
     1
 73
     1
176
     1
 90
        2
176
     1
 40
-0.6
176
     1
 41
30.0
176
     1
 62
     5
 63
     7
421
 16777215
176
     1
 74
     1
176
     1
 91
        4
176
     1
 64
     7
176
     1
 65
   257
176
     1
 75
     1
176
     1
175
     1
176
     1
 42
1.0
176
     1
 92
        0
176
     1
 66
   257
176
     1
 43
1.0
176
     1
 76
     1
176
     1
 77
     6
176
     1
 78
     2
176
     1
 67
     7
176
     1
 79
     5
176
     1
170
     0
176
     1
171
     0
176
     1
290
     0
176
     1
 93
       13
176
     1
 44
0.0
176
     1
173
     0
176
     1
  0
VISUALSTYLE
  5
2D
102
{ACAD_REACTORS
330
2A
102
}
330
2A
100
AcDbVisualStyle
  2
Gouraud
 70
     2
177
     2
291
     1
 71
     2
176
     1
 72
     2
176
     1
 73
     1
176
     1
 90
        2
176
     1
 40
-0.6
176
     1
 41
30.0
176
     1
 62
     5
 63
     7
421
 16777215
176
     1
 74
     0
176
     1
 91
        4
176
     1
 64
     7
176
     1
 65
   257
176
     1
 75
     1
176
     1
175
     1
176
     1
 42
1.0
176
     1
 92
        0
176
     1
 66
     7
176
     1
 43
1.0
176
     1
 76
     1
176
     1
 77
     6
176
     1
 78
     2
176
     1
 67
     7
176
     1
 79
     5
176
     1
170
     0
176
     1
171
     0
176
     1
290
     0
176
     1
 93
       13
176
     1
 44
0.0
176
     1
173
     0
176
     1
  0
VISUALSTYLE
  5
2E
102
{ACAD_REACTORS
330
2A
102
}
330
2A
100
AcDbVisualStyle
  2
GouraudWithEdges
 70
     3
177
     2
291
     1
 71
     2
176
     1
 72
     2
176
     1
 73
     1
176
     1
 90
        2
176
     1
 40
-0.6
176
     1
 41
30.0
176
     1
 62
     5
 63
     7
421
 16777215
176
     1
 74
     1
176
     1
 91
        4
176
     1
 64
     7
176
     1
 65
   257
176
     1
 75
     1
176
     1
175
     1
176
     1
 42
1.0
176
     1
 92
        0
176
     1
 66
   257
176
     1
 43
1.0
176
     1
 76
     1
176
     1
 77
     6
176
     1
 78
     2
176
     1
 67
     7
176
     1
 79
     5
176
     1
170
     0
176
     1
171
     0
176
     1
290
     0
176
     1
 93
       13
176
     1
 44
0.0
176
     1
173
     0
176
     1
  0
VISUALSTYLE
  5
38
102
{ACAD_REACTORS
330
2A
102
}
330
2A
100
AcDbVisualStyle
  2
Linepattern
 70
    14
177
     2
291
     1
 71
     2
176
     1
 72
     2
176
     1
 73
     0
176
     1
 90
        0
176
     1
 40
-0.6
176
     1
 41
-30.0
176
     1
 62
     5
 63
     7
421
 16777215
176
     1
 74
     1
176
     1
 91
        4
176
     1
 64
     7
176
     1
 65
   257
176
     1
 75
     7
176
     1
175
     7
176
     1
 42
1.0
176
     1
 92
        8
176
     1
 66
     7
176
     1
 43
1.0
176
     1
 76
     1
176
     1
 77
     6
176
     1
 78
     2
176
     1
 67
     7
176
     1
 79
     5
176
     1
170
     0
176
     1
171
     0
176
     1
290
     0
176
     1
 93
        1
176
     1
 44
0.0
176
     1
173
     0
176
     1
  0
VISUALSTYLE
  5
33
102
{ACAD_REACTORS
330
2A
102
}
330
2A
100
AcDbVisualStyle
  2
Realistic
 70
     8
177
     2
291
     0
 71
     2
176
     1
 72
     2
176
     1
 73
     0
176
     1
 90
        0
176
     1
 40
-0.6
176
     1
 41
-30.0
176
     1
 62
     5
 63
     7
421
 16777215
176
     1
 74
     1
176
     1
 91
        0
176
     1
 64
     7
176
     1
 65
   257
176
     1
 75
     1
176
     1
175
     1
176
     1
 42
1.0
176
     1
 92
        8
176
     1
 66
     8
424
  7895160
176
     1
 43
1.0
176
     1
 76
     1
176
     1
 77
     6
176
     1
 78
     2
176
     1
 67
     7
176
     1
 79
     5
176
     1
170
     0
176
     1
171
     0
176
     1
290
     0
176
     1
 93
       13
176
     1
 44
0.0
176
     1
173
     0
176
     1
  0
VISUALSTYLE
  5
37
102
{ACAD_REACTORS
330
2A
102
}
330
2A
100
AcDbVisualStyle
  2
Thicken
 70
    13
177
     2
291
     1
 71
     2
176
     1
 72
     2
176
     1
 73
     0
176
     1
 90
        0
176
     1
 40
-0.6
176
     1
 41
-30.0
176
     1
 62
     5
 63
     7
421
 16777215
176
     1
 74
     1
176
     1
 91
        4
176
     1
 64
     7
176
     1
 65
   257
176
     1
 75
     1
176
     1
175
     1
176
     1
 42
1.0
176
     1
 92
       12
176
     1
 66
     7
176
     1
 43
1.0
176
     1
 76
     1
176
     1
 77
     6
176
     1
 78
     2
176
     1
 67
     7
176
     1
 79
     5
176
     1
170
     0
176
     1
171
     0
176
     1
290
     0
176
     1
 93
        1
176
     1
 44
0.0
176
     1
173
     0
176
     1
  0
ENDSEC
  0
EOF
